  0
SECTION
  2
HEADER
  9
$ACADVER
  1
AC1015
  9
$ACADMAINTVER
 70
    20
  9
$DWGCODEPAGE
  3
ANSI_932
  9
$INSBASE
 10
0.0
 20
0.0
 30
0.0
  9
$EXTMIN
 10
9.9999975266385
 20
10.0
 30
0.0
  9
$EXTMAX
 10
267.9177578559129
 20
214.4817546063775
 30
0.0
  9
$LIMMIN
 10
0.0000015376081137
 20
-0.0000001931532552
  9
$LIMMAX
 10
326.0000015376081
 20
224.7424240492708
  9
$ORTHOMODE
 70
     1
  9
$REGENMODE
 70
     1
  9
$FILLMODE
 70
     1
  9
$QTEXTMODE
 70
     0
  9
$MIRRTEXT
 70
     1
  9
$LTSCALE
 40
0.3
  9
$ATTMODE
 70
     1
  9
$TEXTSIZE
 40
2.5
  9
$TRACEWID
 40
1.0
  9
$TEXTSTYLE
  7
STANDARD
  9
$CLAYER
  8
0
  9
$CELTYPE
  6
BYLAYER
  9
$CECOLOR
 62
   256
  9
$CELTSCALE
 40
1.0
  9
$DISPSILH
 70
     0
  9
$DIMSCALE
 40
1.0
  9
$DIMASZ
 40
3.0
  9
$DIMEXO
 40
1.0
  9
$DIMDLI
 40
10.0
  9
$DIMRND
 40
0.0
  9
$DIMDLE
 40
0.0
  9
$DIMEXE
 40
1.0
  9
$DIMTP
 40
0.0
  9
$DIMTM
 40
0.0
  9
$DIMTXT
 40
3.2
  9
$DIMCEN
 40
0.0
  9
$DIMTSZ
 40
0.0
  9
$DIMTOL
 70
     0
  9
$DIMLIM
 70
     0
  9
$DIMTIH
 70
     0
  9
$DIMTOH
 70
     0
  9
$DIMSE1
 70
     0
  9
$DIMSE2
 70
     0
  9
$DIMTAD
 70
     3
  9
$DIMZIN
 70
     8
  9
$DIMBLK
  1

  9
$DIMASO
 70
     1
  9
$DIMSHO
 70
     1
  9
$DIMPOST
  1

  9
$DIMAPOST
  1

  9
$DIMALT
 70
     0
  9
$DIMALTD
 70
     2
  9
$DIMALTF
 40
25.4
  9
$DIMLFAC
 40
1.0
  9
$DIMTOFL
 70
     1
  9
$DIMTVP
 40
0.0
  9
$DIMTIX
 70
     0
  9
$DIMSOXD
 70
     0
  9
$DIMSAH
 70
     1
  9
$DIMBLK1
  1
OPEN
  9
$DIMBLK2
  1
OPEN
  9
$DIMSTYLE
  2
STANDARD
  9
$DIMCLRD
 70
     0
  9
$DIMCLRE
 70
     0
  9
$DIMCLRT
 70
     0
  9
$DIMTFAC
 40
1.0
  9
$DIMGAP
 40
1.0
  9
$DIMJUST
 70
     0
  9
$DIMSD1
 70
     0
  9
$DIMSD2
 70
     0
  9
$DIMTOLJ
 70
     1
  9
$DIMTZIN
 70
     0
  9
$DIMALTZ
 70
     0
  9
$DIMALTTZ
 70
     0
  9
$DIMUPT
 70
     0
  9
$DIMDEC
 70
     4
  9
$DIMTDEC
 70
     4
  9
$DIMALTU
 70
     2
  9
$DIMALTTD
 70
     2
  9
$DIMTXSTY
  7
STANDARD
  9
$DIMAUNIT
 70
     0
  9
$DIMADEC
 70
     0
  9
$DIMALTRND
 40
0.0
  9
$DIMAZIN
 70
     0
  9
$DIMDSEP
 70
    46
  9
$DIMATFIT
 70
     3
  9
$DIMFRAC
 70
     0
  9
$DIMLDRBLK
  1
OPEN
  9
$DIMLUNIT
 70
     2
  9
$DIMLWD
 70
    -2
  9
$DIMLWE
 70
    -2
  9
$DIMTMOVE
 70
     0
  9
$LUNITS
 70
     2
  9
$LUPREC
 70
     4
  9
$SKETCHINC
 40
1.0
  9
$FILLETRAD
 40
0.0
  9
$AUNITS
 70
     0
  9
$AUPREC
 70
     0
  9
$MENU
  1
.
  9
$ELEVATION
 40
0.0
  9
$PELEVATION
 40
0.0
  9
$THICKNESS
 40
0.0
  9
$LIMCHECK
 70
     0
  9
$CHAMFERA
 40
10.0
  9
$CHAMFERB
 40
10.0
  9
$CHAMFERC
 40
20.0
  9
$CHAMFERD
 40
0.0
  9
$SKPOLY
 70
     0
  9
$TDCREATE
 40
2453010.458999016
  9
$TDUCREATE
 40
2453010.083999016
  9
$TDUPDATE
 40
2457192.701264317
  9
$TDUUPDATE
 40
2457192.326264317
  9
$TDINDWG
 40
0.3034432755
  9
$TDUSRTIMER
 40
0.3034430787
  9
$USRTIMER
 70
     1
  9
$ANGBASE
 50
0.0
  9
$ANGDIR
 70
     0
  9
$PDMODE
 70
     0
  9
$PDSIZE
 40
0.0
  9
$PLINEWID
 40
0.0
  9
$SPLFRAME
 70
     0
  9
$SPLINETYPE
 70
     6
  9
$SPLINESEGS
 70
     8
  9
$HANDSEED
  5
25DA
  9
$SURFTAB1
 70
     6
  9
$SURFTAB2
 70
     6
  9
$SURFTYPE
 70
     6
  9
$SURFU
 70
     6
  9
$SURFV
 70
     6
  9
$UCSBASE
  2

  9
$UCSNAME
  2

  9
$UCSORG
 10
0.0
 20
0.0
 30
0.0
  9
$UCSXDIR
 10
1.0
 20
0.0
 30
0.0
  9
$UCSYDIR
 10
0.0
 20
1.0
 30
0.0
  9
$UCSORTHOREF
  2

  9
$UCSORTHOVIEW
 70
     0
  9
$UCSORGTOP
 10
0.0
 20
0.0
 30
0.0
  9
$UCSORGBOTTOM
 10
0.0
 20
0.0
 30
0.0
  9
$UCSORGLEFT
 10
0.0
 20
0.0
 30
0.0
  9
$UCSORGRIGHT
 10
0.0
 20
0.0
 30
0.0
  9
$UCSORGFRONT
 10
0.0
 20
0.0
 30
0.0
  9
$UCSORGBACK
 10
0.0
 20
0.0
 30
0.0
  9
$PUCSBASE
  2

  9
$PUCSNAME
  2

  9
$PUCSORG
 10
0.0
 20
0.0
 30
0.0
  9
$PUCSXDIR
 10
1.0
 20
0.0
 30
0.0
  9
$PUCSYDIR
 10
0.0
 20
1.0
 30
0.0
  9
$PUCSORTHOREF
  2

  9
$PUCSORTHOVIEW
 70
     0
  9
$PUCSORGTOP
 10
0.0
 20
0.0
 30
0.0
  9
$PUCSORGBOTTOM
 10
0.0
 20
0.0
 30
0.0
  9
$PUCSORGLEFT
 10
0.0
 20
0.0
 30
0.0
  9
$PUCSORGRIGHT
 10
0.0
 20
0.0
 30
0.0
  9
$PUCSORGFRONT
 10
0.0
 20
0.0
 30
0.0
  9
$PUCSORGBACK
 10
0.0
 20
0.0
 30
0.0
  9
$USERI1
 70
     0
  9
$USERI2
 70
     0
  9
$USERI3
 70
     0
  9
$USERI4
 70
     0
  9
$USERI5
 70
     0
  9
$USERR1
 40
0.0
  9
$USERR2
 40
0.0
  9
$USERR3
 40
0.0
  9
$USERR4
 40
0.0
  9
$USERR5
 40
0.0
  9
$WORLDVIEW
 70
     1
  9
$SHADEDGE
 70
     3
  9
$SHADEDIF
 70
    70
  9
$TILEMODE
 70
     1
  9
$MAXACTVP
 70
    48
  9
$PINSBASE
 10
0.0
 20
0.0
 30
0.0
  9
$PLIMCHECK
 70
     0
  9
$PEXTMIN
 10
1.000000000000000E+20
 20
1.000000000000000E+20
 30
1.000000000000000E+20
  9
$PEXTMAX
 10
-1.000000000000000E+20
 20
-1.000000000000000E+20
 30
-1.000000000000000E+20
  9
$PLIMMIN
 10
0.0
 20
0.0
  9
$PLIMMAX
 10
420.0
 20
297.0
  9
$UNITMODE
 70
     0
  9
$VISRETAIN
 70
     1
  9
$PLINEGEN
 70
     0
  9
$PSLTSCALE
 70
     1
  9
$TREEDEPTH
 70
  3020
  9
$CMLSTYLE
  2
STANDARD
  9
$CMLJUST
 70
     0
  9
$CMLSCALE
 40
20.0
  9
$PROXYGRAPHICS
 70
     1
  9
$MEASUREMENT
 70
     0
  9
$CELWEIGHT
370
    -1
  9
$ENDCAPS
280
     0
  9
$JOINSTYLE
280
     0
  9
$LWDISPLAY
290
     0
  9
$INSUNITS
 70
     0
  9
$HYPERLINKBASE
  1

  9
$STYLESHEET
  1

  9
$XEDIT
290
     1
  9
$CEPSNTYPE
380
     0
  9
$PSTYLEMODE
290
     1
  9
$FINGERPRINTGUID
  2
{47F1F0CF-5892-4FAB-9183-AB06D0E89EC4}
  9
$VERSIONGUID
  2
{3D869034-6CAC-458C-A9AB-BF7E7F707094}
  9
$EXTNAMES
290
     1
  9
$PSVPSCALE
 40
0.0
  9
$OLESTARTUP
290
     0
  0
ENDSEC
  0
SECTION
  2
CLASSES
  0
CLASS
  1
ACDBDICTIONARYWDFLT
  2
AcDbDictionaryWithDefault
  3
ObjectDBX Classes
 90
        0
280
     0
281
     0
  0
CLASS
  1
ACDBPLACEHOLDER
  2
AcDbPlaceHolder
  3
ObjectDBX Classes
 90
        0
280
     0
281
     0
  0
CLASS
  1
LAYOUT
  2
AcDbLayout
  3
ObjectDBX Classes
 90
        0
280
     0
281
     0
  0
CLASS
  1
DICTIONARYVAR
  2
AcDbDictionaryVar
  3
ObjectDBX Classes
 90
        0
280
     0
281
     0
  0
CLASS
  1
MATERIAL
  2
AcDbMaterial
  3
ObjectDBX Classes
 90
     1153
280
     0
281
     0
  0
CLASS
  1
VISUALSTYLE
  2
AcDbVisualStyle
  3
ObjectDBX Classes
 90
     4095
280
     0
281
     0
  0
CLASS
  1
TABLESTYLE
  2
AcDbTableStyle
  3
ObjectDBX Classes
 90
     4095
280
     0
281
     0
  0
CLASS
  1
SCALE
  2
AcDbScale
  3
ObjectDBX Classes
 90
     1153
280
     0
281
     0
  0
CLASS
  1
MLEADERSTYLE
  2
AcDbMLeaderStyle
  3
ACDB_MLEADERSTYLE_CLASS
 90
     4095
280
     0
281
     0
  0
CLASS
  1
ACDBSECTIONVIEWSTYLE
  2
AcDbSectionViewStyle
  3
ObjectDBX Classes
 90
     1025
280
     0
281
     0
  0
CLASS
  1
ACDBDETAILVIEWSTYLE
  2
AcDbDetailViewStyle
  3
ObjectDBX Classes
 90
     1025
280
     0
281
     0
  0
CLASS
  1
CELLSTYLEMAP
  2
AcDbCellStyleMap
  3
ObjectDBX Classes
 90
     1152
280
     0
281
     0
  0
ENDSEC
  0
SECTION
  2
TABLES
  0
TABLE
  2
VPORT
  5
8
330
0
100
AcDbSymbolTable
 70
     1
  0
VPORT
  5
2524
330
8
100
AcDbSymbolTableRecord
100
AcDbViewportTableRecord
  2
*ACTIVE
 70
     0
 10
0.0
 20
0.0
 11
1.0
 21
1.0
 12
200.9026022853649
 22
112.2426138044942
 13
0.0
 23
0.0
 14
10.0
 24
10.0
 15
10.0
 25
10.0
 16
0.0
 26
0.0
 36
1.0
 17
0.0
 27
0.0
 37
0.0
 40
206.7658775432446
 41
2.35006605019815
 42
50.0
 43
0.0
 44
0.0
 50
0.0
 51
0.0
 71
     0
 72
   100
 73
     1
 74
     0
 75
     0
 76
     0
 77
     0
 78
     0
281
     0
 65
     1
110
0.0
120
0.0
130
0.0
111
1.0
121
0.0
131
0.0
112
0.0
122
1.0
132
0.0
 79
     0
146
0.0
1001
ACAD_NAV_VCDISPLAY
1070
     3
  0
ENDTAB
  0
TABLE
  2
LTYPE
  5
5
330
0
100
AcDbSymbolTable
 70
     4
  0
LTYPE
  5
12
330
5
100
AcDbSymbolTableRecord
100
AcDbLinetypeTableRecord
  2
BYBLOCK
 70
     0
  3

 72
    65
 73
     0
 40
0.0
  0
LTYPE
  5
13
330
5
100
AcDbSymbolTableRecord
100
AcDbLinetypeTableRecord
  2
BYLAYER
 70
     0
  3

 72
    65
 73
     0
 40
0.0
  0
LTYPE
  5
14
330
5
100
AcDbSymbolTableRecord
100
AcDbLinetypeTableRecord
  2
CONTINUOUS
 70
     0
  3
Solid line
 72
    65
 73
     0
 40
0.0
  0
LTYPE
  5
4B
330
5
100
AcDbSymbolTableRecord
100
AcDbLinetypeTableRecord
  2
DASHED
 70
     0
  3
Dashed __ __ __ __ __ __ __ __ __ __ __ __ __ _
 72
    65
 73
     2
 40
19.04999999999999
 49
12.7
 74
     0
 49
-6.349999999999998
 74
     0
  0
LTYPE
  5
4C
330
5
100
AcDbSymbolTableRecord
100
AcDbLinetypeTableRecord
  2
CENTER
 70
     0
  3
Center ____ _ ____ _ ____ _ ____ _ ____ _ ____
 72
    65
 73
     4
 40
50.8
 49
31.75
 74
     0
 49
-6.349999999999998
 74
     0
 49
6.349999999999998
 74
     0
 49
-6.349999999999998
 74
     0
  0
LTYPE
  5
4D
330
5
100
AcDbSymbolTableRecord
100
AcDbLinetypeTableRecord
  2
PHANTOM
 70
     0
  3
Phantom ______  __  __  ______  __  __  ______
 72
    65
 73
     6
 40
63.5
 49
31.75
 74
     0
 49
-6.349999999999998
 74
     0
 49
6.349999999999998
 74
     0
 49
-6.349999999999998
 74
     0
 49
6.349999999999998
 74
     0
 49
-6.349999999999998
 74
     0
  0
ENDTAB
  0
TABLE
  2
LAYER
  5
2
330
0
100
AcDbSymbolTable
 70
     8
  0
LAYER
  5
E
102
{ACAD_XDICTIONARY
360
257E
102
}
330
2
100
AcDbSymbolTableRecord
100
AcDbLayerTableRecord
  2
0
 70
     0
 62
     7
  6
CONTINUOUS
370
    -3
390
252D
  0
LAYER
  5
4E
102
{ACAD_XDICTIONARY
360
2580
102
}
330
2
100
AcDbSymbolTableRecord
100
AcDbLayerTableRecord
  2
4
 70
     0
 62
     1
  6
CENTER
370
    -3
390
252D
  0
LAYER
  5
4F
102
{ACAD_XDICTIONARY
360
2582
102
}
330
2
100
AcDbSymbolTableRecord
100
AcDbLayerTableRecord
  2
5
 70
     0
 62
     6
  6
PHANTOM
370
    -3
390
252D
  0
LAYER
  5
50
102
{ACAD_XDICTIONARY
360
2584
102
}
330
2
100
AcDbSymbolTableRecord
100
AcDbLayerTableRecord
  2
1
 70
     0
 62
     7
  6
CONTINUOUS
370
    -3
390
252D
  0
LAYER
  5
51
102
{ACAD_XDICTIONARY
360
2586
102
}
330
2
100
AcDbSymbolTableRecord
100
AcDbLayerTableRecord
  2
2
 70
     0
 62
     4
  6
CONTINUOUS
370
    -3
390
252D
  0
LAYER
  5
52
102
{ACAD_XDICTIONARY
360
2588
102
}
330
2
100
AcDbSymbolTableRecord
100
AcDbLayerTableRecord
  2
3
 70
     0
 62
     2
  6
DASHED
370
    -3
390
252D
  0
LAYER
  5
53
102
{ACAD_XDICTIONARY
360
258A
102
}
330
2
100
AcDbSymbolTableRecord
100
AcDbLayerTableRecord
  2
6
 70
     0
 62
     5
  6
CONTINUOUS
370
    -3
390
252D
  0
LAYER
  5
54
102
{ACAD_XDICTIONARY
360
258C
102
}
330
2
100
AcDbSymbolTableRecord
100
AcDbLayerTableRecord
  2
7
 70
     0
 62
     3
  6
CONTINUOUS
370
    -3
390
252D
  0
ENDTAB
  0
TABLE
  2
STYLE
  5
3
330
0
100
AcDbSymbolTable
 70
     1
  0
STYLE
  5
F
330
3
100
AcDbSymbolTableRecord
100
AcDbTextStyleTableRecord
  2
STANDARD
 70
     0
 40
0.0
 41
1.0
 50
0.0
 71
     0
 42
2.5
  3
simplex.shx
  4

  0
ENDTAB
  0
TABLE
  2
VIEW
  5
6
330
0
100
AcDbSymbolTable
 70
     0
  0
ENDTAB
  0
TABLE
  2
UCS
  5
7
330
0
100
AcDbSymbolTable
 70
     0
  0
ENDTAB
  0
TABLE
  2
APPID
  5
9
330
0
100
AcDbSymbolTable
 70
     5
  0
APPID
  5
10
330
9
100
AcDbSymbolTableRecord
100
AcDbRegAppTableRecord
  2
ACAD
 70
     0
  0
APPID
  5
3E
330
9
100
AcDbSymbolTableRecord
100
AcDbRegAppTableRecord
  2
CONTENTTABDATA
 70
     0
  0
APPID
  5
3F
330
9
100
AcDbSymbolTableRecord
100
AcDbRegAppTableRecord
  2
CONTENTCURRENTTAB
 70
     0
  0
APPID
  5
2598
330
9
100
AcDbSymbolTableRecord
100
AcDbRegAppTableRecord
  2
ACAD_NAV_VCDISPLAY
 70
     0
  0
APPID
  5
25D1
330
9
100
AcDbSymbolTableRecord
100
AcDbRegAppTableRecord
  2
ACAD_MLEADERVER
 70
     0
  0
ENDTAB
  0
TABLE
  2
DIMSTYLE
  5
A
330
0
100
AcDbSymbolTable
 70
     1
100
AcDbDimStyleTable
 71
     0
  0
DIMSTYLE
105
1D
330
A
100
AcDbSymbolTableRecord
100
AcDbDimStyleTableRecord
  2
STANDARD
 70
     0
 41
3.0
 42
1.0
 43
10.0
 44
1.0
 73
     0
 74
     0
 77
     3
 78
     8
140
3.2
141
0.0
147
1.0
172
     1
173
     1
340
F
341
2E
343
2E
344
2E
  0
ENDTAB
  0
TABLE
  2
BLOCK_RECORD
  5
1
330
0
100
AcDbSymbolTable
 70
     1
  0
BLOCK_RECORD
  5
18
102
{ACAD_XDICTIONARY
360
2527
102
}
330
1
100
AcDbSymbolTableRecord
100
AcDbBlockTableRecord
  2
*MODEL_SPACE
340
257B
  0
BLOCK_RECORD
  5
15
102
{ACAD_XDICTIONARY
360
2525
102
}
330
1
100
AcDbSymbolTableRecord
100
AcDbBlockTableRecord
  2
*PAPER_SPACE
340
257C
  0
BLOCK_RECORD
  5
2E
330
1
100
AcDbSymbolTableRecord
100
AcDbBlockTableRecord
  2
_OPEN
340
0
  0
ENDTAB
  0
ENDSEC
  0
SECTION
  2
BLOCKS
  0
BLOCK
  5
19
330
18
100
AcDbEntity
  8
0
100
AcDbBlockBegin
  2
*MODEL_SPACE
 70
     0
 10
0.0
 20
0.0
 30
0.0
  3
*MODEL_SPACE
  1

  0
ENDBLK
  5
1A
330
18
100
AcDbEntity
  8
0
100
AcDbBlockEnd
  0
BLOCK
  5
16
330
15
100
AcDbEntity
 67
     1
  8
0
100
AcDbBlockBegin
  2
*PAPER_SPACE
 70
     0
 10
0.0
 20
0.0
 30
0.0
  3
*PAPER_SPACE
  1

  0
ENDBLK
  5
17
330
15
100
AcDbEntity
 67
     1
  8
0
100
AcDbBlockEnd
  0
BLOCK
  5
2F
330
2E
100
AcDbEntity
  8
0
100
AcDbBlockBegin
  2
_OPEN
 70
     0
 10
0.0
 20
0.0
 30
0.0
  3
_OPEN
  1

  0
LINE
  5
30
330
2E
100
AcDbEntity
  8
0
  6
ByBlock
 62
     0
100
AcDbLine
 10
-1.0
 20
0.1666666666666666
 30
0.0
 11
0.0
 21
0.0
 31
0.0
  0
LINE
  5
31
330
2E
100
AcDbEntity
  8
0
  6
ByBlock
 62
     0
100
AcDbLine
 10
0.0
 20
0.0
 30
0.0
 11
-1.0
 21
-0.1666666666666666
 31
0.0
  0
LINE
  5
32
330
2E
100
AcDbEntity
  8
0
  6
ByBlock
 62
     0
100
AcDbLine
 10
0.0
 20
0.0
 30
0.0
 11
-1.0
 21
0.0
 31
0.0
  0
ENDBLK
  5
33
330
2E
100
AcDbEntity
  8
0
100
AcDbBlockEnd
  0
ENDSEC
  0
SECTION
  2
ENTITIES
  0
TEXT
  5
63
330
18
100
AcDbEntity
  8
4
  6
CENTER
 48
0.25
100
AcDbText
 10
23.97950852663849
 20
10.0
 30
0.0
 40
1.399999999999999
  1
4
100
AcDbText
  0
TEXT
  5
64
330
18
100
AcDbEntity
  8
7
  6
Continuous
 48
0.25
100
AcDbText
 10
9.999997526638502
 20
26.0000007607689
 30
0.0
 40
3.0
  1
CODE No.12523
100
AcDbText
  0
TEXT
  5
65
330
18
100
AcDbEntity
  8
7
  6
Continuous
 48
0.25
100
AcDbText
 10
9.999997526638502
 20
18.00000076076889
 30
0.0
 40
3.0
  1
TYPE No.TEH-1117-U5
100
AcDbText
  0
TEXT
  5
66
330
18
100
AcDbEntity
  8
1
  6
Continuous
 48
0.25
100
AcDbText
 10
9.999997526638502
 20
10.00000076076889
 30
0.0
 40
1.399999999999999
  1
LAYER
100
AcDbText
  0
TEXT
  5
67
330
18
100
AcDbEntity
  8
2
  6
Continuous
 48
0.25
100
AcDbText
 10
19.9795085266385
 20
10.0
 30
0.0
 40
1.399999999999999
  1
2
100
AcDbText
  0
TEXT
  5
68
330
18
100
AcDbEntity
  8
3
  6
DASHED
 48
0.25
100
AcDbText
 10
21.9795085266385
 20
10.0
 30
0.0
 40
1.399999999999999
  1
3
100
AcDbText
  0
TEXT
  5
69
330
18
100
AcDbEntity
  8
1
  6
Continuous
 48
0.25
100
AcDbText
 10
17.9795085266385
 20
10.0
 30
0.0
 40
1.399999999999999
  1
1
100
AcDbText
  0
TEXT
  5
6A
330
18
100
AcDbEntity
  8
5
  6
PHANTOM
 48
0.25
100
AcDbText
 10
25.9795085266385
 20
10.0
 30
0.0
 40
1.399999999999999
  1
5
100
AcDbText
  0
TEXT
  5
6B
330
18
100
AcDbEntity
  8
6
  6
Continuous
 48
0.25
100
AcDbText
 10
27.9795085266385
 20
10.0
 30
0.0
 40
1.399999999999999
  1
6
100
AcDbText
  0
TEXT
  5
6C
330
18
100
AcDbEntity
  8
7
  6
Continuous
 48
0.25
100
AcDbText
 10
29.9795085266385
 20
10.0
 30
0.0
 40
1.399999999999999
  1
7
100
AcDbText
  0
ARC
  5
1A4
330
18
100
AcDbEntity
  8
5
  6
PHANTOM
100
AcDbCircle
 10
105.340508709889
 20
167.2177454734531
 30
0.0
 40
8.0
100
AcDbArc
 50
0.000000000000007
 51
90.0
  0
LINE
  5
1BC
330
18
100
AcDbEntity
  8
4
  6
CENTER
100
AcDbLine
 10
96.08473162418517
 20
38.05373634059853
 30
0.0
 11
116.940508709889
 21
38.05373634059853
 31
0.0
  0
ARC
  5
1BD
330
18
100
AcDbEntity
  8
1
  6
Continuous
100
AcDbCircle
 10
110.840508709889
 20
38.05373634059853
 30
0.0
 40
4.599999999999994
100
AcDbArc
 50
270.0
 51
214.4173887104777
  0
ARC
  5
1BE
330
18
100
AcDbEntity
  8
1
  6
Continuous
100
AcDbCircle
 10
105.340508709889
 20
152.7177454734531
 30
0.0
 40
8.0
100
AcDbArc
 50
0.000000000000007
 51
90.0
  0
LINE
  5
1BF
330
18
100
AcDbEntity
  8
1
  6
Continuous
100
AcDbLine
 10
115.440508709889
 20
138.967745473488
 30
0.0
 11
105.340508709889
 21
138.967745473488
 31
0.0
  0
LINE
  5
1C0
330
18
100
AcDbEntity
  8
1
  6
Continuous
100
AcDbLine
 10
115.440508709889
 20
102.467745473488
 30
0.0
 11
105.340508709889
 21
102.467745473488
 31
0.0
  0
LINE
  5
1C1
330
18
100
AcDbEntity
  8
1
  6
Continuous
100
AcDbLine
 10
115.440508709889
 20
91.21774547345314
 30
0.0
 11
106.240508709889
 21
91.21774547345314
 31
0.0
  0
LINE
  5
1C2
330
18
100
AcDbEntity
  8
1
  6
Continuous
100
AcDbLine
 10
115.440508709889
 20
150.2177454734531
 30
0.0
 11
106.240508709889
 21
150.2177454734531
 31
0.0
  0
LINE
  5
1C3
330
18
100
AcDbEntity
  8
1
  6
Continuous
100
AcDbLine
 10
115.440508709889
 20
102.467745473488
 30
0.0
 11
115.440508709889
 21
91.21774547345314
 31
0.0
  0
LINE
  5
1C4
330
18
100
AcDbEntity
  8
1
  6
Continuous
100
AcDbLine
 10
115.440508709889
 20
150.217745473453
 30
0.0
 11
115.440508709889
 21
138.967745473488
 31
0.0
  0
LINE
  5
1C5
330
18
100
AcDbEntity
  8
1
  6
Continuous
100
AcDbLine
 10
110.840508709889
 20
33.45373634059853
 30
0.0
 11
97.8405087098891
 21
33.45373634059853
 31
0.0
  0
LINE
  5
1C6
330
18
100
AcDbEntity
  8
1
  6
Continuous
100
AcDbLine
 10
110.840508709889
 20
35.45373634059854
 30
0.0
 11
97.84050870987938
 21
35.45373634059045
 31
0.0
  0
LINE
  5
1C7
330
18
100
AcDbEntity
  8
1
  6
Continuous
100
AcDbLine
 10
98.3405087098891
 20
35.55373634059853
 30
0.0
 11
106.9791617946276
 21
35.55373634059853
 31
0.0
  0
LINE
  5
1C8
330
18
100
AcDbEntity
  8
1
  6
Continuous
100
AcDbLine
 10
98.3405087098891
 20
40.55373634059853
 30
0.0
 11
106.9791617946276
 21
40.55373634059853
 31
0.0
  0
LINE
  5
1C9
330
18
100
AcDbEntity
  8
4
  6
CENTER
100
AcDbLine
 10
110.840508709889
 20
44.15373634059853
 30
0.0
 11
110.840508709889
 21
31.95373634059853
 31
0.0
  0
LINE
  5
1CA
330
18
100
AcDbEntity
  8
1
  6
Continuous
100
AcDbLine
 10
109.4721154915486
 20
35.55373634059853
 30
0.0
 11
110.840508709889
 21
35.55373634059853
 31
0.0
  0
LINE
  5
1CB
330
18
100
AcDbEntity
  8
1
  6
Continuous
100
AcDbLine
 10
110.1263658670349
 20
40.55373634059853
 30
0.0
 11
110.840508709889
 21
40.55373634059853
 31
0.0
  0
ARC
  5
1CC
330
18
100
AcDbEntity
  8
1
  6
Continuous
100
AcDbCircle
 10
110.840508709889
 20
38.05373634059853
 30
0.0
 40
2.599999999999992
100
AcDbArc
 50
270.0
 51
214.4173887104769
  0
CIRCLE
  5
1CD
330
18
100
AcDbEntity
  8
1
  6
Continuous
100
AcDbCircle
 10
110.840508709889
 20
38.05373634059853
 30
0.0
 40
2.499999999999984
  0
CIRCLE
  5
1CE
330
18
100
AcDbEntity
  8
1
  6
Continuous
100
AcDbCircle
 10
110.840508709889
 20
38.05373634059853
 30
0.0
 40
1.500000000000014
  0
ARC
  5
1D3
330
18
100
AcDbEntity
  8
1
  6
Continuous
100
AcDbCircle
 10
110.840508709889
 20
38.05373634059853
 30
0.0
 40
3.399999999999999
100
AcDbArc
 50
214.4173887104769
 51
229.8808331016304
  0
LINE
  5
1D4
330
18
100
AcDbEntity
  8
1
  6
Continuous
100
AcDbLine
 10
108.6956595142974
 20
36.58417112320595
 30
0.0
 11
107.0457755176886
 21
35.45373634059625
 31
0.0
  0
ARC
  5
1D5
330
18
100
AcDbEntity
  8
1
  6
Continuous
100
AcDbCircle
 10
110.840508709889
 20
38.05373634059853
 30
0.0
 40
2.85
100
AcDbArc
 50
214.4173887104769
 51
245.8224551664
  0
LINE
  5
1D7
330
18
100
AcDbEntity
  8
1
  6
Continuous
100
AcDbLine
 10
106.2405087099022
 20
35.45373634059564
 30
0.0
 11
106.2405087099026
 21
33.45373634050313
 31
0.0
  0
ARC
  5
1D8
330
18
100
AcDbEntity
  8
1
  6
Continuous
100
AcDbCircle
 10
110.840508709889
 20
38.05373634059853
 30
0.0
 40
4.5
100
AcDbArc
 50
214.4173887104771
 51
215.2943946766953
  0
LINE
  5
1DA
330
18
100
AcDbEntity
  8
4
  6
CENTER
100
AcDbLine
 10
102.340508709889
 20
36.95373634059325
 30
0.0
 11
102.340508709889
 21
31.95373634059853
 31
0.0
  0
LINE
  5
1DB
330
18
100
AcDbEntity
  8
1
  6
Continuous
100
AcDbLine
 10
98.3405087098891
 20
40.55373634059853
 30
0.0
 11
98.3405087098891
 21
35.55373634059853
 31
0.0
  0
LINE
  5
1DC
330
18
100
AcDbEntity
  8
1
  6
Continuous
100
AcDbLine
 10
97.8405087098891
 20
35.45373634059045
 30
0.0
 11
97.8405087098891
 21
33.45373634059853
 31
0.0
  0
LINE
  5
1DD
330
18
100
AcDbEntity
  8
5
  6
PHANTOM
100
AcDbLine
 10
108.340508709889
 20
167.2177454734531
 30
0.0
 11
108.340508709889
 21
162.2177454734531
 31
0.0
  0
LINE
  5
1DE
330
18
100
AcDbEntity
  8
5
  6
PHANTOM
100
AcDbLine
 10
113.340508709889
 20
167.2177454734531
 30
0.0
 11
113.340508709889
 21
162.2177454734531
 31
0.0
  0
LINE
  5
1E3
330
18
100
AcDbEntity
  8
1
  6
Continuous
100
AcDbLine
 10
105.340508709889
 20
138.967745473488
 30
0.0
 11
105.340508709889
 21
102.467745473488
 31
0.0
  0
LINE
  5
1E4
330
18
100
AcDbEntity
  8
4
  6
CENTER
100
AcDbLine
 10
110.840508709889
 20
154.2177454734531
 30
0.0
 11
110.840508709889
 21
75.21774547345312
 31
0.0
  0
LINE
  5
1E5
330
18
100
AcDbEntity
  8
1
  6
Continuous
100
AcDbLine
 10
97.8405087098891
 20
150.717745473488
 30
0.0
 11
97.8405087098891
 21
90.71774547348805
 31
0.0
  0
LINE
  5
1E6
330
18
100
AcDbEntity
  8
1
  6
Continuous
100
AcDbLine
 10
106.240508709889
 20
90.71774547348805
 30
0.0
 11
97.8405087098891
 21
90.71774547348805
 31
0.0
  0
LINE
  5
1E7
330
18
100
AcDbEntity
  8
5
  6
PHANTOM
100
AcDbLine
 10
108.340508709889
 20
100.967745473488
 30
0.0
 11
108.340508709889
 21
92.71774547345314
 31
0.0
  0
LINE
  5
1E8
330
18
100
AcDbEntity
  8
5
  6
PHANTOM
100
AcDbLine
 10
113.340508709889
 20
100.967745473488
 30
0.0
 11
113.340508709889
 21
92.71774547345314
 31
0.0
  0
LINE
  5
1E9
330
18
100
AcDbEntity
  8
4
  6
CENTER
100
AcDbLine
 10
102.340508709889
 20
102.267745473488
 30
0.0
 11
102.340508709889
 21
94.16774547348806
 31
0.0
  0
LINE
  5
1EA
330
18
100
AcDbEntity
  8
1
  6
Continuous
100
AcDbLine
 10
106.240508709889
 20
90.71774547348805
 30
0.0
 11
106.240508709889
 21
102.467745473488
 31
0.0
  0
LINE
  5
1EB
330
18
100
AcDbEntity
  8
1
  6
Continuous
100
AcDbLine
 10
113.340508709889
 20
91.21774547345314
 30
0.0
 11
113.340508709889
 21
78.21774547345312
 31
0.0
  0
LINE
  5
1EC
330
18
100
AcDbEntity
  8
1
  6
Continuous
100
AcDbLine
 10
108.340508709889
 20
91.21774547345314
 30
0.0
 11
108.340508709889
 21
78.21774547345312
 31
0.0
  0
LINE
  5
1ED
330
18
100
AcDbEntity
  8
1
  6
Continuous
100
AcDbLine
 10
113.340508709889
 20
78.21774547345312
 30
0.0
 11
108.340508709889
 21
78.21774547345312
 31
0.0
  0
LINE
  5
1EE
330
18
100
AcDbEntity
  8
1
  6
Continuous
100
AcDbLine
 10
112.340508709889
 20
76.71774547345314
 30
0.0
 11
109.340508709889
 21
76.71774547345314
 31
0.0
  0
LINE
  5
1EF
330
18
100
AcDbEntity
  8
1
  6
Continuous
100
AcDbLine
 10
113.340508709889
 20
78.21774547345312
 30
0.0
 11
112.340508709889
 21
76.71774547345314
 31
0.0
  0
LINE
  5
1F0
330
18
100
AcDbEntity
  8
1
  6
Continuous
100
AcDbLine
 10
109.340508709889
 20
76.71774547345314
 30
0.0
 11
108.340508709889
 21
78.21774547345312
 31
0.0
  0
LINE
  5
1F1
330
18
100
AcDbEntity
  8
5
  6
PHANTOM
100
AcDbLine
 10
113.340508709889
 20
92.71774547345314
 30
0.0
 11
108.340508709889
 21
92.71774547345314
 31
0.0
  0
LINE
  5
1F2
330
18
100
AcDbEntity
  8
5
  6
PHANTOM
100
AcDbLine
 10
113.340508709889
 20
92.71774547345314
 30
0.0
 11
112.340508709889
 21
91.21774547345314
 31
0.0
  0
LINE
  5
1F3
330
18
100
AcDbEntity
  8
5
  6
PHANTOM
100
AcDbLine
 10
109.340508709889
 20
91.21774547345314
 30
0.0
 11
108.340508709889
 21
92.71774547345314
 31
0.0
  0
LINE
  5
1F4
330
18
100
AcDbEntity
  8
4
  6
CENTER
100
AcDbLine
 10
98.29050870988908
 20
98.21774547348805
 30
0.0
 11
106.3905087098891
 21
98.21774547348805
 31
0.0
  0
LINE
  5
1FD
330
18
100
AcDbEntity
  8
1
  6
Continuous
100
AcDbLine
 10
106.340508709889
 20
103.067743473488
 30
0.0
 11
113.852074709889
 21
103.067743473488
 31
0.0
  0
LINE
  5
203
330
18
100
AcDbEntity
  8
1
  6
Continuous
100
AcDbLine
 10
113.852074709889
 20
103.067743473488
 30
0.0
 11
113.852074709889
 21
102.467745473488
 31
0.0
  0
LINE
  5
20A
330
18
100
AcDbEntity
  8
1
  6
Continuous
100
AcDbLine
 10
106.340508709889
 20
103.067743473488
 30
0.0
 11
106.340508709889
 21
102.4677454734881
 31
0.0
  0
CIRCLE
  5
23C
330
18
100
AcDbEntity
  8
1
  6
Continuous
100
AcDbCircle
 10
102.340508709889
 20
98.21774547348805
 30
0.0
 40
2.549999999999998
  0
LINE
  5
23D
330
18
100
AcDbEntity
  8
1
  6
Continuous
100
AcDbLine
 10
106.240508709889
 20
150.717745473488
 30
0.0
 11
97.8405087098891
 21
150.717745473488
 31
0.0
  0
LINE
  5
23E
330
18
100
AcDbEntity
  8
4
  6
CENTER
100
AcDbLine
 10
102.340508709889
 20
147.267745473488
 30
0.0
 11
102.340508709889
 21
139.167745473488
 31
0.0
  0
LINE
  5
23F
330
18
100
AcDbEntity
  8
1
  6
Continuous
100
AcDbLine
 10
106.240508709889
 20
138.967745473488
 30
0.0
 11
106.240508709889
 21
150.717745473488
 31
0.0
  0
CIRCLE
  5
240
330
18
100
AcDbEntity
  8
1
  6
Continuous
100
AcDbCircle
 10
102.340508709889
 20
143.217745473488
 30
0.0
 40
2.549999999999998
  0
ARC
  5
29B
330
18
100
AcDbEntity
  8
1
  6
Continuous
100
AcDbCircle
 10
105.340508709889
 20
152.7177454734531
 30
0.0
 40
3.0
100
AcDbArc
 50
0.000000000000007
 51
90.0
  0
LINE
  5
29C
330
18
100
AcDbEntity
  8
4
  6
CENTER
100
AcDbLine
 10
98.29050870988908
 20
143.217745473488
 30
0.0
 11
106.3905087098891
 21
143.217745473488
 31
0.0
  0
LINE
  5
29D
330
18
100
AcDbEntity
  8
1
  6
Continuous
100
AcDbLine
 10
113.340508709889
 20
152.7177454734531
 30
0.0
 11
113.340508709889
 21
150.2177454734531
 31
0.0
  0
LINE
  5
29E
330
18
100
AcDbEntity
  8
1
  6
Continuous
100
AcDbLine
 10
108.340508709889
 20
152.7177454734531
 30
0.0
 11
108.340508709889
 21
150.2177454734531
 31
0.0
  0
LINE
  5
29F
330
18
100
AcDbEntity
  8
1
  6
Continuous
100
AcDbLine
 10
105.340508709889
 20
155.7177454734531
 30
0.0
 11
98.3405087098891
 21
155.7177454734531
 31
0.0
  0
LINE
  5
2A0
330
18
100
AcDbEntity
  8
1
  6
Continuous
100
AcDbLine
 10
105.340508709889
 20
160.7177454734531
 30
0.0
 11
98.3405087098891
 21
160.7177454734531
 31
0.0
  0
LINE
  5
2A1
330
18
100
AcDbEntity
  8
1
  6
Continuous
100
AcDbLine
 10
98.3405087098891
 20
160.7177454734531
 30
0.0
 11
98.3405087098891
 21
155.7177454734531
 31
0.0
  0
ARC
  5
2A2
330
18
100
AcDbEntity
  8
5
  6
PHANTOM
100
AcDbCircle
 10
105.340508709889
 20
167.2177454734531
 30
0.0
 40
3.0
100
AcDbArc
 50
0.000000000000007
 51
90.0
  0
LINE
  5
2A3
330
18
100
AcDbEntity
  8
5
  6
PHANTOM
100
AcDbLine
 10
105.340508709889
 20
170.2177454734531
 30
0.0
 11
98.3405087098891
 21
170.2177454734531
 31
0.0
  0
LINE
  5
2A4
330
18
100
AcDbEntity
  8
5
  6
PHANTOM
100
AcDbLine
 10
105.340508709889
 20
175.217745473453
 30
0.0
 11
98.3405087098891
 21
175.217745473453
 31
0.0
  0
LINE
  5
2A5
330
18
100
AcDbEntity
  8
5
  6
PHANTOM
100
AcDbLine
 10
98.3405087098891
 20
175.2177454734531
 30
0.0
 11
98.3405087098891
 21
170.2177454734531
 31
0.0
  0
LINE
  5
2AF
330
18
100
AcDbEntity
  8
5
  6
PHANTOM
100
AcDbLine
 10
112.340508709889
 20
91.21774547345314
 30
0.0
 11
109.340508709889
 21
91.21774547345314
 31
0.0
  0
LINE
  5
4F8
330
18
100
AcDbEntity
  8
4
  6
CENTER
100
AcDbLine
 10
96.83418914445256
 20
208.3817546063775
 30
0.0
 11
116.940508709889
 21
208.3817546063775
 31
0.0
  0
LINE
  5
4F9
330
18
100
AcDbEntity
  8
1
  6
Continuous
100
AcDbLine
 10
110.840508709889
 20
212.9817546063775
 30
0.0
 11
97.8405087098891
 21
212.9817546063775
 31
0.0
  0
LINE
  5
4FA
330
18
100
AcDbEntity
  8
1
  6
Continuous
100
AcDbLine
 10
110.840508709889
 20
210.9817546063775
 30
0.0
 11
97.84050870987938
 21
210.9817546063855
 31
0.0
  0
ARC
  5
4FC
330
18
100
AcDbEntity
  8
1
  6
Continuous
100
AcDbCircle
 10
110.840508709889
 20
208.3817546063775
 30
0.0
 40
2.599999999999992
100
AcDbArc
 50
254.0576313943716
 51
89.99999999999998
  0
ARC
  5
4FD
330
18
100
AcDbEntity
  8
1
  6
Continuous
100
AcDbCircle
 10
110.840508709889
 20
208.3817546063775
 30
0.0
 40
2.499999999999984
100
AcDbArc
 50
270.0
 51
90.0
  0
ARC
  5
4FF
330
18
100
AcDbEntity
  8
1
  6
Continuous
100
AcDbCircle
 10
110.840508709889
 20
208.3817546063775
 30
0.0
 40
4.599999999999994
100
AcDbArc
 50
212.9207345280896
 51
89.99999999999998
  0
LINE
  5
501
330
18
100
AcDbEntity
  8
4
  6
CENTER
100
AcDbLine
 10
110.840508709889
 20
202.2817546063775
 30
0.0
 11
110.840508709889
 21
214.4817546063775
 31
0.0
  0
LINE
  5
504
330
18
100
AcDbEntity
  8
1
  6
Continuous
100
AcDbLine
 10
98.3405087098891
 20
205.8817546063775
 30
0.0
 11
98.3405087098891
 21
210.8817546063775
 31
0.0
  0
LINE
  5
505
330
18
100
AcDbEntity
  8
1
  6
Continuous
100
AcDbLine
 10
98.3405087098891
 20
210.8817546063775
 30
0.0
 11
110.840508709889
 21
210.8817546063775
 31
0.0
  0
ARC
  5
506
330
18
100
AcDbEntity
  8
1
  6
Continuous
100
AcDbCircle
 10
110.840508709889
 20
208.3817546063775
 30
0.0
 40
3.399999999999999
100
AcDbArc
 50
130.1191668983695
 51
132.6679254941085
  0
LINE
  5
507
330
18
100
AcDbEntity
  8
1
  6
Continuous
100
AcDbLine
 10
107.1917267943149
 20
210.8817546063775
 30
0.0
 11
107.0457755176886
 21
210.9817546063798
 31
0.0
  0
ARC
  5
508
330
18
100
AcDbEntity
  8
1
  6
Continuous
100
AcDbCircle
 10
110.840508709889
 20
208.3817546063775
 30
0.0
 40
2.85
100
AcDbArc
 50
114.1775448335999
 51
118.6944135267943
  0
LINE
  5
509
330
18
100
AcDbEntity
  8
1
  6
Continuous
100
AcDbLine
 10
106.2405087099022
 20
210.9817546063804
 30
0.0
 11
106.2405087099026
 21
212.9817546064729
 31
0.0
  0
ARC
  5
50A
330
18
100
AcDbEntity
  8
1
  6
Continuous
100
AcDbCircle
 10
110.840508709889
 20
208.3817546063775
 30
0.0
 40
4.5
100
AcDbArc
 50
144.7056053233046
 51
145.5826112895228
  0
LINE
  5
50B
330
18
100
AcDbEntity
  8
4
  6
CENTER
100
AcDbLine
 10
102.340508709889
 20
209.4817546063828
 30
0.0
 11
102.340508709889
 21
214.4817546063775
 31
0.0
  0
LINE
  5
50C
330
18
100
AcDbEntity
  8
1
  6
Continuous
100
AcDbLine
 10
97.8405087098891
 20
210.9817546063855
 30
0.0
 11
97.8405087098891
 21
212.9817546063775
 31
0.0
  0
LINE
  5
50D
330
18
100
AcDbEntity
  8
1
  6
Continuous
100
AcDbLine
 10
98.3405087098891
 20
205.8817546063775
 30
0.0
 11
110.840508709889
 21
205.8817546063775
 31
0.0
  0
ARC
  5
5C2
330
18
100
AcDbEntity
  8
1
  6
Continuous
100
AcDbCircle
 10
110.840508709889
 20
208.3817546063775
 30
0.0
 40
4.599999999999994
100
AcDbArc
 50
145.5826112895222
 51
147.0792654719103
  0
LINE
  5
5FC
330
18
100
AcDbEntity
  8
1
  6
Continuous
100
AcDbLine
 10
37.30188413687716
 20
76.71774547345314
 30
0.0
 11
36.30188413687716
 21
78.21774547345312
 31
0.0
  0
LINE
  5
5FD
330
18
100
AcDbEntity
  8
1
  6
Continuous
100
AcDbLine
 10
41.30188413687715
 20
78.21774547345312
 30
0.0
 11
40.30188413687715
 21
76.71774547345314
 31
0.0
  0
LINE
  5
5FE
330
18
100
AcDbEntity
  8
4
  6
CENTER
100
AcDbLine
 10
38.80188413687715
 20
163.3770891716633
 30
0.0
 11
38.80188413687715
 21
75.21774547345312
 31
0.0
  0
LINE
  5
5FF
330
18
100
AcDbEntity
  8
1
  6
Continuous
100
AcDbLine
 10
40.30188413687715
 20
76.71774547345314
 30
0.0
 11
37.30188413687716
 21
76.71774547345314
 31
0.0
  0
LINE
  5
61E
330
18
100
AcDbEntity
  8
1
  6
Continuous
100
AcDbLine
 10
36.20188413687719
 20
103.067743473488
 30
0.0
 11
43.30188413687715
 21
103.067743473488
 31
0.0
  0
LINE
  5
626
330
18
100
AcDbEntity
  8
1
  6
Continuous
100
AcDbLine
 10
41.30188413687715
 20
78.21774547345312
 30
0.0
 11
36.30188413687716
 21
78.21774547345312
 31
0.0
  0
LINE
  5
629
330
18
100
AcDbEntity
  8
1
  6
Continuous
100
AcDbLine
 10
43.40188413687712
 20
91.21774547345314
 30
0.0
 11
36.20188413687714
 21
91.21774547345314
 31
0.0
  0
LINE
  5
62A
330
18
100
AcDbEntity
  8
1
  6
Continuous
100
AcDbLine
 10
43.40188413687712
 20
102.467745473488
 30
0.0
 11
36.20188413687714
 21
102.467745473488
 31
0.0
  0
LINE
  5
62C
330
18
100
AcDbEntity
  8
1
  6
Continuous
100
AcDbLine
 10
43.40188413687712
 20
102.467745473488
 30
0.0
 11
43.40188413687712
 21
91.21774547345314
 31
0.0
  0
LINE
  5
62D
330
18
100
AcDbEntity
  8
1
  6
Continuous
100
AcDbLine
 10
41.30188413687715
 20
91.21774547345314
 30
0.0
 11
41.30188413687715
 21
78.21774547345312
 31
0.0
  0
LINE
  5
653
330
18
100
AcDbEntity
  8
1
  6
Continuous
100
AcDbLine
 10
34.20188413687714
 20
90.71774547348805
 30
0.0
 11
34.20188413687714
 21
150.717745473488
 31
0.0
  0
LINE
  5
656
330
18
100
AcDbEntity
  8
1
  6
Continuous
100
AcDbLine
 10
36.30188413687716
 20
91.21774547345314
 30
0.0
 11
36.30188413687716
 21
78.21774547345312
 31
0.0
  0
LINE
  5
657
330
18
100
AcDbEntity
  8
4
  6
CENTER
100
AcDbLine
 10
32.15188413687712
 20
98.21774547348805
 30
0.0
 11
38.25188413687715
 21
98.21774547348805
 31
0.0
  0
LINE
  5
658
330
18
100
AcDbEntity
  8
1
  6
Continuous
100
AcDbLine
 10
36.20188413687714
 20
90.71774547348805
 30
0.0
 11
34.20188413687714
 21
90.71774547348805
 31
0.0
  0
LINE
  5
691
330
18
100
AcDbEntity
  8
1
  6
Continuous
100
AcDbLine
 10
43.40188413687712
 20
150.2177454734531
 30
0.0
 11
36.20188413687714
 21
150.2177454734531
 31
0.0
  0
LINE
  5
692
330
18
100
AcDbEntity
  8
1
  6
Continuous
100
AcDbLine
 10
43.40188413687712
 20
138.967745473488
 30
0.0
 11
36.20188413687719
 21
138.967745473488
 31
0.0
  0
LINE
  5
694
330
18
100
AcDbEntity
  8
1
  6
Continuous
100
AcDbLine
 10
43.40188413687712
 20
150.217745473453
 30
0.0
 11
43.40188413687712
 21
138.967745473488
 31
0.0
  0
LINE
  5
6B9
330
18
100
AcDbEntity
  8
1
  6
Continuous
100
AcDbLine
 10
41.30188413687715
 20
158.2177454734531
 30
0.0
 11
41.30188413687715
 21
150.2177454734531
 31
0.0
  0
LINE
  5
6E1
330
18
100
AcDbEntity
  8
1
  6
Continuous
100
AcDbLine
 10
36.30188413687716
 20
158.2177454734531
 30
0.0
 11
36.30188413687716
 21
150.2177454734531
 31
0.0
  0
LINE
  5
6E2
330
18
100
AcDbEntity
  8
4
  6
CENTER
100
AcDbLine
 10
32.15188413687712
 20
143.217745473488
 30
0.0
 11
38.25188413687715
 21
143.217745473488
 31
0.0
  0
LINE
  5
6E3
330
18
100
AcDbEntity
  8
1
  6
Continuous
100
AcDbLine
 10
36.20188413687714
 20
150.717745473488
 30
0.0
 11
34.20188413687714
 21
150.717745473488
 31
0.0
  0
LINE
  5
834
330
18
100
AcDbEntity
  8
1
  6
Continuous
100
AcDbLine
 10
36.20188413687714
 20
90.71774547348805
 30
0.0
 11
36.20188413687714
 21
150.717745473488
 31
0.0
  0
CIRCLE
  5
85C
330
18
100
AcDbEntity
  8
1
  6
Continuous
100
AcDbCircle
 10
38.80188413687715
 20
158.2177454734531
 30
0.0
 40
2.5
  0
LINE
  5
8AC
330
18
100
AcDbEntity
  8
4
  6
CENTER
100
AcDbLine
 10
182.879133282901
 20
163.3770891716633
 30
0.0
 11
182.879133282901
 21
75.21774547345312
 31
0.0
  0
LINE
  5
8AD
330
18
100
AcDbEntity
  8
1
  6
Continuous
100
AcDbLine
 10
180.379133282901
 20
78.21774547345312
 30
0.0
 11
181.379133282901
 21
76.71774547345314
 31
0.0
  0
LINE
  5
8AE
330
18
100
AcDbEntity
  8
1
  6
Continuous
100
AcDbLine
 10
184.379133282901
 20
76.71774547345314
 30
0.0
 11
185.379133282901
 21
78.21774547345312
 31
0.0
  0
LINE
  5
8B2
330
18
100
AcDbEntity
  8
1
  6
Continuous
100
AcDbLine
 10
181.379133282901
 20
76.71774547345314
 30
0.0
 11
184.379133282901
 21
76.71774547345314
 31
0.0
  0
LINE
  5
8B6
330
18
100
AcDbEntity
  8
1
  6
Continuous
100
AcDbLine
 10
185.479133282901
 20
90.71774547348805
 30
0.0
 11
185.479133282901
 21
91.21774547345314
 31
0.0
  0
LINE
  5
8B7
330
18
100
AcDbEntity
  8
1
  6
Continuous
100
AcDbLine
 10
187.479133282901
 20
90.71774547348805
 30
0.0
 11
187.479133282901
 21
150.717745473488
 31
0.0
  0
LINE
  5
8BE
330
18
100
AcDbEntity
  8
1
  6
Continuous
100
AcDbLine
 10
178.279133282901
 20
102.467745473488
 30
0.0
 11
178.279133282901
 21
91.21774547345314
 31
0.0
  0
LINE
  5
8BF
330
18
100
AcDbEntity
  8
1
  6
Continuous
100
AcDbLine
 10
178.279133282901
 20
91.21774547345314
 30
0.0
 11
187.479133282901
 21
91.21774547345314
 31
0.0
  0
LINE
  5
8C0
330
18
100
AcDbEntity
  8
1
  6
Continuous
100
AcDbLine
 10
185.379133282901
 20
91.21774547345314
 30
0.0
 11
185.379133282901
 21
78.21774547345312
 31
0.0
  0
LINE
  5
8C1
330
18
100
AcDbEntity
  8
1
  6
Continuous
100
AcDbLine
 10
180.379133282901
 20
91.21774547345314
 30
0.0
 11
180.379133282901
 21
78.21774547345312
 31
0.0
  0
LINE
  5
8C2
330
18
100
AcDbEntity
  8
1
  6
Continuous
100
AcDbLine
 10
180.379133282901
 20
78.21774547345312
 30
0.0
 11
185.379133282901
 21
78.21774547345312
 31
0.0
  0
LINE
  5
8C3
330
18
100
AcDbEntity
  8
4
  6
CENTER
100
AcDbLine
 10
189.529133282901
 20
98.21774547348805
 30
0.0
 11
183.429133282901
 21
98.21774547348805
 31
0.0
  0
LINE
  5
8C4
330
18
100
AcDbEntity
  8
1
  6
Continuous
100
AcDbLine
 10
185.479133282901
 20
90.71774547348805
 30
0.0
 11
187.479133282901
 21
90.71774547348805
 31
0.0
  0
LINE
  5
8CF
330
18
100
AcDbEntity
  8
1
  6
Continuous
100
AcDbLine
 10
178.279133282901
 20
102.467745473488
 30
0.0
 11
187.479133282901
 21
102.467745473488
 31
0.0
  0
LINE
  5
8D7
330
18
100
AcDbEntity
  8
1
  6
Continuous
100
AcDbLine
 10
187.379133282901
 20
103.067743473488
 30
0.0
 11
185.029133282901
 21
103.067743473488
 31
0.0
  0
LINE
  5
91D
330
18
100
AcDbEntity
  8
1
  6
Continuous
100
AcDbLine
 10
178.279133282901
 20
150.217745473453
 30
0.0
 11
178.279133282901
 21
138.967745473488
 31
0.0
  0
LINE
  5
92A
330
18
100
AcDbEntity
  8
1
  6
Continuous
100
AcDbLine
 10
178.279133282901
 20
138.967745473488
 30
0.0
 11
187.479133282901
 21
138.967745473488
 31
0.0
  0
LINE
  5
97C
330
18
100
AcDbEntity
  8
1
  6
Continuous
100
AcDbLine
 10
178.279133282901
 20
150.2177454734531
 30
0.0
 11
187.479133282901
 21
150.2177454734531
 31
0.0
  0
LINE
  5
97D
330
18
100
AcDbEntity
  8
1
  6
Continuous
100
AcDbLine
 10
185.379133282901
 20
158.2177454734531
 30
0.0
 11
185.379133282901
 21
150.2177454734531
 31
0.0
  0
LINE
  5
97E
330
18
100
AcDbEntity
  8
1
  6
Continuous
100
AcDbLine
 10
180.379133282901
 20
158.2177454734531
 30
0.0
 11
180.379133282901
 21
150.2177454734531
 31
0.0
  0
LINE
  5
97F
330
18
100
AcDbEntity
  8
4
  6
CENTER
100
AcDbLine
 10
189.529133282901
 20
143.217745473488
 30
0.0
 11
183.429133282901
 21
143.217745473488
 31
0.0
  0
LINE
  5
980
330
18
100
AcDbEntity
  8
1
  6
Continuous
100
AcDbLine
 10
185.479133282901
 20
150.717745473488
 30
0.0
 11
187.479133282901
 21
150.717745473488
 31
0.0
  0
ARC
  5
981
330
18
100
AcDbEntity
  8
1
  6
Continuous
100
AcDbCircle
 10
182.879133282901
 20
158.2177454734531
 30
0.0
 40
2.5
100
AcDbArc
 50
0.000000000000007
 51
180.0
  0
LINE
  5
A34
330
18
100
AcDbEntity
  8
1
  6
Continuous
100
AcDbLine
 10
185.479133282901
 20
150.2177454734531
 30
0.0
 11
185.479133282901
 21
150.717745473488
 31
0.0
  0
LINE
  5
A36
330
18
100
AcDbEntity
  8
1
  6
Continuous
100
AcDbLine
 10
187.379133282901
 20
103.067743473488
 30
0.0
 11
187.379133282901
 21
102.467745473488
 31
0.0
  0
LINE
  5
A37
330
18
100
AcDbEntity
  8
1
  6
Continuous
100
AcDbLine
 10
178.379133282901
 20
103.067743473488
 30
0.0
 11
178.379133282901
 21
102.467745473488
 31
0.0
  0
LINE
  5
A38
330
18
100
AcDbEntity
  8
1
  6
Continuous
100
AcDbLine
 10
43.30188413687715
 20
103.067743473488
 30
0.0
 11
43.30188413687715
 21
102.467745473488
 31
0.0
  0
LINE
  5
A90
330
18
100
AcDbEntity
  8
1
  6
Continuous
100
AcDbLine
 10
185.029133282901
 20
103.067743473488
 30
0.0
 11
185.029133282901
 21
102.467745473488
 31
0.0
  0
LINE
  5
A91
330
18
100
AcDbEntity
  8
1
  6
Continuous
100
AcDbLine
 10
180.729133282901
 20
103.067743473488
 30
0.0
 11
180.729133282901
 21
102.467745473488
 31
0.0
  0
LINE
  5
A92
330
18
100
AcDbEntity
  8
1
  6
Continuous
100
AcDbLine
 10
180.729133282901
 20
103.067743473488
 30
0.0
 11
178.379133282901
 21
103.067743473488
 31
0.0
  0
LINE
  5
A9A
330
18
100
AcDbEntity
  8
1
  6
Continuous
100
AcDbLine
 10
179.5354122676779
 20
102.967743473488
 30
0.0
 11
179.5354122676779
 21
102.567745473488
 31
0.0
  0
LINE
  5
A9B
330
18
100
AcDbEntity
  8
1
  6
Continuous
100
AcDbLine
 10
186.222854298124
 20
102.967743473488
 30
0.0
 11
186.222854298124
 21
102.567745473488
 31
0.0
  0
ARC
  5
1237
330
18
100
AcDbEntity
  8
1
  6
Continuous
100
AcDbCircle
 10
42.05188413687136
 20
121.0200513404353
 30
0.0
 40
0.4000000000000057
100
AcDbArc
 50
276.0708059081037
 51
96.07080590810415
  0
LINE
  5
1238
330
18
100
AcDbEntity
  8
1
  6
Continuous
100
AcDbLine
 10
42.00958117305435
 20
121.4178081244784
 30
0.0
 11
36.20188413687714
 21
120.8001372073809
 31
0.0
  0
LINE
  5
1239
330
18
100
AcDbEntity
  8
1
  6
Continuous
100
AcDbLine
 10
36.30188413687716
 20
138.967745473488
 30
0.0
 11
36.30188413687716
 21
138.616655586874
 31
0.0
  0
LINE
  5
123A
330
18
100
AcDbEntity
  8
1
  6
Continuous
100
AcDbLine
 10
41.30188413687715
 20
138.967745473488
 30
0.0
 11
41.30188413687715
 21
138.9226016834948
 31
0.0
  0
LINE
  5
123B
330
18
100
AcDbEntity
  8
1
  6
Continuous
100
AcDbLine
 10
36.20188413687714
 20
121.3370331415459
 30
0.0
 11
36.30188413687716
 21
121.3247254492381
 31
0.0
  0
ARC
  5
123C
330
18
100
AcDbEntity
  8
1
  6
Continuous
100
AcDbCircle
 10
42.05188413687136
 20
110.5809513404353
 30
0.0
 40
0.4000000000000057
100
AcDbArc
 50
276.0708059081041
 51
96.07080590810415
  0
LINE
  5
123D
330
18
100
AcDbEntity
  8
1
  6
Continuous
100
AcDbLine
 10
42.00958117305435
 20
110.9787081244784
 30
0.0
 11
36.20188413687714
 21
110.3610372073809
 31
0.0
  0
LINE
  5
123E
330
18
100
AcDbEntity
  8
1
  6
Continuous
100
AcDbLine
 10
36.20188413687714
 20
110.8979331415459
 30
0.0
 11
36.30188413687716
 21
110.8856254492381
 31
0.0
  0
LINE
  5
123F
330
18
100
AcDbEntity
  8
1
  6
Continuous
100
AcDbLine
 10
36.20188413687714
 20
109.5565254734834
 30
0.0
 11
42.09418710068836
 21
110.1831945563922
 31
0.0
  0
LINE
  5
1240
330
18
100
AcDbEntity
  8
1
  6
Continuous
100
AcDbLine
 10
36.20188413687714
 20
106.5739254734834
 30
0.0
 11
42.09418710068836
 21
107.2005945563923
 31
0.0
  0
LINE
  5
1241
330
18
100
AcDbEntity
  8
1
  6
Continuous
100
AcDbLine
 10
42.00958117305435
 20
107.9961081244784
 30
0.0
 11
36.20188413687714
 21
107.3784372073809
 31
0.0
  0
LINE
  5
1242
330
18
100
AcDbEntity
  8
1
  6
Continuous
100
AcDbLine
 10
36.20188413687714
 20
108.0652254734834
 30
0.0
 11
42.09418710068836
 21
108.6918945563922
 31
0.0
  0
LINE
  5
1243
330
18
100
AcDbEntity
  8
1
  6
Continuous
100
AcDbLine
 10
42.00958117305435
 20
109.4874081244784
 30
0.0
 11
36.20188413687714
 21
108.8697372073809
 31
0.0
  0
LINE
  5
1244
330
18
100
AcDbEntity
  8
1
  6
Continuous
100
AcDbLine
 10
42.00958117305435
 20
106.5048081244784
 30
0.0
 11
36.20188413687714
 21
105.8871372073809
 31
0.0
  0
LINE
  5
1245
330
18
100
AcDbEntity
  8
1
  6
Continuous
100
AcDbLine
 10
36.20188413687714
 20
105.0826254734834
 30
0.0
 11
42.09418710068836
 21
105.7092945563923
 31
0.0
  0
LINE
  5
1247
330
18
100
AcDbEntity
  8
1
  6
Continuous
100
AcDbLine
 10
36.20188413687714
 20
109.4066331415459
 30
0.0
 11
36.30188413687716
 21
109.3943254492381
 31
0.0
  0
LINE
  5
1248
330
18
100
AcDbEntity
  8
1
  6
Continuous
100
AcDbLine
 10
41.30188413687715
 20
109.5849772316361
 30
0.0
 11
42.10074621740897
 21
109.4866557448008
 31
0.0
  0
LINE
  5
1249
330
18
100
AcDbEntity
  8
1
  6
Continuous
100
AcDbLine
 10
36.20188413687714
 20
106.4240331415459
 30
0.0
 11
36.30188413687716
 21
106.4117254492381
 31
0.0
  0
LINE
  5
124A
330
18
100
AcDbEntity
  8
1
  6
Continuous
100
AcDbLine
 10
41.30188413687715
 20
106.6023772316361
 30
0.0
 11
42.10074621740897
 21
106.5040557448008
 31
0.0
  0
LINE
  5
124B
330
18
100
AcDbEntity
  8
1
  6
Continuous
100
AcDbLine
 10
36.20188413687714
 20
107.9153331415459
 30
0.0
 11
36.30188413687716
 21
107.9030254492381
 31
0.0
  0
LINE
  5
124C
330
18
100
AcDbEntity
  8
1
  6
Continuous
100
AcDbLine
 10
41.30188413687715
 20
108.093677231636
 30
0.0
 11
42.10074621740897
 21
107.9953557448008
 31
0.0
  0
LINE
  5
124D
330
18
100
AcDbEntity
  8
1
  6
Continuous
100
AcDbLine
 10
41.30188413687715
 20
105.1109877676737
 30
0.0
 11
42.10075235434453
 21
105.0126529894374
 31
0.0
  0
ARC
  5
1253
330
18
100
AcDbEntity
  8
1
  6
Continuous
100
AcDbCircle
 10
42.05188413687136
 20
109.0896513404353
 30
0.0
 40
0.4000000000000057
100
AcDbArc
 50
276.0708059081041
 51
96.07080590810415
  0
ARC
  5
1254
330
18
100
AcDbEntity
  8
1
  6
Continuous
100
AcDbCircle
 10
42.05188413687136
 20
107.5983513404353
 30
0.0
 40
0.4000000000000057
100
AcDbArc
 50
276.0708059081041
 51
96.07080590810415
  0
ARC
  5
1255
330
18
100
AcDbEntity
  8
1
  6
Continuous
100
AcDbCircle
 10
42.05188413687136
 20
106.1070513404353
 30
0.0
 40
0.4000000000000057
100
AcDbArc
 50
276.0708059081041
 51
96.07080590810415
  0
LINE
  5
1259
330
18
100
AcDbEntity
  8
1
  6
Continuous
100
AcDbLine
 10
42.00958117305435
 20
115.4526081244784
 30
0.0
 11
36.20188413687714
 21
114.8349372073809
 31
0.0
  0
LINE
  5
125A
330
18
100
AcDbEntity
  8
1
  6
Continuous
100
AcDbLine
 10
36.20188413687714
 20
114.0304254734834
 30
0.0
 11
42.09418710068836
 21
114.6570945563922
 31
0.0
  0
LINE
  5
125B
330
18
100
AcDbEntity
  8
1
  6
Continuous
100
AcDbLine
 10
42.00958117305435
 20
113.9613081244784
 30
0.0
 11
36.20188413687714
 21
113.3436372073809
 31
0.0
  0
LINE
  5
125C
330
18
100
AcDbEntity
  8
1
  6
Continuous
100
AcDbLine
 10
36.20188413687714
 20
112.5391254734834
 30
0.0
 11
42.09418710068836
 21
113.1657945563922
 31
0.0
  0
LINE
  5
125D
330
18
100
AcDbEntity
  8
1
  6
Continuous
100
AcDbLine
 10
36.20188413687714
 20
115.5217254734834
 30
0.0
 11
42.09418710068836
 21
116.1483945563922
 31
0.0
  0
LINE
  5
125E
330
18
100
AcDbEntity
  8
1
  6
Continuous
100
AcDbLine
 10
42.00958117305435
 20
112.4700081244784
 30
0.0
 11
36.20188413687714
 21
111.8523372073809
 31
0.0
  0
LINE
  5
125F
330
18
100
AcDbEntity
  8
1
  6
Continuous
100
AcDbLine
 10
36.20188413687714
 20
111.0478254734834
 30
0.0
 11
42.09418710068836
 21
111.6744945563922
 31
0.0
  0
LINE
  5
1260
330
18
100
AcDbEntity
  8
1
  6
Continuous
100
AcDbLine
 10
41.30188413687715
 20
120.024077231636
 30
0.0
 11
42.10074621740897
 21
119.9257557448007
 31
0.0
  0
LINE
  5
1261
330
18
100
AcDbEntity
  8
1
  6
Continuous
100
AcDbLine
 10
36.20188413687714
 20
119.8457331415459
 30
0.0
 11
36.30188413687716
 21
119.8334254492381
 31
0.0
  0
LINE
  5
1262
330
18
100
AcDbEntity
  8
1
  6
Continuous
100
AcDbLine
 10
36.20188413687714
 20
116.8631331415459
 30
0.0
 11
36.30188413687716
 21
116.8508254492381
 31
0.0
  0
LINE
  5
1263
330
18
100
AcDbEntity
  8
1
  6
Continuous
100
AcDbLine
 10
41.30188413687715
 20
117.041477231636
 30
0.0
 11
42.10074621740897
 21
116.9431557448007
 31
0.0
  0
LINE
  5
1264
330
18
100
AcDbEntity
  8
1
  6
Continuous
100
AcDbLine
 10
36.20188413687714
 20
118.3544331415459
 30
0.0
 11
36.30188413687716
 21
118.3421254492381
 31
0.0
  0
LINE
  5
1265
330
18
100
AcDbEntity
  8
1
  6
Continuous
100
AcDbLine
 10
41.30188413687715
 20
118.532777231636
 30
0.0
 11
42.10074621740897
 21
118.4344557448007
 31
0.0
  0
LINE
  5
1266
330
18
100
AcDbEntity
  8
1
  6
Continuous
100
AcDbLine
 10
41.30188413687715
 20
114.058877231636
 30
0.0
 11
42.10074621740897
 21
113.9605557448007
 31
0.0
  0
LINE
  5
1267
330
18
100
AcDbEntity
  8
1
  6
Continuous
100
AcDbLine
 10
36.20188413687714
 20
113.8805331415459
 30
0.0
 11
36.30188413687716
 21
113.8682254492381
 31
0.0
  0
LINE
  5
1268
330
18
100
AcDbEntity
  8
1
  6
Continuous
100
AcDbLine
 10
36.20188413687714
 20
115.3718331415459
 30
0.0
 11
36.30188413687716
 21
115.3595254492381
 31
0.0
  0
LINE
  5
1269
330
18
100
AcDbEntity
  8
1
  6
Continuous
100
AcDbLine
 10
41.30188413687715
 20
115.550177231636
 30
0.0
 11
42.10074621740897
 21
115.4518557448007
 31
0.0
  0
LINE
  5
126A
330
18
100
AcDbEntity
  8
1
  6
Continuous
100
AcDbLine
 10
41.30188413687715
 20
111.0762772316361
 30
0.0
 11
42.10074621740897
 21
110.9779557448008
 31
0.0
  0
LINE
  5
126B
330
18
100
AcDbEntity
  8
1
  6
Continuous
100
AcDbLine
 10
36.20188413687714
 20
112.3892331415459
 30
0.0
 11
36.30188413687716
 21
112.3769254492381
 31
0.0
  0
LINE
  5
126C
330
18
100
AcDbEntity
  8
1
  6
Continuous
100
AcDbLine
 10
41.30188413687715
 20
112.567577231636
 30
0.0
 11
42.10074621740897
 21
112.4692557448008
 31
0.0
  0
LINE
  5
126D
330
18
100
AcDbEntity
  8
1
  6
Continuous
100
AcDbLine
 10
36.20188413687714
 20
119.9956254734834
 30
0.0
 11
42.09418710068836
 21
120.6222945563922
 31
0.0
  0
LINE
  5
126E
330
18
100
AcDbEntity
  8
1
  6
Continuous
100
AcDbLine
 10
36.20188413687714
 20
117.0130254734834
 30
0.0
 11
42.09418710068836
 21
117.6396945563922
 31
0.0
  0
LINE
  5
126F
330
18
100
AcDbEntity
  8
1
  6
Continuous
100
AcDbLine
 10
42.00958117305435
 20
118.4352081244784
 30
0.0
 11
36.20188413687714
 21
117.8175372073809
 31
0.0
  0
LINE
  5
1270
330
18
100
AcDbEntity
  8
1
  6
Continuous
100
AcDbLine
 10
36.20188413687714
 20
118.5043254734834
 30
0.0
 11
42.09418710068836
 21
119.1309945563922
 31
0.0
  0
LINE
  5
1271
330
18
100
AcDbEntity
  8
1
  6
Continuous
100
AcDbLine
 10
42.00958117305435
 20
119.9265081244784
 30
0.0
 11
36.20188413687714
 21
119.3088372073809
 31
0.0
  0
LINE
  5
1272
330
18
100
AcDbEntity
  8
1
  6
Continuous
100
AcDbLine
 10
42.00958117305435
 20
116.9439081244784
 30
0.0
 11
36.20188413687714
 21
116.3262372073809
 31
0.0
  0
ARC
  5
127A
330
18
100
AcDbEntity
  8
1
  6
Continuous
100
AcDbCircle
 10
42.05188413687136
 20
112.0722513404353
 30
0.0
 40
0.4000000000000057
100
AcDbArc
 50
276.0708059081041
 51
96.07080590810415
  0
ARC
  5
127B
330
18
100
AcDbEntity
  8
1
  6
Continuous
100
AcDbCircle
 10
42.05188413687136
 20
118.0374513404353
 30
0.0
 40
0.4000000000000057
100
AcDbArc
 50
276.0708059081037
 51
96.07080590810415
  0
ARC
  5
127C
330
18
100
AcDbEntity
  8
1
  6
Continuous
100
AcDbCircle
 10
42.05188413687136
 20
116.5461513404353
 30
0.0
 40
0.4000000000000057
100
AcDbArc
 50
276.0708059081037
 51
96.07080590810415
  0
ARC
  5
127D
330
18
100
AcDbEntity
  8
1
  6
Continuous
100
AcDbCircle
 10
42.05188413687136
 20
113.5635513404353
 30
0.0
 40
0.4000000000000057
100
AcDbArc
 50
276.0708059081041
 51
96.07080590810415
  0
ARC
  5
127E
330
18
100
AcDbEntity
  8
1
  6
Continuous
100
AcDbCircle
 10
42.05188413687136
 20
115.0548513404353
 30
0.0
 40
0.4000000000000057
100
AcDbArc
 50
276.0708059081041
 51
96.07080590810415
  0
ARC
  5
127F
330
18
100
AcDbEntity
  8
1
  6
Continuous
100
AcDbCircle
 10
42.05188413687136
 20
119.5287513404353
 30
0.0
 40
0.4000000000000057
100
AcDbArc
 50
276.0708059081037
 51
96.07080590810415
  0
ARC
  5
1280
330
18
100
AcDbEntity
  8
1
  6
Continuous
100
AcDbCircle
 10
42.05188413687136
 20
131.4591513404353
 30
0.0
 40
0.4000000000000057
100
AcDbArc
 50
276.0708059081037
 51
96.07080590810415
  0
LINE
  5
1281
330
18
100
AcDbEntity
  8
1
  6
Continuous
100
AcDbLine
 10
42.00958117305435
 20
131.8569081244784
 30
0.0
 11
36.20188413687714
 21
131.2392372073808
 31
0.0
  0
LINE
  5
1282
330
18
100
AcDbEntity
  8
1
  6
Continuous
100
AcDbLine
 10
36.20188413687714
 20
131.7761331415458
 30
0.0
 11
36.30188413687716
 21
131.763825449238
 31
0.0
  0
LINE
  5
1283
330
18
100
AcDbEntity
  8
1
  6
Continuous
100
AcDbLine
 10
42.00958117305435
 20
130.3656081244783
 30
0.0
 11
36.20188413687714
 21
129.7479372073809
 31
0.0
  0
LINE
  5
1284
330
18
100
AcDbEntity
  8
1
  6
Continuous
100
AcDbLine
 10
36.20188413687714
 20
128.9434254734833
 30
0.0
 11
42.09418710068836
 21
129.5700945563922
 31
0.0
  0
LINE
  5
1285
330
18
100
AcDbEntity
  8
1
  6
Continuous
100
AcDbLine
 10
42.00958117305435
 20
128.8743081244783
 30
0.0
 11
36.20188413687714
 21
128.2566372073808
 31
0.0
  0
LINE
  5
1286
330
18
100
AcDbEntity
  8
1
  6
Continuous
100
AcDbLine
 10
36.20188413687714
 20
127.4521254734833
 30
0.0
 11
42.09418710068836
 21
128.0787945563922
 31
0.0
  0
LINE
  5
1287
330
18
100
AcDbEntity
  8
1
  6
Continuous
100
AcDbLine
 10
36.20188413687714
 20
130.4347254734833
 30
0.0
 11
42.09418710068836
 21
131.0613945563922
 31
0.0
  0
LINE
  5
1288
330
18
100
AcDbEntity
  8
1
  6
Continuous
100
AcDbLine
 10
42.00958117305435
 20
122.9091081244784
 30
0.0
 11
36.20188413687714
 21
122.2914372073809
 31
0.0
  0
LINE
  5
1289
330
18
100
AcDbEntity
  8
1
  6
Continuous
100
AcDbLine
 10
36.20188413687714
 20
121.4869254734834
 30
0.0
 11
42.09418710068836
 21
122.1135945563922
 31
0.0
  0
LINE
  5
128A
330
18
100
AcDbEntity
  8
1
  6
Continuous
100
AcDbLine
 10
42.00958117305435
 20
125.8917081244784
 30
0.0
 11
36.20188413687714
 21
125.2740372073809
 31
0.0
  0
LINE
  5
128B
330
18
100
AcDbEntity
  8
1
  6
Continuous
100
AcDbLine
 10
36.20188413687714
 20
124.4695254734834
 30
0.0
 11
42.09418710068836
 21
125.0961945563922
 31
0.0
  0
LINE
  5
128C
330
18
100
AcDbEntity
  8
1
  6
Continuous
100
AcDbLine
 10
42.00958117305435
 20
124.4004081244784
 30
0.0
 11
36.20188413687714
 21
123.7827372073809
 31
0.0
  0
LINE
  5
128D
330
18
100
AcDbEntity
  8
1
  6
Continuous
100
AcDbLine
 10
36.20188413687714
 20
122.9782254734834
 30
0.0
 11
42.09418710068836
 21
123.6048945563922
 31
0.0
  0
LINE
  5
128E
330
18
100
AcDbEntity
  8
1
  6
Continuous
100
AcDbLine
 10
36.20188413687714
 20
125.9608254734833
 30
0.0
 11
42.09418710068836
 21
126.5874945563922
 31
0.0
  0
LINE
  5
128F
330
18
100
AcDbEntity
  8
1
  6
Continuous
100
AcDbLine
 10
42.00958117305435
 20
127.3830081244784
 30
0.0
 11
36.20188413687714
 21
126.7653372073809
 31
0.0
  0
LINE
  5
1290
330
18
100
AcDbEntity
  8
1
  6
Continuous
100
AcDbLine
 10
41.30188413687715
 20
130.463177231636
 30
0.0
 11
42.10074621740897
 21
130.3648557448007
 31
0.0
  0
LINE
  5
1291
330
18
100
AcDbEntity
  8
1
  6
Continuous
100
AcDbLine
 10
36.20188413687714
 20
130.2848331415458
 30
0.0
 11
36.30188413687716
 21
130.2725254492381
 31
0.0
  0
LINE
  5
1292
330
18
100
AcDbEntity
  8
1
  6
Continuous
100
AcDbLine
 10
41.30188413687715
 20
128.971877231636
 30
0.0
 11
42.10074621740897
 21
128.8735557448007
 31
0.0
  0
LINE
  5
1293
330
18
100
AcDbEntity
  8
1
  6
Continuous
100
AcDbLine
 10
36.20188413687714
 20
128.7935331415458
 30
0.0
 11
36.30188413687716
 21
128.7812254492381
 31
0.0
  0
LINE
  5
1294
330
18
100
AcDbEntity
  8
1
  6
Continuous
100
AcDbLine
 10
36.20188413687714
 20
124.3196331415458
 30
0.0
 11
36.30188413687716
 21
124.3073254492381
 31
0.0
  0
LINE
  5
1295
330
18
100
AcDbEntity
  8
1
  6
Continuous
100
AcDbLine
 10
41.30188413687715
 20
124.497977231636
 30
0.0
 11
42.10074621740897
 21
124.3996557448007
 31
0.0
  0
LINE
  5
1296
330
18
100
AcDbEntity
  8
1
  6
Continuous
100
AcDbLine
 10
36.20188413687714
 20
125.8109331415458
 30
0.0
 11
36.30188413687716
 21
125.798625449238
 31
0.0
  0
LINE
  5
1297
330
18
100
AcDbEntity
  8
1
  6
Continuous
100
AcDbLine
 10
41.30188413687715
 20
125.989277231636
 30
0.0
 11
42.10074621740897
 21
125.8909557448007
 31
0.0
  0
LINE
  5
1298
330
18
100
AcDbEntity
  8
1
  6
Continuous
100
AcDbLine
 10
36.20188413687714
 20
127.3022331415458
 30
0.0
 11
36.30188413687716
 21
127.2899254492381
 31
0.0
  0
LINE
  5
1299
330
18
100
AcDbEntity
  8
1
  6
Continuous
100
AcDbLine
 10
41.30188413687715
 20
127.480577231636
 30
0.0
 11
42.10074621740897
 21
127.3822557448007
 31
0.0
  0
LINE
  5
129A
330
18
100
AcDbEntity
  8
1
  6
Continuous
100
AcDbLine
 10
41.30188413687715
 20
123.006677231636
 30
0.0
 11
42.10074621740897
 21
122.9083557448007
 31
0.0
  0
LINE
  5
129B
330
18
100
AcDbEntity
  8
1
  6
Continuous
100
AcDbLine
 10
36.20188413687714
 20
122.8283331415459
 30
0.0
 11
36.30188413687716
 21
122.8160254492381
 31
0.0
  0
LINE
  5
129C
330
18
100
AcDbEntity
  8
1
  6
Continuous
100
AcDbLine
 10
41.30188413687715
 20
121.515377231636
 30
0.0
 11
42.10074621740897
 21
121.4170557448007
 31
0.0
  0
ARC
  5
12A4
330
18
100
AcDbEntity
  8
1
  6
Continuous
100
AcDbCircle
 10
42.05188413687136
 20
129.9678513404353
 30
0.0
 40
0.4000000000000057
100
AcDbArc
 50
276.0708059081037
 51
96.07080590810415
  0
ARC
  5
12A5
330
18
100
AcDbEntity
  8
1
  6
Continuous
100
AcDbCircle
 10
42.05188413687136
 20
128.4765513404353
 30
0.0
 40
0.4000000000000057
100
AcDbArc
 50
276.0708059081037
 51
96.07080590810415
  0
ARC
  5
12A6
330
18
100
AcDbEntity
  8
1
  6
Continuous
100
AcDbCircle
 10
42.05188413687136
 20
124.0026513404353
 30
0.0
 40
0.4000000000000057
100
AcDbArc
 50
276.0708059081037
 51
96.07080590810415
  0
ARC
  5
12A7
330
18
100
AcDbEntity
  8
1
  6
Continuous
100
AcDbCircle
 10
42.05188413687136
 20
122.5113513404353
 30
0.0
 40
0.4000000000000057
100
AcDbArc
 50
276.0708059081037
 51
96.07080590810415
  0
ARC
  5
12A8
330
18
100
AcDbEntity
  8
1
  6
Continuous
100
AcDbCircle
 10
42.05188413687136
 20
125.4939513404353
 30
0.0
 40
0.4000000000000057
100
AcDbArc
 50
276.0708059081037
 51
96.07080590810415
  0
ARC
  5
12A9
330
18
100
AcDbEntity
  8
1
  6
Continuous
100
AcDbCircle
 10
42.05188413687136
 20
126.9852513404353
 30
0.0
 40
0.4000000000000057
100
AcDbArc
 50
276.0708059081037
 51
96.07080590810415
  0
LINE
  5
12AD
330
18
100
AcDbEntity
  8
1
  6
Continuous
100
AcDbLine
 10
42.00958117305435
 20
137.8221081244784
 30
0.0
 11
36.20188413687714
 21
137.2044372073808
 31
0.0
  0
LINE
  5
12AE
330
18
100
AcDbEntity
  8
1
  6
Continuous
100
AcDbLine
 10
36.20188413687714
 20
136.3999254734833
 30
0.0
 11
42.09418710068836
 21
137.0265945563921
 31
0.0
  0
LINE
  5
12AF
330
18
100
AcDbEntity
  8
1
  6
Continuous
100
AcDbLine
 10
36.20188413687714
 20
133.4173254734833
 30
0.0
 11
42.09418710068836
 21
134.0439945563922
 31
0.0
  0
LINE
  5
12B0
330
18
100
AcDbEntity
  8
1
  6
Continuous
100
AcDbLine
 10
42.00958117305435
 20
134.8395081244783
 30
0.0
 11
36.20188413687714
 21
134.2218372073809
 31
0.0
  0
LINE
  5
12B1
330
18
100
AcDbEntity
  8
1
  6
Continuous
100
AcDbLine
 10
36.20188413687714
 20
134.9086254734833
 30
0.0
 11
42.09418710068836
 21
135.5352945563922
 31
0.0
  0
LINE
  5
12B2
330
18
100
AcDbEntity
  8
1
  6
Continuous
100
AcDbLine
 10
42.00958117305435
 20
136.3308081244783
 30
0.0
 11
36.20188413687714
 21
135.7131372073809
 31
0.0
  0
LINE
  5
12B3
330
18
100
AcDbEntity
  8
1
  6
Continuous
100
AcDbLine
 10
36.20188413687714
 20
131.9260254734833
 30
0.0
 11
42.09418710068836
 21
132.5526945563922
 31
0.0
  0
LINE
  5
12B4
330
18
100
AcDbEntity
  8
1
  6
Continuous
100
AcDbLine
 10
42.00958117305435
 20
133.3482081244783
 30
0.0
 11
36.20188413687714
 21
132.7305372073808
 31
0.0
  0
LINE
  5
12B9
330
18
100
AcDbEntity
  8
1
  6
Continuous
100
AcDbLine
 10
41.30188413687715
 20
134.937077231636
 30
0.0
 11
42.10074621740897
 21
134.8387557448007
 31
0.0
  0
LINE
  5
12BA
330
18
100
AcDbEntity
  8
1
  6
Continuous
100
AcDbLine
 10
36.20188413687714
 20
134.7587331415458
 30
0.0
 11
36.30188413687716
 21
134.746425449238
 31
0.0
  0
LINE
  5
12BB
330
18
100
AcDbEntity
  8
1
  6
Continuous
100
AcDbLine
 10
36.20188413687714
 20
136.2500331415458
 30
0.0
 11
36.30188413687716
 21
136.237725449238
 31
0.0
  0
LINE
  5
12BC
330
18
100
AcDbEntity
  8
1
  6
Continuous
100
AcDbLine
 10
41.30188413687715
 20
136.4283772316359
 30
0.0
 11
42.10074621740897
 21
136.3300557448005
 31
0.0
  0
LINE
  5
12BD
330
18
100
AcDbEntity
  8
1
  6
Continuous
100
AcDbLine
 10
41.30188413687715
 20
133.445777231636
 30
0.0
 11
42.10074621740897
 21
133.3474557448007
 31
0.0
  0
LINE
  5
12BE
330
18
100
AcDbEntity
  8
1
  6
Continuous
100
AcDbLine
 10
36.20188413687714
 20
133.2674331415458
 30
0.0
 11
36.30188413687716
 21
133.255125449238
 31
0.0
  0
LINE
  5
12BF
330
18
100
AcDbEntity
  8
1
  6
Continuous
100
AcDbLine
 10
41.30188413687715
 20
131.954477231636
 30
0.0
 11
42.10074621740897
 21
131.8561557448007
 31
0.0
  0
ARC
  5
12C7
330
18
100
AcDbEntity
  8
1
  6
Continuous
100
AcDbCircle
 10
42.05188413687136
 20
138.567745473488
 30
0.0
 40
0.4000000000000057
100
AcDbArc
 50
273.4949483710861
 51
93.50151833802026
  0
ARC
  5
12C8
330
18
100
AcDbEntity
  8
1
  6
Continuous
100
AcDbCircle
 10
42.05188413687136
 20
137.4243513404352
 30
0.0
 40
0.4000000000000057
100
AcDbArc
 50
276.0708059081037
 51
96.07080590810415
  0
ARC
  5
12C9
330
18
100
AcDbEntity
  8
1
  6
Continuous
100
AcDbCircle
 10
42.05188413687136
 20
135.9330513404353
 30
0.0
 40
0.4000000000000057
100
AcDbArc
 50
276.0708059081037
 51
96.07080590810415
  0
ARC
  5
12CA
330
18
100
AcDbEntity
  8
1
  6
Continuous
100
AcDbCircle
 10
42.05188413687136
 20
134.4417513404353
 30
0.0
 40
0.4000000000000057
100
AcDbArc
 50
276.0708059081037
 51
96.07080590810415
  0
ARC
  5
12CB
330
18
100
AcDbEntity
  8
1
  6
Continuous
100
AcDbCircle
 10
42.05188413687136
 20
132.9504513404352
 30
0.0
 40
0.4000000000000057
100
AcDbArc
 50
276.0708059081041
 51
96.07080590810459
  0
LINE
  5
12CF
330
18
100
AcDbEntity
  8
1
  6
Continuous
100
AcDbLine
 10
42.02745414083806
 20
138.9669987456021
 30
0.0
 11
36.20188413687714
 21
138.6105366649415
 31
0.0
  0
LINE
  5
12D0
330
18
100
AcDbEntity
  8
1
  6
Continuous
100
AcDbLine
 10
41.30188413687715
 20
137.913104511144
 30
0.0
 11
42.09751731692541
 21
137.8217398315596
 31
0.0
  0
LINE
  5
12D1
330
18
100
AcDbEntity
  8
1
  6
Continuous
100
AcDbLine
 10
42.07626835134772
 20
138.1684894026708
 30
0.0
 11
36.20188413687714
 21
137.8097165371542
 31
0.0
  0
LINE
  5
12D3
330
18
100
AcDbEntity
  8
1
  6
Continuous
100
AcDbLine
 10
36.20188413687714
 20
137.6934937683227
 30
0.0
 11
36.30188413687716
 21
137.6820105016773
 31
0.0
  0
LINE
  5
12D4
330
18
100
AcDbEntity
  8
1
  6
Continuous
100
AcDbLine
 10
36.30188413687716
 20
137.8158239494789
 30
0.0
 11
36.30188413687716
 21
137.2150725919963
 31
0.0
  0
LINE
  5
12D5
330
18
100
AcDbEntity
  8
1
  6
Continuous
100
AcDbLine
 10
41.30188413687715
 20
138.1211945657155
 30
0.0
 11
41.30188413687715
 21
137.7468418227688
 31
0.0
  0
ARC
  5
12D7
330
18
100
AcDbEntity
  8
1
  6
Continuous
100
AcDbCircle
 10
42.05188413687136
 20
104.6157513404353
 30
0.0
 40
0.4000000000000057
100
AcDbArc
 50
276.5646146423692
 51
96.56461464236762
  0
CIRCLE
  5
12D9
330
18
100
AcDbEntity
  8
1
  6
Continuous
100
AcDbCircle
 10
42.05188413687136
 20
103.4677434734881
 30
0.0
 40
0.4000000000000057
  0
LINE
  5
12DA
330
18
100
AcDbEntity
  8
1
  6
Continuous
100
AcDbLine
 10
36.20188413687714
 20
104.9327331415459
 30
0.0
 11
36.30188413687716
 21
104.9204254492381
 31
0.0
  0
LINE
  5
12DC
330
18
100
AcDbEntity
  8
1
  6
Continuous
100
AcDbLine
 10
41.30188413687715
 20
103.9146540003843
 30
0.0
 11
42.07645304443882
 21
103.8669882214572
 31
0.0
  0
LINE
  5
12DD
330
18
100
AcDbEntity
  8
1
  6
Continuous
100
AcDbLine
 10
36.30188413687716
 20
103.4208329465935
 30
0.0
 11
36.20188413687714
 21
103.4269867927474
 31
0.0
  0
LINE
  5
12DE
330
18
100
AcDbEntity
  8
1
  6
Continuous
100
AcDbLine
 10
36.20188413687714
 20
104.3451841443004
 30
0.0
 11
42.0061546846574
 21
105.0131287645553
 31
0.0
  0
LINE
  5
12DF
330
18
100
AcDbEntity
  8
1
  6
Continuous
100
AcDbLine
 10
42.09761358908531
 20
104.2183739163154
 30
0.0
 11
36.20188413687714
 21
103.5399043760582
 31
0.0
  0
LINE
  5
12E0
330
18
100
AcDbEntity
  8
1
  6
Continuous
100
AcDbLine
 10
41.30188413687715
 20
113.0815300888713
 30
0.0
 11
41.30188413687715
 21
112.3947418227689
 31
0.0
  0
LINE
  5
12E1
330
18
100
AcDbEntity
  8
1
  6
Continuous
100
AcDbLine
 10
41.30188413687715
 20
114.5728300888713
 30
0.0
 11
41.30188413687715
 21
113.8860418227688
 31
0.0
  0
LINE
  5
12E2
330
18
100
AcDbEntity
  8
1
  6
Continuous
100
AcDbLine
 10
41.30188413687721
 20
116.0641300888713
 30
0.0
 11
41.30188413687715
 21
115.3773418227688
 31
0.0
  0
LINE
  5
12E3
330
18
100
AcDbEntity
  8
1
  6
Continuous
100
AcDbLine
 10
41.30188413687721
 20
117.5554300888713
 30
0.0
 11
41.30188413687715
 21
116.8686418227688
 31
0.0
  0
LINE
  5
12E4
330
18
100
AcDbEntity
  8
1
  6
Continuous
100
AcDbLine
 10
41.30188413687715
 20
119.0467300888712
 30
0.0
 11
41.30188413687715
 21
118.3599418227688
 31
0.0
  0
LINE
  5
12E5
330
18
100
AcDbEntity
  8
1
  6
Continuous
100
AcDbLine
 10
41.30188413687715
 20
120.5380300888713
 30
0.0
 11
41.30188413687715
 21
119.8512418227688
 31
0.0
  0
LINE
  5
12E6
330
18
100
AcDbEntity
  8
1
  6
Continuous
100
AcDbLine
 10
41.30188413687721
 20
122.0293300888713
 30
0.0
 11
41.30188413687715
 21
121.3425418227688
 31
0.0
  0
LINE
  5
12E7
330
18
100
AcDbEntity
  8
1
  6
Continuous
100
AcDbLine
 10
41.30188413687715
 20
123.5206300888713
 30
0.0
 11
41.30188413687715
 21
122.8338418227688
 31
0.0
  0
LINE
  5
12E8
330
18
100
AcDbEntity
  8
1
  6
Continuous
100
AcDbLine
 10
41.30188413687715
 20
125.0119300888713
 30
0.0
 11
41.30188413687715
 21
124.3251418227688
 31
0.0
  0
LINE
  5
12E9
330
18
100
AcDbEntity
  8
1
  6
Continuous
100
AcDbLine
 10
41.30188413687715
 20
126.5032300888712
 30
0.0
 11
41.30188413687715
 21
125.8164418227688
 31
0.0
  0
LINE
  5
12EA
330
18
100
AcDbEntity
  8
1
  6
Continuous
100
AcDbLine
 10
41.30188413687715
 20
127.9945300888713
 30
0.0
 11
41.30188413687715
 21
127.3077418227688
 31
0.0
  0
LINE
  5
12EB
330
18
100
AcDbEntity
  8
1
  6
Continuous
100
AcDbLine
 10
41.30188413687715
 20
129.4858300888712
 30
0.0
 11
41.30188413687715
 21
128.7990418227687
 31
0.0
  0
LINE
  5
12EC
330
18
100
AcDbEntity
  8
1
  6
Continuous
100
AcDbLine
 10
41.30188413687715
 20
130.9771300888712
 30
0.0
 11
41.30188413687715
 21
130.2903418227688
 31
0.0
  0
LINE
  5
12ED
330
18
100
AcDbEntity
  8
1
  6
Continuous
100
AcDbLine
 10
41.30188413687711
 20
132.4684300888712
 30
0.0
 11
41.30188413687715
 21
131.7816418227688
 31
0.0
  0
LINE
  5
12EE
330
18
100
AcDbEntity
  8
1
  6
Continuous
100
AcDbLine
 10
41.30188413687715
 20
133.9597300888712
 30
0.0
 11
41.30188413687715
 21
133.2729418227687
 31
0.0
  0
LINE
  5
12EF
330
18
100
AcDbEntity
  8
1
  6
Continuous
100
AcDbLine
 10
41.30188413687715
 20
135.4510300888712
 30
0.0
 11
41.30188413687715
 21
134.7642418227687
 31
0.0
  0
LINE
  5
12F0
330
18
100
AcDbEntity
  8
1
  6
Continuous
100
AcDbLine
 10
41.30188413687715
 20
136.9423300888712
 30
0.0
 11
41.30188413687721
 21
136.2555418227687
 31
0.0
  0
LINE
  5
12F1
330
18
100
AcDbEntity
  8
1
  6
Continuous
100
AcDbLine
 10
36.30188413687716
 20
136.4105608580987
 30
0.0
 11
36.30188413687716
 21
135.7237725919963
 31
0.0
  0
LINE
  5
12F2
330
18
100
AcDbEntity
  8
1
  6
Continuous
100
AcDbLine
 10
36.30188413687716
 20
134.9192608580988
 30
0.0
 11
36.30188413687716
 21
134.2324725919963
 31
0.0
  0
LINE
  5
12F3
330
18
100
AcDbEntity
  8
1
  6
Continuous
100
AcDbLine
 10
36.30188413687716
 20
133.4279608580988
 30
0.0
 11
36.30188413687716
 21
132.7411725919962
 31
0.0
  0
LINE
  5
12F4
330
18
100
AcDbEntity
  8
1
  6
Continuous
100
AcDbLine
 10
36.30188413687716
 20
131.9366608580988
 30
0.0
 11
36.30188413687716
 21
131.2498725919962
 31
0.0
  0
LINE
  5
12F5
330
18
100
AcDbEntity
  8
1
  6
Continuous
100
AcDbLine
 10
36.30188413687716
 20
130.4453608580988
 30
0.0
 11
36.30188413687711
 21
129.7585725919963
 31
0.0
  0
LINE
  5
12F6
330
18
100
AcDbEntity
  8
1
  6
Continuous
100
AcDbLine
 10
36.30188413687711
 20
128.9540608580988
 30
0.0
 11
36.30188413687711
 21
128.2672725919962
 31
0.0
  0
LINE
  5
12F7
330
18
100
AcDbEntity
  8
1
  6
Continuous
100
AcDbLine
 10
36.30188413687711
 20
127.4627608580988
 30
0.0
 11
36.30188413687711
 21
126.7759725919963
 31
0.0
  0
LINE
  5
12F8
330
18
100
AcDbEntity
  8
1
  6
Continuous
100
AcDbLine
 10
36.30188413687716
 20
125.9714608580988
 30
0.0
 11
36.30188413687711
 21
125.2846725919963
 31
0.0
  0
LINE
  5
12F9
330
18
100
AcDbEntity
  8
1
  6
Continuous
100
AcDbLine
 10
36.30188413687716
 20
124.4801608580988
 30
0.0
 11
36.30188413687716
 21
123.7933725919963
 31
0.0
  0
LINE
  5
12FA
330
18
100
AcDbEntity
  8
1
  6
Continuous
100
AcDbLine
 10
36.30188413687716
 20
122.9888608580988
 30
0.0
 11
36.30188413687716
 21
122.3020725919963
 31
0.0
  0
LINE
  5
12FB
330
18
100
AcDbEntity
  8
1
  6
Continuous
100
AcDbLine
 10
36.30188413687716
 20
121.4975608580988
 30
0.0
 11
36.30188413687716
 21
120.8107725919963
 31
0.0
  0
LINE
  5
12FC
330
18
100
AcDbEntity
  8
1
  6
Continuous
100
AcDbLine
 10
36.30188413687716
 20
120.0062608580988
 30
0.0
 11
36.30188413687716
 21
119.3194725919963
 31
0.0
  0
LINE
  5
12FD
330
18
100
AcDbEntity
  8
1
  6
Continuous
100
AcDbLine
 10
36.30188413687722
 20
118.5149608580988
 30
0.0
 11
36.30188413687716
 21
117.8281725919963
 31
0.0
  0
LINE
  5
12FE
330
18
100
AcDbEntity
  8
1
  6
Continuous
100
AcDbLine
 10
36.30188413687716
 20
117.0236608580988
 30
0.0
 11
36.30188413687722
 21
116.3368725919964
 31
0.0
  0
LINE
  5
12FF
330
18
100
AcDbEntity
  8
1
  6
Continuous
100
AcDbLine
 10
36.30188413687716
 20
115.5323608580988
 30
0.0
 11
36.30188413687716
 21
114.8455725919964
 31
0.0
  0
LINE
  5
1300
330
18
100
AcDbEntity
  8
1
  6
Continuous
100
AcDbLine
 10
36.30188413687716
 20
114.0410608580988
 30
0.0
 11
36.30188413687716
 21
113.3542725919964
 31
0.0
  0
LINE
  5
1301
330
18
100
AcDbEntity
  8
1
  6
Continuous
100
AcDbLine
 10
36.30188413687716
 20
112.5497608580988
 30
0.0
 11
36.30188413687716
 21
111.8629725919964
 31
0.0
  0
LINE
  5
1302
330
18
100
AcDbEntity
  8
1
  6
Continuous
100
AcDbLine
 10
41.30188413687711
 20
104.126802856282
 30
0.0
 11
41.30188413687715
 21
103.067743473488
 31
0.0
  0
LINE
  5
1303
330
18
100
AcDbEntity
  8
1
  6
Continuous
100
AcDbLine
 10
41.30188413687711
 20
105.6250300888713
 30
0.0
 11
41.30188413687711
 21
104.9320826245242
 31
0.0
  0
LINE
  5
1304
330
18
100
AcDbEntity
  8
1
  6
Continuous
100
AcDbLine
 10
41.30188413687711
 20
107.1163300888713
 30
0.0
 11
41.30188413687711
 21
106.4295418227688
 31
0.0
  0
LINE
  5
1305
330
18
100
AcDbEntity
  8
1
  6
Continuous
100
AcDbLine
 10
41.30188413687715
 20
108.6076300888713
 30
0.0
 11
41.30188413687715
 21
107.9208418227688
 31
0.0
  0
LINE
  5
1306
330
18
100
AcDbEntity
  8
1
  6
Continuous
100
AcDbLine
 10
41.30188413687715
 20
110.0989300888713
 30
0.0
 11
41.30188413687715
 21
109.4121418227688
 31
0.0
  0
LINE
  5
1307
330
18
100
AcDbEntity
  8
1
  6
Continuous
100
AcDbLine
 10
41.30188413687715
 20
111.5902300888713
 30
0.0
 11
41.30188413687715
 21
110.9034418227689
 31
0.0
  0
LINE
  5
1308
330
18
100
AcDbEntity
  8
1
  6
Continuous
100
AcDbLine
 10
36.30188413687716
 20
111.0584608580988
 30
0.0
 11
36.30188413687716
 21
110.3716725919964
 31
0.0
  0
LINE
  5
1309
330
18
100
AcDbEntity
  8
1
  6
Continuous
100
AcDbLine
 10
36.30188413687716
 20
109.5671608580988
 30
0.0
 11
36.30188413687716
 21
108.8803725919964
 31
0.0
  0
LINE
  5
130A
330
18
100
AcDbEntity
  8
1
  6
Continuous
100
AcDbLine
 10
36.30188413687716
 20
108.0758608580989
 30
0.0
 11
36.30188413687716
 21
107.3890725919964
 31
0.0
  0
LINE
  5
130B
330
18
100
AcDbEntity
  8
1
  6
Continuous
100
AcDbLine
 10
36.30188413687716
 20
106.5845608580989
 30
0.0
 11
36.30188413687716
 21
105.8977725919963
 31
0.0
  0
LINE
  5
130C
330
18
100
AcDbEntity
  8
1
  6
Continuous
100
AcDbLine
 10
36.30188413687716
 20
105.0932608580989
 30
0.0
 11
36.30188413687716
 21
104.3566919576381
 31
0.0
  0
LINE
  5
130D
330
18
100
AcDbEntity
  8
1
  6
Continuous
100
AcDbLine
 10
36.30188413687716
 20
103.5514121893959
 30
0.0
 11
36.30188413687716
 21
103.067743473488
 31
0.0
  0
LINE
  5
1310
330
18
100
AcDbEntity
  8
1
  6
Continuous
100
AcDbLine
 10
186.08683031905
 20
122.1044943905838
 30
0.0
 11
179.5868303190897
 21
121.4131943905838
 31
0.0
  0
ARC
  5
1311
330
18
100
AcDbEntity
  8
1
  6
Continuous
100
AcDbCircle
 10
186.129133282867
 20
121.7067376065407
 30
0.0
 40
0.4000000000000057
100
AcDbArc
 50
276.0708059081041
 51
96.0708059081042
  0
LINE
  5
1312
330
18
100
AcDbEntity
  8
1
  6
Continuous
100
AcDbLine
 10
180.379133282901
 20
121.4974588581047
 30
0.0
 11
180.379133282901
 21
122.1842471242072
 31
0.0
  0
LINE
  5
1313
330
18
100
AcDbEntity
  8
1
  6
Continuous
100
AcDbLine
 10
179.6714362467238
 20
131.0567808224976
 30
0.0
 11
186.1714362466841
 21
131.7480808224976
 31
0.0
  0
LINE
  5
1314
330
18
100
AcDbEntity
  8
1
  6
Continuous
100
AcDbLine
 10
186.08683031905
 20
132.5435943905837
 30
0.0
 11
179.5868303190897
 21
131.8522943905837
 31
0.0
  0
LINE
  5
1315
330
18
100
AcDbEntity
  8
1
  6
Continuous
100
AcDbLine
 10
186.08683031905
 20
135.5261943905837
 30
0.0
 11
179.5868303190897
 21
134.8348943905838
 31
0.0
  0
LINE
  5
1316
330
18
100
AcDbEntity
  8
1
  6
Continuous
100
AcDbLine
 10
179.6714362467238
 20
134.0393808224976
 30
0.0
 11
186.1714362466841
 21
134.7306808224976
 31
0.0
  0
LINE
  5
1317
330
18
100
AcDbEntity
  8
1
  6
Continuous
100
AcDbLine
 10
186.08683031905
 20
134.0348943905837
 30
0.0
 11
179.5868303190897
 21
133.3435943905838
 31
0.0
  0
LINE
  5
1318
330
18
100
AcDbEntity
  8
1
  6
Continuous
100
AcDbLine
 10
179.6714362467238
 20
132.5480808224976
 30
0.0
 11
186.1714362466841
 21
133.2393808224976
 31
0.0
  0
LINE
  5
1319
330
18
100
AcDbEntity
  8
1
  6
Continuous
100
AcDbLine
 10
179.6714362467238
 20
135.5306808224976
 30
0.0
 11
186.1714362466841
 21
136.2219808224975
 31
0.0
  0
LINE
  5
131A
330
18
100
AcDbEntity
  8
1
  6
Continuous
100
AcDbLine
 10
186.08683031905
 20
137.0174943905838
 30
0.0
 11
179.5868303190897
 21
136.3261943905837
 31
0.0
  0
LINE
  5
131C
330
18
100
AcDbEntity
  8
1
  6
Continuous
100
AcDbLine
 10
179.6714362467238
 20
126.5828808224976
 30
0.0
 11
186.1714362466841
 21
127.2741808224976
 31
0.0
  0
LINE
  5
131D
330
18
100
AcDbEntity
  8
1
  6
Continuous
100
AcDbLine
 10
186.08683031905
 20
128.0696943905837
 30
0.0
 11
179.5868303190897
 21
127.3783943905838
 31
0.0
  0
LINE
  5
131E
330
18
100
AcDbEntity
  8
1
  6
Continuous
100
AcDbLine
 10
179.6714362467238
 20
128.0741808224976
 30
0.0
 11
186.1714362466841
 21
128.7654808224976
 31
0.0
  0
LINE
  5
131F
330
18
100
AcDbEntity
  8
1
  6
Continuous
100
AcDbLine
 10
186.08683031905
 20
129.5609943905837
 30
0.0
 11
179.5868303190897
 21
128.8696943905838
 31
0.0
  0
LINE
  5
1320
330
18
100
AcDbEntity
  8
1
  6
Continuous
100
AcDbLine
 10
186.08683031905
 20
126.5783943905838
 30
0.0
 11
179.5868303190897
 21
125.8870943905838
 31
0.0
  0
LINE
  5
1321
330
18
100
AcDbEntity
  8
1
  6
Continuous
100
AcDbLine
 10
179.6714362467238
 20
129.5654808224976
 30
0.0
 11
186.1714362466841
 21
130.2567808224976
 31
0.0
  0
LINE
  5
1322
330
18
100
AcDbEntity
  8
1
  6
Continuous
100
AcDbLine
 10
186.08683031905
 20
131.0522943905838
 30
0.0
 11
179.5868303190897
 21
130.3609943905838
 31
0.0
  0
LINE
  5
1323
330
18
100
AcDbEntity
  8
1
  6
Continuous
100
AcDbLine
 10
186.08683031905
 20
125.0870943905838
 30
0.0
 11
179.5868303190897
 21
124.3957943905838
 31
0.0
  0
LINE
  5
1324
330
18
100
AcDbEntity
  8
1
  6
Continuous
100
AcDbLine
 10
179.6714362467238
 20
123.6002808224976
 30
0.0
 11
186.1714362466841
 21
124.2915808224976
 31
0.0
  0
LINE
  5
1325
330
18
100
AcDbEntity
  8
1
  6
Continuous
100
AcDbLine
 10
186.08683031905
 20
123.5957943905838
 30
0.0
 11
179.5868303190897
 21
122.9044943905838
 31
0.0
  0
LINE
  5
1326
330
18
100
AcDbEntity
  8
1
  6
Continuous
100
AcDbLine
 10
179.6714362467238
 20
122.1089808224976
 30
0.0
 11
186.1714362466841
 21
122.8002808224976
 31
0.0
  0
LINE
  5
1327
330
18
100
AcDbEntity
  8
1
  6
Continuous
100
AcDbLine
 10
179.6714362467238
 20
125.0915808224976
 30
0.0
 11
186.1714362466841
 21
125.7828808224976
 31
0.0
  0
LINE
  5
1328
330
18
100
AcDbEntity
  8
1
  6
Continuous
100
AcDbLine
 10
186.174862735081
 20
137.770368049368
 30
0.0
 11
179.6748627351206
 21
137.0223601824207
 31
0.0
  0
LINE
  5
1329
330
18
100
AcDbEntity
  8
1
  6
Continuous
100
AcDbLine
 10
179.5834038306928
 20
137.8171150306606
 30
0.0
 11
186.0834038306531
 21
138.5651228976079
 31
0.0
  0
LINE
  5
132A
330
18
100
AcDbEntity
  8
1
  6
Continuous
100
AcDbLine
 10
185.379133282901
 20
132.4683280888772
 30
0.0
 11
185.379133282901
 21
133.1551163549796
 31
0.0
  0
LINE
  5
132B
330
18
100
AcDbEntity
  8
1
  6
Continuous
100
AcDbLine
 10
186.1779953634046
 20
135.5254420109059
 30
0.0
 11
185.379133282901
 21
135.6237634977379
 31
0.0
  0
LINE
  5
132C
330
18
100
AcDbEntity
  8
1
  6
Continuous
100
AcDbLine
 10
186.1779953634046
 20
134.0341420109061
 30
0.0
 11
185.379133282901
 21
134.1324634977379
 31
0.0
  0
ARC
  5
132D
330
18
100
AcDbEntity
  8
1
  6
Continuous
100
AcDbCircle
 10
186.129133282867
 20
133.6371376065407
 30
0.0
 40
0.4000000000000057
100
AcDbArc
 50
276.0708059081041
 51
96.0708059081042
  0
ARC
  5
132E
330
18
100
AcDbEntity
  8
1
  6
Continuous
100
AcDbCircle
 10
186.129133282867
 20
135.1284376065407
 30
0.0
 40
0.4000000000000057
100
AcDbArc
 50
276.0708059081041
 51
96.0708059081042
  0
ARC
  5
132F
330
18
100
AcDbEntity
  8
1
  6
Continuous
100
AcDbCircle
 10
186.129133282867
 20
136.6197376065406
 30
0.0
 40
0.4000000000000057
100
AcDbArc
 50
276.0708059081041
 51
96.0708059081042
  0
LINE
  5
1330
330
18
100
AcDbEntity
  8
1
  6
Continuous
100
AcDbLine
 10
186.1779953634046
 20
137.0167420109061
 30
0.0
 11
185.379133282901
 21
137.1150634977379
 31
0.0
  0
ARC
  5
1331
330
18
100
AcDbEntity
  8
1
  6
Continuous
100
AcDbCircle
 10
186.129133282867
 20
138.167745473488
 30
0.0
 40
0.4000000000000057
100
AcDbArc
 50
276.5646146423676
 51
96.56461464236924
  0
LINE
  5
1332
330
18
100
AcDbEntity
  8
1
  6
Continuous
100
AcDbLine
 10
185.379133282901
 20
138.6146560003825
 30
0.0
 11
186.1537021904345
 21
138.5669902214571
 31
0.0
  0
LINE
  5
1333
330
18
100
AcDbEntity
  8
1
  6
Continuous
100
AcDbLine
 10
185.379133282901
 20
133.9596280888772
 30
0.0
 11
185.379133282901
 21
134.6464163549796
 31
0.0
  0
LINE
  5
1334
330
18
100
AcDbEntity
  8
1
  6
Continuous
100
AcDbLine
 10
185.379133282901
 20
135.4509280888771
 30
0.0
 11
185.379133282901
 21
136.1377163549797
 31
0.0
  0
LINE
  5
1335
330
18
100
AcDbEntity
  8
1
  6
Continuous
100
AcDbLine
 10
185.379133282901
 20
136.9422280888771
 30
0.0
 11
185.379133282901
 21
137.6787969893379
 31
0.0
  0
LINE
  5
1336
330
18
100
AcDbEntity
  8
1
  6
Continuous
100
AcDbLine
 10
185.379133282901
 20
138.48407675758
 30
0.0
 11
185.379133282901
 21
138.967745473488
 31
0.0
  0
LINE
  5
1337
330
18
100
AcDbEntity
  8
1
  6
Continuous
100
AcDbLine
 10
186.1779953634046
 20
131.051542010906
 30
0.0
 11
185.379133282901
 21
131.1498634977378
 31
0.0
  0
LINE
  5
1338
330
18
100
AcDbEntity
  8
1
  6
Continuous
100
AcDbLine
 10
186.1779953634046
 20
132.5428420109061
 30
0.0
 11
185.379133282901
 21
132.6411634977379
 31
0.0
  0
ARC
  5
1339
330
18
100
AcDbEntity
  8
1
  6
Continuous
100
AcDbCircle
 10
186.129133282867
 20
132.1458376065406
 30
0.0
 40
0.4000000000000057
100
AcDbArc
 50
276.0708059081041
 51
96.0708059081042
  0
LINE
  5
133A
330
18
100
AcDbEntity
  8
1
  6
Continuous
100
AcDbLine
 10
186.1779953634046
 20
122.1037420109061
 30
0.0
 11
185.379133282901
 21
122.2020634977379
 31
0.0
  0
LINE
  5
133B
330
18
100
AcDbEntity
  8
1
  6
Continuous
100
AcDbLine
 10
186.1779953634046
 20
125.0863420109061
 30
0.0
 11
185.379133282901
 21
125.1846634977379
 31
0.0
  0
LINE
  5
133C
330
18
100
AcDbEntity
  8
1
  6
Continuous
100
AcDbLine
 10
186.1779953634046
 20
123.5950420109061
 30
0.0
 11
185.379133282901
 21
123.6933634977379
 31
0.0
  0
LINE
  5
133D
330
18
100
AcDbEntity
  8
1
  6
Continuous
100
AcDbLine
 10
186.1779953634046
 20
128.0689420109061
 30
0.0
 11
185.379133282901
 21
128.1672634977379
 31
0.0
  0
LINE
  5
133E
330
18
100
AcDbEntity
  8
1
  6
Continuous
100
AcDbLine
 10
186.1779953634046
 20
126.5776420109061
 30
0.0
 11
185.379133282901
 21
126.6759634977379
 31
0.0
  0
LINE
  5
133F
330
18
100
AcDbEntity
  8
1
  6
Continuous
100
AcDbLine
 10
186.1779953634046
 20
129.5602420109061
 30
0.0
 11
185.379133282901
 21
129.6585634977379
 31
0.0
  0
ARC
  5
1340
330
18
100
AcDbEntity
  8
1
  6
Continuous
100
AcDbCircle
 10
186.129133282867
 20
123.1980376065407
 30
0.0
 40
0.4000000000000057
100
AcDbArc
 50
276.0708059081041
 51
96.0708059081042
  0
ARC
  5
1341
330
18
100
AcDbEntity
  8
1
  6
Continuous
100
AcDbCircle
 10
186.129133282867
 20
124.6893376065407
 30
0.0
 40
0.4000000000000057
100
AcDbArc
 50
276.0708059081041
 51
96.0708059081042
  0
ARC
  5
1342
330
18
100
AcDbEntity
  8
1
  6
Continuous
100
AcDbCircle
 10
186.129133282867
 20
127.6719376065407
 30
0.0
 40
0.4000000000000057
100
AcDbArc
 50
276.0708059081041
 51
96.0708059081042
  0
ARC
  5
1343
330
18
100
AcDbEntity
  8
1
  6
Continuous
100
AcDbCircle
 10
186.129133282867
 20
126.1806376065407
 30
0.0
 40
0.4000000000000057
100
AcDbArc
 50
276.0708059081041
 51
96.0708059081042
  0
ARC
  5
1344
330
18
100
AcDbEntity
  8
1
  6
Continuous
100
AcDbCircle
 10
186.129133282867
 20
129.1632376065407
 30
0.0
 40
0.4000000000000057
100
AcDbArc
 50
276.0708059081041
 51
96.0708059081042
  0
ARC
  5
1345
330
18
100
AcDbEntity
  8
1
  6
Continuous
100
AcDbCircle
 10
186.129133282867
 20
130.6545376065407
 30
0.0
 40
0.4000000000000057
100
AcDbArc
 50
276.0708059081041
 51
96.0708059081042
  0
LINE
  5
1346
330
18
100
AcDbEntity
  8
1
  6
Continuous
100
AcDbLine
 10
185.379133282901
 20
122.0292280888772
 30
0.0
 11
185.379133282901
 21
122.7160163549797
 31
0.0
  0
LINE
  5
1347
330
18
100
AcDbEntity
  8
1
  6
Continuous
100
AcDbLine
 10
185.3791332829009
 20
123.5205280888772
 30
0.0
 11
185.379133282901
 21
124.2073163549797
 31
0.0
  0
LINE
  5
1348
330
18
100
AcDbEntity
  8
1
  6
Continuous
100
AcDbLine
 10
185.379133282901
 20
125.0118280888772
 30
0.0
 11
185.3791332829009
 21
125.6986163549796
 31
0.0
  0
LINE
  5
1349
330
18
100
AcDbEntity
  8
1
  6
Continuous
100
AcDbLine
 10
185.379133282901
 20
126.5031280888772
 30
0.0
 11
185.379133282901
 21
127.1899163549796
 31
0.0
  0
LINE
  5
134A
330
18
100
AcDbEntity
  8
1
  6
Continuous
100
AcDbLine
 10
185.379133282901
 20
127.9944280888772
 30
0.0
 11
185.379133282901
 21
128.6812163549797
 31
0.0
  0
LINE
  5
134B
330
18
100
AcDbEntity
  8
1
  6
Continuous
100
AcDbLine
 10
185.379133282901
 20
129.4857280888771
 30
0.0
 11
185.379133282901
 21
130.1725163549797
 31
0.0
  0
LINE
  5
134C
330
18
100
AcDbEntity
  8
1
  6
Continuous
100
AcDbLine
 10
185.379133282901
 20
130.9770280888772
 30
0.0
 11
185.379133282901
 21
131.6638163549797
 31
0.0
  0
ARC
  5
134D
330
18
100
AcDbEntity
  8
1
  6
Continuous
100
AcDbCircle
 10
179.6291332829068
 20
132.9458376065407
 30
0.0
 40
0.4000000000000057
100
AcDbArc
 50
96.0708059081042
 51
276.0708059081041
  0
LINE
  5
134E
330
18
100
AcDbEntity
  8
1
  6
Continuous
100
AcDbLine
 10
180.379133282901
 20
135.4331117153399
 30
0.0
 11
179.5802712023692
 21
135.5314332021753
 31
0.0
  0
LINE
  5
134F
330
18
100
AcDbEntity
  8
1
  6
Continuous
100
AcDbLine
 10
180.379133282901
 20
133.94181171534
 30
0.0
 11
179.5802712023692
 21
134.0401332021752
 31
0.0
  0
LINE
  5
1350
330
18
100
AcDbEntity
  8
1
  6
Continuous
100
AcDbLine
 10
180.379133282901
 20
136.9245011793023
 30
0.0
 11
179.5802650654335
 21
137.0228359575385
 31
0.0
  0
ARC
  5
1351
330
18
100
AcDbEntity
  8
1
  6
Continuous
100
AcDbCircle
 10
179.6291332829068
 20
134.4371376065407
 30
0.0
 40
0.4000000000000057
100
AcDbArc
 50
96.0708059081042
 51
276.0708059081041
  0
ARC
  5
1352
330
18
100
AcDbEntity
  8
1
  6
Continuous
100
AcDbCircle
 10
179.6291332829068
 20
135.9284376065406
 30
0.0
 40
0.4000000000000057
100
AcDbArc
 50
96.0708059081042
 51
276.0708059081041
  0
ARC
  5
1353
330
18
100
AcDbEntity
  8
1
  6
Continuous
100
AcDbCircle
 10
179.6291332829068
 20
137.4197376065407
 30
0.0
 40
0.4000000000000057
100
AcDbArc
 50
96.56461464236924
 51
276.5646146423676
  0
CIRCLE
  5
1354
330
18
100
AcDbEntity
  8
1
  6
Continuous
100
AcDbCircle
 10
179.6291332829068
 20
138.567745473488
 30
0.0
 40
0.4000000000000057
  0
LINE
  5
1355
330
18
100
AcDbEntity
  8
1
  6
Continuous
100
AcDbLine
 10
180.379133282901
 20
138.1208349465916
 30
0.0
 11
179.6045643753393
 21
138.1685007255188
 31
0.0
  0
LINE
  5
1356
330
18
100
AcDbEntity
  8
1
  6
Continuous
100
AcDbLine
 10
180.379133282901
 20
137.908686090694
 30
0.0
 11
180.379133282901
 21
138.967745473488
 31
0.0
  0
LINE
  5
1357
330
18
100
AcDbEntity
  8
1
  6
Continuous
100
AcDbLine
 10
180.379133282901
 20
136.4104588581047
 30
0.0
 11
180.379133282901
 21
137.1034063224518
 31
0.0
  0
LINE
  5
1358
330
18
100
AcDbEntity
  8
1
  6
Continuous
100
AcDbLine
 10
180.379133282901
 20
134.9191588581047
 30
0.0
 11
180.379133282901
 21
135.6059471242072
 31
0.0
  0
LINE
  5
1359
330
18
100
AcDbEntity
  8
1
  6
Continuous
100
AcDbLine
 10
180.379133282901
 20
133.4278588581047
 30
0.0
 11
180.379133282901
 21
134.1146471242071
 31
0.0
  0
ARC
  5
135A
330
18
100
AcDbEntity
  8
1
  6
Continuous
100
AcDbCircle
 10
179.6291332829068
 20
131.4545376065407
 30
0.0
 40
0.4000000000000057
100
AcDbArc
 50
96.0708059081042
 51
276.0708059081041
  0
LINE
  5
135B
330
18
100
AcDbEntity
  8
1
  6
Continuous
100
AcDbLine
 10
180.379133282901
 20
132.4505117153399
 30
0.0
 11
179.5802712023692
 21
132.5488332021752
 31
0.0
  0
LINE
  5
135C
330
18
100
AcDbEntity
  8
1
  6
Continuous
100
AcDbLine
 10
180.379133282901
 20
122.01141171534
 30
0.0
 11
179.5802712023692
 21
122.1097332021753
 31
0.0
  0
LINE
  5
135D
330
18
100
AcDbEntity
  8
1
  6
Continuous
100
AcDbLine
 10
180.379133282901
 20
124.99401171534
 30
0.0
 11
179.5802712023692
 21
125.0923332021753
 31
0.0
  0
LINE
  5
135E
330
18
100
AcDbEntity
  8
1
  6
Continuous
100
AcDbLine
 10
180.379133282901
 20
123.50271171534
 30
0.0
 11
179.5802712023692
 21
123.6010332021753
 31
0.0
  0
LINE
  5
135F
330
18
100
AcDbEntity
  8
1
  6
Continuous
100
AcDbLine
 10
180.379133282901
 20
127.97661171534
 30
0.0
 11
179.5802712023692
 21
128.0749332021753
 31
0.0
  0
LINE
  5
1360
330
18
100
AcDbEntity
  8
1
  6
Continuous
100
AcDbLine
 10
180.379133282901
 20
126.48531171534
 30
0.0
 11
179.5802712023692
 21
126.5836332021753
 31
0.0
  0
LINE
  5
1361
330
18
100
AcDbEntity
  8
1
  6
Continuous
100
AcDbLine
 10
180.379133282901
 20
130.9592117153399
 30
0.0
 11
179.5802712023692
 21
131.0575332021753
 31
0.0
  0
LINE
  5
1362
330
18
100
AcDbEntity
  8
1
  6
Continuous
100
AcDbLine
 10
180.379133282901
 20
129.46791171534
 30
0.0
 11
179.5802712023692
 21
129.5662332021753
 31
0.0
  0
ARC
  5
1363
330
18
100
AcDbEntity
  8
1
  6
Continuous
100
AcDbCircle
 10
179.6291332829068
 20
129.9632376065406
 30
0.0
 40
0.4000000000000057
100
AcDbArc
 50
96.0708059081042
 51
276.0708059081041
  0
ARC
  5
1364
330
18
100
AcDbEntity
  8
1
  6
Continuous
100
AcDbCircle
 10
179.6291332829068
 20
123.9980376065407
 30
0.0
 40
0.4000000000000057
100
AcDbArc
 50
96.07080590810374
 51
276.0708059081041
  0
ARC
  5
1365
330
18
100
AcDbEntity
  8
1
  6
Continuous
100
AcDbCircle
 10
179.6291332829068
 20
125.4893376065407
 30
0.0
 40
0.4000000000000057
100
AcDbArc
 50
96.07080590810374
 51
276.0708059081041
  0
ARC
  5
1366
330
18
100
AcDbEntity
  8
1
  6
Continuous
100
AcDbCircle
 10
179.6291332829068
 20
128.4719376065407
 30
0.0
 40
0.4000000000000057
100
AcDbArc
 50
96.0708059081042
 51
276.0708059081041
  0
ARC
  5
1367
330
18
100
AcDbEntity
  8
1
  6
Continuous
100
AcDbCircle
 10
179.6291332829068
 20
126.9806376065407
 30
0.0
 40
0.4000000000000057
100
AcDbArc
 50
96.0708059081042
 51
276.0708059081041
  0
ARC
  5
1368
330
18
100
AcDbEntity
  8
1
  6
Continuous
100
AcDbCircle
 10
179.6291332829068
 20
122.5067376065407
 30
0.0
 40
0.4000000000000057
100
AcDbArc
 50
96.07080590810374
 51
276.0708059081041
  0
LINE
  5
1369
330
18
100
AcDbEntity
  8
1
  6
Continuous
100
AcDbLine
 10
180.379133282901
 20
128.9539588581047
 30
0.0
 11
180.379133282901
 21
129.6407471242072
 31
0.0
  0
LINE
  5
136A
330
18
100
AcDbEntity
  8
1
  6
Continuous
100
AcDbLine
 10
180.379133282901
 20
127.4626588581047
 30
0.0
 11
180.379133282901
 21
128.1494471242071
 31
0.0
  0
LINE
  5
136B
330
18
100
AcDbEntity
  8
1
  6
Continuous
100
AcDbLine
 10
180.379133282901
 20
125.9713588581047
 30
0.0
 11
180.379133282901
 21
126.6581471242072
 31
0.0
  0
LINE
  5
136C
330
18
100
AcDbEntity
  8
1
  6
Continuous
100
AcDbLine
 10
180.379133282901
 20
124.4800588581047
 30
0.0
 11
180.379133282901
 21
125.1668471242072
 31
0.0
  0
LINE
  5
136D
330
18
100
AcDbEntity
  8
1
  6
Continuous
100
AcDbLine
 10
180.379133282901
 20
122.9887588581048
 30
0.0
 11
180.379133282901
 21
123.6755471242072
 31
0.0
  0
LINE
  5
136E
330
18
100
AcDbEntity
  8
1
  6
Continuous
100
AcDbLine
 10
180.379133282901
 20
131.9365588581047
 30
0.0
 11
180.379133282901
 21
132.6233471242072
 31
0.0
  0
LINE
  5
136F
330
18
100
AcDbEntity
  8
1
  6
Continuous
100
AcDbLine
 10
180.379133282901
 20
130.4452588581047
 30
0.0
 11
180.379133282901
 21
131.1320471242071
 31
0.0
  0
LINE
  5
1370
330
18
100
AcDbEntity
  8
1
  6
Continuous
100
AcDbLine
 10
179.6714362467238
 20
120.6176808224976
 30
0.0
 11
186.1714362466841
 21
121.3089808224976
 31
0.0
  0
LINE
  5
1371
330
18
100
AcDbEntity
  8
1
  6
Continuous
100
AcDbLine
 10
179.6714362467238
 20
110.1785808224977
 30
0.0
 11
186.1714362466841
 21
110.8698808224976
 31
0.0
  0
LINE
  5
1372
330
18
100
AcDbEntity
  8
1
  6
Continuous
100
AcDbLine
 10
179.6714362467238
 20
111.6698808224977
 30
0.0
 11
186.1714362466841
 21
112.3611808224976
 31
0.0
  0
LINE
  5
1373
330
18
100
AcDbEntity
  8
1
  6
Continuous
100
AcDbLine
 10
186.08683031905
 20
113.1566943905838
 30
0.0
 11
179.5868303190897
 21
112.4653943905838
 31
0.0
  0
LINE
  5
1374
330
18
100
AcDbEntity
  8
1
  6
Continuous
100
AcDbLine
 10
179.6714362467238
 20
113.1611808224977
 30
0.0
 11
186.1714362466841
 21
113.8524808224976
 31
0.0
  0
LINE
  5
1375
330
18
100
AcDbEntity
  8
1
  6
Continuous
100
AcDbLine
 10
186.08683031905
 20
114.6479943905838
 30
0.0
 11
179.5868303190897
 21
113.9566943905838
 31
0.0
  0
LINE
  5
1376
330
18
100
AcDbEntity
  8
1
  6
Continuous
100
AcDbLine
 10
186.08683031905
 20
111.6653943905838
 30
0.0
 11
179.5868303190897
 21
110.9740943905838
 31
0.0
  0
LINE
  5
1377
330
18
100
AcDbEntity
  8
1
  6
Continuous
100
AcDbLine
 10
179.6714362467238
 20
119.1263808224976
 30
0.0
 11
186.1714362466841
 21
119.8176808224976
 31
0.0
  0
LINE
  5
1378
330
18
100
AcDbEntity
  8
1
  6
Continuous
100
AcDbLine
 10
186.08683031905
 20
120.6131943905838
 30
0.0
 11
179.5868303190897
 21
119.9218943905838
 31
0.0
  0
LINE
  5
1379
330
18
100
AcDbEntity
  8
1
  6
Continuous
100
AcDbLine
 10
179.6714362467238
 20
116.1437808224976
 30
0.0
 11
186.1714362466841
 21
116.8350808224976
 31
0.0
  0
LINE
  5
137A
330
18
100
AcDbEntity
  8
1
  6
Continuous
100
AcDbLine
 10
186.08683031905
 20
117.6305943905838
 30
0.0
 11
179.5868303190897
 21
116.9392943905838
 31
0.0
  0
LINE
  5
137B
330
18
100
AcDbEntity
  8
1
  6
Continuous
100
AcDbLine
 10
179.6714362467238
 20
117.6350808224976
 30
0.0
 11
186.1714362466841
 21
118.3263808224976
 31
0.0
  0
LINE
  5
137C
330
18
100
AcDbEntity
  8
1
  6
Continuous
100
AcDbLine
 10
186.08683031905
 20
119.1218943905838
 30
0.0
 11
179.5868303190897
 21
118.4305943905838
 31
0.0
  0
LINE
  5
137D
330
18
100
AcDbEntity
  8
1
  6
Continuous
100
AcDbLine
 10
186.08683031905
 20
116.1392943905838
 30
0.0
 11
179.5868303190897
 21
115.4479943905838
 31
0.0
  0
LINE
  5
137E
330
18
100
AcDbEntity
  8
1
  6
Continuous
100
AcDbLine
 10
179.6714362467238
 20
114.6524808224977
 30
0.0
 11
186.1714362466841
 21
115.3437808224976
 31
0.0
  0
LINE
  5
137F
330
18
100
AcDbEntity
  8
1
  6
Continuous
100
AcDbLine
 10
179.6714362467238
 20
104.2133808224977
 30
0.0
 11
186.1714362466841
 21
104.9046808224977
 31
0.0
  0
LINE
  5
1380
330
18
100
AcDbEntity
  8
1
  6
Continuous
100
AcDbLine
 10
186.08683031905
 20
105.7001943905838
 30
0.0
 11
179.5868303190897
 21
105.0088943905838
 31
0.0
  0
LINE
  5
1381
330
18
100
AcDbEntity
  8
1
  6
Continuous
100
AcDbLine
 10
186.08683031905
 20
108.6827943905838
 30
0.0
 11
179.5868303190897
 21
107.9914943905838
 31
0.0
  0
LINE
  5
1382
330
18
100
AcDbEntity
  8
1
  6
Continuous
100
AcDbLine
 10
179.6714362467238
 20
107.1959808224977
 30
0.0
 11
186.1714362466841
 21
107.8872808224976
 31
0.0
  0
LINE
  5
1383
330
18
100
AcDbEntity
  8
1
  6
Continuous
100
AcDbLine
 10
186.08683031905
 20
107.1914943905838
 30
0.0
 11
179.5868303190897
 21
106.5001943905838
 31
0.0
  0
LINE
  5
1384
330
18
100
AcDbEntity
  8
1
  6
Continuous
100
AcDbLine
 10
179.6714362467238
 20
105.7046808224977
 30
0.0
 11
186.1714362466841
 21
106.3959808224977
 31
0.0
  0
LINE
  5
1385
330
18
100
AcDbEntity
  8
1
  6
Continuous
100
AcDbLine
 10
186.08683031905
 20
110.1740943905838
 30
0.0
 11
179.5868303190897
 21
109.4827943905838
 31
0.0
  0
LINE
  5
1386
330
18
100
AcDbEntity
  8
1
  6
Continuous
100
AcDbLine
 10
179.6714362467238
 20
108.6872808224977
 30
0.0
 11
186.1714362466841
 21
109.3785808224976
 31
0.0
  0
LINE
  5
1388
330
18
100
AcDbEntity
  8
1
  6
Continuous
100
AcDbLine
 10
179.6535632789401
 20
103.0684902013739
 30
0.0
 11
186.129133282867
 21
103.4647252745931
 31
0.0
  0
LINE
  5
1389
330
18
100
AcDbEntity
  8
1
  6
Continuous
100
AcDbLine
 10
179.6047490684304
 20
103.8669995443052
 30
0.0
 11
186.1047490683907
 21
104.2639813454103
 31
0.0
  0
ARC
  5
138A
330
18
100
AcDbEntity
  8
1
  6
Continuous
100
AcDbCircle
 10
186.129133282867
 20
111.2676376065407
 30
0.0
 40
0.4000000000000057
100
AcDbArc
 50
276.0708059081041
 51
96.07080590810374
  0
LINE
  5
138B
330
18
100
AcDbEntity
  8
1
  6
Continuous
100
AcDbLine
 10
186.1779953634046
 20
120.6124420109061
 30
0.0
 11
185.379133282901
 21
120.7107634977379
 31
0.0
  0
LINE
  5
138C
330
18
100
AcDbEntity
  8
1
  6
Continuous
100
AcDbLine
 10
186.1779953634046
 20
111.6646420109062
 30
0.0
 11
185.379133282901
 21
111.7629634977379
 31
0.0
  0
LINE
  5
138D
330
18
100
AcDbEntity
  8
1
  6
Continuous
100
AcDbLine
 10
186.1779953634046
 20
113.1559420109061
 30
0.0
 11
185.379133282901
 21
113.2542634977379
 31
0.0
  0
LINE
  5
138E
330
18
100
AcDbEntity
  8
1
  6
Continuous
100
AcDbLine
 10
186.1779953634046
 20
117.6298420109061
 30
0.0
 11
185.379133282901
 21
117.728163497738
 31
0.0
  0
LINE
  5
138F
330
18
100
AcDbEntity
  8
1
  6
Continuous
100
AcDbLine
 10
186.1779953634046
 20
116.138542010906
 30
0.0
 11
185.379133282901
 21
116.236863497738
 31
0.0
  0
LINE
  5
1390
330
18
100
AcDbEntity
  8
1
  6
Continuous
100
AcDbLine
 10
186.1779953634046
 20
114.6472420109061
 30
0.0
 11
185.379133282901
 21
114.7455634977379
 31
0.0
  0
LINE
  5
1391
330
18
100
AcDbEntity
  8
1
  6
Continuous
100
AcDbLine
 10
186.1779953634046
 20
119.1211420109061
 30
0.0
 11
185.379133282901
 21
119.2194634977379
 31
0.0
  0
ARC
  5
1392
330
18
100
AcDbEntity
  8
1
  6
Continuous
100
AcDbCircle
 10
186.129133282867
 20
112.7589376065407
 30
0.0
 40
0.4000000000000057
100
AcDbArc
 50
276.0708059081045
 51
96.07080590810374
  0
ARC
  5
1393
330
18
100
AcDbEntity
  8
1
  6
Continuous
100
AcDbCircle
 10
186.129133282867
 20
120.2154376065407
 30
0.0
 40
0.4000000000000057
100
AcDbArc
 50
276.0708059081041
 51
96.0708059081042
  0
ARC
  5
1394
330
18
100
AcDbEntity
  8
1
  6
Continuous
100
AcDbCircle
 10
186.129133282867
 20
117.2328376065407
 30
0.0
 40
0.4000000000000057
100
AcDbArc
 50
276.0708059081041
 51
96.07080590810374
  0
ARC
  5
1395
330
18
100
AcDbEntity
  8
1
  6
Continuous
100
AcDbCircle
 10
186.129133282867
 20
118.7241376065407
 30
0.0
 40
0.4000000000000057
100
AcDbArc
 50
276.0708059081041
 51
96.07080590810374
  0
ARC
  5
1396
330
18
100
AcDbEntity
  8
1
  6
Continuous
100
AcDbCircle
 10
186.129133282867
 20
115.7415376065407
 30
0.0
 40
0.4000000000000057
100
AcDbArc
 50
276.0708059081041
 51
96.07080590810374
  0
ARC
  5
1397
330
18
100
AcDbEntity
  8
1
  6
Continuous
100
AcDbCircle
 10
186.129133282867
 20
114.2502376065407
 30
0.0
 40
0.4000000000000057
100
AcDbArc
 50
276.0708059081041
 51
96.07080590810374
  0
LINE
  5
1398
330
18
100
AcDbEntity
  8
1
  6
Continuous
100
AcDbLine
 10
185.379133282901
 20
111.5901280888772
 30
0.0
 11
185.379133282901
 21
112.2769163549797
 31
0.0
  0
LINE
  5
1399
330
18
100
AcDbEntity
  8
1
  6
Continuous
100
AcDbLine
 10
185.379133282901
 20
113.0814280888772
 30
0.0
 11
185.379133282901
 21
113.7682163549797
 31
0.0
  0
LINE
  5
139A
330
18
100
AcDbEntity
  8
1
  6
Continuous
100
AcDbLine
 10
185.379133282901
 20
114.5727280888772
 30
0.0
 11
185.379133282901
 21
115.2595163549797
 31
0.0
  0
LINE
  5
139B
330
18
100
AcDbEntity
  8
1
  6
Continuous
100
AcDbLine
 10
185.379133282901
 20
116.0640280888772
 30
0.0
 11
185.379133282901
 21
116.7508163549797
 31
0.0
  0
LINE
  5
139C
330
18
100
AcDbEntity
  8
1
  6
Continuous
100
AcDbLine
 10
185.379133282901
 20
117.5553280888772
 30
0.0
 11
185.379133282901
 21
118.2421163549797
 31
0.0
  0
LINE
  5
139D
330
18
100
AcDbEntity
  8
1
  6
Continuous
100
AcDbLine
 10
185.379133282901
 20
119.0466280888772
 30
0.0
 11
185.379133282901
 21
119.7334163549797
 31
0.0
  0
LINE
  5
139E
330
18
100
AcDbEntity
  8
1
  6
Continuous
100
AcDbLine
 10
185.379133282901
 20
120.5379280888772
 30
0.0
 11
185.379133282901
 21
121.2247163549797
 31
0.0
  0
LINE
  5
139F
330
18
100
AcDbEntity
  8
1
  6
Continuous
100
AcDbLine
 10
185.379133282901
 20
103.067743473488
 30
0.0
 11
185.379133282901
 21
103.418833360102
 31
0.0
  0
LINE
  5
13A0
330
18
100
AcDbEntity
  8
1
  6
Continuous
100
AcDbLine
 10
186.1779953634046
 20
110.1733420109062
 30
0.0
 11
185.379133282901
 21
110.2716634977379
 31
0.0
  0
LINE
  5
13A1
330
18
100
AcDbEntity
  8
1
  6
Continuous
100
AcDbLine
 10
186.1779953634046
 20
107.1907420109062
 30
0.0
 11
185.379133282901
 21
107.289063497738
 31
0.0
  0
LINE
  5
13A2
330
18
100
AcDbEntity
  8
1
  6
Continuous
100
AcDbLine
 10
186.1779953634046
 20
105.6994420109062
 30
0.0
 11
185.379133282901
 21
105.797763497738
 31
0.0
  0
LINE
  5
13A3
330
18
100
AcDbEntity
  8
1
  6
Continuous
100
AcDbLine
 10
186.1779953634046
 20
108.6820420109062
 30
0.0
 11
185.379133282901
 21
108.780363497738
 31
0.0
  0
ARC
  5
13A4
330
18
100
AcDbEntity
  8
1
  6
Continuous
100
AcDbCircle
 10
186.129133282867
 20
103.8647252745931
 30
0.0
 40
0.4000000000000057
100
AcDbArc
 50
270.0000000000834
 51
93.4949483710862
  0
ARC
  5
13A5
330
18
100
AcDbEntity
  8
1
  6
Continuous
100
AcDbCircle
 10
186.129133282867
 20
105.3024376065407
 30
0.0
 40
0.4000000000000057
100
AcDbArc
 50
276.0708059081041
 51
96.07080590810374
  0
ARC
  5
13A6
330
18
100
AcDbEntity
  8
1
  6
Continuous
100
AcDbCircle
 10
186.129133282867
 20
106.7937376065407
 30
0.0
 40
0.4000000000000057
100
AcDbArc
 50
276.0708059081041
 51
96.0708059081042
  0
ARC
  5
13A7
330
18
100
AcDbEntity
  8
1
  6
Continuous
100
AcDbCircle
 10
186.129133282867
 20
108.2850376065407
 30
0.0
 40
0.4000000000000057
100
AcDbArc
 50
276.0708059081041
 51
96.07080590810374
  0
ARC
  5
13A8
330
18
100
AcDbEntity
  8
1
  6
Continuous
100
AcDbCircle
 10
186.129133282867
 20
109.7763376065407
 30
0.0
 40
0.4000000000000057
100
AcDbArc
 50
276.0708059081045
 51
96.0708059081042
  0
LINE
  5
13A9
330
18
100
AcDbEntity
  8
1
  6
Continuous
100
AcDbLine
 10
186.1747664629211
 20
104.2621137657176
 30
0.0
 11
185.379133282901
 21
104.3534784452987
 31
0.0
  0
LINE
  5
13AA
330
18
100
AcDbEntity
  8
1
  6
Continuous
100
AcDbLine
 10
185.379133282901
 20
104.2196649974971
 30
0.0
 11
185.379133282901
 21
104.8204163549797
 31
0.0
  0
LINE
  5
13AB
330
18
100
AcDbEntity
  8
1
  6
Continuous
100
AcDbLine
 10
185.379133282901
 20
105.6249280888773
 30
0.0
 11
185.379133282901
 21
106.3117163549797
 31
0.0
  0
LINE
  5
13AC
330
18
100
AcDbEntity
  8
1
  6
Continuous
100
AcDbLine
 10
185.379133282901
 20
107.1162280888772
 30
0.0
 11
185.379133282901
 21
107.8030163549797
 31
0.0
  0
LINE
  5
13AD
330
18
100
AcDbEntity
  8
1
  6
Continuous
100
AcDbLine
 10
185.379133282901
 20
108.6075280888772
 30
0.0
 11
185.379133282901
 21
109.2943163549797
 31
0.0
  0
LINE
  5
13AE
330
18
100
AcDbEntity
  8
1
  6
Continuous
100
AcDbLine
 10
185.379133282901
 20
110.0988280888772
 30
0.0
 11
185.379133282901
 21
110.7856163549797
 31
0.0
  0
LINE
  5
13AF
330
18
100
AcDbEntity
  8
1
  6
Continuous
100
AcDbLine
 10
180.379133282901
 20
111.0583588581048
 30
0.0
 11
180.379133282901
 21
111.7451471242073
 31
0.0
  0
ARC
  5
13B0
330
18
100
AcDbEntity
  8
1
  6
Continuous
100
AcDbCircle
 10
179.6291332829068
 20
121.0154376065407
 30
0.0
 40
0.4000000000000057
100
AcDbArc
 50
96.07080590810374
 51
276.0708059081041
  0
LINE
  5
13B1
330
18
100
AcDbEntity
  8
1
  6
Continuous
100
AcDbLine
 10
180.379133282901
 20
111.57231171534
 30
0.0
 11
179.5802712023692
 21
111.6706332021753
 31
0.0
  0
LINE
  5
13B2
330
18
100
AcDbEntity
  8
1
  6
Continuous
100
AcDbLine
 10
180.379133282901
 20
113.06361171534
 30
0.0
 11
179.5802712023692
 21
113.1619332021753
 31
0.0
  0
LINE
  5
13B3
330
18
100
AcDbEntity
  8
1
  6
Continuous
100
AcDbLine
 10
180.379133282901
 20
117.53751171534
 30
0.0
 11
179.5802712023692
 21
117.6358332021753
 31
0.0
  0
LINE
  5
13B4
330
18
100
AcDbEntity
  8
1
  6
Continuous
100
AcDbLine
 10
180.379133282901
 20
116.0462117153399
 30
0.0
 11
179.5802712023692
 21
116.1445332021753
 31
0.0
  0
LINE
  5
13B5
330
18
100
AcDbEntity
  8
1
  6
Continuous
100
AcDbLine
 10
180.379133282901
 20
114.55491171534
 30
0.0
 11
179.5802712023692
 21
114.6532332021753
 31
0.0
  0
LINE
  5
13B6
330
18
100
AcDbEntity
  8
1
  6
Continuous
100
AcDbLine
 10
180.379133282901
 20
119.02881171534
 30
0.0
 11
179.5802712023692
 21
119.1271332021753
 31
0.0
  0
LINE
  5
13B7
330
18
100
AcDbEntity
  8
1
  6
Continuous
100
AcDbLine
 10
180.379133282901
 20
120.52011171534
 30
0.0
 11
179.5802712023692
 21
120.6184332021753
 31
0.0
  0
ARC
  5
13B8
330
18
100
AcDbEntity
  8
1
  6
Continuous
100
AcDbCircle
 10
179.6291332829068
 20
112.0676376065407
 30
0.0
 40
0.4000000000000057
100
AcDbArc
 50
96.07080590810374
 51
276.0708059081041
  0
ARC
  5
13B9
330
18
100
AcDbEntity
  8
1
  6
Continuous
100
AcDbCircle
 10
179.6291332829068
 20
113.5589376065407
 30
0.0
 40
0.4000000000000057
100
AcDbArc
 50
96.07080590810374
 51
276.0708059081041
  0
ARC
  5
13BA
330
18
100
AcDbEntity
  8
1
  6
Continuous
100
AcDbCircle
 10
179.6291332829068
 20
118.0328376065407
 30
0.0
 40
0.4000000000000057
100
AcDbArc
 50
96.07080590810374
 51
276.0708059081041
  0
ARC
  5
13BB
330
18
100
AcDbEntity
  8
1
  6
Continuous
100
AcDbCircle
 10
179.6291332829068
 20
119.5241376065407
 30
0.0
 40
0.4000000000000057
100
AcDbArc
 50
96.07080590810374
 51
276.0708059081041
  0
ARC
  5
13BC
330
18
100
AcDbEntity
  8
1
  6
Continuous
100
AcDbCircle
 10
179.6291332829068
 20
116.5415376065407
 30
0.0
 40
0.4000000000000057
100
AcDbArc
 50
96.07080590810374
 51
276.0708059081041
  0
ARC
  5
13BD
330
18
100
AcDbEntity
  8
1
  6
Continuous
100
AcDbCircle
 10
179.6291332829068
 20
115.0502376065407
 30
0.0
 40
0.4000000000000057
100
AcDbArc
 50
96.07080590810374
 51
276.0708059081041
  0
LINE
  5
13BE
330
18
100
AcDbEntity
  8
1
  6
Continuous
100
AcDbLine
 10
180.379133282901
 20
120.0061588581047
 30
0.0
 11
180.379133282901
 21
120.6929471242072
 31
0.0
  0
LINE
  5
13BF
330
18
100
AcDbEntity
  8
1
  6
Continuous
100
AcDbLine
 10
180.379133282901
 20
118.5148588581047
 30
0.0
 11
180.379133282901
 21
119.2016471242072
 31
0.0
  0
LINE
  5
13C0
330
18
100
AcDbEntity
  8
1
  6
Continuous
100
AcDbLine
 10
180.379133282901
 20
117.0235588581048
 30
0.0
 11
180.379133282901
 21
117.7103471242072
 31
0.0
  0
LINE
  5
13C1
330
18
100
AcDbEntity
  8
1
  6
Continuous
100
AcDbLine
 10
180.379133282901
 20
115.5322588581048
 30
0.0
 11
180.379133282901
 21
116.2190471242072
 31
0.0
  0
LINE
  5
13C2
330
18
100
AcDbEntity
  8
1
  6
Continuous
100
AcDbLine
 10
180.379133282901
 20
114.0409588581047
 30
0.0
 11
180.379133282901
 21
114.7277471242072
 31
0.0
  0
LINE
  5
13C3
330
18
100
AcDbEntity
  8
1
  6
Continuous
100
AcDbLine
 10
180.379133282901
 20
112.5496588581048
 30
0.0
 11
180.379133282901
 21
113.2364471242073
 31
0.0
  0
LINE
  5
13C4
330
18
100
AcDbEntity
  8
1
  6
Continuous
100
AcDbLine
 10
180.379133282901
 20
103.067743473488
 30
0.0
 11
180.379133282901
 21
103.1128872634813
 31
0.0
  0
ARC
  5
13C5
330
18
100
AcDbEntity
  8
1
  6
Continuous
100
AcDbCircle
 10
179.6291332829068
 20
110.5763376065407
 30
0.0
 40
0.4000000000000057
100
AcDbArc
 50
96.07080590810374
 51
276.0708059081041
  0
LINE
  5
13C6
330
18
100
AcDbEntity
  8
1
  6
Continuous
100
AcDbLine
 10
180.379133282901
 20
107.09841171534
 30
0.0
 11
179.5802712023692
 21
107.1967332021753
 31
0.0
  0
LINE
  5
13C7
330
18
100
AcDbEntity
  8
1
  6
Continuous
100
AcDbLine
 10
180.379133282901
 20
105.6071117153401
 30
0.0
 11
179.5802712023692
 21
105.7054332021753
 31
0.0
  0
LINE
  5
13C8
330
18
100
AcDbEntity
  8
1
  6
Continuous
100
AcDbLine
 10
180.379133282901
 20
108.58971171534
 30
0.0
 11
179.5802712023692
 21
108.6880332021753
 31
0.0
  0
LINE
  5
13C9
330
18
100
AcDbEntity
  8
1
  6
Continuous
100
AcDbLine
 10
180.379133282901
 20
110.08101171534
 30
0.0
 11
179.5802712023692
 21
110.1793332021753
 31
0.0
  0
ARC
  5
13CA
330
18
100
AcDbEntity
  8
1
  6
Continuous
100
AcDbCircle
 10
179.6291332829068
 20
103.467743473488
 30
0.0
 40
0.4000000000000057
100
AcDbArc
 50
93.4949483710862
 51
273.5015183380202
  0
ARC
  5
13CB
330
18
100
AcDbEntity
  8
1
  6
Continuous
100
AcDbCircle
 10
179.6291332829068
 20
104.6111376065408
 30
0.0
 40
0.4000000000000057
100
AcDbArc
 50
96.07080590810374
 51
276.0708059081041
  0
ARC
  5
13CC
330
18
100
AcDbEntity
  8
1
  6
Continuous
100
AcDbCircle
 10
179.6291332829068
 20
106.1024376065408
 30
0.0
 40
0.4000000000000057
100
AcDbArc
 50
96.07080590810374
 51
276.0708059081041
  0
ARC
  5
13CD
330
18
100
AcDbEntity
  8
1
  6
Continuous
100
AcDbCircle
 10
179.6291332829068
 20
107.5937376065408
 30
0.0
 40
0.4000000000000057
100
AcDbArc
 50
96.07080590810374
 51
276.0708059081041
  0
ARC
  5
13CE
330
18
100
AcDbEntity
  8
1
  6
Continuous
100
AcDbCircle
 10
179.6291332829068
 20
109.0850376065408
 30
0.0
 40
0.4000000000000057
100
AcDbArc
 50
96.0708059081042
 51
276.0708059081045
  0
LINE
  5
13CF
330
18
100
AcDbEntity
  8
1
  6
Continuous
100
AcDbLine
 10
180.379133282901
 20
104.122384435832
 30
0.0
 11
179.5835001028526
 21
104.2137491154163
 31
0.0
  0
LINE
  5
13D0
330
18
100
AcDbEntity
  8
1
  6
Continuous
100
AcDbLine
 10
180.379133282901
 20
103.9142943812605
 30
0.0
 11
180.379133282901
 21
104.2886471242073
 31
0.0
  0
LINE
  5
13D1
330
18
100
AcDbEntity
  8
1
  6
Continuous
100
AcDbLine
 10
180.379133282901
 20
109.5670588581048
 30
0.0
 11
180.379133282901
 21
110.2538471242072
 31
0.0
  0
LINE
  5
13D2
330
18
100
AcDbEntity
  8
1
  6
Continuous
100
AcDbLine
 10
180.379133282901
 20
108.0757588581048
 30
0.0
 11
180.379133282901
 21
108.7625471242073
 31
0.0
  0
LINE
  5
13D3
330
18
100
AcDbEntity
  8
1
  6
Continuous
100
AcDbLine
 10
180.379133282901
 20
106.5844588581048
 30
0.0
 11
180.379133282901
 21
107.2712471242073
 31
0.0
  0
LINE
  5
13D4
330
18
100
AcDbEntity
  8
1
  6
Continuous
100
AcDbLine
 10
180.379133282901
 20
105.0931588581048
 30
0.0
 11
180.379133282901
 21
105.7799471242073
 31
0.0
  0
LINE
  5
1406
330
18
100
AcDbEntity
  8
1
  6
Continuous
100
AcDbLine
 10
108.340508709889
 20
120.3496549911516
 30
0.0
 11
108.340508709889
 21
119.6628667250491
 31
0.0
  0
ARC
  5
1407
330
18
100
AcDbEntity
  8
1
  6
Continuous
100
AcDbCircle
 10
114.0905087098832
 20
119.872145473488
 30
0.0
 40
0.4000000000000057
100
AcDbArc
 50
276.0708059081061
 51
96.07080590810621
  0
LINE
  5
1408
330
18
100
AcDbEntity
  8
1
  6
Continuous
100
AcDbLine
 10
114.0482057460662
 20
120.2699022575311
 30
0.0
 11
107.548205746106
 21
119.5786022575311
 31
0.0
  0
LINE
  5
1409
330
18
100
AcDbEntity
  8
1
  6
Continuous
100
AcDbLine
 10
107.63281167374
 20
118.783088689445
 30
0.0
 11
114.1328116737003
 21
119.474388689445
 31
0.0
  0
LINE
  5
140A
330
18
100
AcDbEntity
  8
1
  6
Continuous
100
AcDbLine
 10
107.63281167374
 20
115.800488689445
 30
0.0
 11
114.1328116737003
 21
116.491788689445
 31
0.0
  0
LINE
  5
140B
330
18
100
AcDbEntity
  8
1
  6
Continuous
100
AcDbLine
 10
114.0482057460662
 20
117.2873022575311
 30
0.0
 11
107.548205746106
 21
116.5960022575311
 31
0.0
  0
LINE
  5
140C
330
18
100
AcDbEntity
  8
1
  6
Continuous
100
AcDbLine
 10
107.63281167374
 20
117.291788689445
 30
0.0
 11
114.1328116737003
 21
117.983088689445
 31
0.0
  0
LINE
  5
140D
330
18
100
AcDbEntity
  8
1
  6
Continuous
100
AcDbLine
 10
114.0482057460662
 20
118.7786022575311
 30
0.0
 11
107.548205746106
 21
118.0873022575311
 31
0.0
  0
LINE
  5
140E
330
18
100
AcDbEntity
  8
1
  6
Continuous
100
AcDbLine
 10
114.0482057460662
 20
115.7960022575311
 30
0.0
 11
107.548205746106
 21
115.1047022575311
 31
0.0
  0
LINE
  5
140F
330
18
100
AcDbEntity
  8
1
  6
Continuous
100
AcDbLine
 10
114.0482057460662
 20
114.3047022575311
 30
0.0
 11
107.548205746106
 21
113.6134022575312
 31
0.0
  0
LINE
  5
1410
330
18
100
AcDbEntity
  8
1
  6
Continuous
100
AcDbLine
 10
107.63281167374
 20
112.817888689445
 30
0.0
 11
114.1328116737003
 21
113.509188689445
 31
0.0
  0
LINE
  5
1411
330
18
100
AcDbEntity
  8
1
  6
Continuous
100
AcDbLine
 10
114.0482057460662
 20
112.8134022575311
 30
0.0
 11
107.548205746106
 21
112.1221022575312
 31
0.0
  0
LINE
  5
1412
330
18
100
AcDbEntity
  8
1
  6
Continuous
100
AcDbLine
 10
107.63281167374
 20
111.326588689445
 30
0.0
 11
114.1328116737003
 21
112.017888689445
 31
0.0
  0
LINE
  5
1413
330
18
100
AcDbEntity
  8
1
  6
Continuous
100
AcDbLine
 10
107.63281167374
 20
114.309188689445
 30
0.0
 11
114.1328116737003
 21
115.000488689445
 31
0.0
  0
LINE
  5
1414
330
18
100
AcDbEntity
  8
1
  6
Continuous
100
AcDbLine
 10
114.0482057460662
 20
111.3221022575311
 30
0.0
 11
107.548205746106
 21
110.6308022575312
 31
0.0
  0
LINE
  5
1415
330
18
100
AcDbEntity
  8
1
  6
Continuous
100
AcDbLine
 10
107.63281167374
 20
109.835288689445
 30
0.0
 11
114.1328116737003
 21
110.526588689445
 31
0.0
  0
LINE
  5
1416
330
18
100
AcDbEntity
  8
1
  6
Continuous
100
AcDbLine
 10
114.0905087098832
 20
103.867743473488
 30
0.0
 11
110.840508709889
 21
103.8677434734881
 31
0.0
  0
LINE
  5
1417
330
18
100
AcDbEntity
  8
1
  6
Continuous
100
AcDbLine
 10
107.63281167374
 20
108.343988689445
 30
0.0
 11
114.1328116737003
 21
109.035288689445
 31
0.0
  0
LINE
  5
1418
330
18
100
AcDbEntity
  8
1
  6
Continuous
100
AcDbLine
 10
107.63281167374
 20
105.361388689445
 30
0.0
 11
114.1328116737003
 21
106.052688689445
 31
0.0
  0
LINE
  5
1419
330
18
100
AcDbEntity
  8
1
  6
Continuous
100
AcDbLine
 10
114.0482057460662
 20
106.8482022575311
 30
0.0
 11
107.548205746106
 21
106.1569022575312
 31
0.0
  0
LINE
  5
141A
330
18
100
AcDbEntity
  8
1
  6
Continuous
100
AcDbLine
 10
107.63281167374
 20
106.852688689445
 30
0.0
 11
114.1328116737003
 21
107.543988689445
 31
0.0
  0
LINE
  5
141B
330
18
100
AcDbEntity
  8
1
  6
Continuous
100
AcDbLine
 10
114.0482057460662
 20
108.3395022575311
 30
0.0
 11
107.548205746106
 21
107.6482022575312
 31
0.0
  0
LINE
  5
141C
330
18
100
AcDbEntity
  8
1
  6
Continuous
100
AcDbLine
 10
114.0482057460662
 20
105.3569022575312
 30
0.0
 11
107.548205746106
 21
104.6656022575312
 31
0.0
  0
LINE
  5
141D
330
18
100
AcDbEntity
  8
1
  6
Continuous
100
AcDbLine
 10
107.63281167374
 20
103.870088689445
 30
0.0
 11
114.1328116737003
 21
104.561388689445
 31
0.0
  0
LINE
  5
141E
330
18
100
AcDbEntity
  8
1
  6
Continuous
100
AcDbLine
 10
114.0482057460662
 20
109.8308022575311
 30
0.0
 11
107.548205746106
 21
109.1395022575312
 31
0.0
  0
LINE
  5
141F
330
18
100
AcDbEntity
  8
1
  6
Continuous
100
AcDbLine
 10
108.340508709889
 20
109.9105549911516
 30
0.0
 11
108.340508709889
 21
109.2237667250491
 31
0.0
  0
LINE
  5
1420
330
18
100
AcDbEntity
  8
1
  6
Continuous
100
AcDbLine
 10
108.340508709889
 20
108.4192549911516
 30
0.0
 11
108.340508709889
 21
107.7324667250491
 31
0.0
  0
LINE
  5
1421
330
18
100
AcDbEntity
  8
1
  6
Continuous
100
AcDbLine
 10
108.340508709889
 20
106.9279549911516
 30
0.0
 11
108.340508709889
 21
106.2411667250491
 31
0.0
  0
LINE
  5
1422
330
18
100
AcDbEntity
  8
1
  6
Continuous
100
AcDbLine
 10
108.340508709889
 20
105.4366549911516
 30
0.0
 11
108.340508709889
 21
104.7498667250491
 31
0.0
  0
LINE
  5
1423
330
18
100
AcDbEntity
  8
1
  6
Continuous
100
AcDbLine
 10
108.340508709889
 20
103.9453549911516
 30
0.0
 11
108.340508709889
 21
103.067743473488
 31
0.0
  0
LINE
  5
1424
330
18
100
AcDbEntity
  8
1
  6
Continuous
100
AcDbLine
 10
110.840508709889
 20
103.8677434734881
 30
0.0
 11
110.840508709889
 21
103.067743473488
 31
0.0
  0
ARC
  5
1425
330
18
100
AcDbEntity
  8
1
  6
Continuous
100
AcDbCircle
 10
107.590508709923
 20
107.2504454734881
 30
0.0
 40
0.4000000000000057
100
AcDbArc
 50
96.07080590810415
 51
276.0708059081041
  0
ARC
  5
1426
330
18
100
AcDbEntity
  8
1
  6
Continuous
100
AcDbCircle
 10
107.590508709923
 20
108.7417454734881
 30
0.0
 40
0.4000000000000057
100
AcDbArc
 50
96.07080590810415
 51
276.0708059081041
  0
ARC
  5
1427
330
18
100
AcDbEntity
  8
1
  6
Continuous
100
AcDbCircle
 10
107.590508709923
 20
105.7591454734881
 30
0.0
 40
0.4000000000000057
100
AcDbArc
 50
96.07080590810415
 51
276.0708059081041
  0
LINE
  5
1428
330
18
100
AcDbEntity
  8
1
  6
Continuous
100
AcDbLine
 10
107.5416466293854
 20
108.3447410691227
 30
0.0
 11
108.340508709889
 21
108.2464195822908
 31
0.0
  0
LINE
  5
1429
330
18
100
AcDbEntity
  8
1
  6
Continuous
100
AcDbLine
 10
107.5416466293854
 20
105.3621410691227
 30
0.0
 11
108.340508709889
 21
105.2638195822908
 31
0.0
  0
LINE
  5
142A
330
18
100
AcDbEntity
  8
1
  6
Continuous
100
AcDbLine
 10
107.5416466293854
 20
106.8534410691227
 30
0.0
 11
108.340508709889
 21
106.7551195822908
 31
0.0
  0
LINE
  5
142B
330
18
100
AcDbEntity
  8
1
  6
Continuous
100
AcDbLine
 10
108.340508709889
 20
103.7725070462531
 30
0.0
 11
107.5416404924498
 21
103.870841824486
 31
0.0
  0
ARC
  5
142C
330
18
100
AcDbEntity
  8
1
  6
Continuous
100
AcDbCircle
 10
107.590508709923
 20
104.2678454734881
 30
0.0
 40
0.4000000000000057
100
AcDbArc
 50
96.07080590810415
 51
276.0708059081041
  0
LINE
  5
142D
330
18
100
AcDbEntity
  8
1
  6
Continuous
100
AcDbLine
 10
108.340508709889
 20
118.8583549911516
 30
0.0
 11
108.340508709889
 21
118.1715667250491
 31
0.0
  0
LINE
  5
142E
330
18
100
AcDbEntity
  8
1
  6
Continuous
100
AcDbLine
 10
108.340508709889
 20
117.3670549911515
 30
0.0
 11
108.340508709889
 21
116.6802667250491
 31
0.0
  0
LINE
  5
142F
330
18
100
AcDbEntity
  8
1
  6
Continuous
100
AcDbLine
 10
108.340508709889
 20
115.8757549911516
 30
0.0
 11
108.340508709889
 21
115.1889667250491
 31
0.0
  0
LINE
  5
1430
330
18
100
AcDbEntity
  8
1
  6
Continuous
100
AcDbLine
 10
108.340508709889
 20
114.3844549911516
 30
0.0
 11
108.340508709889
 21
113.697666725049
 31
0.0
  0
LINE
  5
1431
330
18
100
AcDbEntity
  8
1
  6
Continuous
100
AcDbLine
 10
108.340508709889
 20
112.8931549911516
 30
0.0
 11
108.340508709889
 21
112.2063667250491
 31
0.0
  0
LINE
  5
1432
330
18
100
AcDbEntity
  8
1
  6
Continuous
100
AcDbLine
 10
108.340508709889
 20
111.4018549911516
 30
0.0
 11
108.340508709889
 21
110.7150667250491
 31
0.0
  0
ARC
  5
1433
330
18
100
AcDbEntity
  8
1
  6
Continuous
100
AcDbCircle
 10
107.590508709923
 20
117.689545473488
 30
0.0
 40
0.4000000000000057
100
AcDbArc
 50
96.07080590810415
 51
276.0708059081041
  0
ARC
  5
1434
330
18
100
AcDbEntity
  8
1
  6
Continuous
100
AcDbCircle
 10
107.590508709923
 20
116.198245473488
 30
0.0
 40
0.4000000000000057
100
AcDbArc
 50
96.07080590810415
 51
276.0708059081041
  0
ARC
  5
1435
330
18
100
AcDbEntity
  8
1
  6
Continuous
100
AcDbCircle
 10
107.590508709923
 20
113.2156454734881
 30
0.0
 40
0.4000000000000057
100
AcDbArc
 50
96.07080590810415
 51
276.0708059081041
  0
ARC
  5
1436
330
18
100
AcDbEntity
  8
1
  6
Continuous
100
AcDbCircle
 10
107.590508709923
 20
114.706945473488
 30
0.0
 40
0.4000000000000057
100
AcDbArc
 50
96.07080590810415
 51
276.0708059081041
  0
ARC
  5
1437
330
18
100
AcDbEntity
  8
1
  6
Continuous
100
AcDbCircle
 10
107.590508709923
 20
111.7243454734881
 30
0.0
 40
0.4000000000000057
100
AcDbArc
 50
96.07080590810415
 51
276.0708059081041
  0
ARC
  5
1438
330
18
100
AcDbEntity
  8
1
  6
Continuous
100
AcDbCircle
 10
107.590508709923
 20
119.180845473488
 30
0.0
 40
0.4000000000000057
100
AcDbArc
 50
96.07080590810415
 51
276.0708059081041
  0
ARC
  5
1439
330
18
100
AcDbEntity
  8
1
  6
Continuous
100
AcDbCircle
 10
107.590508709923
 20
110.2330454734881
 30
0.0
 40
0.4000000000000057
100
AcDbArc
 50
96.07080590810415
 51
276.0708059081041
  0
LINE
  5
143A
330
18
100
AcDbEntity
  8
1
  6
Continuous
100
AcDbLine
 10
107.5416466293854
 20
118.7838410691226
 30
0.0
 11
108.340508709889
 21
118.6855195822908
 31
0.0
  0
LINE
  5
143B
330
18
100
AcDbEntity
  8
1
  6
Continuous
100
AcDbLine
 10
107.5416466293854
 20
115.8012410691226
 30
0.0
 11
108.340508709889
 21
115.7029195822908
 31
0.0
  0
LINE
  5
143C
330
18
100
AcDbEntity
  8
1
  6
Continuous
100
AcDbLine
 10
107.5416466293854
 20
117.2925410691226
 30
0.0
 11
108.340508709889
 21
117.1942195822908
 31
0.0
  0
LINE
  5
143D
330
18
100
AcDbEntity
  8
1
  6
Continuous
100
AcDbLine
 10
107.5416466293854
 20
112.8186410691226
 30
0.0
 11
108.340508709889
 21
112.7203195822908
 31
0.0
  0
LINE
  5
143E
330
18
100
AcDbEntity
  8
1
  6
Continuous
100
AcDbLine
 10
107.5416466293854
 20
114.3099410691226
 30
0.0
 11
108.340508709889
 21
114.2116195822908
 31
0.0
  0
LINE
  5
143F
330
18
100
AcDbEntity
  8
1
  6
Continuous
100
AcDbLine
 10
107.5416466293854
 20
109.8360410691227
 30
0.0
 11
108.340508709889
 21
109.7377195822908
 31
0.0
  0
LINE
  5
1440
330
18
100
AcDbEntity
  8
1
  6
Continuous
100
AcDbLine
 10
107.5416466293854
 20
111.3273410691226
 30
0.0
 11
108.340508709889
 21
111.2290195822908
 31
0.0
  0
ARC
  5
1441
330
18
100
AcDbEntity
  8
1
  6
Continuous
100
AcDbCircle
 10
114.0905087098832
 20
109.4330454734881
 30
0.0
 40
0.4000000000000057
100
AcDbArc
 50
276.0708059081061
 51
96.07080590810621
  0
LINE
  5
1442
330
18
100
AcDbEntity
  8
1
  6
Continuous
100
AcDbLine
 10
113.340508709889
 20
104.4771242219241
 30
0.0
 11
113.340508709889
 21
103.8677434734881
 31
0.0
  0
LINE
  5
1443
330
18
100
AcDbEntity
  8
1
  6
Continuous
100
AcDbLine
 10
113.3405087098891
 20
105.968424221924
 30
0.0
 11
113.3405087098891
 21
105.2816359558216
 31
0.0
  0
LINE
  5
1444
330
18
100
AcDbEntity
  8
1
  6
Continuous
100
AcDbLine
 10
113.3405087098891
 20
107.459724221924
 30
0.0
 11
113.3405087098891
 21
106.7729359558216
 31
0.0
  0
LINE
  5
1445
330
18
100
AcDbEntity
  8
1
  6
Continuous
100
AcDbLine
 10
113.340508709889
 20
108.951024221924
 30
0.0
 11
113.340508709889
 21
108.2642359558216
 31
0.0
  0
ARC
  5
1446
330
18
100
AcDbEntity
  8
1
  6
Continuous
100
AcDbCircle
 10
114.0905087098832
 20
103.467743473488
 30
0.0
 40
0.4000000000000057
100
AcDbArc
 50
270.0
 51
90.0
  0
ARC
  5
1447
330
18
100
AcDbEntity
  8
1
  6
Continuous
100
AcDbCircle
 10
114.0905087098832
 20
107.9417454734881
 30
0.0
 40
0.4000000000000057
100
AcDbArc
 50
276.0708059081061
 51
96.07080590810621
  0
ARC
  5
1448
330
18
100
AcDbEntity
  8
1
  6
Continuous
100
AcDbCircle
 10
114.0905087098832
 20
106.4504454734881
 30
0.0
 40
0.4000000000000057
100
AcDbArc
 50
276.0708059081061
 51
96.07080590810621
  0
ARC
  5
1449
330
18
100
AcDbEntity
  8
1
  6
Continuous
100
AcDbCircle
 10
114.0905087098832
 20
104.9591454734881
 30
0.0
 40
0.4000000000000057
100
AcDbArc
 50
276.0708059081061
 51
96.07080590810621
  0
LINE
  5
144A
330
18
100
AcDbEntity
  8
1
  6
Continuous
100
AcDbLine
 10
113.340508709889
 20
108.4370713646888
 30
0.0
 11
114.1393707904209
 21
108.3387498778535
 31
0.0
  0
LINE
  5
144B
330
18
100
AcDbEntity
  8
1
  6
Continuous
100
AcDbLine
 10
113.340508709889
 20
105.4544713646888
 30
0.0
 11
114.1393707904209
 21
105.3561498778535
 31
0.0
  0
LINE
  5
144C
330
18
100
AcDbEntity
  8
1
  6
Continuous
100
AcDbLine
 10
113.340508709889
 20
106.9457713646888
 30
0.0
 11
114.1393707904209
 21
106.8474498778535
 31
0.0
  0
LINE
  5
144D
330
18
100
AcDbEntity
  8
1
  6
Continuous
100
AcDbLine
 10
113.3405087098891
 20
103.9630819007265
 30
0.0
 11
114.1393769273564
 21
103.8647471224902
 31
0.0
  0
LINE
  5
144E
330
18
100
AcDbEntity
  8
1
  6
Continuous
100
AcDbLine
 10
113.340508709889
 20
110.4423242219241
 30
0.0
 11
113.340508709889
 21
109.7555359558216
 31
0.0
  0
LINE
  5
144F
330
18
100
AcDbEntity
  8
1
  6
Continuous
100
AcDbLine
 10
113.340508709889
 20
111.933624221924
 30
0.0
 11
113.340508709889
 21
111.2468359558216
 31
0.0
  0
LINE
  5
1450
330
18
100
AcDbEntity
  8
1
  6
Continuous
100
AcDbLine
 10
113.340508709889
 20
113.424924221924
 30
0.0
 11
113.340508709889
 21
112.7381359558216
 31
0.0
  0
LINE
  5
1451
330
18
100
AcDbEntity
  8
1
  6
Continuous
100
AcDbLine
 10
113.340508709889
 20
114.916224221924
 30
0.0
 11
113.340508709889
 21
114.2294359558216
 31
0.0
  0
LINE
  5
1452
330
18
100
AcDbEntity
  8
1
  6
Continuous
100
AcDbLine
 10
113.340508709889
 20
116.407524221924
 30
0.0
 11
113.340508709889
 21
115.7207359558215
 31
0.0
  0
LINE
  5
1453
330
18
100
AcDbEntity
  8
1
  6
Continuous
100
AcDbLine
 10
113.340508709889
 20
117.898824221924
 30
0.0
 11
113.340508709889
 21
117.2120359558215
 31
0.0
  0
LINE
  5
1454
330
18
100
AcDbEntity
  8
1
  6
Continuous
100
AcDbLine
 10
113.340508709889
 20
119.390124221924
 30
0.0
 11
113.340508709889
 21
118.7033359558216
 31
0.0
  0
ARC
  5
1455
330
18
100
AcDbEntity
  8
1
  6
Continuous
100
AcDbCircle
 10
114.0905087098832
 20
110.9243454734881
 30
0.0
 40
0.4000000000000057
100
AcDbArc
 50
276.0708059081061
 51
96.07080590810621
  0
ARC
  5
1456
330
18
100
AcDbEntity
  8
1
  6
Continuous
100
AcDbCircle
 10
114.0905087098832
 20
116.889545473488
 30
0.0
 40
0.4000000000000057
100
AcDbArc
 50
276.0708059081061
 51
96.07080590810621
  0
ARC
  5
1457
330
18
100
AcDbEntity
  8
1
  6
Continuous
100
AcDbCircle
 10
114.0905087098832
 20
115.398245473488
 30
0.0
 40
0.4000000000000057
100
AcDbArc
 50
276.0708059081061
 51
96.07080590810621
  0
ARC
  5
1458
330
18
100
AcDbEntity
  8
1
  6
Continuous
100
AcDbCircle
 10
114.0905087098832
 20
112.4156454734881
 30
0.0
 40
0.4000000000000057
100
AcDbArc
 50
276.0708059081061
 51
96.07080590810621
  0
ARC
  5
1459
330
18
100
AcDbEntity
  8
1
  6
Continuous
100
AcDbCircle
 10
114.0905087098832
 20
113.906945473488
 30
0.0
 40
0.4000000000000057
100
AcDbArc
 50
276.0708059081061
 51
96.07080590810621
  0
ARC
  5
145A
330
18
100
AcDbEntity
  8
1
  6
Continuous
100
AcDbCircle
 10
114.0905087098832
 20
118.380845473488
 30
0.0
 40
0.4000000000000057
100
AcDbArc
 50
276.0708059081061
 51
96.07080590810571
  0
LINE
  5
145B
330
18
100
AcDbEntity
  8
1
  6
Continuous
100
AcDbLine
 10
113.340508709889
 20
118.8761713646887
 30
0.0
 11
114.1393707904209
 21
118.7778498778534
 31
0.0
  0
LINE
  5
145C
330
18
100
AcDbEntity
  8
1
  6
Continuous
100
AcDbLine
 10
113.340508709889
 20
115.8935713646888
 30
0.0
 11
114.1393707904209
 21
115.7952498778535
 31
0.0
  0
LINE
  5
145D
330
18
100
AcDbEntity
  8
1
  6
Continuous
100
AcDbLine
 10
113.340508709889
 20
117.3848713646888
 30
0.0
 11
114.1393707904209
 21
117.2865498778534
 31
0.0
  0
LINE
  5
145E
330
18
100
AcDbEntity
  8
1
  6
Continuous
100
AcDbLine
 10
113.340508709889
 20
112.9109713646888
 30
0.0
 11
114.1393707904209
 21
112.8126498778535
 31
0.0
  0
LINE
  5
145F
330
18
100
AcDbEntity
  8
1
  6
Continuous
100
AcDbLine
 10
113.340508709889
 20
114.4022713646888
 30
0.0
 11
114.1393707904209
 21
114.3039498778535
 31
0.0
  0
LINE
  5
1460
330
18
100
AcDbEntity
  8
1
  6
Continuous
100
AcDbLine
 10
113.340508709889
 20
109.9283713646888
 30
0.0
 11
114.1393707904209
 21
109.8300498778535
 31
0.0
  0
LINE
  5
1461
330
18
100
AcDbEntity
  8
1
  6
Continuous
100
AcDbLine
 10
113.340508709889
 20
111.4196713646887
 30
0.0
 11
114.1393707904209
 21
111.3213498778535
 31
0.0
  0
LINE
  5
1462
330
18
100
AcDbEntity
  8
1
  6
Continuous
100
AcDbLine
 10
114.0482057460662
 20
138.1655022575311
 30
0.0
 11
107.548205746106
 21
137.4742022575311
 31
0.0
  0
LINE
  5
1463
330
18
100
AcDbEntity
  8
1
  6
Continuous
100
AcDbLine
 10
107.63281167374
 20
136.6786886894449
 30
0.0
 11
114.1328116737003
 21
137.3699886894449
 31
0.0
  0
LINE
  5
1464
330
18
100
AcDbEntity
  8
1
  6
Continuous
100
AcDbLine
 10
114.0482057460662
 20
136.6742022575311
 30
0.0
 11
107.548205746106
 21
135.9829022575311
 31
0.0
  0
LINE
  5
1465
330
18
100
AcDbEntity
  8
1
  6
Continuous
100
AcDbLine
 10
107.63281167374
 20
135.1873886894449
 30
0.0
 11
114.1328116737003
 21
135.8786886894449
 31
0.0
  0
LINE
  5
1466
330
18
100
AcDbEntity
  8
1
  6
Continuous
100
AcDbLine
 10
107.63281167374
 20
132.2047886894449
 30
0.0
 11
114.1328116737003
 21
132.8960886894449
 31
0.0
  0
LINE
  5
1467
330
18
100
AcDbEntity
  8
1
  6
Continuous
100
AcDbLine
 10
114.0482057460662
 20
133.6916022575311
 30
0.0
 11
107.548205746106
 21
133.0003022575311
 31
0.0
  0
LINE
  5
1468
330
18
100
AcDbEntity
  8
1
  6
Continuous
100
AcDbLine
 10
107.63281167374
 20
133.6960886894449
 30
0.0
 11
114.1328116737003
 21
134.3873886894449
 31
0.0
  0
LINE
  5
1469
330
18
100
AcDbEntity
  8
1
  6
Continuous
100
AcDbLine
 10
114.0482057460662
 20
135.1829022575311
 30
0.0
 11
107.548205746106
 21
134.4916022575311
 31
0.0
  0
LINE
  5
146A
330
18
100
AcDbEntity
  8
1
  6
Continuous
100
AcDbLine
 10
107.63281167374
 20
130.7134886894449
 30
0.0
 11
114.1328116737003
 21
131.4047886894449
 31
0.0
  0
LINE
  5
146B
330
18
100
AcDbEntity
  8
1
  6
Continuous
100
AcDbLine
 10
114.0482057460662
 20
132.2003022575311
 30
0.0
 11
107.548205746106
 21
131.5090022575311
 31
0.0
  0
LINE
  5
146C
330
18
100
AcDbEntity
  8
1
  6
Continuous
100
AcDbLine
 10
114.0482057460662
 20
129.2177022575311
 30
0.0
 11
107.548205746106
 21
128.5264022575311
 31
0.0
  0
LINE
  5
146D
330
18
100
AcDbEntity
  8
1
  6
Continuous
100
AcDbLine
 10
107.63281167374
 20
127.7308886894449
 30
0.0
 11
114.1328116737003
 21
128.4221886894449
 31
0.0
  0
LINE
  5
146E
330
18
100
AcDbEntity
  8
1
  6
Continuous
100
AcDbLine
 10
114.0482057460662
 20
127.7264022575311
 30
0.0
 11
107.548205746106
 21
127.0351022575311
 31
0.0
  0
LINE
  5
146F
330
18
100
AcDbEntity
  8
1
  6
Continuous
100
AcDbLine
 10
107.63281167374
 20
126.2395886894449
 30
0.0
 11
114.1328116737003
 21
126.9308886894449
 31
0.0
  0
LINE
  5
1470
330
18
100
AcDbEntity
  8
1
  6
Continuous
100
AcDbLine
 10
107.63281167374
 20
129.2221886894449
 30
0.0
 11
114.1328116737003
 21
129.9134886894449
 31
0.0
  0
LINE
  5
1471
330
18
100
AcDbEntity
  8
1
  6
Continuous
100
AcDbLine
 10
114.0482057460662
 20
121.7612022575311
 30
0.0
 11
107.548205746106
 21
121.0699022575311
 31
0.0
  0
LINE
  5
1472
330
18
100
AcDbEntity
  8
1
  6
Continuous
100
AcDbLine
 10
107.63281167374
 20
120.2743886894449
 30
0.0
 11
114.1328116737003
 21
120.9656886894449
 31
0.0
  0
LINE
  5
1473
330
18
100
AcDbEntity
  8
1
  6
Continuous
100
AcDbLine
 10
114.0482057460662
 20
124.7438022575311
 30
0.0
 11
107.548205746106
 21
124.0525022575311
 31
0.0
  0
LINE
  5
1474
330
18
100
AcDbEntity
  8
1
  6
Continuous
100
AcDbLine
 10
107.63281167374
 20
123.2569886894449
 30
0.0
 11
114.1328116737003
 21
123.9482886894449
 31
0.0
  0
LINE
  5
1475
330
18
100
AcDbEntity
  8
1
  6
Continuous
100
AcDbLine
 10
114.0482057460662
 20
123.2525022575311
 30
0.0
 11
107.548205746106
 21
122.5612022575311
 31
0.0
  0
LINE
  5
1476
330
18
100
AcDbEntity
  8
1
  6
Continuous
100
AcDbLine
 10
107.63281167374
 20
121.7656886894449
 30
0.0
 11
114.1328116737003
 21
122.4569886894449
 31
0.0
  0
LINE
  5
1477
330
18
100
AcDbEntity
  8
1
  6
Continuous
100
AcDbLine
 10
107.63281167374
 20
124.7482886894449
 30
0.0
 11
114.1328116737003
 21
125.4395886894449
 31
0.0
  0
LINE
  5
1478
330
18
100
AcDbEntity
  8
1
  6
Continuous
100
AcDbLine
 10
114.0482057460662
 20
126.2351022575311
 30
0.0
 11
107.548205746106
 21
125.5438022575311
 31
0.0
  0
LINE
  5
1479
330
18
100
AcDbEntity
  8
1
  6
Continuous
100
AcDbLine
 10
114.0482057460662
 20
130.7090022575311
 30
0.0
 11
107.548205746106
 21
130.0177022575311
 31
0.0
  0
LINE
  5
147A
330
18
100
AcDbEntity
  8
1
  6
Continuous
100
AcDbLine
 10
108.340508709889
 20
130.7887549911515
 30
0.0
 11
108.340508709889
 21
130.101966725049
 31
0.0
  0
ARC
  5
147B
330
18
100
AcDbEntity
  8
1
  6
Continuous
100
AcDbCircle
 10
107.590508709923
 20
131.111245473488
 30
0.0
 40
0.4000000000000057
100
AcDbArc
 50
96.07080590810415
 51
276.0708059081041
  0
LINE
  5
147C
330
18
100
AcDbEntity
  8
1
  6
Continuous
100
AcDbLine
 10
107.5416466293854
 20
130.7142410691226
 30
0.0
 11
108.340508709889
 21
130.6159195822908
 31
0.0
  0
LINE
  5
147D
330
18
100
AcDbEntity
  8
1
  6
Continuous
100
AcDbLine
 10
108.340508709889
 20
121.8409549911515
 30
0.0
 11
108.340508709889
 21
121.1541667250491
 31
0.0
  0
LINE
  5
147E
330
18
100
AcDbEntity
  8
1
  6
Continuous
100
AcDbLine
 10
108.340508709889
 20
123.3322549911515
 30
0.0
 11
108.340508709889
 21
122.6454667250491
 31
0.0
  0
LINE
  5
147F
330
18
100
AcDbEntity
  8
1
  6
Continuous
100
AcDbLine
 10
108.340508709889
 20
124.8235549911515
 30
0.0
 11
108.340508709889
 21
124.1367667250491
 31
0.0
  0
LINE
  5
1480
330
18
100
AcDbEntity
  8
1
  6
Continuous
100
AcDbLine
 10
108.340508709889
 20
126.3148549911515
 30
0.0
 11
108.340508709889
 21
125.628066725049
 31
0.0
  0
LINE
  5
1481
330
18
100
AcDbEntity
  8
1
  6
Continuous
100
AcDbLine
 10
108.340508709889
 20
127.8061549911515
 30
0.0
 11
108.340508709889
 21
127.119366725049
 31
0.0
  0
LINE
  5
1482
330
18
100
AcDbEntity
  8
1
  6
Continuous
100
AcDbLine
 10
108.340508709889
 20
129.2974549911515
 30
0.0
 11
108.340508709889
 21
128.6106667250491
 31
0.0
  0
ARC
  5
1483
330
18
100
AcDbEntity
  8
1
  6
Continuous
100
AcDbCircle
 10
107.590508709923
 20
129.619945473488
 30
0.0
 40
0.4000000000000057
100
AcDbArc
 50
96.07080590810415
 51
276.0708059081041
  0
ARC
  5
1484
330
18
100
AcDbEntity
  8
1
  6
Continuous
100
AcDbCircle
 10
107.590508709923
 20
128.128645473488
 30
0.0
 40
0.4000000000000057
100
AcDbArc
 50
96.07080590810415
 51
276.0708059081041
  0
ARC
  5
1485
330
18
100
AcDbEntity
  8
1
  6
Continuous
100
AcDbCircle
 10
107.590508709923
 20
120.672145473488
 30
0.0
 40
0.4000000000000057
100
AcDbArc
 50
96.07080590810415
 51
276.0708059081041
  0
ARC
  5
1486
330
18
100
AcDbEntity
  8
1
  6
Continuous
100
AcDbCircle
 10
107.590508709923
 20
123.654745473488
 30
0.0
 40
0.4000000000000057
100
AcDbArc
 50
96.07080590810415
 51
276.0708059081041
  0
ARC
  5
1487
330
18
100
AcDbEntity
  8
1
  6
Continuous
100
AcDbCircle
 10
107.590508709923
 20
122.163445473488
 30
0.0
 40
0.4000000000000057
100
AcDbArc
 50
96.07080590810415
 51
276.0708059081041
  0
ARC
  5
1488
330
18
100
AcDbEntity
  8
1
  6
Continuous
100
AcDbCircle
 10
107.590508709923
 20
125.146045473488
 30
0.0
 40
0.4000000000000057
100
AcDbArc
 50
96.07080590810415
 51
276.0708059081041
  0
ARC
  5
1489
330
18
100
AcDbEntity
  8
1
  6
Continuous
100
AcDbCircle
 10
107.590508709923
 20
126.637345473488
 30
0.0
 40
0.4000000000000057
100
AcDbArc
 50
96.07080590810415
 51
276.0708059081041
  0
LINE
  5
148A
330
18
100
AcDbEntity
  8
1
  6
Continuous
100
AcDbLine
 10
107.5416466293854
 20
129.2229410691226
 30
0.0
 11
108.340508709889
 21
129.1246195822908
 31
0.0
  0
LINE
  5
148B
330
18
100
AcDbEntity
  8
1
  6
Continuous
100
AcDbLine
 10
107.5416466293854
 20
127.7316410691226
 30
0.0
 11
108.340508709889
 21
127.6333195822908
 31
0.0
  0
LINE
  5
148C
330
18
100
AcDbEntity
  8
1
  6
Continuous
100
AcDbLine
 10
107.5416466293854
 20
123.2577410691226
 30
0.0
 11
108.340508709889
 21
123.1594195822908
 31
0.0
  0
LINE
  5
148D
330
18
100
AcDbEntity
  8
1
  6
Continuous
100
AcDbLine
 10
107.5416466293854
 20
124.7490410691226
 30
0.0
 11
108.340508709889
 21
124.6507195822908
 31
0.0
  0
LINE
  5
148E
330
18
100
AcDbEntity
  8
1
  6
Continuous
100
AcDbLine
 10
107.5416466293854
 20
126.2403410691226
 30
0.0
 11
108.340508709889
 21
126.1420195822908
 31
0.0
  0
LINE
  5
148F
330
18
100
AcDbEntity
  8
1
  6
Continuous
100
AcDbLine
 10
107.5416466293854
 20
121.7664410691226
 30
0.0
 11
108.340508709889
 21
121.6681195822908
 31
0.0
  0
LINE
  5
1490
330
18
100
AcDbEntity
  8
1
  6
Continuous
100
AcDbLine
 10
107.5416466293854
 20
120.2751410691226
 30
0.0
 11
108.340508709889
 21
120.1768195822908
 31
0.0
  0
LINE
  5
1491
330
18
100
AcDbEntity
  8
1
  6
Continuous
100
AcDbLine
 10
108.340508709889
 20
132.2800549911515
 30
0.0
 11
108.340508709889
 21
131.593266725049
 31
0.0
  0
LINE
  5
1492
330
18
100
AcDbEntity
  8
1
  6
Continuous
100
AcDbLine
 10
108.340508709889
 20
133.7713549911515
 30
0.0
 11
108.340508709889
 21
133.084566725049
 31
0.0
  0
LINE
  5
1493
330
18
100
AcDbEntity
  8
1
  6
Continuous
100
AcDbLine
 10
108.340508709889
 20
135.2626549911515
 30
0.0
 11
108.340508709889
 21
134.575866725049
 31
0.0
  0
LINE
  5
1494
330
18
100
AcDbEntity
  8
1
  6
Continuous
100
AcDbLine
 10
108.340508709889
 20
136.7539549911515
 30
0.0
 11
108.340508709889
 21
136.067166725049
 31
0.0
  0
LINE
  5
1495
330
18
100
AcDbEntity
  8
1
  6
Continuous
100
AcDbLine
 10
110.840508709889
 20
138.967745473488
 30
0.0
 11
110.840508709889
 21
138.167745473488
 31
0.0
  0
LINE
  5
1496
330
18
100
AcDbEntity
  8
1
  6
Continuous
100
AcDbLine
 10
108.340508709889
 20
138.167745473488
 30
0.0
 11
108.340508709889
 21
137.558466725049
 31
0.0
  0
ARC
  5
1497
330
18
100
AcDbEntity
  8
1
  6
Continuous
100
AcDbCircle
 10
107.590508709923
 20
138.567745473488
 30
0.0
 40
0.4000000000000057
100
AcDbArc
 50
90.0
 51
270.0
  0
ARC
  5
1498
330
18
100
AcDbEntity
  8
1
  6
Continuous
100
AcDbCircle
 10
107.590508709923
 20
134.093845473488
 30
0.0
 40
0.4000000000000057
100
AcDbArc
 50
96.07080590810415
 51
276.0708059081041
  0
LINE
  5
1499
330
18
100
AcDbEntity
  8
1
  6
Continuous
100
AcDbLine
 10
107.590508709923
 20
138.167745473488
 30
0.0
 11
110.840508709889
 21
138.167745473488
 31
0.0
  0
ARC
  5
149A
330
18
100
AcDbEntity
  8
1
  6
Continuous
100
AcDbCircle
 10
107.590508709923
 20
137.076445473488
 30
0.0
 40
0.4000000000000057
100
AcDbArc
 50
96.07080590810374
 51
276.0708059081041
  0
ARC
  5
149B
330
18
100
AcDbEntity
  8
1
  6
Continuous
100
AcDbCircle
 10
107.590508709923
 20
135.585145473488
 30
0.0
 40
0.4000000000000057
100
AcDbArc
 50
96.07080590810374
 51
276.0708059081045
  0
ARC
  5
149C
330
18
100
AcDbEntity
  8
1
  6
Continuous
100
AcDbCircle
 10
107.590508709923
 20
132.602545473488
 30
0.0
 40
0.4000000000000057
100
AcDbArc
 50
96.07080590810415
 51
276.0708059081045
  0
LINE
  5
149D
330
18
100
AcDbEntity
  8
1
  6
Continuous
100
AcDbLine
 10
107.5416466293854
 20
138.1707410691226
 30
0.0
 11
108.340508709889
 21
138.0724195822907
 31
0.0
  0
LINE
  5
149E
330
18
100
AcDbEntity
  8
1
  6
Continuous
100
AcDbLine
 10
107.5416466293854
 20
136.6794410691226
 30
0.0
 11
108.340508709889
 21
136.5811195822907
 31
0.0
  0
LINE
  5
149F
330
18
100
AcDbEntity
  8
1
  6
Continuous
100
AcDbLine
 10
107.5416466293854
 20
133.6968410691226
 30
0.0
 11
108.340508709889
 21
133.5985195822908
 31
0.0
  0
LINE
  5
14A0
330
18
100
AcDbEntity
  8
1
  6
Continuous
100
AcDbLine
 10
107.5416466293854
 20
135.1881410691226
 30
0.0
 11
108.340508709889
 21
135.0898195822907
 31
0.0
  0
LINE
  5
14A1
330
18
100
AcDbEntity
  8
1
  6
Continuous
100
AcDbLine
 10
107.5416466293854
 20
132.2055410691226
 30
0.0
 11
108.340508709889
 21
132.1072195822908
 31
0.0
  0
LINE
  5
14A2
330
18
100
AcDbEntity
  8
1
  6
Continuous
100
AcDbLine
 10
113.340508709889
 20
131.320524221924
 30
0.0
 11
113.3405087098891
 21
130.6337359558215
 31
0.0
  0
ARC
  5
14A3
330
18
100
AcDbEntity
  8
1
  6
Continuous
100
AcDbCircle
 10
114.0905087098832
 20
130.311245473488
 30
0.0
 40
0.4000000000000057
100
AcDbArc
 50
276.0708059081061
 51
96.07080590810621
  0
LINE
  5
14A4
330
18
100
AcDbEntity
  8
1
  6
Continuous
100
AcDbLine
 10
113.3405087098891
 20
120.881424221924
 30
0.0
 11
113.340508709889
 21
120.1946359558215
 31
0.0
  0
LINE
  5
14A5
330
18
100
AcDbEntity
  8
1
  6
Continuous
100
AcDbLine
 10
113.340508709889
 20
122.372724221924
 30
0.0
 11
113.340508709889
 21
121.6859359558215
 31
0.0
  0
LINE
  5
14A6
330
18
100
AcDbEntity
  8
1
  6
Continuous
100
AcDbLine
 10
113.340508709889
 20
129.829224221924
 30
0.0
 11
113.340508709889
 21
129.1424359558215
 31
0.0
  0
LINE
  5
14A7
330
18
100
AcDbEntity
  8
1
  6
Continuous
100
AcDbLine
 10
113.340508709889
 20
128.337924221924
 30
0.0
 11
113.340508709889
 21
127.6511359558215
 31
0.0
  0
LINE
  5
14A8
330
18
100
AcDbEntity
  8
1
  6
Continuous
100
AcDbLine
 10
113.340508709889
 20
126.846624221924
 30
0.0
 11
113.340508709889
 21
126.1598359558215
 31
0.0
  0
LINE
  5
14A9
330
18
100
AcDbEntity
  8
1
  6
Continuous
100
AcDbLine
 10
113.340508709889
 20
125.355324221924
 30
0.0
 11
113.3405087098891
 21
124.6685359558215
 31
0.0
  0
LINE
  5
14AA
330
18
100
AcDbEntity
  8
1
  6
Continuous
100
AcDbLine
 10
113.3405087098891
 20
123.864024221924
 30
0.0
 11
113.3405087098891
 21
123.1772359558215
 31
0.0
  0
ARC
  5
14AB
330
18
100
AcDbEntity
  8
1
  6
Continuous
100
AcDbCircle
 10
114.0905087098832
 20
128.819945473488
 30
0.0
 40
0.4000000000000057
100
AcDbArc
 50
276.0708059081061
 51
96.07080590810621
  0
ARC
  5
14AC
330
18
100
AcDbEntity
  8
1
  6
Continuous
100
AcDbCircle
 10
114.0905087098832
 20
127.328645473488
 30
0.0
 40
0.4000000000000057
100
AcDbArc
 50
276.0708059081061
 51
96.07080590810621
  0
ARC
  5
14AD
330
18
100
AcDbEntity
  8
1
  6
Continuous
100
AcDbCircle
 10
114.0905087098832
 20
122.854745473488
 30
0.0
 40
0.4000000000000057
100
AcDbArc
 50
276.0708059081061
 51
96.07080590810621
  0
ARC
  5
14AE
330
18
100
AcDbEntity
  8
1
  6
Continuous
100
AcDbCircle
 10
114.0905087098832
 20
121.363445473488
 30
0.0
 40
0.4000000000000057
100
AcDbArc
 50
276.0708059081061
 51
96.07080590810621
  0
ARC
  5
14AF
330
18
100
AcDbEntity
  8
1
  6
Continuous
100
AcDbCircle
 10
114.0905087098832
 20
124.346045473488
 30
0.0
 40
0.4000000000000057
100
AcDbArc
 50
276.0708059081061
 51
96.07080590810621
  0
ARC
  5
14B0
330
18
100
AcDbEntity
  8
1
  6
Continuous
100
AcDbCircle
 10
114.0905087098832
 20
125.837345473488
 30
0.0
 40
0.4000000000000057
100
AcDbArc
 50
276.0708059081061
 51
96.07080590810621
  0
LINE
  5
14B1
330
18
100
AcDbEntity
  8
1
  6
Continuous
100
AcDbLine
 10
113.340508709889
 20
129.3152713646887
 30
0.0
 11
114.1393707904209
 21
129.2169498778534
 31
0.0
  0
LINE
  5
14B2
330
18
100
AcDbEntity
  8
1
  6
Continuous
100
AcDbLine
 10
113.340508709889
 20
127.8239713646887
 30
0.0
 11
114.1393707904209
 21
127.7256498778534
 31
0.0
  0
LINE
  5
14B3
330
18
100
AcDbEntity
  8
1
  6
Continuous
100
AcDbLine
 10
113.340508709889
 20
123.3500713646887
 30
0.0
 11
114.1393707904209
 21
123.2517498778534
 31
0.0
  0
LINE
  5
14B4
330
18
100
AcDbEntity
  8
1
  6
Continuous
100
AcDbLine
 10
113.340508709889
 20
124.8413713646887
 30
0.0
 11
114.1393707904209
 21
124.7430498778534
 31
0.0
  0
LINE
  5
14B5
330
18
100
AcDbEntity
  8
1
  6
Continuous
100
AcDbLine
 10
113.340508709889
 20
126.3326713646887
 30
0.0
 11
114.1393707904209
 21
126.2343498778534
 31
0.0
  0
LINE
  5
14B6
330
18
100
AcDbEntity
  8
1
  6
Continuous
100
AcDbLine
 10
113.340508709889
 20
121.8587713646888
 30
0.0
 11
114.1393707904209
 21
121.7604498778534
 31
0.0
  0
LINE
  5
14B7
330
18
100
AcDbEntity
  8
1
  6
Continuous
100
AcDbLine
 10
113.340508709889
 20
120.3674713646887
 30
0.0
 11
114.1393707904209
 21
120.2691498778534
 31
0.0
  0
LINE
  5
14B8
330
18
100
AcDbEntity
  8
1
  6
Continuous
100
AcDbLine
 10
113.340508709889
 20
137.285724221924
 30
0.0
 11
113.340508709889
 21
136.5989359558215
 31
0.0
  0
LINE
  5
14B9
330
18
100
AcDbEntity
  8
1
  6
Continuous
100
AcDbLine
 10
113.340508709889
 20
135.794424221924
 30
0.0
 11
113.340508709889
 21
135.1076359558215
 31
0.0
  0
LINE
  5
14BA
330
18
100
AcDbEntity
  8
1
  6
Continuous
100
AcDbLine
 10
113.340508709889
 20
134.303124221924
 30
0.0
 11
113.340508709889
 21
133.6163359558215
 31
0.0
  0
LINE
  5
14BB
330
18
100
AcDbEntity
  8
1
  6
Continuous
100
AcDbLine
 10
113.340508709889
 20
132.811824221924
 30
0.0
 11
113.340508709889
 21
132.1250359558215
 31
0.0
  0
ARC
  5
14BC
330
18
100
AcDbEntity
  8
1
  6
Continuous
100
AcDbCircle
 10
114.0905087098832
 20
137.767745473488
 30
0.0
 40
0.4000000000000057
100
AcDbArc
 50
276.0708059081061
 51
96.07080590810571
  0
ARC
  5
14BD
330
18
100
AcDbEntity
  8
1
  6
Continuous
100
AcDbCircle
 10
114.0905087098832
 20
136.276445473488
 30
0.0
 40
0.4000000000000057
100
AcDbArc
 50
276.0708059081026
 51
96.07080590810571
  0
ARC
  5
14BE
330
18
100
AcDbEntity
  8
1
  6
Continuous
100
AcDbCircle
 10
114.0905087098832
 20
134.785145473488
 30
0.0
 40
0.4000000000000057
100
AcDbArc
 50
276.0708059081061
 51
96.07080590810621
  0
ARC
  5
14BF
330
18
100
AcDbEntity
  8
1
  6
Continuous
100
AcDbCircle
 10
114.0905087098832
 20
133.293845473488
 30
0.0
 40
0.4000000000000057
100
AcDbArc
 50
276.0708059081026
 51
96.07080590810621
  0
ARC
  5
14C0
330
18
100
AcDbEntity
  8
1
  6
Continuous
100
AcDbCircle
 10
114.0905087098832
 20
131.802545473488
 30
0.0
 40
0.4000000000000057
100
AcDbArc
 50
276.0708059081061
 51
96.07080590810621
  0
LINE
  5
14C1
330
18
100
AcDbEntity
  8
1
  6
Continuous
100
AcDbLine
 10
113.340508709889
 20
138.2630713646887
 30
0.0
 11
114.1393707904209
 21
138.1647498778534
 31
0.0
  0
LINE
  5
14C2
330
18
100
AcDbEntity
  8
1
  6
Continuous
100
AcDbLine
 10
113.340508709889
 20
138.967745473488
 30
0.0
 11
113.340508709889
 21
138.0902359558215
 31
0.0
  0
LINE
  5
14C3
330
18
100
AcDbEntity
  8
1
  6
Continuous
100
AcDbLine
 10
113.340508709889
 20
136.7717713646887
 30
0.0
 11
114.1393707904209
 21
136.6734498778534
 31
0.0
  0
LINE
  5
14C4
330
18
100
AcDbEntity
  8
1
  6
Continuous
100
AcDbLine
 10
113.340508709889
 20
133.7891713646887
 30
0.0
 11
114.1393707904209
 21
133.6908498778534
 31
0.0
  0
LINE
  5
14C5
330
18
100
AcDbEntity
  8
1
  6
Continuous
100
AcDbLine
 10
113.340508709889
 20
135.2804713646887
 30
0.0
 11
114.1393707904209
 21
135.1821498778534
 31
0.0
  0
LINE
  5
14C6
330
18
100
AcDbEntity
  8
1
  6
Continuous
100
AcDbLine
 10
113.340508709889
 20
132.2978713646887
 30
0.0
 11
114.1393707904209
 21
132.1995498778534
 31
0.0
  0
LINE
  5
14C7
330
18
100
AcDbEntity
  8
1
  6
Continuous
100
AcDbLine
 10
113.340508709889
 20
130.8065713646887
 30
0.0
 11
114.1393707904209
 21
130.7082498778534
 31
0.0
  0
LINE
  5
166A
330
18
100
AcDbEntity
  8
1
  6
Continuous
100
AcDbLine
 10
256.4177578559129
 20
76.71774547345314
 30
0.0
 11
257.4177578559129
 21
78.21774547345312
 31
0.0
  0
LINE
  5
166B
330
18
100
AcDbEntity
  8
1
  6
Continuous
100
AcDbLine
 10
252.4177578559129
 20
78.21774547345312
 30
0.0
 11
253.4177578559129
 21
76.71774547345314
 31
0.0
  0
LINE
  5
166C
330
18
100
AcDbEntity
  8
4
  6
CENTER
100
AcDbLine
 10
254.9177578559129
 20
154.2177454734531
 30
0.0
 11
254.9177578559129
 21
75.21774547345312
 31
0.0
  0
LINE
  5
166D
330
18
100
AcDbEntity
  8
1
  6
Continuous
100
AcDbLine
 10
253.4177578559129
 20
76.71774547345314
 30
0.0
 11
256.4177578559129
 21
76.71774547345314
 31
0.0
  0
LINE
  5
167B
330
18
100
AcDbEntity
  8
1
  6
Continuous
100
AcDbLine
 10
267.9177578559129
 20
150.717745473488
 30
0.0
 11
267.9177578559129
 21
90.71774547348805
 31
0.0
  0
LINE
  5
167C
330
18
100
AcDbEntity
  8
1
  6
Continuous
100
AcDbLine
 10
260.4177578559129
 20
138.967745473488
 30
0.0
 11
260.4177578559129
 21
102.467745473488
 31
0.0
  0
LINE
  5
1694
330
18
100
AcDbEntity
  8
1
  6
Continuous
100
AcDbLine
 10
259.4177578559129
 20
103.067743473488
 30
0.0
 11
251.9061918559128
 21
103.067743473488
 31
0.0
  0
LINE
  5
1696
330
18
100
AcDbEntity
  8
1
  6
Continuous
100
AcDbLine
 10
252.4177578559129
 20
78.21774547345312
 30
0.0
 11
257.4177578559129
 21
78.21774547345312
 31
0.0
  0
LINE
  5
1697
330
18
100
AcDbEntity
  8
1
  6
Continuous
100
AcDbLine
 10
250.3177578559129
 20
91.21774547345314
 30
0.0
 11
259.517757855913
 21
91.21774547345314
 31
0.0
  0
LINE
  5
1698
330
18
100
AcDbEntity
  8
1
  6
Continuous
100
AcDbLine
 10
250.3177578559129
 20
102.467745473488
 30
0.0
 11
260.4177578559129
 21
102.467745473488
 31
0.0
  0
LINE
  5
169A
330
18
100
AcDbEntity
  8
1
  6
Continuous
100
AcDbLine
 10
250.3177578559129
 20
102.467745473488
 30
0.0
 11
250.3177578559129
 21
91.21774547345314
 31
0.0
  0
LINE
  5
169B
330
18
100
AcDbEntity
  8
1
  6
Continuous
100
AcDbLine
 10
252.4177578559129
 20
91.21774547345314
 30
0.0
 11
252.4177578559129
 21
78.21774547345312
 31
0.0
  0
LINE
  5
16AB
330
18
100
AcDbEntity
  8
1
  6
Continuous
100
AcDbLine
 10
251.9061918559128
 20
103.067743473488
 30
0.0
 11
251.9061918559128
 21
102.467745473488
 31
0.0
  0
CIRCLE
  5
16C1
330
18
100
AcDbEntity
  8
1
  6
Continuous
100
AcDbCircle
 10
263.4177578559129
 20
98.21774547348805
 30
0.0
 40
2.549999999999998
  0
LINE
  5
16C2
330
18
100
AcDbEntity
  8
1
  6
Continuous
100
AcDbLine
 10
259.517757855913
 20
90.71774547348805
 30
0.0
 11
259.517757855913
 21
91.21774547345314
 31
0.0
  0
LINE
  5
16C3
330
18
100
AcDbEntity
  8
4
  6
CENTER
100
AcDbLine
 10
263.4177578559129
 20
102.267745473488
 30
0.0
 11
263.4177578559129
 21
94.16774547348806
 31
0.0
  0
LINE
  5
16C5
330
18
100
AcDbEntity
  8
1
  6
Continuous
100
AcDbLine
 10
257.4177578559129
 20
91.21774547345314
 30
0.0
 11
257.4177578559129
 21
78.21774547345312
 31
0.0
  0
LINE
  5
16C6
330
18
100
AcDbEntity
  8
4
  6
CENTER
100
AcDbLine
 10
267.4677578559129
 20
98.21774547348805
 30
0.0
 11
259.3677578559129
 21
98.21774547348805
 31
0.0
  0
LINE
  5
16C7
330
18
100
AcDbEntity
  8
1
  6
Continuous
100
AcDbLine
 10
259.517757855913
 20
90.71774547348805
 30
0.0
 11
267.9177578559129
 21
90.71774547348805
 31
0.0
  0
LINE
  5
16D6
330
18
100
AcDbEntity
  8
1
  6
Continuous
100
AcDbLine
 10
259.4177578559129
 20
103.067743473488
 30
0.0
 11
259.4177578559129
 21
102.4677454734881
 31
0.0
  0
LINE
  5
1704
330
18
100
AcDbEntity
  8
1
  6
Continuous
100
AcDbLine
 10
250.3177578559129
 20
150.2177454734531
 30
0.0
 11
259.550058781339
 21
150.2177454734531
 31
0.0
  0
LINE
  5
1705
330
18
100
AcDbEntity
  8
1
  6
Continuous
100
AcDbLine
 10
250.3177578559129
 20
138.967745473488
 30
0.0
 11
260.4177578559129
 21
138.967745473488
 31
0.0
  0
ARC
  5
1706
330
18
100
AcDbEntity
  8
1
  6
Continuous
100
AcDbCircle
 10
260.4177578559129
 20
152.7177454734531
 30
0.0
 40
8.0
100
AcDbArc
 50
90.0
 51
180.0
  0
LINE
  5
1707
330
18
100
AcDbEntity
  8
1
  6
Continuous
100
AcDbLine
 10
250.3177578559129
 20
150.217745473453
 30
0.0
 11
250.3177578559129
 21
138.967745473488
 31
0.0
  0
LINE
  5
1730
330
18
100
AcDbEntity
  8
1
  6
Continuous
100
AcDbLine
 10
252.4177578559129
 20
152.7177454734531
 30
0.0
 11
252.4177578559129
 21
150.2177454734531
 31
0.0
  0
CIRCLE
  5
1732
330
18
100
AcDbEntity
  8
1
  6
Continuous
100
AcDbCircle
 10
263.4177578559129
 20
143.217745473488
 30
0.0
 40
2.549999999999998
  0
LINE
  5
1733
330
18
100
AcDbEntity
  8
1
  6
Continuous
100
AcDbLine
 10
259.550058781339
 20
150.2177454734531
 30
0.0
 11
259.550058781339
 21
150.717745473488
 31
0.0
  0
LINE
  5
1734
330
18
100
AcDbEntity
  8
4
  6
CENTER
100
AcDbLine
 10
263.4177578559129
 20
147.267745473488
 30
0.0
 11
263.4177578559129
 21
139.167745473488
 31
0.0
  0
LINE
  5
175B
330
18
100
AcDbEntity
  8
1
  6
Continuous
100
AcDbLine
 10
257.4177578559129
 20
152.7177454734531
 30
0.0
 11
257.4177578559129
 21
150.2177454734531
 31
0.0
  0
LINE
  5
175C
330
18
100
AcDbEntity
  8
4
  6
CENTER
100
AcDbLine
 10
267.4677578559129
 20
143.217745473488
 30
0.0
 11
259.3677578559129
 21
143.217745473488
 31
0.0
  0
LINE
  5
175D
330
18
100
AcDbEntity
  8
1
  6
Continuous
100
AcDbLine
 10
259.550058781339
 20
150.717745473488
 30
0.0
 11
267.9177578559129
 21
150.717745473488
 31
0.0
  0
LINE
  5
175E
330
18
100
AcDbEntity
  8
1
  6
Continuous
100
AcDbLine
 10
260.4177578559129
 20
160.7177454734531
 30
0.0
 11
267.4177578559129
 21
160.7177454734531
 31
0.0
  0
LINE
  5
175F
330
18
100
AcDbEntity
  8
1
  6
Continuous
100
AcDbLine
 10
260.4177578559129
 20
155.7177454734531
 30
0.0
 11
267.4177578559129
 21
155.7177454734531
 31
0.0
  0
ARC
  5
1760
330
18
100
AcDbEntity
  8
1
  6
Continuous
100
AcDbCircle
 10
260.4177578559129
 20
152.7177454734531
 30
0.0
 40
3.0
100
AcDbArc
 50
90.0
 51
180.0
  0
LINE
  5
1761
330
18
100
AcDbEntity
  8
1
  6
Continuous
100
AcDbLine
 10
267.4177578559129
 20
160.7177454734531
 30
0.0
 11
267.4177578559129
 21
155.7177454734531
 31
0.0
  0
LINE
  5
18E9
330
18
100
AcDbEntity
  8
1
  6
Continuous
100
AcDbLine
 10
257.4177578559129
 20
120.1768195822908
 30
0.0
 11
257.4177578559129
 21
119.4915559800771
 31
0.0
  0
ARC
  5
18EA
330
18
100
AcDbEntity
  8
1
  6
Continuous
100
AcDbCircle
 10
251.6677578559187
 20
119.872145473488
 30
0.0
 40
0.4000000000000057
100
AcDbArc
 50
97.0165017447665
 51
277.0165017447664
  0
LINE
  5
18EB
330
18
100
AcDbEntity
  8
1
  6
Continuous
100
AcDbLine
 10
258.2166199364166
 20
120.2751410691226
 30
0.0
 11
251.7166199364563
 21
119.4751410691226
 31
0.0
  0
LINE
  5
18EC
330
18
100
AcDbEntity
  8
1
  6
Continuous
100
AcDbLine
 10
257.417757855913
 20
109.7377195822908
 30
0.0
 11
257.417757855913
 21
109.0524559800772
 31
0.0
  0
ARC
  5
18ED
330
18
100
AcDbEntity
  8
1
  6
Continuous
100
AcDbCircle
 10
251.6677578559187
 20
109.4330454734881
 30
0.0
 40
0.4000000000000057
100
AcDbArc
 50
97.0165017447665
 51
277.0165017447664
  0
LINE
  5
18EE
330
18
100
AcDbEntity
  8
1
  6
Continuous
100
AcDbLine
 10
258.2166199364166
 20
109.8360410691227
 30
0.0
 11
251.7166199364563
 21
109.0360410691227
 31
0.0
  0
LINE
  5
18EF
330
18
100
AcDbEntity
  8
1
  6
Continuous
100
AcDbLine
 10
258.2166199364166
 20
108.3447410691227
 30
0.0
 11
251.7166199364563
 21
107.5447410691227
 31
0.0
  0
LINE
  5
18F0
330
18
100
AcDbEntity
  8
1
  6
Continuous
100
AcDbLine
 10
258.1188957753414
 20
109.1387498778535
 30
0.0
 11
251.6188957753811
 21
108.3387498778535
 31
0.0
  0
LINE
  5
18F1
330
18
100
AcDbEntity
  8
1
  6
Continuous
100
AcDbLine
 10
258.2166199364166
 20
105.3621410691227
 30
0.0
 11
251.7166199364563
 21
104.5621410691226
 31
0.0
  0
LINE
  5
18F2
330
18
100
AcDbEntity
  8
1
  6
Continuous
100
AcDbLine
 10
258.1188957753414
 20
106.1561498778535
 30
0.0
 11
251.6188957753811
 21
105.3561498778535
 31
0.0
  0
LINE
  5
18F3
330
18
100
AcDbEntity
  8
1
  6
Continuous
100
AcDbLine
 10
258.2166199364166
 20
106.8534410691227
 30
0.0
 11
251.7166199364563
 21
106.0534410691226
 31
0.0
  0
LINE
  5
18F4
330
18
100
AcDbEntity
  8
1
  6
Continuous
100
AcDbLine
 10
258.1188957753414
 20
107.6474498778535
 30
0.0
 11
251.6188957753811
 21
106.8474498778535
 31
0.0
  0
LINE
  5
18F5
330
18
100
AcDbEntity
  8
1
  6
Continuous
100
AcDbLine
 10
258.1188896384058
 20
104.6648491224902
 30
0.0
 11
251.6188896384455
 21
103.8647471224902
 31
0.0
  0
LINE
  5
18F6
330
18
100
AcDbEntity
  8
1
  6
Continuous
100
AcDbLine
 10
251.7166260733919
 20
103.0707398244859
 30
0.0
 11
258.2166260733522
 21
103.870841824486
 31
0.0
  0
LINE
  5
18F7
330
18
100
AcDbEntity
  8
1
  6
Continuous
100
AcDbLine
 10
252.417757855913
 20
109.1223349669024
 30
0.0
 11
252.417757855913
 21
108.4370713646888
 31
0.0
  0
LINE
  5
18F8
330
18
100
AcDbEntity
  8
1
  6
Continuous
100
AcDbLine
 10
252.417757855913
 20
107.6310349669024
 30
0.0
 11
252.4177578559129
 21
106.9457713646887
 31
0.0
  0
LINE
  5
18F9
330
18
100
AcDbEntity
  8
1
  6
Continuous
100
AcDbLine
 10
252.4177578559129
 20
106.1397349669024
 30
0.0
 11
252.4177578559129
 21
105.4544713646888
 31
0.0
  0
LINE
  5
18FA
330
18
100
AcDbEntity
  8
1
  6
Continuous
100
AcDbLine
 10
252.4177578559129
 20
104.6484349669025
 30
0.0
 11
252.4177578559129
 21
103.9630819007265
 31
0.0
  0
LINE
  5
18FB
330
18
100
AcDbEntity
  8
1
  6
Continuous
100
AcDbLine
 10
252.417757855913
 20
103.1570439693262
 30
0.0
 11
252.417757855913
 21
103.067743473488
 31
0.0
  0
ARC
  5
18FC
330
18
100
AcDbEntity
  8
1
  6
Continuous
100
AcDbCircle
 10
251.6677578559187
 20
107.9417454734881
 30
0.0
 40
0.4000000000000057
100
AcDbArc
 50
97.0165017447665
 51
277.0165017447664
  0
ARC
  5
18FD
330
18
100
AcDbEntity
  8
1
  6
Continuous
100
AcDbCircle
 10
251.6677578559187
 20
106.4504454734881
 30
0.0
 40
0.4000000000000057
100
AcDbArc
 50
97.0165017447665
 51
277.0165017447664
  0
ARC
  5
18FE
330
18
100
AcDbEntity
  8
1
  6
Continuous
100
AcDbCircle
 10
251.6677578559187
 20
104.9591454734881
 30
0.0
 40
0.4000000000000057
100
AcDbArc
 50
97.0165017447665
 51
277.0165017447664
  0
ARC
  5
18FF
330
18
100
AcDbEntity
  8
1
  6
Continuous
100
AcDbCircle
 10
251.6677578559187
 20
103.467743473488
 30
0.0
 40
0.4000000000000057
100
AcDbArc
 50
90.0
 51
270.0
  0
LINE
  5
1900
330
18
100
AcDbEntity
  8
1
  6
Continuous
100
AcDbLine
 10
252.417757855913
 20
108.9510242219241
 30
0.0
 11
251.6254548921017
 21
109.035288689445
 31
0.0
  0
LINE
  5
1901
330
18
100
AcDbEntity
  8
1
  6
Continuous
100
AcDbLine
 10
252.417757855913
 20
105.9684242219241
 30
0.0
 11
251.6254548921017
 21
106.052688689445
 31
0.0
  0
LINE
  5
1902
330
18
100
AcDbEntity
  8
1
  6
Continuous
100
AcDbLine
 10
252.417757855913
 20
107.4597242219241
 30
0.0
 11
251.6254548921017
 21
107.543988689445
 31
0.0
  0
LINE
  5
1903
330
18
100
AcDbEntity
  8
1
  6
Continuous
100
AcDbLine
 10
252.417757855913
 20
104.4771242219241
 30
0.0
 11
251.6254548921017
 21
104.561388689445
 31
0.0
  0
LINE
  5
1904
330
18
100
AcDbEntity
  8
1
  6
Continuous
100
AcDbLine
 10
257.4177578559129
 20
103.7725070462531
 30
0.0
 11
257.4177578559129
 21
103.0677434734881
 31
0.0
  0
LINE
  5
1905
330
18
100
AcDbEntity
  8
1
  6
Continuous
100
AcDbLine
 10
257.417757855913
 20
105.2638195822909
 30
0.0
 11
257.4177578559129
 21
104.5785449776533
 31
0.0
  0
LINE
  5
1906
330
18
100
AcDbEntity
  8
1
  6
Continuous
100
AcDbLine
 10
257.417757855913
 20
106.7551195822908
 30
0.0
 11
257.417757855913
 21
106.0698559800772
 31
0.0
  0
LINE
  5
1907
330
18
100
AcDbEntity
  8
1
  6
Continuous
100
AcDbLine
 10
257.417757855913
 20
108.2464195822908
 30
0.0
 11
257.417757855913
 21
107.5611559800771
 31
0.0
  0
ARC
  5
1908
330
18
100
AcDbEntity
  8
1
  6
Continuous
100
AcDbCircle
 10
258.167757855879
 20
107.2504454734881
 30
0.0
 40
0.4000000000000057
100
AcDbArc
 50
277.0165017447664
 51
97.0165017447665
  0
ARC
  5
1909
330
18
100
AcDbEntity
  8
1
  6
Continuous
100
AcDbCircle
 10
258.167757855879
 20
108.7417454734881
 30
0.0
 40
0.4000000000000057
100
AcDbArc
 50
277.0165017447664
 51
97.0165017447665
  0
ARC
  5
190A
330
18
100
AcDbEntity
  8
1
  6
Continuous
100
AcDbCircle
 10
258.167757855879
 20
105.7591454734881
 30
0.0
 40
0.4000000000000057
100
AcDbArc
 50
277.0165017447664
 51
97.0165017447665
  0
ARC
  5
190B
330
18
100
AcDbEntity
  8
1
  6
Continuous
100
AcDbCircle
 10
258.167757855879
 20
104.2678454734881
 30
0.0
 40
0.4000000000000057
100
AcDbArc
 50
277.0173874297618
 51
97.01738742976177
  0
LINE
  5
190C
330
18
100
AcDbEntity
  8
1
  6
Continuous
100
AcDbLine
 10
257.4177578559129
 20
106.2411667250491
 30
0.0
 11
258.210060819696
 21
106.1569022575312
 31
0.0
  0
LINE
  5
190D
330
18
100
AcDbEntity
  8
1
  6
Continuous
100
AcDbLine
 10
257.4177578559129
 20
107.7324667250491
 30
0.0
 11
258.210060819696
 21
107.6482022575312
 31
0.0
  0
LINE
  5
190E
330
18
100
AcDbEntity
  8
1
  6
Continuous
100
AcDbLine
 10
257.4177578559129
 20
104.7498667250491
 30
0.0
 11
258.210060819696
 21
104.6656022575312
 31
0.0
  0
LINE
  5
190F
330
18
100
AcDbEntity
  8
1
  6
Continuous
100
AcDbLine
 10
257.4177578559129
 20
109.2237667250491
 30
0.0
 11
258.210060819696
 21
109.1395022575312
 31
0.0
  0
LINE
  5
1910
330
18
100
AcDbEntity
  8
1
  6
Continuous
100
AcDbLine
 10
258.1188957753414
 20
119.5778498778535
 30
0.0
 11
251.6188957753811
 21
118.7778498778534
 31
0.0
  0
LINE
  5
1911
330
18
100
AcDbEntity
  8
1
  6
Continuous
100
AcDbLine
 10
258.2166199364166
 20
118.7838410691226
 30
0.0
 11
251.7166199364563
 21
117.9838410691226
 31
0.0
  0
LINE
  5
1912
330
18
100
AcDbEntity
  8
1
  6
Continuous
100
AcDbLine
 10
258.2166199364166
 20
115.8012410691226
 30
0.0
 11
251.7166199364563
 21
115.0012410691226
 31
0.0
  0
LINE
  5
1913
330
18
100
AcDbEntity
  8
1
  6
Continuous
100
AcDbLine
 10
258.1188957753414
 20
116.5952498778535
 30
0.0
 11
251.6188957753811
 21
115.7952498778535
 31
0.0
  0
LINE
  5
1914
330
18
100
AcDbEntity
  8
1
  6
Continuous
100
AcDbLine
 10
258.2166199364166
 20
117.2925410691226
 30
0.0
 11
251.7166199364563
 21
116.4925410691226
 31
0.0
  0
LINE
  5
1915
330
18
100
AcDbEntity
  8
1
  6
Continuous
100
AcDbLine
 10
258.1188957753414
 20
118.0865498778535
 30
0.0
 11
251.6188957753811
 21
117.2865498778534
 31
0.0
  0
LINE
  5
1916
330
18
100
AcDbEntity
  8
1
  6
Continuous
100
AcDbLine
 10
258.1188957753414
 20
113.6126498778535
 30
0.0
 11
251.6188957753811
 21
112.8126498778535
 31
0.0
  0
LINE
  5
1917
330
18
100
AcDbEntity
  8
1
  6
Continuous
100
AcDbLine
 10
258.2166199364166
 20
112.8186410691226
 30
0.0
 11
251.7166199364563
 21
112.0186410691226
 31
0.0
  0
LINE
  5
1918
330
18
100
AcDbEntity
  8
1
  6
Continuous
100
AcDbLine
 10
258.2166199364166
 20
114.3099410691226
 30
0.0
 11
251.7166199364563
 21
113.5099410691226
 31
0.0
  0
LINE
  5
1919
330
18
100
AcDbEntity
  8
1
  6
Continuous
100
AcDbLine
 10
258.1188957753414
 20
115.1039498778535
 30
0.0
 11
251.6188957753811
 21
114.3039498778535
 31
0.0
  0
LINE
  5
191A
330
18
100
AcDbEntity
  8
1
  6
Continuous
100
AcDbLine
 10
258.1188957753414
 20
110.6300498778535
 30
0.0
 11
251.6188957753811
 21
109.8300498778535
 31
0.0
  0
LINE
  5
191B
330
18
100
AcDbEntity
  8
1
  6
Continuous
100
AcDbLine
 10
258.2166199364166
 20
111.3273410691226
 30
0.0
 11
251.7166199364563
 21
110.5273410691226
 31
0.0
  0
LINE
  5
191C
330
18
100
AcDbEntity
  8
1
  6
Continuous
100
AcDbLine
 10
258.1188957753414
 20
112.1213498778535
 30
0.0
 11
251.6188957753811
 21
111.3213498778535
 31
0.0
  0
LINE
  5
191D
330
18
100
AcDbEntity
  8
1
  6
Continuous
100
AcDbLine
 10
252.417757855913
 20
119.5614349669024
 30
0.0
 11
252.417757855913
 21
118.8761713646887
 31
0.0
  0
LINE
  5
191E
330
18
100
AcDbEntity
  8
1
  6
Continuous
100
AcDbLine
 10
252.417757855913
 20
118.0701349669024
 30
0.0
 11
252.4177578559129
 21
117.3848713646888
 31
0.0
  0
LINE
  5
191F
330
18
100
AcDbEntity
  8
1
  6
Continuous
100
AcDbLine
 10
252.4177578559129
 20
116.5788349669024
 30
0.0
 11
252.4177578559129
 21
115.8935713646887
 31
0.0
  0
LINE
  5
1920
330
18
100
AcDbEntity
  8
1
  6
Continuous
100
AcDbLine
 10
252.4177578559129
 20
115.0875349669024
 30
0.0
 11
252.4177578559129
 21
114.4022713646888
 31
0.0
  0
LINE
  5
1921
330
18
100
AcDbEntity
  8
1
  6
Continuous
100
AcDbLine
 10
252.4177578559129
 20
113.5962349669024
 30
0.0
 11
252.4177578559129
 21
112.9109713646888
 31
0.0
  0
LINE
  5
1922
330
18
100
AcDbEntity
  8
1
  6
Continuous
100
AcDbLine
 10
252.4177578559129
 20
112.1049349669024
 30
0.0
 11
252.4177578559129
 21
111.4196713646887
 31
0.0
  0
LINE
  5
1923
330
18
100
AcDbEntity
  8
1
  6
Continuous
100
AcDbLine
 10
252.4177578559129
 20
110.6136349669024
 30
0.0
 11
252.417757855913
 21
109.9283713646888
 31
0.0
  0
LINE
  5
1924
330
18
100
AcDbEntity
  8
1
  6
Continuous
100
AcDbLine
 10
252.417757855913
 20
113.424924221924
 30
0.0
 11
251.6254548921017
 21
113.509188689445
 31
0.0
  0
LINE
  5
1925
330
18
100
AcDbEntity
  8
1
  6
Continuous
100
AcDbLine
 10
252.417757855913
 20
111.933624221924
 30
0.0
 11
251.6254548921017
 21
112.017888689445
 31
0.0
  0
LINE
  5
1926
330
18
100
AcDbEntity
  8
1
  6
Continuous
100
AcDbLine
 10
252.417757855913
 20
114.916224221924
 30
0.0
 11
251.6254548921017
 21
115.000488689445
 31
0.0
  0
LINE
  5
1927
330
18
100
AcDbEntity
  8
1
  6
Continuous
100
AcDbLine
 10
252.417757855913
 20
110.4423242219241
 30
0.0
 11
251.6254548921017
 21
110.526588689445
 31
0.0
  0
ARC
  5
1928
330
18
100
AcDbEntity
  8
1
  6
Continuous
100
AcDbCircle
 10
251.6677578559187
 20
110.9243454734881
 30
0.0
 40
0.4000000000000057
100
AcDbArc
 50
97.0165017447665
 51
277.0165017447664
  0
ARC
  5
1929
330
18
100
AcDbEntity
  8
1
  6
Continuous
100
AcDbCircle
 10
251.6677578559187
 20
116.889545473488
 30
0.0
 40
0.4000000000000057
100
AcDbArc
 50
97.0165017447665
 51
277.0165017447664
  0
ARC
  5
192A
330
18
100
AcDbEntity
  8
1
  6
Continuous
100
AcDbCircle
 10
251.6677578559187
 20
115.398245473488
 30
0.0
 40
0.4000000000000057
100
AcDbArc
 50
97.0165017447665
 51
277.0165017447664
  0
ARC
  5
192B
330
18
100
AcDbEntity
  8
1
  6
Continuous
100
AcDbCircle
 10
251.6677578559187
 20
112.4156454734881
 30
0.0
 40
0.4000000000000057
100
AcDbArc
 50
97.0165017447665
 51
277.0165017447664
  0
ARC
  5
192C
330
18
100
AcDbEntity
  8
1
  6
Continuous
100
AcDbCircle
 10
251.6677578559187
 20
113.906945473488
 30
0.0
 40
0.4000000000000057
100
AcDbArc
 50
97.0165017447665
 51
277.0165017447664
  0
ARC
  5
192D
330
18
100
AcDbEntity
  8
1
  6
Continuous
100
AcDbCircle
 10
251.6677578559187
 20
118.380845473488
 30
0.0
 40
0.4000000000000057
100
AcDbArc
 50
97.0165017447665
 51
277.0165017447664
  0
LINE
  5
192E
330
18
100
AcDbEntity
  8
1
  6
Continuous
100
AcDbLine
 10
252.417757855913
 20
119.390124221924
 30
0.0
 11
251.6254548921017
 21
119.474388689445
 31
0.0
  0
LINE
  5
192F
330
18
100
AcDbEntity
  8
1
  6
Continuous
100
AcDbLine
 10
252.417757855913
 20
116.407524221924
 30
0.0
 11
251.6254548921017
 21
116.491788689445
 31
0.0
  0
LINE
  5
1930
330
18
100
AcDbEntity
  8
1
  6
Continuous
100
AcDbLine
 10
252.417757855913
 20
117.898824221924
 30
0.0
 11
251.6254548921017
 21
117.983088689445
 31
0.0
  0
LINE
  5
1931
330
18
100
AcDbEntity
  8
1
  6
Continuous
100
AcDbLine
 10
257.417757855913
 20
111.2290195822908
 30
0.0
 11
257.417757855913
 21
110.5437559800772
 31
0.0
  0
LINE
  5
1932
330
18
100
AcDbEntity
  8
1
  6
Continuous
100
AcDbLine
 10
257.417757855913
 20
112.7203195822908
 30
0.0
 11
257.417757855913
 21
112.0350559800772
 31
0.0
  0
LINE
  5
1933
330
18
100
AcDbEntity
  8
1
  6
Continuous
100
AcDbLine
 10
257.417757855913
 20
114.2116195822908
 30
0.0
 11
257.417757855913
 21
113.5263559800772
 31
0.0
  0
LINE
  5
1934
330
18
100
AcDbEntity
  8
1
  6
Continuous
100
AcDbLine
 10
257.417757855913
 20
115.7029195822908
 30
0.0
 11
257.417757855913
 21
115.0176559800772
 31
0.0
  0
LINE
  5
1935
330
18
100
AcDbEntity
  8
1
  6
Continuous
100
AcDbLine
 10
257.4177578559129
 20
117.1942195822908
 30
0.0
 11
257.417757855913
 21
116.5089559800772
 31
0.0
  0
LINE
  5
1936
330
18
100
AcDbEntity
  8
1
  6
Continuous
100
AcDbLine
 10
257.4177578559129
 20
118.6855195822908
 30
0.0
 11
257.4177578559129
 21
118.0002559800771
 31
0.0
  0
LINE
  5
1937
330
18
100
AcDbEntity
  8
1
  6
Continuous
100
AcDbLine
 10
257.4177578559129
 20
113.6976667250491
 30
0.0
 11
258.210060819696
 21
113.6134022575312
 31
0.0
  0
LINE
  5
1938
330
18
100
AcDbEntity
  8
1
  6
Continuous
100
AcDbLine
 10
257.4177578559129
 20
112.2063667250491
 30
0.0
 11
258.210060819696
 21
112.1221022575312
 31
0.0
  0
LINE
  5
1939
330
18
100
AcDbEntity
  8
1
  6
Continuous
100
AcDbLine
 10
257.4177578559129
 20
110.7150667250491
 30
0.0
 11
258.210060819696
 21
110.6308022575312
 31
0.0
  0
LINE
  5
193A
330
18
100
AcDbEntity
  8
1
  6
Continuous
100
AcDbLine
 10
257.4177578559129
 20
119.6628667250491
 30
0.0
 11
258.210060819696
 21
119.5786022575311
 31
0.0
  0
ARC
  5
193B
330
18
100
AcDbEntity
  8
1
  6
Continuous
100
AcDbCircle
 10
258.167757855879
 20
117.689545473488
 30
0.0
 40
0.4000000000000057
100
AcDbArc
 50
277.0165017447664
 51
97.0165017447665
  0
ARC
  5
193C
330
18
100
AcDbEntity
  8
1
  6
Continuous
100
AcDbCircle
 10
258.167757855879
 20
116.198245473488
 30
0.0
 40
0.4000000000000057
100
AcDbArc
 50
277.0165017447664
 51
97.0165017447665
  0
ARC
  5
193D
330
18
100
AcDbEntity
  8
1
  6
Continuous
100
AcDbCircle
 10
258.167757855879
 20
113.2156454734881
 30
0.0
 40
0.4000000000000057
100
AcDbArc
 50
277.0165017447664
 51
97.0165017447665
  0
ARC
  5
193E
330
18
100
AcDbEntity
  8
1
  6
Continuous
100
AcDbCircle
 10
258.167757855879
 20
114.706945473488
 30
0.0
 40
0.4000000000000057
100
AcDbArc
 50
277.0165017447664
 51
97.0165017447665
  0
ARC
  5
193F
330
18
100
AcDbEntity
  8
1
  6
Continuous
100
AcDbCircle
 10
258.167757855879
 20
111.7243454734881
 30
0.0
 40
0.4000000000000057
100
AcDbArc
 50
277.0165017447664
 51
97.0165017447665
  0
ARC
  5
1940
330
18
100
AcDbEntity
  8
1
  6
Continuous
100
AcDbCircle
 10
258.167757855879
 20
119.180845473488
 30
0.0
 40
0.4000000000000057
100
AcDbArc
 50
277.0165017447664
 51
97.0165017447665
  0
ARC
  5
1941
330
18
100
AcDbEntity
  8
1
  6
Continuous
100
AcDbCircle
 10
258.167757855879
 20
110.2330454734881
 30
0.0
 40
0.4000000000000057
100
AcDbArc
 50
277.0165017447664
 51
97.0165017447665
  0
LINE
  5
1942
330
18
100
AcDbEntity
  8
1
  6
Continuous
100
AcDbLine
 10
257.4177578559129
 20
116.6802667250491
 30
0.0
 11
258.210060819696
 21
116.5960022575311
 31
0.0
  0
LINE
  5
1943
330
18
100
AcDbEntity
  8
1
  6
Continuous
100
AcDbLine
 10
257.4177578559129
 20
118.1715667250491
 30
0.0
 11
258.210060819696
 21
118.0873022575311
 31
0.0
  0
LINE
  5
1944
330
18
100
AcDbEntity
  8
1
  6
Continuous
100
AcDbLine
 10
257.4177578559129
 20
115.1889667250491
 30
0.0
 11
258.210060819696
 21
115.1047022575311
 31
0.0
  0
ARC
  5
1945
330
18
100
AcDbEntity
  8
1
  6
Continuous
100
AcDbCircle
 10
251.6677578559187
 20
130.311245473488
 30
0.0
 40
0.4000000000000057
100
AcDbArc
 50
97.0165017447665
 51
277.0165017447664
  0
LINE
  5
1946
330
18
100
AcDbEntity
  8
1
  6
Continuous
100
AcDbLine
 10
258.2166199364166
 20
130.7142410691226
 30
0.0
 11
251.7166199364563
 21
129.9142410691226
 31
0.0
  0
LINE
  5
1947
330
18
100
AcDbEntity
  8
1
  6
Continuous
100
AcDbLine
 10
258.1188957753414
 20
130.0169498778534
 30
0.0
 11
251.6188957753811
 21
129.2169498778534
 31
0.0
  0
LINE
  5
1948
330
18
100
AcDbEntity
  8
1
  6
Continuous
100
AcDbLine
 10
258.2166199364166
 20
129.2229410691226
 30
0.0
 11
251.7166199364563
 21
128.4229410691226
 31
0.0
  0
LINE
  5
1949
330
18
100
AcDbEntity
  8
1
  6
Continuous
100
AcDbLine
 10
258.1188957753414
 20
128.5256498778534
 30
0.0
 11
251.6188957753811
 21
127.7256498778534
 31
0.0
  0
LINE
  5
194A
330
18
100
AcDbEntity
  8
1
  6
Continuous
100
AcDbLine
 10
258.2166199364166
 20
127.7316410691226
 30
0.0
 11
251.7166199364563
 21
126.9316410691226
 31
0.0
  0
LINE
  5
194B
330
18
100
AcDbEntity
  8
1
  6
Continuous
100
AcDbLine
 10
258.2166199364166
 20
123.2577410691226
 30
0.0
 11
251.7166199364563
 21
122.4577410691226
 31
0.0
  0
LINE
  5
194C
330
18
100
AcDbEntity
  8
1
  6
Continuous
100
AcDbLine
 10
258.1188957753414
 20
124.0517498778535
 30
0.0
 11
251.6188957753811
 21
123.2517498778534
 31
0.0
  0
LINE
  5
194D
330
18
100
AcDbEntity
  8
1
  6
Continuous
100
AcDbLine
 10
258.2166199364166
 20
124.7490410691226
 30
0.0
 11
251.7166199364563
 21
123.9490410691226
 31
0.0
  0
LINE
  5
194E
330
18
100
AcDbEntity
  8
1
  6
Continuous
100
AcDbLine
 10
258.1188957753414
 20
125.5430498778534
 30
0.0
 11
251.6188957753811
 21
124.7430498778534
 31
0.0
  0
LINE
  5
194F
330
18
100
AcDbEntity
  8
1
  6
Continuous
100
AcDbLine
 10
258.2166199364166
 20
126.2403410691226
 30
0.0
 11
251.7166199364563
 21
125.4403410691226
 31
0.0
  0
LINE
  5
1950
330
18
100
AcDbEntity
  8
1
  6
Continuous
100
AcDbLine
 10
258.1188957753414
 20
127.0343498778534
 30
0.0
 11
251.6188957753811
 21
126.2343498778534
 31
0.0
  0
LINE
  5
1951
330
18
100
AcDbEntity
  8
1
  6
Continuous
100
AcDbLine
 10
258.1188957753414
 20
122.5604498778535
 30
0.0
 11
251.6188957753811
 21
121.7604498778534
 31
0.0
  0
LINE
  5
1952
330
18
100
AcDbEntity
  8
1
  6
Continuous
100
AcDbLine
 10
258.2166199364166
 20
121.7664410691226
 30
0.0
 11
251.7166199364563
 21
120.9664410691226
 31
0.0
  0
LINE
  5
1953
330
18
100
AcDbEntity
  8
1
  6
Continuous
100
AcDbLine
 10
258.1188957753414
 20
121.0691498778535
 30
0.0
 11
251.6188957753811
 21
120.2691498778534
 31
0.0
  0
LINE
  5
1954
330
18
100
AcDbEntity
  8
1
  6
Continuous
100
AcDbLine
 10
252.4177578559128
 20
121.0527349669024
 30
0.0
 11
252.4177578559129
 21
120.3674713646887
 31
0.0
  0
LINE
  5
1955
330
18
100
AcDbEntity
  8
1
  6
Continuous
100
AcDbLine
 10
252.4177578559128
 20
122.5440349669024
 30
0.0
 11
252.4177578559128
 21
121.8587713646887
 31
0.0
  0
LINE
  5
1956
330
18
100
AcDbEntity
  8
1
  6
Continuous
100
AcDbLine
 10
252.4177578559128
 20
124.0353349669024
 30
0.0
 11
252.4177578559128
 21
123.3500713646887
 31
0.0
  0
LINE
  5
1957
330
18
100
AcDbEntity
  8
1
  6
Continuous
100
AcDbLine
 10
252.4177578559128
 20
125.5266349669024
 30
0.0
 11
252.4177578559128
 21
124.8413713646888
 31
0.0
  0
LINE
  5
1958
330
18
100
AcDbEntity
  8
1
  6
Continuous
100
AcDbLine
 10
252.4177578559128
 20
127.0179349669024
 30
0.0
 11
252.4177578559128
 21
126.3326713646887
 31
0.0
  0
LINE
  5
1959
330
18
100
AcDbEntity
  8
1
  6
Continuous
100
AcDbLine
 10
252.4177578559128
 20
128.5092349669024
 30
0.0
 11
252.4177578559128
 21
127.8239713646887
 31
0.0
  0
LINE
  5
195A
330
18
100
AcDbEntity
  8
1
  6
Continuous
100
AcDbLine
 10
252.4177578559128
 20
130.0005349669024
 30
0.0
 11
252.4177578559128
 21
129.3152713646887
 31
0.0
  0
ARC
  5
195B
330
18
100
AcDbEntity
  8
1
  6
Continuous
100
AcDbCircle
 10
251.6677578559187
 20
128.819945473488
 30
0.0
 40
0.4000000000000057
100
AcDbArc
 50
97.0165017447665
 51
277.0165017447664
  0
ARC
  5
195C
330
18
100
AcDbEntity
  8
1
  6
Continuous
100
AcDbCircle
 10
251.6677578559187
 20
127.328645473488
 30
0.0
 40
0.4000000000000057
100
AcDbArc
 50
97.0165017447665
 51
277.0165017447664
  0
ARC
  5
195D
330
18
100
AcDbEntity
  8
1
  6
Continuous
100
AcDbCircle
 10
251.6677578559187
 20
122.854745473488
 30
0.0
 40
0.4000000000000057
100
AcDbArc
 50
97.0165017447665
 51
277.0165017447664
  0
ARC
  5
195E
330
18
100
AcDbEntity
  8
1
  6
Continuous
100
AcDbCircle
 10
251.6677578559187
 20
121.363445473488
 30
0.0
 40
0.4000000000000057
100
AcDbArc
 50
97.0165017447665
 51
277.0165017447664
  0
ARC
  5
195F
330
18
100
AcDbEntity
  8
1
  6
Continuous
100
AcDbCircle
 10
251.6677578559187
 20
124.346045473488
 30
0.0
 40
0.4000000000000057
100
AcDbArc
 50
97.0165017447665
 51
277.0165017447664
  0
ARC
  5
1960
330
18
100
AcDbEntity
  8
1
  6
Continuous
100
AcDbCircle
 10
251.6677578559187
 20
125.837345473488
 30
0.0
 40
0.4000000000000057
100
AcDbArc
 50
97.0165017447665
 51
277.0165017447664
  0
LINE
  5
1961
330
18
100
AcDbEntity
  8
1
  6
Continuous
100
AcDbLine
 10
252.417757855913
 20
128.337924221924
 30
0.0
 11
251.6254548921017
 21
128.4221886894449
 31
0.0
  0
LINE
  5
1962
330
18
100
AcDbEntity
  8
1
  6
Continuous
100
AcDbLine
 10
252.417757855913
 20
126.846624221924
 30
0.0
 11
251.6254548921017
 21
126.9308886894449
 31
0.0
  0
LINE
  5
1963
330
18
100
AcDbEntity
  8
1
  6
Continuous
100
AcDbLine
 10
252.417757855913
 20
129.829224221924
 30
0.0
 11
251.6254548921017
 21
129.9134886894449
 31
0.0
  0
LINE
  5
1964
330
18
100
AcDbEntity
  8
1
  6
Continuous
100
AcDbLine
 10
252.417757855913
 20
120.881424221924
 30
0.0
 11
251.6254548921017
 21
120.9656886894449
 31
0.0
  0
LINE
  5
1965
330
18
100
AcDbEntity
  8
1
  6
Continuous
100
AcDbLine
 10
252.417757855913
 20
123.864024221924
 30
0.0
 11
251.6254548921017
 21
123.9482886894449
 31
0.0
  0
LINE
  5
1966
330
18
100
AcDbEntity
  8
1
  6
Continuous
100
AcDbLine
 10
252.417757855913
 20
122.372724221924
 30
0.0
 11
251.6254548921017
 21
122.4569886894449
 31
0.0
  0
LINE
  5
1967
330
18
100
AcDbEntity
  8
1
  6
Continuous
100
AcDbLine
 10
252.417757855913
 20
125.355324221924
 30
0.0
 11
251.6254548921017
 21
125.4395886894449
 31
0.0
  0
LINE
  5
1968
330
18
100
AcDbEntity
  8
1
  6
Continuous
100
AcDbLine
 10
257.4177578559129
 20
130.6159195822907
 30
0.0
 11
257.4177578559129
 21
129.9306559800771
 31
0.0
  0
LINE
  5
1969
330
18
100
AcDbEntity
  8
1
  6
Continuous
100
AcDbLine
 10
257.4177578559129
 20
129.1246195822908
 30
0.0
 11
257.4177578559129
 21
128.4393559800771
 31
0.0
  0
LINE
  5
196A
330
18
100
AcDbEntity
  8
1
  6
Continuous
100
AcDbLine
 10
257.4177578559129
 20
127.6333195822908
 30
0.0
 11
257.4177578559129
 21
126.9480559800771
 31
0.0
  0
LINE
  5
196B
330
18
100
AcDbEntity
  8
1
  6
Continuous
100
AcDbLine
 10
257.4177578559129
 20
126.1420195822908
 30
0.0
 11
257.417757855913
 21
125.4567559800771
 31
0.0
  0
LINE
  5
196C
330
18
100
AcDbEntity
  8
1
  6
Continuous
100
AcDbLine
 10
257.417757855913
 20
124.6507195822908
 30
0.0
 11
257.417757855913
 21
123.9654559800771
 31
0.0
  0
LINE
  5
196D
330
18
100
AcDbEntity
  8
1
  6
Continuous
100
AcDbLine
 10
257.417757855913
 20
123.1594195822908
 30
0.0
 11
257.417757855913
 21
122.4741559800771
 31
0.0
  0
LINE
  5
196E
330
18
100
AcDbEntity
  8
1
  6
Continuous
100
AcDbLine
 10
257.417757855913
 20
121.6681195822908
 30
0.0
 11
257.4177578559129
 21
120.9828559800771
 31
0.0
  0
ARC
  5
196F
330
18
100
AcDbEntity
  8
1
  6
Continuous
100
AcDbCircle
 10
258.167757855879
 20
129.619945473488
 30
0.0
 40
0.4000000000000057
100
AcDbArc
 50
277.0165017447664
 51
97.0165017447665
  0
ARC
  5
1970
330
18
100
AcDbEntity
  8
1
  6
Continuous
100
AcDbCircle
 10
258.167757855879
 20
128.128645473488
 30
0.0
 40
0.4000000000000057
100
AcDbArc
 50
277.0165017447664
 51
97.0165017447665
  0
ARC
  5
1971
330
18
100
AcDbEntity
  8
1
  6
Continuous
100
AcDbCircle
 10
258.167757855879
 20
120.672145473488
 30
0.0
 40
0.4000000000000057
100
AcDbArc
 50
277.0165017447664
 51
97.0165017447665
  0
ARC
  5
1972
330
18
100
AcDbEntity
  8
1
  6
Continuous
100
AcDbCircle
 10
258.167757855879
 20
123.654745473488
 30
0.0
 40
0.4000000000000057
100
AcDbArc
 50
277.0165017447664
 51
97.0165017447665
  0
ARC
  5
1973
330
18
100
AcDbEntity
  8
1
  6
Continuous
100
AcDbCircle
 10
258.167757855879
 20
122.163445473488
 30
0.0
 40
0.4000000000000057
100
AcDbArc
 50
277.0165017447664
 51
97.0165017447665
  0
ARC
  5
1974
330
18
100
AcDbEntity
  8
1
  6
Continuous
100
AcDbCircle
 10
258.167757855879
 20
125.146045473488
 30
0.0
 40
0.4000000000000057
100
AcDbArc
 50
277.0165017447664
 51
97.0165017447665
  0
ARC
  5
1975
330
18
100
AcDbEntity
  8
1
  6
Continuous
100
AcDbCircle
 10
258.167757855879
 20
126.637345473488
 30
0.0
 40
0.4000000000000057
100
AcDbArc
 50
277.0165017447664
 51
97.0165017447665
  0
LINE
  5
1976
330
18
100
AcDbEntity
  8
1
  6
Continuous
100
AcDbLine
 10
257.4177578559129
 20
128.6106667250491
 30
0.0
 11
258.210060819696
 21
128.5264022575311
 31
0.0
  0
LINE
  5
1977
330
18
100
AcDbEntity
  8
1
  6
Continuous
100
AcDbLine
 10
257.4177578559129
 20
127.119366725049
 30
0.0
 11
258.210060819696
 21
127.0351022575311
 31
0.0
  0
LINE
  5
1978
330
18
100
AcDbEntity
  8
1
  6
Continuous
100
AcDbLine
 10
257.4177578559129
 20
121.1541667250491
 30
0.0
 11
258.210060819696
 21
121.0699022575311
 31
0.0
  0
LINE
  5
1979
330
18
100
AcDbEntity
  8
1
  6
Continuous
100
AcDbLine
 10
257.4177578559129
 20
124.1367667250491
 30
0.0
 11
258.210060819696
 21
124.0525022575311
 31
0.0
  0
LINE
  5
197A
330
18
100
AcDbEntity
  8
1
  6
Continuous
100
AcDbLine
 10
257.4177578559129
 20
122.6454667250491
 30
0.0
 11
258.210060819696
 21
122.5612022575311
 31
0.0
  0
LINE
  5
197B
330
18
100
AcDbEntity
  8
1
  6
Continuous
100
AcDbLine
 10
257.4177578559129
 20
125.6280667250491
 30
0.0
 11
258.210060819696
 21
125.5438022575311
 31
0.0
  0
LINE
  5
197C
330
18
100
AcDbEntity
  8
1
  6
Continuous
100
AcDbLine
 10
257.4177578559129
 20
130.1019667250491
 30
0.0
 11
258.210060819696
 21
130.0177022575311
 31
0.0
  0
LINE
  5
197D
330
18
100
AcDbEntity
  8
1
  6
Continuous
100
AcDbLine
 10
258.1188957753414
 20
138.9647498778534
 30
0.0
 11
251.6188957753811
 21
138.1647498778534
 31
0.0
  0
LINE
  5
197E
330
18
100
AcDbEntity
  8
1
  6
Continuous
100
AcDbLine
 10
258.2166199364166
 20
138.1707410691226
 30
0.0
 11
251.7166199364563
 21
137.3707410691226
 31
0.0
  0
LINE
  5
197F
330
18
100
AcDbEntity
  8
1
  6
Continuous
100
AcDbLine
 10
258.1188957753414
 20
137.4734498778534
 30
0.0
 11
251.6188957753811
 21
136.6734498778534
 31
0.0
  0
LINE
  5
1980
330
18
100
AcDbEntity
  8
1
  6
Continuous
100
AcDbLine
 10
258.2166199364166
 20
136.6794410691226
 30
0.0
 11
251.7166199364563
 21
135.8794410691226
 31
0.0
  0
LINE
  5
1981
330
18
100
AcDbEntity
  8
1
  6
Continuous
100
AcDbLine
 10
258.1188957753414
 20
134.4908498778534
 30
0.0
 11
251.6188957753811
 21
133.6908498778534
 31
0.0
  0
LINE
  5
1982
330
18
100
AcDbEntity
  8
1
  6
Continuous
100
AcDbLine
 10
258.2166199364166
 20
133.6968410691226
 30
0.0
 11
251.7166199364563
 21
132.8968410691226
 31
0.0
  0
LINE
  5
1983
330
18
100
AcDbEntity
  8
1
  6
Continuous
100
AcDbLine
 10
258.2166199364166
 20
135.1881410691226
 30
0.0
 11
251.7166199364563
 21
134.3881410691226
 31
0.0
  0
LINE
  5
1984
330
18
100
AcDbEntity
  8
1
  6
Continuous
100
AcDbLine
 10
258.1188957753414
 20
135.9821498778534
 30
0.0
 11
251.6188957753811
 21
135.1821498778534
 31
0.0
  0
LINE
  5
1985
330
18
100
AcDbEntity
  8
1
  6
Continuous
100
AcDbLine
 10
258.1188957753414
 20
132.9995498778534
 30
0.0
 11
251.6188957753811
 21
132.1995498778534
 31
0.0
  0
LINE
  5
1986
330
18
100
AcDbEntity
  8
1
  6
Continuous
100
AcDbLine
 10
258.2166199364166
 20
132.2055410691226
 30
0.0
 11
251.7166199364563
 21
131.4055410691226
 31
0.0
  0
LINE
  5
1987
330
18
100
AcDbEntity
  8
1
  6
Continuous
100
AcDbLine
 10
258.1188957753414
 20
131.5082498778534
 30
0.0
 11
251.6188957753811
 21
130.7082498778534
 31
0.0
  0
LINE
  5
1988
330
18
100
AcDbEntity
  8
1
  6
Continuous
100
AcDbLine
 10
252.4177578559128
 20
131.4918349669024
 30
0.0
 11
252.4177578559128
 21
130.8065713646887
 31
0.0
  0
LINE
  5
1989
330
18
100
AcDbEntity
  8
1
  6
Continuous
100
AcDbLine
 10
252.4177578559128
 20
132.9831349669024
 30
0.0
 11
252.4177578559128
 21
132.2978713646887
 31
0.0
  0
LINE
  5
198A
330
18
100
AcDbEntity
  8
1
  6
Continuous
100
AcDbLine
 10
252.4177578559128
 20
134.4744349669024
 30
0.0
 11
252.4177578559128
 21
133.7891713646887
 31
0.0
  0
LINE
  5
198B
330
18
100
AcDbEntity
  8
1
  6
Continuous
100
AcDbLine
 10
252.4177578559128
 20
135.9657349669024
 30
0.0
 11
252.4177578559128
 21
135.2804713646887
 31
0.0
  0
LINE
  5
198C
330
18
100
AcDbEntity
  8
1
  6
Continuous
100
AcDbLine
 10
252.4177578559128
 20
137.4570349669024
 30
0.0
 11
252.4177578559128
 21
136.7717713646887
 31
0.0
  0
LINE
  5
198D
330
18
100
AcDbEntity
  8
1
  6
Continuous
100
AcDbLine
 10
252.4177578559128
 20
138.967745473488
 30
0.0
 11
252.4177578559128
 21
138.2630713646886
 31
0.0
  0
ARC
  5
198E
330
18
100
AcDbEntity
  8
1
  6
Continuous
100
AcDbCircle
 10
251.6677578559187
 20
137.767745473488
 30
0.0
 40
0.4000000000000057
100
AcDbArc
 50
97.01650174476696
 51
277.0165017447664
  0
ARC
  5
198F
330
18
100
AcDbEntity
  8
1
  6
Continuous
100
AcDbCircle
 10
251.6677578559187
 20
136.276445473488
 30
0.0
 40
0.4000000000000057
100
AcDbArc
 50
97.0165017447665
 51
277.0165017447664
  0
ARC
  5
1990
330
18
100
AcDbEntity
  8
1
  6
Continuous
100
AcDbCircle
 10
251.6677578559187
 20
134.785145473488
 30
0.0
 40
0.4000000000000057
100
AcDbArc
 50
97.01650174476696
 51
277.0165017447664
  0
ARC
  5
1991
330
18
100
AcDbEntity
  8
1
  6
Continuous
100
AcDbCircle
 10
251.6677578559187
 20
133.293845473488
 30
0.0
 40
0.4000000000000057
100
AcDbArc
 50
97.01650174476696
 51
277.0165017447664
  0
ARC
  5
1992
330
18
100
AcDbEntity
  8
1
  6
Continuous
100
AcDbCircle
 10
251.6677578559187
 20
131.802545473488
 30
0.0
 40
0.4000000000000057
100
AcDbArc
 50
97.0165017447665
 51
277.0165017447664
  0
LINE
  5
1993
330
18
100
AcDbEntity
  8
1
  6
Continuous
100
AcDbLine
 10
252.417757855913
 20
137.2857242219239
 30
0.0
 11
251.6254548921017
 21
137.3699886894449
 31
0.0
  0
LINE
  5
1994
330
18
100
AcDbEntity
  8
1
  6
Continuous
100
AcDbLine
 10
252.417757855913
 20
135.794424221924
 30
0.0
 11
251.6254548921017
 21
135.8786886894449
 31
0.0
  0
LINE
  5
1995
330
18
100
AcDbEntity
  8
1
  6
Continuous
100
AcDbLine
 10
252.417757855913
 20
132.811824221924
 30
0.0
 11
251.6254548921017
 21
132.8960886894449
 31
0.0
  0
LINE
  5
1996
330
18
100
AcDbEntity
  8
1
  6
Continuous
100
AcDbLine
 10
252.417757855913
 20
134.303124221924
 30
0.0
 11
251.6254548921017
 21
134.3873886894449
 31
0.0
  0
LINE
  5
1997
330
18
100
AcDbEntity
  8
1
  6
Continuous
100
AcDbLine
 10
252.417757855913
 20
131.320524221924
 30
0.0
 11
251.6254548921017
 21
131.4047886894449
 31
0.0
  0
LINE
  5
1998
330
18
100
AcDbEntity
  8
1
  6
Continuous
100
AcDbLine
 10
257.417757855913
 20
138.0724195822907
 30
0.0
 11
257.4177578559129
 21
137.3871559800771
 31
0.0
  0
LINE
  5
1999
330
18
100
AcDbEntity
  8
1
  6
Continuous
100
AcDbLine
 10
257.4177578559129
 20
136.5811195822907
 30
0.0
 11
257.4177578559129
 21
135.8958559800771
 31
0.0
  0
LINE
  5
199A
330
18
100
AcDbEntity
  8
1
  6
Continuous
100
AcDbLine
 10
257.4177578559129
 20
135.0898195822908
 30
0.0
 11
257.4177578559129
 21
134.4045559800771
 31
0.0
  0
LINE
  5
199B
330
18
100
AcDbEntity
  8
1
  6
Continuous
100
AcDbLine
 10
257.4177578559129
 20
133.5985195822908
 30
0.0
 11
257.4177578559129
 21
132.9132559800771
 31
0.0
  0
LINE
  5
199C
330
18
100
AcDbEntity
  8
1
  6
Continuous
100
AcDbLine
 10
257.4177578559129
 20
132.1072195822908
 30
0.0
 11
257.4177578559129
 21
131.4219559800771
 31
0.0
  0
LINE
  5
199D
330
18
100
AcDbEntity
  8
1
  6
Continuous
100
AcDbLine
 10
257.4177578559129
 20
138.967745473488
 30
0.0
 11
257.417757855913
 21
138.8784559800771
 31
0.0
  0
ARC
  5
199E
330
18
100
AcDbEntity
  8
1
  6
Continuous
100
AcDbCircle
 10
258.167757855879
 20
138.567745473488
 30
0.0
 40
0.4000000000000057
100
AcDbArc
 50
270.0
 51
90.0
  0
ARC
  5
199F
330
18
100
AcDbEntity
  8
1
  6
Continuous
100
AcDbCircle
 10
258.167757855879
 20
137.076445473488
 30
0.0
 40
0.4000000000000057
100
AcDbArc
 50
277.0165017447659
 51
97.0165017447665
  0
ARC
  5
19A0
330
18
100
AcDbEntity
  8
1
  6
Continuous
100
AcDbCircle
 10
258.167757855879
 20
135.585145473488
 30
0.0
 40
0.4000000000000057
100
AcDbArc
 50
277.0165017447664
 51
97.0165017447665
  0
ARC
  5
19A1
330
18
100
AcDbEntity
  8
1
  6
Continuous
100
AcDbCircle
 10
258.167757855879
 20
134.093845473488
 30
0.0
 40
0.4000000000000057
100
AcDbArc
 50
277.0165017447664
 51
97.0165017447665
  0
ARC
  5
19A2
330
18
100
AcDbEntity
  8
1
  6
Continuous
100
AcDbCircle
 10
258.167757855879
 20
132.602545473488
 30
0.0
 40
0.4000000000000057
100
AcDbArc
 50
277.0165017447664
 51
97.0165017447665
  0
ARC
  5
19A3
330
18
100
AcDbEntity
  8
1
  6
Continuous
100
AcDbCircle
 10
258.167757855879
 20
131.111245473488
 30
0.0
 40
0.4000000000000057
100
AcDbArc
 50
277.0165017447664
 51
97.0165017447665
  0
LINE
  5
19A4
330
18
100
AcDbEntity
  8
1
  6
Continuous
100
AcDbLine
 10
257.4177578559129
 20
137.558466725049
 30
0.0
 11
258.210060819696
 21
137.4742022575311
 31
0.0
  0
LINE
  5
19A5
330
18
100
AcDbEntity
  8
1
  6
Continuous
100
AcDbLine
 10
257.4177578559129
 20
136.067166725049
 30
0.0
 11
258.210060819696
 21
135.9829022575311
 31
0.0
  0
LINE
  5
19A6
330
18
100
AcDbEntity
  8
1
  6
Continuous
100
AcDbLine
 10
257.4177578559129
 20
133.084566725049
 30
0.0
 11
258.210060819696
 21
133.0003022575311
 31
0.0
  0
LINE
  5
19A7
330
18
100
AcDbEntity
  8
1
  6
Continuous
100
AcDbLine
 10
257.4177578559129
 20
134.575866725049
 30
0.0
 11
258.210060819696
 21
134.4916022575311
 31
0.0
  0
LINE
  5
19A8
330
18
100
AcDbEntity
  8
1
  6
Continuous
100
AcDbLine
 10
257.4177578559129
 20
131.593266725049
 30
0.0
 11
258.210060819696
 21
131.5090022575311
 31
0.0
  0
LINE
  5
24CE
330
18
100
AcDbEntity
  8
1
  6
Continuous
100
AcDbLine
 10
185.479133282901
 20
103.067743473488
 30
0.0
 11
185.479133282901
 21
103.4249522820345
 31
0.0
  0
LINE
  5
24CF
330
18
100
AcDbEntity
  8
1
  6
Continuous
100
AcDbLine
 10
185.479133282901
 20
134.1201558054302
 30
0.0
 11
185.479133282901
 21
134.6570517395951
 31
0.0
  0
LINE
  5
24D0
330
18
100
AcDbEntity
  8
1
  6
Continuous
100
AcDbLine
 10
185.479133282901
 20
135.6114558054301
 30
0.0
 11
185.479133282901
 21
136.1483517395951
 31
0.0
  0
LINE
  5
24D1
330
18
100
AcDbEntity
  8
1
  6
Continuous
100
AcDbLine
 10
185.479133282901
 20
138.6085021542286
 30
0.0
 11
185.479133282901
 21
138.967745473488
 31
0.0
  0
LINE
  5
24D2
330
18
100
AcDbEntity
  8
1
  6
Continuous
100
AcDbLine
 10
185.479133282901
 20
128.1549558054301
 30
0.0
 11
185.479133282901
 21
128.691851739595
 31
0.0
  0
LINE
  5
24D3
330
18
100
AcDbEntity
  8
1
  6
Continuous
100
AcDbLine
 10
185.479133282901
 20
129.6462558054302
 30
0.0
 11
185.479133282901
 21
130.183151739595
 31
0.0
  0
LINE
  5
24D4
330
18
100
AcDbEntity
  8
1
  6
Continuous
100
AcDbLine
 10
185.479133282901
 20
131.1375558054301
 30
0.0
 11
185.479133282901
 21
131.6744517395951
 31
0.0
  0
LINE
  5
24D5
330
18
100
AcDbEntity
  8
1
  6
Continuous
100
AcDbLine
 10
185.479133282901
 20
132.6288558054301
 30
0.0
 11
185.479133282901
 21
133.1657517395951
 31
0.0
  0
LINE
  5
24D6
330
18
100
AcDbEntity
  8
1
  6
Continuous
100
AcDbLine
 10
185.479133282901
 20
122.1897558054301
 30
0.0
 11
185.479133282901
 21
122.7266517395951
 31
0.0
  0
LINE
  5
24D7
330
18
100
AcDbEntity
  8
1
  6
Continuous
100
AcDbLine
 10
185.479133282901
 20
123.6810558054301
 30
0.0
 11
185.479133282901
 21
124.2179517395951
 31
0.0
  0
LINE
  5
24D8
330
18
100
AcDbEntity
  8
1
  6
Continuous
100
AcDbLine
 10
185.479133282901
 20
125.1723558054302
 30
0.0
 11
185.479133282901
 21
125.7092517395951
 31
0.0
  0
LINE
  5
24D9
330
18
100
AcDbEntity
  8
1
  6
Continuous
100
AcDbLine
 10
185.479133282901
 20
126.6636558054302
 30
0.0
 11
185.479133282901
 21
127.2005517395951
 31
0.0
  0
LINE
  5
24DA
330
18
100
AcDbEntity
  8
1
  6
Continuous
100
AcDbLine
 10
185.479133282901
 20
120.6984558054301
 30
0.0
 11
185.479133282901
 21
121.2353517395951
 31
0.0
  0
LINE
  5
24DB
330
18
100
AcDbEntity
  8
1
  6
Continuous
100
AcDbLine
 10
185.479133282901
 20
119.2071558054302
 30
0.0
 11
185.479133282901
 21
119.7440517395951
 31
0.0
  0
LINE
  5
24DC
330
18
100
AcDbEntity
  8
1
  6
Continuous
100
AcDbLine
 10
185.479133282901
 20
113.2419558054302
 30
0.0
 11
185.479133282901
 21
113.778851739595
 31
0.0
  0
LINE
  5
24DD
330
18
100
AcDbEntity
  8
1
  6
Continuous
100
AcDbLine
 10
185.479133282901
 20
114.7332558054301
 30
0.0
 11
185.479133282901
 21
115.2701517395952
 31
0.0
  0
LINE
  5
24DE
330
18
100
AcDbEntity
  8
1
  6
Continuous
100
AcDbLine
 10
185.479133282901
 20
116.2245558054302
 30
0.0
 11
185.479133282901
 21
116.7614517395951
 31
0.0
  0
LINE
  5
24DF
330
18
100
AcDbEntity
  8
1
  6
Continuous
100
AcDbLine
 10
185.479133282901
 20
117.7158558054302
 30
0.0
 11
185.479133282901
 21
118.2527517395951
 31
0.0
  0
LINE
  5
24E0
330
18
100
AcDbEntity
  8
1
  6
Continuous
100
AcDbLine
 10
185.479133282901
 20
105.7854558054302
 30
0.0
 11
185.479133282901
 21
106.3223517395952
 31
0.0
  0
LINE
  5
24E1
330
18
100
AcDbEntity
  8
1
  6
Continuous
100
AcDbLine
 10
185.479133282901
 20
107.2767558054302
 30
0.0
 11
185.479133282901
 21
107.8136517395951
 31
0.0
  0
LINE
  5
24E2
330
18
100
AcDbEntity
  8
1
  6
Continuous
100
AcDbLine
 10
185.479133282901
 20
108.7680558054302
 30
0.0
 11
185.479133282901
 21
109.3049517395952
 31
0.0
  0
LINE
  5
24E3
330
18
100
AcDbEntity
  8
1
  6
Continuous
100
AcDbLine
 10
185.479133282901
 20
110.2593558054302
 30
0.0
 11
185.479133282901
 21
110.7962517395951
 31
0.0
  0
LINE
  5
24E4
330
18
100
AcDbEntity
  8
1
  6
Continuous
100
AcDbLine
 10
185.479133282901
 20
111.7506558054302
 30
0.0
 11
185.479133282901
 21
112.2875517395951
 31
0.0
  0
LINE
  5
24E5
330
18
100
AcDbEntity
  8
1
  6
Continuous
100
AcDbLine
 10
185.479133282901
 20
104.3419951786533
 30
0.0
 11
185.479133282901
 21
104.8310517395952
 31
0.0
  0
ENDSEC
  0
SECTION
  2
OBJECTS
  0
DICTIONARY
  5
C
330
0
100
AcDbDictionary
281
     1
  3
ACAD_CIP_PREVIOUS_PRODUCT_INFO
350
257D
  3
ACAD_COLOR
350
2560
  3
ACAD_DETAILVIEWSTYLE
350
2579
  3
ACAD_GROUP
350
D
  3
ACAD_LAYOUT
350
94
  3
ACAD_MATERIAL
350
252E
  3
ACAD_MLEADERSTYLE
350
2575
  3
ACAD_MLINESTYLE
350
1B
  3
ACAD_PLOTSETTINGS
350
95
  3
ACAD_PLOTSTYLENAME
350
252C
  3
ACAD_SCALELIST
350
2563
  3
ACAD_SECTIONVIEWSTYLE
350
2577
  3
ACAD_TABLESTYLE
350
2561
  3
ACAD_VISUALSTYLE
350
2547
  3
ACDB_RECOMPOSE_DATA
350
259B
  3
AcDbVariableDictionary
350
258E
  3
CONTENTDICTIONARY
350
3D
  3
DWGPROPS
350
259C
  0
DICTIONARY
  5
257E
330
E
100
AcDbDictionary
280
     1
281
     1
  3
ADSK_XREC_LAYER_RECONCILED
360
257F
  0
DICTIONARY
  5
2580
330
4E
100
AcDbDictionary
280
     1
281
     1
  3
ADSK_XREC_LAYER_RECONCILED
360
2581
  0
DICTIONARY
  5
2582
330
4F
100
AcDbDictionary
280
     1
281
     1
  3
ADSK_XREC_LAYER_RECONCILED
360
2583
  0
DICTIONARY
  5
2584
330
50
100
AcDbDictionary
280
     1
281
     1
  3
ADSK_XREC_LAYER_RECONCILED
360
2585
  0
DICTIONARY
  5
2586
330
51
100
AcDbDictionary
280
     1
281
     1
  3
ADSK_XREC_LAYER_RECONCILED
360
2587
  0
DICTIONARY
  5
2588
330
52
100
AcDbDictionary
280
     1
281
     1
  3
ADSK_XREC_LAYER_RECONCILED
360
2589
  0
DICTIONARY
  5
258A
330
53
100
AcDbDictionary
280
     1
281
     1
  3
ADSK_XREC_LAYER_RECONCILED
360
258B
  0
DICTIONARY
  5
258C
330
54
100
AcDbDictionary
280
     1
281
     1
  3
ADSK_XREC_LAYER_RECONCILED
360
258D
  0
DICTIONARY
  5
2527
330
18
100
AcDbDictionary
281
     1
  3
ACAD_LAYOUTSELFREF
350
2528
  0
DICTIONARY
  5
2525
330
15
100
AcDbDictionary
281
     1
  3
ACAD_LAYOUTSELFREF
350
2526
  0
XRECORD
  5
257D
102
{ACAD_REACTORS
330
C
102
}
330
C
100
AcDbXrecord
280
     1
300
ACDLT
300
2014
300
ACDLT_F_S
  0
DICTIONARY
  5
2560
102
{ACAD_REACTORS
330
C
102
}
330
C
100
AcDbDictionary
281
     1
  0
DICTIONARY
  5
2579
102
{ACAD_REACTORS
330
C
102
}
330
C
100
AcDbDictionary
281
     1
  3
Imperial24
350
257A
  0
DICTIONARY
  5
D
102
{ACAD_REACTORS
330
C
102
}
330
C
100
AcDbDictionary
281
     1
  0
DICTIONARY
  5
94
102
{ACAD_REACTORS
330
C
102
}
330
C
100
AcDbDictionary
281
     1
  3
Model
350
257B
  3
レイアウト1
350
257C
  0
DICTIONARY
  5
252E
102
{ACAD_REACTORS
330
C
102
}
330
C
100
AcDbDictionary
281
     1
  3
ByBlock
350
2537
  3
ByLayer
350
252F
  3
Global
350
253F
  0
DICTIONARY
  5
2575
102
{ACAD_REACTORS
330
C
102
}
330
C
100
AcDbDictionary
281
     1
  3
Standard
350
2576
  0
DICTIONARY
  5
1B
102
{ACAD_REACTORS
330
C
102
}
330
C
100
AcDbDictionary
281
     1
  3
STANDARD
350
1C
  0
DICTIONARY
  5
95
102
{ACAD_REACTORS
330
C
102
}
330
C
100
AcDbDictionary
281
     1
  0
ACDBDICTIONARYWDFLT
  5
252C
102
{ACAD_REACTORS
330
C
102
}
330
C
100
AcDbDictionary
281
     1
  3
Normal
350
252D
100
AcDbDictionaryWithDefault
340
252D
  0
DICTIONARY
  5
2563
102
{ACAD_REACTORS
330
C
102
}
330
C
100
AcDbDictionary
281
     1
  3
A0
350
2564
  3
A1
350
2565
  3
A2
350
2566
  3
A3
350
2567
  3
A4
350
2568
  3
A5
350
2569
  3
A6
350
256A
  3
A7
350
256B
  3
A8
350
256C
  3
A9
350
256D
  3
B0
350
256E
  3
B1
350
256F
  3
B2
350
2570
  3
B3
350
2571
  3
B4
350
2572
  3
B5
350
2573
  3
B6
350
2574
  0
DICTIONARY
  5
2577
102
{ACAD_REACTORS
330
C
102
}
330
C
100
AcDbDictionary
281
     1
  3
Imperial24
350
2578
  0
DICTIONARY
  5
2561
102
{ACAD_REACTORS
330
C
102
}
330
C
100
AcDbDictionary
281
     1
  3
Standard
350
2562
  0
DICTIONARY
  5
2547
102
{ACAD_REACTORS
330
C
102
}
330
C
100
AcDbDictionary
281
     1
  3
2dWireframe
350
254D
  3
Basic
350
254C
  3
Brighten
350
2553
  3
ColorChange
350
2557
  3
Conceptual
350
2550
  3
Dim
350
2552
  3
EdgeColorOff
350
255F
  3
Facepattern
350
2556
  3
Flat
350
2548
  3
FlatWithEdges
350
2549
  3
Gouraud
350
254A
  3
GouraudWithEdges
350
254B
  3
Hidden
350
254F
  3
JitterOff
350
255D
  3
Linepattern
350
2555
  3
OverhangOff
350
255E
  3
Realistic
350
2551
  3
Shaded
350
255C
  3
Shaded with edges
350
255B
  3
Shades of Gray
350
2558
  3
Sketchy
350
2559
  3
Thicken
350
2554
  3
Wireframe
350
254E
  3
X-Ray
350
255A
  0
XRECORD
  5
259B
102
{ACAD_REACTORS
330
C
102
}
330
C
100
AcDbXrecord
280
     1
 90
        1
330
2562
  0
DICTIONARY
  5
258E
102
{ACAD_REACTORS
330
C
102
}
330
C
100
AcDbDictionary
281
     1
  3
CANNOSCALE
350
2593
  3
CMLEADERSTYLE
350
2590
  3
CTABLESTYLE
350
258F
  3
CVIEWDETAILSTYLE
350
2591
  3
CVIEWSECTIONSTYLE
350
2592
  3
DIMASSOC
350
2596
  3
INDEXCTL
350
2595
  3
SORTENTS
350
2594
  3
XCLIPFRAME
350
2597
  0
DICTIONARY
  5
3D
102
{ACAD_REACTORS
330
C
102
}
330
C
100
AcDbDictionary
281
     1
  0
XRECORD
  5
259C
102
{ACAD_REACTORS
330
C
102
}
330
C
100
AcDbXrecord
280
     1
  1
DWGPROPS COOKIE
  2

  3

  4

  6

  7

  8
Yoshitsune
  9

300
=
301
=
302
=
303
=
304
=
305
=
306
=
307
=
308
=
309
=
 40
0.3034426157407407
 41
2453010.458999016
 42
2457192.701264317
  1

 90
        0
  0
XRECORD
  5
257F
102
{ACAD_REACTORS
330
257E
102
}
330
257E
100
AcDbXrecord
280
     1
290
     1
  0
XRECORD
  5
2581
102
{ACAD_REACTORS
330
2580
102
}
330
2580
100
AcDbXrecord
280
     1
290
     1
  0
XRECORD
  5
2583
102
{ACAD_REACTORS
330
2582
102
}
330
2582
100
AcDbXrecord
280
     1
290
     1
  0
XRECORD
  5
2585
102
{ACAD_REACTORS
330
2584
102
}
330
2584
100
AcDbXrecord
280
     1
290
     1
  0
XRECORD
  5
2587
102
{ACAD_REACTORS
330
2586
102
}
330
2586
100
AcDbXrecord
280
     1
290
     1
  0
XRECORD
  5
2589
102
{ACAD_REACTORS
330
2588
102
}
330
2588
100
AcDbXrecord
280
     1
290
     1
  0
XRECORD
  5
258B
102
{ACAD_REACTORS
330
258A
102
}
330
258A
100
AcDbXrecord
280
     1
290
     1
  0
XRECORD
  5
258D
102
{ACAD_REACTORS
330
258C
102
}
330
258C
100
AcDbXrecord
280
     1
290
     1
  0
XRECORD
  5
2528
102
{ACAD_REACTORS
330
2527
102
}
330
2527
100
AcDbXrecord
280
     1
340
18
  0
XRECORD
  5
2526
102
{ACAD_REACTORS
330
2525
102
}
330
2525
100
AcDbXrecord
280
     1
340
15
  0
ACDBDETAILVIEWSTYLE
  5
257A
102
{ACAD_XDICTIONARY
360
25D4
102
}
102
{ACAD_REACTORS
330
2579
102
}
330
2579
100
AcDbModelDocViewStyle
 70
     0
  3
Imperial24
290
     0
100
AcDbDetailViewStyle
 70
     0
 71
     0
 90
        3
 71
     1
340
F
 40
0.24
340
0
 40
0.24
300

 40
0.36
280
     3
 71
     2
340
14
 90
       25
 71
     3
340
F
 40
0.24
 90
        1
 40
0.75
 90
        1
300
%<\AcVar ViewType \f "%tc1">% %<\AcVar ViewDetailId>%\PSCALE %<\AcVar ViewScale \f "%sn">%
 71
     4
340
14
 90
       25
340
14
 90
       25
280
     0
  0
LAYOUT
  5
257B
102
{ACAD_XDICTIONARY
360
25D6
102
}
102
{ACAD_REACTORS
330
94
102
}
330
94
100
AcDbPlotSettings
  1

  2
Canon LBP9100C
  4

  6

 40
0.0
 41
0.0
 42
0.0
 43
0.0
 44
0.0
 45
0.0
 46
0.0
 47
0.0
 48
0.0
 49
0.0
140
0.0
141
0.0
142
1.0
143
1.0
 70
  1712
 72
     0
 73
     0
 74
     0
  7

 75
     0
147
1.0
148
0.0
149
0.0
100
AcDbLayout
  1
Model
 70
     1
 71
     0
 10
0.0
 20
0.0
 11
12.0
 21
9.0
 12
0.0
 22
0.0
 32
0.0
 14
0.0
 24
0.0
 34
0.0
 15
0.0
 25
0.0
 35
0.0
146
0.0
 13
0.0
 23
0.0
 33
0.0
 16
1.0
 26
0.0
 36
0.0
 17
0.0
 27
1.0
 37
0.0
 76
     0
330
18
331
2524
  0
LAYOUT
  5
257C
102
{ACAD_XDICTIONARY
360
25D8
102
}
102
{ACAD_REACTORS
330
94
102
}
330
94
100
AcDbPlotSettings
  1

  2
Canon LBP9100C
  4

  6

 40
0.0
 41
0.0
 42
0.0
 43
0.0
 44
0.0
 45
0.0
 46
0.0
 47
0.0
 48
0.0
 49
0.0
140
0.0
141
0.0
142
1.0
143
1.0
 70
   688
 72
     0
 73
     0
 74
     5
  7

 75
    16
147
1.0
148
0.0
149
0.0
100
AcDbLayout
  1
レイアウト1
 70
     1
 71
     1
 10
0.0
 20
0.0
 11
420.0
 21
297.0
 12
0.0
 22
0.0
 32
0.0
 14
1.000000000000000E+20
 24
1.000000000000000E+20
 34
1.000000000000000E+20
 15
-1.000000000000000E+20
 25
-1.000000000000000E+20
 35
-1.000000000000000E+20
146
0.0
 13
0.0
 23
0.0
 33
0.0
 16
1.0
 26
0.0
 36
0.0
 17
0.0
 27
1.0
 37
0.0
 76
     0
330
15
  0
MATERIAL
  5
2537
102
{ACAD_XDICTIONARY
360
2538
102
}
102
{ACAD_REACTORS
330
252E
102
}
330
252E
100
AcDbMaterial
  1
ByBlock
 72
     0
 43
0.0208333333333333
 43
0.0
 43
0.0
 43
0.0
 43
0.0
 43
0.0208333333333333
 43
0.0
 43
0.0
 43
0.0
 43
0.0
 43
1.0
 43
0.0
 43
0.0
 43
0.0
 43
0.0
 43
1.0
 77
     0
 47
0.0208333333333333
 47
0.0
 47
0.0
 47
0.0
 47
0.0
 47
0.0208333333333333
 47
0.0
 47
0.0
 47
0.0
 47
0.0
 47
1.0
 47
0.0
 47
0.0
 47
0.0
 47
0.0
 47
1.0
171
     0
 49
0.0208333333333333
 49
0.0
 49
0.0
 49
0.0
 49
0.0
 49
0.0208333333333333
 49
0.0
 49
0.0
 49
0.0
 49
0.0
 49
1.0
 49
0.0
 49
0.0
 49
0.0
 49
0.0
 49
1.0
175
     0
142
0.0208333333333333
142
0.0
142
0.0
142
0.0
142
0.0
142
0.0208333333333333
142
0.0
142
0.0
142
0.0
142
0.0
142
1.0
142
0.0
142
0.0
142
0.0
142
0.0
142
1.0
179
     0
144
0.0208333333333333
144
0.0
144
0.0
144
0.0
144
0.0
144
0.0208333333333333
144
0.0
144
0.0
144
0.0
144
0.0
144
1.0
144
0.0
144
0.0
144
0.0
144
0.0
144
1.0
147
0.0208333333333333
147
0.0
147
0.0
147
0.0
147
0.0
147
0.0208333333333333
147
0.0
147
0.0
147
0.0
147
0.0
147
1.0
147
0.0
147
0.0
147
0.0
147
0.0
147
1.0
  0
MATERIAL
  5
252F
102
{ACAD_XDICTIONARY
360
2530
102
}
102
{ACAD_REACTORS
330
252E
102
}
330
252E
100
AcDbMaterial
  1
ByLayer
 72
     0
 43
0.0208333333333333
 43
0.0
 43
0.0
 43
0.0
 43
0.0
 43
0.0208333333333333
 43
0.0
 43
0.0
 43
0.0
 43
0.0
 43
1.0
 43
0.0
 43
0.0
 43
0.0
 43
0.0
 43
1.0
 77
     0
 47
0.0208333333333333
 47
0.0
 47
0.0
 47
0.0
 47
0.0
 47
0.0208333333333333
 47
0.0
 47
0.0
 47
0.0
 47
0.0
 47
1.0
 47
0.0
 47
0.0
 47
0.0
 47
0.0
 47
1.0
171
     0
 49
0.0208333333333333
 49
0.0
 49
0.0
 49
0.0
 49
0.0
 49
0.0208333333333333
 49
0.0
 49
0.0
 49
0.0
 49
0.0
 49
1.0
 49
0.0
 49
0.0
 49
0.0
 49
0.0
 49
1.0
175
     0
142
0.0208333333333333
142
0.0
142
0.0
142
0.0
142
0.0
142
0.0208333333333333
142
0.0
142
0.0
142
0.0
142
0.0
142
1.0
142
0.0
142
0.0
142
0.0
142
0.0
142
1.0
179
     0
144
0.0208333333333333
144
0.0
144
0.0
144
0.0
144
0.0
144
0.0208333333333333
144
0.0
144
0.0
144
0.0
144
0.0
144
1.0
144
0.0
144
0.0
144
0.0
144
0.0
144
1.0
147
0.0208333333333333
147
0.0
147
0.0
147
0.0
147
0.0
147
0.0208333333333333
147
0.0
147
0.0
147
0.0
147
0.0
147
1.0
147
0.0
147
0.0
147
0.0
147
0.0
147
1.0
  0
MATERIAL
  5
253F
102
{ACAD_XDICTIONARY
360
2540
102
}
102
{ACAD_REACTORS
330
252E
102
}
330
252E
100
AcDbMaterial
  1
Global
 72
     0
 43
0.0208333333333333
 43
0.0
 43
0.0
 43
0.0
 43
0.0
 43
0.0208333333333333
 43
0.0
 43
0.0
 43
0.0
 43
0.0
 43
1.0
 43
0.0
 43
0.0
 43
0.0
 43
0.0
 43
1.0
 77
     0
 47
0.0208333333333333
 47
0.0
 47
0.0
 47
0.0
 47
0.0
 47
0.0208333333333333
 47
0.0
 47
0.0
 47
0.0
 47
0.0
 47
1.0
 47
0.0
 47
0.0
 47
0.0
 47
0.0
 47
1.0
171
     0
 49
0.0208333333333333
 49
0.0
 49
0.0
 49
0.0
 49
0.0
 49
0.0208333333333333
 49
0.0
 49
0.0
 49
0.0
 49
0.0
 49
1.0
 49
0.0
 49
0.0
 49
0.0
 49
0.0
 49
1.0
175
     0
142
0.0208333333333333
142
0.0
142
0.0
142
0.0
142
0.0
142
0.0208333333333333
142
0.0
142
0.0
142
0.0
142
0.0
142
1.0
142
0.0
142
0.0
142
0.0
142
0.0
142
1.0
179
     0
144
0.0208333333333333
144
0.0
144
0.0
144
0.0
144
0.0
144
0.0208333333333333
144
0.0
144
0.0
144
0.0
144
0.0
144
1.0
144
0.0
144
0.0
144
0.0
144
0.0
144
1.0
147
0.0208333333333333
147
0.0
147
0.0
147
0.0
147
0.0
147
0.0208333333333333
147
0.0
147
0.0
147
0.0
147
0.0
147
1.0
147
0.0
147
0.0
147
0.0
147
0.0
147
1.0
  0
MLEADERSTYLE
  5
2576
102
{ACAD_REACTORS
330
2575
102
}
330
2575
100
AcDbMLeaderStyle
170
     2
171
     1
172
     0
 90
        2
 40
0.0
 41
0.0
173
     1
 91
-1056964608
340
12
 92
       -2
290
     1
 42
0.09
291
     1
 43
0.36
  3
Standard
 44
0.18
300

342
F
174
     1
178
     6
175
     1
176
     0
 93
-1056964608
 45
0.18
292
     0
297
     0
 46
0.18
 94
-1056964608
 47
1.0
 49
1.0
140
1.0
293
     1
141
0.0
294
     1
177
     0
142
1.0
295
     0
296
     0
143
0.125
1001
ACAD_MLEADERVER
1070
     2
  0
MLINESTYLE
  5
1C
102
{ACAD_REACTORS
330
1B
102
}
330
1B
100
AcDbMlineStyle
  2
STANDARD
 70
     0
  3

 62
   256
 51
90.0
 52
90.0
 71
     2
 49
0.5
 62
   256
  6
BYLAYER
 49
-0.5
 62
   256
  6
BYLAYER
  0
ACDBPLACEHOLDER
  5
252D
102
{ACAD_REACTORS
330
252C
102
}
330
252C
  0
SCALE
  5
2564
102
{ACAD_REACTORS
330
2563
102
}
330
2563
100
AcDbScale
 70
     0
300
1:1
140
1.0
141
1.0
290
     1
  0
SCALE
  5
2565
102
{ACAD_REACTORS
330
2563
102
}
330
2563
100
AcDbScale
 70
     0
300
1/128" = 1'-0"
140
0.0078125
141
12.0
290
     0
  0
SCALE
  5
2566
102
{ACAD_REACTORS
330
2563
102
}
330
2563
100
AcDbScale
 70
     0
300
1/64" = 1'-0"
140
0.015625
141
12.0
290
     0
  0
SCALE
  5
2567
102
{ACAD_REACTORS
330
2563
102
}
330
2563
100
AcDbScale
 70
     0
300
1/32" = 1'-0"
140
0.03125
141
12.0
290
     0
  0
SCALE
  5
2568
102
{ACAD_REACTORS
330
2563
102
}
330
2563
100
AcDbScale
 70
     0
300
1/16" = 1'-0"
140
0.0625
141
12.0
290
     0
  0
SCALE
  5
2569
102
{ACAD_REACTORS
330
2563
102
}
330
2563
100
AcDbScale
 70
     0
300
3/32" = 1'-0"
140
0.09375
141
12.0
290
     0
  0
SCALE
  5
256A
102
{ACAD_REACTORS
330
2563
102
}
330
2563
100
AcDbScale
 70
     0
300
1/8" = 1'-0"
140
0.125
141
12.0
290
     0
  0
SCALE
  5
256B
102
{ACAD_REACTORS
330
2563
102
}
330
2563
100
AcDbScale
 70
     0
300
3/16" = 1'-0"
140
0.1875
141
12.0
290
     0
  0
SCALE
  5
256C
102
{ACAD_REACTORS
330
2563
102
}
330
2563
100
AcDbScale
 70
     0
300
1/4" = 1'-0"
140
0.25
141
12.0
290
     0
  0
SCALE
  5
256D
102
{ACAD_REACTORS
330
2563
102
}
330
2563
100
AcDbScale
 70
     0
300
3/8" = 1'-0"
140
0.375
141
12.0
290
     0
  0
SCALE
  5
256E
102
{ACAD_REACTORS
330
2563
102
}
330
2563
100
AcDbScale
 70
     0
300
1/2" = 1'-0"
140
0.5
141
12.0
290
     0
  0
SCALE
  5
256F
102
{ACAD_REACTORS
330
2563
102
}
330
2563
100
AcDbScale
 70
     0
300
3/4" = 1'-0"
140
0.75
141
12.0
290
     0
  0
SCALE
  5
2570
102
{ACAD_REACTORS
330
2563
102
}
330
2563
100
AcDbScale
 70
     0
300
1" = 1'-0"
140
1.0
141
12.0
290
     0
  0
SCALE
  5
2571
102
{ACAD_REACTORS
330
2563
102
}
330
2563
100
AcDbScale
 70
     0
300
1-1/2" = 1'-0"
140
1.5
141
12.0
290
     0
  0
SCALE
  5
2572
102
{ACAD_REACTORS
330
2563
102
}
330
2563
100
AcDbScale
 70
     0
300
3" = 1'-0"
140
3.0
141
12.0
290
     0
  0
SCALE
  5
2573
102
{ACAD_REACTORS
330
2563
102
}
330
2563
100
AcDbScale
 70
     0
300
6" = 1'-0"
140
6.0
141
12.0
290
     0
  0
SCALE
  5
2574
102
{ACAD_REACTORS
330
2563
102
}
330
2563
100
AcDbScale
 70
     0
300
1'-0" = 1'-0"
140
12.0
141
12.0
290
     0
  0
ACDBSECTIONVIEWSTYLE
  5
2578
102
{ACAD_XDICTIONARY
360
25D2
102
}
102
{ACAD_REACTORS
330
2577
102
}
330
2577
100
AcDbModelDocViewStyle
 70
     0
  3
Imperial24
290
     0
100
AcDbSectionViewStyle
 70
     0
 71
     0
 90
       78
 71
     1
340
F
 40
0.24
340
0
340
0
 40
0.24
300
I, O, Q, S, X, Z
 40
0.48
 90
        3
 40
0.18
 90
        1
 71
     2
340
14
 90
       25
340
14
 90
       50
 40
0.24
 40
0.0
 40
0.24
 71
     3
340
F
 40
0.24
 90
        1
 40
0.75
 90
        1
300
%<\AcVar ViewType \f "%tc1">% %<\AcVar ViewSectionStartId>%-%<\AcVar ViewSectionEndId>%\PSCALE %<\AcVar ViewScale \f "%sn">%
 71
     4
300
ANSI31
 40
1.0
 90
        0
290
     0
290
     0
 90
        6
 40
0.0
 40
1.570796326794896
 40
0.2617993877991494
 40
1.308996938995747
 40
-0.2617993877991494
 40
1.832595714594046
  0
TABLESTYLE
  5
2562
102
{ACAD_XDICTIONARY
360
2599
102
}
102
{ACAD_REACTORS
330
2561
102
}
330
2561
100
AcDbTableStyle
  3
Standard
 70
     0
 71
     0
 40
0.06
 41
0.06
280
     0
281
     0
  7
STANDARD
140
0.18
170
     2
 62
     0
 63
     7
283
     0
274
    -2
284
     1
 64
     0
275
    -2
285
     1
 65
     0
276
    -2
286
     1
 66
     0
277
    -2
287
     1
 67
     0
278
    -2
288
     1
 68
     0
279
    -2
289
     1
 69
     0
  7
STANDARD
140
0.25
170
     5
 62
     0
 63
     7
283
     0
274
    -2
284
     1
 64
     0
275
    -2
285
     1
 65
     0
276
    -2
286
     1
 66
     0
277
    -2
287
     1
 67
     0
278
    -2
288
     1
 68
     0
279
    -2
289
     1
 69
     0
  7
STANDARD
140
0.18
170
     5
 62
     0
 63
     7
283
     0
274
    -2
284
     1
 64
     0
275
    -2
285
     1
 65
     0
276
    -2
286
     1
 66
     0
277
    -2
287
     1
 67
     0
278
    -2
288
     1
 68
     0
279
    -2
289
     1
 69
     0
  0
VISUALSTYLE
  5
254D
102
{ACAD_XDICTIONARY
360
25AA
102
}
102
{ACAD_REACTORS
330
2547
102
}
330
2547
100
AcDbVisualStyle
  2
2dWireframe
 70
     4
 71
     0
 72
     2
 73
     0
 90
        0
 40
-0.6
 41
-30.0
 62
     5
 63
     7
 74
     1
 91
        4
 64
     7
 65
   257
 75
     1
175
     1
 42
1.0
 92
        0
 66
   257
 43
1.0
 76
     1
 77
     6
 78
     2
 67
     7
 79
     5
170
     0
171
     0
290
     0
174
     0
 93
        1
 44
0.0
173
     0
291
     0
 45
0.0
1001
ACAD
1000
AcDbSavedByObjectVersion
1070
     0
  0
VISUALSTYLE
  5
254C
102
{ACAD_XDICTIONARY
360
25A8
102
}
102
{ACAD_REACTORS
330
2547
102
}
330
2547
100
AcDbVisualStyle
  2
Basic
 70
     7
 71
     1
 72
     0
 73
     1
 90
        0
 40
-0.6
 41
-30.0
 62
     5
 63
     7
 74
     0
 91
        4
 64
     7
 65
   257
 75
     1
175
     1
 42
1.0
 92
        8
 66
     7
 43
1.0
 76
     1
 77
     6
 78
     2
 67
     7
 79
     5
170
     0
171
     0
290
     0
174
     0
 93
        1
 44
0.0
173
     0
291
     1
 45
0.0
1001
ACAD
1000
AcDbSavedByObjectVersion
1070
     0
  0
VISUALSTYLE
  5
2553
102
{ACAD_XDICTIONARY
360
25B6
102
}
102
{ACAD_REACTORS
330
2547
102
}
330
2547
100
AcDbVisualStyle
  2
Brighten
 70
    12
 71
     2
 72
     2
 73
     0
 90
        0
 40
-0.6
 41
-30.0
 62
     5
 63
     7
 74
     1
 91
        4
 64
     7
 65
   257
 75
     1
175
     1
 42
1.0
 92
        8
 66
     7
 43
1.0
 76
     1
 77
     6
 78
     2
 67
     7
 79
     5
170
     0
171
     0
290
     0
174
     0
 93
        1
 44
50.0
173
     0
291
     1
 45
0.0
1001
ACAD
1000
AcDbSavedByObjectVersion
1070
     0
  0
VISUALSTYLE
  5
2557
102
{ACAD_XDICTIONARY
360
25BE
102
}
102
{ACAD_REACTORS
330
2547
102
}
330
2547
100
AcDbVisualStyle
  2
ColorChange
 70
    16
 71
     2
 72
     2
 73
     3
 90
        0
 40
-0.6
 41
-30.0
 62
     5
 63
     8
 74
     1
 91
        4
 64
     7
 65
   257
 75
     1
175
     1
 42
1.0
 92
        8
 66
     8
 43
1.0
 76
     1
 77
     6
 78
     2
 67
     7
 79
     5
170
     0
171
     0
290
     0
174
     0
 93
        1
 44
0.0
173
     0
291
     1
 45
0.0
1001
ACAD
1000
AcDbSavedByObjectVersion
1070
     0
  0
VISUALSTYLE
  5
2550
102
{ACAD_XDICTIONARY
360
25B0
102
}
102
{ACAD_REACTORS
330
2547
102
}
330
2547
100
AcDbVisualStyle
  2
Conceptual
 70
     9
 71
     3
 72
     2
 73
     0
 90
        0
 40
-0.6
 41
-30.0
 62
     5
 63
     7
 74
     2
 91
        2
 64
     7
 65
   257
 75
     1
175
     1
 42
179.0
 92
        8
 66
     7
 43
1.0
 76
     1
 77
     6
 78
     2
 67
     7
 79
     3
170
     0
171
     0
290
     0
174
     0
 93
        1
 44
0.0
173
     0
291
     0
 45
0.0
1001
ACAD
1000
AcDbSavedByObjectVersion
1070
     0
  0
VISUALSTYLE
  5
2552
102
{ACAD_XDICTIONARY
360
25B4
102
}
102
{ACAD_REACTORS
330
2547
102
}
330
2547
100
AcDbVisualStyle
  2
Dim
 70
    11
 71
     2
 72
     2
 73
     0
 90
        0
 40
-0.6
 41
-30.0
 62
     5
 63
     7
 74
     1
 91
        4
 64
     7
 65
   257
 75
     1
175
     1
 42
1.0
 92
        8
 66
     7
 43
1.0
 76
     1
 77
     6
 78
     2
 67
     7
 79
     5
170
     0
171
     0
290
     0
174
     0
 93
        1
 44
-50.0
173
     0
291
     1
 45
0.0
1001
ACAD
1000
AcDbSavedByObjectVersion
1070
     0
  0
VISUALSTYLE
  5
255F
102
{ACAD_XDICTIONARY
360
25CE
102
}
102
{ACAD_REACTORS
330
2547
102
}
330
2547
100
AcDbVisualStyle
  2
EdgeColorOff
 70
    22
 71
     2
 72
     2
 73
     0
 90
        0
 40
-0.6
 41
-30.0
 62
     5
 63
     7
 74
     1
 91
        4
 64
     7
 65
   257
 75
     1
175
     1
 42
1.0
 92
        8
 66
     7
 43
1.0
 76
     1
 77
     6
 78
     2
 67
     7
 79
     5
170
     0
171
     0
290
     0
174
     0
 93
        1
 44
0.0
173
     0
291
     1
 45
0.0
1001
ACAD
1000
AcDbSavedByObjectVersion
1070
     0
  0
VISUALSTYLE
  5
2556
102
{ACAD_XDICTIONARY
360
25BC
102
}
102
{ACAD_REACTORS
330
2547
102
}
330
2547
100
AcDbVisualStyle
  2
Facepattern
 70
    15
 71
     2
 72
     2
 73
     0
 90
        0
 40
-0.6
 41
-30.0
 62
     5
 63
     7
 74
     1
 91
        4
 64
     7
 65
   257
 75
     1
175
     1
 42
1.0
 92
        8
 66
     7
 43
1.0
 76
     1
 77
     6
 78
     2
 67
     7
 79
     5
170
     0
171
     0
290
     0
174
     0
 93
        1
 44
0.0
173
     0
291
     1
 45
0.0
1001
ACAD
1000
AcDbSavedByObjectVersion
1070
     0
  0
VISUALSTYLE
  5
2548
102
{ACAD_XDICTIONARY
360
25A0
102
}
102
{ACAD_REACTORS
330
2547
102
}
330
2547
100
AcDbVisualStyle
  2
Flat
 70
     0
 71
     2
 72
     1
 73
     1
 90
        2
 40
-0.6
 41
30.0
 62
     5
 63
     7
 74
     0
 91
        0
 64
     7
 65
   257
 75
     1
175
     1
 42
1.0
 92
        8
 66
     7
 43
1.0
 76
     1
 77
     6
 78
     2
 67
     7
 79
     5
170
     0
171
     0
290
     0
174
     0
 93
       13
 44
0.0
173
     0
291
     1
 45
0.0
1001
ACAD
1000
AcDbSavedByObjectVersion
1070
     0
  0
VISUALSTYLE
  5
2549
102
{ACAD_XDICTIONARY
360
25A2
102
}
102
{ACAD_REACTORS
330
2547
102
}
330
2547
100
AcDbVisualStyle
  2
FlatWithEdges
 70
     1
 71
     2
 72
     1
 73
     1
 90
        2
 40
-0.6
 41
30.0
 62
     5
 63
     7
 74
     1
 91
        0
 64
     7
 65
   257
 75
     1
175
     1
 42
1.0
 92
        0
 66
   257
 43
1.0
 76
     1
 77
     6
 78
     2
 67
     7
 79
     5
170
     0
171
     0
290
     0
174
     0
 93
       13
 44
0.0
173
     0
291
     1
 45
0.0
1001
ACAD
1000
AcDbSavedByObjectVersion
1070
     0
  0
VISUALSTYLE
  5
254A
102
{ACAD_XDICTIONARY
360
25A4
102
}
102
{ACAD_REACTORS
330
2547
102
}
330
2547
100
AcDbVisualStyle
  2
Gouraud
 70
     2
 71
     2
 72
     2
 73
     1
 90
        2
 40
-0.6
 41
30.0
 62
     5
 63
     7
 74
     0
 91
        0
 64
     7
 65
   257
 75
     1
175
     1
 42
1.0
 92
        0
 66
     7
 43
1.0
 76
     1
 77
     6
 78
     2
 67
     7
 79
     5
170
     0
171
     0
290
     0
174
     0
 93
       13
 44
0.0
173
     0
291
     1
 45
0.0
1001
ACAD
1000
AcDbSavedByObjectVersion
1070
     0
  0
VISUALSTYLE
  5
254B
102
{ACAD_XDICTIONARY
360
25A6
102
}
102
{ACAD_REACTORS
330
2547
102
}
330
2547
100
AcDbVisualStyle
  2
GouraudWithEdges
 70
     3
 71
     2
 72
     2
 73
     1
 90
        2
 40
-0.6
 41
30.0
 62
     5
 63
     7
 74
     1
 91
        0
 64
     7
 65
   257
 75
     1
175
     1
 42
1.0
 92
        0
 66
   257
 43
1.0
 76
     1
 77
     6
 78
     2
 67
     7
 79
     5
170
     0
171
     0
290
     0
174
     0
 93
       13
 44
0.0
173
     0
291
     1
 45
0.0
1001
ACAD
1000
AcDbSavedByObjectVersion
1070
     0
  0
VISUALSTYLE
  5
254F
102
{ACAD_XDICTIONARY
360
25AE
102
}
102
{ACAD_REACTORS
330
2547
102
}
330
2547
100
AcDbVisualStyle
  2
Hidden
 70
     6
 71
     1
 72
     2
 73
     2
 90
        0
 40
-0.6
 41
-30.0
 62
     5
 63
     7
 74
     2
 91
        2
 64
     7
 65
   257
 75
     2
175
     1
 42
40.0
 92
        0
 66
   257
 43
1.0
 76
     1
 77
     6
 78
     2
 67
     7
 79
     3
170
     0
171
     0
290
     0
174
     0
 93
        1
 44
0.0
173
     0
291
     0
 45
0.0
1001
ACAD
1000
AcDbSavedByObjectVersion
1070
     0
  0
VISUALSTYLE
  5
255D
102
{ACAD_XDICTIONARY
360
25CA
102
}
102
{ACAD_REACTORS
330
2547
102
}
330
2547
100
AcDbVisualStyle
  2
JitterOff
 70
    20
 71
     2
 72
     2
 73
     0
 90
        0
 40
-0.6
 41
-30.0
 62
     5
 63
     7
 74
     1
 91
        4
 64
     7
 65
   257
 75
     1
175
     1
 42
1.0
 92
       10
 66
     7
 43
1.0
 76
     1
 77
     6
 78
     2
 67
     7
 79
     5
170
     0
171
     0
290
     0
174
     0
 93
        1
 44
0.0
173
     0
291
     1
 45
0.0
1001
ACAD
1000
AcDbSavedByObjectVersion
1070
     0
  0
VISUALSTYLE
  5
2555
102
{ACAD_XDICTIONARY
360
25BA
102
}
102
{ACAD_REACTORS
330
2547
102
}
330
2547
100
AcDbVisualStyle
  2
Linepattern
 70
    14
 71
     2
 72
     2
 73
     0
 90
        0
 40
-0.6
 41
-30.0
 62
     5
 63
     7
 74
     1
 91
        4
 64
     7
 65
   257
 75
     7
175
     7
 42
1.0
 92
        8
 66
     7
 43
1.0
 76
     1
 77
     6
 78
     2
 67
     7
 79
     5
170
     0
171
     0
290
     0
174
     0
 93
        1
 44
0.0
173
     0
291
     1
 45
0.0
1001
ACAD
1000
AcDbSavedByObjectVersion
1070
     0
  0
VISUALSTYLE
  5
255E
102
{ACAD_XDICTIONARY
360
25CC
102
}
102
{ACAD_REACTORS
330
2547
102
}
330
2547
100
AcDbVisualStyle
  2
OverhangOff
 70
    21
 71
     2
 72
     2
 73
     0
 90
        0
 40
-0.6
 41
-30.0
 62
     5
 63
     7
 74
     1
 91
        4
 64
     7
 65
   257
 75
     1
175
     1
 42
1.0
 92
        9
 66
     7
 43
1.0
 76
     1
 77
     6
 78
     2
 67
     7
 79
     5
170
     0
171
     0
290
     0
174
     0
 93
        1
 44
0.0
173
     0
291
     1
 45
0.0
1001
ACAD
1000
AcDbSavedByObjectVersion
1070
     0
  0
VISUALSTYLE
  5
2551
102
{ACAD_XDICTIONARY
360
25B2
102
}
102
{ACAD_REACTORS
330
2547
102
}
330
2547
100
AcDbVisualStyle
  2
Realistic
 70
     8
 71
     2
 72
     3
 73
     0
 90
        2
 40
-0.6
 41
30.0
 62
     5
 63
     7
 74
     0
 91
        0
 64
     7
 65
   257
 75
     1
175
     1
 42
1.0
 92
        8
 66
   257
 43
1.0
 76
     1
 77
     6
 78
     2
 67
     7
 79
     3
170
     0
171
     0
290
     0
174
     0
 93
       13
 44
0.0
173
     0
291
     0
 45
0.0
1001
ACAD
1000
AcDbSavedByObjectVersion
1070
     0
  0
VISUALSTYLE
  5
255C
102
{ACAD_XDICTIONARY
360
25C8
102
}
102
{ACAD_REACTORS
330
2547
102
}
330
2547
100
AcDbVisualStyle
  2
Shaded
 70
    27
 71
     2
 72
     2
 73
     1
 90
        2
 40
-0.6
 41
30.0
 62
     5
 63
     7
 74
     0
 91
        4
 64
     7
 65
   257
 75
     1
175
     1
 42
1.0
 92
        8
 66
   257
 43
1.0
 76
     1
 77
     6
 78
     2
 67
     8
 79
     3
170
     0
171
     0
290
     0
174
     0
 93
        5
 44
0.0
173
     0
291
     0
 45
0.0
1001
ACAD
1000
AcDbSavedByObjectVersion
1070
     0
  0
VISUALSTYLE
  5
255B
102
{ACAD_XDICTIONARY
360
25C6
102
}
102
{ACAD_REACTORS
330
2547
102
}
330
2547
100
AcDbVisualStyle
  2
Shaded with edges
 70
    26
 71
     2
 72
     2
 73
     1
 90
        2
 40
-0.6
 41
30.0
 62
     5
 63
     7
 74
     1
 91
       10
 64
     7
 65
   257
 75
     2
175
     1
 42
1.0
 92
        8
 66
   257
 43
1.0
 76
     1
 77
     6
 78
     2
 67
     7
 79
     3
170
     0
171
     0
290
     0
174
     0
 93
        5
 44
0.0
173
     0
291
     0
 45
0.0
1001
ACAD
1000
AcDbSavedByObjectVersion
1070
     0
  0
VISUALSTYLE
  5
2558
102
{ACAD_XDICTIONARY
360
25C0
102
}
102
{ACAD_REACTORS
330
2547
102
}
330
2547
100
AcDbVisualStyle
  2
Shades of Gray
 70
    23
 71
     2
 72
     2
 73
     3
 90
        0
 40
-0.6
 41
-30.0
 62
     5
 63
     7
 74
     2
 91
        2
 64
     7
 65
     7
 75
     1
175
     1
 42
40.0
 92
        8
 66
     7
 43
1.0
 76
     1
 77
     6
 78
     2
 67
     7
 79
     3
170
     0
171
     0
290
     0
174
     0
 93
        1
 44
0.0
173
     0
291
     0
 45
0.0
1001
ACAD
1000
AcDbSavedByObjectVersion
1070
     0
  0
VISUALSTYLE
  5
2559
102
{ACAD_XDICTIONARY
360
25C2
102
}
102
{ACAD_REACTORS
330
2547
102
}
330
2547
100
AcDbVisualStyle
  2
Sketchy
 70
    24
 71
     1
 72
     2
 73
     2
 90
        0
 40
-0.6
 41
-30.0
 62
     5
 63
     7
 74
     2
 91
        2
 64
     7
 65
     7
 75
     1
175
     1
 42
40.0
 92
       11
 66
     7
 43
1.0
 76
     1
 77
     6
 78
     2
 67
     7
 79
     6
170
     0
171
     0
290
     0
174
     0
 93
        1
 44
0.0
173
     0
291
     0
 45
0.0
1001
ACAD
1000
AcDbSavedByObjectVersion
1070
     0
  0
VISUALSTYLE
  5
2554
102
{ACAD_XDICTIONARY
360
25B8
102
}
102
{ACAD_REACTORS
330
2547
102
}
330
2547
100
AcDbVisualStyle
  2
Thicken
 70
    13
 71
     2
 72
     2
 73
     0
 90
        0
 40
-0.6
 41
-30.0
 62
     5
 63
     7
 74
     1
 91
        4
 64
     7
 65
   257
 75
     1
175
     1
 42
1.0
 92
       12
 66
     7
 43
1.0
 76
     1
 77
     6
 78
     2
 67
     7
 79
     5
170
     0
171
     0
290
     0
174
     0
 93
        1
 44
0.0
173
     0
291
     1
 45
0.0
1001
ACAD
1000
AcDbSavedByObjectVersion
1070
     0
  0
VISUALSTYLE
  5
254E
102
{ACAD_XDICTIONARY
360
25AC
102
}
102
{ACAD_REACTORS
330
2547
102
}
330
2547
100
AcDbVisualStyle
  2
Wireframe
 70
     5
 71
     0
 72
     2
 73
     0
 90
        0
 40
-0.6
 41
-30.0
 62
     5
 63
     7
 74
     1
 91
        4
 64
     7
 65
   257
 75
     1
175
     1
 42
1.0
 92
        0
 66
   257
 43
1.0
 76
     1
 77
     6
 78
     2
 67
     7
 79
     3
170
     0
171
     0
290
     0
174
     0
 93
        1
 44
0.0
173
     0
291
     0
 45
0.0
1001
ACAD
1000
AcDbSavedByObjectVersion
1070
     0
  0
VISUALSTYLE
  5
255A
102
{ACAD_XDICTIONARY
360
25C4
102
}
102
{ACAD_REACTORS
330
2547
102
}
330
2547
100
AcDbVisualStyle
  2
X-Ray
 70
    25
 71
     2
 72
     2
 73
     1
 90
        1
 40
0.5
 41
-30.0
 62
     5
 63
     7
 74
     1
 91
        0
 64
     7
 65
   257
 75
     1
175
     1
 42
1.0
 92
        8
 66
     7
 43
1.0
 76
     1
 77
     6
 78
     2
 67
     7
 79
     3
170
     0
171
     0
290
     0
174
     0
 93
       13
 44
0.0
173
     0
291
     0
 45
0.0
1001
ACAD
1000
AcDbSavedByObjectVersion
1070
     0
  0
DICTIONARYVAR
  5
2593
102
{ACAD_REACTORS
330
258E
102
}
330
258E
100
DictionaryVariables
280
     0
  1
1:1
  0
DICTIONARYVAR
  5
2590
102
{ACAD_REACTORS
330
258E
102
}
330
258E
100
DictionaryVariables
280
     0
  1
STANDARD
  0
DICTIONARYVAR
  5
258F
102
{ACAD_REACTORS
330
258E
102
}
330
258E
100
DictionaryVariables
280
     0
  1
STANDARD
  0
DICTIONARYVAR
  5
2591
102
{ACAD_REACTORS
330
258E
102
}
330
258E
100
DictionaryVariables
280
     0
  1
Imperial24
  0
DICTIONARYVAR
  5
2592
102
{ACAD_REACTORS
330
258E
102
}
330
258E
100
DictionaryVariables
280
     0
  1
Imperial24
  0
DICTIONARYVAR
  5
2596
102
{ACAD_REACTORS
330
258E
102
}
330
258E
100
DictionaryVariables
280
     0
  1
1
  0
DICTIONARYVAR
  5
2595
102
{ACAD_REACTORS
330
258E
102
}
330
258E
100
DictionaryVariables
280
     0
  1
0
  0
DICTIONARYVAR
  5
2594
102
{ACAD_REACTORS
330
258E
102
}
330
258E
100
DictionaryVariables
280
     0
  1
127
  0
DICTIONARYVAR
  5
2597
102
{ACAD_REACTORS
330
258E
102
}
330
258E
100
DictionaryVariables
280
     0
  1
2
  0
DICTIONARY
  5
25D4
330
257A
100
AcDbDictionary
280
     1
281
     1
  3
ACAD_XREC_ROUNDTRIP
360
25D5
  0
DICTIONARY
  5
25D6
330
257B
100
AcDbDictionary
280
     1
281
     1
  3
ACAD_XREC_ROUNDTRIP
360
25D7
  0
DICTIONARY
  5
25D8
330
257C
100
AcDbDictionary
280
     1
281
     1
  3
ACAD_XREC_ROUNDTRIP
360
25D9
  0
DICTIONARY
  5
2538
330
2537
100
AcDbDictionary
280
     1
281
     1
  3
ACAD_XREC_ROUNDTRIP
360
259E
  3
BUMPTILE
360
253A
  3
DIFFUSETILE
360
2539
  3
OPACITYTILE
360
253D
  3
REFLECTIONTILE
360
253C
  3
REFRACTIONTILE
360
253E
  3
SPECULARTILE
360
253B
  0
DICTIONARY
  5
2530
330
252F
100
AcDbDictionary
280
     1
281
     1
  3
ACAD_XREC_ROUNDTRIP
360
259D
  3
BUMPTILE
360
2532
  3
DIFFUSETILE
360
2531
  3
OPACITYTILE
360
2535
  3
REFLECTIONTILE
360
2534
  3
REFRACTIONTILE
360
2536
  3
SPECULARTILE
360
2533
  0
DICTIONARY
  5
2540
330
253F
100
AcDbDictionary
280
     1
281
     1
  3
ACAD_XREC_ROUNDTRIP
360
259F
  3
BUMPTILE
360
2542
  3
DIFFUSETILE
360
2541
  3
OPACITYTILE
360
2545
  3
REFLECTIONTILE
360
2544
  3
REFRACTIONTILE
360
2546
  3
SPECULARTILE
360
2543
  0
DICTIONARY
  5
25D2
330
2578
100
AcDbDictionary
280
     1
281
     1
  3
ACAD_XREC_ROUNDTRIP
360
25D3
  0
DICTIONARY
  5
2599
330
2562
100
AcDbDictionary
280
     1
281
     1
  3
ACAD_ROUNDTRIP_2008_TABLESTYLE_CELLSTYLEMAP
360
259A
  3
ACAD_XREC_ROUNDTRIP
360
25D0
  0
DICTIONARY
  5
25AA
330
254D
100
AcDbDictionary
280
     1
281
     1
  3
ACAD_XREC_ROUNDTRIP
360
25AB
  0
DICTIONARY
  5
25A8
330
254C
100
AcDbDictionary
280
     1
281
     1
  3
ACAD_XREC_ROUNDTRIP
360
25A9
  0
DICTIONARY
  5
25B6
330
2553
100
AcDbDictionary
280
     1
281
     1
  3
ACAD_XREC_ROUNDTRIP
360
25B7
  0
DICTIONARY
  5
25BE
330
2557
100
AcDbDictionary
280
     1
281
     1
  3
ACAD_XREC_ROUNDTRIP
360
25BF
  0
DICTIONARY
  5
25B0
330
2550
100
AcDbDictionary
280
     1
281
     1
  3
ACAD_XREC_ROUNDTRIP
360
25B1
  0
DICTIONARY
  5
25B4
330
2552
100
AcDbDictionary
280
     1
281
     1
  3
ACAD_XREC_ROUNDTRIP
360
25B5
  0
DICTIONARY
  5
25CE
330
255F
100
AcDbDictionary
280
     1
281
     1
  3
ACAD_XREC_ROUNDTRIP
360
25CF
  0
DICTIONARY
  5
25BC
330
2556
100
AcDbDictionary
280
     1
281
     1
  3
ACAD_XREC_ROUNDTRIP
360
25BD
  0
DICTIONARY
  5
25A0
330
2548
100
AcDbDictionary
280
     1
281
     1
  3
ACAD_XREC_ROUNDTRIP
360
25A1
  0
DICTIONARY
  5
25A2
330
2549
100
AcDbDictionary
280
     1
281
     1
  3
ACAD_XREC_ROUNDTRIP
360
25A3
  0
DICTIONARY
  5
25A4
330
254A
100
AcDbDictionary
280
     1
281
     1
  3
ACAD_XREC_ROUNDTRIP
360
25A5
  0
DICTIONARY
  5
25A6
330
254B
100
AcDbDictionary
280
     1
281
     1
  3
ACAD_XREC_ROUNDTRIP
360
25A7
  0
DICTIONARY
  5
25AE
330
254F
100
AcDbDictionary
280
     1
281
     1
  3
ACAD_XREC_ROUNDTRIP
360
25AF
  0
DICTIONARY
  5
25CA
330
255D
100
AcDbDictionary
280
     1
281
     1
  3
ACAD_XREC_ROUNDTRIP
360
25CB
  0
DICTIONARY
  5
25BA
330
2555
100
AcDbDictionary
280
     1
281
     1
  3
ACAD_XREC_ROUNDTRIP
360
25BB
  0
DICTIONARY
  5
25CC
330
255E
100
AcDbDictionary
280
     1
281
     1
  3
ACAD_XREC_ROUNDTRIP
360
25CD
  0
DICTIONARY
  5
25B2
330
2551
100
AcDbDictionary
280
     1
281
     1
  3
ACAD_XREC_ROUNDTRIP
360
25B3
  0
DICTIONARY
  5
25C8
330
255C
100
AcDbDictionary
280
     1
281
     1
  3
ACAD_XREC_ROUNDTRIP
360
25C9
  0
DICTIONARY
  5
25C6
330
255B
100
AcDbDictionary
280
     1
281
     1
  3
ACAD_XREC_ROUNDTRIP
360
25C7
  0
DICTIONARY
  5
25C0
330
2558
100
AcDbDictionary
280
     1
281
     1
  3
ACAD_XREC_ROUNDTRIP
360
25C1
  0
DICTIONARY
  5
25C2
330
2559
100
AcDbDictionary
280
     1
281
     1
  3
ACAD_XREC_ROUNDTRIP
360
25C3
  0
DICTIONARY
  5
25B8
330
2554
100
AcDbDictionary
280
     1
281
     1
  3
ACAD_XREC_ROUNDTRIP
360
25B9
  0
DICTIONARY
  5
25AC
330
254E
100
AcDbDictionary
280
     1
281
     1
  3
ACAD_XREC_ROUNDTRIP
360
25AD
  0
DICTIONARY
  5
25C4
330
255A
100
AcDbDictionary
280
     1
281
     1
  3
ACAD_XREC_ROUNDTRIP
360
25C5
  0
XRECORD
  5
25D5
102
{ACAD_REACTORS
330
25D4
102
}
330
25D4
100
AcDbXrecord
280
     1
102
DISPLAYNAME
  1
Imperial24
102
FLAGS
 90
        0
  0
XRECORD
  5
25D7
102
{ACAD_REACTORS
330
25D6
102
}
330
25D6
100
AcDbXrecord
280
     1
102
SHADEPLOT
 70
     0
102
SHADEPLOTRESLEVEL
 70
     2
102
SHADEPLOTCUSTOMDPI
 70
   300
  0
XRECORD
  5
25D9
102
{ACAD_REACTORS
330
25D8
102
}
330
25D8
100
AcDbXrecord
280
     1
102
SHADEPLOT
 70
     0
102
SHADEPLOTRESLEVEL
 70
     2
102
SHADEPLOTCUSTOMDPI
 70
   300
  0
XRECORD
  5
259E
102
{ACAD_REACTORS
330
2538
102
}
330
2538
100
AcDbXrecord
280
     1
102
MATERIAL
148
0.0
149
0.0
149
0.0
 93
        0
 94
      127
282
     0
 72
     0
 77
     0
171
     0
175
     0
179
     0
273
     0
  0
XRECORD
  5
253A
102
{ACAD_REACTORS
330
2538
102
}
330
2538
100
AcDbXrecord
280
     1
270
     1
271
     1
  0
XRECORD
  5
2539
102
{ACAD_REACTORS
330
2538
102
}
330
2538
100
AcDbXrecord
280
     1
270
     1
271
     1
  0
XRECORD
  5
253D
102
{ACAD_REACTORS
330
2538
102
}
330
2538
100
AcDbXrecord
280
     1
270
     1
271
     1
  0
XRECORD
  5
253C
102
{ACAD_REACTORS
330
2538
102
}
330
2538
100
AcDbXrecord
280
     1
270
     1
271
     1
  0
XRECORD
  5
253E
102
{ACAD_REACTORS
330
2538
102
}
330
2538
100
AcDbXrecord
280
     1
270
     1
271
     1
  0
XRECORD
  5
253B
102
{ACAD_REACTORS
330
2538
102
}
330
2538
100
AcDbXrecord
280
     1
270
     1
271
     1
  0
XRECORD
  5
259D
102
{ACAD_REACTORS
330
2530
102
}
330
2530
100
AcDbXrecord
280
     1
102
MATERIAL
148
0.0
149
0.0
149
0.0
 93
        0
 94
      127
282
     0
 72
     0
 77
     0
171
     0
175
     0
179
     0
273
     0
  0
XRECORD
  5
2532
102
{ACAD_REACTORS
330
2530
102
}
330
2530
100
AcDbXrecord
280
     1
270
     1
271
     1
  0
XRECORD
  5
2531
102
{ACAD_REACTORS
330
2530
102
}
330
2530
100
AcDbXrecord
280
     1
270
     1
271
     1
  0
XRECORD
  5
2535
102
{ACAD_REACTORS
330
2530
102
}
330
2530
100
AcDbXrecord
280
     1
270
     1
271
     1
  0
XRECORD
  5
2534
102
{ACAD_REACTORS
330
2530
102
}
330
2530
100
AcDbXrecord
280
     1
270
     1
271
     1
  0
XRECORD
  5
2536
102
{ACAD_REACTORS
330
2530
102
}
330
2530
100
AcDbXrecord
280
     1
270
     1
271
     1
  0
XRECORD
  5
2533
102
{ACAD_REACTORS
330
2530
102
}
330
2530
100
AcDbXrecord
280
     1
270
     1
271
     1
  0
XRECORD
  5
259F
102
{ACAD_REACTORS
330
2540
102
}
330
2540
100
AcDbXrecord
280
     1
102
MATERIAL
148
0.0
149
0.0
149
0.0
 93
        0
 94
      127
282
     0
 72
     0
 77
     0
171
     0
175
     0
179
     0
273
     0
  0
XRECORD
  5
2542
102
{ACAD_REACTORS
330
2540
102
}
330
2540
100
AcDbXrecord
280
     1
270
     1
271
     1
  0
XRECORD
  5
2541
102
{ACAD_REACTORS
330
2540
102
}
330
2540
100
AcDbXrecord
280
     1
270
     1
271
     1
  0
XRECORD
  5
2545
102
{ACAD_REACTORS
330
2540
102
}
330
2540
100
AcDbXrecord
280
     1
270
     1
271
     1
  0
XRECORD
  5
2544
102
{ACAD_REACTORS
330
2540
102
}
330
2540
100
AcDbXrecord
280
     1
270
     1
271
     1
  0
XRECORD
  5
2546
102
{ACAD_REACTORS
330
2540
102
}
330
2540
100
AcDbXrecord
280
     1
270
     1
271
     1
  0
XRECORD
  5
2543
102
{ACAD_REACTORS
330
2540
102
}
330
2540
100
AcDbXrecord
280
     1
270
     1
271
     1
  0
XRECORD
  5
25D3
102
{ACAD_REACTORS
330
25D2
102
}
330
25D2
100
AcDbXrecord
280
     1
102
DISPLAYNAME
  1
Imperial24
102
FLAGS
 90
        0
  0
CELLSTYLEMAP
  5
259A
102
{ACAD_REACTORS
330
2599
102
}
330
2599
100
AcDbCellStyleMap
 90
        3
300
CELLSTYLE
  1
TABLEFORMAT_BEGIN
 90
        5
170
     1
 91
        0
 92
    32768
 62
   257
 93
        1
300
CONTENTFORMAT
  1
CONTENTFORMAT_BEGIN
 90
        0
 91
        0
 92
      512
 93
        0
300

 40
0.0
140
1.0
 94
        5
 62
     0
340
F
144
0.25
309
CONTENTFORMAT_END
171
     0
 94
        0
309
TABLEFORMAT_END
  1
CELLSTYLE_BEGIN
 90
        1
 91
        1
300
_TITLE
309
CELLSTYLE_END
300
CELLSTYLE
  1
TABLEFORMAT_BEGIN
 90
        5
170
     1
 91
        0
 92
        0
 62
   257
 93
        1
300
CONTENTFORMAT
  1
CONTENTFORMAT_BEGIN
 90
        0
 91
        0
 92
      512
 93
        0
300

 40
0.0
140
1.0
 94
        5
 62
     0
340
F
144
0.18
309
CONTENTFORMAT_END
171
     0
 94
        0
309
TABLEFORMAT_END
  1
CELLSTYLE_BEGIN
 90
        2
 91
        1
300
_HEADER
309
CELLSTYLE_END
300
CELLSTYLE
  1
TABLEFORMAT_BEGIN
 90
        5
170
     1
 91
        0
 92
        0
 62
   257
 93
        1
300
CONTENTFORMAT
  1
CONTENTFORMAT_BEGIN
 90
        0
 91
        0
 92
      512
 93
        0
300

 40
0.0
140
1.0
 94
        2
 62
     0
340
F
144
0.18
309
CONTENTFORMAT_END
171
     0
 94
        0
309
TABLEFORMAT_END
  1
CELLSTYLE_BEGIN
 90
        3
 91
        2
300
_DATA
309
CELLSTYLE_END
  0
XRECORD
  5
25D0
102
{ACAD_REACTORS
330
2599
102
}
330
2599
100
AcDbXrecord
280
     1
102
ACAD_ROUNDTRIP_PRE2007_TABLESTYLE
 90
      512
 91
        0
  1

 92
      512
 93
        0
  2

 94
      512
 95
        0
  3

  0
XRECORD
  5
25AB
102
{ACAD_REACTORS
330
25AA
102
}
330
25AA
100
AcDbXrecord
280
     1
102
RTVSPost2010Prop28
280
     1
102
RTVSPost2010PropOp28
 70
     1
102
RTVSPost2010Prop29
280
     1
102
RTVSPost2010PropOp29
 70
     1
102
RTVSPost2010Prop30
280
     0
102
RTVSPost2010PropOp30
 70
     1
102
RTVSPost2010Prop31
280
     0
102
RTVSPost2010PropOp31
 70
     1
102
RTVSPost2010Prop32
280
     0
102
RTVSPost2010PropOp32
 70
     1
102
RTVSPost2010Prop33
280
     0
102
RTVSPost2010PropOp33
 70
     1
102
RTVSPost2010Prop34
280
     0
102
RTVSPost2010PropOp34
 70
     1
102
RTVSPost2010Prop35
280
     0
102
RTVSPost2010PropOp35
 70
     1
102
RTVSPost2010Prop36
280
     0
102
RTVSPost2010PropOp36
 70
     1
102
RTVSPost2010Prop37
 90
       50
102
RTVSPost2010PropOp37
 70
     1
102
RTVSPost2010Prop38
140
0.0
102
RTVSPost2010PropOp38
 70
     1
102
RTVSPost2010Prop39
140
1.0
102
RTVSPost2010PropOp39
 70
     1
102
RTVSPost2010Prop40
 90
        0
102
RTVSPost2010PropOp40
 70
     1
102
RTVSPost2010Prop41ColorIndex
 90
       18
102
RTVSPost2010Prop41ColorRGB
 90
        0
102
RTVSPost2010PropOp41
 70
     1
102
RTVSPost2010Prop42
 90
       50
102
RTVSPost2010PropOp42
 70
     1
102
RTVSPost2010Prop43
 90
        3
102
RTVSPost2010PropOp43
 70
     1
102
RTVSPost2010Prop44ColorIndex
 90
        5
102
RTVSPost2010Prop44ColorRGB
 90
      255
102
RTVSPost2010PropOp44
 70
     1
102
RTVSPost2010Prop45
280
     0
102
RTVSPost2010PropOp45
 70
     1
102
RTVSPost2010Prop46
 90
       50
102
RTVSPost2010PropOp46
 70
     1
102
RTVSPost2010Prop47
 90
       50
102
RTVSPost2010PropOp47
 70
     1
102
RTVSPost2010Prop48
 90
       50
102
RTVSPost2010PropOp48
 70
     1
102
RTVSPost2010Prop49
280
     0
102
RTVSPost2010PropOp49
 70
     1
102
RTVSPost2010Prop50
 90
       50
102
RTVSPost2010PropOp50
 70
     1
102
RTVSPost2010Prop51ColorIndex
 90
      256
102
RTVSPost2010Prop51ColorRGB
 90
-16777216
102
RTVSPost2010PropOp51
 70
     0
102
RTVSPost2010Prop52
140
1.0
102
RTVSPost2010PropOp52
 70
     0
102
RTVSPost2010Prop53
 90
        2
102
RTVSPost2010PropOp53
 70
     1
102
RTVSPost2010Prop54
  1
strokes_ogs.tif
102
RTVSPost2010PropOp54
 70
     1
102
RTVSPost2010Prop55
280
     0
102
RTVSPost2010PropOp55
 70
     1
102
RTVSPost2010Prop56
140
1.0
102
RTVSPost2010PropOp56
 70
     1
102
RTVSPost2010Prop57
140
1.0
102
RTVSPost2010PropOp57
 70
     1
102
RTVSPropertyOp0
 70
     1
102
RTVSPropertyOp1
 70
     1
102
RTVSPropertyOp2
 70
     1
102
RTVSPropertyOp3
 70
     1
102
RTVSPropertyOp4
 70
     1
102
RTVSPropertyOp5
 70
     1
102
RTVSPropertyOp6
 70
     1
102
RTVSPropertyOp7
 70
     1
102
RTVSPropertyOp8
 70
     1
102
RTVSPropertyOp9
 70
     1
102
RTVSPropertyOp10
 70
     1
102
RTVSPropertyOp11
 70
     1
102
RTVSPropertyOp12
 70
     1
102
RTVSPropertyOp13
 70
     1
102
RTVSPropertyOp14
 70
     1
102
RTVSPropertyOp15
 70
     1
102
RTVSPropertyOp16
 70
     1
102
RTVSPropertyOp17
 70
     1
102
RTVSPropertyOp18
 70
     1
102
RTVSPropertyOp19
 70
     1
102
RTVSPropertyOp20
 70
     1
102
RTVSPropertyOp21
 70
     1
102
RTVSPropertyOp22
 70
     1
102
RTVSPropertyOp23
 70
     1
102
RTVSPropertyOp24
 70
     1
102
RTVSPropertyOp25
 70
     1
102
RTVSPropertyOp26
 70
     1
102
RTVSPropertyOp27
 70
     1
102
RTVSPropertyOp28
 70
     1
102
RTVSPropertyOp29
 70
     1
102
RTVSPropertyOp30
 70
     1
102
RTVSPropertyOp31
 70
     1
102
RTVSPropertyOp32
 70
     1
102
RTVSPropertyOp33
 70
     1
102
RTVSPropertyOp34
 70
     1
102
RTVSPropertyOp35
 70
     1
102
RTVSPropertyOp36
 70
     1
102
RTVSPropertyOp37
 70
     1
102
RTVSPropertyOp38
 70
     1
102
RTVSPropertyOp39
 70
     1
102
RTVSPropertyOp40
 70
     1
102
RTVSPropertyOp41
 70
     1
102
RTVSPropertyOp42
 70
     1
102
RTVSPropertyOp43
 70
     1
102
RTVSPropertyOp44
 70
     1
102
RTVSPropertyOp45
 70
     1
102
RTVSPropertyOp46
 70
     1
102
RTVSPropertyOp47
 70
     1
102
RTVSPropertyOp48
 70
     1
102
RTVSPropertyOp49
 70
     1
102
RTVSPropertyOp50
 70
     1
102
RTVSPropertyOp51
 70
     0
102
RTVSPropertyOp52
 70
     0
102
RTVSPropertyOp53
 70
     1
102
RTVSPropertyOp54
 70
     1
102
RTVSPropertyOp55
 70
     1
102
RTVSPropertyOp56
 70
     1
102
RTVSPropertyOp57
 70
     1
102
RTVSPropertyOp58
 70
     1
102
RTVSPropertyOp59
 70
     1
102
RTVSPropertyOp60
 70
     1
102
RTVSPropertyOp61
 70
     1
102
RTVSPropertyOp62
 70
     1
  0
XRECORD
  5
25A9
102
{ACAD_REACTORS
330
25A8
102
}
330
25A8
100
AcDbXrecord
280
     1
102
RTVSPost2010Prop28
280
     0
102
RTVSPost2010PropOp28
 70
     1
102
RTVSPost2010Prop29
280
     1
102
RTVSPost2010PropOp29
 70
     1
102
RTVSPost2010Prop30
280
     1
102
RTVSPost2010PropOp30
 70
     1
102
RTVSPost2010Prop31
280
     0
102
RTVSPost2010PropOp31
 70
     1
102
RTVSPost2010Prop32
280
     0
102
RTVSPost2010PropOp32
 70
     1
102
RTVSPost2010Prop33
280
     0
102
RTVSPost2010PropOp33
 70
     1
102
RTVSPost2010Prop34
280
     0
102
RTVSPost2010PropOp34
 70
     1
102
RTVSPost2010Prop35
280
     0
102
RTVSPost2010PropOp35
 70
     1
102
RTVSPost2010Prop36
280
     0
102
RTVSPost2010PropOp36
 70
     1
102
RTVSPost2010Prop37
 90
       50
102
RTVSPost2010PropOp37
 70
     1
102
RTVSPost2010Prop38
140
0.0
102
RTVSPost2010PropOp38
 70
     1
102
RTVSPost2010Prop39
140
1.0
102
RTVSPost2010PropOp39
 70
     1
102
RTVSPost2010Prop40
 90
        0
102
RTVSPost2010PropOp40
 70
     1
102
RTVSPost2010Prop41ColorIndex
 90
       18
102
RTVSPost2010Prop41ColorRGB
 90
        0
102
RTVSPost2010PropOp41
 70
     1
102
RTVSPost2010Prop42
 90
       50
102
RTVSPost2010PropOp42
 70
     1
102
RTVSPost2010Prop43
 90
        3
102
RTVSPost2010PropOp43
 70
     1
102
RTVSPost2010Prop44ColorIndex
 90
        5
102
RTVSPost2010Prop44ColorRGB
 90
      255
102
RTVSPost2010PropOp44
 70
     1
102
RTVSPost2010Prop45
280
     0
102
RTVSPost2010PropOp45
 70
     1
102
RTVSPost2010Prop46
 90
       50
102
RTVSPost2010PropOp46
 70
     1
102
RTVSPost2010Prop47
 90
       50
102
RTVSPost2010PropOp47
 70
     1
102
RTVSPost2010Prop48
 90
       50
102
RTVSPost2010PropOp48
 70
     1
102
RTVSPost2010Prop49
280
     0
102
RTVSPost2010PropOp49
 70
     1
102
RTVSPost2010Prop50
 90
       50
102
RTVSPost2010PropOp50
 70
     1
102
RTVSPost2010Prop51ColorIndex
 90
      256
102
RTVSPost2010Prop51ColorRGB
 90
-16777216
102
RTVSPost2010PropOp51
 70
     0
102
RTVSPost2010Prop52
140
1.0
102
RTVSPost2010PropOp52
 70
     0
102
RTVSPost2010Prop53
 90
        2
102
RTVSPost2010PropOp53
 70
     1
102
RTVSPost2010Prop54
  1
strokes_ogs.tif
102
RTVSPost2010PropOp54
 70
     1
102
RTVSPost2010Prop55
280
     0
102
RTVSPost2010PropOp55
 70
     1
102
RTVSPost2010Prop56
140
1.0
102
RTVSPost2010PropOp56
 70
     1
102
RTVSPost2010Prop57
140
1.0
102
RTVSPost2010PropOp57
 70
     1
102
RTVSPropertyOp0
 70
     1
102
RTVSPropertyOp1
 70
     1
102
RTVSPropertyOp2
 70
     1
102
RTVSPropertyOp3
 70
     1
102
RTVSPropertyOp4
 70
     1
102
RTVSPropertyOp5
 70
     1
102
RTVSPropertyOp6
 70
     1
102
RTVSPropertyOp7
 70
     1
102
RTVSPropertyOp8
 70
     1
102
RTVSPropertyOp9
 70
     1
102
RTVSPropertyOp10
 70
     1
102
RTVSPropertyOp11
 70
     1
102
RTVSPropertyOp12
 70
     1
102
RTVSPropertyOp13
 70
     1
102
RTVSPropertyOp14
 70
     1
102
RTVSPropertyOp15
 70
     1
102
RTVSPropertyOp16
 70
     1
102
RTVSPropertyOp17
 70
     1
102
RTVSPropertyOp18
 70
     1
102
RTVSPropertyOp19
 70
     1
102
RTVSPropertyOp20
 70
     1
102
RTVSPropertyOp21
 70
     1
102
RTVSPropertyOp22
 70
     1
102
RTVSPropertyOp23
 70
     1
102
RTVSPropertyOp24
 70
     1
102
RTVSPropertyOp25
 70
     1
102
RTVSPropertyOp26
 70
     1
102
RTVSPropertyOp27
 70
     1
102
RTVSPropertyOp28
 70
     1
102
RTVSPropertyOp29
 70
     1
102
RTVSPropertyOp30
 70
     1
102
RTVSPropertyOp31
 70
     1
102
RTVSPropertyOp32
 70
     1
102
RTVSPropertyOp33
 70
     1
102
RTVSPropertyOp34
 70
     1
102
RTVSPropertyOp35
 70
     1
102
RTVSPropertyOp36
 70
     1
102
RTVSPropertyOp37
 70
     1
102
RTVSPropertyOp38
 70
     1
102
RTVSPropertyOp39
 70
     1
102
RTVSPropertyOp40
 70
     1
102
RTVSPropertyOp41
 70
     1
102
RTVSPropertyOp42
 70
     1
102
RTVSPropertyOp43
 70
     1
102
RTVSPropertyOp44
 70
     1
102
RTVSPropertyOp45
 70
     1
102
RTVSPropertyOp46
 70
     1
102
RTVSPropertyOp47
 70
     1
102
RTVSPropertyOp48
 70
     1
102
RTVSPropertyOp49
 70
     1
102
RTVSPropertyOp50
 70
     1
102
RTVSPropertyOp51
 70
     0
102
RTVSPropertyOp52
 70
     0
102
RTVSPropertyOp53
 70
     1
102
RTVSPropertyOp54
 70
     1
102
RTVSPropertyOp55
 70
     1
102
RTVSPropertyOp56
 70
     1
102
RTVSPropertyOp57
 70
     1
102
RTVSPropertyOp58
 70
     1
102
RTVSPropertyOp59
 70
     1
102
RTVSPropertyOp60
 70
     1
102
RTVSPropertyOp61
 70
     1
102
RTVSPropertyOp62
 70
     1
  0
XRECORD
  5
25B7
102
{ACAD_REACTORS
330
25B6
102
}
330
25B6
100
AcDbXrecord
280
     1
102
RTVSPost2010Prop28
280
     0
102
RTVSPost2010PropOp28
 70
     1
102
RTVSPost2010Prop29
280
     1
102
RTVSPost2010PropOp29
 70
     1
102
RTVSPost2010Prop30
280
     1
102
RTVSPost2010PropOp30
 70
     1
102
RTVSPost2010Prop31
280
     0
102
RTVSPost2010PropOp31
 70
     1
102
RTVSPost2010Prop32
280
     0
102
RTVSPost2010PropOp32
 70
     1
102
RTVSPost2010Prop33
280
     0
102
RTVSPost2010PropOp33
 70
     1
102
RTVSPost2010Prop34
280
     0
102
RTVSPost2010PropOp34
 70
     1
102
RTVSPost2010Prop35
280
     0
102
RTVSPost2010PropOp35
 70
     1
102
RTVSPost2010Prop36
280
     0
102
RTVSPost2010PropOp36
 70
     1
102
RTVSPost2010Prop37
 90
       50
102
RTVSPost2010PropOp37
 70
     1
102
RTVSPost2010Prop38
140
0.0
102
RTVSPost2010PropOp38
 70
     1
102
RTVSPost2010Prop39
140
1.0
102
RTVSPost2010PropOp39
 70
     1
102
RTVSPost2010Prop40
 90
        0
102
RTVSPost2010PropOp40
 70
     1
102
RTVSPost2010Prop41ColorIndex
 90
       18
102
RTVSPost2010Prop41ColorRGB
 90
        0
102
RTVSPost2010PropOp41
 70
     1
102
RTVSPost2010Prop42
 90
       50
102
RTVSPost2010PropOp42
 70
     1
102
RTVSPost2010Prop43
 90
        3
102
RTVSPost2010PropOp43
 70
     1
102
RTVSPost2010Prop44ColorIndex
 90
        5
102
RTVSPost2010Prop44ColorRGB
 90
      255
102
RTVSPost2010PropOp44
 70
     1
102
RTVSPost2010Prop45
280
     0
102
RTVSPost2010PropOp45
 70
     1
102
RTVSPost2010Prop46
 90
       50
102
RTVSPost2010PropOp46
 70
     1
102
RTVSPost2010Prop47
 90
       50
102
RTVSPost2010PropOp47
 70
     1
102
RTVSPost2010Prop48
 90
       50
102
RTVSPost2010PropOp48
 70
     1
102
RTVSPost2010Prop49
280
     0
102
RTVSPost2010PropOp49
 70
     1
102
RTVSPost2010Prop50
 90
       50
102
RTVSPost2010PropOp50
 70
     1
102
RTVSPost2010Prop51ColorIndex
 90
      256
102
RTVSPost2010Prop51ColorRGB
 90
-16777216
102
RTVSPost2010PropOp51
 70
     0
102
RTVSPost2010Prop52
140
1.0
102
RTVSPost2010PropOp52
 70
     0
102
RTVSPost2010Prop53
 90
        2
102
RTVSPost2010PropOp53
 70
     1
102
RTVSPost2010Prop54
  1
strokes_ogs.tif
102
RTVSPost2010PropOp54
 70
     1
102
RTVSPost2010Prop55
280
     0
102
RTVSPost2010PropOp55
 70
     1
102
RTVSPost2010Prop56
140
1.0
102
RTVSPost2010PropOp56
 70
     1
102
RTVSPost2010Prop57
140
1.0
102
RTVSPost2010PropOp57
 70
     1
102
RTVSPropertyOp0
 70
     1
102
RTVSPropertyOp1
 70
     1
102
RTVSPropertyOp2
 70
     1
102
RTVSPropertyOp3
 70
     1
102
RTVSPropertyOp4
 70
     1
102
RTVSPropertyOp5
 70
     1
102
RTVSPropertyOp6
 70
     1
102
RTVSPropertyOp7
 70
     1
102
RTVSPropertyOp8
 70
     1
102
RTVSPropertyOp9
 70
     1
102
RTVSPropertyOp10
 70
     1
102
RTVSPropertyOp11
 70
     1
102
RTVSPropertyOp12
 70
     1
102
RTVSPropertyOp13
 70
     1
102
RTVSPropertyOp14
 70
     1
102
RTVSPropertyOp15
 70
     1
102
RTVSPropertyOp16
 70
     1
102
RTVSPropertyOp17
 70
     1
102
RTVSPropertyOp18
 70
     1
102
RTVSPropertyOp19
 70
     1
102
RTVSPropertyOp20
 70
     1
102
RTVSPropertyOp21
 70
     1
102
RTVSPropertyOp22
 70
     1
102
RTVSPropertyOp23
 70
     1
102
RTVSPropertyOp24
 70
     1
102
RTVSPropertyOp25
 70
     1
102
RTVSPropertyOp26
 70
     1
102
RTVSPropertyOp27
 70
     1
102
RTVSPropertyOp28
 70
     1
102
RTVSPropertyOp29
 70
     1
102
RTVSPropertyOp30
 70
     1
102
RTVSPropertyOp31
 70
     1
102
RTVSPropertyOp32
 70
     1
102
RTVSPropertyOp33
 70
     1
102
RTVSPropertyOp34
 70
     1
102
RTVSPropertyOp35
 70
     1
102
RTVSPropertyOp36
 70
     1
102
RTVSPropertyOp37
 70
     1
102
RTVSPropertyOp38
 70
     1
102
RTVSPropertyOp39
 70
     1
102
RTVSPropertyOp40
 70
     1
102
RTVSPropertyOp41
 70
     1
102
RTVSPropertyOp42
 70
     1
102
RTVSPropertyOp43
 70
     1
102
RTVSPropertyOp44
 70
     1
102
RTVSPropertyOp45
 70
     1
102
RTVSPropertyOp46
 70
     1
102
RTVSPropertyOp47
 70
     1
102
RTVSPropertyOp48
 70
     1
102
RTVSPropertyOp49
 70
     1
102
RTVSPropertyOp50
 70
     1
102
RTVSPropertyOp51
 70
     0
102
RTVSPropertyOp52
 70
     0
102
RTVSPropertyOp53
 70
     1
102
RTVSPropertyOp54
 70
     1
102
RTVSPropertyOp55
 70
     1
102
RTVSPropertyOp56
 70
     1
102
RTVSPropertyOp57
 70
     1
102
RTVSPropertyOp58
 70
     1
102
RTVSPropertyOp59
 70
     1
102
RTVSPropertyOp60
 70
     1
102
RTVSPropertyOp61
 70
     1
102
RTVSPropertyOp62
 70
     1
  0
XRECORD
  5
25BF
102
{ACAD_REACTORS
330
25BE
102
}
330
25BE
100
AcDbXrecord
280
     1
102
RTVSPost2010Prop28
280
     0
102
RTVSPost2010PropOp28
 70
     1
102
RTVSPost2010Prop29
280
     1
102
RTVSPost2010PropOp29
 70
     1
102
RTVSPost2010Prop30
280
     1
102
RTVSPost2010PropOp30
 70
     1
102
RTVSPost2010Prop31
280
     0
102
RTVSPost2010PropOp31
 70
     1
102
RTVSPost2010Prop32
280
     0
102
RTVSPost2010PropOp32
 70
     1
102
RTVSPost2010Prop33
280
     0
102
RTVSPost2010PropOp33
 70
     1
102
RTVSPost2010Prop34
280
     0
102
RTVSPost2010PropOp34
 70
     1
102
RTVSPost2010Prop35
280
     0
102
RTVSPost2010PropOp35
 70
     1
102
RTVSPost2010Prop36
280
     0
102
RTVSPost2010PropOp36
 70
     1
102
RTVSPost2010Prop37
 90
       50
102
RTVSPost2010PropOp37
 70
     1
102
RTVSPost2010Prop38
140
0.0
102
RTVSPost2010PropOp38
 70
     1
102
RTVSPost2010Prop39
140
1.0
102
RTVSPost2010PropOp39
 70
     1
102
RTVSPost2010Prop40
 90
        0
102
RTVSPost2010PropOp40
 70
     1
102
RTVSPost2010Prop41ColorIndex
 90
       18
102
RTVSPost2010Prop41ColorRGB
 90
        0
102
RTVSPost2010PropOp41
 70
     1
102
RTVSPost2010Prop42
 90
       50
102
RTVSPost2010PropOp42
 70
     1
102
RTVSPost2010Prop43
 90
        3
102
RTVSPost2010PropOp43
 70
     1
102
RTVSPost2010Prop44ColorIndex
 90
        5
102
RTVSPost2010Prop44ColorRGB
 90
      255
102
RTVSPost2010PropOp44
 70
     1
102
RTVSPost2010Prop45
280
     0
102
RTVSPost2010PropOp45
 70
     1
102
RTVSPost2010Prop46
 90
       50
102
RTVSPost2010PropOp46
 70
     1
102
RTVSPost2010Prop47
 90
       50
102
RTVSPost2010PropOp47
 70
     1
102
RTVSPost2010Prop48
 90
       50
102
RTVSPost2010PropOp48
 70
     1
102
RTVSPost2010Prop49
280
     0
102
RTVSPost2010PropOp49
 70
     1
102
RTVSPost2010Prop50
 90
       50
102
RTVSPost2010PropOp50
 70
     1
102
RTVSPost2010Prop51ColorIndex
 90
      256
102
RTVSPost2010Prop51ColorRGB
 90
-16777216
102
RTVSPost2010PropOp51
 70
     0
102
RTVSPost2010Prop52
140
1.0
102
RTVSPost2010PropOp52
 70
     0
102
RTVSPost2010Prop53
 90
        2
102
RTVSPost2010PropOp53
 70
     1
102
RTVSPost2010Prop54
  1
strokes_ogs.tif
102
RTVSPost2010PropOp54
 70
     1
102
RTVSPost2010Prop55
280
     0
102
RTVSPost2010PropOp55
 70
     1
102
RTVSPost2010Prop56
140
1.0
102
RTVSPost2010PropOp56
 70
     1
102
RTVSPost2010Prop57
140
1.0
102
RTVSPost2010PropOp57
 70
     1
102
RTVSPropertyOp0
 70
     1
102
RTVSPropertyOp1
 70
     1
102
RTVSPropertyOp2
 70
     1
102
RTVSPropertyOp3
 70
     1
102
RTVSPropertyOp4
 70
     1
102
RTVSPropertyOp5
 70
     1
102
RTVSPropertyOp6
 70
     1
102
RTVSPropertyOp7
 70
     1
102
RTVSPropertyOp8
 70
     1
102
RTVSPropertyOp9
 70
     1
102
RTVSPropertyOp10
 70
     1
102
RTVSPropertyOp11
 70
     1
102
RTVSPropertyOp12
 70
     1
102
RTVSPropertyOp13
 70
     1
102
RTVSPropertyOp14
 70
     1
102
RTVSPropertyOp15
 70
     1
102
RTVSPropertyOp16
 70
     1
102
RTVSPropertyOp17
 70
     1
102
RTVSPropertyOp18
 70
     1
102
RTVSPropertyOp19
 70
     1
102
RTVSPropertyOp20
 70
     1
102
RTVSPropertyOp21
 70
     1
102
RTVSPropertyOp22
 70
     1
102
RTVSPropertyOp23
 70
     1
102
RTVSPropertyOp24
 70
     1
102
RTVSPropertyOp25
 70
     1
102
RTVSPropertyOp26
 70
     1
102
RTVSPropertyOp27
 70
     1
102
RTVSPropertyOp28
 70
     1
102
RTVSPropertyOp29
 70
     1
102
RTVSPropertyOp30
 70
     1
102
RTVSPropertyOp31
 70
     1
102
RTVSPropertyOp32
 70
     1
102
RTVSPropertyOp33
 70
     1
102
RTVSPropertyOp34
 70
     1
102
RTVSPropertyOp35
 70
     1
102
RTVSPropertyOp36
 70
     1
102
RTVSPropertyOp37
 70
     1
102
RTVSPropertyOp38
 70
     1
102
RTVSPropertyOp39
 70
     1
102
RTVSPropertyOp40
 70
     1
102
RTVSPropertyOp41
 70
     1
102
RTVSPropertyOp42
 70
     1
102
RTVSPropertyOp43
 70
     1
102
RTVSPropertyOp44
 70
     1
102
RTVSPropertyOp45
 70
     1
102
RTVSPropertyOp46
 70
     1
102
RTVSPropertyOp47
 70
     1
102
RTVSPropertyOp48
 70
     1
102
RTVSPropertyOp49
 70
     1
102
RTVSPropertyOp50
 70
     1
102
RTVSPropertyOp51
 70
     0
102
RTVSPropertyOp52
 70
     0
102
RTVSPropertyOp53
 70
     1
102
RTVSPropertyOp54
 70
     1
102
RTVSPropertyOp55
 70
     1
102
RTVSPropertyOp56
 70
     1
102
RTVSPropertyOp57
 70
     1
102
RTVSPropertyOp58
 70
     1
102
RTVSPropertyOp59
 70
     1
102
RTVSPropertyOp60
 70
     1
102
RTVSPropertyOp61
 70
     1
102
RTVSPropertyOp62
 70
     1
  0
XRECORD
  5
25B1
102
{ACAD_REACTORS
330
25B0
102
}
330
25B0
100
AcDbXrecord
280
     1
102
RTVSPost2010Prop28
280
     0
102
RTVSPost2010PropOp28
 70
     1
102
RTVSPost2010Prop29
280
     1
102
RTVSPost2010PropOp29
 70
     1
102
RTVSPost2010Prop30
280
     1
102
RTVSPost2010PropOp30
 70
     1
102
RTVSPost2010Prop31
280
     0
102
RTVSPost2010PropOp31
 70
     1
102
RTVSPost2010Prop32
280
     0
102
RTVSPost2010PropOp32
 70
     1
102
RTVSPost2010Prop33
280
     0
102
RTVSPost2010PropOp33
 70
     1
102
RTVSPost2010Prop34
280
     0
102
RTVSPost2010PropOp34
 70
     1
102
RTVSPost2010Prop35
280
     0
102
RTVSPost2010PropOp35
 70
     1
102
RTVSPost2010Prop36
280
     0
102
RTVSPost2010PropOp36
 70
     1
102
RTVSPost2010Prop37
 90
       50
102
RTVSPost2010PropOp37
 70
     1
102
RTVSPost2010Prop38
140
0.0
102
RTVSPost2010PropOp38
 70
     1
102
RTVSPost2010Prop39
140
1.0
102
RTVSPost2010PropOp39
 70
     1
102
RTVSPost2010Prop40
 90
        0
102
RTVSPost2010PropOp40
 70
     1
102
RTVSPost2010Prop41ColorIndex
 90
       18
102
RTVSPost2010Prop41ColorRGB
 90
        0
102
RTVSPost2010PropOp41
 70
     1
102
RTVSPost2010Prop42
 90
       50
102
RTVSPost2010PropOp42
 70
     1
102
RTVSPost2010Prop43
 90
        3
102
RTVSPost2010PropOp43
 70
     1
102
RTVSPost2010Prop44ColorIndex
 90
        5
102
RTVSPost2010Prop44ColorRGB
 90
      255
102
RTVSPost2010PropOp44
 70
     1
102
RTVSPost2010Prop45
280
     0
102
RTVSPost2010PropOp45
 70
     1
102
RTVSPost2010Prop46
 90
       50
102
RTVSPost2010PropOp46
 70
     1
102
RTVSPost2010Prop47
 90
       50
102
RTVSPost2010PropOp47
 70
     1
102
RTVSPost2010Prop48
 90
       50
102
RTVSPost2010PropOp48
 70
     1
102
RTVSPost2010Prop49
280
     0
102
RTVSPost2010PropOp49
 70
     1
102
RTVSPost2010Prop50
 90
       50
102
RTVSPost2010PropOp50
 70
     1
102
RTVSPost2010Prop51ColorIndex
 90
      256
102
RTVSPost2010Prop51ColorRGB
 90
-16777216
102
RTVSPost2010PropOp51
 70
     0
102
RTVSPost2010Prop52
140
1.0
102
RTVSPost2010PropOp52
 70
     0
102
RTVSPost2010Prop53
 90
        2
102
RTVSPost2010PropOp53
 70
     1
102
RTVSPost2010Prop54
  1
strokes_ogs.tif
102
RTVSPost2010PropOp54
 70
     1
102
RTVSPost2010Prop55
280
     0
102
RTVSPost2010PropOp55
 70
     1
102
RTVSPost2010Prop56
140
1.0
102
RTVSPost2010PropOp56
 70
     1
102
RTVSPost2010Prop57
140
1.0
102
RTVSPost2010PropOp57
 70
     1
102
RTVSPropertyOp0
 70
     1
102
RTVSPropertyOp1
 70
     1
102
RTVSPropertyOp2
 70
     1
102
RTVSPropertyOp3
 70
     1
102
RTVSPropertyOp4
 70
     1
102
RTVSPropertyOp5
 70
     1
102
RTVSPropertyOp6
 70
     1
102
RTVSPropertyOp7
 70
     1
102
RTVSPropertyOp8
 70
     1
102
RTVSPropertyOp9
 70
     1
102
RTVSPropertyOp10
 70
     1
102
RTVSPropertyOp11
 70
     1
102
RTVSPropertyOp12
 70
     1
102
RTVSPropertyOp13
 70
     1
102
RTVSPropertyOp14
 70
     1
102
RTVSPropertyOp15
 70
     1
102
RTVSPropertyOp16
 70
     1
102
RTVSPropertyOp17
 70
     1
102
RTVSPropertyOp18
 70
     1
102
RTVSPropertyOp19
 70
     1
102
RTVSPropertyOp20
 70
     1
102
RTVSPropertyOp21
 70
     1
102
RTVSPropertyOp22
 70
     1
102
RTVSPropertyOp23
 70
     1
102
RTVSPropertyOp24
 70
     1
102
RTVSPropertyOp25
 70
     1
102
RTVSPropertyOp26
 70
     1
102
RTVSPropertyOp27
 70
     1
102
RTVSPropertyOp28
 70
     1
102
RTVSPropertyOp29
 70
     1
102
RTVSPropertyOp30
 70
     1
102
RTVSPropertyOp31
 70
     1
102
RTVSPropertyOp32
 70
     1
102
RTVSPropertyOp33
 70
     1
102
RTVSPropertyOp34
 70
     1
102
RTVSPropertyOp35
 70
     1
102
RTVSPropertyOp36
 70
     1
102
RTVSPropertyOp37
 70
     1
102
RTVSPropertyOp38
 70
     1
102
RTVSPropertyOp39
 70
     1
102
RTVSPropertyOp40
 70
     1
102
RTVSPropertyOp41
 70
     1
102
RTVSPropertyOp42
 70
     1
102
RTVSPropertyOp43
 70
     1
102
RTVSPropertyOp44
 70
     1
102
RTVSPropertyOp45
 70
     1
102
RTVSPropertyOp46
 70
     1
102
RTVSPropertyOp47
 70
     1
102
RTVSPropertyOp48
 70
     1
102
RTVSPropertyOp49
 70
     1
102
RTVSPropertyOp50
 70
     1
102
RTVSPropertyOp51
 70
     0
102
RTVSPropertyOp52
 70
     0
102
RTVSPropertyOp53
 70
     1
102
RTVSPropertyOp54
 70
     1
102
RTVSPropertyOp55
 70
     1
102
RTVSPropertyOp56
 70
     1
102
RTVSPropertyOp57
 70
     1
102
RTVSPropertyOp58
 70
     1
102
RTVSPropertyOp59
 70
     1
102
RTVSPropertyOp60
 70
     1
102
RTVSPropertyOp61
 70
     1
102
RTVSPropertyOp62
 70
     1
  0
XRECORD
  5
25B5
102
{ACAD_REACTORS
330
25B4
102
}
330
25B4
100
AcDbXrecord
280
     1
102
RTVSPost2010Prop28
280
     0
102
RTVSPost2010PropOp28
 70
     1
102
RTVSPost2010Prop29
280
     1
102
RTVSPost2010PropOp29
 70
     1
102
RTVSPost2010Prop30
280
     1
102
RTVSPost2010PropOp30
 70
     1
102
RTVSPost2010Prop31
280
     0
102
RTVSPost2010PropOp31
 70
     1
102
RTVSPost2010Prop32
280
     0
102
RTVSPost2010PropOp32
 70
     1
102
RTVSPost2010Prop33
280
     0
102
RTVSPost2010PropOp33
 70
     1
102
RTVSPost2010Prop34
280
     0
102
RTVSPost2010PropOp34
 70
     1
102
RTVSPost2010Prop35
280
     0
102
RTVSPost2010PropOp35
 70
     1
102
RTVSPost2010Prop36
280
     0
102
RTVSPost2010PropOp36
 70
     1
102
RTVSPost2010Prop37
 90
       50
102
RTVSPost2010PropOp37
 70
     1
102
RTVSPost2010Prop38
140
0.0
102
RTVSPost2010PropOp38
 70
     1
102
RTVSPost2010Prop39
140
1.0
102
RTVSPost2010PropOp39
 70
     1
102
RTVSPost2010Prop40
 90
        0
102
RTVSPost2010PropOp40
 70
     1
102
RTVSPost2010Prop41ColorIndex
 90
       18
102
RTVSPost2010Prop41ColorRGB
 90
        0
102
RTVSPost2010PropOp41
 70
     1
102
RTVSPost2010Prop42
 90
       50
102
RTVSPost2010PropOp42
 70
     1
102
RTVSPost2010Prop43
 90
        3
102
RTVSPost2010PropOp43
 70
     1
102
RTVSPost2010Prop44ColorIndex
 90
        5
102
RTVSPost2010Prop44ColorRGB
 90
      255
102
RTVSPost2010PropOp44
 70
     1
102
RTVSPost2010Prop45
280
     0
102
RTVSPost2010PropOp45
 70
     1
102
RTVSPost2010Prop46
 90
       50
102
RTVSPost2010PropOp46
 70
     1
102
RTVSPost2010Prop47
 90
       50
102
RTVSPost2010PropOp47
 70
     1
102
RTVSPost2010Prop48
 90
       50
102
RTVSPost2010PropOp48
 70
     1
102
RTVSPost2010Prop49
280
     0
102
RTVSPost2010PropOp49
 70
     1
102
RTVSPost2010Prop50
 90
       50
102
RTVSPost2010PropOp50
 70
     1
102
RTVSPost2010Prop51ColorIndex
 90
      256
102
RTVSPost2010Prop51ColorRGB
 90
-16777216
102
RTVSPost2010PropOp51
 70
     0
102
RTVSPost2010Prop52
140
1.0
102
RTVSPost2010PropOp52
 70
     0
102
RTVSPost2010Prop53
 90
        2
102
RTVSPost2010PropOp53
 70
     1
102
RTVSPost2010Prop54
  1
strokes_ogs.tif
102
RTVSPost2010PropOp54
 70
     1
102
RTVSPost2010Prop55
280
     0
102
RTVSPost2010PropOp55
 70
     1
102
RTVSPost2010Prop56
140
1.0
102
RTVSPost2010PropOp56
 70
     1
102
RTVSPost2010Prop57
140
1.0
102
RTVSPost2010PropOp57
 70
     1
102
RTVSPropertyOp0
 70
     1
102
RTVSPropertyOp1
 70
     1
102
RTVSPropertyOp2
 70
     1
102
RTVSPropertyOp3
 70
     1
102
RTVSPropertyOp4
 70
     1
102
RTVSPropertyOp5
 70
     1
102
RTVSPropertyOp6
 70
     1
102
RTVSPropertyOp7
 70
     1
102
RTVSPropertyOp8
 70
     1
102
RTVSPropertyOp9
 70
     1
102
RTVSPropertyOp10
 70
     1
102
RTVSPropertyOp11
 70
     1
102
RTVSPropertyOp12
 70
     1
102
RTVSPropertyOp13
 70
     1
102
RTVSPropertyOp14
 70
     1
102
RTVSPropertyOp15
 70
     1
102
RTVSPropertyOp16
 70
     1
102
RTVSPropertyOp17
 70
     1
102
RTVSPropertyOp18
 70
     1
102
RTVSPropertyOp19
 70
     1
102
RTVSPropertyOp20
 70
     1
102
RTVSPropertyOp21
 70
     1
102
RTVSPropertyOp22
 70
     1
102
RTVSPropertyOp23
 70
     1
102
RTVSPropertyOp24
 70
     1
102
RTVSPropertyOp25
 70
     1
102
RTVSPropertyOp26
 70
     1
102
RTVSPropertyOp27
 70
     1
102
RTVSPropertyOp28
 70
     1
102
RTVSPropertyOp29
 70
     1
102
RTVSPropertyOp30
 70
     1
102
RTVSPropertyOp31
 70
     1
102
RTVSPropertyOp32
 70
     1
102
RTVSPropertyOp33
 70
     1
102
RTVSPropertyOp34
 70
     1
102
RTVSPropertyOp35
 70
     1
102
RTVSPropertyOp36
 70
     1
102
RTVSPropertyOp37
 70
     1
102
RTVSPropertyOp38
 70
     1
102
RTVSPropertyOp39
 70
     1
102
RTVSPropertyOp40
 70
     1
102
RTVSPropertyOp41
 70
     1
102
RTVSPropertyOp42
 70
     1
102
RTVSPropertyOp43
 70
     1
102
RTVSPropertyOp44
 70
     1
102
RTVSPropertyOp45
 70
     1
102
RTVSPropertyOp46
 70
     1
102
RTVSPropertyOp47
 70
     1
102
RTVSPropertyOp48
 70
     1
102
RTVSPropertyOp49
 70
     1
102
RTVSPropertyOp50
 70
     1
102
RTVSPropertyOp51
 70
     0
102
RTVSPropertyOp52
 70
     0
102
RTVSPropertyOp53
 70
     1
102
RTVSPropertyOp54
 70
     1
102
RTVSPropertyOp55
 70
     1
102
RTVSPropertyOp56
 70
     1
102
RTVSPropertyOp57
 70
     1
102
RTVSPropertyOp58
 70
     1
102
RTVSPropertyOp59
 70
     1
102
RTVSPropertyOp60
 70
     1
102
RTVSPropertyOp61
 70
     1
102
RTVSPropertyOp62
 70
     1
  0
XRECORD
  5
25CF
102
{ACAD_REACTORS
330
25CE
102
}
330
25CE
100
AcDbXrecord
280
     1
102
RTVSPost2010Prop28
280
     0
102
RTVSPost2010PropOp28
 70
     1
102
RTVSPost2010Prop29
280
     1
102
RTVSPost2010PropOp29
 70
     1
102
RTVSPost2010Prop30
280
     1
102
RTVSPost2010PropOp30
 70
     1
102
RTVSPost2010Prop31
280
     0
102
RTVSPost2010PropOp31
 70
     1
102
RTVSPost2010Prop32
280
     0
102
RTVSPost2010PropOp32
 70
     1
102
RTVSPost2010Prop33
280
     0
102
RTVSPost2010PropOp33
 70
     1
102
RTVSPost2010Prop34
280
     0
102
RTVSPost2010PropOp34
 70
     1
102
RTVSPost2010Prop35
280
     0
102
RTVSPost2010PropOp35
 70
     1
102
RTVSPost2010Prop36
280
     0
102
RTVSPost2010PropOp36
 70
     1
102
RTVSPost2010Prop37
 90
       50
102
RTVSPost2010PropOp37
 70
     0
102
RTVSPost2010Prop38
140
0.0
102
RTVSPost2010PropOp38
 70
     0
102
RTVSPost2010Prop39
140
1.0
102
RTVSPost2010PropOp39
 70
     0
102
RTVSPost2010Prop40
 90
        0
102
RTVSPost2010PropOp40
 70
     0
102
RTVSPost2010Prop41ColorIndex
 90
       18
102
RTVSPost2010Prop41ColorRGB
 90
        0
102
RTVSPost2010PropOp41
 70
     0
102
RTVSPost2010Prop42
 90
       50
102
RTVSPost2010PropOp42
 70
     0
102
RTVSPost2010Prop43
 90
        3
102
RTVSPost2010PropOp43
 70
     0
102
RTVSPost2010Prop44ColorIndex
 90
        5
102
RTVSPost2010Prop44ColorRGB
 90
      255
102
RTVSPost2010PropOp44
 70
     0
102
RTVSPost2010Prop45
280
     0
102
RTVSPost2010PropOp45
 70
     1
102
RTVSPost2010Prop46
 90
       50
102
RTVSPost2010PropOp46
 70
     0
102
RTVSPost2010Prop47
 90
       50
102
RTVSPost2010PropOp47
 70
     0
102
RTVSPost2010Prop48
 90
       50
102
RTVSPost2010PropOp48
 70
     0
102
RTVSPost2010Prop49
280
     0
102
RTVSPost2010PropOp49
 70
     1
102
RTVSPost2010Prop50
 90
       50
102
RTVSPost2010PropOp50
 70
     0
102
RTVSPost2010Prop51ColorIndex
 90
      256
102
RTVSPost2010Prop51ColorRGB
 90
-16777216
102
RTVSPost2010PropOp51
 70
     0
102
RTVSPost2010Prop52
140
1.0
102
RTVSPost2010PropOp52
 70
     0
102
RTVSPost2010Prop53
 90
        2
102
RTVSPost2010PropOp53
 70
     0
102
RTVSPost2010Prop54
  1
strokes_ogs.tif
102
RTVSPost2010PropOp54
 70
     0
102
RTVSPost2010Prop55
280
     0
102
RTVSPost2010PropOp55
 70
     1
102
RTVSPost2010Prop56
140
1.0
102
RTVSPost2010PropOp56
 70
     0
102
RTVSPost2010Prop57
140
1.0
102
RTVSPost2010PropOp57
 70
     0
102
RTVSPropertyOp0
 70
     0
102
RTVSPropertyOp1
 70
     0
102
RTVSPropertyOp2
 70
     0
102
RTVSPropertyOp3
 70
     0
102
RTVSPropertyOp4
 70
     0
102
RTVSPropertyOp5
 70
     0
102
RTVSPropertyOp6
 70
     0
102
RTVSPropertyOp7
 70
     0
102
RTVSPropertyOp8
 70
     0
102
RTVSPropertyOp9
 70
     0
102
RTVSPropertyOp10
 70
     0
102
RTVSPropertyOp11
 70
     0
102
RTVSPropertyOp12
 70
     0
102
RTVSPropertyOp13
 70
     0
102
RTVSPropertyOp14
 70
     2
102
RTVSPropertyOp15
 70
     0
102
RTVSPropertyOp16
 70
     0
102
RTVSPropertyOp17
 70
     0
102
RTVSPropertyOp18
 70
     0
102
RTVSPropertyOp19
 70
     0
102
RTVSPropertyOp20
 70
     0
102
RTVSPropertyOp21
 70
     0
102
RTVSPropertyOp22
 70
     0
102
RTVSPropertyOp23
 70
     0
102
RTVSPropertyOp24
 70
     0
102
RTVSPropertyOp25
 70
     0
102
RTVSPropertyOp26
 70
     0
102
RTVSPropertyOp27
 70
     0
102
RTVSPropertyOp28
 70
     1
102
RTVSPropertyOp29
 70
     1
102
RTVSPropertyOp30
 70
     1
102
RTVSPropertyOp31
 70
     1
102
RTVSPropertyOp32
 70
     1
102
RTVSPropertyOp33
 70
     1
102
RTVSPropertyOp34
 70
     1
102
RTVSPropertyOp35
 70
     1
102
RTVSPropertyOp36
 70
     1
102
RTVSPropertyOp37
 70
     0
102
RTVSPropertyOp38
 70
     0
102
RTVSPropertyOp39
 70
     0
102
RTVSPropertyOp40
 70
     0
102
RTVSPropertyOp41
 70
     0
102
RTVSPropertyOp42
 70
     0
102
RTVSPropertyOp43
 70
     0
102
RTVSPropertyOp44
 70
     0
102
RTVSPropertyOp45
 70
     1
102
RTVSPropertyOp46
 70
     0
102
RTVSPropertyOp47
 70
     0
102
RTVSPropertyOp48
 70
     0
102
RTVSPropertyOp49
 70
     1
102
RTVSPropertyOp50
 70
     0
102
RTVSPropertyOp51
 70
     0
102
RTVSPropertyOp52
 70
     0
102
RTVSPropertyOp53
 70
     0
102
RTVSPropertyOp54
 70
     0
102
RTVSPropertyOp55
 70
     1
102
RTVSPropertyOp56
 70
     0
102
RTVSPropertyOp57
 70
     0
102
RTVSPropertyOp58
 70
     0
102
RTVSPropertyOp59
 70
     0
102
RTVSPropertyOp60
 70
     0
102
RTVSPropertyOp61
 70
     0
102
RTVSPropertyOp62
 70
     0
  0
XRECORD
  5
25BD
102
{ACAD_REACTORS
330
25BC
102
}
330
25BC
100
AcDbXrecord
280
     1
102
RTVSPost2010Prop28
280
     0
102
RTVSPost2010PropOp28
 70
     1
102
RTVSPost2010Prop29
280
     1
102
RTVSPost2010PropOp29
 70
     1
102
RTVSPost2010Prop30
280
     1
102
RTVSPost2010PropOp30
 70
     1
102
RTVSPost2010Prop31
280
     0
102
RTVSPost2010PropOp31
 70
     1
102
RTVSPost2010Prop32
280
     0
102
RTVSPost2010PropOp32
 70
     1
102
RTVSPost2010Prop33
280
     0
102
RTVSPost2010PropOp33
 70
     1
102
RTVSPost2010Prop34
280
     0
102
RTVSPost2010PropOp34
 70
     1
102
RTVSPost2010Prop35
280
     0
102
RTVSPost2010PropOp35
 70
     1
102
RTVSPost2010Prop36
280
     0
102
RTVSPost2010PropOp36
 70
     1
102
RTVSPost2010Prop37
 90
       50
102
RTVSPost2010PropOp37
 70
     1
102
RTVSPost2010Prop38
140
0.0
102
RTVSPost2010PropOp38
 70
     1
102
RTVSPost2010Prop39
140
1.0
102
RTVSPost2010PropOp39
 70
     1
102
RTVSPost2010Prop40
 90
        0
102
RTVSPost2010PropOp40
 70
     1
102
RTVSPost2010Prop41ColorIndex
 90
       18
102
RTVSPost2010Prop41ColorRGB
 90
        0
102
RTVSPost2010PropOp41
 70
     1
102
RTVSPost2010Prop42
 90
       50
102
RTVSPost2010PropOp42
 70
     1
102
RTVSPost2010Prop43
 90
        3
102
RTVSPost2010PropOp43
 70
     1
102
RTVSPost2010Prop44ColorIndex
 90
        5
102
RTVSPost2010Prop44ColorRGB
 90
      255
102
RTVSPost2010PropOp44
 70
     1
102
RTVSPost2010Prop45
280
     0
102
RTVSPost2010PropOp45
 70
     1
102
RTVSPost2010Prop46
 90
       50
102
RTVSPost2010PropOp46
 70
     1
102
RTVSPost2010Prop47
 90
       50
102
RTVSPost2010PropOp47
 70
     1
102
RTVSPost2010Prop48
 90
       50
102
RTVSPost2010PropOp48
 70
     1
102
RTVSPost2010Prop49
280
     0
102
RTVSPost2010PropOp49
 70
     1
102
RTVSPost2010Prop50
 90
       50
102
RTVSPost2010PropOp50
 70
     1
102
RTVSPost2010Prop51ColorIndex
 90
      256
102
RTVSPost2010Prop51ColorRGB
 90
-16777216
102
RTVSPost2010PropOp51
 70
     0
102
RTVSPost2010Prop52
140
1.0
102
RTVSPost2010PropOp52
 70
     0
102
RTVSPost2010Prop53
 90
        2
102
RTVSPost2010PropOp53
 70
     1
102
RTVSPost2010Prop54
  1
strokes_ogs.tif
102
RTVSPost2010PropOp54
 70
     1
102
RTVSPost2010Prop55
280
     0
102
RTVSPost2010PropOp55
 70
     1
102
RTVSPost2010Prop56
140
1.0
102
RTVSPost2010PropOp56
 70
     1
102
RTVSPost2010Prop57
140
1.0
102
RTVSPost2010PropOp57
 70
     1
102
RTVSPropertyOp0
 70
     1
102
RTVSPropertyOp1
 70
     1
102
RTVSPropertyOp2
 70
     1
102
RTVSPropertyOp3
 70
     1
102
RTVSPropertyOp4
 70
     1
102
RTVSPropertyOp5
 70
     1
102
RTVSPropertyOp6
 70
     1
102
RTVSPropertyOp7
 70
     1
102
RTVSPropertyOp8
 70
     1
102
RTVSPropertyOp9
 70
     1
102
RTVSPropertyOp10
 70
     1
102
RTVSPropertyOp11
 70
     1
102
RTVSPropertyOp12
 70
     1
102
RTVSPropertyOp13
 70
     1
102
RTVSPropertyOp14
 70
     1
102
RTVSPropertyOp15
 70
     1
102
RTVSPropertyOp16
 70
     1
102
RTVSPropertyOp17
 70
     1
102
RTVSPropertyOp18
 70
     1
102
RTVSPropertyOp19
 70
     1
102
RTVSPropertyOp20
 70
     1
102
RTVSPropertyOp21
 70
     1
102
RTVSPropertyOp22
 70
     1
102
RTVSPropertyOp23
 70
     1
102
RTVSPropertyOp24
 70
     1
102
RTVSPropertyOp25
 70
     1
102
RTVSPropertyOp26
 70
     1
102
RTVSPropertyOp27
 70
     1
102
RTVSPropertyOp28
 70
     1
102
RTVSPropertyOp29
 70
     1
102
RTVSPropertyOp30
 70
     1
102
RTVSPropertyOp31
 70
     1
102
RTVSPropertyOp32
 70
     1
102
RTVSPropertyOp33
 70
     1
102
RTVSPropertyOp34
 70
     1
102
RTVSPropertyOp35
 70
     1
102
RTVSPropertyOp36
 70
     1
102
RTVSPropertyOp37
 70
     1
102
RTVSPropertyOp38
 70
     1
102
RTVSPropertyOp39
 70
     1
102
RTVSPropertyOp40
 70
     1
102
RTVSPropertyOp41
 70
     1
102
RTVSPropertyOp42
 70
     1
102
RTVSPropertyOp43
 70
     1
102
RTVSPropertyOp44
 70
     1
102
RTVSPropertyOp45
 70
     1
102
RTVSPropertyOp46
 70
     1
102
RTVSPropertyOp47
 70
     1
102
RTVSPropertyOp48
 70
     1
102
RTVSPropertyOp49
 70
     1
102
RTVSPropertyOp50
 70
     1
102
RTVSPropertyOp51
 70
     0
102
RTVSPropertyOp52
 70
     0
102
RTVSPropertyOp53
 70
     1
102
RTVSPropertyOp54
 70
     1
102
RTVSPropertyOp55
 70
     1
102
RTVSPropertyOp56
 70
     1
102
RTVSPropertyOp57
 70
     1
102
RTVSPropertyOp58
 70
     1
102
RTVSPropertyOp59
 70
     1
102
RTVSPropertyOp60
 70
     1
102
RTVSPropertyOp61
 70
     1
102
RTVSPropertyOp62
 70
     1
  0
XRECORD
  5
25A1
102
{ACAD_REACTORS
330
25A0
102
}
330
25A0
100
AcDbXrecord
280
     1
102
RTVSPost2010Prop28
280
     0
102
RTVSPost2010PropOp28
 70
     1
102
RTVSPost2010Prop29
280
     1
102
RTVSPost2010PropOp29
 70
     1
102
RTVSPost2010Prop30
280
     1
102
RTVSPost2010PropOp30
 70
     1
102
RTVSPost2010Prop31
280
     0
102
RTVSPost2010PropOp31
 70
     1
102
RTVSPost2010Prop32
280
     0
102
RTVSPost2010PropOp32
 70
     1
102
RTVSPost2010Prop33
280
     0
102
RTVSPost2010PropOp33
 70
     1
102
RTVSPost2010Prop34
280
     0
102
RTVSPost2010PropOp34
 70
     1
102
RTVSPost2010Prop35
280
     0
102
RTVSPost2010PropOp35
 70
     1
102
RTVSPost2010Prop36
280
     0
102
RTVSPost2010PropOp36
 70
     1
102
RTVSPost2010Prop37
 90
       50
102
RTVSPost2010PropOp37
 70
     1
102
RTVSPost2010Prop38
140
0.0
102
RTVSPost2010PropOp38
 70
     1
102
RTVSPost2010Prop39
140
1.0
102
RTVSPost2010PropOp39
 70
     1
102
RTVSPost2010Prop40
 90
        0
102
RTVSPost2010PropOp40
 70
     1
102
RTVSPost2010Prop41ColorIndex
 90
       18
102
RTVSPost2010Prop41ColorRGB
 90
        0
102
RTVSPost2010PropOp41
 70
     1
102
RTVSPost2010Prop42
 90
       50
102
RTVSPost2010PropOp42
 70
     1
102
RTVSPost2010Prop43
 90
        3
102
RTVSPost2010PropOp43
 70
     1
102
RTVSPost2010Prop44ColorIndex
 90
        5
102
RTVSPost2010Prop44ColorRGB
 90
      255
102
RTVSPost2010PropOp44
 70
     1
102
RTVSPost2010Prop45
280
     0
102
RTVSPost2010PropOp45
 70
     1
102
RTVSPost2010Prop46
 90
       50
102
RTVSPost2010PropOp46
 70
     1
102
RTVSPost2010Prop47
 90
       50
102
RTVSPost2010PropOp47
 70
     1
102
RTVSPost2010Prop48
 90
       50
102
RTVSPost2010PropOp48
 70
     1
102
RTVSPost2010Prop49
280
     0
102
RTVSPost2010PropOp49
 70
     1
102
RTVSPost2010Prop50
 90
       50
102
RTVSPost2010PropOp50
 70
     1
102
RTVSPost2010Prop51ColorIndex
 90
      256
102
RTVSPost2010Prop51ColorRGB
 90
-16777216
102
RTVSPost2010PropOp51
 70
     0
102
RTVSPost2010Prop52
140
1.0
102
RTVSPost2010PropOp52
 70
     0
102
RTVSPost2010Prop53
 90
        2
102
RTVSPost2010PropOp53
 70
     1
102
RTVSPost2010Prop54
  1
strokes_ogs.tif
102
RTVSPost2010PropOp54
 70
     1
102
RTVSPost2010Prop55
280
     0
102
RTVSPost2010PropOp55
 70
     1
102
RTVSPost2010Prop56
140
1.0
102
RTVSPost2010PropOp56
 70
     1
102
RTVSPost2010Prop57
140
1.0
102
RTVSPost2010PropOp57
 70
     1
102
RTVSPropertyOp0
 70
     1
102
RTVSPropertyOp1
 70
     1
102
RTVSPropertyOp2
 70
     1
102
RTVSPropertyOp3
 70
     1
102
RTVSPropertyOp4
 70
     1
102
RTVSPropertyOp5
 70
     1
102
RTVSPropertyOp6
 70
     1
102
RTVSPropertyOp7
 70
     1
102
RTVSPropertyOp8
 70
     1
102
RTVSPropertyOp9
 70
     1
102
RTVSPropertyOp10
 70
     1
102
RTVSPropertyOp11
 70
     1
102
RTVSPropertyOp12
 70
     1
102
RTVSPropertyOp13
 70
     1
102
RTVSPropertyOp14
 70
     1
102
RTVSPropertyOp15
 70
     1
102
RTVSPropertyOp16
 70
     1
102
RTVSPropertyOp17
 70
     1
102
RTVSPropertyOp18
 70
     1
102
RTVSPropertyOp19
 70
     1
102
RTVSPropertyOp20
 70
     1
102
RTVSPropertyOp21
 70
     1
102
RTVSPropertyOp22
 70
     1
102
RTVSPropertyOp23
 70
     1
102
RTVSPropertyOp24
 70
     1
102
RTVSPropertyOp25
 70
     1
102
RTVSPropertyOp26
 70
     1
102
RTVSPropertyOp27
 70
     1
102
RTVSPropertyOp28
 70
     1
102
RTVSPropertyOp29
 70
     1
102
RTVSPropertyOp30
 70
     1
102
RTVSPropertyOp31
 70
     1
102
RTVSPropertyOp32
 70
     1
102
RTVSPropertyOp33
 70
     1
102
RTVSPropertyOp34
 70
     1
102
RTVSPropertyOp35
 70
     1
102
RTVSPropertyOp36
 70
     1
102
RTVSPropertyOp37
 70
     1
102
RTVSPropertyOp38
 70
     1
102
RTVSPropertyOp39
 70
     1
102
RTVSPropertyOp40
 70
     1
102
RTVSPropertyOp41
 70
     1
102
RTVSPropertyOp42
 70
     1
102
RTVSPropertyOp43
 70
     1
102
RTVSPropertyOp44
 70
     1
102
RTVSPropertyOp45
 70
     1
102
RTVSPropertyOp46
 70
     1
102
RTVSPropertyOp47
 70
     1
102
RTVSPropertyOp48
 70
     1
102
RTVSPropertyOp49
 70
     1
102
RTVSPropertyOp50
 70
     1
102
RTVSPropertyOp51
 70
     0
102
RTVSPropertyOp52
 70
     0
102
RTVSPropertyOp53
 70
     1
102
RTVSPropertyOp54
 70
     1
102
RTVSPropertyOp55
 70
     1
102
RTVSPropertyOp56
 70
     1
102
RTVSPropertyOp57
 70
     1
102
RTVSPropertyOp58
 70
     1
102
RTVSPropertyOp59
 70
     1
102
RTVSPropertyOp60
 70
     1
102
RTVSPropertyOp61
 70
     1
102
RTVSPropertyOp62
 70
     1
  0
XRECORD
  5
25A3
102
{ACAD_REACTORS
330
25A2
102
}
330
25A2
100
AcDbXrecord
280
     1
102
RTVSPost2010Prop28
280
     0
102
RTVSPost2010PropOp28
 70
     1
102
RTVSPost2010Prop29
280
     1
102
RTVSPost2010PropOp29
 70
     1
102
RTVSPost2010Prop30
280
     1
102
RTVSPost2010PropOp30
 70
     1
102
RTVSPost2010Prop31
280
     0
102
RTVSPost2010PropOp31
 70
     1
102
RTVSPost2010Prop32
280
     0
102
RTVSPost2010PropOp32
 70
     1
102
RTVSPost2010Prop33
280
     0
102
RTVSPost2010PropOp33
 70
     1
102
RTVSPost2010Prop34
280
     0
102
RTVSPost2010PropOp34
 70
     1
102
RTVSPost2010Prop35
280
     0
102
RTVSPost2010PropOp35
 70
     1
102
RTVSPost2010Prop36
280
     0
102
RTVSPost2010PropOp36
 70
     1
102
RTVSPost2010Prop37
 90
       50
102
RTVSPost2010PropOp37
 70
     1
102
RTVSPost2010Prop38
140
0.0
102
RTVSPost2010PropOp38
 70
     1
102
RTVSPost2010Prop39
140
1.0
102
RTVSPost2010PropOp39
 70
     1
102
RTVSPost2010Prop40
 90
        0
102
RTVSPost2010PropOp40
 70
     1
102
RTVSPost2010Prop41ColorIndex
 90
       18
102
RTVSPost2010Prop41ColorRGB
 90
        0
102
RTVSPost2010PropOp41
 70
     1
102
RTVSPost2010Prop42
 90
       50
102
RTVSPost2010PropOp42
 70
     1
102
RTVSPost2010Prop43
 90
        3
102
RTVSPost2010PropOp43
 70
     1
102
RTVSPost2010Prop44ColorIndex
 90
        5
102
RTVSPost2010Prop44ColorRGB
 90
      255
102
RTVSPost2010PropOp44
 70
     1
102
RTVSPost2010Prop45
280
     0
102
RTVSPost2010PropOp45
 70
     1
102
RTVSPost2010Prop46
 90
       50
102
RTVSPost2010PropOp46
 70
     1
102
RTVSPost2010Prop47
 90
       50
102
RTVSPost2010PropOp47
 70
     1
102
RTVSPost2010Prop48
 90
       50
102
RTVSPost2010PropOp48
 70
     1
102
RTVSPost2010Prop49
280
     0
102
RTVSPost2010PropOp49
 70
     1
102
RTVSPost2010Prop50
 90
       50
102
RTVSPost2010PropOp50
 70
     1
102
RTVSPost2010Prop51ColorIndex
 90
      256
102
RTVSPost2010Prop51ColorRGB
 90
-16777216
102
RTVSPost2010PropOp51
 70
     0
102
RTVSPost2010Prop52
140
1.0
102
RTVSPost2010PropOp52
 70
     0
102
RTVSPost2010Prop53
 90
        2
102
RTVSPost2010PropOp53
 70
     1
102
RTVSPost2010Prop54
  1
strokes_ogs.tif
102
RTVSPost2010PropOp54
 70
     1
102
RTVSPost2010Prop55
280
     0
102
RTVSPost2010PropOp55
 70
     1
102
RTVSPost2010Prop56
140
1.0
102
RTVSPost2010PropOp56
 70
     1
102
RTVSPost2010Prop57
140
1.0
102
RTVSPost2010PropOp57
 70
     1
102
RTVSPropertyOp0
 70
     1
102
RTVSPropertyOp1
 70
     1
102
RTVSPropertyOp2
 70
     1
102
RTVSPropertyOp3
 70
     1
102
RTVSPropertyOp4
 70
     1
102
RTVSPropertyOp5
 70
     1
102
RTVSPropertyOp6
 70
     1
102
RTVSPropertyOp7
 70
     1
102
RTVSPropertyOp8
 70
     1
102
RTVSPropertyOp9
 70
     1
102
RTVSPropertyOp10
 70
     1
102
RTVSPropertyOp11
 70
     1
102
RTVSPropertyOp12
 70
     1
102
RTVSPropertyOp13
 70
     1
102
RTVSPropertyOp14
 70
     1
102
RTVSPropertyOp15
 70
     1
102
RTVSPropertyOp16
 70
     1
102
RTVSPropertyOp17
 70
     1
102
RTVSPropertyOp18
 70
     1
102
RTVSPropertyOp19
 70
     1
102
RTVSPropertyOp20
 70
     1
102
RTVSPropertyOp21
 70
     1
102
RTVSPropertyOp22
 70
     1
102
RTVSPropertyOp23
 70
     1
102
RTVSPropertyOp24
 70
     1
102
RTVSPropertyOp25
 70
     1
102
RTVSPropertyOp26
 70
     1
102
RTVSPropertyOp27
 70
     1
102
RTVSPropertyOp28
 70
     1
102
RTVSPropertyOp29
 70
     1
102
RTVSPropertyOp30
 70
     1
102
RTVSPropertyOp31
 70
     1
102
RTVSPropertyOp32
 70
     1
102
RTVSPropertyOp33
 70
     1
102
RTVSPropertyOp34
 70
     1
102
RTVSPropertyOp35
 70
     1
102
RTVSPropertyOp36
 70
     1
102
RTVSPropertyOp37
 70
     1
102
RTVSPropertyOp38
 70
     1
102
RTVSPropertyOp39
 70
     1
102
RTVSPropertyOp40
 70
     1
102
RTVSPropertyOp41
 70
     1
102
RTVSPropertyOp42
 70
     1
102
RTVSPropertyOp43
 70
     1
102
RTVSPropertyOp44
 70
     1
102
RTVSPropertyOp45
 70
     1
102
RTVSPropertyOp46
 70
     1
102
RTVSPropertyOp47
 70
     1
102
RTVSPropertyOp48
 70
     1
102
RTVSPropertyOp49
 70
     1
102
RTVSPropertyOp50
 70
     1
102
RTVSPropertyOp51
 70
     0
102
RTVSPropertyOp52
 70
     0
102
RTVSPropertyOp53
 70
     1
102
RTVSPropertyOp54
 70
     1
102
RTVSPropertyOp55
 70
     1
102
RTVSPropertyOp56
 70
     1
102
RTVSPropertyOp57
 70
     1
102
RTVSPropertyOp58
 70
     1
102
RTVSPropertyOp59
 70
     1
102
RTVSPropertyOp60
 70
     1
102
RTVSPropertyOp61
 70
     1
102
RTVSPropertyOp62
 70
     1
  0
XRECORD
  5
25A5
102
{ACAD_REACTORS
330
25A4
102
}
330
25A4
100
AcDbXrecord
280
     1
102
RTVSPost2010Prop28
280
     0
102
RTVSPost2010PropOp28
 70
     1
102
RTVSPost2010Prop29
280
     1
102
RTVSPost2010PropOp29
 70
     1
102
RTVSPost2010Prop30
280
     1
102
RTVSPost2010PropOp30
 70
     1
102
RTVSPost2010Prop31
280
     0
102
RTVSPost2010PropOp31
 70
     1
102
RTVSPost2010Prop32
280
     0
102
RTVSPost2010PropOp32
 70
     1
102
RTVSPost2010Prop33
280
     0
102
RTVSPost2010PropOp33
 70
     1
102
RTVSPost2010Prop34
280
     0
102
RTVSPost2010PropOp34
 70
     1
102
RTVSPost2010Prop35
280
     0
102
RTVSPost2010PropOp35
 70
     1
102
RTVSPost2010Prop36
280
     0
102
RTVSPost2010PropOp36
 70
     1
102
RTVSPost2010Prop37
 90
       50
102
RTVSPost2010PropOp37
 70
     1
102
RTVSPost2010Prop38
140
0.0
102
RTVSPost2010PropOp38
 70
     1
102
RTVSPost2010Prop39
140
1.0
102
RTVSPost2010PropOp39
 70
     1
102
RTVSPost2010Prop40
 90
        0
102
RTVSPost2010PropOp40
 70
     1
102
RTVSPost2010Prop41ColorIndex
 90
       18
102
RTVSPost2010Prop41ColorRGB
 90
        0
102
RTVSPost2010PropOp41
 70
     1
102
RTVSPost2010Prop42
 90
       50
102
RTVSPost2010PropOp42
 70
     1
102
RTVSPost2010Prop43
 90
        3
102
RTVSPost2010PropOp43
 70
     1
102
RTVSPost2010Prop44ColorIndex
 90
        5
102
RTVSPost2010Prop44ColorRGB
 90
      255
102
RTVSPost2010PropOp44
 70
     1
102
RTVSPost2010Prop45
280
     0
102
RTVSPost2010PropOp45
 70
     1
102
RTVSPost2010Prop46
 90
       50
102
RTVSPost2010PropOp46
 70
     1
102
RTVSPost2010Prop47
 90
       50
102
RTVSPost2010PropOp47
 70
     1
102
RTVSPost2010Prop48
 90
       50
102
RTVSPost2010PropOp48
 70
     1
102
RTVSPost2010Prop49
280
     0
102
RTVSPost2010PropOp49
 70
     1
102
RTVSPost2010Prop50
 90
       50
102
RTVSPost2010PropOp50
 70
     1
102
RTVSPost2010Prop51ColorIndex
 90
      256
102
RTVSPost2010Prop51ColorRGB
 90
-16777216
102
RTVSPost2010PropOp51
 70
     0
102
RTVSPost2010Prop52
140
1.0
102
RTVSPost2010PropOp52
 70
     0
102
RTVSPost2010Prop53
 90
        2
102
RTVSPost2010PropOp53
 70
     1
102
RTVSPost2010Prop54
  1
strokes_ogs.tif
102
RTVSPost2010PropOp54
 70
     1
102
RTVSPost2010Prop55
280
     0
102
RTVSPost2010PropOp55
 70
     1
102
RTVSPost2010Prop56
140
1.0
102
RTVSPost2010PropOp56
 70
     1
102
RTVSPost2010Prop57
140
1.0
102
RTVSPost2010PropOp57
 70
     1
102
RTVSPropertyOp0
 70
     1
102
RTVSPropertyOp1
 70
     1
102
RTVSPropertyOp2
 70
     1
102
RTVSPropertyOp3
 70
     1
102
RTVSPropertyOp4
 70
     1
102
RTVSPropertyOp5
 70
     1
102
RTVSPropertyOp6
 70
     1
102
RTVSPropertyOp7
 70
     1
102
RTVSPropertyOp8
 70
     1
102
RTVSPropertyOp9
 70
     1
102
RTVSPropertyOp10
 70
     1
102
RTVSPropertyOp11
 70
     1
102
RTVSPropertyOp12
 70
     1
102
RTVSPropertyOp13
 70
     1
102
RTVSPropertyOp14
 70
     1
102
RTVSPropertyOp15
 70
     1
102
RTVSPropertyOp16
 70
     1
102
RTVSPropertyOp17
 70
     1
102
RTVSPropertyOp18
 70
     1
102
RTVSPropertyOp19
 70
     1
102
RTVSPropertyOp20
 70
     1
102
RTVSPropertyOp21
 70
     1
102
RTVSPropertyOp22
 70
     1
102
RTVSPropertyOp23
 70
     1
102
RTVSPropertyOp24
 70
     1
102
RTVSPropertyOp25
 70
     1
102
RTVSPropertyOp26
 70
     1
102
RTVSPropertyOp27
 70
     1
102
RTVSPropertyOp28
 70
     1
102
RTVSPropertyOp29
 70
     1
102
RTVSPropertyOp30
 70
     1
102
RTVSPropertyOp31
 70
     1
102
RTVSPropertyOp32
 70
     1
102
RTVSPropertyOp33
 70
     1
102
RTVSPropertyOp34
 70
     1
102
RTVSPropertyOp35
 70
     1
102
RTVSPropertyOp36
 70
     1
102
RTVSPropertyOp37
 70
     1
102
RTVSPropertyOp38
 70
     1
102
RTVSPropertyOp39
 70
     1
102
RTVSPropertyOp40
 70
     1
102
RTVSPropertyOp41
 70
     1
102
RTVSPropertyOp42
 70
     1
102
RTVSPropertyOp43
 70
     1
102
RTVSPropertyOp44
 70
     1
102
RTVSPropertyOp45
 70
     1
102
RTVSPropertyOp46
 70
     1
102
RTVSPropertyOp47
 70
     1
102
RTVSPropertyOp48
 70
     1
102
RTVSPropertyOp49
 70
     1
102
RTVSPropertyOp50
 70
     1
102
RTVSPropertyOp51
 70
     0
102
RTVSPropertyOp52
 70
     0
102
RTVSPropertyOp53
 70
     1
102
RTVSPropertyOp54
 70
     1
102
RTVSPropertyOp55
 70
     1
102
RTVSPropertyOp56
 70
     1
102
RTVSPropertyOp57
 70
     1
102
RTVSPropertyOp58
 70
     1
102
RTVSPropertyOp59
 70
     1
102
RTVSPropertyOp60
 70
     1
102
RTVSPropertyOp61
 70
     1
102
RTVSPropertyOp62
 70
     1
  0
XRECORD
  5
25A7
102
{ACAD_REACTORS
330
25A6
102
}
330
25A6
100
AcDbXrecord
280
     1
102
RTVSPost2010Prop28
280
     0
102
RTVSPost2010PropOp28
 70
     1
102
RTVSPost2010Prop29
280
     1
102
RTVSPost2010PropOp29
 70
     1
102
RTVSPost2010Prop30
280
     1
102
RTVSPost2010PropOp30
 70
     1
102
RTVSPost2010Prop31
280
     0
102
RTVSPost2010PropOp31
 70
     1
102
RTVSPost2010Prop32
280
     0
102
RTVSPost2010PropOp32
 70
     1
102
RTVSPost2010Prop33
280
     0
102
RTVSPost2010PropOp33
 70
     1
102
RTVSPost2010Prop34
280
     0
102
RTVSPost2010PropOp34
 70
     1
102
RTVSPost2010Prop35
280
     0
102
RTVSPost2010PropOp35
 70
     1
102
RTVSPost2010Prop36
280
     0
102
RTVSPost2010PropOp36
 70
     1
102
RTVSPost2010Prop37
 90
       50
102
RTVSPost2010PropOp37
 70
     1
102
RTVSPost2010Prop38
140
0.0
102
RTVSPost2010PropOp38
 70
     1
102
RTVSPost2010Prop39
140
1.0
102
RTVSPost2010PropOp39
 70
     1
102
RTVSPost2010Prop40
 90
        0
102
RTVSPost2010PropOp40
 70
     1
102
RTVSPost2010Prop41ColorIndex
 90
       18
102
RTVSPost2010Prop41ColorRGB
 90
        0
102
RTVSPost2010PropOp41
 70
     1
102
RTVSPost2010Prop42
 90
       50
102
RTVSPost2010PropOp42
 70
     1
102
RTVSPost2010Prop43
 90
        3
102
RTVSPost2010PropOp43
 70
     1
102
RTVSPost2010Prop44ColorIndex
 90
        5
102
RTVSPost2010Prop44ColorRGB
 90
      255
102
RTVSPost2010PropOp44
 70
     1
102
RTVSPost2010Prop45
280
     0
102
RTVSPost2010PropOp45
 70
     1
102
RTVSPost2010Prop46
 90
       50
102
RTVSPost2010PropOp46
 70
     1
102
RTVSPost2010Prop47
 90
       50
102
RTVSPost2010PropOp47
 70
     1
102
RTVSPost2010Prop48
 90
       50
102
RTVSPost2010PropOp48
 70
     1
102
RTVSPost2010Prop49
280
     0
102
RTVSPost2010PropOp49
 70
     1
102
RTVSPost2010Prop50
 90
       50
102
RTVSPost2010PropOp50
 70
     1
102
RTVSPost2010Prop51ColorIndex
 90
      256
102
RTVSPost2010Prop51ColorRGB
 90
-16777216
102
RTVSPost2010PropOp51
 70
     0
102
RTVSPost2010Prop52
140
1.0
102
RTVSPost2010PropOp52
 70
     0
102
RTVSPost2010Prop53
 90
        2
102
RTVSPost2010PropOp53
 70
     1
102
RTVSPost2010Prop54
  1
strokes_ogs.tif
102
RTVSPost2010PropOp54
 70
     1
102
RTVSPost2010Prop55
280
     0
102
RTVSPost2010PropOp55
 70
     1
102
RTVSPost2010Prop56
140
1.0
102
RTVSPost2010PropOp56
 70
     1
102
RTVSPost2010Prop57
140
1.0
102
RTVSPost2010PropOp57
 70
     1
102
RTVSPropertyOp0
 70
     1
102
RTVSPropertyOp1
 70
     1
102
RTVSPropertyOp2
 70
     1
102
RTVSPropertyOp3
 70
     1
102
RTVSPropertyOp4
 70
     1
102
RTVSPropertyOp5
 70
     1
102
RTVSPropertyOp6
 70
     1
102
RTVSPropertyOp7
 70
     1
102
RTVSPropertyOp8
 70
     1
102
RTVSPropertyOp9
 70
     1
102
RTVSPropertyOp10
 70
     1
102
RTVSPropertyOp11
 70
     1
102
RTVSPropertyOp12
 70
     1
102
RTVSPropertyOp13
 70
     1
102
RTVSPropertyOp14
 70
     1
102
RTVSPropertyOp15
 70
     1
102
RTVSPropertyOp16
 70
     1
102
RTVSPropertyOp17
 70
     1
102
RTVSPropertyOp18
 70
     1
102
RTVSPropertyOp19
 70
     1
102
RTVSPropertyOp20
 70
     1
102
RTVSPropertyOp21
 70
     1
102
RTVSPropertyOp22
 70
     1
102
RTVSPropertyOp23
 70
     1
102
RTVSPropertyOp24
 70
     1
102
RTVSPropertyOp25
 70
     1
102
RTVSPropertyOp26
 70
     1
102
RTVSPropertyOp27
 70
     1
102
RTVSPropertyOp28
 70
     1
102
RTVSPropertyOp29
 70
     1
102
RTVSPropertyOp30
 70
     1
102
RTVSPropertyOp31
 70
     1
102
RTVSPropertyOp32
 70
     1
102
RTVSPropertyOp33
 70
     1
102
RTVSPropertyOp34
 70
     1
102
RTVSPropertyOp35
 70
     1
102
RTVSPropertyOp36
 70
     1
102
RTVSPropertyOp37
 70
     1
102
RTVSPropertyOp38
 70
     1
102
RTVSPropertyOp39
 70
     1
102
RTVSPropertyOp40
 70
     1
102
RTVSPropertyOp41
 70
     1
102
RTVSPropertyOp42
 70
     1
102
RTVSPropertyOp43
 70
     1
102
RTVSPropertyOp44
 70
     1
102
RTVSPropertyOp45
 70
     1
102
RTVSPropertyOp46
 70
     1
102
RTVSPropertyOp47
 70
     1
102
RTVSPropertyOp48
 70
     1
102
RTVSPropertyOp49
 70
     1
102
RTVSPropertyOp50
 70
     1
102
RTVSPropertyOp51
 70
     0
102
RTVSPropertyOp52
 70
     0
102
RTVSPropertyOp53
 70
     1
102
RTVSPropertyOp54
 70
     1
102
RTVSPropertyOp55
 70
     1
102
RTVSPropertyOp56
 70
     1
102
RTVSPropertyOp57
 70
     1
102
RTVSPropertyOp58
 70
     1
102
RTVSPropertyOp59
 70
     1
102
RTVSPropertyOp60
 70
     1
102
RTVSPropertyOp61
 70
     1
102
RTVSPropertyOp62
 70
     1
  0
XRECORD
  5
25AF
102
{ACAD_REACTORS
330
25AE
102
}
330
25AE
100
AcDbXrecord
280
     1
102
RTVSPost2010Prop28
280
     0
102
RTVSPost2010PropOp28
 70
     1
102
RTVSPost2010Prop29
280
     1
102
RTVSPost2010PropOp29
 70
     1
102
RTVSPost2010Prop30
280
     1
102
RTVSPost2010PropOp30
 70
     1
102
RTVSPost2010Prop31
280
     0
102
RTVSPost2010PropOp31
 70
     1
102
RTVSPost2010Prop32
280
     0
102
RTVSPost2010PropOp32
 70
     1
102
RTVSPost2010Prop33
280
     0
102
RTVSPost2010PropOp33
 70
     1
102
RTVSPost2010Prop34
280
     0
102
RTVSPost2010PropOp34
 70
     1
102
RTVSPost2010Prop35
280
     0
102
RTVSPost2010PropOp35
 70
     1
102
RTVSPost2010Prop36
280
     0
102
RTVSPost2010PropOp36
 70
     1
102
RTVSPost2010Prop37
 90
       50
102
RTVSPost2010PropOp37
 70
     1
102
RTVSPost2010Prop38
140
0.0
102
RTVSPost2010PropOp38
 70
     1
102
RTVSPost2010Prop39
140
1.0
102
RTVSPost2010PropOp39
 70
     1
102
RTVSPost2010Prop40
 90
        0
102
RTVSPost2010PropOp40
 70
     1
102
RTVSPost2010Prop41ColorIndex
 90
       18
102
RTVSPost2010Prop41ColorRGB
 90
        0
102
RTVSPost2010PropOp41
 70
     1
102
RTVSPost2010Prop42
 90
       50
102
RTVSPost2010PropOp42
 70
     1
102
RTVSPost2010Prop43
 90
        3
102
RTVSPost2010PropOp43
 70
     1
102
RTVSPost2010Prop44ColorIndex
 90
        5
102
RTVSPost2010Prop44ColorRGB
 90
      255
102
RTVSPost2010PropOp44
 70
     1
102
RTVSPost2010Prop45
280
     0
102
RTVSPost2010PropOp45
 70
     1
102
RTVSPost2010Prop46
 90
       50
102
RTVSPost2010PropOp46
 70
     1
102
RTVSPost2010Prop47
 90
       50
102
RTVSPost2010PropOp47
 70
     1
102
RTVSPost2010Prop48
 90
       50
102
RTVSPost2010PropOp48
 70
     1
102
RTVSPost2010Prop49
280
     0
102
RTVSPost2010PropOp49
 70
     1
102
RTVSPost2010Prop50
 90
       50
102
RTVSPost2010PropOp50
 70
     1
102
RTVSPost2010Prop51ColorIndex
 90
      256
102
RTVSPost2010Prop51ColorRGB
 90
-16777216
102
RTVSPost2010PropOp51
 70
     0
102
RTVSPost2010Prop52
140
1.0
102
RTVSPost2010PropOp52
 70
     0
102
RTVSPost2010Prop53
 90
        2
102
RTVSPost2010PropOp53
 70
     1
102
RTVSPost2010Prop54
  1
strokes_ogs.tif
102
RTVSPost2010PropOp54
 70
     1
102
RTVSPost2010Prop55
280
     0
102
RTVSPost2010PropOp55
 70
     1
102
RTVSPost2010Prop56
140
1.0
102
RTVSPost2010PropOp56
 70
     1
102
RTVSPost2010Prop57
140
1.0
102
RTVSPost2010PropOp57
 70
     1
102
RTVSPropertyOp0
 70
     1
102
RTVSPropertyOp1
 70
     1
102
RTVSPropertyOp2
 70
     1
102
RTVSPropertyOp3
 70
     1
102
RTVSPropertyOp4
 70
     1
102
RTVSPropertyOp5
 70
     1
102
RTVSPropertyOp6
 70
     1
102
RTVSPropertyOp7
 70
     1
102
RTVSPropertyOp8
 70
     1
102
RTVSPropertyOp9
 70
     1
102
RTVSPropertyOp10
 70
     1
102
RTVSPropertyOp11
 70
     1
102
RTVSPropertyOp12
 70
     1
102
RTVSPropertyOp13
 70
     1
102
RTVSPropertyOp14
 70
     1
102
RTVSPropertyOp15
 70
     1
102
RTVSPropertyOp16
 70
     1
102
RTVSPropertyOp17
 70
     1
102
RTVSPropertyOp18
 70
     1
102
RTVSPropertyOp19
 70
     1
102
RTVSPropertyOp20
 70
     1
102
RTVSPropertyOp21
 70
     1
102
RTVSPropertyOp22
 70
     1
102
RTVSPropertyOp23
 70
     1
102
RTVSPropertyOp24
 70
     1
102
RTVSPropertyOp25
 70
     1
102
RTVSPropertyOp26
 70
     1
102
RTVSPropertyOp27
 70
     1
102
RTVSPropertyOp28
 70
     1
102
RTVSPropertyOp29
 70
     1
102
RTVSPropertyOp30
 70
     1
102
RTVSPropertyOp31
 70
     1
102
RTVSPropertyOp32
 70
     1
102
RTVSPropertyOp33
 70
     1
102
RTVSPropertyOp34
 70
     1
102
RTVSPropertyOp35
 70
     1
102
RTVSPropertyOp36
 70
     1
102
RTVSPropertyOp37
 70
     1
102
RTVSPropertyOp38
 70
     1
102
RTVSPropertyOp39
 70
     1
102
RTVSPropertyOp40
 70
     1
102
RTVSPropertyOp41
 70
     1
102
RTVSPropertyOp42
 70
     1
102
RTVSPropertyOp43
 70
     1
102
RTVSPropertyOp44
 70
     1
102
RTVSPropertyOp45
 70
     1
102
RTVSPropertyOp46
 70
     1
102
RTVSPropertyOp47
 70
     1
102
RTVSPropertyOp48
 70
     1
102
RTVSPropertyOp49
 70
     1
102
RTVSPropertyOp50
 70
     1
102
RTVSPropertyOp51
 70
     0
102
RTVSPropertyOp52
 70
     0
102
RTVSPropertyOp53
 70
     1
102
RTVSPropertyOp54
 70
     1
102
RTVSPropertyOp55
 70
     1
102
RTVSPropertyOp56
 70
     1
102
RTVSPropertyOp57
 70
     1
102
RTVSPropertyOp58
 70
     1
102
RTVSPropertyOp59
 70
     1
102
RTVSPropertyOp60
 70
     1
102
RTVSPropertyOp61
 70
     1
102
RTVSPropertyOp62
 70
     1
  0
XRECORD
  5
25CB
102
{ACAD_REACTORS
330
25CA
102
}
330
25CA
100
AcDbXrecord
280
     1
102
RTVSPost2010Prop28
280
     0
102
RTVSPost2010PropOp28
 70
     1
102
RTVSPost2010Prop29
280
     1
102
RTVSPost2010PropOp29
 70
     1
102
RTVSPost2010Prop30
280
     1
102
RTVSPost2010PropOp30
 70
     1
102
RTVSPost2010Prop31
280
     0
102
RTVSPost2010PropOp31
 70
     1
102
RTVSPost2010Prop32
280
     0
102
RTVSPost2010PropOp32
 70
     1
102
RTVSPost2010Prop33
280
     0
102
RTVSPost2010PropOp33
 70
     1
102
RTVSPost2010Prop34
280
     0
102
RTVSPost2010PropOp34
 70
     1
102
RTVSPost2010Prop35
280
     0
102
RTVSPost2010PropOp35
 70
     1
102
RTVSPost2010Prop36
280
     0
102
RTVSPost2010PropOp36
 70
     1
102
RTVSPost2010Prop37
 90
       50
102
RTVSPost2010PropOp37
 70
     0
102
RTVSPost2010Prop38
140
0.0
102
RTVSPost2010PropOp38
 70
     0
102
RTVSPost2010Prop39
140
1.0
102
RTVSPost2010PropOp39
 70
     0
102
RTVSPost2010Prop40
 90
        0
102
RTVSPost2010PropOp40
 70
     0
102
RTVSPost2010Prop41ColorIndex
 90
       18
102
RTVSPost2010Prop41ColorRGB
 90
        0
102
RTVSPost2010PropOp41
 70
     0
102
RTVSPost2010Prop42
 90
       50
102
RTVSPost2010PropOp42
 70
     0
102
RTVSPost2010Prop43
 90
        3
102
RTVSPost2010PropOp43
 70
     0
102
RTVSPost2010Prop44ColorIndex
 90
        5
102
RTVSPost2010Prop44ColorRGB
 90
      255
102
RTVSPost2010PropOp44
 70
     0
102
RTVSPost2010Prop45
280
     0
102
RTVSPost2010PropOp45
 70
     1
102
RTVSPost2010Prop46
 90
       50
102
RTVSPost2010PropOp46
 70
     0
102
RTVSPost2010Prop47
 90
       50
102
RTVSPost2010PropOp47
 70
     0
102
RTVSPost2010Prop48
 90
       50
102
RTVSPost2010PropOp48
 70
     0
102
RTVSPost2010Prop49
280
     0
102
RTVSPost2010PropOp49
 70
     1
102
RTVSPost2010Prop50
 90
       50
102
RTVSPost2010PropOp50
 70
     0
102
RTVSPost2010Prop51ColorIndex
 90
      256
102
RTVSPost2010Prop51ColorRGB
 90
-16777216
102
RTVSPost2010PropOp51
 70
     0
102
RTVSPost2010Prop52
140
1.0
102
RTVSPost2010PropOp52
 70
     0
102
RTVSPost2010Prop53
 90
        2
102
RTVSPost2010PropOp53
 70
     0
102
RTVSPost2010Prop54
  1
strokes_ogs.tif
102
RTVSPost2010PropOp54
 70
     0
102
RTVSPost2010Prop55
280
     0
102
RTVSPost2010PropOp55
 70
     1
102
RTVSPost2010Prop56
140
1.0
102
RTVSPost2010PropOp56
 70
     0
102
RTVSPost2010Prop57
140
1.0
102
RTVSPost2010PropOp57
 70
     0
102
RTVSPropertyOp0
 70
     0
102
RTVSPropertyOp1
 70
     0
102
RTVSPropertyOp2
 70
     0
102
RTVSPropertyOp3
 70
     0
102
RTVSPropertyOp4
 70
     0
102
RTVSPropertyOp5
 70
     0
102
RTVSPropertyOp6
 70
     0
102
RTVSPropertyOp7
 70
     0
102
RTVSPropertyOp8
 70
     0
102
RTVSPropertyOp9
 70
     0
102
RTVSPropertyOp10
 70
     0
102
RTVSPropertyOp11
 70
     0
102
RTVSPropertyOp12
 70
     0
102
RTVSPropertyOp13
 70
     0
102
RTVSPropertyOp14
 70
     2
102
RTVSPropertyOp15
 70
     0
102
RTVSPropertyOp16
 70
     0
102
RTVSPropertyOp17
 70
     0
102
RTVSPropertyOp18
 70
     0
102
RTVSPropertyOp19
 70
     0
102
RTVSPropertyOp20
 70
     0
102
RTVSPropertyOp21
 70
     0
102
RTVSPropertyOp22
 70
     0
102
RTVSPropertyOp23
 70
     0
102
RTVSPropertyOp24
 70
     0
102
RTVSPropertyOp25
 70
     0
102
RTVSPropertyOp26
 70
     0
102
RTVSPropertyOp27
 70
     0
102
RTVSPropertyOp28
 70
     1
102
RTVSPropertyOp29
 70
     1
102
RTVSPropertyOp30
 70
     1
102
RTVSPropertyOp31
 70
     1
102
RTVSPropertyOp32
 70
     1
102
RTVSPropertyOp33
 70
     1
102
RTVSPropertyOp34
 70
     1
102
RTVSPropertyOp35
 70
     1
102
RTVSPropertyOp36
 70
     1
102
RTVSPropertyOp37
 70
     0
102
RTVSPropertyOp38
 70
     0
102
RTVSPropertyOp39
 70
     0
102
RTVSPropertyOp40
 70
     0
102
RTVSPropertyOp41
 70
     0
102
RTVSPropertyOp42
 70
     0
102
RTVSPropertyOp43
 70
     0
102
RTVSPropertyOp44
 70
     0
102
RTVSPropertyOp45
 70
     1
102
RTVSPropertyOp46
 70
     0
102
RTVSPropertyOp47
 70
     0
102
RTVSPropertyOp48
 70
     0
102
RTVSPropertyOp49
 70
     1
102
RTVSPropertyOp50
 70
     0
102
RTVSPropertyOp51
 70
     0
102
RTVSPropertyOp52
 70
     0
102
RTVSPropertyOp53
 70
     0
102
RTVSPropertyOp54
 70
     0
102
RTVSPropertyOp55
 70
     1
102
RTVSPropertyOp56
 70
     0
102
RTVSPropertyOp57
 70
     0
102
RTVSPropertyOp58
 70
     0
102
RTVSPropertyOp59
 70
     0
102
RTVSPropertyOp60
 70
     0
102
RTVSPropertyOp61
 70
     0
102
RTVSPropertyOp62
 70
     0
  0
XRECORD
  5
25BB
102
{ACAD_REACTORS
330
25BA
102
}
330
25BA
100
AcDbXrecord
280
     1
102
RTVSPost2010Prop28
280
     0
102
RTVSPost2010PropOp28
 70
     1
102
RTVSPost2010Prop29
280
     1
102
RTVSPost2010PropOp29
 70
     1
102
RTVSPost2010Prop30
280
     1
102
RTVSPost2010PropOp30
 70
     1
102
RTVSPost2010Prop31
280
     0
102
RTVSPost2010PropOp31
 70
     1
102
RTVSPost2010Prop32
280
     0
102
RTVSPost2010PropOp32
 70
     1
102
RTVSPost2010Prop33
280
     0
102
RTVSPost2010PropOp33
 70
     1
102
RTVSPost2010Prop34
280
     0
102
RTVSPost2010PropOp34
 70
     1
102
RTVSPost2010Prop35
280
     0
102
RTVSPost2010PropOp35
 70
     1
102
RTVSPost2010Prop36
280
     0
102
RTVSPost2010PropOp36
 70
     1
102
RTVSPost2010Prop37
 90
       50
102
RTVSPost2010PropOp37
 70
     1
102
RTVSPost2010Prop38
140
0.0
102
RTVSPost2010PropOp38
 70
     1
102
RTVSPost2010Prop39
140
1.0
102
RTVSPost2010PropOp39
 70
     1
102
RTVSPost2010Prop40
 90
        0
102
RTVSPost2010PropOp40
 70
     1
102
RTVSPost2010Prop41ColorIndex
 90
       18
102
RTVSPost2010Prop41ColorRGB
 90
        0
102
RTVSPost2010PropOp41
 70
     1
102
RTVSPost2010Prop42
 90
       50
102
RTVSPost2010PropOp42
 70
     1
102
RTVSPost2010Prop43
 90
        3
102
RTVSPost2010PropOp43
 70
     1
102
RTVSPost2010Prop44ColorIndex
 90
        5
102
RTVSPost2010Prop44ColorRGB
 90
      255
102
RTVSPost2010PropOp44
 70
     1
102
RTVSPost2010Prop45
280
     0
102
RTVSPost2010PropOp45
 70
     1
102
RTVSPost2010Prop46
 90
       50
102
RTVSPost2010PropOp46
 70
     1
102
RTVSPost2010Prop47
 90
       50
102
RTVSPost2010PropOp47
 70
     1
102
RTVSPost2010Prop48
 90
       50
102
RTVSPost2010PropOp48
 70
     1
102
RTVSPost2010Prop49
280
     0
102
RTVSPost2010PropOp49
 70
     1
102
RTVSPost2010Prop50
 90
       50
102
RTVSPost2010PropOp50
 70
     1
102
RTVSPost2010Prop51ColorIndex
 90
      256
102
RTVSPost2010Prop51ColorRGB
 90
-16777216
102
RTVSPost2010PropOp51
 70
     0
102
RTVSPost2010Prop52
140
1.0
102
RTVSPost2010PropOp52
 70
     0
102
RTVSPost2010Prop53
 90
        2
102
RTVSPost2010PropOp53
 70
     1
102
RTVSPost2010Prop54
  1
strokes_ogs.tif
102
RTVSPost2010PropOp54
 70
     1
102
RTVSPost2010Prop55
280
     0
102
RTVSPost2010PropOp55
 70
     1
102
RTVSPost2010Prop56
140
1.0
102
RTVSPost2010PropOp56
 70
     1
102
RTVSPost2010Prop57
140
1.0
102
RTVSPost2010PropOp57
 70
     1
102
RTVSPropertyOp0
 70
     1
102
RTVSPropertyOp1
 70
     1
102
RTVSPropertyOp2
 70
     1
102
RTVSPropertyOp3
 70
     1
102
RTVSPropertyOp4
 70
     1
102
RTVSPropertyOp5
 70
     1
102
RTVSPropertyOp6
 70
     1
102
RTVSPropertyOp7
 70
     1
102
RTVSPropertyOp8
 70
     1
102
RTVSPropertyOp9
 70
     1
102
RTVSPropertyOp10
 70
     1
102
RTVSPropertyOp11
 70
     1
102
RTVSPropertyOp12
 70
     1
102
RTVSPropertyOp13
 70
     1
102
RTVSPropertyOp14
 70
     1
102
RTVSPropertyOp15
 70
     1
102
RTVSPropertyOp16
 70
     1
102
RTVSPropertyOp17
 70
     1
102
RTVSPropertyOp18
 70
     1
102
RTVSPropertyOp19
 70
     1
102
RTVSPropertyOp20
 70
     1
102
RTVSPropertyOp21
 70
     1
102
RTVSPropertyOp22
 70
     1
102
RTVSPropertyOp23
 70
     1
102
RTVSPropertyOp24
 70
     1
102
RTVSPropertyOp25
 70
     1
102
RTVSPropertyOp26
 70
     1
102
RTVSPropertyOp27
 70
     1
102
RTVSPropertyOp28
 70
     1
102
RTVSPropertyOp29
 70
     1
102
RTVSPropertyOp30
 70
     1
102
RTVSPropertyOp31
 70
     1
102
RTVSPropertyOp32
 70
     1
102
RTVSPropertyOp33
 70
     1
102
RTVSPropertyOp34
 70
     1
102
RTVSPropertyOp35
 70
     1
102
RTVSPropertyOp36
 70
     1
102
RTVSPropertyOp37
 70
     1
102
RTVSPropertyOp38
 70
     1
102
RTVSPropertyOp39
 70
     1
102
RTVSPropertyOp40
 70
     1
102
RTVSPropertyOp41
 70
     1
102
RTVSPropertyOp42
 70
     1
102
RTVSPropertyOp43
 70
     1
102
RTVSPropertyOp44
 70
     1
102
RTVSPropertyOp45
 70
     1
102
RTVSPropertyOp46
 70
     1
102
RTVSPropertyOp47
 70
     1
102
RTVSPropertyOp48
 70
     1
102
RTVSPropertyOp49
 70
     1
102
RTVSPropertyOp50
 70
     1
102
RTVSPropertyOp51
 70
     0
102
RTVSPropertyOp52
 70
     0
102
RTVSPropertyOp53
 70
     1
102
RTVSPropertyOp54
 70
     1
102
RTVSPropertyOp55
 70
     1
102
RTVSPropertyOp56
 70
     1
102
RTVSPropertyOp57
 70
     1
102
RTVSPropertyOp58
 70
     1
102
RTVSPropertyOp59
 70
     1
102
RTVSPropertyOp60
 70
     1
102
RTVSPropertyOp61
 70
     1
102
RTVSPropertyOp62
 70
     1
  0
XRECORD
  5
25CD
102
{ACAD_REACTORS
330
25CC
102
}
330
25CC
100
AcDbXrecord
280
     1
102
RTVSPost2010Prop28
280
     0
102
RTVSPost2010PropOp28
 70
     1
102
RTVSPost2010Prop29
280
     1
102
RTVSPost2010PropOp29
 70
     1
102
RTVSPost2010Prop30
280
     1
102
RTVSPost2010PropOp30
 70
     1
102
RTVSPost2010Prop31
280
     0
102
RTVSPost2010PropOp31
 70
     1
102
RTVSPost2010Prop32
280
     0
102
RTVSPost2010PropOp32
 70
     1
102
RTVSPost2010Prop33
280
     0
102
RTVSPost2010PropOp33
 70
     1
102
RTVSPost2010Prop34
280
     0
102
RTVSPost2010PropOp34
 70
     1
102
RTVSPost2010Prop35
280
     0
102
RTVSPost2010PropOp35
 70
     1
102
RTVSPost2010Prop36
280
     0
102
RTVSPost2010PropOp36
 70
     1
102
RTVSPost2010Prop37
 90
       50
102
RTVSPost2010PropOp37
 70
     0
102
RTVSPost2010Prop38
140
0.0
102
RTVSPost2010PropOp38
 70
     0
102
RTVSPost2010Prop39
140
1.0
102
RTVSPost2010PropOp39
 70
     0
102
RTVSPost2010Prop40
 90
        0
102
RTVSPost2010PropOp40
 70
     0
102
RTVSPost2010Prop41ColorIndex
 90
       18
102
RTVSPost2010Prop41ColorRGB
 90
        0
102
RTVSPost2010PropOp41
 70
     0
102
RTVSPost2010Prop42
 90
       50
102
RTVSPost2010PropOp42
 70
     0
102
RTVSPost2010Prop43
 90
        3
102
RTVSPost2010PropOp43
 70
     0
102
RTVSPost2010Prop44ColorIndex
 90
        5
102
RTVSPost2010Prop44ColorRGB
 90
      255
102
RTVSPost2010PropOp44
 70
     0
102
RTVSPost2010Prop45
280
     0
102
RTVSPost2010PropOp45
 70
     1
102
RTVSPost2010Prop46
 90
       50
102
RTVSPost2010PropOp46
 70
     0
102
RTVSPost2010Prop47
 90
       50
102
RTVSPost2010PropOp47
 70
     0
102
RTVSPost2010Prop48
 90
       50
102
RTVSPost2010PropOp48
 70
     0
102
RTVSPost2010Prop49
280
     0
102
RTVSPost2010PropOp49
 70
     1
102
RTVSPost2010Prop50
 90
       50
102
RTVSPost2010PropOp50
 70
     0
102
RTVSPost2010Prop51ColorIndex
 90
      256
102
RTVSPost2010Prop51ColorRGB
 90
-16777216
102
RTVSPost2010PropOp51
 70
     0
102
RTVSPost2010Prop52
140
1.0
102
RTVSPost2010PropOp52
 70
     0
102
RTVSPost2010Prop53
 90
        2
102
RTVSPost2010PropOp53
 70
     0
102
RTVSPost2010Prop54
  1
strokes_ogs.tif
102
RTVSPost2010PropOp54
 70
     0
102
RTVSPost2010Prop55
280
     0
102
RTVSPost2010PropOp55
 70
     1
102
RTVSPost2010Prop56
140
1.0
102
RTVSPost2010PropOp56
 70
     0
102
RTVSPost2010Prop57
140
1.0
102
RTVSPost2010PropOp57
 70
     0
102
RTVSPropertyOp0
 70
     0
102
RTVSPropertyOp1
 70
     0
102
RTVSPropertyOp2
 70
     0
102
RTVSPropertyOp3
 70
     0
102
RTVSPropertyOp4
 70
     0
102
RTVSPropertyOp5
 70
     0
102
RTVSPropertyOp6
 70
     0
102
RTVSPropertyOp7
 70
     0
102
RTVSPropertyOp8
 70
     0
102
RTVSPropertyOp9
 70
     0
102
RTVSPropertyOp10
 70
     0
102
RTVSPropertyOp11
 70
     0
102
RTVSPropertyOp12
 70
     0
102
RTVSPropertyOp13
 70
     0
102
RTVSPropertyOp14
 70
     2
102
RTVSPropertyOp15
 70
     0
102
RTVSPropertyOp16
 70
     0
102
RTVSPropertyOp17
 70
     0
102
RTVSPropertyOp18
 70
     0
102
RTVSPropertyOp19
 70
     0
102
RTVSPropertyOp20
 70
     0
102
RTVSPropertyOp21
 70
     0
102
RTVSPropertyOp22
 70
     0
102
RTVSPropertyOp23
 70
     0
102
RTVSPropertyOp24
 70
     0
102
RTVSPropertyOp25
 70
     0
102
RTVSPropertyOp26
 70
     0
102
RTVSPropertyOp27
 70
     0
102
RTVSPropertyOp28
 70
     1
102
RTVSPropertyOp29
 70
     1
102
RTVSPropertyOp30
 70
     1
102
RTVSPropertyOp31
 70
     1
102
RTVSPropertyOp32
 70
     1
102
RTVSPropertyOp33
 70
     1
102
RTVSPropertyOp34
 70
     1
102
RTVSPropertyOp35
 70
     1
102
RTVSPropertyOp36
 70
     1
102
RTVSPropertyOp37
 70
     0
102
RTVSPropertyOp38
 70
     0
102
RTVSPropertyOp39
 70
     0
102
RTVSPropertyOp40
 70
     0
102
RTVSPropertyOp41
 70
     0
102
RTVSPropertyOp42
 70
     0
102
RTVSPropertyOp43
 70
     0
102
RTVSPropertyOp44
 70
     0
102
RTVSPropertyOp45
 70
     1
102
RTVSPropertyOp46
 70
     0
102
RTVSPropertyOp47
 70
     0
102
RTVSPropertyOp48
 70
     0
102
RTVSPropertyOp49
 70
     1
102
RTVSPropertyOp50
 70
     0
102
RTVSPropertyOp51
 70
     0
102
RTVSPropertyOp52
 70
     0
102
RTVSPropertyOp53
 70
     0
102
RTVSPropertyOp54
 70
     0
102
RTVSPropertyOp55
 70
     1
102
RTVSPropertyOp56
 70
     0
102
RTVSPropertyOp57
 70
     0
102
RTVSPropertyOp58
 70
     0
102
RTVSPropertyOp59
 70
     0
102
RTVSPropertyOp60
 70
     0
102
RTVSPropertyOp61
 70
     0
102
RTVSPropertyOp62
 70
     0
  0
XRECORD
  5
25B3
102
{ACAD_REACTORS
330
25B2
102
}
330
25B2
100
AcDbXrecord
280
     1
102
RTVSPost2010Prop28
280
     0
102
RTVSPost2010PropOp28
 70
     1
102
RTVSPost2010Prop29
280
     1
102
RTVSPost2010PropOp29
 70
     1
102
RTVSPost2010Prop30
280
     1
102
RTVSPost2010PropOp30
 70
     1
102
RTVSPost2010Prop31
280
     0
102
RTVSPost2010PropOp31
 70
     1
102
RTVSPost2010Prop32
280
     0
102
RTVSPost2010PropOp32
 70
     1
102
RTVSPost2010Prop33
280
     0
102
RTVSPost2010PropOp33
 70
     1
102
RTVSPost2010Prop34
280
     0
102
RTVSPost2010PropOp34
 70
     1
102
RTVSPost2010Prop35
280
     0
102
RTVSPost2010PropOp35
 70
     1
102
RTVSPost2010Prop36
280
     0
102
RTVSPost2010PropOp36
 70
     1
102
RTVSPost2010Prop37
 90
       50
102
RTVSPost2010PropOp37
 70
     1
102
RTVSPost2010Prop38
140
0.0
102
RTVSPost2010PropOp38
 70
     1
102
RTVSPost2010Prop39
140
1.0
102
RTVSPost2010PropOp39
 70
     1
102
RTVSPost2010Prop40
 90
        0
102
RTVSPost2010PropOp40
 70
     1
102
RTVSPost2010Prop41ColorIndex
 90
       18
102
RTVSPost2010Prop41ColorRGB
 90
        0
102
RTVSPost2010PropOp41
 70
     1
102
RTVSPost2010Prop42
 90
       50
102
RTVSPost2010PropOp42
 70
     1
102
RTVSPost2010Prop43
 90
        3
102
RTVSPost2010PropOp43
 70
     1
102
RTVSPost2010Prop44ColorIndex
 90
        5
102
RTVSPost2010Prop44ColorRGB
 90
      255
102
RTVSPost2010PropOp44
 70
     1
102
RTVSPost2010Prop45
280
     0
102
RTVSPost2010PropOp45
 70
     1
102
RTVSPost2010Prop46
 90
       50
102
RTVSPost2010PropOp46
 70
     1
102
RTVSPost2010Prop47
 90
       50
102
RTVSPost2010PropOp47
 70
     1
102
RTVSPost2010Prop48
 90
       50
102
RTVSPost2010PropOp48
 70
     1
102
RTVSPost2010Prop49
280
     0
102
RTVSPost2010PropOp49
 70
     1
102
RTVSPost2010Prop50
 90
       50
102
RTVSPost2010PropOp50
 70
     1
102
RTVSPost2010Prop51ColorIndex
 90
      256
102
RTVSPost2010Prop51ColorRGB
 90
-16777216
102
RTVSPost2010PropOp51
 70
     0
102
RTVSPost2010Prop52
140
1.0
102
RTVSPost2010PropOp52
 70
     0
102
RTVSPost2010Prop53
 90
        2
102
RTVSPost2010PropOp53
 70
     1
102
RTVSPost2010Prop54
  1
strokes_ogs.tif
102
RTVSPost2010PropOp54
 70
     1
102
RTVSPost2010Prop55
280
     0
102
RTVSPost2010PropOp55
 70
     1
102
RTVSPost2010Prop56
140
1.0
102
RTVSPost2010PropOp56
 70
     1
102
RTVSPost2010Prop57
140
1.0
102
RTVSPost2010PropOp57
 70
     1
102
RTVSPropertyOp0
 70
     1
102
RTVSPropertyOp1
 70
     1
102
RTVSPropertyOp2
 70
     1
102
RTVSPropertyOp3
 70
     1
102
RTVSPropertyOp4
 70
     1
102
RTVSPropertyOp5
 70
     1
102
RTVSPropertyOp6
 70
     1
102
RTVSPropertyOp7
 70
     1
102
RTVSPropertyOp8
 70
     1
102
RTVSPropertyOp9
 70
     1
102
RTVSPropertyOp10
 70
     1
102
RTVSPropertyOp11
 70
     1
102
RTVSPropertyOp12
 70
     1
102
RTVSPropertyOp13
 70
     1
102
RTVSPropertyOp14
 70
     1
102
RTVSPropertyOp15
 70
     1
102
RTVSPropertyOp16
 70
     1
102
RTVSPropertyOp17
 70
     1
102
RTVSPropertyOp18
 70
     1
102
RTVSPropertyOp19
 70
     1
102
RTVSPropertyOp20
 70
     1
102
RTVSPropertyOp21
 70
     1
102
RTVSPropertyOp22
 70
     1
102
RTVSPropertyOp23
 70
     1
102
RTVSPropertyOp24
 70
     1
102
RTVSPropertyOp25
 70
     1
102
RTVSPropertyOp26
 70
     1
102
RTVSPropertyOp27
 70
     1
102
RTVSPropertyOp28
 70
     1
102
RTVSPropertyOp29
 70
     1
102
RTVSPropertyOp30
 70
     1
102
RTVSPropertyOp31
 70
     1
102
RTVSPropertyOp32
 70
     1
102
RTVSPropertyOp33
 70
     1
102
RTVSPropertyOp34
 70
     1
102
RTVSPropertyOp35
 70
     1
102
RTVSPropertyOp36
 70
     1
102
RTVSPropertyOp37
 70
     1
102
RTVSPropertyOp38
 70
     1
102
RTVSPropertyOp39
 70
     1
102
RTVSPropertyOp40
 70
     1
102
RTVSPropertyOp41
 70
     1
102
RTVSPropertyOp42
 70
     1
102
RTVSPropertyOp43
 70
     1
102
RTVSPropertyOp44
 70
     1
102
RTVSPropertyOp45
 70
     1
102
RTVSPropertyOp46
 70
     1
102
RTVSPropertyOp47
 70
     1
102
RTVSPropertyOp48
 70
     1
102
RTVSPropertyOp49
 70
     1
102
RTVSPropertyOp50
 70
     1
102
RTVSPropertyOp51
 70
     0
102
RTVSPropertyOp52
 70
     0
102
RTVSPropertyOp53
 70
     1
102
RTVSPropertyOp54
 70
     1
102
RTVSPropertyOp55
 70
     1
102
RTVSPropertyOp56
 70
     1
102
RTVSPropertyOp57
 70
     1
102
RTVSPropertyOp58
 70
     1
102
RTVSPropertyOp59
 70
     1
102
RTVSPropertyOp60
 70
     1
102
RTVSPropertyOp61
 70
     1
102
RTVSPropertyOp62
 70
     1
  0
XRECORD
  5
25C9
102
{ACAD_REACTORS
330
25C8
102
}
330
25C8
100
AcDbXrecord
280
     1
102
RTVSPost2010Prop28
280
     0
102
RTVSPost2010PropOp28
 70
     1
102
RTVSPost2010Prop29
280
     1
102
RTVSPost2010PropOp29
 70
     1
102
RTVSPost2010Prop30
280
     1
102
RTVSPost2010PropOp30
 70
     1
102
RTVSPost2010Prop31
280
     0
102
RTVSPost2010PropOp31
 70
     1
102
RTVSPost2010Prop32
280
     0
102
RTVSPost2010PropOp32
 70
     1
102
RTVSPost2010Prop33
280
     0
102
RTVSPost2010PropOp33
 70
     1
102
RTVSPost2010Prop34
280
     0
102
RTVSPost2010PropOp34
 70
     1
102
RTVSPost2010Prop35
280
     0
102
RTVSPost2010PropOp35
 70
     1
102
RTVSPost2010Prop36
280
     0
102
RTVSPost2010PropOp36
 70
     1
102
RTVSPost2010Prop37
 90
       50
102
RTVSPost2010PropOp37
 70
     1
102
RTVSPost2010Prop38
140
0.0
102
RTVSPost2010PropOp38
 70
     1
102
RTVSPost2010Prop39
140
1.0
102
RTVSPost2010PropOp39
 70
     1
102
RTVSPost2010Prop40
 90
        0
102
RTVSPost2010PropOp40
 70
     1
102
RTVSPost2010Prop41ColorIndex
 90
       18
102
RTVSPost2010Prop41ColorRGB
 90
        0
102
RTVSPost2010PropOp41
 70
     1
102
RTVSPost2010Prop42
 90
       50
102
RTVSPost2010PropOp42
 70
     1
102
RTVSPost2010Prop43
 90
        3
102
RTVSPost2010PropOp43
 70
     1
102
RTVSPost2010Prop44ColorIndex
 90
        5
102
RTVSPost2010Prop44ColorRGB
 90
      255
102
RTVSPost2010PropOp44
 70
     1
102
RTVSPost2010Prop45
280
     0
102
RTVSPost2010PropOp45
 70
     1
102
RTVSPost2010Prop46
 90
       50
102
RTVSPost2010PropOp46
 70
     1
102
RTVSPost2010Prop47
 90
       50
102
RTVSPost2010PropOp47
 70
     1
102
RTVSPost2010Prop48
 90
       50
102
RTVSPost2010PropOp48
 70
     1
102
RTVSPost2010Prop49
280
     0
102
RTVSPost2010PropOp49
 70
     1
102
RTVSPost2010Prop50
 90
       50
102
RTVSPost2010PropOp50
 70
     1
102
RTVSPost2010Prop51ColorIndex
 90
      256
102
RTVSPost2010Prop51ColorRGB
 90
-16777216
102
RTVSPost2010PropOp51
 70
     0
102
RTVSPost2010Prop52
140
1.0
102
RTVSPost2010PropOp52
 70
     0
102
RTVSPost2010Prop53
 90
        2
102
RTVSPost2010PropOp53
 70
     1
102
RTVSPost2010Prop54
  1
strokes_ogs.tif
102
RTVSPost2010PropOp54
 70
     1
102
RTVSPost2010Prop55
280
     0
102
RTVSPost2010PropOp55
 70
     1
102
RTVSPost2010Prop56
140
1.0
102
RTVSPost2010PropOp56
 70
     1
102
RTVSPost2010Prop57
140
1.0
102
RTVSPost2010PropOp57
 70
     1
102
RTVSPropertyOp0
 70
     1
102
RTVSPropertyOp1
 70
     1
102
RTVSPropertyOp2
 70
     1
102
RTVSPropertyOp3
 70
     1
102
RTVSPropertyOp4
 70
     1
102
RTVSPropertyOp5
 70
     1
102
RTVSPropertyOp6
 70
     1
102
RTVSPropertyOp7
 70
     1
102
RTVSPropertyOp8
 70
     1
102
RTVSPropertyOp9
 70
     1
102
RTVSPropertyOp10
 70
     1
102
RTVSPropertyOp11
 70
     1
102
RTVSPropertyOp12
 70
     1
102
RTVSPropertyOp13
 70
     1
102
RTVSPropertyOp14
 70
     1
102
RTVSPropertyOp15
 70
     1
102
RTVSPropertyOp16
 70
     1
102
RTVSPropertyOp17
 70
     1
102
RTVSPropertyOp18
 70
     1
102
RTVSPropertyOp19
 70
     1
102
RTVSPropertyOp20
 70
     1
102
RTVSPropertyOp21
 70
     1
102
RTVSPropertyOp22
 70
     1
102
RTVSPropertyOp23
 70
     1
102
RTVSPropertyOp24
 70
     1
102
RTVSPropertyOp25
 70
     1
102
RTVSPropertyOp26
 70
     1
102
RTVSPropertyOp27
 70
     1
102
RTVSPropertyOp28
 70
     1
102
RTVSPropertyOp29
 70
     1
102
RTVSPropertyOp30
 70
     1
102
RTVSPropertyOp31
 70
     1
102
RTVSPropertyOp32
 70
     1
102
RTVSPropertyOp33
 70
     1
102
RTVSPropertyOp34
 70
     1
102
RTVSPropertyOp35
 70
     1
102
RTVSPropertyOp36
 70
     1
102
RTVSPropertyOp37
 70
     1
102
RTVSPropertyOp38
 70
     1
102
RTVSPropertyOp39
 70
     1
102
RTVSPropertyOp40
 70
     1
102
RTVSPropertyOp41
 70
     1
102
RTVSPropertyOp42
 70
     1
102
RTVSPropertyOp43
 70
     1
102
RTVSPropertyOp44
 70
     1
102
RTVSPropertyOp45
 70
     1
102
RTVSPropertyOp46
 70
     1
102
RTVSPropertyOp47
 70
     1
102
RTVSPropertyOp48
 70
     1
102
RTVSPropertyOp49
 70
     1
102
RTVSPropertyOp50
 70
     1
102
RTVSPropertyOp51
 70
     0
102
RTVSPropertyOp52
 70
     0
102
RTVSPropertyOp53
 70
     1
102
RTVSPropertyOp54
 70
     1
102
RTVSPropertyOp55
 70
     1
102
RTVSPropertyOp56
 70
     1
102
RTVSPropertyOp57
 70
     1
102
RTVSPropertyOp58
 70
     1
102
RTVSPropertyOp59
 70
     1
102
RTVSPropertyOp60
 70
     1
102
RTVSPropertyOp61
 70
     1
102
RTVSPropertyOp62
 70
     1
  0
XRECORD
  5
25C7
102
{ACAD_REACTORS
330
25C6
102
}
330
25C6
100
AcDbXrecord
280
     1
102
RTVSPost2010Prop28
280
     0
102
RTVSPost2010PropOp28
 70
     1
102
RTVSPost2010Prop29
280
     1
102
RTVSPost2010PropOp29
 70
     1
102
RTVSPost2010Prop30
280
     1
102
RTVSPost2010PropOp30
 70
     1
102
RTVSPost2010Prop31
280
     0
102
RTVSPost2010PropOp31
 70
     1
102
RTVSPost2010Prop32
280
     0
102
RTVSPost2010PropOp32
 70
     1
102
RTVSPost2010Prop33
280
     0
102
RTVSPost2010PropOp33
 70
     1
102
RTVSPost2010Prop34
280
     0
102
RTVSPost2010PropOp34
 70
     1
102
RTVSPost2010Prop35
280
     0
102
RTVSPost2010PropOp35
 70
     1
102
RTVSPost2010Prop36
280
     0
102
RTVSPost2010PropOp36
 70
     1
102
RTVSPost2010Prop37
 90
       50
102
RTVSPost2010PropOp37
 70
     1
102
RTVSPost2010Prop38
140
0.0
102
RTVSPost2010PropOp38
 70
     1
102
RTVSPost2010Prop39
140
1.0
102
RTVSPost2010PropOp39
 70
     1
102
RTVSPost2010Prop40
 90
        0
102
RTVSPost2010PropOp40
 70
     1
102
RTVSPost2010Prop41ColorIndex
 90
       18
102
RTVSPost2010Prop41ColorRGB
 90
        0
102
RTVSPost2010PropOp41
 70
     1
102
RTVSPost2010Prop42
 90
       50
102
RTVSPost2010PropOp42
 70
     1
102
RTVSPost2010Prop43
 90
        3
102
RTVSPost2010PropOp43
 70
     1
102
RTVSPost2010Prop44ColorIndex
 90
        5
102
RTVSPost2010Prop44ColorRGB
 90
      255
102
RTVSPost2010PropOp44
 70
     1
102
RTVSPost2010Prop45
280
     0
102
RTVSPost2010PropOp45
 70
     1
102
RTVSPost2010Prop46
 90
       50
102
RTVSPost2010PropOp46
 70
     1
102
RTVSPost2010Prop47
 90
       50
102
RTVSPost2010PropOp47
 70
     1
102
RTVSPost2010Prop48
 90
       50
102
RTVSPost2010PropOp48
 70
     1
102
RTVSPost2010Prop49
280
     0
102
RTVSPost2010PropOp49
 70
     1
102
RTVSPost2010Prop50
 90
       50
102
RTVSPost2010PropOp50
 70
     1
102
RTVSPost2010Prop51ColorIndex
 90
      256
102
RTVSPost2010Prop51ColorRGB
 90
-16777216
102
RTVSPost2010PropOp51
 70
     0
102
RTVSPost2010Prop52
140
1.0
102
RTVSPost2010PropOp52
 70
     0
102
RTVSPost2010Prop53
 90
        2
102
RTVSPost2010PropOp53
 70
     1
102
RTVSPost2010Prop54
  1
strokes_ogs.tif
102
RTVSPost2010PropOp54
 70
     1
102
RTVSPost2010Prop55
280
     0
102
RTVSPost2010PropOp55
 70
     1
102
RTVSPost2010Prop56
140
1.0
102
RTVSPost2010PropOp56
 70
     1
102
RTVSPost2010Prop57
140
1.0
102
RTVSPost2010PropOp57
 70
     1
102
RTVSPropertyOp0
 70
     1
102
RTVSPropertyOp1
 70
     1
102
RTVSPropertyOp2
 70
     1
102
RTVSPropertyOp3
 70
     1
102
RTVSPropertyOp4
 70
     1
102
RTVSPropertyOp5
 70
     1
102
RTVSPropertyOp6
 70
     1
102
RTVSPropertyOp7
 70
     1
102
RTVSPropertyOp8
 70
     1
102
RTVSPropertyOp9
 70
     1
102
RTVSPropertyOp10
 70
     1
102
RTVSPropertyOp11
 70
     1
102
RTVSPropertyOp12
 70
     1
102
RTVSPropertyOp13
 70
     1
102
RTVSPropertyOp14
 70
     1
102
RTVSPropertyOp15
 70
     1
102
RTVSPropertyOp16
 70
     1
102
RTVSPropertyOp17
 70
     1
102
RTVSPropertyOp18
 70
     1
102
RTVSPropertyOp19
 70
     1
102
RTVSPropertyOp20
 70
     1
102
RTVSPropertyOp21
 70
     1
102
RTVSPropertyOp22
 70
     1
102
RTVSPropertyOp23
 70
     1
102
RTVSPropertyOp24
 70
     1
102
RTVSPropertyOp25
 70
     1
102
RTVSPropertyOp26
 70
     1
102
RTVSPropertyOp27
 70
     1
102
RTVSPropertyOp28
 70
     1
102
RTVSPropertyOp29
 70
     1
102
RTVSPropertyOp30
 70
     1
102
RTVSPropertyOp31
 70
     1
102
RTVSPropertyOp32
 70
     1
102
RTVSPropertyOp33
 70
     1
102
RTVSPropertyOp34
 70
     1
102
RTVSPropertyOp35
 70
     1
102
RTVSPropertyOp36
 70
     1
102
RTVSPropertyOp37
 70
     1
102
RTVSPropertyOp38
 70
     1
102
RTVSPropertyOp39
 70
     1
102
RTVSPropertyOp40
 70
     1
102
RTVSPropertyOp41
 70
     1
102
RTVSPropertyOp42
 70
     1
102
RTVSPropertyOp43
 70
     1
102
RTVSPropertyOp44
 70
     1
102
RTVSPropertyOp45
 70
     1
102
RTVSPropertyOp46
 70
     1
102
RTVSPropertyOp47
 70
     1
102
RTVSPropertyOp48
 70
     1
102
RTVSPropertyOp49
 70
     1
102
RTVSPropertyOp50
 70
     1
102
RTVSPropertyOp51
 70
     0
102
RTVSPropertyOp52
 70
     0
102
RTVSPropertyOp53
 70
     1
102
RTVSPropertyOp54
 70
     1
102
RTVSPropertyOp55
 70
     1
102
RTVSPropertyOp56
 70
     1
102
RTVSPropertyOp57
 70
     1
102
RTVSPropertyOp58
 70
     1
102
RTVSPropertyOp59
 70
     1
102
RTVSPropertyOp60
 70
     1
102
RTVSPropertyOp61
 70
     1
102
RTVSPropertyOp62
 70
     1
  0
XRECORD
  5
25C1
102
{ACAD_REACTORS
330
25C0
102
}
330
25C0
100
AcDbXrecord
280
     1
102
RTVSPost2010Prop28
280
     0
102
RTVSPost2010PropOp28
 70
     1
102
RTVSPost2010Prop29
280
     1
102
RTVSPost2010PropOp29
 70
     1
102
RTVSPost2010Prop30
280
     1
102
RTVSPost2010PropOp30
 70
     1
102
RTVSPost2010Prop31
280
     0
102
RTVSPost2010PropOp31
 70
     1
102
RTVSPost2010Prop32
280
     0
102
RTVSPost2010PropOp32
 70
     1
102
RTVSPost2010Prop33
280
     0
102
RTVSPost2010PropOp33
 70
     1
102
RTVSPost2010Prop34
280
     0
102
RTVSPost2010PropOp34
 70
     1
102
RTVSPost2010Prop35
280
     0
102
RTVSPost2010PropOp35
 70
     1
102
RTVSPost2010Prop36
280
     0
102
RTVSPost2010PropOp36
 70
     1
102
RTVSPost2010Prop37
 90
       50
102
RTVSPost2010PropOp37
 70
     1
102
RTVSPost2010Prop38
140
0.0
102
RTVSPost2010PropOp38
 70
     1
102
RTVSPost2010Prop39
140
1.0
102
RTVSPost2010PropOp39
 70
     1
102
RTVSPost2010Prop40
 90
        0
102
RTVSPost2010PropOp40
 70
     1
102
RTVSPost2010Prop41ColorIndex
 90
       18
102
RTVSPost2010Prop41ColorRGB
 90
        0
102
RTVSPost2010PropOp41
 70
     1
102
RTVSPost2010Prop42
 90
       50
102
RTVSPost2010PropOp42
 70
     1
102
RTVSPost2010Prop43
 90
        3
102
RTVSPost2010PropOp43
 70
     1
102
RTVSPost2010Prop44ColorIndex
 90
        5
102
RTVSPost2010Prop44ColorRGB
 90
      255
102
RTVSPost2010PropOp44
 70
     1
102
RTVSPost2010Prop45
280
     0
102
RTVSPost2010PropOp45
 70
     1
102
RTVSPost2010Prop46
 90
       50
102
RTVSPost2010PropOp46
 70
     1
102
RTVSPost2010Prop47
 90
       50
102
RTVSPost2010PropOp47
 70
     1
102
RTVSPost2010Prop48
 90
       50
102
RTVSPost2010PropOp48
 70
     1
102
RTVSPost2010Prop49
280
     0
102
RTVSPost2010PropOp49
 70
     1
102
RTVSPost2010Prop50
 90
       50
102
RTVSPost2010PropOp50
 70
     1
102
RTVSPost2010Prop51ColorIndex
 90
      256
102
RTVSPost2010Prop51ColorRGB
 90
-16777216
102
RTVSPost2010PropOp51
 70
     0
102
RTVSPost2010Prop52
140
1.0
102
RTVSPost2010PropOp52
 70
     0
102
RTVSPost2010Prop53
 90
        2
102
RTVSPost2010PropOp53
 70
     1
102
RTVSPost2010Prop54
  1
strokes_ogs.tif
102
RTVSPost2010PropOp54
 70
     1
102
RTVSPost2010Prop55
280
     0
102
RTVSPost2010PropOp55
 70
     1
102
RTVSPost2010Prop56
140
1.0
102
RTVSPost2010PropOp56
 70
     1
102
RTVSPost2010Prop57
140
1.0
102
RTVSPost2010PropOp57
 70
     1
102
RTVSPropertyOp0
 70
     1
102
RTVSPropertyOp1
 70
     1
102
RTVSPropertyOp2
 70
     1
102
RTVSPropertyOp3
 70
     1
102
RTVSPropertyOp4
 70
     1
102
RTVSPropertyOp5
 70
     1
102
RTVSPropertyOp6
 70
     1
102
RTVSPropertyOp7
 70
     1
102
RTVSPropertyOp8
 70
     1
102
RTVSPropertyOp9
 70
     1
102
RTVSPropertyOp10
 70
     1
102
RTVSPropertyOp11
 70
     1
102
RTVSPropertyOp12
 70
     1
102
RTVSPropertyOp13
 70
     1
102
RTVSPropertyOp14
 70
     1
102
RTVSPropertyOp15
 70
     1
102
RTVSPropertyOp16
 70
     1
102
RTVSPropertyOp17
 70
     1
102
RTVSPropertyOp18
 70
     1
102
RTVSPropertyOp19
 70
     1
102
RTVSPropertyOp20
 70
     1
102
RTVSPropertyOp21
 70
     1
102
RTVSPropertyOp22
 70
     1
102
RTVSPropertyOp23
 70
     1
102
RTVSPropertyOp24
 70
     1
102
RTVSPropertyOp25
 70
     1
102
RTVSPropertyOp26
 70
     1
102
RTVSPropertyOp27
 70
     1
102
RTVSPropertyOp28
 70
     1
102
RTVSPropertyOp29
 70
     1
102
RTVSPropertyOp30
 70
     1
102
RTVSPropertyOp31
 70
     1
102
RTVSPropertyOp32
 70
     1
102
RTVSPropertyOp33
 70
     1
102
RTVSPropertyOp34
 70
     1
102
RTVSPropertyOp35
 70
     1
102
RTVSPropertyOp36
 70
     1
102
RTVSPropertyOp37
 70
     1
102
RTVSPropertyOp38
 70
     1
102
RTVSPropertyOp39
 70
     1
102
RTVSPropertyOp40
 70
     1
102
RTVSPropertyOp41
 70
     1
102
RTVSPropertyOp42
 70
     1
102
RTVSPropertyOp43
 70
     1
102
RTVSPropertyOp44
 70
     1
102
RTVSPropertyOp45
 70
     1
102
RTVSPropertyOp46
 70
     1
102
RTVSPropertyOp47
 70
     1
102
RTVSPropertyOp48
 70
     1
102
RTVSPropertyOp49
 70
     1
102
RTVSPropertyOp50
 70
     1
102
RTVSPropertyOp51
 70
     0
102
RTVSPropertyOp52
 70
     0
102
RTVSPropertyOp53
 70
     1
102
RTVSPropertyOp54
 70
     1
102
RTVSPropertyOp55
 70
     1
102
RTVSPropertyOp56
 70
     1
102
RTVSPropertyOp57
 70
     1
102
RTVSPropertyOp58
 70
     1
102
RTVSPropertyOp59
 70
     1
102
RTVSPropertyOp60
 70
     1
102
RTVSPropertyOp61
 70
     1
102
RTVSPropertyOp62
 70
     1
  0
XRECORD
  5
25C3
102
{ACAD_REACTORS
330
25C2
102
}
330
25C2
100
AcDbXrecord
280
     1
102
RTVSPost2010Prop28
280
     0
102
RTVSPost2010PropOp28
 70
     1
102
RTVSPost2010Prop29
280
     1
102
RTVSPost2010PropOp29
 70
     1
102
RTVSPost2010Prop30
280
     1
102
RTVSPost2010PropOp30
 70
     1
102
RTVSPost2010Prop31
280
     0
102
RTVSPost2010PropOp31
 70
     1
102
RTVSPost2010Prop32
280
     0
102
RTVSPost2010PropOp32
 70
     1
102
RTVSPost2010Prop33
280
     0
102
RTVSPost2010PropOp33
 70
     1
102
RTVSPost2010Prop34
280
     0
102
RTVSPost2010PropOp34
 70
     1
102
RTVSPost2010Prop35
280
     0
102
RTVSPost2010PropOp35
 70
     1
102
RTVSPost2010Prop36
280
     0
102
RTVSPost2010PropOp36
 70
     1
102
RTVSPost2010Prop37
 90
       50
102
RTVSPost2010PropOp37
 70
     1
102
RTVSPost2010Prop38
140
0.0
102
RTVSPost2010PropOp38
 70
     1
102
RTVSPost2010Prop39
140
1.0
102
RTVSPost2010PropOp39
 70
     1
102
RTVSPost2010Prop40
 90
        0
102
RTVSPost2010PropOp40
 70
     1
102
RTVSPost2010Prop41ColorIndex
 90
       18
102
RTVSPost2010Prop41ColorRGB
 90
        0
102
RTVSPost2010PropOp41
 70
     1
102
RTVSPost2010Prop42
 90
       50
102
RTVSPost2010PropOp42
 70
     1
102
RTVSPost2010Prop43
 90
        3
102
RTVSPost2010PropOp43
 70
     1
102
RTVSPost2010Prop44ColorIndex
 90
        5
102
RTVSPost2010Prop44ColorRGB
 90
      255
102
RTVSPost2010PropOp44
 70
     1
102
RTVSPost2010Prop45
280
     0
102
RTVSPost2010PropOp45
 70
     1
102
RTVSPost2010Prop46
 90
       50
102
RTVSPost2010PropOp46
 70
     1
102
RTVSPost2010Prop47
 90
       50
102
RTVSPost2010PropOp47
 70
     1
102
RTVSPost2010Prop48
 90
       50
102
RTVSPost2010PropOp48
 70
     1
102
RTVSPost2010Prop49
280
     0
102
RTVSPost2010PropOp49
 70
     1
102
RTVSPost2010Prop50
 90
       50
102
RTVSPost2010PropOp50
 70
     1
102
RTVSPost2010Prop51ColorIndex
 90
      256
102
RTVSPost2010Prop51ColorRGB
 90
-16777216
102
RTVSPost2010PropOp51
 70
     0
102
RTVSPost2010Prop52
140
1.0
102
RTVSPost2010PropOp52
 70
     0
102
RTVSPost2010Prop53
 90
        2
102
RTVSPost2010PropOp53
 70
     1
102
RTVSPost2010Prop54
  1
strokes_ogs.tif
102
RTVSPost2010PropOp54
 70
     1
102
RTVSPost2010Prop55
280
     0
102
RTVSPost2010PropOp55
 70
     1
102
RTVSPost2010Prop56
140
1.0
102
RTVSPost2010PropOp56
 70
     1
102
RTVSPost2010Prop57
140
1.0
102
RTVSPost2010PropOp57
 70
     1
102
RTVSPropertyOp0
 70
     1
102
RTVSPropertyOp1
 70
     1
102
RTVSPropertyOp2
 70
     1
102
RTVSPropertyOp3
 70
     1
102
RTVSPropertyOp4
 70
     1
102
RTVSPropertyOp5
 70
     1
102
RTVSPropertyOp6
 70
     1
102
RTVSPropertyOp7
 70
     1
102
RTVSPropertyOp8
 70
     1
102
RTVSPropertyOp9
 70
     1
102
RTVSPropertyOp10
 70
     1
102
RTVSPropertyOp11
 70
     1
102
RTVSPropertyOp12
 70
     1
102
RTVSPropertyOp13
 70
     1
102
RTVSPropertyOp14
 70
     1
102
RTVSPropertyOp15
 70
     1
102
RTVSPropertyOp16
 70
     1
102
RTVSPropertyOp17
 70
     1
102
RTVSPropertyOp18
 70
     1
102
RTVSPropertyOp19
 70
     1
102
RTVSPropertyOp20
 70
     1
102
RTVSPropertyOp21
 70
     1
102
RTVSPropertyOp22
 70
     1
102
RTVSPropertyOp23
 70
     1
102
RTVSPropertyOp24
 70
     1
102
RTVSPropertyOp25
 70
     1
102
RTVSPropertyOp26
 70
     1
102
RTVSPropertyOp27
 70
     1
102
RTVSPropertyOp28
 70
     1
102
RTVSPropertyOp29
 70
     1
102
RTVSPropertyOp30
 70
     1
102
RTVSPropertyOp31
 70
     1
102
RTVSPropertyOp32
 70
     1
102
RTVSPropertyOp33
 70
     1
102
RTVSPropertyOp34
 70
     1
102
RTVSPropertyOp35
 70
     1
102
RTVSPropertyOp36
 70
     1
102
RTVSPropertyOp37
 70
     1
102
RTVSPropertyOp38
 70
     1
102
RTVSPropertyOp39
 70
     1
102
RTVSPropertyOp40
 70
     1
102
RTVSPropertyOp41
 70
     1
102
RTVSPropertyOp42
 70
     1
102
RTVSPropertyOp43
 70
     1
102
RTVSPropertyOp44
 70
     1
102
RTVSPropertyOp45
 70
     1
102
RTVSPropertyOp46
 70
     1
102
RTVSPropertyOp47
 70
     1
102
RTVSPropertyOp48
 70
     1
102
RTVSPropertyOp49
 70
     1
102
RTVSPropertyOp50
 70
     1
102
RTVSPropertyOp51
 70
     0
102
RTVSPropertyOp52
 70
     0
102
RTVSPropertyOp53
 70
     1
102
RTVSPropertyOp54
 70
     1
102
RTVSPropertyOp55
 70
     1
102
RTVSPropertyOp56
 70
     1
102
RTVSPropertyOp57
 70
     1
102
RTVSPropertyOp58
 70
     1
102
RTVSPropertyOp59
 70
     1
102
RTVSPropertyOp60
 70
     1
102
RTVSPropertyOp61
 70
     1
102
RTVSPropertyOp62
 70
     1
  0
XRECORD
  5
25B9
102
{ACAD_REACTORS
330
25B8
102
}
330
25B8
100
AcDbXrecord
280
     1
102
RTVSPost2010Prop28
280
     0
102
RTVSPost2010PropOp28
 70
     1
102
RTVSPost2010Prop29
280
     1
102
RTVSPost2010PropOp29
 70
     1
102
RTVSPost2010Prop30
280
     1
102
RTVSPost2010PropOp30
 70
     1
102
RTVSPost2010Prop31
280
     0
102
RTVSPost2010PropOp31
 70
     1
102
RTVSPost2010Prop32
280
     0
102
RTVSPost2010PropOp32
 70
     1
102
RTVSPost2010Prop33
280
     0
102
RTVSPost2010PropOp33
 70
     1
102
RTVSPost2010Prop34
280
     0
102
RTVSPost2010PropOp34
 70
     1
102
RTVSPost2010Prop35
280
     0
102
RTVSPost2010PropOp35
 70
     1
102
RTVSPost2010Prop36
280
     0
102
RTVSPost2010PropOp36
 70
     1
102
RTVSPost2010Prop37
 90
       50
102
RTVSPost2010PropOp37
 70
     1
102
RTVSPost2010Prop38
140
0.0
102
RTVSPost2010PropOp38
 70
     1
102
RTVSPost2010Prop39
140
1.0
102
RTVSPost2010PropOp39
 70
     1
102
RTVSPost2010Prop40
 90
        0
102
RTVSPost2010PropOp40
 70
     1
102
RTVSPost2010Prop41ColorIndex
 90
       18
102
RTVSPost2010Prop41ColorRGB
 90
        0
102
RTVSPost2010PropOp41
 70
     1
102
RTVSPost2010Prop42
 90
       50
102
RTVSPost2010PropOp42
 70
     1
102
RTVSPost2010Prop43
 90
        3
102
RTVSPost2010PropOp43
 70
     1
102
RTVSPost2010Prop44ColorIndex
 90
        5
102
RTVSPost2010Prop44ColorRGB
 90
      255
102
RTVSPost2010PropOp44
 70
     1
102
RTVSPost2010Prop45
280
     0
102
RTVSPost2010PropOp45
 70
     1
102
RTVSPost2010Prop46
 90
       50
102
RTVSPost2010PropOp46
 70
     1
102
RTVSPost2010Prop47
 90
       50
102
RTVSPost2010PropOp47
 70
     1
102
RTVSPost2010Prop48
 90
       50
102
RTVSPost2010PropOp48
 70
     1
102
RTVSPost2010Prop49
280
     0
102
RTVSPost2010PropOp49
 70
     1
102
RTVSPost2010Prop50
 90
       50
102
RTVSPost2010PropOp50
 70
     1
102
RTVSPost2010Prop51ColorIndex
 90
      256
102
RTVSPost2010Prop51ColorRGB
 90
-16777216
102
RTVSPost2010PropOp51
 70
     0
102
RTVSPost2010Prop52
140
1.0
102
RTVSPost2010PropOp52
 70
     0
102
RTVSPost2010Prop53
 90
        2
102
RTVSPost2010PropOp53
 70
     1
102
RTVSPost2010Prop54
  1
strokes_ogs.tif
102
RTVSPost2010PropOp54
 70
     1
102
RTVSPost2010Prop55
280
     0
102
RTVSPost2010PropOp55
 70
     1
102
RTVSPost2010Prop56
140
1.0
102
RTVSPost2010PropOp56
 70
     1
102
RTVSPost2010Prop57
140
1.0
102
RTVSPost2010PropOp57
 70
     1
102
RTVSPropertyOp0
 70
     1
102
RTVSPropertyOp1
 70
     1
102
RTVSPropertyOp2
 70
     1
102
RTVSPropertyOp3
 70
     1
102
RTVSPropertyOp4
 70
     1
102
RTVSPropertyOp5
 70
     1
102
RTVSPropertyOp6
 70
     1
102
RTVSPropertyOp7
 70
     1
102
RTVSPropertyOp8
 70
     1
102
RTVSPropertyOp9
 70
     1
102
RTVSPropertyOp10
 70
     1
102
RTVSPropertyOp11
 70
     1
102
RTVSPropertyOp12
 70
     1
102
RTVSPropertyOp13
 70
     1
102
RTVSPropertyOp14
 70
     1
102
RTVSPropertyOp15
 70
     1
102
RTVSPropertyOp16
 70
     1
102
RTVSPropertyOp17
 70
     1
102
RTVSPropertyOp18
 70
     1
102
RTVSPropertyOp19
 70
     1
102
RTVSPropertyOp20
 70
     1
102
RTVSPropertyOp21
 70
     1
102
RTVSPropertyOp22
 70
     1
102
RTVSPropertyOp23
 70
     1
102
RTVSPropertyOp24
 70
     1
102
RTVSPropertyOp25
 70
     1
102
RTVSPropertyOp26
 70
     1
102
RTVSPropertyOp27
 70
     1
102
RTVSPropertyOp28
 70
     1
102
RTVSPropertyOp29
 70
     1
102
RTVSPropertyOp30
 70
     1
102
RTVSPropertyOp31
 70
     1
102
RTVSPropertyOp32
 70
     1
102
RTVSPropertyOp33
 70
     1
102
RTVSPropertyOp34
 70
     1
102
RTVSPropertyOp35
 70
     1
102
RTVSPropertyOp36
 70
     1
102
RTVSPropertyOp37
 70
     1
102
RTVSPropertyOp38
 70
     1
102
RTVSPropertyOp39
 70
     1
102
RTVSPropertyOp40
 70
     1
102
RTVSPropertyOp41
 70
     1
102
RTVSPropertyOp42
 70
     1
102
RTVSPropertyOp43
 70
     1
102
RTVSPropertyOp44
 70
     1
102
RTVSPropertyOp45
 70
     1
102
RTVSPropertyOp46
 70
     1
102
RTVSPropertyOp47
 70
     1
102
RTVSPropertyOp48
 70
     1
102
RTVSPropertyOp49
 70
     1
102
RTVSPropertyOp50
 70
     1
102
RTVSPropertyOp51
 70
     0
102
RTVSPropertyOp52
 70
     0
102
RTVSPropertyOp53
 70
     1
102
RTVSPropertyOp54
 70
     1
102
RTVSPropertyOp55
 70
     1
102
RTVSPropertyOp56
 70
     1
102
RTVSPropertyOp57
 70
     1
102
RTVSPropertyOp58
 70
     1
102
RTVSPropertyOp59
 70
     1
102
RTVSPropertyOp60
 70
     1
102
RTVSPropertyOp61
 70
     1
102
RTVSPropertyOp62
 70
     1
  0
XRECORD
  5
25AD
102
{ACAD_REACTORS
330
25AC
102
}
330
25AC
100
AcDbXrecord
280
     1
102
RTVSPost2010Prop28
280
     0
102
RTVSPost2010PropOp28
 70
     1
102
RTVSPost2010Prop29
280
     1
102
RTVSPost2010PropOp29
 70
     1
102
RTVSPost2010Prop30
280
     1
102
RTVSPost2010PropOp30
 70
     1
102
RTVSPost2010Prop31
280
     0
102
RTVSPost2010PropOp31
 70
     1
102
RTVSPost2010Prop32
280
     0
102
RTVSPost2010PropOp32
 70
     1
102
RTVSPost2010Prop33
280
     0
102
RTVSPost2010PropOp33
 70
     1
102
RTVSPost2010Prop34
280
     0
102
RTVSPost2010PropOp34
 70
     1
102
RTVSPost2010Prop35
280
     0
102
RTVSPost2010PropOp35
 70
     1
102
RTVSPost2010Prop36
280
     0
102
RTVSPost2010PropOp36
 70
     1
102
RTVSPost2010Prop37
 90
       50
102
RTVSPost2010PropOp37
 70
     1
102
RTVSPost2010Prop38
140
0.0
102
RTVSPost2010PropOp38
 70
     1
102
RTVSPost2010Prop39
140
1.0
102
RTVSPost2010PropOp39
 70
     1
102
RTVSPost2010Prop40
 90
        0
102
RTVSPost2010PropOp40
 70
     1
102
RTVSPost2010Prop41ColorIndex
 90
       18
102
RTVSPost2010Prop41ColorRGB
 90
        0
102
RTVSPost2010PropOp41
 70
     1
102
RTVSPost2010Prop42
 90
       50
102
RTVSPost2010PropOp42
 70
     1
102
RTVSPost2010Prop43
 90
        3
102
RTVSPost2010PropOp43
 70
     1
102
RTVSPost2010Prop44ColorIndex
 90
        5
102
RTVSPost2010Prop44ColorRGB
 90
      255
102
RTVSPost2010PropOp44
 70
     1
102
RTVSPost2010Prop45
280
     0
102
RTVSPost2010PropOp45
 70
     1
102
RTVSPost2010Prop46
 90
       50
102
RTVSPost2010PropOp46
 70
     1
102
RTVSPost2010Prop47
 90
       50
102
RTVSPost2010PropOp47
 70
     1
102
RTVSPost2010Prop48
 90
       50
102
RTVSPost2010PropOp48
 70
     1
102
RTVSPost2010Prop49
280
     0
102
RTVSPost2010PropOp49
 70
     1
102
RTVSPost2010Prop50
 90
       50
102
RTVSPost2010PropOp50
 70
     1
102
RTVSPost2010Prop51ColorIndex
 90
      256
102
RTVSPost2010Prop51ColorRGB
 90
-16777216
102
RTVSPost2010PropOp51
 70
     0
102
RTVSPost2010Prop52
140
1.0
102
RTVSPost2010PropOp52
 70
     0
102
RTVSPost2010Prop53
 90
        2
102
RTVSPost2010PropOp53
 70
     1
102
RTVSPost2010Prop54
  1
strokes_ogs.tif
102
RTVSPost2010PropOp54
 70
     1
102
RTVSPost2010Prop55
280
     0
102
RTVSPost2010PropOp55
 70
     1
102
RTVSPost2010Prop56
140
1.0
102
RTVSPost2010PropOp56
 70
     1
102
RTVSPost2010Prop57
140
1.0
102
RTVSPost2010PropOp57
 70
     1
102
RTVSPropertyOp0
 70
     1
102
RTVSPropertyOp1
 70
     1
102
RTVSPropertyOp2
 70
     1
102
RTVSPropertyOp3
 70
     1
102
RTVSPropertyOp4
 70
     1
102
RTVSPropertyOp5
 70
     1
102
RTVSPropertyOp6
 70
     1
102
RTVSPropertyOp7
 70
     1
102
RTVSPropertyOp8
 70
     1
102
RTVSPropertyOp9
 70
     1
102
RTVSPropertyOp10
 70
     1
102
RTVSPropertyOp11
 70
     1
102
RTVSPropertyOp12
 70
     1
102
RTVSPropertyOp13
 70
     1
102
RTVSPropertyOp14
 70
     1
102
RTVSPropertyOp15
 70
     1
102
RTVSPropertyOp16
 70
     1
102
RTVSPropertyOp17
 70
     1
102
RTVSPropertyOp18
 70
     1
102
RTVSPropertyOp19
 70
     1
102
RTVSPropertyOp20
 70
     1
102
RTVSPropertyOp21
 70
     1
102
RTVSPropertyOp22
 70
     1
102
RTVSPropertyOp23
 70
     1
102
RTVSPropertyOp24
 70
     1
102
RTVSPropertyOp25
 70
     1
102
RTVSPropertyOp26
 70
     1
102
RTVSPropertyOp27
 70
     1
102
RTVSPropertyOp28
 70
     1
102
RTVSPropertyOp29
 70
     1
102
RTVSPropertyOp30
 70
     1
102
RTVSPropertyOp31
 70
     1
102
RTVSPropertyOp32
 70
     1
102
RTVSPropertyOp33
 70
     1
102
RTVSPropertyOp34
 70
     1
102
RTVSPropertyOp35
 70
     1
102
RTVSPropertyOp36
 70
     1
102
RTVSPropertyOp37
 70
     1
102
RTVSPropertyOp38
 70
     1
102
RTVSPropertyOp39
 70
     1
102
RTVSPropertyOp40
 70
     1
102
RTVSPropertyOp41
 70
     1
102
RTVSPropertyOp42
 70
     1
102
RTVSPropertyOp43
 70
     1
102
RTVSPropertyOp44
 70
     1
102
RTVSPropertyOp45
 70
     1
102
RTVSPropertyOp46
 70
     1
102
RTVSPropertyOp47
 70
     1
102
RTVSPropertyOp48
 70
     1
102
RTVSPropertyOp49
 70
     1
102
RTVSPropertyOp50
 70
     1
102
RTVSPropertyOp51
 70
     0
102
RTVSPropertyOp52
 70
     0
102
RTVSPropertyOp53
 70
     1
102
RTVSPropertyOp54
 70
     1
102
RTVSPropertyOp55
 70
     1
102
RTVSPropertyOp56
 70
     1
102
RTVSPropertyOp57
 70
     1
102
RTVSPropertyOp58
 70
     1
102
RTVSPropertyOp59
 70
     1
102
RTVSPropertyOp60
 70
     1
102
RTVSPropertyOp61
 70
     1
102
RTVSPropertyOp62
 70
     1
  0
XRECORD
  5
25C5
102
{ACAD_REACTORS
330
25C4
102
}
330
25C4
100
AcDbXrecord
280
     1
102
RTVSPost2010Prop28
280
     0
102
RTVSPost2010PropOp28
 70
     1
102
RTVSPost2010Prop29
280
     1
102
RTVSPost2010PropOp29
 70
     1
102
RTVSPost2010Prop30
280
     1
102
RTVSPost2010PropOp30
 70
     1
102
RTVSPost2010Prop31
280
     0
102
RTVSPost2010PropOp31
 70
     1
102
RTVSPost2010Prop32
280
     0
102
RTVSPost2010PropOp32
 70
     1
102
RTVSPost2010Prop33
280
     0
102
RTVSPost2010PropOp33
 70
     1
102
RTVSPost2010Prop34
280
     0
102
RTVSPost2010PropOp34
 70
     1
102
RTVSPost2010Prop35
280
     0
102
RTVSPost2010PropOp35
 70
     1
102
RTVSPost2010Prop36
280
     0
102
RTVSPost2010PropOp36
 70
     1
102
RTVSPost2010Prop37
 90
       50
102
RTVSPost2010PropOp37
 70
     1
102
RTVSPost2010Prop38
140
0.0
102
RTVSPost2010PropOp38
 70
     1
102
RTVSPost2010Prop39
140
1.0
102
RTVSPost2010PropOp39
 70
     1
102
RTVSPost2010Prop40
 90
        0
102
RTVSPost2010PropOp40
 70
     1
102
RTVSPost2010Prop41ColorIndex
 90
       18
102
RTVSPost2010Prop41ColorRGB
 90
        0
102
RTVSPost2010PropOp41
 70
     1
102
RTVSPost2010Prop42
 90
       50
102
RTVSPost2010PropOp42
 70
     1
102
RTVSPost2010Prop43
 90
        3
102
RTVSPost2010PropOp43
 70
     1
102
RTVSPost2010Prop44ColorIndex
 90
        5
102
RTVSPost2010Prop44ColorRGB
 90
      255
102
RTVSPost2010PropOp44
 70
     1
102
RTVSPost2010Prop45
280
     0
102
RTVSPost2010PropOp45
 70
     1
102
RTVSPost2010Prop46
 90
       50
102
RTVSPost2010PropOp46
 70
     1
102
RTVSPost2010Prop47
 90
       50
102
RTVSPost2010PropOp47
 70
     1
102
RTVSPost2010Prop48
 90
       50
102
RTVSPost2010PropOp48
 70
     1
102
RTVSPost2010Prop49
280
     0
102
RTVSPost2010PropOp49
 70
     1
102
RTVSPost2010Prop50
 90
       50
102
RTVSPost2010PropOp50
 70
     1
102
RTVSPost2010Prop51ColorIndex
 90
      256
102
RTVSPost2010Prop51ColorRGB
 90
-16777216
102
RTVSPost2010PropOp51
 70
     0
102
RTVSPost2010Prop52
140
1.0
102
RTVSPost2010PropOp52
 70
     0
102
RTVSPost2010Prop53
 90
        2
102
RTVSPost2010PropOp53
 70
     1
102
RTVSPost2010Prop54
  1
strokes_ogs.tif
102
RTVSPost2010PropOp54
 70
     1
102
RTVSPost2010Prop55
280
     0
102
RTVSPost2010PropOp55
 70
     1
102
RTVSPost2010Prop56
140
1.0
102
RTVSPost2010PropOp56
 70
     1
102
RTVSPost2010Prop57
140
1.0
102
RTVSPost2010PropOp57
 70
     1
102
RTVSPropertyOp0
 70
     1
102
RTVSPropertyOp1
 70
     1
102
RTVSPropertyOp2
 70
     1
102
RTVSPropertyOp3
 70
     1
102
RTVSPropertyOp4
 70
     1
102
RTVSPropertyOp5
 70
     1
102
RTVSPropertyOp6
 70
     1
102
RTVSPropertyOp7
 70
     1
102
RTVSPropertyOp8
 70
     1
102
RTVSPropertyOp9
 70
     1
102
RTVSPropertyOp10
 70
     1
102
RTVSPropertyOp11
 70
     1
102
RTVSPropertyOp12
 70
     1
102
RTVSPropertyOp13
 70
     1
102
RTVSPropertyOp14
 70
     1
102
RTVSPropertyOp15
 70
     1
102
RTVSPropertyOp16
 70
     1
102
RTVSPropertyOp17
 70
     1
102
RTVSPropertyOp18
 70
     1
102
RTVSPropertyOp19
 70
     1
102
RTVSPropertyOp20
 70
     1
102
RTVSPropertyOp21
 70
     1
102
RTVSPropertyOp22
 70
     1
102
RTVSPropertyOp23
 70
     1
102
RTVSPropertyOp24
 70
     1
102
RTVSPropertyOp25
 70
     1
102
RTVSPropertyOp26
 70
     1
102
RTVSPropertyOp27
 70
     1
102
RTVSPropertyOp28
 70
     1
102
RTVSPropertyOp29
 70
     1
102
RTVSPropertyOp30
 70
     1
102
RTVSPropertyOp31
 70
     1
102
RTVSPropertyOp32
 70
     1
102
RTVSPropertyOp33
 70
     1
102
RTVSPropertyOp34
 70
     1
102
RTVSPropertyOp35
 70
     1
102
RTVSPropertyOp36
 70
     1
102
RTVSPropertyOp37
 70
     1
102
RTVSPropertyOp38
 70
     1
102
RTVSPropertyOp39
 70
     1
102
RTVSPropertyOp40
 70
     1
102
RTVSPropertyOp41
 70
     1
102
RTVSPropertyOp42
 70
     1
102
RTVSPropertyOp43
 70
     1
102
RTVSPropertyOp44
 70
     1
102
RTVSPropertyOp45
 70
     1
102
RTVSPropertyOp46
 70
     1
102
RTVSPropertyOp47
 70
     1
102
RTVSPropertyOp48
 70
     1
102
RTVSPropertyOp49
 70
     1
102
RTVSPropertyOp50
 70
     1
102
RTVSPropertyOp51
 70
     0
102
RTVSPropertyOp52
 70
     0
102
RTVSPropertyOp53
 70
     1
102
RTVSPropertyOp54
 70
     1
102
RTVSPropertyOp55
 70
     1
102
RTVSPropertyOp56
 70
     1
102
RTVSPropertyOp57
 70
     1
102
RTVSPropertyOp58
 70
     1
102
RTVSPropertyOp59
 70
     1
102
RTVSPropertyOp60
 70
     1
102
RTVSPropertyOp61
 70
     1
102
RTVSPropertyOp62
 70
     1
  0
ENDSEC
  0
EOF
