  0
SECTION
  2
HEADER
  9
$ACADVER
  1
AC1024
  9
$DWGCODEPAGE
  3
ANSI_932
  9
$LTSCALE
 40
20.0
  9
$FILLMODE
 70
     1
  9
$CLAYER
  8
0
  9
$PDMODE
 70
     0
  9
$SPLFRAME
 70
     0
  9
$SPLINETYPE
 70
     6
  9
$SPLINESEGS
 70
     8
  9
$DIMASZ
 40
2.000000
  9
$DIMEXE
 40
1.500000
  9
$DIMEXO
 40
0.800000
  9
$DIMTAD
 70
     1
  9
$DIMTIH
 70
     0
  9
$DIMTOH
 70
     0
  9
$DIMTVP
 40
0.500000
  9
$DIMTXT
 40
3.100000
  9
$EXTMIN
 10
0.000000
 20
0.000000
 30
0.000000
  9
$EXTMAX
 10
297.000000
 20
420.000000
 30
0.000000
  9
$MEASUREMENT
 70
  1
  9
$LIMMIN
 10
0.000000
 20
0.000000
  9
$LIMMAX
 10
297.000000
 20
420.000000
  9
$HANDSEED
  5
E1
  9
$LWDISPLAY
290
     0
  9
$DIMBLK
  1
_OPEN
  9
$DIMDEC
 70
     2
  9
$DIMADEC
 70
     2
  9
$DIMAUNIT
 70
     0
  9
$DIMZIN
 70
     8
  9
$DIMAZIN
 70
     2
  9
$DIMTOFL
 70
     1
  0
ENDSEC
  0
SECTION
  2
CLASSES
  0
ENDSEC
  0
SECTION
  2
TABLES
  0
TABLE
  2
VPORT
  5
AD
100
AcDbSymbolTable
 70
     1
  0
VPORT
  5
AE
100
AcDbSymbolTableRecord
100
AcDbViewportTableRecord
  2
*ACTIVE
 70
     0
 12
101.407066
 22
113.015519
 40
190.031037
 41
0.962023
  0
ENDTAB
  0
TABLE
  2
LTYPE
  5
AF
100
AcDbSymbolTable
 70
     2
  0
LTYPE
  5
B0
100
AcDbSymbolTableRecord
100
AcDbLinetypeTableRecord
  2
BYBLOCK
 70
     0
  3

 72
    65
 73
     0
 40
0.0
  0
LTYPE
  5
B1
100
AcDbSymbolTableRecord
100
AcDbLinetypeTableRecord
  2
BYLAYER
 70
     0
  3

 72
    65
 73
     0
 40
0.0
  0
LTYPE
  5
B2
100
AcDbSymbolTableRecord
100
AcDbLinetypeTableRecord
  2
CONTINUOUS
 70
     0
  3
Solid line (NEC CAE2D for Win R17.0 : 2023.08.17)
 72
    65
 73
     0
 40
0.0
  0
LTYPE
  5
B3
100
AcDbSymbolTableRecord
100
AcDbLinetypeTableRecord
  2
CENTER
 70
     0
  3
____ _ ____ _ ____ _ ____ _ ____ _ ____
 72
    65
 73
     4
 40
2.0
 49
1.25
 74
     0
 49
-0.25
 74
     0
 49
0.25
 74
     0
 49
-0.25
 74
     0
  0
ENDTAB
  0
TABLE
  2
LAYER
  5
B4
100
AcDbSymbolTable
 70
    14
  0
LAYER
  5
B5
100
AcDbSymbolTableRecord
100
AcDbLayerTableRecord
  2
0
 70
     0
 62
     7
  6
CONTINUOUS
370
    -3
390

  0
LAYER
  5
B6
100
AcDbSymbolTableRecord
100
AcDbLayerTableRecord
  2
A0
 70
     0
 62
     9
  6
CONTINUOUS
370
    -3
390

  0
LAYER
  5
B7
100
AcDbSymbolTableRecord
100
AcDbLayerTableRecord
  2
A3
 70
     0
 62
    12
  6
CONTINUOUS
370
    -3
390

  0
LAYER
  5
B8
100
AcDbSymbolTableRecord
100
AcDbLayerTableRecord
  2
A4
 70
     0
 62
     9
  6
CONTINUOUS
370
    -3
390

  0
LAYER
  5
B9
100
AcDbSymbolTableRecord
100
AcDbLayerTableRecord
  2
A5
 70
     0
 62
     8
  6
CONTINUOUS
370
    -3
390

  0
LAYER
  5
BA
100
AcDbSymbolTableRecord
100
AcDbLayerTableRecord
  2
A6
 70
     0
 62
    12
  6
CONTINUOUS
370
    -3
390

  0
LAYER
  5
BB
100
AcDbSymbolTableRecord
100
AcDbLayerTableRecord
  2
A8
 70
     0
 62
    10
  6
CONTINUOUS
370
    -3
390

  0
LAYER
  5
BC
100
AcDbSymbolTableRecord
100
AcDbLayerTableRecord
  2
A9
 70
     0
 62
     9
  6
CONTINUOUS
370
    -3
390

  0
LAYER
  5
BD
100
AcDbSymbolTableRecord
100
AcDbLayerTableRecord
  2
A10
 70
     0
 62
     6
  6
CONTINUOUS
370
    -3
390

  0
LAYER
  5
BE
100
AcDbSymbolTableRecord
100
AcDbLayerTableRecord
  2
A20
 70
     0
 62
     1
  6
CONTINUOUS
370
    -3
390

  0
LAYER
  5
BF
100
AcDbSymbolTableRecord
100
AcDbLayerTableRecord
  2
A30
 70
     0
 62
     1
  6
CONTINUOUS
370
    -3
390

  0
LAYER
  5
C0
100
AcDbSymbolTableRecord
100
AcDbLayerTableRecord
  2
A40
 70
     0
 62
     9
  6
CONTINUOUS
370
    -3
390

  0
LAYER
  5
C1
100
AcDbSymbolTableRecord
100
AcDbLayerTableRecord
  2
A50
 70
     0
 62
    12
  6
CONTINUOUS
370
    -3
390

  0
LAYER
  5
C2
100
AcDbSymbolTableRecord
100
AcDbLayerTableRecord
  2
A1023
 70
     0
 62
    16
  6
CONTINUOUS
370
    -3
390

  0
ENDTAB
  0
TABLE
  2
STYLE
  5
C3
100
AcDbSymbolTable
 70
     4
  0
STYLE
  5
C4
100
AcDbSymbolTableRecord
100
AcDbTextStyleTableRecord
  2
STANDARD
 70
    64
 40
0.0
 41
1.0
 50
0.0
 71
     0
 42
3.000000000000000
  3
TXT
  4

  0
STYLE
  5
C5
100
AcDbSymbolTableRecord
100
AcDbTextStyleTableRecord
  2
ANKTATE
 70
    68
 40
0.0
 41
1.0
 50
0.0
 71
     0
 42
3.000000000000000
  3
TXT
  4

  0
STYLE
  5
C6
100
AcDbSymbolTableRecord
100
AcDbTextStyleTableRecord
  2
KNJYOKO
 70
    64
 40
0.0
 41
1.0
 50
0.0
 71
     0
 42
3.000000000000000
  3
TXT
  4
BIGFONT
  0
STYLE
  5
C7
100
AcDbSymbolTableRecord
100
AcDbTextStyleTableRecord
  2
KNJTATE
 70
    68
 40
0.0
 41
1.0
 50
0.0
 71
     0
 42
3.000000000000000
  3
TXT
  4
BIGFONT
  0
ENDTAB
  0
TABLE
  2
VIEW
  5
C8
100
AcDbSymbolTable
 70
     0
  0
ENDTAB
  0
TABLE
  2
UCS
  5
C9
100
AcDbSymbolTable
 70
     0
  0
ENDTAB
  0
TABLE
  2
APPID
  5
CA
100
AcDbSymbolTable
 70
     1
  0
APPID
  5
CB
100
AcDbSymbolTableRecord
100
AcDbRegAppTableRecord
  2
ACAD
 70
     0
  0
ENDTAB
  0
TABLE
  2
DIMSTYLE
  5
CC
100
AcDbSymbolTable
 70
     2
100
AcDbDimStyleTable
  0
DIMSTYLE
105
CD
100
AcDbSymbolTableRecord
100
AcDbDimStyleTableRecord
  2
STANDARD
 70
     0
 41
2.000000
 44
1.500000
 42
0.800000
145
0.661290
140
3.100000
144
1.000000
146
0.645161
340
C4
  0
DIMSTYLE
105
CE
100
AcDbSymbolTableRecord
100
AcDbDimStyleTableRecord
  2
A001
 70
     0
 41
2.000000
 44
1.500000
 42
0.800000
145
0.661290
140
3.100000
144
1.000000
146
0.645161
 77
     1
 73
     0
 74
     0
271
     2
179
     2
275
     0
 78
     8
 79
     2
172
     1
340
C4
  0
ENDTAB
  0
TABLE
  2
BLOCK_RECORD
  5
CF
100
AcDbSymbolTable
 70
    12
  0
BLOCK_RECORD
  5
D0
100
AcDbSymbolTableRecord
100
AcDbBlockTableRecord
  2
*MODEL_SPACE
  0
BLOCK_RECORD
  5
D1
100
AcDbSymbolTableRecord
100
AcDbBlockTableRecord
  2
*PAPER_SPACE
  0
BLOCK_RECORD
  5
D2
100
AcDbSymbolTableRecord
100
AcDbBlockTableRecord
  2
*PAPER_SPACE0
  0
BLOCK_RECORD
  5
1
100
AcDbSymbolTableRecord
100
AcDbBlockTableRecord
  2
_NONE
  0
BLOCK_RECORD
  5
4
100
AcDbSymbolTableRecord
100
AcDbBlockTableRecord
  2
_CLOSED
  0
BLOCK_RECORD
  5
B
100
AcDbSymbolTableRecord
100
AcDbBlockTableRecord
  2
_DOT
  0
BLOCK_RECORD
  5
13
100
AcDbSymbolTableRecord
100
AcDbBlockTableRecord
  2
_OPEN
  0
BLOCK_RECORD
  5
19
100
AcDbSymbolTableRecord
100
AcDbBlockTableRecord
  2
_ORIGIN
  0
BLOCK_RECORD
  5
1E
100
AcDbSymbolTableRecord
100
AcDbBlockTableRecord
  2
_OPEN30
  0
BLOCK_RECORD
  5
24
100
AcDbSymbolTableRecord
100
AcDbBlockTableRecord
  2
_BOXFILLED
  0
BLOCK_RECORD
  5
29
100
AcDbSymbolTableRecord
100
AcDbBlockTableRecord
  2
_BOXBLANK
  0
BLOCK_RECORD
  5
31
100
AcDbSymbolTableRecord
100
AcDbBlockTableRecord
  2
_OBLIQUE
  0
BLOCK_RECORD
  5
35
100
AcDbSymbolTableRecord
100
AcDbBlockTableRecord
  2
_OPEN90
  0
BLOCK_RECORD
  5
3B
100
AcDbSymbolTableRecord
100
AcDbBlockTableRecord
  2
_CLOSEDBLANK
  0
BLOCK_RECORD
  5
41
100
AcDbSymbolTableRecord
100
AcDbBlockTableRecord
  2
_DOTBLANK
  0
ENDTAB
  0
ENDSEC
  0
SECTION
  2
BLOCKS
  0
BLOCK
  5
D3
100
AcDbEntity
  8
0
100
AcDbBlockBegin
  2
*MODEL_SPACE
 70
     0
 10
0.0
 20
0.0
 30
0.0
  3
*MODEL_SPACE
  1

  0
ENDBLK
  5
D4
100
AcDbEntity
  8
0
100
AcDbBlockEnd
  0
BLOCK
  5
D5
100
AcDbEntity
  8
0
100
AcDbBlockBegin
  2
*PAPER_SPACE
 70
     0
 10
0.0
 20
0.0
 30
0.0
  3
*PAPER_SPACE
  1

  0
ENDBLK
  5
D6
100
AcDbEntity
  8
0
100
AcDbBlockEnd
  0
BLOCK
  5
D7
100
AcDbEntity
  8
0
100
AcDbBlockBegin
  2
*PAPER_SPACE0
 70
     0
 10
0.0
 20
0.0
 30
0.0
  3
*PAPER_SPACE0
  1

  0
ENDBLK
  5
D8
100
AcDbEntity
  8
0
100
AcDbBlockEnd
  0
BLOCK
  5
2
330
1
100
AcDbEntity
  8
0
100
AcDbBlockBegin
  2
_NONE
 70
     0
 10
0.0
 20
0.0
 30
0.0
  3
_NONE
  1

  0
ENDBLK
  5
3
330
1
100
AcDbEntity
  8
0
100
AcDbBlockEnd
  0
BLOCK
  5
5
330
4
100
AcDbEntity
  8
0
100
AcDbBlockBegin
  2
_CLOSED
 70
     0
 10
0.0
 20
0.0
 30
0.0
  3
_CLOSED
  1

  0
LINE
  5
6
330
4
100
AcDbEntity
  8
0
  6
BYBLOCK
 62
     0
370
    -2
100
AcDbLine
 10
-1.0
 20
0.166667
 30
0.0
 11
0.0
 21
0.0
 31
0.0
  0
LINE
  5
7
330
4
100
AcDbEntity
  8
0
  6
BYBLOCK
 62
     0
370
    -2
100
AcDbLine
 10
0.0
 20
0.0
 30
0.0
 11
-1.0
 21
-0.166667
 31
0.0
  0
LINE
  5
8
330
4
100
AcDbEntity
  8
0
  6
BYBLOCK
 62
     0
370
    -2
100
AcDbLine
 10
-1.0
 20
0.166667
 30
0.0
 11
-1.0
 21
-0.166667
 31
0.0
  0
LINE
  5
9
330
4
100
AcDbEntity
  8
0
  6
BYBLOCK
 62
     0
370
    -2
100
AcDbLine
 10
0.0
 20
0.0
 30
0.0
 11
-1.0
 21
0.0
 31
0.0
  0
ENDBLK
  5
A
330
4
100
AcDbEntity
  8
0
100
AcDbBlockEnd
  0
BLOCK
  5
C
330
B
100
AcDbEntity
  8
0
100
AcDbBlockBegin
  2
_DOT
 70
     0
 10
0.0
 20
0.0
 30
0.0
  3
_DOT
  1

  0
POLYLINE
  5
D
330
B
100
AcDbEntity
  8
0
  6
BYBLOCK
 62
     0
370
    -2
100
AcDb2dPolyline
 66
     1
 10
0.0
 20
0.0
 30
0.0
 70
     1
 40
0.5
 41
0.5
  0
VERTEX
  5
E
330
B
100
AcDbEntity
  8
0
  6
BYBLOCK
 62
     0
370
    -2
100
AcDbVertex
100
AcDb2dVertex
 10
-0.25
 20
0.0
 30
0.0
 42
1.0
  0
VERTEX
  5
F
330
B
100
AcDbEntity
  8
0
  6
BYBLOCK
 62
     0
370
    -2
100
AcDbVertex
100
AcDb2dVertex
 10
0.25
 20
0.0
 30
0.0
 42
1.0
  0
SEQEND
  5
10
330
B
100
AcDbEntity
  8
0
  6
BYBLOCK
 62
     0
370
    -2
  0
LINE
  5
11
330
B
100
AcDbEntity
  8
0
  6
BYBLOCK
 62
     0
370
    -2
100
AcDbLine
 10
-0.5
 20
0.0
 30
0.0
 11
-1.0
 21
0.0
 31
0.0
  0
ENDBLK
  5
12
330
B
100
AcDbEntity
  8
0
100
AcDbBlockEnd
  0
BLOCK
  5
14
330
13
100
AcDbEntity
  8
0
100
AcDbBlockBegin
  2
_OPEN
 70
     0
 10
0.0
 20
0.0
 30
0.0
  3
_OPEN
  1

  0
LINE
  5
15
330
13
100
AcDbEntity
  8
0
  6
BYBLOCK
 62
     0
370
    -2
100
AcDbLine
 10
-1.0
 20
0.166667
 30
0.0
 11
0.0
 21
0.0
 31
0.0
  0
LINE
  5
16
330
13
100
AcDbEntity
  8
0
  6
BYBLOCK
 62
     0
370
    -2
100
AcDbLine
 10
0.0
 20
0.0
 30
0.0
 11
-1.0
 21
-0.166667
 31
0.0
  0
LINE
  5
17
330
13
100
AcDbEntity
  8
0
  6
BYBLOCK
 62
     0
370
    -2
100
AcDbLine
 10
0.0
 20
0.0
 30
0.0
 11
-1.0
 21
0.0
 31
0.0
  0
ENDBLK
  5
18
330
13
100
AcDbEntity
  8
0
100
AcDbBlockEnd
  0
BLOCK
  5
1A
330
19
100
AcDbEntity
  8
0
100
AcDbBlockBegin
  2
_ORIGIN
 70
     0
 10
0.0
 20
0.0
 30
0.0
  3
_ORIGIN
  1

  0
CIRCLE
  5
1B
330
19
100
AcDbEntity
  8
0
  6
BYBLOCK
 62
     0
370
    -2
100
AcDbCircle
 10
0.0
 20
0.0
 30
0.0
 40
0.5
  0
LINE
  5
1C
330
19
100
AcDbEntity
  8
0
  6
BYBLOCK
 62
     0
370
    -2
100
AcDbLine
 10
0.0
 20
0.0
 30
0.0
 11
-1.0
 21
0.0
 31
0.0
  0
ENDBLK
  5
1D
330
19
100
AcDbEntity
  8
0
100
AcDbBlockEnd
  0
BLOCK
  5
1F
330
1E
100
AcDbEntity
  8
0
100
AcDbBlockBegin
  2
_OPEN30
 70
     0
 10
0.0
 20
0.0
 30
0.0
  3
_OPEN30
  1

  0
LINE
  5
20
330
1E
100
AcDbEntity
  8
0
  6
BYBLOCK
 62
     0
370
    -2
100
AcDbLine
 10
-1.0
 20
0.267949
 30
0.0
 11
0.0
 21
0.0
 31
0.0
  0
LINE
  5
21
330
1E
100
AcDbEntity
  8
0
  6
BYBLOCK
 62
     0
370
    -2
100
AcDbLine
 10
0.0
 20
0.0
 30
0.0
 11
-1.0
 21
-0.267949
 31
0.0
  0
LINE
  5
22
330
1E
100
AcDbEntity
  8
0
  6
BYBLOCK
 62
     0
370
    -2
100
AcDbLine
 10
0.0
 20
0.0
 30
0.0
 11
-1.0
 21
0.0
 31
0.0
  0
ENDBLK
  5
23
330
1E
100
AcDbEntity
  8
0
100
AcDbBlockEnd
  0
BLOCK
  5
25
330
24
100
AcDbEntity
  8
0
100
AcDbBlockBegin
  2
_BOXFILLED
 70
     0
 10
0.0
 20
0.0
 30
0.0
  3
_BOXFILLED
  1

  0
SOLID
  5
26
330
24
100
AcDbEntity
  8
0
  6
BYBLOCK
 62
     0
370
    -2
100
AcDbTrace
 10
-0.5
 20
0.5
 30
0.0
 11
0.5
 21
0.5
 31
0.0
 12
-0.5
 22
-0.5
 32
0.0
 13
0.5
 23
-0.5
 33
0.0
  0
LINE
  5
27
330
24
100
AcDbEntity
  8
0
  6
BYBLOCK
 62
     0
370
    -2
100
AcDbLine
 10
-0.5
 20
0.0
 30
0.0
 11
-1.0
 21
0.0
 31
0.0
  0
ENDBLK
  5
28
330
24
100
AcDbEntity
  8
0
100
AcDbBlockEnd
  0
BLOCK
  5
2A
330
29
100
AcDbEntity
  8
0
100
AcDbBlockBegin
  2
_BOXBLANK
 70
     0
 10
0.0
 20
0.0
 30
0.0
  3
_BOXBLANK
  1

  0
LINE
  5
2B
330
29
100
AcDbEntity
  8
0
  6
BYBLOCK
 62
     0
370
    -2
100
AcDbLine
 10
-0.5
 20
-0.5
 30
0.0
 11
0.5
 21
-0.5
 31
0.0
  0
LINE
  5
2C
330
29
100
AcDbEntity
  8
0
  6
BYBLOCK
 62
     0
370
    -2
100
AcDbLine
 10
0.5
 20
-0.5
 30
0.0
 11
0.5
 21
0.5
 31
0.0
  0
LINE
  5
2D
330
29
100
AcDbEntity
  8
0
  6
BYBLOCK
 62
     0
370
    -2
100
AcDbLine
 10
0.5
 20
0.5
 30
0.0
 11
-0.5
 21
0.5
 31
0.0
  0
LINE
  5
2E
330
29
100
AcDbEntity
  8
0
  6
BYBLOCK
 62
     0
370
    -2
100
AcDbLine
 10
-0.5
 20
0.5
 30
0.0
 11
-0.5
 21
-0.5
 31
0.0
  0
LINE
  5
2F
330
29
100
AcDbEntity
  8
0
  6
BYBLOCK
 62
     0
370
    -2
100
AcDbLine
 10
-0.5
 20
0.0
 30
0.0
 11
-1.0
 21
0.0
 31
0.0
  0
ENDBLK
  5
30
330
29
100
AcDbEntity
  8
0
100
AcDbBlockEnd
  0
BLOCK
  5
32
330
31
100
AcDbEntity
  8
0
100
AcDbBlockBegin
  2
_OBLIQUE
 70
     0
 10
0.0
 20
0.0
 30
0.0
  3
_OBLIQUE
  1

  0
LINE
  5
33
330
31
100
AcDbEntity
  8
0
  6
BYBLOCK
 62
     0
370
    -2
100
AcDbLine
 10
-0.5
 20
-0.5
 30
0.0
 11
0.5
 21
0.5
 31
0.0
  0
ENDBLK
  5
34
330
31
100
AcDbEntity
  8
0
100
AcDbBlockEnd
  0
BLOCK
  5
36
330
35
100
AcDbEntity
  8
0
100
AcDbBlockBegin
  2
_OPEN90
 70
     0
 10
0.0
 20
0.0
 30
0.0
  3
_OPEN90
  1

  0
LINE
  5
37
330
35
100
AcDbEntity
  8
0
  6
BYBLOCK
 62
     0
370
    -2
100
AcDbLine
 10
-0.5
 20
0.5
 30
0.0
 11
0.0
 21
0.0
 31
0.0
  0
LINE
  5
38
330
35
100
AcDbEntity
  8
0
  6
BYBLOCK
 62
     0
370
    -2
100
AcDbLine
 10
0.0
 20
0.0
 30
0.0
 11
-0.5
 21
-0.5
 31
0.0
  0
LINE
  5
39
330
35
100
AcDbEntity
  8
0
  6
BYBLOCK
 62
     0
370
    -2
100
AcDbLine
 10
0.0
 20
0.0
 30
0.0
 11
-1.0
 21
0.0
 31
0.0
  0
ENDBLK
  5
3A
330
35
100
AcDbEntity
  8
0
100
AcDbBlockEnd
  0
BLOCK
  5
3C
330
3B
100
AcDbEntity
  8
0
100
AcDbBlockBegin
  2
_CLOSEDBLANK
 70
     0
 10
0.0
 20
0.0
 30
0.0
  3
_CLOSEDBLANK
  1

  0
LINE
  5
3D
330
3B
100
AcDbEntity
  8
0
  6
BYBLOCK
 62
     0
370
    -2
100
AcDbLine
 10
-1.0
 20
0.1666666666666666
 30
0.0
 11
0.0
 21
0.0
 31
0.0
  0
LINE
  5
3E
330
3B
100
AcDbEntity
  8
0
  6
BYBLOCK
 62
     0
370
    -2
100
AcDbLine
 10
0.0
 20
0.0
 30
0.0
 11
-1.0
 21
-0.1666666666666666
 31
0.0
  0
LINE
  5
3F
330
3B
100
AcDbEntity
  8
0
  6
BYBLOCK
 62
     0
370
    -2
100
AcDbLine
 10
-1.0
 20
0.1666666666666666
 30
0.0
 11
-1.0
 21
-0.1666666666666666
 31
0.0
  0
ENDBLK
  5
40
330
3B
100
AcDbEntity
  8
0
100
AcDbBlockEnd
  0
BLOCK
  5
42
330
41
100
AcDbEntity
  8
0
100
AcDbBlockBegin
  2
_DOTBLANK
 70
     0
 10
0.0
 20
0.0
 30
0.0
  3
_DOTBLANK
  1

  0
CIRCLE
  5
43
330
41
100
AcDbEntity
  8
0
  6
BYBLOCK
 62
     0
370
    -2
100
AcDbCircle
 10
0.0
 20
0.0
 30
0.0
 40
0.5
  0
LINE
  5
44
330
41
100
AcDbEntity
  8
0
  6
BYBLOCK
 62
     0
370
    -2
100
AcDbLine
 10
-0.5
 20
0.0
 30
0.0
 11
-1.0
 21
0.0
 31
0.0
  0
ENDBLK
  5
45
330
41
100
AcDbEntity
  8
0
100
AcDbBlockEnd
  0
ENDSEC
  0
SECTION
  2
ENTITIES
  0
MTEXT
  5
46
100
AcDbEntity
  8
A8
  6
CONTINUOUS
 62
3
100
AcDbMText
 10
9.999997526638502
 20
18.00000076076889
 30
0.000000000000000
 40
3.000000000000000
 41
0.000000000000000
 44
0.6739999771118164
 71
     7
 72
     1
  1
{\H0.94x;{TYPE No.THA-112S-2}}
 11
1.000000000000000
 21
0.000000000000000
 31
0.000000000000000
  7
STANDARD
  0
POINT
  5
47
100
AcDbEntity
  8
A0
  6
CONTINUOUS
 62
3
100
AcDbPoint
 10
9.999997526638502
 20
18.00000076076889
 30
0.000000000000000
  0
POINT
  5
48
100
AcDbEntity
  8
A10
  6
CONTINUOUS
 62
3
100
AcDbPoint
 10
50.00000000000000
 20
50.00000000000000
 30
0.000000000000000
  0
LINE
  5
49
100
AcDbEntity
  8
A5
  6
CONTINUOUS
 62
7
100
AcDbLine
 10
33.81363450758585
 20
127.0300379921750
 30
0.000000000000000
 11
51.81363450758585
 21
127.0300379921750
 31
0.000000000000000
  0
LINE
  5
4A
100
AcDbEntity
  8
A3
  6
CENTER
 62
1
100
AcDbLine
 10
85.81363450758585
 20
208.0310379921750
 30
0.000000000000000
 11
85.81363450758585
 21
192.0300379921750
 31
0.000000000000000
  0
LINE
  5
4B
100
AcDbEntity
  8
A5
  6
CONTINUOUS
 62
7
100
AcDbLine
 10
136.8141345075859
 20
138.6540379921749
 30
0.000000000000000
 11
137.8141345075859
 21
127.0300379921751
 31
0.000000000000000
  0
LINE
  5
4C
100
AcDbEntity
  8
A5
  6
CONTINUOUS
 62
7
100
AcDbLine
 10
34.81363450758586
 20
138.6540379921749
 30
0.000000000000000
 11
33.81363450758585
 21
127.0300379921751
 31
0.000000000000000
  0
LINE
  5
4D
100
AcDbEntity
  8
A5
  6
CONTINUOUS
 62
7
100
AcDbLine
 10
119.8136345075858
 20
127.0300379921750
 30
0.000000000000000
 11
137.8141345075858
 21
127.0300379921750
 31
0.000000000000000
  0
LINE
  5
4E
100
AcDbEntity
  8
A5
  6
CONTINUOUS
 62
7
100
AcDbLine
 10
119.8136345075859
 20
127.0300379921750
 30
0.000000000000000
 11
118.6899345075859
 21
133.7380379921751
 31
0.000000000000000
  0
LINE
  5
4F
100
AcDbEntity
  8
A5
  6
CONTINUOUS
 62
7
100
AcDbLine
 10
51.81363450758586
 20
127.0300379921751
 30
0.000000000000000
 11
52.93733450758586
 21
133.7380379921750
 31
0.000000000000000
  0
LINE
  5
50
100
AcDbEntity
  8
A5
  6
CONTINUOUS
 62
7
100
AcDbLine
 10
33.81363450758585
 20
73.03043799217504
 30
0.000000000000000
 11
33.81363450758585
 21
65.03043799217504
 31
0.000000000000000
  0
LINE
  5
51
100
AcDbEntity
  8
A5
  6
CONTINUOUS
 62
7
100
AcDbLine
 10
137.8141345075858
 20
73.03043799217504
 30
0.000000000000000
 11
137.8141345075858
 21
65.03043799217504
 31
0.000000000000000
  0
LINE
  5
52
100
AcDbEntity
  8
A3
  6
CENTER
 62
1
100
AcDbLine
 10
30.81364450758585
 20
69.03043799217504
 30
0.000000000000000
 11
140.8141345075858
 21
69.03043799217504
 31
0.000000000000000
  0
LINE
  5
53
100
AcDbEntity
  8
A3
  6
CENTER
 62
1
100
AcDbLine
 10
129.3141345075858
 20
75.03043799217504
 30
0.000000000000000
 11
129.3141345075858
 21
63.03043799217502
 31
0.000000000000000
  0
LINE
  5
54
100
AcDbEntity
  8
A3
  6
CENTER
 62
1
100
AcDbLine
 10
42.31363450758585
 20
75.03043799217504
 30
0.000000000000000
 11
42.31363450758585
 21
63.03043799217502
 31
0.000000000000000
  0
LINE
  5
55
100
AcDbEntity
  8
A3
  6
CENTER
 62
1
100
AcDbLine
 10
85.81363450758585
 20
77.03043799217504
 30
0.000000000000000
 11
85.81363450758585
 21
61.03043799217504
 31
0.000000000000000
  0
LINE
  5
56
100
AcDbEntity
  8
A3
  6
CENTER
 62
1
100
AcDbLine
 10
42.31363450758585
 20
130.0300379921750
 30
0.000000000000000
 11
42.31363450758585
 21
124.0300379921750
 31
0.000000000000000
  0
LINE
  5
57
100
AcDbEntity
  8
A3
  6
CENTER
 62
1
100
AcDbLine
 10
129.3141345075858
 20
130.0300379921750
 30
0.000000000000000
 11
129.3141345075858
 21
124.0300379921750
 31
0.000000000000000
  0
LINE
  5
58
100
AcDbEntity
  8
A3
  6
CENTER
 62
1
100
AcDbLine
 10
85.81363450758585
 20
153.0300379921749
 30
0.000000000000000
 11
85.81363450758585
 21
138.4531359921749
 31
0.000000000000000
  0
LINE
  5
59
100
AcDbEntity
  8
A3
  6
CENTER
 62
1
100
AcDbLine
 10
31.81364450758585
 20
200.0300379921749
 30
0.000000000000000
 11
139.8141345075858
 21
200.0300379921749
 31
0.000000000000000
  0
LINE
  5
5A
100
AcDbEntity
  8
A5
  6
CONTINUOUS
 62
7
100
AcDbLine
 10
136.8141345075858
 20
203.5300379921749
 30
0.000000000000000
 11
136.8141345075858
 21
196.5300379921750
 31
0.000000000000000
  0
LINE
  5
5B
100
AcDbEntity
  8
A5
  6
CONTINUOUS
 62
7
100
AcDbLine
 10
34.81363450758585
 20
196.5300379921750
 30
0.000000000000000
 11
34.81363450758585
 21
203.5300379921749
 31
0.000000000000000
  0
LINE
  5
5C
100
AcDbEntity
  8
A5
  6
CONTINUOUS
 62
7
100
AcDbLine
 10
182.8141345075859
 20
150.0300379921749
 30
0.000000000000000
 11
192.8141345075856
 21
150.0300379921749
 31
0.000000000000000
  0
LINE
  5
5D
100
AcDbEntity
  8
A5
  6
CONTINUOUS
 62
7
100
AcDbLine
 10
184.3141345075859
 20
138.6540379921749
 30
0.000000000000000
 11
191.3141345075857
 21
138.6540379921749
 31
0.000000000000000
  0
LINE
  5
5E
100
AcDbEntity
  8
A5
  6
CONTINUOUS
 62
7
100
AcDbLine
 10
183.4101345075858
 20
127.0300379921750
 30
0.000000000000000
 11
192.2171345075857
 21
127.0300379921750
 31
0.000000000000000
  0
LINE
  5
5F
100
AcDbEntity
  8
A3
  6
CENTER
 62
1
100
AcDbLine
 10
187.8141345075857
 20
153.0300379921749
 30
0.000000000000000
 11
187.8141345075857
 21
124.0300379921750
 31
0.000000000000000
  0
LINE
  5
60
100
AcDbEntity
  8
A5
  6
CONTINUOUS
 62
7
100
AcDbLine
 10
182.8141345075859
 20
150.0300379921749
 30
0.000000000000000
 11
183.4101345075858
 21
127.0300379921750
 31
0.000000000000000
  0
LINE
  5
61
100
AcDbEntity
  8
A5
  6
CONTINUOUS
 62
7
100
AcDbLine
 10
192.8131345075859
 20
150.0300379921749
 30
0.000000000000000
 11
192.2171345075855
 21
127.0300379921751
 31
0.000000000000000
  0
LINE
  5
62
100
AcDbEntity
  8
A5
  6
CONTINUOUS
 62
7
100
AcDbLine
 10
184.3141345075859
 20
138.6540379921749
 30
0.000000000000000
 11
183.8141345075859
 21
127.0300379921751
 31
0.000000000000000
  0
LINE
  5
63
100
AcDbEntity
  8
A5
  6
CONTINUOUS
 62
7
100
AcDbLine
 10
191.3141345075858
 20
138.6540379921749
 30
0.000000000000000
 11
191.8141345075857
 21
127.0300379921751
 31
0.000000000000000
  0
LINE
  5
64
100
AcDbEntity
  8
A5
  6
CONTINUOUS
 62
7
100
AcDbLine
 10
182.8141345075859
 20
150.0300379921749
 30
0.000000000000000
 11
184.3141345075859
 21
138.6540379921749
 31
0.000000000000000
  0
LINE
  5
65
100
AcDbEntity
  8
A5
  6
CONTINUOUS
 62
7
100
AcDbLine
 10
191.3141345075858
 20
138.6540379921749
 30
0.000000000000000
 11
192.8141345075856
 21
150.0300379921750
 31
0.000000000000000
  0
LINE
  5
66
100
AcDbEntity
  8
A5
  6
CONTINUOUS
 62
7
100
AcDbLine
 10
83.59153450758585
 20
66.26603799217503
 30
0.000000000000000
 11
83.59153450758585
 21
67.96403799217504
 31
0.000000000000000
  0
LINE
  5
67
100
AcDbEntity
  8
A5
  6
CONTINUOUS
 62
7
100
AcDbLine
 10
80.92463450758585
 20
67.39023799217503
 30
0.000000000000000
 11
80.92463450758585
 21
70.66883799217504
 31
0.000000000000000
  0
LINE
  5
68
100
AcDbEntity
  8
A5
  6
CONTINUOUS
 62
7
100
AcDbLine
 10
81.81423450758587
 20
71.22273799217504
 30
0.000000000000000
 11
81.81423450758587
 21
66.83803799217503
 31
0.000000000000000
  0
LINE
  5
69
100
AcDbEntity
  8
A5
  6
CONTINUOUS
 62
7
100
AcDbLine
 10
82.70193450758585
 20
71.33823799217504
 30
0.000000000000000
 11
82.70193450758585
 21
66.72083799217503
 31
0.000000000000000
  0
LINE
  5
6A
100
AcDbEntity
  8
A5
  6
CONTINUOUS
 62
7
100
AcDbLine
 10
80.03503450758585
 20
71.46813799217503
 30
0.000000000000000
 11
80.03503450758585
 21
67.63563799217502
 31
0.000000000000000
  0
LINE
  5
6B
100
AcDbEntity
  8
A5
  6
CONTINUOUS
 62
7
100
AcDbLine
 10
83.59153450758585
 20
70.09683799217504
 30
0.000000000000000
 11
83.59153450758585
 21
71.79293799217503
 31
0.000000000000000
  0
LINE
  5
6C
100
AcDbEntity
  8
A5
  6
CONTINUOUS
 62
7
100
AcDbLine
 10
88.03573450758584
 20
66.52053799217504
 30
0.000000000000000
 11
88.03573450758584
 21
69.03043799217504
 31
0.000000000000000
  0
LINE
  5
6D
100
AcDbEntity
  8
A5
  6
CONTINUOUS
 62
7
100
AcDbLine
 10
90.25703450758584
 20
69.03043799217504
 30
0.000000000000000
 11
90.25703450758584
 21
66.89763799217504
 31
0.000000000000000
  0
LINE
  5
6E
100
AcDbEntity
  8
A5
  6
CONTINUOUS
 62
7
100
AcDbLine
 10
85.36883450758585
 20
69.03043799217504
 30
0.000000000000000
 11
84.47923450758586
 21
69.03043799217504
 31
0.000000000000000
  0
LINE
  5
6F
100
AcDbEntity
  8
A5
  6
CONTINUOUS
 62
7
100
AcDbLine
 10
88.03573450758584
 20
69.03043799217504
 30
0.000000000000000
 11
87.59003450758586
 21
69.03043799217504
 31
0.000000000000000
  0
LINE
  5
70
100
AcDbEntity
  8
A5
  6
CONTINUOUS
 62
7
100
AcDbLine
 10
93.43633450758587
 20
69.03043799217504
 30
0.000000000000000
 11
91.59943450758585
 21
69.03043799217504
 31
0.000000000000000
  0
LINE
  5
71
100
AcDbEntity
  8
A5
  6
CONTINUOUS
 62
7
100
AcDbLine
 10
91.15373450758585
 20
67.36673799217502
 30
0.000000000000000
 11
92.15883450758585
 21
71.11273799217501
 31
0.000000000000000
  0
LINE
  5
72
100
AcDbEntity
  8
A5
  6
CONTINUOUS
 62
7
100
AcDbLine
 10
84.47923450758586
 20
72.05643799217503
 30
0.000000000000000
 11
84.47923450758586
 21
66.00263799217504
 31
0.000000000000000
  0
LINE
  5
73
100
AcDbEntity
  8
A5
  6
CONTINUOUS
 62
7
100
AcDbLine
 10
85.36883450758585
 20
72.13033799217504
 30
0.000000000000000
 11
85.36883450758585
 21
65.92863799217503
 31
0.000000000000000
  0
LINE
  5
74
100
AcDbEntity
  8
A5
  6
CONTINUOUS
 62
7
100
AcDbLine
 10
86.25843450758585
 20
72.13033799217504
 30
0.000000000000000
 11
86.25843450758585
 21
65.92863799217503
 31
0.000000000000000
  0
LINE
  5
75
100
AcDbEntity
  8
A5
  6
CONTINUOUS
 62
7
100
AcDbLine
 10
87.14613450758586
 20
71.95533799217503
 30
0.000000000000000
 11
87.14613450758586
 21
66.10363799217504
 31
0.000000000000000
  0
LINE
  5
76
100
AcDbEntity
  8
A5
  6
CONTINUOUS
 62
7
100
AcDbLine
 10
88.92353450758584
 20
71.95173799217504
 30
0.000000000000000
 11
88.92353450758584
 21
66.38693799217504
 31
0.000000000000000
  0
LINE
  5
77
100
AcDbEntity
  8
A5
  6
CONTINUOUS
 62
7
100
AcDbLine
 10
88.03573450758584
 20
70.09683799217504
 30
0.000000000000000
 11
88.03573450758584
 21
71.53853799217504
 31
0.000000000000000
  0
LINE
  5
78
100
AcDbEntity
  8
A5
  6
CONTINUOUS
 62
7
100
AcDbLine
 10
89.81313450758584
 20
71.53313799217503
 30
0.000000000000000
 11
89.81313450758584
 21
69.47433799217504
 31
0.000000000000000
  0
LINE
  5
79
100
AcDbEntity
  8
A5
  6
CONTINUOUS
 62
7
100
AcDbLine
 10
90.70083450758585
 20
69.47433799217504
 30
0.000000000000000
 11
90.70083450758585
 21
71.37253799217504
 31
0.000000000000000
  0
LINE
  5
7A
100
AcDbEntity
  8
A3
  6
CENTER
 62
1
100
AcDbLine
 10
129.3141345075858
 20
207.0300379921749
 30
0.000000000000000
 11
129.3141345075858
 21
193.0300379921750
 31
0.000000000000000
  0
LINE
  5
7B
100
AcDbEntity
  8
A3
  6
CENTER
 62
1
100
AcDbLine
 10
42.31363450758585
 20
207.0300379921749
 30
0.000000000000000
 11
42.31363450758585
 21
193.0300379921750
 31
0.000000000000000
  0
LINE
  5
7C
100
AcDbEntity
  8
A5
  6
CONTINUOUS
 62
7
100
AcDbLine
 10
33.81363450758585
 20
204.0300379921749
 30
0.000000000000000
 11
33.81363450758585
 21
196.0300379921749
 31
0.000000000000000
  0
LINE
  5
7D
100
AcDbEntity
  8
A5
  6
CONTINUOUS
 62
7
100
AcDbLine
 10
137.8141345075858
 20
204.0300379921749
 30
0.000000000000000
 11
137.8141345075858
 21
196.0300379921749
 31
0.000000000000000
  0
LINE
  5
7E
100
AcDbEntity
  8
A5
  6
CONTINUOUS
 62
7
100
AcDbLine
 10
50.99543450758585
 20
127.0300379921750
 30
0.000000000000000
 11
52.14143450758585
 21
133.8710379921750
 31
0.000000000000000
  0
LINE
  5
7F
100
AcDbEntity
  8
A5
  6
CONTINUOUS
 62
7
100
AcDbLine
 10
120.6319345075859
 20
127.0300379921750
 30
0.000000000000000
 11
119.4858345075859
 21
133.8710379921750
 31
0.000000000000000
  0
ARC
  5
80
100
AcDbEntity
  8
A5
  6
CONTINUOUS
 62
7
100
AcDbCircle
 10
85.81363450758585
 20
30.03043799217504
 30
0.000000000000000
 40
120.0000000000000
100
AcDbArc
 50
64.84930000000000
 51
115.1510000000000
  0
ARC
  5
81
100
AcDbEntity
  8
A5
  6
CONTINUOUS
 62
7
100
AcDbCircle
 10
85.81363450758585
 20
30.03043799217504
 30
0.000000000000000
 40
114.0000000000000
100
AcDbArc
 50
76.78699999999998
 51
103.2129999999998
  0
ARC
  5
82
100
AcDbEntity
  8
A5
  6
CONTINUOUS
 62
7
100
AcDbCircle
 10
61.81363450758584
 20
132.2510379921749
 30
0.000000000000000
 40
9.000000000000000
100
AcDbArc
 50
103.2129999999998
 51
170.4889999999998
  0
ARC
  5
83
100
AcDbEntity
  8
A5
  6
CONTINUOUS
 62
7
100
AcDbCircle
 10
109.8136345075858
 20
132.2510379921749
 30
0.000000000000000
 40
9.000000000000000
100
AcDbArc
 50
9.510529999999999
 51
76.78699999999998
  0
ARC
  5
84
100
AcDbEntity
  8
A5
  6
CONTINUOUS
 62
7
100
AcDbCircle
 10
131.8141345075857
 20
69.03043799217504
 30
0.000000000000000
 40
12.00000000000000
100
AcDbArc
 50
158.4729999999999
 51
201.5270000000000
  0
ARC
  5
85
100
AcDbEntity
  8
A5
  6
CONTINUOUS
 62
7
100
AcDbCircle
 10
39.81363450758585
 20
69.03043799217504
 30
0.000000000000000
 40
12.00000000000000
100
AcDbArc
 50
338.4730000000000
 51
381.5269000000000
  0
CIRCLE
  5
86
100
AcDbEntity
  8
A6
  6
CONTINUOUS
 62
4
100
AcDbCircle
 10
129.3141345075858
 20
69.03043799217504
 30
0.000000000000000
 40
3.000000000000000
  0
CIRCLE
  5
87
100
AcDbEntity
  8
A6
  6
CONTINUOUS
 62
4
100
AcDbCircle
 10
42.31363450758585
 20
69.03043799217504
 30
0.000000000000000
 40
3.000000000000000
  0
CIRCLE
  5
88
100
AcDbEntity
  8
A5
  6
CONTINUOUS
 62
7
100
AcDbCircle
 10
42.31363450758585
 20
69.03043799217504
 30
0.000000000000000
 40
2.458499999999999
  0
CIRCLE
  5
89
100
AcDbEntity
  8
A5
  6
CONTINUOUS
 62
7
100
AcDbCircle
 10
129.3141345075858
 20
69.03043799217504
 30
0.000000000000000
 40
2.458499999999999
  0
ARC
  5
8A
100
AcDbEntity
  8
A5
  6
CONTINUOUS
 62
7
100
AcDbCircle
 10
85.81273450758584
 20
61.56383799217504
 30
0.000000000000000
 40
10.57680000000000
100
AcDbArc
 50
102.7290000000000
 51
103.2680000000000
  0
ARC
  5
8B
100
AcDbEntity
  8
A5
  6
CONTINUOUS
 62
7
100
AcDbCircle
 10
85.81273450758584
 20
61.56383799217504
 30
0.000000000000000
 40
10.57680000000000
100
AcDbArc
 50
103.2680000000000
 51
105.2580000000000
  0
ARC
  5
8C
100
AcDbEntity
  8
A5
  6
CONTINUOUS
 62
7
100
AcDbCircle
 10
83.14763450758585
 20
71.33823799217504
 30
0.000000000000000
 40
0.4446040000000000
100
AcDbArc
 50
105.2580000000000
 51
180.0000000000000
  0
ARC
  5
8D
100
AcDbEntity
  8
A5
  6
CONTINUOUS
 62
7
100
AcDbCircle
 10
83.14763450758585
 20
66.72083799217503
 30
0.000000000000000
 40
0.4446040000000000
100
AcDbArc
 50
180.0000000000000
 51
254.7419999999999
  0
ARC
  5
8E
100
AcDbEntity
  8
A5
  6
CONTINUOUS
 62
7
100
AcDbCircle
 10
85.81273450758584
 20
76.49523799217503
 30
0.000000000000000
 40
10.57680000000000
100
AcDbArc
 50
254.7419999999999
 51
254.7940000000000
  0
ARC
  5
8F
100
AcDbEntity
  8
A5
  6
CONTINUOUS
 62
7
100
AcDbCircle
 10
85.81273450758584
 20
76.49523799217503
 30
0.000000000000000
 40
10.57680000000000
100
AcDbArc
 50
254.7940000000000
 51
257.2709999999998
  0
ARC
  5
90
100
AcDbEntity
  8
A5
  6
CONTINUOUS
 62
7
100
AcDbCircle
 10
80.48073450758585
 20
69.03043799217504
 30
0.000000000000000
 40
2.290500000000000
100
AcDbArc
 50
125.5310000000000
 51
234.4619999999999
  0
ARC
  5
91
100
AcDbEntity
  8
A5
  6
CONTINUOUS
 62
7
100
AcDbCircle
 10
81.36853450758585
 20
67.39023799217503
 30
0.000000000000000
 40
0.4446040000000000
100
AcDbArc
 50
180.0000000000000
 51
243.9859999999999
  0
ARC
  5
92
100
AcDbEntity
  8
A5
  6
CONTINUOUS
 62
7
100
AcDbCircle
 10
81.72403450758586
 20
66.83803799217503
 30
0.000000000000000
 40
0.08895699999999999
100
AcDbArc
 50
247.0559999999999
 51
360.0000000000000
  0
ARC
  5
93
100
AcDbEntity
  8
A5
  6
CONTINUOUS
 62
7
100
AcDbCircle
 10
85.81273450758584
 20
76.49523799217503
 30
0.000000000000000
 40
10.57680000000000
100
AcDbArc
 50
243.9859999999999
 51
247.0559999999999
  0
ARC
  5
94
100
AcDbEntity
  8
A5
  6
CONTINUOUS
 62
7
100
AcDbCircle
 10
85.81273450758584
 20
76.49523799217503
 30
0.000000000000000
 40
10.57680000000000
100
AcDbArc
 50
243.9859999999999
 51
244.7720000000000
  0
ARC
  5
95
100
AcDbEntity
  8
A5
  6
CONTINUOUS
 62
7
100
AcDbCircle
 10
81.36853450758585
 20
70.66883799217504
 30
0.000000000000000
 40
0.4446040000000000
100
AcDbArc
 50
116.0139999999999
 51
180.0000000000000
  0
ARC
  5
96
100
AcDbEntity
  8
A5
  6
CONTINUOUS
 62
7
100
AcDbCircle
 10
81.72403450758586
 20
71.22273799217504
 30
0.000000000000000
 40
0.08895699999999999
100
AcDbArc
 50
0.000000000000000
 51
112.9439999999999
  0
ARC
  5
97
100
AcDbEntity
  8
A5
  6
CONTINUOUS
 62
7
100
AcDbCircle
 10
85.81273450758584
 20
61.56383799217504
 30
0.000000000000000
 40
10.57680000000000
100
AcDbArc
 50
112.9439999999999
 51
116.0139999999999
  0
ARC
  5
98
100
AcDbEntity
  8
A5
  6
CONTINUOUS
 62
7
100
AcDbCircle
 10
87.59003450758586
 20
71.53853799217504
 30
0.000000000000000
 40
0.4446040000000000
100
AcDbArc
 50
0.000000000000000
 51
79.89600000000000
  0
ARC
  5
99
100
AcDbEntity
  8
A5
  6
CONTINUOUS
 62
7
100
AcDbCircle
 10
85.81273450758584
 20
61.56383799217504
 30
0.000000000000000
 40
10.57680000000000
100
AcDbArc
 50
79.89600000000000
 51
82.20700000000001
  0
ARC
  5
9A
100
AcDbEntity
  8
A5
  6
CONTINUOUS
 62
7
100
AcDbCircle
 10
87.23463450758585
 20
71.95533799217503
 30
0.000000000000000
 40
0.08895699999999999
100
AcDbArc
 50
82.20700000000001
 51
180.0000000000000
  0
ARC
  5
9B
100
AcDbEntity
  8
A5
  6
CONTINUOUS
 62
7
100
AcDbCircle
 10
87.59003450758586
 20
66.52053799217504
 30
0.000000000000000
 40
0.4446040000000000
100
AcDbArc
 50
280.1040000000000
 51
360.0000000000000
  0
ARC
  5
9C
100
AcDbEntity
  8
A5
  6
CONTINUOUS
 62
7
100
AcDbCircle
 10
87.23463450758585
 20
66.10363799217504
 30
0.000000000000000
 40
0.08895699999999999
100
AcDbArc
 50
180.0000000000000
 51
277.7930000000001
  0
ARC
  5
9D
100
AcDbEntity
  8
A5
  6
CONTINUOUS
 62
7
100
AcDbCircle
 10
85.81273450758584
 20
76.49523799217503
 30
0.000000000000000
 40
10.57680000000000
100
AcDbArc
 50
277.7930000000001
 51
280.1040000000000
  0
ARC
  5
9E
100
AcDbEntity
  8
A5
  6
CONTINUOUS
 62
7
100
AcDbCircle
 10
90.25703450758584
 20
69.47433799217504
 30
0.000000000000000
 40
0.4446040000000000
100
AcDbArc
 50
180.0000000000000
 51
360.0000000000000
  0
ARC
  5
9F
100
AcDbEntity
  8
A5
  6
CONTINUOUS
 62
7
100
AcDbCircle
 10
91.14653450758586
 20
69.03043799217504
 30
0.000000000000000
 40
2.290690000000000
100
AcDbArc
 50
305.5470000000001
 51
414.4620000000000
  0
ARC
  5
A0
100
AcDbEntity
  8
A5
  6
CONTINUOUS
 62
7
100
AcDbCircle
 10
85.81273450758584
 20
76.49523799217503
 30
0.000000000000000
 40
11.46570000000000
100
AcDbArc
 50
234.4619999999999
 51
305.5379999999999
  0
ARC
  5
A1
100
AcDbEntity
  8
A5
  6
CONTINUOUS
 62
7
100
AcDbCircle
 10
83.50133450758585
 20
66.26603799217503
 30
0.000000000000000
 40
0.08895699999999999
100
AcDbArc
 50
257.2709999999998
 51
360.0000000000000
  0
ARC
  5
A2
100
AcDbEntity
  8
A5
  6
CONTINUOUS
 62
7
100
AcDbCircle
 10
83.50133450758585
 20
71.79293799217503
 30
0.000000000000000
 40
0.08895699999999999
100
AcDbArc
 50
0.000000000000000
 51
102.7290000000000
  0
ARC
  5
A3
100
AcDbEntity
  8
A5
  6
CONTINUOUS
 62
7
100
AcDbCircle
 10
85.81273450758584
 20
61.56383799217504
 30
0.000000000000000
 40
11.46570000000000
100
AcDbArc
 50
54.46200000000001
 51
125.5380000000000
  0
ARC
  5
A4
100
AcDbEntity
  8
A5
  6
CONTINUOUS
 62
7
100
AcDbCircle
 10
85.81363450758585
 20
-662.7199620078247
 30
0.000000000000000
 40
867.7500000000000
100
AcDbArc
 50
86.63059999999999
 51
93.36939999999998
  0
ARC
  5
A5
100
AcDbEntity
  8
A5
  6
CONTINUOUS
 62
7
100
AcDbCircle
 10
85.81363450758585
 20
1062.778037992175
 30
0.000000000000000
 40
867.7500000000000
100
AcDbArc
 50
266.6310000000000
 51
273.3690000000000
  0
ARC
  5
A6
100
AcDbEntity
  8
A5
  6
CONTINUOUS
 62
7
100
AcDbCircle
 10
85.81363450758585
 20
-1147.471962007825
 30
0.000000000000000
 40
1352.500000000000
100
AcDbArc
 50
87.79659999999998
 51
92.20340000000000
  0
ARC
  5
A7
100
AcDbEntity
  8
A5
  6
CONTINUOUS
 62
7
100
AcDbCircle
 10
85.81363450758585
 20
1547.528037992175
 30
0.000000000000000
 40
1352.500000000000
100
AcDbArc
 50
267.7970000000000
 51
272.2029999999999
  0
ARC
  5
A8
100
AcDbEntity
  8
A5
  6
CONTINUOUS
 62
7
100
AcDbCircle
 10
85.81363450758585
 20
-1278.471962007823
 30
0.000000000000000
 40
1352.500000000000
100
AcDbArc
 50
87.79659999999998
 51
92.20340000000000
  0
ARC
  5
A9
100
AcDbEntity
  8
A5
  6
CONTINUOUS
 62
7
100
AcDbCircle
 10
85.81363450758585
 20
1416.528037992175
 30
0.000000000000000
 40
1352.500000000000
100
AcDbArc
 50
267.7970000000000
 51
272.2029999999999
  0
ARC
  5
AA
100
AcDbEntity
  8
A5
  6
CONTINUOUS
 62
7
100
AcDbCircle
 10
85.81363450758585
 20
30.03043799217504
 30
0.000000000000000
 40
114.8070000000000
100
AcDbArc
 50
76.78699999999998
 51
103.2129999999998
  0
ARC
  5
AB
100
AcDbEntity
  8
A5
  6
CONTINUOUS
 62
7
100
AcDbCircle
 10
61.81363450758584
 20
132.2510379921749
 30
0.000000000000000
 40
9.807000000000000
100
AcDbArc
 50
103.2129999999998
 51
170.4889999999998
  0
ARC
  5
AC
100
AcDbEntity
  8
A5
  6
CONTINUOUS
 62
7
100
AcDbCircle
 10
109.8136345075858
 20
132.2510379921749
 30
0.000000000000000
 40
9.807000000000000
100
AcDbArc
 50
9.510529999999999
 51
76.78699999999998
  0
ENDSEC
  0
SECTION
  2
OBJECTS
  0
DICTIONARY
  5
D9
100
AcDbDictionary
  3
ACAD_GROUP
350
DA
  3
ACAD_LAYOUT
350
DB
  3
ACAD_MLINESTYLE
350
DC
  0
DICTIONARY
  5
DA
102
{ACAD_REACTORS
330
D9
102
}
330
D9
100
AcDbDictionary
  0
DICTIONARY
  5
DB
102
{ACAD_REACTORS
330
D9
102
}
330
D9
100
AcDbDictionary
  3
Model
350
DD
  3
ﾚｲｱｳﾄ1
350
DE
  3
ﾚｲｱｳﾄ2
350
DF
  0
DICTIONARY
  5
DC
102
{ACAD_REACTORS
330
D9
102
}
330
D9
100
AcDbDictionary
  3
STANDARD
350
E0
  0
LAYOUT
  5
DD
102
{ACAD_REACTORS
330
DB
102
}
330
DB
100
AcDbPlotSettings
 70
11952
  4
A3
 44
297.000000
 45
420.000000
 73
  1
 72
  1
100
AcDbLayout
  1
Model
 71
0
330
D0
  0
LAYOUT
  5
DE
102
{ACAD_REACTORS
330
DB
102
}
330
DB
100
AcDbPlotSettings
100
AcDbLayout
  1
ﾚｲｱｳﾄ1
 71
1
330
D1
  0
LAYOUT
  5
DF
102
{ACAD_REACTORS
330
DB
102
}
330
DB
100
AcDbPlotSettings
100
AcDbLayout
  1
ﾚｲｱｳﾄ2
 71
2
330
D2
  0
MLINESTYLE
  5
E0
102
{ACAD_REACTORS
330
DC
102
}
330
DC
100
AcDbMlineStyle
  2
STANDARD
 70
     0
  3

 62
   256
 51
90.00
 52
90.00
 71
     2
 49
0.50
 62
   256
  6
BYLAYER
 49
-0.50
 62
   256
  6
BYLAYER
  0
ENDSEC
  0
EOF
