  0
SECTION
  2
HEADER
  9
$ACADVER
  1
AC1015
  9
$ACADMAINTVER
 70
    20
  9
$DWGCODEPAGE
  3
ANSI_932
  9
$INSBASE
 10
0.0
 20
0.0
 30
0.0
  9
$EXTMIN
 10
10.0
 20
9.999999999999998
 30
0.0
  9
$EXTMAX
 10
448.841445
 20
237.8579479999999
 30
0.0
  9
$LIMMIN
 10
0.0
 20
0.0
  9
$LIMMAX
 10
495.0
 20
341.25
  9
$ORTHOMODE
 70
     1
  9
$REGENMODE
 70
     1
  9
$FILLMODE
 70
     1
  9
$QTEXTMODE
 70
     0
  9
$MIRRTEXT
 70
     1
  9
$LTSCALE
 40
20.0
  9
$ATTMODE
 70
     1
  9
$TEXTSIZE
 40
5.0
  9
$TRACEWID
 40
1.0
  9
$TEXTSTYLE
  7
STANDARD
  9
$CLAYER
  8
0
  9
$CELTYPE
  6
BYLAYER
  9
$CECOLOR
 62
   256
  9
$CELTSCALE
 40
1.0
  9
$DISPSILH
 70
     0
  9
$DIMSCALE
 40
1.0
  9
$DIMASZ
 40
3.0
  9
$DIMEXO
 40
1.0
  9
$DIMDLI
 40
10.0
  9
$DIMRND
 40
0.0
  9
$DIMDLE
 40
0.0
  9
$DIMEXE
 40
1.0
  9
$DIMTP
 40
0.0
  9
$DIMTM
 40
0.0
  9
$DIMTXT
 40
3.2
  9
$DIMCEN
 40
0.0
  9
$DIMTSZ
 40
0.0
  9
$DIMTOL
 70
     0
  9
$DIMLIM
 70
     0
  9
$DIMTIH
 70
     0
  9
$DIMTOH
 70
     0
  9
$DIMSE1
 70
     0
  9
$DIMSE2
 70
     0
  9
$DIMTAD
 70
     3
  9
$DIMZIN
 70
     8
  9
$DIMBLK
  1

  9
$DIMASO
 70
     1
  9
$DIMSHO
 70
     1
  9
$DIMPOST
  1

  9
$DIMAPOST
  1

  9
$DIMALT
 70
     0
  9
$DIMALTD
 70
     2
  9
$DIMALTF
 40
25.4
  9
$DIMLFAC
 40
1.0
  9
$DIMTOFL
 70
     1
  9
$DIMTVP
 40
0.0
  9
$DIMTIX
 70
     0
  9
$DIMSOXD
 70
     0
  9
$DIMSAH
 70
     1
  9
$DIMBLK1
  1

  9
$DIMBLK2
  1

  9
$DIMSTYLE
  2
STANDARD
  9
$DIMCLRD
 70
     0
  9
$DIMCLRE
 70
     0
  9
$DIMCLRT
 70
     0
  9
$DIMTFAC
 40
1.0
  9
$DIMGAP
 40
1.0
  9
$DIMJUST
 70
     0
  9
$DIMSD1
 70
     0
  9
$DIMSD2
 70
     0
  9
$DIMTOLJ
 70
     1
  9
$DIMTZIN
 70
     0
  9
$DIMALTZ
 70
     0
  9
$DIMALTTZ
 70
     0
  9
$DIMUPT
 70
     0
  9
$DIMDEC
 70
     4
  9
$DIMTDEC
 70
     4
  9
$DIMALTU
 70
     2
  9
$DIMALTTD
 70
     2
  9
$DIMTXSTY
  7
STANDARD
  9
$DIMAUNIT
 70
     0
  9
$DIMADEC
 70
     0
  9
$DIMALTRND
 40
0.0
  9
$DIMAZIN
 70
     0
  9
$DIMDSEP
 70
    46
  9
$DIMATFIT
 70
     3
  9
$DIMFRAC
 70
     0
  9
$DIMLDRBLK
  1

  9
$DIMLUNIT
 70
     2
  9
$DIMLWD
 70
    -2
  9
$DIMLWE
 70
    -2
  9
$DIMTMOVE
 70
     0
  9
$LUNITS
 70
     2
  9
$LUPREC
 70
     4
  9
$SKETCHINC
 40
1.0
  9
$FILLETRAD
 40
0.0
  9
$AUNITS
 70
     0
  9
$AUPREC
 70
     2
  9
$MENU
  1
.
  9
$ELEVATION
 40
0.0
  9
$PELEVATION
 40
0.0
  9
$THICKNESS
 40
0.0
  9
$LIMCHECK
 70
     0
  9
$CHAMFERA
 40
10.0
  9
$CHAMFERB
 40
10.0
  9
$CHAMFERC
 40
0.0
  9
$CHAMFERD
 40
0.0
  9
$SKPOLY
 70
     0
  9
$TDCREATE
 40
2450737.489660069
  9
$TDUCREATE
 40
2450737.114660070
  9
$TDUPDATE
 40
2457192.638056342
  9
$TDUUPDATE
 40
2457192.263056342
  9
$TDINDWG
 40
0.0000141435
  9
$TDUSRTIMER
 40
0.0000138310
  9
$USRTIMER
 70
     1
  9
$ANGBASE
 50
0.0
  9
$ANGDIR
 70
     0
  9
$PDMODE
 70
     0
  9
$PDSIZE
 40
0.0
  9
$PLINEWID
 40
0.0
  9
$SPLFRAME
 70
     0
  9
$SPLINETYPE
 70
     6
  9
$SPLINESEGS
 70
     8
  9
$HANDSEED
  5
99F9
  9
$SURFTAB1
 70
     6
  9
$SURFTAB2
 70
     6
  9
$SURFTYPE
 70
     6
  9
$SURFU
 70
     6
  9
$SURFV
 70
     6
  9
$UCSBASE
  2

  9
$UCSNAME
  2

  9
$UCSORG
 10
0.0
 20
0.0
 30
0.0
  9
$UCSXDIR
 10
1.0
 20
0.0
 30
0.0
  9
$UCSYDIR
 10
0.0
 20
1.0
 30
0.0
  9
$UCSORTHOREF
  2

  9
$UCSORTHOVIEW
 70
     0
  9
$UCSORGTOP
 10
0.0
 20
0.0
 30
0.0
  9
$UCSORGBOTTOM
 10
0.0
 20
0.0
 30
0.0
  9
$UCSORGLEFT
 10
0.0
 20
0.0
 30
0.0
  9
$UCSORGRIGHT
 10
0.0
 20
0.0
 30
0.0
  9
$UCSORGFRONT
 10
0.0
 20
0.0
 30
0.0
  9
$UCSORGBACK
 10
0.0
 20
0.0
 30
0.0
  9
$PUCSBASE
  2

  9
$PUCSNAME
  2

  9
$PUCSORG
 10
0.0
 20
0.0
 30
0.0
  9
$PUCSXDIR
 10
1.0
 20
0.0
 30
0.0
  9
$PUCSYDIR
 10
0.0
 20
1.0
 30
0.0
  9
$PUCSORTHOREF
  2

  9
$PUCSORTHOVIEW
 70
     0
  9
$PUCSORGTOP
 10
0.0
 20
0.0
 30
0.0
  9
$PUCSORGBOTTOM
 10
0.0
 20
0.0
 30
0.0
  9
$PUCSORGLEFT
 10
0.0
 20
0.0
 30
0.0
  9
$PUCSORGRIGHT
 10
0.0
 20
0.0
 30
0.0
  9
$PUCSORGFRONT
 10
0.0
 20
0.0
 30
0.0
  9
$PUCSORGBACK
 10
0.0
 20
0.0
 30
0.0
  9
$USERI1
 70
     0
  9
$USERI2
 70
     0
  9
$USERI3
 70
     0
  9
$USERI4
 70
     0
  9
$USERI5
 70
     0
  9
$USERR1
 40
0.0
  9
$USERR2
 40
0.0
  9
$USERR3
 40
0.0
  9
$USERR4
 40
0.0
  9
$USERR5
 40
0.0
  9
$WORLDVIEW
 70
     1
  9
$SHADEDGE
 70
     3
  9
$SHADEDIF
 70
    70
  9
$TILEMODE
 70
     1
  9
$MAXACTVP
 70
    16
  9
$PINSBASE
 10
0.0
 20
0.0
 30
0.0
  9
$PLIMCHECK
 70
     0
  9
$PEXTMIN
 10
1.000000000000000E+20
 20
1.000000000000000E+20
 30
1.000000000000000E+20
  9
$PEXTMAX
 10
-1.000000000000000E+20
 20
-1.000000000000000E+20
 30
-1.000000000000000E+20
  9
$PLIMMIN
 10
0.0
 20
0.0
  9
$PLIMMAX
 10
420.0
 20
297.0
  9
$UNITMODE
 70
     0
  9
$VISRETAIN
 70
     0
  9
$PLINEGEN
 70
     0
  9
$PSLTSCALE
 70
     0
  9
$TREEDEPTH
 70
  3020
  9
$CMLSTYLE
  2
STANDARD
  9
$CMLJUST
 70
     0
  9
$CMLSCALE
 40
1.0
  9
$PROXYGRAPHICS
 70
     1
  9
$MEASUREMENT
 70
     0
  9
$CELWEIGHT
370
    -1
  9
$ENDCAPS
280
     0
  9
$JOINSTYLE
280
     0
  9
$LWDISPLAY
290
     0
  9
$INSUNITS
 70
     0
  9
$HYPERLINKBASE
  1

  9
$STYLESHEET
  1

  9
$XEDIT
290
     1
  9
$CEPSNTYPE
380
     0
  9
$PSTYLEMODE
290
     1
  9
$FINGERPRINTGUID
  2
{4DA80A8B-8D9D-4DA8-B3C3-2BB0F871A029}
  9
$VERSIONGUID
  2
{F5969F50-8B90-458E-BB03-77569DC8AA1A}
  9
$EXTNAMES
290
     1
  9
$PSVPSCALE
 40
0.0
  9
$OLESTARTUP
290
     0
  0
ENDSEC
  0
SECTION
  2
CLASSES
  0
CLASS
  1
ACDBDICTIONARYWDFLT
  2
AcDbDictionaryWithDefault
  3
ObjectDBX Classes
 90
        0
280
     0
281
     0
  0
CLASS
  1
ACDBPLACEHOLDER
  2
AcDbPlaceHolder
  3
ObjectDBX Classes
 90
        0
280
     0
281
     0
  0
CLASS
  1
LAYOUT
  2
AcDbLayout
  3
ObjectDBX Classes
 90
        0
280
     0
281
     0
  0
CLASS
  1
DICTIONARYVAR
  2
AcDbDictionaryVar
  3
ObjectDBX Classes
 90
        0
280
     0
281
     0
  0
CLASS
  1
MATERIAL
  2
AcDbMaterial
  3
ObjectDBX Classes
 90
     1153
280
     0
281
     0
  0
CLASS
  1
VISUALSTYLE
  2
AcDbVisualStyle
  3
ObjectDBX Classes
 90
     4095
280
     0
281
     0
  0
CLASS
  1
TABLESTYLE
  2
AcDbTableStyle
  3
ObjectDBX Classes
 90
     4095
280
     0
281
     0
  0
CLASS
  1
SCALE
  2
AcDbScale
  3
ObjectDBX Classes
 90
     1153
280
     0
281
     0
  0
CLASS
  1
MLEADERSTYLE
  2
AcDbMLeaderStyle
  3
ACDB_MLEADERSTYLE_CLASS
 90
     4095
280
     0
281
     0
  0
CLASS
  1
ACDBSECTIONVIEWSTYLE
  2
AcDbSectionViewStyle
  3
ObjectDBX Classes
 90
     1025
280
     0
281
     0
  0
CLASS
  1
ACDBDETAILVIEWSTYLE
  2
AcDbDetailViewStyle
  3
ObjectDBX Classes
 90
     1025
280
     0
281
     0
  0
CLASS
  1
CELLSTYLEMAP
  2
AcDbCellStyleMap
  3
ObjectDBX Classes
 90
     1152
280
     0
281
     0
  0
ENDSEC
  0
SECTION
  2
TABLES
  0
TABLE
  2
VPORT
  5
9768
330
0
100
AcDbSymbolTable
 70
     1
  0
VPORT
  5
9942
330
9768
100
AcDbSymbolTableRecord
100
AcDbViewportTableRecord
  2
*ACTIVE
 70
     0
 10
0.0
 20
0.0
 11
1.0
 21
1.0
 12
304.9914556916764
 22
123.9306743394183
 13
0.0
 23
0.0
 14
10.0
 24
10.0
 15
10.0
 25
10.0
 16
0.0
 26
0.0
 36
1.0
 17
0.0
 27
0.0
 37
0.0
 40
252.2678092547123
 41
1.899603698811096
 42
50.0
 43
0.0
 44
0.0
 50
0.0
 51
0.0
 71
     0
 72
   100
 73
     1
 74
     0
 75
     0
 76
     0
 77
     0
 78
     0
281
     0
 65
     1
110
0.0
120
0.0
130
0.0
111
1.0
121
0.0
131
0.0
112
0.0
122
1.0
132
0.0
 79
     0
146
0.0
1001
ACAD_NAV_VCDISPLAY
1070
     3
  0
ENDTAB
  0
TABLE
  2
LTYPE
  5
9765
330
0
100
AcDbSymbolTable
 70
     4
  0
LTYPE
  5
9773
330
9765
100
AcDbSymbolTableRecord
100
AcDbLinetypeTableRecord
  2
BYBLOCK
 70
     0
  3

 72
    65
 73
     0
 40
0.0
  0
LTYPE
  5
9774
330
9765
100
AcDbSymbolTableRecord
100
AcDbLinetypeTableRecord
  2
BYLAYER
 70
     0
  3

 72
    65
 73
     0
 40
0.0
  0
LTYPE
  5
9775
330
9765
100
AcDbSymbolTableRecord
100
AcDbLinetypeTableRecord
  2
CONTINUOUS
 70
     0
  3
Solid line
 72
    65
 73
     0
 40
0.0
  0
LTYPE
  5
9783
330
9765
100
AcDbSymbolTableRecord
100
AcDbLinetypeTableRecord
  2
DASHED
 70
     0
  3
__ __ __ __ __ __ __ __ __ __ __ __ __ __ __ __
 72
    65
 73
     2
 40
0.75
 49
0.5
 74
     0
 49
-0.25
 74
     0
  0
LTYPE
  5
9784
330
9765
100
AcDbSymbolTableRecord
100
AcDbLinetypeTableRecord
  2
CENTER
 70
     0
  3
____ _ ____ _ ____ _ ____ _ ____ _ ____ _ ____ 
 72
    65
 73
     4
 40
2.0
 49
1.25
 74
     0
 49
-0.25
 74
     0
 49
0.25
 74
     0
 49
-0.25
 74
     0
  0
LTYPE
  5
9785
330
9765
100
AcDbSymbolTableRecord
100
AcDbLinetypeTableRecord
  2
PHANTOM
 70
     0
  3
______  __  __  ______  __  __  ______  __  __ 
 72
    65
 73
     6
 40
2.5
 49
1.25
 74
     0
 49
-0.25
 74
     0
 49
0.25
 74
     0
 49
-0.25
 74
     0
 49
0.25
 74
     0
 49
-0.25
 74
     0
  0
ENDTAB
  0
TABLE
  2
LAYER
  5
9762
330
0
100
AcDbSymbolTable
 70
     8
  0
LAYER
  5
9770
102
{ACAD_XDICTIONARY
360
999D
102
}
330
9762
100
AcDbSymbolTableRecord
100
AcDbLayerTableRecord
  2
0
 70
     0
 62
     7
  6
CONTINUOUS
370
    -3
390
994B
  0
LAYER
  5
9786
102
{ACAD_XDICTIONARY
360
999F
102
}
330
9762
100
AcDbSymbolTableRecord
100
AcDbLayerTableRecord
  2
4
 70
     0
 62
     1
  6
CENTER
370
    -3
390
994B
  0
LAYER
  5
9787
102
{ACAD_XDICTIONARY
360
99A1
102
}
330
9762
100
AcDbSymbolTableRecord
100
AcDbLayerTableRecord
  2
5
 70
     0
 62
     6
  6
PHANTOM
370
    -3
390
994B
  0
LAYER
  5
9788
102
{ACAD_XDICTIONARY
360
99A3
102
}
330
9762
100
AcDbSymbolTableRecord
100
AcDbLayerTableRecord
  2
1
 70
     0
 62
     7
  6
CONTINUOUS
370
    -3
390
994B
  0
LAYER
  5
9789
102
{ACAD_XDICTIONARY
360
99A5
102
}
330
9762
100
AcDbSymbolTableRecord
100
AcDbLayerTableRecord
  2
2
 70
     0
 62
     4
  6
CONTINUOUS
370
    -3
390
994B
  0
LAYER
  5
978A
102
{ACAD_XDICTIONARY
360
99A7
102
}
330
9762
100
AcDbSymbolTableRecord
100
AcDbLayerTableRecord
  2
3
 70
     0
 62
     2
  6
DASHED
370
    -3
390
994B
  0
LAYER
  5
978B
102
{ACAD_XDICTIONARY
360
99A9
102
}
330
9762
100
AcDbSymbolTableRecord
100
AcDbLayerTableRecord
  2
6
 70
     0
 62
     5
  6
CONTINUOUS
370
    -3
390
994B
  0
LAYER
  5
978C
102
{ACAD_XDICTIONARY
360
99AB
102
}
330
9762
100
AcDbSymbolTableRecord
100
AcDbLayerTableRecord
  2
7
 70
     0
 62
     3
  6
CONTINUOUS
370
    -3
390
994B
  0
ENDTAB
  0
TABLE
  2
STYLE
  5
9763
330
0
100
AcDbSymbolTable
 70
     1
  0
STYLE
  5
9771
330
9763
100
AcDbSymbolTableRecord
100
AcDbTextStyleTableRecord
  2
STANDARD
 70
     0
 40
0.0
 41
1.0
 50
0.0
 71
     0
 42
5.0
  3
txt
  4

  0
ENDTAB
  0
TABLE
  2
VIEW
  5
9766
330
0
100
AcDbSymbolTable
 70
     0
  0
ENDTAB
  0
TABLE
  2
UCS
  5
9767
330
0
100
AcDbSymbolTable
 70
     0
  0
ENDTAB
  0
TABLE
  2
APPID
  5
9769
330
0
100
AcDbSymbolTable
 70
     3
  0
APPID
  5
9772
330
9769
100
AcDbSymbolTableRecord
100
AcDbRegAppTableRecord
  2
ACAD
 70
     0
  0
APPID
  5
99B7
330
9769
100
AcDbSymbolTableRecord
100
AcDbRegAppTableRecord
  2
ACAD_NAV_VCDISPLAY
 70
     0
  0
APPID
  5
99F0
330
9769
100
AcDbSymbolTableRecord
100
AcDbRegAppTableRecord
  2
ACAD_MLEADERVER
 70
     0
  0
ENDTAB
  0
TABLE
  2
DIMSTYLE
  5
976A
330
0
100
AcDbSymbolTable
 70
     1
100
AcDbDimStyleTable
 71
     0
  0
DIMSTYLE
105
978E
330
976A
100
AcDbSymbolTableRecord
100
AcDbDimStyleTableRecord
  2
STANDARD
 70
     0
 41
3.0
 42
1.0
 43
10.0
 44
1.0
 73
     0
 74
     0
 77
     3
 78
     8
140
3.2
141
0.0
147
1.0
172
     1
173
     1
284
     8
285
     8
286
     8
340
9771
  0
ENDTAB
  0
TABLE
  2
BLOCK_RECORD
  5
9761
330
0
100
AcDbSymbolTable
 70
     0
  0
BLOCK_RECORD
  5
977E
102
{ACAD_XDICTIONARY
360
9945
102
}
330
9761
100
AcDbSymbolTableRecord
100
AcDbBlockTableRecord
  2
*MODEL_SPACE
340
9999
  0
BLOCK_RECORD
  5
977A
102
{ACAD_XDICTIONARY
360
9943
102
}
330
9761
100
AcDbSymbolTableRecord
100
AcDbBlockTableRecord
  2
*PAPER_SPACE
340
999A
  0
ENDTAB
  0
ENDSEC
  0
SECTION
  2
BLOCKS
  0
BLOCK
  5
977F
330
977E
100
AcDbEntity
  8
0
100
AcDbBlockBegin
  2
*MODEL_SPACE
 70
     0
 10
0.0
 20
0.0
 30
0.0
  3
*MODEL_SPACE
  1

  0
ENDBLK
  5
9780
330
977E
100
AcDbEntity
  8
0
100
AcDbBlockEnd
  0
BLOCK
  5
977B
330
977A
100
AcDbEntity
 67
     1
  8
0
100
AcDbBlockBegin
  2
*PAPER_SPACE
 70
     0
 10
0.0
 20
0.0
 30
0.0
  3
*PAPER_SPACE
  1

  0
ENDBLK
  5
977C
330
977A
100
AcDbEntity
 67
     1
  8
0
100
AcDbBlockEnd
  0
ENDSEC
  0
SECTION
  2
ENTITIES
  0
TEXT
  5
9796
330
977E
100
AcDbEntity
  8
7
  6
Continuous
100
AcDbText
 10
10.0
 20
18.0
 30
0.0
 40
3.0
  1
TYPE No.THA-171-1
100
AcDbText
  0
TEXT
  5
9797
330
977E
100
AcDbEntity
  8
7
  6
Continuous
100
AcDbText
 10
10.0
 20
26.0
 30
0.0
 40
3.0
  1
CODE No.3874
100
AcDbText
  0
TEXT
  5
9798
330
977E
100
AcDbEntity
  8
1
  6
Continuous
100
AcDbText
 10
10.0
 20
10.0
 30
0.0
 40
1.399999999999999
  1
LAYER
100
AcDbText
  0
TEXT
  5
9799
330
977E
100
AcDbEntity
  8
1
  6
Continuous
100
AcDbText
 10
17.97951099999998
 20
10.04873699999998
 30
0.0
 40
1.399999999999999
  1
1
100
AcDbText
  0
TEXT
  5
979A
330
977E
100
AcDbEntity
  8
7
  6
Continuous
100
AcDbText
 10
29.97951099999999
 20
10.04873699999998
 30
0.0
 40
1.399999999999999
  1
7
100
AcDbText
  0
TEXT
  5
979B
330
977E
100
AcDbEntity
  8
4
  6
CENTER
100
AcDbText
 10
23.97951099999999
 20
10.04873699999998
 30
0.0
 40
1.399999999999999
  1
4
100
AcDbText
  0
TEXT
  5
979C
330
977E
100
AcDbEntity
  8
3
  6
DASHED
100
AcDbText
 10
21.979511
 20
10.04873699999998
 30
0.0
 40
1.399999999999999
  1
3
100
AcDbText
  0
TEXT
  5
979D
330
977E
100
AcDbEntity
  8
2
  6
Continuous
100
AcDbText
 10
19.97951099999999
 20
10.04873699999998
 30
0.0
 40
1.399999999999999
  1
2
100
AcDbText
  0
TEXT
  5
979E
330
977E
100
AcDbEntity
  8
6
  6
Continuous
100
AcDbText
 10
27.979511
 20
10.04873699999998
 30
0.0
 40
1.399999999999999
  1
6
100
AcDbText
  0
TEXT
  5
979F
330
977E
100
AcDbEntity
  8
5
  6
PHANTOM
100
AcDbText
 10
25.97951099999999
 20
10.04873699999998
 30
0.0
 40
1.399999999999999
  1
5
100
AcDbText
  0
ARC
  5
97A0
330
977E
100
AcDbEntity
  8
1
  6
Continuous
100
AcDbCircle
 10
218.396445
 20
75.64394799999998
 30
0.0
 40
109.0
100
AcDbArc
 50
186.3509999999999
 51
197.079
  0
ARC
  5
97A1
330
977E
100
AcDbEntity
  8
1
  6
Continuous
100
AcDbCircle
 10
11.74624499999998
 20
75.64394799999998
 30
0.0
 40
109.0
100
AcDbArc
 50
342.9209999999998
 51
353.649
  0
ARC
  5
97A2
330
977E
100
AcDbEntity
  8
1
  6
Continuous
100
AcDbCircle
 10
115.071045
 20
45.97594799999998
 30
0.0
 40
2.5
100
AcDbArc
 50
196.0209999999999
 51
343.9789999999999
  0
ARC
  5
97A3
330
977E
100
AcDbEntity
  8
1
  6
Continuous
100
AcDbCircle
 10
422.841445
 20
45.97594799999998
 30
0.0
 40
2.5
100
AcDbArc
 50
196.0209999999999
 51
343.9789999999999
  0
LINE
  5
97A4
330
977E
100
AcDbEntity
  8
4
  6
CENTER
100
AcDbLine
 10
115.071045
 20
165.4759479999999
 30
0.0
 11
115.071045
 21
38.47594799999999
 31
0.0
  0
LINE
  5
97A5
330
977E
100
AcDbEntity
  8
1
  6
Continuous
100
AcDbLine
 10
252.4234449999999
 20
43.73494799999998
 30
0.0
 11
250.034445
 21
51.21994799999999
 31
0.0
  0
LINE
  5
97A6
330
977E
100
AcDbEntity
  8
4
  6
CENTER
100
AcDbLine
 10
422.841445
 20
165.4759479999999
 30
0.0
 11
422.841445
 21
38.47594799999999
 31
0.0
  0
LINE
  5
97A7
330
977E
100
AcDbEntity
  8
1
  6
Continuous
100
AcDbLine
 10
254.353445
 20
44.25194799999998
 30
0.0
 11
258.324445
 21
48.22294799999998
 31
0.0
  0
LINE
  5
97A8
330
977E
100
AcDbEntity
  8
1
  6
Continuous
100
AcDbLine
 10
251.166445
 20
44.38494799999999
 30
0.0
 11
249.081445
 21
50.915948
 31
0.0
  0
ARC
  5
97A9
330
977E
100
AcDbEntity
  8
1
  6
Continuous
100
AcDbCircle
 10
252.118445
 20
44.688948
 30
0.0
 40
1.0
100
AcDbArc
 50
197.6979999999999
 51
285.0
  0
LINE
  5
97AA
330
977E
100
AcDbEntity
  8
1
  6
Continuous
100
AcDbLine
 10
252.3774449999999
 20
43.72294799999997
 30
0.0
 11
254.353445
 21
44.25194799999998
 31
0.0
  0
LINE
  5
97AB
330
977E
100
AcDbEntity
  8
5
  6
PHANTOM
100
AcDbLine
 10
115.071045
 20
148.4759479999999
 30
0.0
 11
191.071045
 21
145.4759479999998
 31
0.0
  0
LINE
  5
97AC
330
977E
100
AcDbEntity
  8
5
  6
PHANTOM
100
AcDbLine
 10
115.071045
 20
130.4759479999999
 30
0.0
 11
191.071045
 21
133.4759479999999
 31
0.0
  0
LINE
  5
97AD
330
977E
100
AcDbEntity
  8
4
  6
CENTER
100
AcDbLine
 10
216.0714449999999
 20
139.4759479999999
 30
0.0
 11
14.071045
 21
139.4759479999999
 31
0.0
  0
LINE
  5
97AE
330
977E
100
AcDbEntity
  8
5
  6
PHANTOM
100
AcDbLine
 10
115.071045
 20
130.4759479999999
 30
0.0
 11
39.07104499999999
 21
133.4759479999999
 31
0.0
  0
LINE
  5
97AF
330
977E
100
AcDbEntity
  8
5
  6
PHANTOM
100
AcDbLine
 10
115.071045
 20
148.4759479999999
 30
0.0
 11
39.07104499999999
 21
145.4759479999998
 31
0.0
  0
ARC
  5
97B0
330
977E
100
AcDbEntity
  8
5
  6
PHANTOM
100
AcDbCircle
 10
51.239645
 20
242.800948
 30
0.0
 40
110.0
100
AcDbArc
 50
253.9789999999999
 51
263.649
  0
ARC
  5
97B1
330
977E
100
AcDbEntity
  8
5
  6
PHANTOM
100
AcDbCircle
 10
51.239645
 20
36.150948
 30
0.0
 40
110.0
100
AcDbArc
 50
96.35120000000002
 51
106.021
  0
ARC
  5
97B2
330
977E
100
AcDbEntity
  8
5
  6
PHANTOM
100
AcDbCircle
 10
21.571045
 20
139.4759479999999
 30
0.0
 40
2.5
100
AcDbArc
 50
106.021
 51
253.9789999999999
  0
ARC
  5
97B3
330
977E
100
AcDbEntity
  8
1
  6
Continuous
100
AcDbCircle
 10
115.071045
 20
139.4759479999999
 30
0.0
 40
21.0
100
AcDbArc
 50
293.0950000000001
 51
246.9049999999998
  0
LINE
  5
97B4
330
977E
100
AcDbEntity
  8
1
  6
Continuous
100
AcDbLine
 10
122.953445
 20
136.514948
 30
0.0
 11
120.0718449999999
 21
63.514948
 31
0.0
  0
LINE
  5
97B5
330
977E
100
AcDbEntity
  8
1
  6
Continuous
100
AcDbLine
 10
124.071145
 20
139.4759479999999
 30
0.0
 11
121.071145
 21
63.47594799999999
 31
0.0
  0
LINE
  5
97B6
330
977E
100
AcDbEntity
  8
1
  6
Continuous
100
AcDbLine
 10
106.071085
 20
139.4759479999999
 30
0.0
 11
109.071085
 21
63.47594799999999
 31
0.0
  0
LINE
  5
97B7
330
977E
100
AcDbEntity
  8
1
  6
Continuous
100
AcDbLine
 10
107.188725
 20
136.514948
 30
0.0
 11
110.070305
 21
63.514948
 31
0.0
  0
ARC
  5
97B8
330
977E
100
AcDbEntity
  8
1
  6
Continuous
100
AcDbCircle
 10
218.396445
 20
75.64394799999998
 30
0.0
 40
110.0
100
AcDbArc
 50
186.3509999999999
 51
196.0209999999999
  0
ARC
  5
97B9
330
977E
100
AcDbEntity
  8
1
  6
Continuous
100
AcDbCircle
 10
11.74624499999998
 20
75.64394799999998
 30
0.0
 40
110.0
100
AcDbArc
 50
343.9789999999999
 51
353.649
  0
ARC
  5
97BA
330
977E
100
AcDbEntity
  8
1
  6
Continuous
100
AcDbCircle
 10
115.071045
 20
139.4759479999999
 30
0.0
 40
9.0
100
AcDbArc
 50
0.0
 51
180.0
  0
ARC
  5
97BB
330
977E
100
AcDbEntity
  8
1
  6
Continuous
100
AcDbCircle
 10
123.9526449999999
 20
136.4759479999999
 30
0.0
 40
1.0
100
AcDbArc
 50
87.73950000000002
 51
177.74
  0
ARC
  5
97BC
330
977E
100
AcDbEntity
  8
1
  6
Continuous
100
AcDbCircle
 10
115.071045
 20
139.4759479999999
 30
0.0
 40
10.25
100
AcDbArc
 50
329.0659999999999
 51
210.934
  0
ARC
  5
97BD
330
977E
100
AcDbEntity
  8
5
  6
PHANTOM
100
AcDbCircle
 10
115.071045
 20
139.4759479999999
 30
0.0
 40
9.0
100
AcDbArc
 50
270.0
 51
90.0
  0
ARC
  5
97BE
330
977E
100
AcDbEntity
  8
5
  6
PHANTOM
100
AcDbCircle
 10
115.071045
 20
139.4759479999999
 30
0.0
 40
9.0
100
AcDbArc
 50
90.0
 51
270.0
  0
ARC
  5
97BF
330
977E
100
AcDbEntity
  8
1
  6
Continuous
100
AcDbCircle
 10
106.1895149999999
 20
136.4759479999999
 30
0.0
 40
1.0
100
AcDbArc
 50
2.260499999999999
 51
92.26049999999998
  0
LINE
  5
97C0
330
977E
100
AcDbEntity
  8
1
  6
Continuous
100
AcDbLine
 10
242.456445
 20
224.857948
 30
0.0
 11
242.456445
 21
208.8579479999999
 31
0.0
  0
LINE
  5
97C1
330
977E
100
AcDbEntity
  8
1
  6
Continuous
100
AcDbLine
 10
285.656445
 20
227.3579479999999
 30
0.0
 11
285.656445
 21
206.357948
 31
0.0
  0
LINE
  5
97C2
330
977E
100
AcDbEntity
  8
1
  6
Continuous
100
AcDbLine
 10
290.656445
 20
227.3579479999999
 30
0.0
 11
290.656445
 21
206.357948
 31
0.0
  0
LINE
  5
97C3
330
977E
100
AcDbEntity
  8
1
  6
Continuous
100
AcDbLine
 10
291.656445
 20
226.357948
 30
0.0
 11
291.656445
 21
207.3579479999999
 31
0.0
  0
LINE
  5
97C4
330
977E
100
AcDbEntity
  8
1
  6
Continuous
100
AcDbLine
 10
281.156445
 20
237.8579479999999
 30
0.0
 11
281.156445
 21
195.857948
 31
0.0
  0
LINE
  5
97C5
330
977E
100
AcDbEntity
  8
1
  6
Continuous
100
AcDbLine
 10
274.156445
 20
227.107948
 30
0.0
 11
274.156445
 21
206.6079479999999
 31
0.0
  0
LINE
  5
97C6
330
977E
100
AcDbEntity
  8
1
  6
Continuous
100
AcDbLine
 10
283.156445
 20
237.8579479999999
 30
0.0
 11
283.156445
 21
195.857948
 31
0.0
  0
LINE
  5
97C7
330
977E
100
AcDbEntity
  8
4
  6
CENTER
100
AcDbLine
 10
237.456445
 20
139.4759479999999
 30
0.0
 11
300.656445
 21
139.4759479999999
 31
0.0
  0
ARC
  5
97C8
330
977E
100
AcDbEntity
  8
5
  6
PHANTOM
100
AcDbCircle
 10
178.902545
 20
242.800948
 30
0.0
 40
110.0
100
AcDbArc
 50
276.351
 51
286.0209999999998
  0
ARC
  5
97C9
330
977E
100
AcDbEntity
  8
5
  6
PHANTOM
100
AcDbCircle
 10
178.902545
 20
36.150948
 30
0.0
 40
110.0
100
AcDbArc
 50
73.9792
 51
83.64879999999997
  0
ARC
  5
97CA
330
977E
100
AcDbEntity
  8
5
  6
PHANTOM
100
AcDbCircle
 10
208.5714449999999
 20
139.4759479999999
 30
0.0
 40
2.5
100
AcDbArc
 50
286.0209999999998
 51
73.9792
  0
ARC
  5
97CB
330
977E
100
AcDbEntity
  8
1
  6
Continuous
100
AcDbCircle
 10
269.157445
 20
118.3169479999999
 30
0.0
 40
12.0
100
AcDbArc
 50
0.7601280000000001
 51
65.38120000000001
  0
ARC
  5
97CC
330
977E
100
AcDbEntity
  8
1
  6
Continuous
100
AcDbCircle
 10
268.0564449999998
 20
117.9759479999999
 30
0.0
 40
12.5
100
AcDbArc
 50
90.0
 51
175.7249999999999
  0
LINE
  5
97CD
330
977E
100
AcDbEntity
  8
1
  6
Continuous
100
AcDbLine
 10
283.156445
 20
160.475948
 30
0.0
 11
283.156445
 21
118.475948
 31
0.0
  0
LINE
  5
97CE
330
977E
100
AcDbEntity
  8
1
  6
Continuous
100
AcDbLine
 10
281.156445
 20
160.475948
 30
0.0
 11
281.156445
 21
118.475948
 31
0.0
  0
LINE
  5
97CF
330
977E
100
AcDbEntity
  8
1
  6
Continuous
100
AcDbLine
 10
243.456445
 20
137.4759479999999
 30
0.0
 11
243.456445
 21
93.47594800000001
 31
0.0
  0
LINE
  5
97D0
330
977E
100
AcDbEntity
  8
1
  6
Continuous
100
AcDbLine
 10
242.456445
 20
147.4759479999999
 30
0.0
 11
242.456445
 21
93.47594800000001
 31
0.0
  0
ARC
  5
97D1
330
977E
100
AcDbEntity
  8
1
  6
Continuous
100
AcDbCircle
 10
382.456445
 20
93.47594800000001
 30
0.0
 40
139.0
100
AcDbArc
 50
180.0
 51
197.6979999999999
  0
ARC
  5
97D2
330
977E
100
AcDbEntity
  8
1
  6
Continuous
100
AcDbCircle
 10
382.456445
 20
93.47594800000001
 30
0.0
 40
140.0
100
AcDbArc
 50
180.0
 51
197.6979999999999
  0
LINE
  5
97D3
330
977E
100
AcDbEntity
  8
1
  6
Continuous
100
AcDbLine
 10
255.5914449999999
 20
118.9079479999999
 30
0.0
 11
252.5674449999999
 21
78.457948
 31
0.0
  0
ARC
  5
97D4
330
977E
100
AcDbEntity
  8
1
  6
Continuous
100
AcDbCircle
 10
292.4564449999999
 20
75.475948
 30
0.0
 40
40.0
100
AcDbArc
 50
175.7249999999999
 51
200.2439999999999
  0
ARC
  5
97D5
330
977E
100
AcDbEntity
  8
1
  6
Continuous
100
AcDbCircle
 10
256.556445
 20
49.99094799999999
 30
0.0
 40
2.5
100
AcDbArc
 50
315.0
 51
20.2441
  0
LINE
  5
97D6
330
977E
100
AcDbEntity
  8
1
  6
Continuous
100
AcDbLine
 10
258.902445
 20
50.85594799999999
 30
0.0
 11
254.9274449999999
 21
61.634948
 31
0.0
  0
LINE
  5
97D7
330
977E
100
AcDbEntity
  8
1
  6
Continuous
100
AcDbLine
 10
281.156445
 20
118.475948
 30
0.0
 11
283.156445
 21
118.475948
 31
0.0
  0
ARC
  5
97D8
330
977E
100
AcDbEntity
  8
1
  6
Continuous
100
AcDbCircle
 10
269.157445
 20
160.634948
 30
0.0
 40
12.0
100
AcDbArc
 50
294.6190000000001
 51
359.24
  0
ARC
  5
97D9
330
977E
100
AcDbEntity
  8
1
  6
Continuous
100
AcDbCircle
 10
269.157445
 20
195.698948
 30
0.0
 40
12.0
100
AcDbArc
 50
0.7601280000000001
 51
65.38120000000001
  0
LINE
  5
97DA
330
977E
100
AcDbEntity
  8
1
  6
Continuous
100
AcDbLine
 10
243.456445
 20
148.4759479999999
 30
0.0
 11
274.156445
 21
148.4759479999999
 31
0.0
  0
ARC
  5
97DB
330
977E
100
AcDbEntity
  8
1
  6
Continuous
100
AcDbCircle
 10
243.456445
 20
138.4759479999999
 30
0.0
 40
1.0
100
AcDbArc
 50
180.0
 51
270.0
  0
ARC
  5
97DC
330
977E
100
AcDbEntity
  8
1
  6
Continuous
100
AcDbCircle
 10
243.456445
 20
147.4759479999999
 30
0.0
 40
1.0
100
AcDbArc
 50
90.0
 51
180.0
  0
LINE
  5
97DD
330
977E
100
AcDbEntity
  8
1
  6
Continuous
100
AcDbLine
 10
274.156445
 20
149.7259479999998
 30
0.0
 11
274.156445
 21
129.225948
 31
0.0
  0
LINE
  5
97DE
330
977E
100
AcDbEntity
  8
1
  6
Continuous
100
AcDbLine
 10
268.0564449999998
 20
130.4759479999999
 30
0.0
 11
274.156445
 21
130.4759479999999
 31
0.0
  0
LINE
  5
97DF
330
977E
100
AcDbEntity
  8
1
  6
Continuous
100
AcDbLine
 10
243.456445
 20
207.857948
 30
0.0
 11
274.156445
 21
207.857948
 31
0.0
  0
ARC
  5
97E0
330
977E
100
AcDbEntity
  8
1
  6
Continuous
100
AcDbCircle
 10
243.456445
 20
208.8579479999999
 30
0.0
 40
1.0
100
AcDbArc
 50
180.0
 51
270.0
  0
LINE
  5
97E1
330
977E
100
AcDbEntity
  8
2
  6
Continuous
100
AcDbLine
 10
292.156445
 20
139.4759479999999
 30
0.0
 11
295.656445
 21
145.132948
 31
0.0
  0
LINE
  5
97E2
330
977E
100
AcDbEntity
  8
2
  6
Continuous
100
AcDbLine
 10
292.156445
 20
145.132948
 30
0.0
 11
295.656445
 21
139.4759479999999
 31
0.0
  0
LINE
  5
97E3
330
977E
100
AcDbEntity
  8
1
  6
Continuous
100
AcDbLine
 10
295.656445
 20
145.132948
 30
0.0
 11
295.656445
 21
133.818948
 31
0.0
  0
LINE
  5
97E4
330
977E
100
AcDbEntity
  8
1
  6
Continuous
100
AcDbLine
 10
292.156445
 20
146.375948
 30
0.0
 11
292.156445
 21
132.575948
 31
0.0
  0
LINE
  5
97E5
330
977E
100
AcDbEntity
  8
1
  6
Continuous
100
AcDbLine
 10
291.656445
 20
148.9759479999999
 30
0.0
 11
291.656445
 21
129.9759479999998
 31
0.0
  0
LINE
  5
97E6
330
977E
100
AcDbEntity
  8
1
  6
Continuous
100
AcDbLine
 10
290.656445
 20
149.9759479999999
 30
0.0
 11
290.656445
 21
128.9759479999998
 31
0.0
  0
LINE
  5
97E7
330
977E
100
AcDbEntity
  8
1
  6
Continuous
100
AcDbLine
 10
285.656445
 20
149.9759479999999
 30
0.0
 11
285.656445
 21
128.9759479999998
 31
0.0
  0
LINE
  5
97E8
330
977E
100
AcDbEntity
  8
1
  6
Continuous
100
AcDbLine
 10
283.156445
 20
128.9759479999998
 30
0.0
 11
290.656445
 21
128.9759479999998
 31
0.0
  0
LINE
  5
97E9
330
977E
100
AcDbEntity
  8
2
  6
Continuous
100
AcDbLine
 10
292.156445
 20
139.4759479999999
 30
0.0
 11
295.656445
 21
133.818948
 31
0.0
  0
LINE
  5
97EA
330
977E
100
AcDbEntity
  8
2
  6
Continuous
100
AcDbLine
 10
292.156445
 20
133.818948
 30
0.0
 11
295.656445
 21
139.4759479999999
 31
0.0
  0
LINE
  5
97EB
330
977E
100
AcDbEntity
  8
1
  6
Continuous
100
AcDbLine
 10
292.156445
 20
139.4759479999999
 30
0.0
 11
295.656445
 21
139.4759479999999
 31
0.0
  0
LINE
  5
97EC
330
977E
100
AcDbEntity
  8
1
  6
Continuous
100
AcDbLine
 10
290.656445
 20
128.9759479999998
 30
0.0
 11
291.656445
 21
129.9759479999998
 31
0.0
  0
LINE
  5
97ED
330
977E
100
AcDbEntity
  8
1
  6
Continuous
100
AcDbLine
 10
291.656445
 20
132.575948
 30
0.0
 11
292.156445
 21
132.575948
 31
0.0
  0
LINE
  5
97EE
330
977E
100
AcDbEntity
  8
1
  6
Continuous
100
AcDbLine
 10
292.156445
 20
133.818948
 30
0.0
 11
295.656445
 21
133.818948
 31
0.0
  0
LINE
  5
97EF
330
977E
100
AcDbEntity
  8
1
  6
Continuous
100
AcDbLine
 10
283.156445
 20
149.9759479999999
 30
0.0
 11
290.656445
 21
149.9759479999999
 31
0.0
  0
LINE
  5
97F0
330
977E
100
AcDbEntity
  8
1
  6
Continuous
100
AcDbLine
 10
281.156445
 20
160.475948
 30
0.0
 11
283.156445
 21
160.475948
 31
0.0
  0
LINE
  5
97F1
330
977E
100
AcDbEntity
  8
1
  6
Continuous
100
AcDbLine
 10
283.156445
 20
158.9759479999998
 30
0.0
 11
285.156445
 21
158.9759479999998
 31
0.0
  0
LINE
  5
97F2
330
977E
100
AcDbEntity
  8
1
  6
Continuous
100
AcDbLine
 10
285.156445
 20
158.9759479999998
 30
0.0
 11
285.156445
 21
155.9759479999998
 31
0.0
  0
LINE
  5
97F3
330
977E
100
AcDbEntity
  8
1
  6
Continuous
100
AcDbLine
 10
283.156445
 20
155.9759479999998
 30
0.0
 11
285.156445
 21
155.9759479999998
 31
0.0
  0
LINE
  5
97F4
330
977E
100
AcDbEntity
  8
1
  6
Continuous
100
AcDbLine
 10
292.156445
 20
145.132948
 30
0.0
 11
295.656445
 21
145.132948
 31
0.0
  0
LINE
  5
97F5
330
977E
100
AcDbEntity
  8
1
  6
Continuous
100
AcDbLine
 10
291.656445
 20
146.375948
 30
0.0
 11
292.156445
 21
146.375948
 31
0.0
  0
LINE
  5
97F6
330
977E
100
AcDbEntity
  8
1
  6
Continuous
100
AcDbLine
 10
291.656445
 20
148.9759479999999
 30
0.0
 11
290.656445
 21
149.9759479999999
 31
0.0
  0
LINE
  5
97F7
330
977E
100
AcDbEntity
  8
1
  6
Continuous
100
AcDbLine
 10
283.156445
 20
206.357948
 30
0.0
 11
290.656445
 21
206.357948
 31
0.0
  0
LINE
  5
97F8
330
977E
100
AcDbEntity
  8
1
  6
Continuous
100
AcDbLine
 10
281.156445
 20
195.857948
 30
0.0
 11
283.156445
 21
195.857948
 31
0.0
  0
LINE
  5
97F9
330
977E
100
AcDbEntity
  8
1
  6
Continuous
100
AcDbLine
 10
290.656445
 20
206.357948
 30
0.0
 11
291.656445
 21
207.3579479999999
 31
0.0
  0
LINE
  5
97FA
330
977E
100
AcDbEntity
  8
4
  6
CENTER
100
AcDbLine
 10
237.456445
 20
216.857948
 30
0.0
 11
300.656445
 21
216.857948
 31
0.0
  0
ARC
  5
97FB
330
977E
100
AcDbEntity
  8
1
  6
Continuous
100
AcDbCircle
 10
269.157445
 20
238.0169479999999
 30
0.0
 40
12.0
100
AcDbArc
 50
294.6190000000001
 51
359.24
  0
LINE
  5
97FC
330
977E
100
AcDbEntity
  8
1
  6
Continuous
100
AcDbLine
 10
243.456445
 20
225.8579479999999
 30
0.0
 11
274.156445
 21
225.8579479999999
 31
0.0
  0
ARC
  5
97FD
330
977E
100
AcDbEntity
  8
1
  6
Continuous
100
AcDbCircle
 10
243.456445
 20
224.857948
 30
0.0
 40
1.0
100
AcDbArc
 50
90.0
 51
180.0
  0
LINE
  5
97FE
330
977E
100
AcDbEntity
  8
1
  6
Continuous
100
AcDbLine
 10
283.156445
 20
227.3579479999999
 30
0.0
 11
290.656445
 21
227.3579479999999
 31
0.0
  0
LINE
  5
97FF
330
977E
100
AcDbEntity
  8
1
  6
Continuous
100
AcDbLine
 10
283.156445
 20
215.3579479999999
 30
0.0
 11
285.156445
 21
215.3579479999999
 31
0.0
  0
LINE
  5
9800
330
977E
100
AcDbEntity
  8
1
  6
Continuous
100
AcDbLine
 10
283.156445
 20
218.357948
 30
0.0
 11
285.156445
 21
218.357948
 31
0.0
  0
LINE
  5
9801
330
977E
100
AcDbEntity
  8
1
  6
Continuous
100
AcDbLine
 10
285.156445
 20
218.357948
 30
0.0
 11
285.156445
 21
215.3579479999999
 31
0.0
  0
LINE
  5
9802
330
977E
100
AcDbEntity
  8
1
  6
Continuous
100
AcDbLine
 10
292.156445
 20
216.857948
 30
0.0
 11
295.656445
 21
216.857948
 31
0.0
  0
LINE
  5
9803
330
977E
100
AcDbEntity
  8
2
  6
Continuous
100
AcDbLine
 10
292.156445
 20
216.857948
 30
0.0
 11
295.656445
 21
222.514948
 31
0.0
  0
LINE
  5
9804
330
977E
100
AcDbEntity
  8
2
  6
Continuous
100
AcDbLine
 10
292.156445
 20
222.514948
 30
0.0
 11
295.656445
 21
216.857948
 31
0.0
  0
LINE
  5
9805
330
977E
100
AcDbEntity
  8
2
  6
Continuous
100
AcDbLine
 10
292.156445
 20
211.200948
 30
0.0
 11
295.656445
 21
216.857948
 31
0.0
  0
LINE
  5
9806
330
977E
100
AcDbEntity
  8
2
  6
Continuous
100
AcDbLine
 10
292.156445
 20
216.857948
 30
0.0
 11
295.656445
 21
211.200948
 31
0.0
  0
LINE
  5
9807
330
977E
100
AcDbEntity
  8
1
  6
Continuous
100
AcDbLine
 10
292.156445
 20
211.200948
 30
0.0
 11
295.656445
 21
211.200948
 31
0.0
  0
LINE
  5
9808
330
977E
100
AcDbEntity
  8
1
  6
Continuous
100
AcDbLine
 10
292.156445
 20
222.514948
 30
0.0
 11
295.656445
 21
222.514948
 31
0.0
  0
LINE
  5
9809
330
977E
100
AcDbEntity
  8
1
  6
Continuous
100
AcDbLine
 10
292.156445
 20
216.857948
 30
0.0
 11
295.656445
 21
216.857948
 31
0.0
  0
LINE
  5
980A
330
977E
100
AcDbEntity
  8
1
  6
Continuous
100
AcDbLine
 10
295.656445
 20
222.514948
 30
0.0
 11
295.656445
 21
211.200948
 31
0.0
  0
LINE
  5
980B
330
977E
100
AcDbEntity
  8
1
  6
Continuous
100
AcDbLine
 10
292.156445
 20
223.7579479999999
 30
0.0
 11
292.156445
 21
209.957948
 31
0.0
  0
LINE
  5
980C
330
977E
100
AcDbEntity
  8
1
  6
Continuous
100
AcDbLine
 10
291.656445
 20
223.7579479999999
 30
0.0
 11
292.156445
 21
223.7579479999999
 31
0.0
  0
LINE
  5
980D
330
977E
100
AcDbEntity
  8
1
  6
Continuous
100
AcDbLine
 10
291.656445
 20
209.957948
 30
0.0
 11
292.156445
 21
209.957948
 31
0.0
  0
LINE
  5
980E
330
977E
100
AcDbEntity
  8
1
  6
Continuous
100
AcDbLine
 10
291.656445
 20
226.357948
 30
0.0
 11
290.656445
 21
227.3579479999999
 31
0.0
  0
LINE
  5
980F
330
977E
100
AcDbEntity
  8
1
  6
Continuous
100
AcDbLine
 10
281.156445
 20
237.8579479999999
 30
0.0
 11
283.156445
 21
237.8579479999999
 31
0.0
  0
CIRCLE
  5
9810
330
977E
100
AcDbEntity
  8
1
  6
Continuous
100
AcDbCircle
 10
422.841445
 20
139.4759479999999
 30
0.0
 40
19.5
  0
CIRCLE
  5
9811
330
977E
100
AcDbEntity
  8
1
  6
Continuous
100
AcDbCircle
 10
422.841445
 20
139.4759479999999
 30
0.0
 40
21.0
  0
LINE
  5
9812
330
977E
100
AcDbEntity
  8
4
  6
CENTER
100
AcDbLine
 10
448.841445
 20
139.4759479999999
 30
0.0
 11
396.841445
 21
139.4759479999999
 31
0.0
  0
LINE
  5
9813
330
977E
100
AcDbEntity
  8
1
  6
Continuous
100
AcDbLine
 10
327.7616179999998
 20
232.3579479999999
 30
0.0
 11
327.7616179999998
 21
201.3579479999999
 31
0.0
  0
LINE
  5
9814
330
977E
100
AcDbEntity
  8
1
  6
Continuous
100
AcDbLine
 10
323.7616179999998
 20
232.857948
 30
0.0
 11
323.7616179999998
 21
200.8579479999999
 31
0.0
  0
LINE
  5
9815
330
977E
100
AcDbEntity
  8
4
  6
CENTER
100
AcDbLine
 10
316.3361269999999
 20
139.4759479999999
 30
0.0
 11
364.350881
 21
139.4759479999999
 31
0.0
  0
LINE
  5
9816
330
977E
100
AcDbEntity
  8
1
  6
Continuous
100
AcDbLine
 10
323.7616179999998
 20
157.950948
 30
0.0
 11
323.7616179999998
 21
121.0009479999998
 31
0.0
  0
LINE
  5
9817
330
977E
100
AcDbEntity
  8
1
  6
Continuous
100
AcDbLine
 10
327.7616179999998
 20
157.450948
 30
0.0
 11
327.7616179999998
 21
121.5009479999998
 31
0.0
  0
LINE
  5
9818
330
977E
100
AcDbEntity
  8
1
  6
Continuous
100
AcDbLine
 10
327.2616179999999
 20
121.0009479999998
 30
0.0
 11
323.7616179999998
 21
121.0009479999998
 31
0.0
  0
ARC
  5
9819
330
977E
100
AcDbEntity
  8
1
  6
Continuous
100
AcDbCircle
 10
327.2616179999999
 20
121.5009479999998
 30
0.0
 40
0.5
100
AcDbArc
 50
270.0
 51
0.000005
  0
LINE
  5
981A
330
977E
100
AcDbEntity
  8
1
  6
Continuous
100
AcDbLine
 10
327.2616179999999
 20
130.2379479999999
 30
0.0
 11
324.261618
 21
130.2379479999999
 31
0.0
  0
LINE
  5
981B
330
977E
100
AcDbEntity
  8
1
  6
Continuous
100
AcDbLine
 10
327.2616179999999
 20
148.712948
 30
0.0
 11
324.261618
 21
148.712948
 31
0.0
  0
LINE
  5
981C
330
977E
100
AcDbEntity
  8
1
  6
Continuous
100
AcDbLine
 10
327.2616179999999
 20
157.950948
 30
0.0
 11
323.7616179999998
 21
157.950948
 31
0.0
  0
ARC
  5
981D
330
977E
100
AcDbEntity
  8
1
  6
Continuous
100
AcDbCircle
 10
327.2616179999999
 20
157.450948
 30
0.0
 40
0.5
100
AcDbArc
 50
0.0
 51
90.0
  0
LINE
  5
981E
330
977E
100
AcDbEntity
  8
1
  6
Continuous
100
AcDbLine
 10
323.7616179999998
 20
200.8579479999999
 30
0.0
 11
327.2616179999999
 21
200.8579479999999
 31
0.0
  0
ARC
  5
981F
330
977E
100
AcDbEntity
  8
1
  6
Continuous
100
AcDbCircle
 10
327.2616179999999
 20
201.3579479999999
 30
0.0
 40
0.5
100
AcDbArc
 50
270.0
 51
0.0
  0
LINE
  5
9820
330
977E
100
AcDbEntity
  8
1
  6
Continuous
100
AcDbLine
 10
351.846996
 20
147.4759479999999
 30
0.0
 11
351.846996
 21
131.4759479999999
 31
0.0
  0
LINE
  5
9821
330
977E
100
AcDbEntity
  8
1
  6
Continuous
100
AcDbLine
 10
353.446996
 20
131.4759479999999
 30
0.0
 11
351.846996
 21
131.4759479999999
 31
0.0
  0
LINE
  5
9822
330
977E
100
AcDbEntity
  8
1
  6
Continuous
100
AcDbLine
 10
353.446996
 20
147.4759479999999
 30
0.0
 11
351.846996
 21
147.4759479999999
 31
0.0
  0
ARC
  5
9823
330
977E
100
AcDbEntity
  8
1
  6
Continuous
100
AcDbCircle
 10
349.394996
 20
139.4759479999999
 30
0.0
 40
9.552699999999999
100
AcDbArc
 50
342.411
 51
17.5893
  0
LINE
  5
9824
330
977E
100
AcDbEntity
  8
1
  6
Continuous
100
AcDbLine
 10
353.446996
 20
147.4759479999999
 30
0.0
 11
353.446996
 21
131.4759479999999
 31
0.0
  0
LINE
  5
9825
330
977E
100
AcDbEntity
  8
1
  6
Continuous
100
AcDbLine
 10
354.946996
 20
145.575948
 30
0.0
 11
354.946996
 21
133.3759479999999
 31
0.0
  0
LINE
  5
9826
330
977E
100
AcDbEntity
  8
1
  6
Continuous
100
AcDbLine
 10
358.946996
 20
135.145948
 30
0.0
 11
358.946996
 21
143.8059479999998
 31
0.0
  0
LINE
  5
9827
330
977E
100
AcDbEntity
  8
1
  6
Continuous
100
AcDbLine
 10
354.946996
 20
133.7019479999999
 30
0.0
 11
354.946996
 21
145.2489479999998
 31
0.0
  0
ARC
  5
9828
330
977E
100
AcDbEntity
  8
1
  6
Continuous
100
AcDbCircle
 10
356.391996
 20
135.145948
 30
0.0
 40
2.55566
100
AcDbArc
 50
325.613
 51
34.3867
  0
LINE
  5
9829
330
977E
100
AcDbEntity
  8
1
  6
Continuous
100
AcDbLine
 10
354.946996
 20
133.3759479999999
 30
0.0
 11
353.446996
 21
133.3759479999999
 31
0.0
  0
LINE
  5
982A
330
977E
100
AcDbEntity
  8
1
  6
Continuous
100
AcDbLine
 10
354.946996
 20
139.561948
 30
0.0
 11
353.446996
 21
138.061948
 31
0.0
  0
LINE
  5
982B
330
977E
100
AcDbEntity
  8
1
  6
Continuous
100
AcDbLine
 10
354.946996
 20
140.9759479999999
 30
0.0
 11
353.446996
 21
139.4759479999999
 31
0.0
  0
LINE
  5
982C
330
977E
100
AcDbEntity
  8
1
  6
Continuous
100
AcDbLine
 10
358.5009959999999
 20
133.7019479999999
 30
0.0
 11
354.946996
 21
133.7019479999999
 31
0.0
  0
LINE
  5
982D
330
977E
100
AcDbEntity
  8
1
  6
Continuous
100
AcDbLine
 10
358.5009959999999
 20
136.5889479999998
 30
0.0
 11
354.946996
 21
136.5889479999998
 31
0.0
  0
ARC
  5
982E
330
977E
100
AcDbEntity
  8
1
  6
Continuous
100
AcDbCircle
 10
356.391996
 20
143.8059479999998
 30
0.0
 40
2.55566
100
AcDbArc
 50
325.613
 51
34.3867
  0
LINE
  5
982F
330
977E
100
AcDbEntity
  8
1
  6
Continuous
100
AcDbLine
 10
354.946996
 20
145.575948
 30
0.0
 11
353.446996
 21
145.575948
 31
0.0
  0
LINE
  5
9830
330
977E
100
AcDbEntity
  8
1
  6
Continuous
100
AcDbLine
 10
358.5009959999999
 20
142.3629479999999
 30
0.0
 11
354.946996
 21
142.3629479999999
 31
0.0
  0
LINE
  5
9831
330
977E
100
AcDbEntity
  8
1
  6
Continuous
100
AcDbLine
 10
358.5009959999999
 20
145.2489479999998
 30
0.0
 11
354.946996
 21
145.2489479999998
 31
0.0
  0
LINE
  5
9832
330
977E
100
AcDbEntity
  8
1
  6
Continuous
100
AcDbLine
 10
422.3414449999998
 20
121.288948
 30
0.0
 11
407.341445
 21
129.949948
 31
0.0
  0
LINE
  5
9833
330
977E
100
AcDbEntity
  8
1
  6
Continuous
100
AcDbLine
 10
438.341445
 20
129.949948
 30
0.0
 11
423.341445
 21
121.288948
 31
0.0
  0
LINE
  5
9834
330
977E
100
AcDbEntity
  8
1
  6
Continuous
100
AcDbLine
 10
414.603445
 20
120.1589479999999
 30
0.0
 11
416.841445
 21
63.47594799999999
 31
0.0
  0
LINE
  5
9835
330
977E
100
AcDbEntity
  8
1
  6
Continuous
100
AcDbLine
 10
431.0784449999998
 20
120.1589479999999
 30
0.0
 11
428.841445
 21
63.47594799999999
 31
0.0
  0
ARC
  5
9836
330
977E
100
AcDbEntity
  8
1
  6
Continuous
100
AcDbCircle
 10
526.1664449999998
 20
75.64394799999998
 30
0.0
 40
110.0
100
AcDbArc
 50
186.3509999999999
 51
196.0209999999999
  0
ARC
  5
9837
330
977E
100
AcDbEntity
  8
1
  6
Continuous
100
AcDbCircle
 10
319.516445
 20
75.64394799999998
 30
0.0
 40
110.0
100
AcDbArc
 50
343.9789999999999
 51
353.649
  0
ARC
  5
9838
330
977E
100
AcDbEntity
  8
1
  6
Continuous
100
AcDbCircle
 10
422.841445
 20
122.1549479999999
 30
0.0
 40
1.0
100
AcDbArc
 50
239.9999999999999
 51
300.0
  0
CIRCLE
  5
9839
330
977E
100
AcDbEntity
  8
1
  6
Continuous
100
AcDbCircle
 10
422.841445
 20
139.4759479999999
 30
0.0
 40
2.458499999999999
  0
CIRCLE
  5
983A
330
977E
100
AcDbEntity
  8
2
  6
Continuous
100
AcDbCircle
 10
422.841445
 20
139.4759479999999
 30
0.0
 40
3.0
  0
CIRCLE
  5
983B
330
977E
100
AcDbEntity
  8
1
  6
Continuous
100
AcDbCircle
 10
422.841445
 20
139.4759479999999
 30
0.0
 40
6.9
  0
CIRCLE
  5
983C
330
977E
100
AcDbEntity
  8
1
  6
Continuous
100
AcDbCircle
 10
422.841445
 20
139.4759479999999
 30
0.0
 40
10.5
  0
LINE
  5
983D
330
977E
100
AcDbEntity
  8
1
  6
Continuous
100
AcDbLine
 10
422.841445
 20
145.132948
 30
0.0
 11
417.184445
 21
139.4759479999999
 31
0.0
  0
LINE
  5
983E
330
977E
100
AcDbEntity
  8
1
  6
Continuous
100
AcDbLine
 10
417.184445
 20
139.4759479999999
 30
0.0
 11
422.841445
 21
133.818948
 31
0.0
  0
LINE
  5
983F
330
977E
100
AcDbEntity
  8
1
  6
Continuous
100
AcDbLine
 10
422.3414449999998
 20
157.6619479999999
 30
0.0
 11
407.341445
 21
149.0019479999999
 31
0.0
  0
LINE
  5
9840
330
977E
100
AcDbEntity
  8
1
  6
Continuous
100
AcDbLine
 10
406.841445
 20
130.815948
 30
0.0
 11
406.841445
 21
148.1359479999998
 31
0.0
  0
ARC
  5
9841
330
977E
100
AcDbEntity
  8
1
  6
Continuous
100
AcDbCircle
 10
407.841445
 20
130.815948
 30
0.0
 40
1.0
100
AcDbArc
 50
180.0
 51
239.9999999999999
  0
ARC
  5
9842
330
977E
100
AcDbEntity
  8
1
  6
Continuous
100
AcDbCircle
 10
407.841445
 20
148.1359479999998
 30
0.0
 40
1.0
100
AcDbArc
 50
119.9999999999999
 51
180.0
  0
LINE
  5
9843
330
977E
100
AcDbEntity
  8
1
  6
Continuous
100
AcDbLine
 10
422.841445
 20
145.132948
 30
0.0
 11
428.498445
 21
139.4759479999999
 31
0.0
  0
LINE
  5
9844
330
977E
100
AcDbEntity
  8
1
  6
Continuous
100
AcDbLine
 10
438.8414449999998
 20
130.815948
 30
0.0
 11
438.8414449999998
 21
148.1359479999998
 31
0.0
  0
LINE
  5
9845
330
977E
100
AcDbEntity
  8
1
  6
Continuous
100
AcDbLine
 10
428.498445
 20
139.4759479999999
 30
0.0
 11
422.841445
 21
133.818948
 31
0.0
  0
ARC
  5
9846
330
977E
100
AcDbEntity
  8
1
  6
Continuous
100
AcDbCircle
 10
437.841445
 20
130.815948
 30
0.0
 40
1.0
100
AcDbArc
 50
300.0
 51
0.0
  0
LINE
  5
9847
330
977E
100
AcDbEntity
  8
1
  6
Continuous
100
AcDbLine
 10
438.341445
 20
149.0019479999999
 30
0.0
 11
423.341445
 21
157.6619479999999
 31
0.0
  0
ARC
  5
9848
330
977E
100
AcDbEntity
  8
1
  6
Continuous
100
AcDbCircle
 10
422.841445
 20
157.4759479999999
 30
0.0
 40
1.5
100
AcDbArc
 50
345.9239999999998
 51
194.076
  0
ARC
  5
9849
330
977E
100
AcDbEntity
  8
1
  6
Continuous
100
AcDbCircle
 10
422.841445
 20
156.795948
 30
0.0
 40
1.0
100
AcDbArc
 50
60.0
 51
119.9999999999999
  0
ARC
  5
984A
330
977E
100
AcDbEntity
  8
1
  6
Continuous
100
AcDbCircle
 10
437.841445
 20
148.1359479999998
 30
0.0
 40
1.0
100
AcDbArc
 50
0.0
 51
60.0
  0
CIRCLE
  5
984B
330
977E
100
AcDbEntity
  8
1
  6
Continuous
100
AcDbCircle
 10
422.841445
 20
188.961948
 30
0.0
 40
6.099999999999997
  0
CIRCLE
  5
984C
330
977E
100
AcDbEntity
  8
1
  6
Continuous
100
AcDbCircle
 10
422.841445
 20
188.961948
 30
0.0
 40
5.0
  0
LINE
  5
984D
330
977E
100
AcDbEntity
  8
1
  6
Continuous
100
AcDbLine
 10
421.769445
 20
190.009948
 30
0.0
 11
419.8594449999998
 21
189.9769479999999
 31
0.0
  0
LINE
  5
984E
330
977E
100
AcDbEntity
  8
1
  6
Continuous
100
AcDbLine
 10
421.769445
 20
187.913948
 30
0.0
 11
419.8594449999998
 21
187.946948
 31
0.0
  0
LINE
  5
984F
330
977E
100
AcDbEntity
  8
4
  6
CENTER
100
AcDbLine
 10
411.841445
 20
188.961948
 30
0.0
 11
433.841445
 21
188.961948
 31
0.0
  0
LINE
  5
9850
330
977E
100
AcDbEntity
  8
1
  6
Continuous
100
AcDbLine
 10
417.841445
 20
186.074948
 30
0.0
 11
422.841445
 21
183.188948
 31
0.0
  0
LINE
  5
9851
330
977E
100
AcDbEntity
  8
1
  6
Continuous
100
AcDbLine
 10
417.841445
 20
191.848948
 30
0.0
 11
422.841445
 21
194.735948
 31
0.0
  0
ARC
  5
9852
330
977E
100
AcDbEntity
  8
1
  6
Continuous
100
AcDbCircle
 10
422.841445
 20
188.961948
 30
0.0
 40
3.149999999999999
100
AcDbArc
 50
161.203
 51
198.7969999999999
  0
LINE
  5
9853
330
977E
100
AcDbEntity
  8
1
  6
Continuous
100
AcDbLine
 10
417.841445
 20
191.848948
 30
0.0
 11
417.841445
 21
186.074948
 31
0.0
  0
LINE
  5
9854
330
977E
100
AcDbEntity
  8
4
  6
CENTER
100
AcDbLine
 10
422.841445
 20
199.9619479999998
 30
0.0
 11
422.841445
 21
177.961948
 31
0.0
  0
ARC
  5
9855
330
977E
100
AcDbEntity
  8
1
  6
Continuous
100
AcDbCircle
 10
422.841445
 20
188.961948
 30
0.0
 40
3.149999999999999
100
AcDbArc
 50
251.203
 51
288.7970000000001
  0
ARC
  5
9856
330
977E
100
AcDbEntity
  8
1
  6
Continuous
100
AcDbCircle
 10
422.841445
 20
188.961948
 30
0.0
 40
3.149999999999999
100
AcDbArc
 50
71.2026
 51
108.797
  0
ARC
  5
9857
330
977E
100
AcDbEntity
  8
1
  6
Continuous
100
AcDbCircle
 10
422.841445
 20
188.961948
 30
0.0
 40
3.149999999999999
100
AcDbArc
 50
341.2029999999999
 51
18.79739999999999
  0
LINE
  5
9858
330
977E
100
AcDbEntity
  8
1
  6
Continuous
100
AcDbLine
 10
421.784445
 20
187.905948
 30
0.0
 11
421.7924449999999
 21
187.890948
 31
0.0
  0
LINE
  5
9859
330
977E
100
AcDbEntity
  8
1
  6
Continuous
100
AcDbLine
 10
421.7924449999999
 20
187.890948
 30
0.0
 11
421.8264449999998
 21
185.979948
 31
0.0
  0
LINE
  5
985A
330
977E
100
AcDbEntity
  8
1
  6
Continuous
100
AcDbLine
 10
423.889445
 20
187.890948
 30
0.0
 11
423.856445
 21
185.979948
 31
0.0
  0
LINE
  5
985B
330
977E
100
AcDbEntity
  8
1
  6
Continuous
100
AcDbLine
 10
423.8974449999998
 20
187.905948
 30
0.0
 11
423.889445
 21
187.890948
 31
0.0
  0
LINE
  5
985C
330
977E
100
AcDbEntity
  8
1
  6
Continuous
100
AcDbLine
 10
421.784445
 20
190.017948
 30
0.0
 11
421.769445
 21
190.009948
 31
0.0
  0
LINE
  5
985D
330
977E
100
AcDbEntity
  8
1
  6
Continuous
100
AcDbLine
 10
421.784445
 20
187.905948
 30
0.0
 11
421.769445
 21
187.913948
 31
0.0
  0
LINE
  5
985E
330
977E
100
AcDbEntity
  8
1
  6
Continuous
100
AcDbLine
 10
423.8974449999998
 20
190.017948
 30
0.0
 11
423.889445
 21
190.033948
 31
0.0
  0
LINE
  5
985F
330
977E
100
AcDbEntity
  8
1
  6
Continuous
100
AcDbLine
 10
423.889445
 20
190.033948
 30
0.0
 11
423.856445
 21
191.943948
 31
0.0
  0
LINE
  5
9860
330
977E
100
AcDbEntity
  8
1
  6
Continuous
100
AcDbLine
 10
421.7924449999999
 20
190.033948
 30
0.0
 11
421.8264449999998
 21
191.943948
 31
0.0
  0
LINE
  5
9861
330
977E
100
AcDbEntity
  8
1
  6
Continuous
100
AcDbLine
 10
421.784445
 20
190.017948
 30
0.0
 11
421.7924449999999
 21
190.033948
 31
0.0
  0
LINE
  5
9862
330
977E
100
AcDbEntity
  8
1
  6
Continuous
100
AcDbLine
 10
423.912445
 20
190.009948
 30
0.0
 11
425.8234449999998
 21
189.9769479999999
 31
0.0
  0
LINE
  5
9863
330
977E
100
AcDbEntity
  8
1
  6
Continuous
100
AcDbLine
 10
423.8974449999998
 20
190.017948
 30
0.0
 11
423.912445
 21
190.009948
 31
0.0
  0
LINE
  5
9864
330
977E
100
AcDbEntity
  8
1
  6
Continuous
100
AcDbLine
 10
423.912445
 20
187.913948
 30
0.0
 11
425.8234449999998
 21
187.946948
 31
0.0
  0
LINE
  5
9865
330
977E
100
AcDbEntity
  8
1
  6
Continuous
100
AcDbLine
 10
423.8974449999998
 20
187.905948
 30
0.0
 11
423.912445
 21
187.913948
 31
0.0
  0
LINE
  5
9866
330
977E
100
AcDbEntity
  8
1
  6
Continuous
100
AcDbLine
 10
422.841445
 20
194.735948
 30
0.0
 11
427.841445
 21
191.848948
 31
0.0
  0
LINE
  5
9867
330
977E
100
AcDbEntity
  8
1
  6
Continuous
100
AcDbLine
 10
427.841445
 20
191.848948
 30
0.0
 11
427.841445
 21
186.074948
 31
0.0
  0
LINE
  5
9868
330
977E
100
AcDbEntity
  8
1
  6
Continuous
100
AcDbLine
 10
422.841445
 20
183.188948
 30
0.0
 11
427.841445
 21
186.074948
 31
0.0
  0
LINE
  5
9869
330
977E
100
AcDbEntity
  8
4
  6
CENTER
100
AcDbLine
 10
316.3361269999999
 20
216.857948
 30
0.0
 11
364.350881
 21
216.857948
 31
0.0
  0
LINE
  5
986A
330
977E
100
AcDbEntity
  8
1
  6
Continuous
100
AcDbLine
 10
323.7616179999998
 20
216.857948
 30
0.0
 11
327.7616179999998
 21
216.857948
 31
0.0
  0
LINE
  5
986B
330
977E
100
AcDbEntity
  8
1
  6
Continuous
100
AcDbLine
 10
323.7616179999998
 20
232.857948
 30
0.0
 11
327.2616179999999
 21
232.857948
 31
0.0
  0
ARC
  5
986C
330
977E
100
AcDbEntity
  8
1
  6
Continuous
100
AcDbCircle
 10
327.2616179999999
 20
232.3579479999999
 30
0.0
 40
0.5
100
AcDbArc
 50
0.0
 51
90.0
  0
LINE
  5
986D
330
977E
100
AcDbEntity
  8
1
  6
Continuous
100
AcDbLine
 10
353.520082
 20
224.857948
 30
0.0
 11
351.920082
 21
224.857948
 31
0.0
  0
LINE
  5
986E
330
977E
100
AcDbEntity
  8
1
  6
Continuous
100
AcDbLine
 10
353.520082
 20
208.8579479999999
 30
0.0
 11
351.920082
 21
208.8579479999999
 31
0.0
  0
LINE
  5
986F
330
977E
100
AcDbEntity
  8
1
  6
Continuous
100
AcDbLine
 10
351.920082
 20
224.857948
 30
0.0
 11
351.920082
 21
208.8579479999999
 31
0.0
  0
ARC
  5
9870
330
977E
100
AcDbEntity
  8
1
  6
Continuous
100
AcDbCircle
 10
351.799082
 20
214.357448
 30
0.0
 40
7.220389999999997
100
AcDbArc
 50
339.7419999999998
 51
20.25799999999998
  0
LINE
  5
9871
330
977E
100
AcDbEntity
  8
1
  6
Continuous
100
AcDbLine
 10
358.474082
 20
216.857448
 30
0.0
 11
355.020082
 21
216.857448
 31
0.0
  0
LINE
  5
9872
330
977E
100
AcDbEntity
  8
1
  6
Continuous
100
AcDbLine
 10
359.020082
 20
211.8574479999999
 30
0.0
 11
355.020082
 21
211.8574479999999
 31
0.0
  0
LINE
  5
9873
330
977E
100
AcDbEntity
  8
1
  6
Continuous
100
AcDbLine
 10
359.020082
 20
221.857448
 30
0.0
 11
355.020082
 21
221.857448
 31
0.0
  0
LINE
  5
9874
330
977E
100
AcDbEntity
  8
1
  6
Continuous
100
AcDbLine
 10
359.020082
 20
221.857448
 30
0.0
 11
359.020082
 21
211.8574479999999
 31
0.0
  0
ARC
  5
9875
330
977E
100
AcDbEntity
  8
1
  6
Continuous
100
AcDbCircle
 10
351.799082
 20
219.357448
 30
0.0
 40
7.220389999999997
100
AcDbArc
 50
339.7419999999998
 51
20.25799999999998
  0
LINE
  5
9876
330
977E
100
AcDbEntity
  8
1
  6
Continuous
100
AcDbLine
 10
355.020082
 20
222.9579479999999
 30
0.0
 11
353.520082
 21
222.9579479999999
 31
0.0
  0
LINE
  5
9877
330
977E
100
AcDbEntity
  8
1
  6
Continuous
100
AcDbLine
 10
355.020082
 20
216.943948
 30
0.0
 11
353.520082
 21
215.443948
 31
0.0
  0
LINE
  5
9878
330
977E
100
AcDbEntity
  8
1
  6
Continuous
100
AcDbLine
 10
355.020082
 20
210.757948
 30
0.0
 11
353.520082
 21
210.757948
 31
0.0
  0
LINE
  5
9879
330
977E
100
AcDbEntity
  8
1
  6
Continuous
100
AcDbLine
 10
355.020082
 20
211.083948
 30
0.0
 11
355.020082
 21
222.6309479999999
 31
0.0
  0
LINE
  5
987A
330
977E
100
AcDbEntity
  8
1
  6
Continuous
100
AcDbLine
 10
355.020082
 20
222.9579479999999
 30
0.0
 11
355.020082
 21
210.757948
 31
0.0
  0
LINE
  5
987B
330
977E
100
AcDbEntity
  8
1
  6
Continuous
100
AcDbLine
 10
353.520082
 20
224.857948
 30
0.0
 11
353.520082
 21
208.8579479999999
 31
0.0
  0
LINE
  5
987C
330
977E
100
AcDbEntity
  8
1
  6
Continuous
100
AcDbLine
 10
355.020082
 20
218.357948
 30
0.0
 11
353.520082
 21
216.857948
 31
0.0
  0
LINE
  5
987D
330
977E
100
AcDbEntity
  8
2
  6
Continuous
100
AcDbLine
 10
285.656445
 20
226.816448
 30
0.0
 11
291.197945
 21
226.816448
 31
0.0
  0
LINE
  5
987E
330
977E
100
AcDbEntity
  8
2
  6
Continuous
100
AcDbLine
 10
285.656445
 20
206.899448
 30
0.0
 11
291.197945
 21
206.899448
 31
0.0
  0
LINE
  5
987F
330
977E
100
AcDbEntity
  8
2
  6
Continuous
100
AcDbLine
 10
285.656445
 20
226.816448
 30
0.0
 11
284.71854
 21
227.3579479999999
 31
0.0
  0
LINE
  5
9880
330
977E
100
AcDbEntity
  8
2
  6
Continuous
100
AcDbLine
 10
285.656445
 20
206.899448
 30
0.0
 11
284.71854
 21
206.357948
 31
0.0
  0
LINE
  5
9881
330
977E
100
AcDbEntity
  8
2
  6
Continuous
100
AcDbLine
 10
285.656445
 20
149.434448
 30
0.0
 11
291.197945
 21
149.434448
 31
0.0
  0
LINE
  5
9882
330
977E
100
AcDbEntity
  8
2
  6
Continuous
100
AcDbLine
 10
285.656445
 20
149.434448
 30
0.0
 11
284.71854
 21
149.9759479999999
 31
0.0
  0
LINE
  5
9883
330
977E
100
AcDbEntity
  8
2
  6
Continuous
100
AcDbLine
 10
285.656445
 20
129.517448
 30
0.0
 11
291.197945
 21
129.517448
 31
0.0
  0
LINE
  5
9884
330
977E
100
AcDbEntity
  8
2
  6
Continuous
100
AcDbLine
 10
285.656445
 20
129.517448
 30
0.0
 11
284.71854
 21
128.9759479999998
 31
0.0
  0
CIRCLE
  5
9885
330
977E
100
AcDbEntity
  8
2
  6
Continuous
100
AcDbCircle
 10
422.841445
 20
139.4759479999999
 30
0.0
 40
9.9585
  0
CIRCLE
  5
9886
330
977E
100
AcDbEntity
  8
1
  6
Continuous
100
AcDbCircle
 10
115.071045
 20
139.4759479999999
 30
0.0
 40
7.4
  0
LINE
  5
9887
330
977E
100
AcDbEntity
  8
1
  6
Continuous
100
AcDbLine
 10
117.5710449999999
 20
144.4759479999999
 30
0.0
 11
117.5710449999999
 21
134.475948
 31
0.0
  0
LINE
  5
9888
330
977E
100
AcDbEntity
  8
1
  6
Continuous
100
AcDbLine
 10
112.5710449999999
 20
144.4759479999999
 30
0.0
 11
112.5710449999999
 21
134.475948
 31
0.0
  0
LINE
  5
9889
330
977E
100
AcDbEntity
  8
1
  6
Continuous
100
AcDbLine
 10
117.5710449999999
 20
144.4759479999999
 30
0.0
 11
112.5710449999999
 21
144.4759479999999
 31
0.0
  0
LINE
  5
988A
330
977E
100
AcDbEntity
  8
1
  6
Continuous
100
AcDbLine
 10
117.5710449999999
 20
134.475948
 30
0.0
 11
112.5710449999999
 21
134.475948
 31
0.0
  0
LINE
  5
988B
330
977E
100
AcDbEntity
  8
1
  6
Continuous
100
AcDbLine
 10
116.1710449999999
 20
142.8759479999999
 30
0.0
 11
113.9710449999999
 21
142.8759479999999
 31
0.0
  0
LINE
  5
988C
330
977E
100
AcDbEntity
  8
1
  6
Continuous
100
AcDbLine
 10
116.1710449999999
 20
136.075948
 30
0.0
 11
114.5710449999999
 21
136.075948
 31
0.0
  0
LINE
  5
988D
330
977E
100
AcDbEntity
  8
1
  6
Continuous
100
AcDbLine
 10
116.1710449999999
 20
142.8759479999999
 30
0.0
 11
116.1710449999999
 21
139.9759479999999
 31
0.0
  0
LINE
  5
988E
330
977E
100
AcDbEntity
  8
1
  6
Continuous
100
AcDbLine
 10
113.9710449999999
 20
141.125948
 30
0.0
 11
113.9710449999999
 21
138.325948
 31
0.0
  0
LINE
  5
988F
330
977E
100
AcDbEntity
  8
1
  6
Continuous
100
AcDbLine
 10
116.1710449999999
 20
139.9759479999999
 30
0.0
 11
115.5710449999999
 21
139.9759479999999
 31
0.0
  0
LINE
  5
9890
330
977E
100
AcDbEntity
  8
1
  6
Continuous
100
AcDbLine
 10
116.1710449999999
 20
138.9759479999999
 30
0.0
 11
115.5710449999999
 21
138.9759479999999
 31
0.0
  0
LINE
  5
9891
330
977E
100
AcDbEntity
  8
1
  6
Continuous
100
AcDbLine
 10
115.5710449999999
 20
139.9759479999999
 30
0.0
 11
115.5710449999999
 21
138.9759479999999
 31
0.0
  0
LINE
  5
9892
330
977E
100
AcDbEntity
  8
1
  6
Continuous
100
AcDbLine
 10
114.5710449999999
 20
138.325948
 30
0.0
 11
114.5710449999999
 21
136.075948
 31
0.0
  0
LINE
  5
9893
330
977E
100
AcDbEntity
  8
1
  6
Continuous
100
AcDbLine
 10
116.1710449999999
 20
138.9759479999999
 30
0.0
 11
116.1710449999999
 21
136.075948
 31
0.0
  0
LINE
  5
9894
330
977E
100
AcDbEntity
  8
1
  6
Continuous
100
AcDbLine
 10
114.5710449999999
 20
141.125948
 30
0.0
 11
113.9710449999999
 21
141.125948
 31
0.0
  0
LINE
  5
9895
330
977E
100
AcDbEntity
  8
1
  6
Continuous
100
AcDbLine
 10
114.5710449999999
 20
142.1259479999999
 30
0.0
 11
113.9710449999999
 21
142.1259479999999
 31
0.0
  0
LINE
  5
9896
330
977E
100
AcDbEntity
  8
1
  6
Continuous
100
AcDbLine
 10
114.5710449999999
 20
138.325948
 30
0.0
 11
113.9710449999999
 21
138.325948
 31
0.0
  0
LINE
  5
9897
330
977E
100
AcDbEntity
  8
1
  6
Continuous
100
AcDbLine
 10
114.5710449999999
 20
142.1259479999999
 30
0.0
 11
114.5710449999999
 21
141.125948
 31
0.0
  0
LINE
  5
9898
330
977E
100
AcDbEntity
  8
1
  6
Continuous
100
AcDbLine
 10
113.9710449999999
 20
142.8759479999999
 30
0.0
 11
113.9710449999999
 21
142.1259479999999
 31
0.0
  0
LINE
  5
9899
330
977E
100
AcDbEntity
  8
1
  6
Continuous
100
AcDbLine
 10
339.021587
 20
147.4759479999999
 30
0.0
 11
339.021587
 21
131.4759479999999
 31
0.0
  0
LINE
  5
989A
330
977E
100
AcDbEntity
  8
1
  6
Continuous
100
AcDbLine
 10
340.021587
 20
147.4759479999999
 30
0.0
 11
340.021587
 21
131.4759479999999
 31
0.0
  0
LINE
  5
989B
330
977E
100
AcDbEntity
  8
1
  6
Continuous
100
AcDbLine
 10
339.021587
 20
147.4759479999999
 30
0.0
 11
340.021587
 21
147.4759479999999
 31
0.0
  0
LINE
  5
989C
330
977E
100
AcDbEntity
  8
1
  6
Continuous
100
AcDbLine
 10
339.021587
 20
131.4759479999999
 30
0.0
 11
340.021587
 21
131.4759479999999
 31
0.0
  0
CIRCLE
  5
989D
330
977E
100
AcDbEntity
  8
1
  6
Continuous
100
AcDbCircle
 10
422.841445
 20
188.961948
 30
0.0
 40
8.0
  0
LINE
  5
989E
330
977E
100
AcDbEntity
  8
1
  6
Continuous
100
AcDbLine
 10
321.761618
 20
152.075948
 30
0.0
 11
321.761618
 21
126.8759479999998
 31
0.0
  0
ARC
  5
989F
330
977E
100
AcDbEntity
  8
1
  6
Continuous
100
AcDbCircle
 10
322.761618
 20
152.075948
 30
0.0
 40
1.0
100
AcDbArc
 50
0.0
 51
180.0
  0
ARC
  5
98A0
330
977E
100
AcDbEntity
  8
1
  6
Continuous
100
AcDbCircle
 10
322.761618
 20
126.8759479999998
 30
0.0
 40
1.0
100
AcDbArc
 50
180.0
 51
0.0
  0
LINE
  5
98A1
330
977E
100
AcDbEntity
  8
1
  6
Continuous
100
AcDbLine
 10
339.094673
 20
224.857948
 30
0.0
 11
339.094673
 21
208.8579479999999
 31
0.0
  0
LINE
  5
98A2
330
977E
100
AcDbEntity
  8
1
  6
Continuous
100
AcDbLine
 10
340.094673
 20
224.857948
 30
0.0
 11
340.094673
 21
208.8579479999999
 31
0.0
  0
LINE
  5
98A3
330
977E
100
AcDbEntity
  8
1
  6
Continuous
100
AcDbLine
 10
339.094673
 20
208.8579479999999
 30
0.0
 11
340.094673
 21
208.8579479999999
 31
0.0
  0
LINE
  5
98A4
330
977E
100
AcDbEntity
  8
1
  6
Continuous
100
AcDbLine
 10
339.094673
 20
224.857948
 30
0.0
 11
340.094673
 21
224.857948
 31
0.0
  0
LINE
  5
98A5
330
977E
100
AcDbEntity
  8
1
  6
Continuous
100
AcDbLine
 10
321.761618
 20
229.4579479999999
 30
0.0
 11
321.761618
 21
204.257948
 31
0.0
  0
ARC
  5
98A6
330
977E
100
AcDbEntity
  8
1
  6
Continuous
100
AcDbCircle
 10
322.761618
 20
204.257948
 30
0.0
 40
1.0
100
AcDbArc
 50
180.0
 51
0.0
  0
ARC
  5
98A7
330
977E
100
AcDbEntity
  8
1
  6
Continuous
100
AcDbCircle
 10
322.761618
 20
229.4579479999999
 30
0.0
 40
1.0
100
AcDbArc
 50
0.0
 51
180.0
  0
ARC
  5
98A8
330
977E
100
AcDbEntity
  8
1
  6
Continuous
100
AcDbCircle
 10
424.223245
 20
90.64364199999998
 30
0.0
 40
0.044478
100
AcDbArc
 50
270.0
 51
12.72899999999999
  0
ARC
  5
98A9
330
977E
100
AcDbEntity
  8
1
  6
Continuous
100
AcDbCircle
 10
421.459745
 20
90.64364199999998
 30
0.0
 40
0.044478
100
AcDbArc
 50
167.2709999999999
 51
270.0
  0
ARC
  5
98AA
330
977E
100
AcDbEntity
  8
1
  6
Continuous
100
AcDbCircle
 10
419.108645
 20
89.48791899999998
 30
0.0
 40
5.288419999999998
100
AcDbArc
 50
22.94399999999999
 51
26.01399999999999
  0
ARC
  5
98AB
330
977E
100
AcDbEntity
  8
1
  6
Continuous
100
AcDbCircle
 10
423.938145
 20
91.532292
 30
0.0
 40
0.044478
100
AcDbArc
 50
270.0
 51
22.94399999999999
  0
ARC
  5
98AC
330
977E
100
AcDbEntity
  8
1
  6
Continuous
100
AcDbCircle
 10
423.6611449999998
 20
91.71005200000001
 30
0.0
 40
0.222302
100
AcDbArc
 50
26.01399999999999
 51
90.0
  0
ARC
  5
98AD
330
977E
100
AcDbEntity
  8
1
  6
Continuous
100
AcDbCircle
 10
426.574345
 20
89.48791899999998
 30
0.0
 40
5.288419999999998
100
AcDbArc
 50
153.986
 51
154.7719999999999
  0
ARC
  5
98AE
330
977E
100
AcDbEntity
  8
1
  6
Continuous
100
AcDbCircle
 10
426.574345
 20
89.48791899999998
 30
0.0
 40
5.288419999999998
100
AcDbArc
 50
153.986
 51
157.056
  0
ARC
  5
98AF
330
977E
100
AcDbEntity
  8
1
  6
Continuous
100
AcDbCircle
 10
421.745745
 20
91.532292
 30
0.0
 40
0.044478
100
AcDbArc
 50
157.056
 51
270.0
  0
ARC
  5
98B0
330
977E
100
AcDbEntity
  8
1
  6
Continuous
100
AcDbCircle
 10
422.0218449999999
 20
91.71005200000001
 30
0.0
 40
0.222302
100
AcDbArc
 50
90.0
 51
153.986
  0
ARC
  5
98B1
330
977E
100
AcDbEntity
  8
1
  6
Continuous
100
AcDbCircle
 10
422.841945
 20
92.153922
 30
0.0
 40
1.14525
100
AcDbArc
 50
35.531
 51
144.462
  0
ARC
  5
98B2
330
977E
100
AcDbEntity
  8
1
  6
Continuous
100
AcDbCircle
 10
426.574345
 20
89.48791899999998
 30
0.0
 40
5.288419999999998
100
AcDbArc
 50
164.794
 51
167.2709999999999
  0
ARC
  5
98B3
330
977E
100
AcDbEntity
  8
1
  6
Continuous
100
AcDbCircle
 10
426.574345
 20
89.48791899999998
 30
0.0
 40
5.288419999999998
100
AcDbArc
 50
164.7419999999999
 51
164.794
  0
ARC
  5
98B4
330
977E
100
AcDbEntity
  8
1
  6
Continuous
100
AcDbCircle
 10
421.687145
 20
90.820462
 30
0.0
 40
0.222302
100
AcDbArc
 50
90.0
 51
164.7419999999999
  0
ARC
  5
98B5
330
977E
100
AcDbEntity
  8
1
  6
Continuous
100
AcDbCircle
 10
423.9958449999998
 20
90.820462
 30
0.0
 40
0.222302
100
AcDbArc
 50
15.258
 51
90.0
  0
ARC
  5
98B6
330
977E
100
AcDbEntity
  8
1
  6
Continuous
100
AcDbCircle
 10
419.108645
 20
89.48791899999998
 30
0.0
 40
5.288419999999998
100
AcDbArc
 50
13.26799999999999
 51
15.258
  0
ARC
  5
98B7
330
977E
100
AcDbEntity
  8
1
  6
Continuous
100
AcDbCircle
 10
419.108645
 20
89.48791899999998
 30
0.0
 40
5.288419999999998
100
AcDbArc
 50
12.72899999999999
 51
13.26799999999999
  0
LINE
  5
98B8
330
977E
100
AcDbEntity
  8
1
  6
Continuous
100
AcDbLine
 10
424.3919449999998
 20
89.70986299999998
 30
0.0
 11
421.2910449999998
 21
89.70986299999998
 31
0.0
  0
LINE
  5
98B9
330
977E
100
AcDbEntity
  8
1
  6
Continuous
100
AcDbLine
 10
424.3549449999998
 20
90.154657
 30
0.0
 11
421.328045
 21
90.154657
 31
0.0
  0
LINE
  5
98BA
330
977E
100
AcDbEntity
  8
1
  6
Continuous
100
AcDbLine
 10
422.841945
 20
89.70986299999998
 30
0.0
 11
422.841945
 21
90.154657
 31
0.0
  0
LINE
  5
98BB
330
977E
100
AcDbEntity
  8
1
  6
Continuous
100
AcDbLine
 10
423.3751449999998
 20
90.59851200000002
 30
0.0
 11
424.223245
 21
90.59851200000002
 31
0.0
  0
LINE
  5
98BC
330
977E
100
AcDbEntity
  8
1
  6
Continuous
100
AcDbLine
 10
424.0608449999998
 20
92.37676200000001
 30
0.0
 11
422.144545
 21
92.37676200000001
 31
0.0
  0
LINE
  5
98BD
330
977E
100
AcDbEntity
  8
1
  6
Continuous
100
AcDbLine
 10
423.9958449999998
 20
91.043312
 30
0.0
 11
421.687145
 21
91.043312
 31
0.0
  0
LINE
  5
98BE
330
977E
100
AcDbEntity
  8
1
  6
Continuous
100
AcDbLine
 10
423.938145
 20
91.48720199999999
 30
0.0
 11
421.745745
 21
91.48720199999999
 31
0.0
  0
LINE
  5
98BF
330
977E
100
AcDbEntity
  8
1
  6
Continuous
100
AcDbLine
 10
422.0218449999999
 20
91.93198200000001
 30
0.0
 11
423.6611449999998
 21
91.93198200000001
 31
0.0
  0
LINE
  5
98C0
330
977E
100
AcDbEntity
  8
1
  6
Continuous
100
AcDbLine
 10
421.459745
 20
90.59851200000002
 30
0.0
 11
422.3087449999998
 21
90.59851200000002
 31
0.0
  0
ARC
  5
98C1
330
977E
100
AcDbEntity
  8
1
  6
Continuous
100
AcDbCircle
 10
422.841945
 20
86.821022
 30
0.0
 40
1.14534
100
AcDbArc
 50
215.5469999999998
 51
324.4619999999998
  0
ARC
  5
98C2
330
977E
100
AcDbEntity
  8
1
  6
Continuous
100
AcDbCircle
 10
423.0638449999998
 20
87.26579200000001
 30
0.0
 40
0.222302
100
AcDbArc
 50
90.0
 51
270.0
  0
ARC
  5
98C3
330
977E
100
AcDbEntity
  8
1
  6
Continuous
100
AcDbCircle
 10
426.574345
 20
89.48791899999998
 30
0.0
 40
5.288419999999998
100
AcDbArc
 50
187.793
 51
190.1039999999999
  0
ARC
  5
98C4
330
977E
100
AcDbEntity
  8
1
  6
Continuous
100
AcDbCircle
 10
421.3785449999998
 20
88.77699099999999
 30
0.0
 40
0.044478
100
AcDbArc
 50
90.0
 51
187.793
  0
ARC
  5
98C5
330
977E
100
AcDbEntity
  8
1
  6
Continuous
100
AcDbCircle
 10
421.586945
 20
88.59926599999999
 30
0.0
 40
0.222302
100
AcDbArc
 50
190.1039999999999
 51
270.0
  0
ARC
  5
98C6
330
977E
100
AcDbEntity
  8
1
  6
Continuous
100
AcDbCircle
 10
424.304445
 20
88.77699099999999
 30
0.0
 40
0.044478
100
AcDbArc
 50
352.2069999999998
 51
90.0
  0
ARC
  5
98C7
330
977E
100
AcDbEntity
  8
1
  6
Continuous
100
AcDbCircle
 10
419.108645
 20
89.48791899999998
 30
0.0
 40
5.288419999999998
100
AcDbArc
 50
349.8959999999998
 51
352.2069999999998
  0
ARC
  5
98C8
330
977E
100
AcDbEntity
  8
1
  6
Continuous
100
AcDbCircle
 10
424.096045
 20
88.59926599999999
 30
0.0
 40
0.222302
100
AcDbArc
 50
270.0
 51
349.8959999999998
  0
LINE
  5
98C9
330
977E
100
AcDbEntity
  8
1
  6
Continuous
100
AcDbLine
 10
423.0638449999998
 20
87.04387199999997
 30
0.0
 11
424.012945
 21
87.04387199999997
 31
0.0
  0
LINE
  5
98CA
330
977E
100
AcDbEntity
  8
1
  6
Continuous
100
AcDbLine
 10
424.093245
 20
87.48773199999998
 30
0.0
 11
423.0638449999998
 21
87.48773199999998
 31
0.0
  0
LINE
  5
98CB
330
977E
100
AcDbEntity
  8
1
  6
Continuous
100
AcDbLine
 10
423.3751449999998
 20
88.376412
 30
0.0
 11
424.096045
 21
88.376412
 31
0.0
  0
LINE
  5
98CC
330
977E
100
AcDbEntity
  8
1
  6
Continuous
100
AcDbLine
 10
424.302645
 20
87.93253199999998
 30
0.0
 11
421.5202449999998
 21
87.93253199999998
 31
0.0
  0
LINE
  5
98CD
330
977E
100
AcDbEntity
  8
1
  6
Continuous
100
AcDbLine
 10
424.304445
 20
88.82120899999998
 30
0.0
 11
421.3785449999998
 21
88.82120899999998
 31
0.0
  0
LINE
  5
98CE
330
977E
100
AcDbEntity
  8
1
  6
Continuous
100
AcDbLine
 10
424.3919449999998
 20
89.265068
 30
0.0
 11
421.2910449999998
 21
89.265068
 31
0.0
  0
LINE
  5
98CF
330
977E
100
AcDbEntity
  8
1
  6
Continuous
100
AcDbLine
 10
422.010145
 20
86.817402
 30
0.0
 11
423.883045
 21
86.31488199999997
 31
0.0
  0
LINE
  5
98D0
330
977E
100
AcDbEntity
  8
1
  6
Continuous
100
AcDbLine
 10
422.841945
 20
85.67612199999997
 30
0.0
 11
422.841945
 21
86.59456199999999
 31
0.0
  0
LINE
  5
98D1
330
977E
100
AcDbEntity
  8
1
  6
Continuous
100
AcDbLine
 10
422.841945
 20
88.376412
 30
0.0
 11
422.841945
 21
88.59926599999999
 31
0.0
  0
LINE
  5
98D2
330
977E
100
AcDbEntity
  8
1
  6
Continuous
100
AcDbLine
 10
422.841945
 20
87.26579200000001
 30
0.0
 11
421.775545
 21
87.26579200000001
 31
0.0
  0
LINE
  5
98D3
330
977E
100
AcDbEntity
  8
1
  6
Continuous
100
AcDbLine
 10
421.586945
 20
88.376412
 30
0.0
 11
422.841945
 21
88.376412
 31
0.0
  0
ARC
  5
98D4
330
977E
100
AcDbEntity
  8
1
  6
Continuous
100
AcDbCircle
 10
426.574345
 20
89.48791899999998
 30
0.0
 40
5.73285
100
AcDbArc
 50
144.462
 51
215.5379999999999
  0
ARC
  5
98D5
330
977E
100
AcDbEntity
  8
1
  6
Continuous
100
AcDbCircle
 10
419.108645
 20
89.48791899999998
 30
0.0
 40
5.73285
100
AcDbArc
 50
324.4619999999998
 51
35.53799999999999
  0
LINE
  5
98D6
330
977E
100
AcDbEntity
  8
1
  6
Continuous
100
AcDbLine
 10
114.828574
 20
220.3178419999999
 30
0.0
 11
116.428174
 21
220.3178419999999
 31
0.0
  0
LINE
  5
98D7
330
977E
100
AcDbEntity
  8
1
  6
Continuous
100
AcDbLine
 10
116.0763739999999
 20
220.990422
 30
0.0
 11
113.2668739999999
 21
221.744212
 31
0.0
  0
LINE
  5
98D8
330
977E
100
AcDbEntity
  8
1
  6
Continuous
100
AcDbLine
 10
112.637574
 20
219.317742
 30
0.0
 11
116.811174
 21
219.317742
 31
0.0
  0
ARC
  5
98D9
330
977E
100
AcDbEntity
  8
1
  6
Continuous
100
AcDbCircle
 10
114.828574
 20
220.9849919999999
 30
0.0
 40
1.718009999999997
100
AcDbArc
 50
35.54699999999999
 51
144.462
  0
LINE
  5
98DA
330
977E
100
AcDbEntity
  8
1
  6
Continuous
100
AcDbLine
 10
116.7109739999998
 20
218.651912
 30
0.0
 11
114.828574
 21
218.651912
 31
0.0
  0
LINE
  5
98DB
330
977E
100
AcDbEntity
  8
1
  6
Continuous
100
AcDbLine
 10
112.634874
 20
217.9847169999999
 30
0.0
 11
117.0236739999999
 21
217.9847169999999
 31
0.0
  0
LINE
  5
98DC
330
977E
100
AcDbEntity
  8
1
  6
Continuous
100
AcDbLine
 10
112.5035739999999
 20
217.3189279999999
 30
0.0
 11
117.1548739999998
 21
217.3189279999999
 31
0.0
  0
ARC
  5
98DD
330
977E
100
AcDbEntity
  8
1
  6
Continuous
100
AcDbCircle
 10
114.162274
 20
226.9846509999999
 30
0.0
 40
2.0
100
AcDbArc
 50
53.13009999999999
 51
90.0
  0
LINE
  5
98DE
330
977E
100
AcDbEntity
  8
1
  6
Continuous
100
AcDbLine
 10
124.8292739999999
 20
220.2346509999999
 30
0.0
 11
114.762274
 21
227.7846509999999
 31
0.0
  0
LINE
  5
98DF
330
977E
100
AcDbEntity
  8
1
  6
Continuous
100
AcDbLine
 10
114.828574
 20
222.7023519999999
 30
0.0
 11
114.828574
 21
221.324682
 31
0.0
  0
ARC
  5
98E0
330
977E
100
AcDbEntity
  8
1
  6
Continuous
100
AcDbCircle
 10
114.495674
 20
220.3178419999999
 30
0.0
 40
0.333453
100
AcDbArc
 50
270.0
 51
90.0
  0
LINE
  5
98E1
330
977E
100
AcDbEntity
  8
1
  6
Continuous
100
AcDbLine
 10
112.9515739999998
 20
219.9849319999999
 30
0.0
 11
114.495674
 21
219.9849319999999
 31
0.0
  0
LINE
  5
98E2
330
977E
100
AcDbEntity
  8
1
  6
Continuous
100
AcDbLine
 10
114.495674
 20
220.650722
 30
0.0
 11
113.0719739999999
 21
220.650722
 31
0.0
  0
ARC
  5
98E3
330
977E
100
AcDbEntity
  8
1
  6
Continuous
100
AcDbCircle
 10
112.634874
 20
218.051042
 30
0.0
 40
0.066718
100
AcDbArc
 50
172.2069999999999
 51
270.0
  0
ARC
  5
98E4
330
977E
100
AcDbEntity
  8
1
  6
Continuous
100
AcDbCircle
 10
120.4285739999999
 20
216.9846509999999
 30
0.0
 40
7.932639999999997
100
AcDbArc
 50
169.896
 51
172.2069999999999
  0
LINE
  5
98E5
330
977E
100
AcDbEntity
  8
1
  6
Continuous
100
AcDbLine
 10
114.0287739999999
 20
218.651912
 30
0.0
 11
112.947474
 21
218.651912
 31
0.0
  0
ARC
  5
98E6
330
977E
100
AcDbEntity
  8
1
  6
Continuous
100
AcDbCircle
 10
112.947474
 20
218.3176319999998
 30
0.0
 40
0.333453
100
AcDbArc
 50
90.0
 51
169.896
  0
LINE
  5
98E7
330
977E
100
AcDbEntity
  8
1
  6
Continuous
100
AcDbLine
 10
114.828574
 20
218.651912
 30
0.0
 11
114.828574
 21
218.3176319999998
 31
0.0
  0
ARC
  5
98E8
330
977E
100
AcDbEntity
  8
1
  6
Continuous
100
AcDbCircle
 10
105.8292739999999
 20
220.878875
 30
0.0
 40
1.0
100
AcDbArc
 50
146.3099319999998
 51
180.0
  0
ARC
  5
98E9
330
977E
100
AcDbEntity
  8
1
  6
Continuous
100
AcDbCircle
 10
105.8292739999999
 20
220.8791
 30
0.0
 40
2.0
100
AcDbArc
 50
146.3099319999998
 51
180.0
  0
ARC
  5
98EA
330
977E
100
AcDbEntity
  8
1
  6
Continuous
100
AcDbCircle
 10
107.329274
 20
220.4846509999999
 30
0.0
 40
0.5
100
AcDbArc
 50
90.0
 51
180.0
  0
ARC
  5
98EB
330
977E
100
AcDbEntity
  8
1
  6
Continuous
100
AcDbCircle
 10
109.899274
 20
226.9846509999999
 30
0.0
 40
1.0
100
AcDbArc
 50
90.0
 51
146.31
  0
ARC
  5
98EC
330
977E
100
AcDbEntity
  8
1
  6
Continuous
100
AcDbCircle
 10
114.162274
 20
226.9846509999999
 30
0.0
 40
1.0
100
AcDbArc
 50
53.13009999999999
 51
90.0
  0
ARC
  5
98ED
330
977E
100
AcDbEntity
  8
1
  6
Continuous
100
AcDbCircle
 10
109.899274
 20
226.9846509999999
 30
0.0
 40
2.0
100
AcDbArc
 50
90.0
 51
146.31
  0
ARC
  5
98EE
330
977E
100
AcDbEntity
  8
1
  6
Continuous
100
AcDbCircle
 10
108.8292739999999
 20
220.4846509999999
 30
0.0
 40
0.5
100
AcDbArc
 50
0.0
 51
90.0
  0
LINE
  5
98EF
330
977E
100
AcDbEntity
  8
1
  6
Continuous
100
AcDbLine
 10
109.067274
 20
227.538651
 30
0.0
 11
104.997224
 21
221.4335759999999
 31
0.0
  0
LINE
  5
98F0
330
977E
100
AcDbEntity
  8
1
  6
Continuous
100
AcDbLine
 10
114.162274
 20
227.984651
 30
0.0
 11
109.899274
 21
227.984651
 31
0.0
  0
LINE
  5
98F1
330
977E
100
AcDbEntity
  8
1
  6
Continuous
100
AcDbLine
 10
104.1651729999999
 20
221.9885
 30
0.0
 11
108.235274
 21
228.093651
 31
0.0
  0
LINE
  5
98F2
330
977E
100
AcDbEntity
  8
1
  6
Continuous
100
AcDbLine
 10
109.899274
 20
228.9846509999999
 30
0.0
 11
114.162274
 21
228.9846509999999
 31
0.0
  0
LINE
  5
98F3
330
977E
100
AcDbEntity
  8
1
  6
Continuous
100
AcDbLine
 10
107.329274
 20
220.9846509999999
 30
0.0
 11
108.8292739999999
 21
220.9846509999999
 31
0.0
  0
LINE
  5
98F4
330
977E
100
AcDbEntity
  8
1
  6
Continuous
100
AcDbLine
 10
131.8292739999999
 20
220.0846509999998
 30
0.0
 11
148.3292739999999
 21
220.0846509999998
 31
0.0
  0
LINE
  5
98F5
330
977E
100
AcDbEntity
  8
1
  6
Continuous
100
AcDbLine
 10
128.329274
 20
217.884651
 30
0.0
 11
150.6650629999998
 21
217.892839
 31
0.0
  0
LINE
  5
98F6
330
977E
100
AcDbEntity
  8
1
  6
Continuous
100
AcDbLine
 10
128.329274
 20
220.3846509999999
 30
0.0
 11
131.8292739999999
 21
220.3846509999999
 31
0.0
  0
LINE
  5
98F7
330
977E
100
AcDbEntity
  8
1
  6
Continuous
100
AcDbLine
 10
124.8292739999999
 20
221.484651
 30
0.0
 11
131.8292739999999
 21
221.484651
 31
0.0
  0
ARC
  5
98F8
330
977E
100
AcDbEntity
  8
1
  6
Continuous
100
AcDbCircle
 10
116.7109739999998
 20
218.3176319999998
 30
0.0
 40
0.333453
100
AcDbArc
 50
10.10399999999999
 51
90.0
  0
ARC
  5
98F9
330
977E
100
AcDbEntity
  8
1
  6
Continuous
100
AcDbCircle
 10
117.0236739999999
 20
218.051042
 30
0.0
 40
0.066718
100
AcDbArc
 50
270.0
 51
7.792999999999999
  0
ARC
  5
98FA
330
977E
100
AcDbEntity
  8
1
  6
Continuous
100
AcDbCircle
 10
109.229974
 20
216.9846509999999
 30
0.0
 40
7.932639999999997
100
AcDbArc
 50
7.792999999999999
 51
10.10399999999999
  0
LINE
  5
98FB
330
977E
100
AcDbEntity
  8
1
  6
Continuous
100
AcDbLine
 10
128.329274
 20
220.3846509999999
 30
0.0
 11
128.329274
 21
217.884651
 31
0.0
  0
LINE
  5
98FC
330
977E
100
AcDbEntity
  8
1
  6
Continuous
100
AcDbLine
 10
115.362274
 20
228.5846509999998
 30
0.0
 11
124.8292739999999
 21
221.484651
 31
0.0
  0
LINE
  5
98FD
330
977E
100
AcDbEntity
  8
1
  6
Continuous
100
AcDbLine
 10
131.8292739999999
 20
221.484651
 30
0.0
 11
131.8292739999999
 21
220.0846509999998
 31
0.0
  0
LINE
  5
98FE
330
977E
100
AcDbEntity
  8
1
  6
Continuous
100
AcDbLine
 10
128.329274
 20
215.7846509999999
 30
0.0
 11
151.235274
 21
215.7846509999999
 31
0.0
  0
LINE
  5
98FF
330
977E
100
AcDbEntity
  8
1
  6
Continuous
100
AcDbLine
 10
128.329274
 20
214.5846509999998
 30
0.0
 11
150.031274
 21
214.5846509999998
 31
0.0
  0
LINE
  5
9900
330
977E
100
AcDbEntity
  8
1
  6
Continuous
100
AcDbLine
 10
131.8292739999999
 20
213.884651
 30
0.0
 11
149.329274
 21
213.884651
 31
0.0
  0
LINE
  5
9901
330
977E
100
AcDbEntity
  8
1
  6
Continuous
100
AcDbLine
 10
148.3292739999999
 20
220.0846509999998
 30
0.0
 11
151.671274
 21
216.948651
 31
0.0
  0
ARC
  5
9902
330
977E
100
AcDbEntity
  8
1
  6
Continuous
100
AcDbCircle
 10
151.3292739999999
 20
216.5846509999998
 30
0.0
 40
0.5
100
AcDbArc
 50
314.9129999999999
 51
46.82809999999999
  0
LINE
  5
9903
330
977E
100
AcDbEntity
  8
1
  6
Continuous
100
AcDbLine
 10
149.329274
 20
213.884651
 30
0.0
 11
151.682274
 21
216.230651
 31
0.0
  0
LINE
  5
9904
330
977E
100
AcDbEntity
  8
1
  6
Continuous
100
AcDbLine
 10
124.8292739999999
 20
212.4846509999999
 30
0.0
 11
131.8292739999999
 21
212.4846509999999
 31
0.0
  0
LINE
  5
9905
330
977E
100
AcDbEntity
  8
1
  6
Continuous
100
AcDbLine
 10
128.329274
 20
215.7846509999999
 30
0.0
 11
128.329274
 21
214.5846509999998
 31
0.0
  0
LINE
  5
9906
330
977E
100
AcDbEntity
  8
1
  6
Continuous
100
AcDbLine
 10
131.8292739999999
 20
213.884651
 30
0.0
 11
131.8292739999999
 21
212.4846509999999
 31
0.0
  0
LINE
  5
9907
330
977E
100
AcDbEntity
  8
1
  6
Continuous
100
AcDbLine
 10
124.8292739999999
 20
220.2346509999999
 30
0.0
 11
124.8292739999999
 21
213.7346509999999
 31
0.0
  0
LINE
  5
9908
330
977E
100
AcDbEntity
  8
1
  6
Continuous
100
AcDbLine
 10
113.000274
 20
212.6513919999999
 30
0.0
 11
115.8746739999999
 21
212.6513919999999
 31
0.0
  0
ARC
  5
9909
330
977E
100
AcDbEntity
  8
1
  6
Continuous
100
AcDbCircle
 10
114.828574
 20
212.9856519999999
 30
0.0
 40
1.717879999999999
100
AcDbArc
 50
215.5309999999999
 51
324.4619999999998
  0
ARC
  5
990A
330
977E
100
AcDbEntity
  8
1
  6
Continuous
100
AcDbCircle
 10
114.162274
 20
206.984651
 30
0.0
 40
2.0
100
AcDbArc
 50
270.0
 51
306.87
  0
LINE
  5
990B
330
977E
100
AcDbEntity
  8
1
  6
Continuous
100
AcDbLine
 10
114.762274
 20
206.184651
 30
0.0
 11
124.8292739999999
 21
213.7346509999999
 31
0.0
  0
ARC
  5
990C
330
977E
100
AcDbEntity
  8
1
  6
Continuous
100
AcDbCircle
 10
120.4285739999999
 20
216.9846509999999
 30
0.0
 40
8.599269999999998
100
AcDbArc
 50
144.462
 51
215.5379999999999
  0
ARC
  5
990D
330
977E
100
AcDbEntity
  8
1
  6
Continuous
100
AcDbCircle
 10
114.162274
 20
206.984651
 30
0.0
 40
1.0
100
AcDbArc
 50
270.0
 51
306.87
  0
ARC
  5
990E
330
977E
100
AcDbEntity
  8
1
  6
Continuous
100
AcDbCircle
 10
109.899274
 20
206.984651
 30
0.0
 40
1.0
100
AcDbArc
 50
213.69
 51
270.0
  0
ARC
  5
990F
330
977E
100
AcDbEntity
  8
1
  6
Continuous
100
AcDbCircle
 10
105.8292739999999
 20
213.0896509999999
 30
0.0
 40
1.0
100
AcDbArc
 50
180.0
 51
213.69
  0
ARC
  5
9910
330
977E
100
AcDbEntity
  8
1
  6
Continuous
100
AcDbCircle
 10
109.899274
 20
206.984651
 30
0.0
 40
2.0
100
AcDbArc
 50
213.69
 51
270.0
  0
ARC
  5
9911
330
977E
100
AcDbEntity
  8
1
  6
Continuous
100
AcDbCircle
 10
105.8292739999999
 20
213.0896509999999
 30
0.0
 40
2.0
100
AcDbArc
 50
180.0
 51
213.69
  0
ARC
  5
9912
330
977E
100
AcDbEntity
  8
1
  6
Continuous
100
AcDbCircle
 10
108.8292739999999
 20
213.484651
 30
0.0
 40
0.5
100
AcDbArc
 50
270.0
 51
0.0
  0
ARC
  5
9913
330
977E
100
AcDbEntity
  8
1
  6
Continuous
100
AcDbCircle
 10
107.329274
 20
213.484651
 30
0.0
 40
0.5
100
AcDbArc
 50
180.0
 51
270.0
  0
LINE
  5
9914
330
977E
100
AcDbEntity
  8
1
  6
Continuous
100
AcDbLine
 10
109.899274
 20
205.984651
 30
0.0
 11
114.162274
 21
205.984651
 31
0.0
  0
LINE
  5
9915
330
977E
100
AcDbEntity
  8
1
  6
Continuous
100
AcDbLine
 10
104.997274
 20
212.5356509999998
 30
0.0
 11
109.067274
 21
206.429651
 31
0.0
  0
LINE
  5
9916
330
977E
100
AcDbEntity
  8
1
  6
Continuous
100
AcDbLine
 10
104.1652739999999
 20
211.9806509999999
 30
0.0
 11
108.235274
 21
205.874651
 31
0.0
  0
LINE
  5
9917
330
977E
100
AcDbEntity
  8
1
  6
Continuous
100
AcDbLine
 10
109.899274
 20
204.984651
 30
0.0
 11
114.162274
 21
204.984651
 31
0.0
  0
LINE
  5
9918
330
977E
100
AcDbEntity
  8
1
  6
Continuous
100
AcDbLine
 10
107.329274
 20
212.9846509999999
 30
0.0
 11
108.8292739999999
 21
212.9846509999999
 31
0.0
  0
ARC
  5
9919
330
977E
100
AcDbEntity
  8
1
  6
Continuous
100
AcDbCircle
 10
109.229974
 20
216.9846509999999
 30
0.0
 40
8.599269999999998
100
AcDbArc
 50
324.4619999999998
 51
35.53799999999999
  0
LINE
  5
991A
330
977E
100
AcDbEntity
  8
1
  6
Continuous
100
AcDbLine
 10
115.362274
 20
205.384651
 30
0.0
 11
124.8292739999999
 21
212.4846509999999
 31
0.0
  0
LINE
  5
991B
330
977E
100
AcDbEntity
  8
1
  6
Continuous
100
AcDbLine
 10
116.0587739999999
 20
213.3185619999999
 30
0.0
 11
113.599774
 21
213.3185619999999
 31
0.0
  0
LINE
  5
991C
330
977E
100
AcDbEntity
  8
1
  6
Continuous
100
AcDbLine
 10
113.1842739999999
 20
213.9857319999999
 30
0.0
 11
116.472874
 21
213.9857319999999
 31
0.0
  0
LINE
  5
991D
330
977E
100
AcDbEntity
  8
1
  6
Continuous
100
AcDbLine
 10
113.0976739999999
 20
214.651562
 30
0.0
 11
116.560774
 21
214.651562
 31
0.0
  0
LINE
  5
991E
330
977E
100
AcDbEntity
  8
1
  6
Continuous
100
AcDbLine
 10
112.559074
 20
215.9845419999999
 30
0.0
 11
117.0993739999999
 21
215.9845419999999
 31
0.0
  0
LINE
  5
991F
330
977E
100
AcDbEntity
  8
1
  6
Continuous
100
AcDbLine
 10
112.5035739999999
 20
216.6517359999998
 30
0.0
 11
117.1548739999998
 21
216.6517359999998
 31
0.0
  0
LINE
  5
9920
330
977E
100
AcDbEntity
  8
1
  6
Continuous
100
AcDbLine
 10
114.828574
 20
216.6517359999998
 30
0.0
 11
114.828574
 21
215.9845419999999
 31
0.0
  0
ARC
  5
9921
330
977E
100
AcDbEntity
  8
1
  6
Continuous
100
AcDbCircle
 10
120.4285739999999
 20
216.9846509999999
 30
0.0
 40
7.932639999999997
100
AcDbArc
 50
192.729
 51
193.2679999999999
  0
ARC
  5
9922
330
977E
100
AcDbEntity
  8
1
  6
Continuous
100
AcDbCircle
 10
112.756674
 20
215.251062
 30
0.0
 40
0.066718
100
AcDbArc
 50
90.0
 51
192.729
  0
ARC
  5
9923
330
977E
100
AcDbEntity
  8
1
  6
Continuous
100
AcDbCircle
 10
120.4285739999999
 20
216.9846509999999
 30
0.0
 40
7.932639999999997
100
AcDbArc
 50
193.2679999999999
 51
195.258
  0
ARC
  5
9924
330
977E
100
AcDbEntity
  8
1
  6
Continuous
100
AcDbCircle
 10
113.1842739999999
 20
213.9180819999999
 30
0.0
 40
0.066718
100
AcDbArc
 50
90.0
 51
202.944
  0
LINE
  5
9925
330
977E
100
AcDbEntity
  8
1
  6
Continuous
100
AcDbLine
 10
114.0287739999999
 20
215.3187519999999
 30
0.0
 11
112.756674
 21
215.3187519999999
 31
0.0
  0
ARC
  5
9926
330
977E
100
AcDbEntity
  8
1
  6
Continuous
100
AcDbCircle
 10
113.0976739999999
 20
214.985842
 30
0.0
 40
0.333453
100
AcDbArc
 50
195.258
 51
270.0
  0
ARC
  5
9927
330
977E
100
AcDbEntity
  8
1
  6
Continuous
100
AcDbCircle
 10
113.599774
 20
213.6514519999999
 30
0.0
 40
0.333453
100
AcDbArc
 50
206.014
 51
270.0
  0
ARC
  5
9928
330
977E
100
AcDbEntity
  8
1
  6
Continuous
100
AcDbCircle
 10
120.4285739999999
 20
216.9846509999999
 30
0.0
 40
7.932639999999997
100
AcDbArc
 50
202.944
 51
206.014
  0
ARC
  5
9929
330
977E
100
AcDbEntity
  8
1
  6
Continuous
100
AcDbCircle
 10
116.901874
 20
215.251062
 30
0.0
 40
0.066718
100
AcDbArc
 50
347.2709999999998
 51
90.0
  0
ARC
  5
992A
330
977E
100
AcDbEntity
  8
1
  6
Continuous
100
AcDbCircle
 10
109.229974
 20
216.9846509999999
 30
0.0
 40
7.932639999999997
100
AcDbArc
 50
344.7419999999998
 51
344.794
  0
ARC
  5
992B
330
977E
100
AcDbEntity
  8
1
  6
Continuous
100
AcDbCircle
 10
116.560774
 20
214.985842
 30
0.0
 40
0.333453
100
AcDbArc
 50
270.0
 51
344.7419999999998
  0
ARC
  5
992C
330
977E
100
AcDbEntity
  8
1
  6
Continuous
100
AcDbCircle
 10
109.229974
 20
216.9846509999999
 30
0.0
 40
7.932639999999997
100
AcDbArc
 50
344.794
 51
347.2709999999998
  0
ARC
  5
992D
330
977E
100
AcDbEntity
  8
1
  6
Continuous
100
AcDbCircle
 10
116.472874
 20
213.9180819999999
 30
0.0
 40
0.066718
100
AcDbArc
 50
337.0559999999999
 51
90.0
  0
LINE
  5
992E
330
977E
100
AcDbEntity
  8
1
  6
Continuous
100
AcDbLine
 10
116.901874
 20
215.3187519999999
 30
0.0
 11
115.6283739999998
 21
215.3187519999999
 31
0.0
  0
ARC
  5
992F
330
977E
100
AcDbEntity
  8
1
  6
Continuous
100
AcDbCircle
 10
116.0587739999999
 20
213.6514519999999
 30
0.0
 40
0.333453
100
AcDbArc
 50
270.0
 51
333.9859999999998
  0
ARC
  5
9930
330
977E
100
AcDbEntity
  8
1
  6
Continuous
100
AcDbCircle
 10
109.229974
 20
216.9846509999999
 30
0.0
 40
7.932639999999997
100
AcDbArc
 50
333.9859999999998
 51
334.7719999999999
  0
ARC
  5
9931
330
977E
100
AcDbEntity
  8
1
  6
Continuous
100
AcDbCircle
 10
109.229974
 20
216.9846509999999
 30
0.0
 40
7.932639999999997
100
AcDbArc
 50
333.9859999999998
 51
337.0559999999999
  0
LINE
  5
9932
330
977E
100
AcDbEntity
  8
1
  6
Continuous
100
AcDbLine
 10
104.8292739999999
 20
220.878875
 30
0.0
 11
104.8292739999999
 21
213.0896509999999
 31
0.0
  0
LINE
  5
9933
330
977E
100
AcDbEntity
  8
1
  6
Continuous
100
AcDbLine
 10
109.329274
 20
220.4846509999999
 30
0.0
 11
109.329274
 21
213.484651
 31
0.0
  0
LINE
  5
9934
330
977E
100
AcDbEntity
  8
1
  6
Continuous
100
AcDbLine
 10
106.8292739999999
 20
220.4846509999999
 30
0.0
 11
106.8292739999999
 21
213.484651
 31
0.0
  0
LINE
  5
9935
330
977E
100
AcDbEntity
  8
1
  6
Continuous
100
AcDbLine
 10
103.8292739999999
 20
220.8791
 30
0.0
 11
103.8292739999999
 21
213.0896509999999
 31
0.0
  0
LINE
  5
9936
330
977E
100
AcDbEntity
  8
4
  6
CENTER
100
AcDbLine
 10
99.12836300000002
 20
216.984375
 30
0.0
 11
155.379751
 21
216.984375
 31
0.0
  0
ENDSEC
  0
SECTION
  2
OBJECTS
  0
DICTIONARY
  5
976C
330
0
100
AcDbDictionary
281
     1
  3
ACAD_CIP_PREVIOUS_PRODUCT_INFO
350
999C
  3
ACAD_COLOR
350
997E
  3
ACAD_DETAILVIEWSTYLE
350
9997
  3
ACAD_GROUP
350
976D
  3
ACAD_LAYOUT
350
9779
  3
ACAD_MATERIAL
350
994C
  3
ACAD_MLEADERSTYLE
350
9993
  3
ACAD_MLINESTYLE
350
9776
  3
ACAD_PLOTSETTINGS
350
9778
  3
ACAD_PLOTSTYLENAME
350
994A
  3
ACAD_SCALELIST
350
9981
  3
ACAD_SECTIONVIEWSTYLE
350
9995
  3
ACAD_TABLESTYLE
350
997F
  3
ACAD_VISUALSTYLE
350
9965
  3
ACDB_RECOMPOSE_DATA
350
99BA
  3
AcDbVariableDictionary
350
99AD
  3
DWGPROPS
350
99BB
  0
DICTIONARY
  5
999D
330
9770
100
AcDbDictionary
280
     1
281
     1
  3
ADSK_XREC_LAYER_RECONCILED
360
999E
  0
DICTIONARY
  5
999F
330
9786
100
AcDbDictionary
280
     1
281
     1
  3
ADSK_XREC_LAYER_RECONCILED
360
99A0
  0
DICTIONARY
  5
99A1
330
9787
100
AcDbDictionary
280
     1
281
     1
  3
ADSK_XREC_LAYER_RECONCILED
360
99A2
  0
DICTIONARY
  5
99A3
330
9788
100
AcDbDictionary
280
     1
281
     1
  3
ADSK_XREC_LAYER_RECONCILED
360
99A4
  0
DICTIONARY
  5
99A5
330
9789
100
AcDbDictionary
280
     1
281
     1
  3
ADSK_XREC_LAYER_RECONCILED
360
99A6
  0
DICTIONARY
  5
99A7
330
978A
100
AcDbDictionary
280
     1
281
     1
  3
ADSK_XREC_LAYER_RECONCILED
360
99A8
  0
DICTIONARY
  5
99A9
330
978B
100
AcDbDictionary
280
     1
281
     1
  3
ADSK_XREC_LAYER_RECONCILED
360
99AA
  0
DICTIONARY
  5
99AB
330
978C
100
AcDbDictionary
280
     1
281
     1
  3
ADSK_XREC_LAYER_RECONCILED
360
99AC
  0
DICTIONARY
  5
9945
330
977E
100
AcDbDictionary
281
     1
  3
ACAD_LAYOUTSELFREF
350
9946
  0
DICTIONARY
  5
9943
330
977A
100
AcDbDictionary
281
     1
  3
ACAD_LAYOUTSELFREF
350
9944
  0
XRECORD
  5
999C
102
{ACAD_REACTORS
330
976C
102
}
330
976C
100
AcDbXrecord
280
     1
300
ACDLT
300
2014
300
ACDLT_F_S
  0
DICTIONARY
  5
997E
102
{ACAD_REACTORS
330
976C
102
}
330
976C
100
AcDbDictionary
281
     1
  0
DICTIONARY
  5
9997
102
{ACAD_REACTORS
330
976C
102
}
330
976C
100
AcDbDictionary
281
     1
  3
Imperial24
350
9998
  0
DICTIONARY
  5
976D
102
{ACAD_REACTORS
330
976C
102
}
330
976C
100
AcDbDictionary
281
     1
  0
DICTIONARY
  5
9779
102
{ACAD_REACTORS
330
976C
102
}
330
976C
100
AcDbDictionary
281
     1
  3
Model
350
9999
  3
レイアウト1
350
999A
  0
DICTIONARY
  5
994C
102
{ACAD_REACTORS
330
976C
102
}
330
976C
100
AcDbDictionary
281
     1
  3
ByBlock
350
9955
  3
ByLayer
350
994D
  3
Global
350
995D
  0
DICTIONARY
  5
9993
102
{ACAD_REACTORS
330
976C
102
}
330
976C
100
AcDbDictionary
281
     1
  3
Standard
350
9994
  0
DICTIONARY
  5
9776
102
{ACAD_REACTORS
330
976C
102
}
330
976C
100
AcDbDictionary
281
     1
  3
STANDARD
350
9777
  0
DICTIONARY
  5
9778
102
{ACAD_REACTORS
330
976C
102
}
330
976C
100
AcDbDictionary
281
     1
  0
ACDBDICTIONARYWDFLT
  5
994A
102
{ACAD_REACTORS
330
976C
102
}
330
976C
100
AcDbDictionary
281
     1
  3
Normal
350
994B
100
AcDbDictionaryWithDefault
340
994B
  0
DICTIONARY
  5
9981
102
{ACAD_REACTORS
330
976C
102
}
330
976C
100
AcDbDictionary
281
     1
  3
A0
350
9982
  3
A1
350
9983
  3
A2
350
9984
  3
A3
350
9985
  3
A4
350
9986
  3
A5
350
9987
  3
A6
350
9988
  3
A7
350
9989
  3
A8
350
998A
  3
A9
350
998B
  3
B0
350
998C
  3
B1
350
998D
  3
B2
350
998E
  3
B3
350
998F
  3
B4
350
9990
  3
B5
350
9991
  3
B6
350
9992
  0
DICTIONARY
  5
9995
102
{ACAD_REACTORS
330
976C
102
}
330
976C
100
AcDbDictionary
281
     1
  3
Imperial24
350
9996
  0
DICTIONARY
  5
997F
102
{ACAD_REACTORS
330
976C
102
}
330
976C
100
AcDbDictionary
281
     1
  3
Standard
350
9980
  0
DICTIONARY
  5
9965
102
{ACAD_REACTORS
330
976C
102
}
330
976C
100
AcDbDictionary
281
     1
  3
2dWireframe
350
996B
  3
Basic
350
996A
  3
Brighten
350
9971
  3
ColorChange
350
9975
  3
Conceptual
350
996E
  3
Dim
350
9970
  3
EdgeColorOff
350
997D
  3
Facepattern
350
9974
  3
Flat
350
9966
  3
FlatWithEdges
350
9967
  3
Gouraud
350
9968
  3
GouraudWithEdges
350
9969
  3
Hidden
350
996D
  3
JitterOff
350
997B
  3
Linepattern
350
9973
  3
OverhangOff
350
997C
  3
Realistic
350
996F
  3
Shaded
350
997A
  3
Shaded with edges
350
9979
  3
Shades of Gray
350
9976
  3
Sketchy
350
9977
  3
Thicken
350
9972
  3
Wireframe
350
996C
  3
X-Ray
350
9978
  0
XRECORD
  5
99BA
102
{ACAD_REACTORS
330
976C
102
}
330
976C
100
AcDbXrecord
280
     1
 90
        1
330
9980
  0
DICTIONARY
  5
99AD
102
{ACAD_REACTORS
330
976C
102
}
330
976C
100
AcDbDictionary
281
     1
  3
CANNOSCALE
350
99B2
  3
CMLEADERSTYLE
350
99AF
  3
CTABLESTYLE
350
99AE
  3
CVIEWDETAILSTYLE
350
99B0
  3
CVIEWSECTIONSTYLE
350
99B1
  3
DIMASSOC
350
99B5
  3
INDEXCTL
350
99B4
  3
SORTENTS
350
99B3
  3
XCLIPFRAME
350
99B6
  0
XRECORD
  5
99BB
102
{ACAD_REACTORS
330
976C
102
}
330
976C
100
AcDbXrecord
280
     1
  1
DWGPROPS COOKIE
  2

  3

  4

  6

  7

  8
Yoshitsune
  9

300
=
301
=
302
=
303
=
304
=
305
=
306
=
307
=
308
=
309
=
 40
0.0000133912037037
 41
2450737.489660069
 42
2457192.638056342
  1

 90
        0
  0
XRECORD
  5
999E
102
{ACAD_REACTORS
330
999D
102
}
330
999D
100
AcDbXrecord
280
     1
290
     1
  0
XRECORD
  5
99A0
102
{ACAD_REACTORS
330
999F
102
}
330
999F
100
AcDbXrecord
280
     1
290
     1
  0
XRECORD
  5
99A2
102
{ACAD_REACTORS
330
99A1
102
}
330
99A1
100
AcDbXrecord
280
     1
290
     1
  0
XRECORD
  5
99A4
102
{ACAD_REACTORS
330
99A3
102
}
330
99A3
100
AcDbXrecord
280
     1
290
     1
  0
XRECORD
  5
99A6
102
{ACAD_REACTORS
330
99A5
102
}
330
99A5
100
AcDbXrecord
280
     1
290
     1
  0
XRECORD
  5
99A8
102
{ACAD_REACTORS
330
99A7
102
}
330
99A7
100
AcDbXrecord
280
     1
290
     1
  0
XRECORD
  5
99AA
102
{ACAD_REACTORS
330
99A9
102
}
330
99A9
100
AcDbXrecord
280
     1
290
     1
  0
XRECORD
  5
99AC
102
{ACAD_REACTORS
330
99AB
102
}
330
99AB
100
AcDbXrecord
280
     1
290
     1
  0
XRECORD
  5
9946
102
{ACAD_REACTORS
330
9945
102
}
330
9945
100
AcDbXrecord
280
     1
340
977E
  0
XRECORD
  5
9944
102
{ACAD_REACTORS
330
9943
102
}
330
9943
100
AcDbXrecord
280
     1
340
977A
  0
ACDBDETAILVIEWSTYLE
  5
9998
102
{ACAD_XDICTIONARY
360
99F3
102
}
102
{ACAD_REACTORS
330
9997
102
}
330
9997
100
AcDbModelDocViewStyle
 70
     0
  3
Imperial24
290
     0
100
AcDbDetailViewStyle
 70
     0
 71
     0
 90
        3
 71
     1
340
9771
 40
0.24
340
0
 40
0.24
300

 40
0.36
280
     3
 71
     2
340
9775
 90
       25
 71
     3
340
9771
 40
0.24
 90
        1
 40
0.75
 90
        1
300
%<\AcVar ViewType \f "%tc1">% %<\AcVar ViewDetailId>%\PSCALE %<\AcVar ViewScale \f "%sn">%
 71
     4
340
9775
 90
       25
340
9775
 90
       25
280
     0
  0
LAYOUT
  5
9999
102
{ACAD_XDICTIONARY
360
99F5
102
}
102
{ACAD_REACTORS
330
9779
102
}
330
9779
100
AcDbPlotSettings
  1

  2
Canon LBP9100C
  4

  6

 40
0.0
 41
0.0
 42
0.0
 43
0.0
 44
0.0
 45
0.0
 46
0.0
 47
0.0
 48
0.0
 49
0.0
140
0.0
141
0.0
142
1.0
143
1.0
 70
  1712
 72
     0
 73
     0
 74
     0
  7

 75
     0
147
1.0
148
0.0
149
0.0
100
AcDbLayout
  1
Model
 70
     1
 71
     0
 10
0.0
 20
0.0
 11
12.0
 21
9.0
 12
0.0
 22
0.0
 32
0.0
 14
0.0
 24
0.0
 34
0.0
 15
0.0
 25
0.0
 35
0.0
146
0.0
 13
0.0
 23
0.0
 33
0.0
 16
1.0
 26
0.0
 36
0.0
 17
0.0
 27
1.0
 37
0.0
 76
     0
330
977E
331
9942
  0
LAYOUT
  5
999A
102
{ACAD_XDICTIONARY
360
99F7
102
}
102
{ACAD_REACTORS
330
9779
102
}
330
9779
100
AcDbPlotSettings
  1

  2
Canon LBP9100C
  4

  6

 40
0.0
 41
0.0
 42
0.0
 43
0.0
 44
0.0
 45
0.0
 46
0.0
 47
0.0
 48
0.0
 49
0.0
140
0.0
141
0.0
142
1.0
143
1.0
 70
   688
 72
     0
 73
     0
 74
     5
  7

 75
    16
147
1.0
148
0.0
149
0.0
100
AcDbLayout
  1
レイアウト1
 70
     0
 71
     1
 10
0.0
 20
0.0
 11
420.0
 21
297.0
 12
0.0
 22
0.0
 32
0.0
 14
1.000000000000000E+20
 24
1.000000000000000E+20
 34
1.000000000000000E+20
 15
-1.000000000000000E+20
 25
-1.000000000000000E+20
 35
-1.000000000000000E+20
146
0.0
 13
0.0
 23
0.0
 33
0.0
 16
1.0
 26
0.0
 36
0.0
 17
0.0
 27
1.0
 37
0.0
 76
     0
330
977A
  0
MATERIAL
  5
9955
102
{ACAD_XDICTIONARY
360
9956
102
}
102
{ACAD_REACTORS
330
994C
102
}
330
994C
100
AcDbMaterial
  1
ByBlock
 72
     0
 43
0.0208333333333333
 43
0.0
 43
0.0
 43
0.0
 43
0.0
 43
0.0208333333333333
 43
0.0
 43
0.0
 43
0.0
 43
0.0
 43
1.0
 43
0.0
 43
0.0
 43
0.0
 43
0.0
 43
1.0
 77
     0
 47
0.0208333333333333
 47
0.0
 47
0.0
 47
0.0
 47
0.0
 47
0.0208333333333333
 47
0.0
 47
0.0
 47
0.0
 47
0.0
 47
1.0
 47
0.0
 47
0.0
 47
0.0
 47
0.0
 47
1.0
171
     0
 49
0.0208333333333333
 49
0.0
 49
0.0
 49
0.0
 49
0.0
 49
0.0208333333333333
 49
0.0
 49
0.0
 49
0.0
 49
0.0
 49
1.0
 49
0.0
 49
0.0
 49
0.0
 49
0.0
 49
1.0
175
     0
142
0.0208333333333333
142
0.0
142
0.0
142
0.0
142
0.0
142
0.0208333333333333
142
0.0
142
0.0
142
0.0
142
0.0
142
1.0
142
0.0
142
0.0
142
0.0
142
0.0
142
1.0
179
     0
144
0.0208333333333333
144
0.0
144
0.0
144
0.0
144
0.0
144
0.0208333333333333
144
0.0
144
0.0
144
0.0
144
0.0
144
1.0
144
0.0
144
0.0
144
0.0
144
0.0
144
1.0
147
0.0208333333333333
147
0.0
147
0.0
147
0.0
147
0.0
147
0.0208333333333333
147
0.0
147
0.0
147
0.0
147
0.0
147
1.0
147
0.0
147
0.0
147
0.0
147
0.0
147
1.0
  0
MATERIAL
  5
994D
102
{ACAD_XDICTIONARY
360
994E
102
}
102
{ACAD_REACTORS
330
994C
102
}
330
994C
100
AcDbMaterial
  1
ByLayer
 72
     0
 43
0.0208333333333333
 43
0.0
 43
0.0
 43
0.0
 43
0.0
 43
0.0208333333333333
 43
0.0
 43
0.0
 43
0.0
 43
0.0
 43
1.0
 43
0.0
 43
0.0
 43
0.0
 43
0.0
 43
1.0
 77
     0
 47
0.0208333333333333
 47
0.0
 47
0.0
 47
0.0
 47
0.0
 47
0.0208333333333333
 47
0.0
 47
0.0
 47
0.0
 47
0.0
 47
1.0
 47
0.0
 47
0.0
 47
0.0
 47
0.0
 47
1.0
171
     0
 49
0.0208333333333333
 49
0.0
 49
0.0
 49
0.0
 49
0.0
 49
0.0208333333333333
 49
0.0
 49
0.0
 49
0.0
 49
0.0
 49
1.0
 49
0.0
 49
0.0
 49
0.0
 49
0.0
 49
1.0
175
     0
142
0.0208333333333333
142
0.0
142
0.0
142
0.0
142
0.0
142
0.0208333333333333
142
0.0
142
0.0
142
0.0
142
0.0
142
1.0
142
0.0
142
0.0
142
0.0
142
0.0
142
1.0
179
     0
144
0.0208333333333333
144
0.0
144
0.0
144
0.0
144
0.0
144
0.0208333333333333
144
0.0
144
0.0
144
0.0
144
0.0
144
1.0
144
0.0
144
0.0
144
0.0
144
0.0
144
1.0
147
0.0208333333333333
147
0.0
147
0.0
147
0.0
147
0.0
147
0.0208333333333333
147
0.0
147
0.0
147
0.0
147
0.0
147
1.0
147
0.0
147
0.0
147
0.0
147
0.0
147
1.0
  0
MATERIAL
  5
995D
102
{ACAD_XDICTIONARY
360
995E
102
}
102
{ACAD_REACTORS
330
994C
102
}
330
994C
100
AcDbMaterial
  1
Global
 72
     0
 43
0.0208333333333333
 43
0.0
 43
0.0
 43
0.0
 43
0.0
 43
0.0208333333333333
 43
0.0
 43
0.0
 43
0.0
 43
0.0
 43
1.0
 43
0.0
 43
0.0
 43
0.0
 43
0.0
 43
1.0
 77
     0
 47
0.0208333333333333
 47
0.0
 47
0.0
 47
0.0
 47
0.0
 47
0.0208333333333333
 47
0.0
 47
0.0
 47
0.0
 47
0.0
 47
1.0
 47
0.0
 47
0.0
 47
0.0
 47
0.0
 47
1.0
171
     0
 49
0.0208333333333333
 49
0.0
 49
0.0
 49
0.0
 49
0.0
 49
0.0208333333333333
 49
0.0
 49
0.0
 49
0.0
 49
0.0
 49
1.0
 49
0.0
 49
0.0
 49
0.0
 49
0.0
 49
1.0
175
     0
142
0.0208333333333333
142
0.0
142
0.0
142
0.0
142
0.0
142
0.0208333333333333
142
0.0
142
0.0
142
0.0
142
0.0
142
1.0
142
0.0
142
0.0
142
0.0
142
0.0
142
1.0
179
     0
144
0.0208333333333333
144
0.0
144
0.0
144
0.0
144
0.0
144
0.0208333333333333
144
0.0
144
0.0
144
0.0
144
0.0
144
1.0
144
0.0
144
0.0
144
0.0
144
0.0
144
1.0
147
0.0208333333333333
147
0.0
147
0.0
147
0.0
147
0.0
147
0.0208333333333333
147
0.0
147
0.0
147
0.0
147
0.0
147
1.0
147
0.0
147
0.0
147
0.0
147
0.0
147
1.0
  0
MLEADERSTYLE
  5
9994
102
{ACAD_REACTORS
330
9993
102
}
330
9993
100
AcDbMLeaderStyle
170
     2
171
     1
172
     0
 90
        2
 40
0.0
 41
0.0
173
     1
 91
-1056964608
340
9773
 92
       -2
290
     1
 42
0.09
291
     1
 43
0.36
  3
Standard
 44
0.18
300

342
9771
174
     1
178
     6
175
     1
176
     0
 93
-1056964608
 45
0.18
292
     0
297
     0
 46
0.18
 94
-1056964608
 47
1.0
 49
1.0
140
1.0
293
     1
141
0.0
294
     1
177
     0
142
1.0
295
     0
296
     0
143
0.125
1001
ACAD_MLEADERVER
1070
     2
  0
MLINESTYLE
  5
9777
102
{ACAD_REACTORS
330
9776
102
}
330
9776
100
AcDbMlineStyle
  2
STANDARD
 70
     0
  3

 62
   256
 51
90.0
 52
90.0
 71
     2
 49
0.5
 62
   256
  6
BYLAYER
 49
-0.5
 62
   256
  6
BYLAYER
  0
ACDBPLACEHOLDER
  5
994B
102
{ACAD_REACTORS
330
994A
102
}
330
994A
  0
SCALE
  5
9982
102
{ACAD_REACTORS
330
9981
102
}
330
9981
100
AcDbScale
 70
     0
300
1:1
140
1.0
141
1.0
290
     1
  0
SCALE
  5
9983
102
{ACAD_REACTORS
330
9981
102
}
330
9981
100
AcDbScale
 70
     0
300
1/128" = 1'-0"
140
0.0078125
141
12.0
290
     0
  0
SCALE
  5
9984
102
{ACAD_REACTORS
330
9981
102
}
330
9981
100
AcDbScale
 70
     0
300
1/64" = 1'-0"
140
0.015625
141
12.0
290
     0
  0
SCALE
  5
9985
102
{ACAD_REACTORS
330
9981
102
}
330
9981
100
AcDbScale
 70
     0
300
1/32" = 1'-0"
140
0.03125
141
12.0
290
     0
  0
SCALE
  5
9986
102
{ACAD_REACTORS
330
9981
102
}
330
9981
100
AcDbScale
 70
     0
300
1/16" = 1'-0"
140
0.0625
141
12.0
290
     0
  0
SCALE
  5
9987
102
{ACAD_REACTORS
330
9981
102
}
330
9981
100
AcDbScale
 70
     0
300
3/32" = 1'-0"
140
0.09375
141
12.0
290
     0
  0
SCALE
  5
9988
102
{ACAD_REACTORS
330
9981
102
}
330
9981
100
AcDbScale
 70
     0
300
1/8" = 1'-0"
140
0.125
141
12.0
290
     0
  0
SCALE
  5
9989
102
{ACAD_REACTORS
330
9981
102
}
330
9981
100
AcDbScale
 70
     0
300
3/16" = 1'-0"
140
0.1875
141
12.0
290
     0
  0
SCALE
  5
998A
102
{ACAD_REACTORS
330
9981
102
}
330
9981
100
AcDbScale
 70
     0
300
1/4" = 1'-0"
140
0.25
141
12.0
290
     0
  0
SCALE
  5
998B
102
{ACAD_REACTORS
330
9981
102
}
330
9981
100
AcDbScale
 70
     0
300
3/8" = 1'-0"
140
0.375
141
12.0
290
     0
  0
SCALE
  5
998C
102
{ACAD_REACTORS
330
9981
102
}
330
9981
100
AcDbScale
 70
     0
300
1/2" = 1'-0"
140
0.5
141
12.0
290
     0
  0
SCALE
  5
998D
102
{ACAD_REACTORS
330
9981
102
}
330
9981
100
AcDbScale
 70
     0
300
3/4" = 1'-0"
140
0.75
141
12.0
290
     0
  0
SCALE
  5
998E
102
{ACAD_REACTORS
330
9981
102
}
330
9981
100
AcDbScale
 70
     0
300
1" = 1'-0"
140
1.0
141
12.0
290
     0
  0
SCALE
  5
998F
102
{ACAD_REACTORS
330
9981
102
}
330
9981
100
AcDbScale
 70
     0
300
1-1/2" = 1'-0"
140
1.5
141
12.0
290
     0
  0
SCALE
  5
9990
102
{ACAD_REACTORS
330
9981
102
}
330
9981
100
AcDbScale
 70
     0
300
3" = 1'-0"
140
3.0
141
12.0
290
     0
  0
SCALE
  5
9991
102
{ACAD_REACTORS
330
9981
102
}
330
9981
100
AcDbScale
 70
     0
300
6" = 1'-0"
140
6.0
141
12.0
290
     0
  0
SCALE
  5
9992
102
{ACAD_REACTORS
330
9981
102
}
330
9981
100
AcDbScale
 70
     0
300
1'-0" = 1'-0"
140
12.0
141
12.0
290
     0
  0
ACDBSECTIONVIEWSTYLE
  5
9996
102
{ACAD_XDICTIONARY
360
99F1
102
}
102
{ACAD_REACTORS
330
9995
102
}
330
9995
100
AcDbModelDocViewStyle
 70
     0
  3
Imperial24
290
     0
100
AcDbSectionViewStyle
 70
     0
 71
     0
 90
       78
 71
     1
340
9771
 40
0.24
340
0
340
0
 40
0.24
300
I, O, Q, S, X, Z
 40
0.48
 90
        3
 40
0.18
 90
        1
 71
     2
340
9775
 90
       25
340
9775
 90
       50
 40
0.24
 40
0.0
 40
0.24
 71
     3
340
9771
 40
0.24
 90
        1
 40
0.75
 90
        1
300
%<\AcVar ViewType \f "%tc1">% %<\AcVar ViewSectionStartId>%-%<\AcVar ViewSectionEndId>%\PSCALE %<\AcVar ViewScale \f "%sn">%
 71
     4
300
ANSI31
 40
1.0
 90
        0
290
     0
290
     0
 90
        6
 40
0.0
 40
1.570796326794896
 40
0.2617993877991494
 40
1.308996938995747
 40
-0.2617993877991494
 40
1.832595714594046
  0
TABLESTYLE
  5
9980
102
{ACAD_XDICTIONARY
360
99B8
102
}
102
{ACAD_REACTORS
330
997F
102
}
330
997F
100
AcDbTableStyle
  3
Standard
 70
     0
 71
     0
 40
0.06
 41
0.06
280
     0
281
     0
  7
STANDARD
140
0.18
170
     2
 62
     0
 63
     7
283
     0
274
    -2
284
     1
 64
     0
275
    -2
285
     1
 65
     0
276
    -2
286
     1
 66
     0
277
    -2
287
     1
 67
     0
278
    -2
288
     1
 68
     0
279
    -2
289
     1
 69
     0
  7
STANDARD
140
0.25
170
     5
 62
     0
 63
     7
283
     0
274
    -2
284
     1
 64
     0
275
    -2
285
     1
 65
     0
276
    -2
286
     1
 66
     0
277
    -2
287
     1
 67
     0
278
    -2
288
     1
 68
     0
279
    -2
289
     1
 69
     0
  7
STANDARD
140
0.18
170
     5
 62
     0
 63
     7
283
     0
274
    -2
284
     1
 64
     0
275
    -2
285
     1
 65
     0
276
    -2
286
     1
 66
     0
277
    -2
287
     1
 67
     0
278
    -2
288
     1
 68
     0
279
    -2
289
     1
 69
     0
  0
VISUALSTYLE
  5
996B
102
{ACAD_XDICTIONARY
360
99C9
102
}
102
{ACAD_REACTORS
330
9965
102
}
330
9965
100
AcDbVisualStyle
  2
2dWireframe
 70
     4
 71
     0
 72
     2
 73
     0
 90
        0
 40
-0.6
 41
-30.0
 62
     5
 63
     7
 74
     1
 91
        4
 64
     7
 65
   257
 75
     1
175
     1
 42
1.0
 92
        0
 66
   257
 43
1.0
 76
     1
 77
     6
 78
     2
 67
     7
 79
     5
170
     0
171
     0
290
     0
174
     0
 93
        1
 44
0.0
173
     0
291
     0
 45
0.0
1001
ACAD
1000
AcDbSavedByObjectVersion
1070
     0
  0
VISUALSTYLE
  5
996A
102
{ACAD_XDICTIONARY
360
99C7
102
}
102
{ACAD_REACTORS
330
9965
102
}
330
9965
100
AcDbVisualStyle
  2
Basic
 70
     7
 71
     1
 72
     0
 73
     1
 90
        0
 40
-0.6
 41
-30.0
 62
     5
 63
     7
 74
     0
 91
        4
 64
     7
 65
   257
 75
     1
175
     1
 42
1.0
 92
        8
 66
     7
 43
1.0
 76
     1
 77
     6
 78
     2
 67
     7
 79
     5
170
     0
171
     0
290
     0
174
     0
 93
        1
 44
0.0
173
     0
291
     1
 45
0.0
1001
ACAD
1000
AcDbSavedByObjectVersion
1070
     0
  0
VISUALSTYLE
  5
9971
102
{ACAD_XDICTIONARY
360
99D5
102
}
102
{ACAD_REACTORS
330
9965
102
}
330
9965
100
AcDbVisualStyle
  2
Brighten
 70
    12
 71
     2
 72
     2
 73
     0
 90
        0
 40
-0.6
 41
-30.0
 62
     5
 63
     7
 74
     1
 91
        4
 64
     7
 65
   257
 75
     1
175
     1
 42
1.0
 92
        8
 66
     7
 43
1.0
 76
     1
 77
     6
 78
     2
 67
     7
 79
     5
170
     0
171
     0
290
     0
174
     0
 93
        1
 44
50.0
173
     0
291
     1
 45
0.0
1001
ACAD
1000
AcDbSavedByObjectVersion
1070
     0
  0
VISUALSTYLE
  5
9975
102
{ACAD_XDICTIONARY
360
99DD
102
}
102
{ACAD_REACTORS
330
9965
102
}
330
9965
100
AcDbVisualStyle
  2
ColorChange
 70
    16
 71
     2
 72
     2
 73
     3
 90
        0
 40
-0.6
 41
-30.0
 62
     5
 63
     8
 74
     1
 91
        4
 64
     7
 65
   257
 75
     1
175
     1
 42
1.0
 92
        8
 66
     8
 43
1.0
 76
     1
 77
     6
 78
     2
 67
     7
 79
     5
170
     0
171
     0
290
     0
174
     0
 93
        1
 44
0.0
173
     0
291
     1
 45
0.0
1001
ACAD
1000
AcDbSavedByObjectVersion
1070
     0
  0
VISUALSTYLE
  5
996E
102
{ACAD_XDICTIONARY
360
99CF
102
}
102
{ACAD_REACTORS
330
9965
102
}
330
9965
100
AcDbVisualStyle
  2
Conceptual
 70
     9
 71
     3
 72
     2
 73
     0
 90
        0
 40
-0.6
 41
-30.0
 62
     5
 63
     7
 74
     2
 91
        2
 64
     7
 65
   257
 75
     1
175
     1
 42
179.0
 92
        8
 66
     7
 43
1.0
 76
     1
 77
     6
 78
     2
 67
     7
 79
     3
170
     0
171
     0
290
     0
174
     0
 93
        1
 44
0.0
173
     0
291
     0
 45
0.0
1001
ACAD
1000
AcDbSavedByObjectVersion
1070
     0
  0
VISUALSTYLE
  5
9970
102
{ACAD_XDICTIONARY
360
99D3
102
}
102
{ACAD_REACTORS
330
9965
102
}
330
9965
100
AcDbVisualStyle
  2
Dim
 70
    11
 71
     2
 72
     2
 73
     0
 90
        0
 40
-0.6
 41
-30.0
 62
     5
 63
     7
 74
     1
 91
        4
 64
     7
 65
   257
 75
     1
175
     1
 42
1.0
 92
        8
 66
     7
 43
1.0
 76
     1
 77
     6
 78
     2
 67
     7
 79
     5
170
     0
171
     0
290
     0
174
     0
 93
        1
 44
-50.0
173
     0
291
     1
 45
0.0
1001
ACAD
1000
AcDbSavedByObjectVersion
1070
     0
  0
VISUALSTYLE
  5
997D
102
{ACAD_XDICTIONARY
360
99ED
102
}
102
{ACAD_REACTORS
330
9965
102
}
330
9965
100
AcDbVisualStyle
  2
EdgeColorOff
 70
    22
 71
     2
 72
     2
 73
     0
 90
        0
 40
-0.6
 41
-30.0
 62
     5
 63
     7
 74
     1
 91
        4
 64
     7
 65
   257
 75
     1
175
     1
 42
1.0
 92
        8
 66
     7
 43
1.0
 76
     1
 77
     6
 78
     2
 67
     7
 79
     5
170
     0
171
     0
290
     0
174
     0
 93
        1
 44
0.0
173
     0
291
     1
 45
0.0
1001
ACAD
1000
AcDbSavedByObjectVersion
1070
     0
  0
VISUALSTYLE
  5
9974
102
{ACAD_XDICTIONARY
360
99DB
102
}
102
{ACAD_REACTORS
330
9965
102
}
330
9965
100
AcDbVisualStyle
  2
Facepattern
 70
    15
 71
     2
 72
     2
 73
     0
 90
        0
 40
-0.6
 41
-30.0
 62
     5
 63
     7
 74
     1
 91
        4
 64
     7
 65
   257
 75
     1
175
     1
 42
1.0
 92
        8
 66
     7
 43
1.0
 76
     1
 77
     6
 78
     2
 67
     7
 79
     5
170
     0
171
     0
290
     0
174
     0
 93
        1
 44
0.0
173
     0
291
     1
 45
0.0
1001
ACAD
1000
AcDbSavedByObjectVersion
1070
     0
  0
VISUALSTYLE
  5
9966
102
{ACAD_XDICTIONARY
360
99BF
102
}
102
{ACAD_REACTORS
330
9965
102
}
330
9965
100
AcDbVisualStyle
  2
Flat
 70
     0
 71
     2
 72
     1
 73
     1
 90
        2
 40
-0.6
 41
30.0
 62
     5
 63
     7
 74
     0
 91
        0
 64
     7
 65
   257
 75
     1
175
     1
 42
1.0
 92
        8
 66
     7
 43
1.0
 76
     1
 77
     6
 78
     2
 67
     7
 79
     5
170
     0
171
     0
290
     0
174
     0
 93
       13
 44
0.0
173
     0
291
     1
 45
0.0
1001
ACAD
1000
AcDbSavedByObjectVersion
1070
     0
  0
VISUALSTYLE
  5
9967
102
{ACAD_XDICTIONARY
360
99C1
102
}
102
{ACAD_REACTORS
330
9965
102
}
330
9965
100
AcDbVisualStyle
  2
FlatWithEdges
 70
     1
 71
     2
 72
     1
 73
     1
 90
        2
 40
-0.6
 41
30.0
 62
     5
 63
     7
 74
     1
 91
        0
 64
     7
 65
   257
 75
     1
175
     1
 42
1.0
 92
        0
 66
   257
 43
1.0
 76
     1
 77
     6
 78
     2
 67
     7
 79
     5
170
     0
171
     0
290
     0
174
     0
 93
       13
 44
0.0
173
     0
291
     1
 45
0.0
1001
ACAD
1000
AcDbSavedByObjectVersion
1070
     0
  0
VISUALSTYLE
  5
9968
102
{ACAD_XDICTIONARY
360
99C3
102
}
102
{ACAD_REACTORS
330
9965
102
}
330
9965
100
AcDbVisualStyle
  2
Gouraud
 70
     2
 71
     2
 72
     2
 73
     1
 90
        2
 40
-0.6
 41
30.0
 62
     5
 63
     7
 74
     0
 91
        0
 64
     7
 65
   257
 75
     1
175
     1
 42
1.0
 92
        0
 66
     7
 43
1.0
 76
     1
 77
     6
 78
     2
 67
     7
 79
     5
170
     0
171
     0
290
     0
174
     0
 93
       13
 44
0.0
173
     0
291
     1
 45
0.0
1001
ACAD
1000
AcDbSavedByObjectVersion
1070
     0
  0
VISUALSTYLE
  5
9969
102
{ACAD_XDICTIONARY
360
99C5
102
}
102
{ACAD_REACTORS
330
9965
102
}
330
9965
100
AcDbVisualStyle
  2
GouraudWithEdges
 70
     3
 71
     2
 72
     2
 73
     1
 90
        2
 40
-0.6
 41
30.0
 62
     5
 63
     7
 74
     1
 91
        0
 64
     7
 65
   257
 75
     1
175
     1
 42
1.0
 92
        0
 66
   257
 43
1.0
 76
     1
 77
     6
 78
     2
 67
     7
 79
     5
170
     0
171
     0
290
     0
174
     0
 93
       13
 44
0.0
173
     0
291
     1
 45
0.0
1001
ACAD
1000
AcDbSavedByObjectVersion
1070
     0
  0
VISUALSTYLE
  5
996D
102
{ACAD_XDICTIONARY
360
99CD
102
}
102
{ACAD_REACTORS
330
9965
102
}
330
9965
100
AcDbVisualStyle
  2
Hidden
 70
     6
 71
     1
 72
     2
 73
     2
 90
        0
 40
-0.6
 41
-30.0
 62
     5
 63
     7
 74
     2
 91
        2
 64
     7
 65
   257
 75
     2
175
     1
 42
40.0
 92
        0
 66
   257
 43
1.0
 76
     1
 77
     6
 78
     2
 67
     7
 79
     3
170
     0
171
     0
290
     0
174
     0
 93
        1
 44
0.0
173
     0
291
     0
 45
0.0
1001
ACAD
1000
AcDbSavedByObjectVersion
1070
     0
  0
VISUALSTYLE
  5
997B
102
{ACAD_XDICTIONARY
360
99E9
102
}
102
{ACAD_REACTORS
330
9965
102
}
330
9965
100
AcDbVisualStyle
  2
JitterOff
 70
    20
 71
     2
 72
     2
 73
     0
 90
        0
 40
-0.6
 41
-30.0
 62
     5
 63
     7
 74
     1
 91
        4
 64
     7
 65
   257
 75
     1
175
     1
 42
1.0
 92
       10
 66
     7
 43
1.0
 76
     1
 77
     6
 78
     2
 67
     7
 79
     5
170
     0
171
     0
290
     0
174
     0
 93
        1
 44
0.0
173
     0
291
     1
 45
0.0
1001
ACAD
1000
AcDbSavedByObjectVersion
1070
     0
  0
VISUALSTYLE
  5
9973
102
{ACAD_XDICTIONARY
360
99D9
102
}
102
{ACAD_REACTORS
330
9965
102
}
330
9965
100
AcDbVisualStyle
  2
Linepattern
 70
    14
 71
     2
 72
     2
 73
     0
 90
        0
 40
-0.6
 41
-30.0
 62
     5
 63
     7
 74
     1
 91
        4
 64
     7
 65
   257
 75
     7
175
     7
 42
1.0
 92
        8
 66
     7
 43
1.0
 76
     1
 77
     6
 78
     2
 67
     7
 79
     5
170
     0
171
     0
290
     0
174
     0
 93
        1
 44
0.0
173
     0
291
     1
 45
0.0
1001
ACAD
1000
AcDbSavedByObjectVersion
1070
     0
  0
VISUALSTYLE
  5
997C
102
{ACAD_XDICTIONARY
360
99EB
102
}
102
{ACAD_REACTORS
330
9965
102
}
330
9965
100
AcDbVisualStyle
  2
OverhangOff
 70
    21
 71
     2
 72
     2
 73
     0
 90
        0
 40
-0.6
 41
-30.0
 62
     5
 63
     7
 74
     1
 91
        4
 64
     7
 65
   257
 75
     1
175
     1
 42
1.0
 92
        9
 66
     7
 43
1.0
 76
     1
 77
     6
 78
     2
 67
     7
 79
     5
170
     0
171
     0
290
     0
174
     0
 93
        1
 44
0.0
173
     0
291
     1
 45
0.0
1001
ACAD
1000
AcDbSavedByObjectVersion
1070
     0
  0
VISUALSTYLE
  5
996F
102
{ACAD_XDICTIONARY
360
99D1
102
}
102
{ACAD_REACTORS
330
9965
102
}
330
9965
100
AcDbVisualStyle
  2
Realistic
 70
     8
 71
     2
 72
     3
 73
     0
 90
        2
 40
-0.6
 41
30.0
 62
     5
 63
     7
 74
     0
 91
        0
 64
     7
 65
   257
 75
     1
175
     1
 42
1.0
 92
        8
 66
   257
 43
1.0
 76
     1
 77
     6
 78
     2
 67
     7
 79
     3
170
     0
171
     0
290
     0
174
     0
 93
       13
 44
0.0
173
     0
291
     0
 45
0.0
1001
ACAD
1000
AcDbSavedByObjectVersion
1070
     0
  0
VISUALSTYLE
  5
997A
102
{ACAD_XDICTIONARY
360
99E7
102
}
102
{ACAD_REACTORS
330
9965
102
}
330
9965
100
AcDbVisualStyle
  2
Shaded
 70
    27
 71
     2
 72
     2
 73
     1
 90
        2
 40
-0.6
 41
30.0
 62
     5
 63
     7
 74
     0
 91
        4
 64
     7
 65
   257
 75
     1
175
     1
 42
1.0
 92
        8
 66
   257
 43
1.0
 76
     1
 77
     6
 78
     2
 67
     8
 79
     3
170
     0
171
     0
290
     0
174
     0
 93
        5
 44
0.0
173
     0
291
     0
 45
0.0
1001
ACAD
1000
AcDbSavedByObjectVersion
1070
     0
  0
VISUALSTYLE
  5
9979
102
{ACAD_XDICTIONARY
360
99E5
102
}
102
{ACAD_REACTORS
330
9965
102
}
330
9965
100
AcDbVisualStyle
  2
Shaded with edges
 70
    26
 71
     2
 72
     2
 73
     1
 90
        2
 40
-0.6
 41
30.0
 62
     5
 63
     7
 74
     1
 91
       10
 64
     7
 65
   257
 75
     2
175
     1
 42
1.0
 92
        8
 66
   257
 43
1.0
 76
     1
 77
     6
 78
     2
 67
     7
 79
     3
170
     0
171
     0
290
     0
174
     0
 93
        5
 44
0.0
173
     0
291
     0
 45
0.0
1001
ACAD
1000
AcDbSavedByObjectVersion
1070
     0
  0
VISUALSTYLE
  5
9976
102
{ACAD_XDICTIONARY
360
99DF
102
}
102
{ACAD_REACTORS
330
9965
102
}
330
9965
100
AcDbVisualStyle
  2
Shades of Gray
 70
    23
 71
     2
 72
     2
 73
     3
 90
        0
 40
-0.6
 41
-30.0
 62
     5
 63
     7
 74
     2
 91
        2
 64
     7
 65
     7
 75
     1
175
     1
 42
40.0
 92
        8
 66
     7
 43
1.0
 76
     1
 77
     6
 78
     2
 67
     7
 79
     3
170
     0
171
     0
290
     0
174
     0
 93
        1
 44
0.0
173
     0
291
     0
 45
0.0
1001
ACAD
1000
AcDbSavedByObjectVersion
1070
     0
  0
VISUALSTYLE
  5
9977
102
{ACAD_XDICTIONARY
360
99E1
102
}
102
{ACAD_REACTORS
330
9965
102
}
330
9965
100
AcDbVisualStyle
  2
Sketchy
 70
    24
 71
     1
 72
     2
 73
     2
 90
        0
 40
-0.6
 41
-30.0
 62
     5
 63
     7
 74
     2
 91
        2
 64
     7
 65
     7
 75
     1
175
     1
 42
40.0
 92
       11
 66
     7
 43
1.0
 76
     1
 77
     6
 78
     2
 67
     7
 79
     6
170
     0
171
     0
290
     0
174
     0
 93
        1
 44
0.0
173
     0
291
     0
 45
0.0
1001
ACAD
1000
AcDbSavedByObjectVersion
1070
     0
  0
VISUALSTYLE
  5
9972
102
{ACAD_XDICTIONARY
360
99D7
102
}
102
{ACAD_REACTORS
330
9965
102
}
330
9965
100
AcDbVisualStyle
  2
Thicken
 70
    13
 71
     2
 72
     2
 73
     0
 90
        0
 40
-0.6
 41
-30.0
 62
     5
 63
     7
 74
     1
 91
        4
 64
     7
 65
   257
 75
     1
175
     1
 42
1.0
 92
       12
 66
     7
 43
1.0
 76
     1
 77
     6
 78
     2
 67
     7
 79
     5
170
     0
171
     0
290
     0
174
     0
 93
        1
 44
0.0
173
     0
291
     1
 45
0.0
1001
ACAD
1000
AcDbSavedByObjectVersion
1070
     0
  0
VISUALSTYLE
  5
996C
102
{ACAD_XDICTIONARY
360
99CB
102
}
102
{ACAD_REACTORS
330
9965
102
}
330
9965
100
AcDbVisualStyle
  2
Wireframe
 70
     5
 71
     0
 72
     2
 73
     0
 90
        0
 40
-0.6
 41
-30.0
 62
     5
 63
     7
 74
     1
 91
        4
 64
     7
 65
   257
 75
     1
175
     1
 42
1.0
 92
        0
 66
   257
 43
1.0
 76
     1
 77
     6
 78
     2
 67
     7
 79
     3
170
     0
171
     0
290
     0
174
     0
 93
        1
 44
0.0
173
     0
291
     0
 45
0.0
1001
ACAD
1000
AcDbSavedByObjectVersion
1070
     0
  0
VISUALSTYLE
  5
9978
102
{ACAD_XDICTIONARY
360
99E3
102
}
102
{ACAD_REACTORS
330
9965
102
}
330
9965
100
AcDbVisualStyle
  2
X-Ray
 70
    25
 71
     2
 72
     2
 73
     1
 90
        1
 40
0.5
 41
-30.0
 62
     5
 63
     7
 74
     1
 91
        0
 64
     7
 65
   257
 75
     1
175
     1
 42
1.0
 92
        8
 66
     7
 43
1.0
 76
     1
 77
     6
 78
     2
 67
     7
 79
     3
170
     0
171
     0
290
     0
174
     0
 93
       13
 44
0.0
173
     0
291
     0
 45
0.0
1001
ACAD
1000
AcDbSavedByObjectVersion
1070
     0
  0
DICTIONARYVAR
  5
99B2
102
{ACAD_REACTORS
330
99AD
102
}
330
99AD
100
DictionaryVariables
280
     0
  1
1:1
  0
DICTIONARYVAR
  5
99AF
102
{ACAD_REACTORS
330
99AD
102
}
330
99AD
100
DictionaryVariables
280
     0
  1
STANDARD
  0
DICTIONARYVAR
  5
99AE
102
{ACAD_REACTORS
330
99AD
102
}
330
99AD
100
DictionaryVariables
280
     0
  1
STANDARD
  0
DICTIONARYVAR
  5
99B0
102
{ACAD_REACTORS
330
99AD
102
}
330
99AD
100
DictionaryVariables
280
     0
  1
Imperial24
  0
DICTIONARYVAR
  5
99B1
102
{ACAD_REACTORS
330
99AD
102
}
330
99AD
100
DictionaryVariables
280
     0
  1
Imperial24
  0
DICTIONARYVAR
  5
99B5
102
{ACAD_REACTORS
330
99AD
102
}
330
99AD
100
DictionaryVariables
280
     0
  1
1
  0
DICTIONARYVAR
  5
99B4
102
{ACAD_REACTORS
330
99AD
102
}
330
99AD
100
DictionaryVariables
280
     0
  1
0
  0
DICTIONARYVAR
  5
99B3
102
{ACAD_REACTORS
330
99AD
102
}
330
99AD
100
DictionaryVariables
280
     0
  1
127
  0
DICTIONARYVAR
  5
99B6
102
{ACAD_REACTORS
330
99AD
102
}
330
99AD
100
DictionaryVariables
280
     0
  1
2
  0
DICTIONARY
  5
99F3
330
9998
100
AcDbDictionary
280
     1
281
     1
  3
ACAD_XREC_ROUNDTRIP
360
99F4
  0
DICTIONARY
  5
99F5
330
9999
100
AcDbDictionary
280
     1
281
     1
  3
ACAD_XREC_ROUNDTRIP
360
99F6
  0
DICTIONARY
  5
99F7
330
999A
100
AcDbDictionary
280
     1
281
     1
  3
ACAD_XREC_ROUNDTRIP
360
99F8
  0
DICTIONARY
  5
9956
330
9955
100
AcDbDictionary
280
     1
281
     1
  3
ACAD_XREC_ROUNDTRIP
360
99BD
  3
BUMPTILE
360
9958
  3
DIFFUSETILE
360
9957
  3
OPACITYTILE
360
995B
  3
REFLECTIONTILE
360
995A
  3
REFRACTIONTILE
360
995C
  3
SPECULARTILE
360
9959
  0
DICTIONARY
  5
994E
330
994D
100
AcDbDictionary
280
     1
281
     1
  3
ACAD_XREC_ROUNDTRIP
360
99BC
  3
BUMPTILE
360
9950
  3
DIFFUSETILE
360
994F
  3
OPACITYTILE
360
9953
  3
REFLECTIONTILE
360
9952
  3
REFRACTIONTILE
360
9954
  3
SPECULARTILE
360
9951
  0
DICTIONARY
  5
995E
330
995D
100
AcDbDictionary
280
     1
281
     1
  3
ACAD_XREC_ROUNDTRIP
360
99BE
  3
BUMPTILE
360
9960
  3
DIFFUSETILE
360
995F
  3
OPACITYTILE
360
9963
  3
REFLECTIONTILE
360
9962
  3
REFRACTIONTILE
360
9964
  3
SPECULARTILE
360
9961
  0
DICTIONARY
  5
99F1
330
9996
100
AcDbDictionary
280
     1
281
     1
  3
ACAD_XREC_ROUNDTRIP
360
99F2
  0
DICTIONARY
  5
99B8
330
9980
100
AcDbDictionary
280
     1
281
     1
  3
ACAD_ROUNDTRIP_2008_TABLESTYLE_CELLSTYLEMAP
360
99B9
  3
ACAD_XREC_ROUNDTRIP
360
99EF
  0
DICTIONARY
  5
99C9
330
996B
100
AcDbDictionary
280
     1
281
     1
  3
ACAD_XREC_ROUNDTRIP
360
99CA
  0
DICTIONARY
  5
99C7
330
996A
100
AcDbDictionary
280
     1
281
     1
  3
ACAD_XREC_ROUNDTRIP
360
99C8
  0
DICTIONARY
  5
99D5
330
9971
100
AcDbDictionary
280
     1
281
     1
  3
ACAD_XREC_ROUNDTRIP
360
99D6
  0
DICTIONARY
  5
99DD
330
9975
100
AcDbDictionary
280
     1
281
     1
  3
ACAD_XREC_ROUNDTRIP
360
99DE
  0
DICTIONARY
  5
99CF
330
996E
100
AcDbDictionary
280
     1
281
     1
  3
ACAD_XREC_ROUNDTRIP
360
99D0
  0
DICTIONARY
  5
99D3
330
9970
100
AcDbDictionary
280
     1
281
     1
  3
ACAD_XREC_ROUNDTRIP
360
99D4
  0
DICTIONARY
  5
99ED
330
997D
100
AcDbDictionary
280
     1
281
     1
  3
ACAD_XREC_ROUNDTRIP
360
99EE
  0
DICTIONARY
  5
99DB
330
9974
100
AcDbDictionary
280
     1
281
     1
  3
ACAD_XREC_ROUNDTRIP
360
99DC
  0
DICTIONARY
  5
99BF
330
9966
100
AcDbDictionary
280
     1
281
     1
  3
ACAD_XREC_ROUNDTRIP
360
99C0
  0
DICTIONARY
  5
99C1
330
9967
100
AcDbDictionary
280
     1
281
     1
  3
ACAD_XREC_ROUNDTRIP
360
99C2
  0
DICTIONARY
  5
99C3
330
9968
100
AcDbDictionary
280
     1
281
     1
  3
ACAD_XREC_ROUNDTRIP
360
99C4
  0
DICTIONARY
  5
99C5
330
9969
100
AcDbDictionary
280
     1
281
     1
  3
ACAD_XREC_ROUNDTRIP
360
99C6
  0
DICTIONARY
  5
99CD
330
996D
100
AcDbDictionary
280
     1
281
     1
  3
ACAD_XREC_ROUNDTRIP
360
99CE
  0
DICTIONARY
  5
99E9
330
997B
100
AcDbDictionary
280
     1
281
     1
  3
ACAD_XREC_ROUNDTRIP
360
99EA
  0
DICTIONARY
  5
99D9
330
9973
100
AcDbDictionary
280
     1
281
     1
  3
ACAD_XREC_ROUNDTRIP
360
99DA
  0
DICTIONARY
  5
99EB
330
997C
100
AcDbDictionary
280
     1
281
     1
  3
ACAD_XREC_ROUNDTRIP
360
99EC
  0
DICTIONARY
  5
99D1
330
996F
100
AcDbDictionary
280
     1
281
     1
  3
ACAD_XREC_ROUNDTRIP
360
99D2
  0
DICTIONARY
  5
99E7
330
997A
100
AcDbDictionary
280
     1
281
     1
  3
ACAD_XREC_ROUNDTRIP
360
99E8
  0
DICTIONARY
  5
99E5
330
9979
100
AcDbDictionary
280
     1
281
     1
  3
ACAD_XREC_ROUNDTRIP
360
99E6
  0
DICTIONARY
  5
99DF
330
9976
100
AcDbDictionary
280
     1
281
     1
  3
ACAD_XREC_ROUNDTRIP
360
99E0
  0
DICTIONARY
  5
99E1
330
9977
100
AcDbDictionary
280
     1
281
     1
  3
ACAD_XREC_ROUNDTRIP
360
99E2
  0
DICTIONARY
  5
99D7
330
9972
100
AcDbDictionary
280
     1
281
     1
  3
ACAD_XREC_ROUNDTRIP
360
99D8
  0
DICTIONARY
  5
99CB
330
996C
100
AcDbDictionary
280
     1
281
     1
  3
ACAD_XREC_ROUNDTRIP
360
99CC
  0
DICTIONARY
  5
99E3
330
9978
100
AcDbDictionary
280
     1
281
     1
  3
ACAD_XREC_ROUNDTRIP
360
99E4
  0
XRECORD
  5
99F4
102
{ACAD_REACTORS
330
99F3
102
}
330
99F3
100
AcDbXrecord
280
     1
102
DISPLAYNAME
  1
Imperial24
102
FLAGS
 90
        0
  0
XRECORD
  5
99F6
102
{ACAD_REACTORS
330
99F5
102
}
330
99F5
100
AcDbXrecord
280
     1
102
SHADEPLOT
 70
     0
102
SHADEPLOTRESLEVEL
 70
     2
102
SHADEPLOTCUSTOMDPI
 70
   300
  0
XRECORD
  5
99F8
102
{ACAD_REACTORS
330
99F7
102
}
330
99F7
100
AcDbXrecord
280
     1
102
SHADEPLOT
 70
     0
102
SHADEPLOTRESLEVEL
 70
     2
102
SHADEPLOTCUSTOMDPI
 70
   300
  0
XRECORD
  5
99BD
102
{ACAD_REACTORS
330
9956
102
}
330
9956
100
AcDbXrecord
280
     1
102
MATERIAL
148
0.0
149
0.0
149
0.0
 93
        0
 94
      127
282
     0
 72
     0
 77
     0
171
     0
175
     0
179
     0
273
     0
  0
XRECORD
  5
9958
102
{ACAD_REACTORS
330
9956
102
}
330
9956
100
AcDbXrecord
280
     1
270
     1
271
     1
  0
XRECORD
  5
9957
102
{ACAD_REACTORS
330
9956
102
}
330
9956
100
AcDbXrecord
280
     1
270
     1
271
     1
  0
XRECORD
  5
995B
102
{ACAD_REACTORS
330
9956
102
}
330
9956
100
AcDbXrecord
280
     1
270
     1
271
     1
  0
XRECORD
  5
995A
102
{ACAD_REACTORS
330
9956
102
}
330
9956
100
AcDbXrecord
280
     1
270
     1
271
     1
  0
XRECORD
  5
995C
102
{ACAD_REACTORS
330
9956
102
}
330
9956
100
AcDbXrecord
280
     1
270
     1
271
     1
  0
XRECORD
  5
9959
102
{ACAD_REACTORS
330
9956
102
}
330
9956
100
AcDbXrecord
280
     1
270
     1
271
     1
  0
XRECORD
  5
99BC
102
{ACAD_REACTORS
330
994E
102
}
330
994E
100
AcDbXrecord
280
     1
102
MATERIAL
148
0.0
149
0.0
149
0.0
 93
        0
 94
      127
282
     0
 72
     0
 77
     0
171
     0
175
     0
179
     0
273
     0
  0
XRECORD
  5
9950
102
{ACAD_REACTORS
330
994E
102
}
330
994E
100
AcDbXrecord
280
     1
270
     1
271
     1
  0
XRECORD
  5
994F
102
{ACAD_REACTORS
330
994E
102
}
330
994E
100
AcDbXrecord
280
     1
270
     1
271
     1
  0
XRECORD
  5
9953
102
{ACAD_REACTORS
330
994E
102
}
330
994E
100
AcDbXrecord
280
     1
270
     1
271
     1
  0
XRECORD
  5
9952
102
{ACAD_REACTORS
330
994E
102
}
330
994E
100
AcDbXrecord
280
     1
270
     1
271
     1
  0
XRECORD
  5
9954
102
{ACAD_REACTORS
330
994E
102
}
330
994E
100
AcDbXrecord
280
     1
270
     1
271
     1
  0
XRECORD
  5
9951
102
{ACAD_REACTORS
330
994E
102
}
330
994E
100
AcDbXrecord
280
     1
270
     1
271
     1
  0
XRECORD
  5
99BE
102
{ACAD_REACTORS
330
995E
102
}
330
995E
100
AcDbXrecord
280
     1
102
MATERIAL
148
0.0
149
0.0
149
0.0
 93
        0
 94
      127
282
     0
 72
     0
 77
     0
171
     0
175
     0
179
     0
273
     0
  0
XRECORD
  5
9960
102
{ACAD_REACTORS
330
995E
102
}
330
995E
100
AcDbXrecord
280
     1
270
     1
271
     1
  0
XRECORD
  5
995F
102
{ACAD_REACTORS
330
995E
102
}
330
995E
100
AcDbXrecord
280
     1
270
     1
271
     1
  0
XRECORD
  5
9963
102
{ACAD_REACTORS
330
995E
102
}
330
995E
100
AcDbXrecord
280
     1
270
     1
271
     1
  0
XRECORD
  5
9962
102
{ACAD_REACTORS
330
995E
102
}
330
995E
100
AcDbXrecord
280
     1
270
     1
271
     1
  0
XRECORD
  5
9964
102
{ACAD_REACTORS
330
995E
102
}
330
995E
100
AcDbXrecord
280
     1
270
     1
271
     1
  0
XRECORD
  5
9961
102
{ACAD_REACTORS
330
995E
102
}
330
995E
100
AcDbXrecord
280
     1
270
     1
271
     1
  0
XRECORD
  5
99F2
102
{ACAD_REACTORS
330
99F1
102
}
330
99F1
100
AcDbXrecord
280
     1
102
DISPLAYNAME
  1
Imperial24
102
FLAGS
 90
        0
  0
CELLSTYLEMAP
  5
99B9
102
{ACAD_REACTORS
330
99B8
102
}
330
99B8
100
AcDbCellStyleMap
 90
        3
300
CELLSTYLE
  1
TABLEFORMAT_BEGIN
 90
        5
170
     1
 91
        0
 92
    32768
 62
   257
 93
        1
300
CONTENTFORMAT
  1
CONTENTFORMAT_BEGIN
 90
        0
 91
        0
 92
      512
 93
        0
300

 40
0.0
140
1.0
 94
        5
 62
     0
340
9771
144
0.25
309
CONTENTFORMAT_END
171
     0
 94
        0
309
TABLEFORMAT_END
  1
CELLSTYLE_BEGIN
 90
        1
 91
        1
300
_TITLE
309
CELLSTYLE_END
300
CELLSTYLE
  1
TABLEFORMAT_BEGIN
 90
        5
170
     1
 91
        0
 92
        0
 62
   257
 93
        1
300
CONTENTFORMAT
  1
CONTENTFORMAT_BEGIN
 90
        0
 91
        0
 92
      512
 93
        0
300

 40
0.0
140
1.0
 94
        5
 62
     0
340
9771
144
0.18
309
CONTENTFORMAT_END
171
     0
 94
        0
309
TABLEFORMAT_END
  1
CELLSTYLE_BEGIN
 90
        2
 91
        1
300
_HEADER
309
CELLSTYLE_END
300
CELLSTYLE
  1
TABLEFORMAT_BEGIN
 90
        5
170
     1
 91
        0
 92
        0
 62
   257
 93
        1
300
CONTENTFORMAT
  1
CONTENTFORMAT_BEGIN
 90
        0
 91
        0
 92
      512
 93
        0
300

 40
0.0
140
1.0
 94
        2
 62
     0
340
9771
144
0.18
309
CONTENTFORMAT_END
171
     0
 94
        0
309
TABLEFORMAT_END
  1
CELLSTYLE_BEGIN
 90
        3
 91
        2
300
_DATA
309
CELLSTYLE_END
  0
XRECORD
  5
99EF
102
{ACAD_REACTORS
330
99B8
102
}
330
99B8
100
AcDbXrecord
280
     1
102
ACAD_ROUNDTRIP_PRE2007_TABLESTYLE
 90
      512
 91
        0
  1

 92
      512
 93
        0
  2

 94
      512
 95
        0
  3

  0
XRECORD
  5
99CA
102
{ACAD_REACTORS
330
99C9
102
}
330
99C9
100
AcDbXrecord
280
     1
102
RTVSPost2010Prop28
280
     1
102
RTVSPost2010PropOp28
 70
     1
102
RTVSPost2010Prop29
280
     1
102
RTVSPost2010PropOp29
 70
     1
102
RTVSPost2010Prop30
280
     0
102
RTVSPost2010PropOp30
 70
     1
102
RTVSPost2010Prop31
280
     0
102
RTVSPost2010PropOp31
 70
     1
102
RTVSPost2010Prop32
280
     0
102
RTVSPost2010PropOp32
 70
     1
102
RTVSPost2010Prop33
280
     0
102
RTVSPost2010PropOp33
 70
     1
102
RTVSPost2010Prop34
280
     0
102
RTVSPost2010PropOp34
 70
     1
102
RTVSPost2010Prop35
280
     0
102
RTVSPost2010PropOp35
 70
     1
102
RTVSPost2010Prop36
280
     0
102
RTVSPost2010PropOp36
 70
     1
102
RTVSPost2010Prop37
 90
       50
102
RTVSPost2010PropOp37
 70
     1
102
RTVSPost2010Prop38
140
0.0
102
RTVSPost2010PropOp38
 70
     1
102
RTVSPost2010Prop39
140
1.0
102
RTVSPost2010PropOp39
 70
     1
102
RTVSPost2010Prop40
 90
        0
102
RTVSPost2010PropOp40
 70
     1
102
RTVSPost2010Prop41ColorIndex
 90
       18
102
RTVSPost2010Prop41ColorRGB
 90
        0
102
RTVSPost2010PropOp41
 70
     1
102
RTVSPost2010Prop42
 90
       50
102
RTVSPost2010PropOp42
 70
     1
102
RTVSPost2010Prop43
 90
        3
102
RTVSPost2010PropOp43
 70
     1
102
RTVSPost2010Prop44ColorIndex
 90
        5
102
RTVSPost2010Prop44ColorRGB
 90
      255
102
RTVSPost2010PropOp44
 70
     1
102
RTVSPost2010Prop45
280
     0
102
RTVSPost2010PropOp45
 70
     1
102
RTVSPost2010Prop46
 90
       50
102
RTVSPost2010PropOp46
 70
     1
102
RTVSPost2010Prop47
 90
       50
102
RTVSPost2010PropOp47
 70
     1
102
RTVSPost2010Prop48
 90
       50
102
RTVSPost2010PropOp48
 70
     1
102
RTVSPost2010Prop49
280
     0
102
RTVSPost2010PropOp49
 70
     1
102
RTVSPost2010Prop50
 90
       50
102
RTVSPost2010PropOp50
 70
     1
102
RTVSPost2010Prop51ColorIndex
 90
      256
102
RTVSPost2010Prop51ColorRGB
 90
-16777216
102
RTVSPost2010PropOp51
 70
     0
102
RTVSPost2010Prop52
140
1.0
102
RTVSPost2010PropOp52
 70
     0
102
RTVSPost2010Prop53
 90
        2
102
RTVSPost2010PropOp53
 70
     1
102
RTVSPost2010Prop54
  1
strokes_ogs.tif
102
RTVSPost2010PropOp54
 70
     1
102
RTVSPost2010Prop55
280
     0
102
RTVSPost2010PropOp55
 70
     1
102
RTVSPost2010Prop56
140
1.0
102
RTVSPost2010PropOp56
 70
     1
102
RTVSPost2010Prop57
140
1.0
102
RTVSPost2010PropOp57
 70
     1
102
RTVSPropertyOp0
 70
     1
102
RTVSPropertyOp1
 70
     1
102
RTVSPropertyOp2
 70
     1
102
RTVSPropertyOp3
 70
     1
102
RTVSPropertyOp4
 70
     1
102
RTVSPropertyOp5
 70
     1
102
RTVSPropertyOp6
 70
     1
102
RTVSPropertyOp7
 70
     1
102
RTVSPropertyOp8
 70
     1
102
RTVSPropertyOp9
 70
     1
102
RTVSPropertyOp10
 70
     1
102
RTVSPropertyOp11
 70
     1
102
RTVSPropertyOp12
 70
     1
102
RTVSPropertyOp13
 70
     1
102
RTVSPropertyOp14
 70
     1
102
RTVSPropertyOp15
 70
     1
102
RTVSPropertyOp16
 70
     1
102
RTVSPropertyOp17
 70
     1
102
RTVSPropertyOp18
 70
     1
102
RTVSPropertyOp19
 70
     1
102
RTVSPropertyOp20
 70
     1
102
RTVSPropertyOp21
 70
     1
102
RTVSPropertyOp22
 70
     1
102
RTVSPropertyOp23
 70
     1
102
RTVSPropertyOp24
 70
     1
102
RTVSPropertyOp25
 70
     1
102
RTVSPropertyOp26
 70
     1
102
RTVSPropertyOp27
 70
     1
102
RTVSPropertyOp28
 70
     1
102
RTVSPropertyOp29
 70
     1
102
RTVSPropertyOp30
 70
     1
102
RTVSPropertyOp31
 70
     1
102
RTVSPropertyOp32
 70
     1
102
RTVSPropertyOp33
 70
     1
102
RTVSPropertyOp34
 70
     1
102
RTVSPropertyOp35
 70
     1
102
RTVSPropertyOp36
 70
     1
102
RTVSPropertyOp37
 70
     1
102
RTVSPropertyOp38
 70
     1
102
RTVSPropertyOp39
 70
     1
102
RTVSPropertyOp40
 70
     1
102
RTVSPropertyOp41
 70
     1
102
RTVSPropertyOp42
 70
     1
102
RTVSPropertyOp43
 70
     1
102
RTVSPropertyOp44
 70
     1
102
RTVSPropertyOp45
 70
     1
102
RTVSPropertyOp46
 70
     1
102
RTVSPropertyOp47
 70
     1
102
RTVSPropertyOp48
 70
     1
102
RTVSPropertyOp49
 70
     1
102
RTVSPropertyOp50
 70
     1
102
RTVSPropertyOp51
 70
     0
102
RTVSPropertyOp52
 70
     0
102
RTVSPropertyOp53
 70
     1
102
RTVSPropertyOp54
 70
     1
102
RTVSPropertyOp55
 70
     1
102
RTVSPropertyOp56
 70
     1
102
RTVSPropertyOp57
 70
     1
102
RTVSPropertyOp58
 70
     1
102
RTVSPropertyOp59
 70
     1
102
RTVSPropertyOp60
 70
     1
102
RTVSPropertyOp61
 70
     1
102
RTVSPropertyOp62
 70
     1
  0
XRECORD
  5
99C8
102
{ACAD_REACTORS
330
99C7
102
}
330
99C7
100
AcDbXrecord
280
     1
102
RTVSPost2010Prop28
280
     0
102
RTVSPost2010PropOp28
 70
     1
102
RTVSPost2010Prop29
280
     1
102
RTVSPost2010PropOp29
 70
     1
102
RTVSPost2010Prop30
280
     1
102
RTVSPost2010PropOp30
 70
     1
102
RTVSPost2010Prop31
280
     0
102
RTVSPost2010PropOp31
 70
     1
102
RTVSPost2010Prop32
280
     0
102
RTVSPost2010PropOp32
 70
     1
102
RTVSPost2010Prop33
280
     0
102
RTVSPost2010PropOp33
 70
     1
102
RTVSPost2010Prop34
280
     0
102
RTVSPost2010PropOp34
 70
     1
102
RTVSPost2010Prop35
280
     0
102
RTVSPost2010PropOp35
 70
     1
102
RTVSPost2010Prop36
280
     0
102
RTVSPost2010PropOp36
 70
     1
102
RTVSPost2010Prop37
 90
       50
102
RTVSPost2010PropOp37
 70
     1
102
RTVSPost2010Prop38
140
0.0
102
RTVSPost2010PropOp38
 70
     1
102
RTVSPost2010Prop39
140
1.0
102
RTVSPost2010PropOp39
 70
     1
102
RTVSPost2010Prop40
 90
        0
102
RTVSPost2010PropOp40
 70
     1
102
RTVSPost2010Prop41ColorIndex
 90
       18
102
RTVSPost2010Prop41ColorRGB
 90
        0
102
RTVSPost2010PropOp41
 70
     1
102
RTVSPost2010Prop42
 90
       50
102
RTVSPost2010PropOp42
 70
     1
102
RTVSPost2010Prop43
 90
        3
102
RTVSPost2010PropOp43
 70
     1
102
RTVSPost2010Prop44ColorIndex
 90
        5
102
RTVSPost2010Prop44ColorRGB
 90
      255
102
RTVSPost2010PropOp44
 70
     1
102
RTVSPost2010Prop45
280
     0
102
RTVSPost2010PropOp45
 70
     1
102
RTVSPost2010Prop46
 90
       50
102
RTVSPost2010PropOp46
 70
     1
102
RTVSPost2010Prop47
 90
       50
102
RTVSPost2010PropOp47
 70
     1
102
RTVSPost2010Prop48
 90
       50
102
RTVSPost2010PropOp48
 70
     1
102
RTVSPost2010Prop49
280
     0
102
RTVSPost2010PropOp49
 70
     1
102
RTVSPost2010Prop50
 90
       50
102
RTVSPost2010PropOp50
 70
     1
102
RTVSPost2010Prop51ColorIndex
 90
      256
102
RTVSPost2010Prop51ColorRGB
 90
-16777216
102
RTVSPost2010PropOp51
 70
     0
102
RTVSPost2010Prop52
140
1.0
102
RTVSPost2010PropOp52
 70
     0
102
RTVSPost2010Prop53
 90
        2
102
RTVSPost2010PropOp53
 70
     1
102
RTVSPost2010Prop54
  1
strokes_ogs.tif
102
RTVSPost2010PropOp54
 70
     1
102
RTVSPost2010Prop55
280
     0
102
RTVSPost2010PropOp55
 70
     1
102
RTVSPost2010Prop56
140
1.0
102
RTVSPost2010PropOp56
 70
     1
102
RTVSPost2010Prop57
140
1.0
102
RTVSPost2010PropOp57
 70
     1
102
RTVSPropertyOp0
 70
     1
102
RTVSPropertyOp1
 70
     1
102
RTVSPropertyOp2
 70
     1
102
RTVSPropertyOp3
 70
     1
102
RTVSPropertyOp4
 70
     1
102
RTVSPropertyOp5
 70
     1
102
RTVSPropertyOp6
 70
     1
102
RTVSPropertyOp7
 70
     1
102
RTVSPropertyOp8
 70
     1
102
RTVSPropertyOp9
 70
     1
102
RTVSPropertyOp10
 70
     1
102
RTVSPropertyOp11
 70
     1
102
RTVSPropertyOp12
 70
     1
102
RTVSPropertyOp13
 70
     1
102
RTVSPropertyOp14
 70
     1
102
RTVSPropertyOp15
 70
     1
102
RTVSPropertyOp16
 70
     1
102
RTVSPropertyOp17
 70
     1
102
RTVSPropertyOp18
 70
     1
102
RTVSPropertyOp19
 70
     1
102
RTVSPropertyOp20
 70
     1
102
RTVSPropertyOp21
 70
     1
102
RTVSPropertyOp22
 70
     1
102
RTVSPropertyOp23
 70
     1
102
RTVSPropertyOp24
 70
     1
102
RTVSPropertyOp25
 70
     1
102
RTVSPropertyOp26
 70
     1
102
RTVSPropertyOp27
 70
     1
102
RTVSPropertyOp28
 70
     1
102
RTVSPropertyOp29
 70
     1
102
RTVSPropertyOp30
 70
     1
102
RTVSPropertyOp31
 70
     1
102
RTVSPropertyOp32
 70
     1
102
RTVSPropertyOp33
 70
     1
102
RTVSPropertyOp34
 70
     1
102
RTVSPropertyOp35
 70
     1
102
RTVSPropertyOp36
 70
     1
102
RTVSPropertyOp37
 70
     1
102
RTVSPropertyOp38
 70
     1
102
RTVSPropertyOp39
 70
     1
102
RTVSPropertyOp40
 70
     1
102
RTVSPropertyOp41
 70
     1
102
RTVSPropertyOp42
 70
     1
102
RTVSPropertyOp43
 70
     1
102
RTVSPropertyOp44
 70
     1
102
RTVSPropertyOp45
 70
     1
102
RTVSPropertyOp46
 70
     1
102
RTVSPropertyOp47
 70
     1
102
RTVSPropertyOp48
 70
     1
102
RTVSPropertyOp49
 70
     1
102
RTVSPropertyOp50
 70
     1
102
RTVSPropertyOp51
 70
     0
102
RTVSPropertyOp52
 70
     0
102
RTVSPropertyOp53
 70
     1
102
RTVSPropertyOp54
 70
     1
102
RTVSPropertyOp55
 70
     1
102
RTVSPropertyOp56
 70
     1
102
RTVSPropertyOp57
 70
     1
102
RTVSPropertyOp58
 70
     1
102
RTVSPropertyOp59
 70
     1
102
RTVSPropertyOp60
 70
     1
102
RTVSPropertyOp61
 70
     1
102
RTVSPropertyOp62
 70
     1
  0
XRECORD
  5
99D6
102
{ACAD_REACTORS
330
99D5
102
}
330
99D5
100
AcDbXrecord
280
     1
102
RTVSPost2010Prop28
280
     0
102
RTVSPost2010PropOp28
 70
     1
102
RTVSPost2010Prop29
280
     1
102
RTVSPost2010PropOp29
 70
     1
102
RTVSPost2010Prop30
280
     1
102
RTVSPost2010PropOp30
 70
     1
102
RTVSPost2010Prop31
280
     0
102
RTVSPost2010PropOp31
 70
     1
102
RTVSPost2010Prop32
280
     0
102
RTVSPost2010PropOp32
 70
     1
102
RTVSPost2010Prop33
280
     0
102
RTVSPost2010PropOp33
 70
     1
102
RTVSPost2010Prop34
280
     0
102
RTVSPost2010PropOp34
 70
     1
102
RTVSPost2010Prop35
280
     0
102
RTVSPost2010PropOp35
 70
     1
102
RTVSPost2010Prop36
280
     0
102
RTVSPost2010PropOp36
 70
     1
102
RTVSPost2010Prop37
 90
       50
102
RTVSPost2010PropOp37
 70
     1
102
RTVSPost2010Prop38
140
0.0
102
RTVSPost2010PropOp38
 70
     1
102
RTVSPost2010Prop39
140
1.0
102
RTVSPost2010PropOp39
 70
     1
102
RTVSPost2010Prop40
 90
        0
102
RTVSPost2010PropOp40
 70
     1
102
RTVSPost2010Prop41ColorIndex
 90
       18
102
RTVSPost2010Prop41ColorRGB
 90
        0
102
RTVSPost2010PropOp41
 70
     1
102
RTVSPost2010Prop42
 90
       50
102
RTVSPost2010PropOp42
 70
     1
102
RTVSPost2010Prop43
 90
        3
102
RTVSPost2010PropOp43
 70
     1
102
RTVSPost2010Prop44ColorIndex
 90
        5
102
RTVSPost2010Prop44ColorRGB
 90
      255
102
RTVSPost2010PropOp44
 70
     1
102
RTVSPost2010Prop45
280
     0
102
RTVSPost2010PropOp45
 70
     1
102
RTVSPost2010Prop46
 90
       50
102
RTVSPost2010PropOp46
 70
     1
102
RTVSPost2010Prop47
 90
       50
102
RTVSPost2010PropOp47
 70
     1
102
RTVSPost2010Prop48
 90
       50
102
RTVSPost2010PropOp48
 70
     1
102
RTVSPost2010Prop49
280
     0
102
RTVSPost2010PropOp49
 70
     1
102
RTVSPost2010Prop50
 90
       50
102
RTVSPost2010PropOp50
 70
     1
102
RTVSPost2010Prop51ColorIndex
 90
      256
102
RTVSPost2010Prop51ColorRGB
 90
-16777216
102
RTVSPost2010PropOp51
 70
     0
102
RTVSPost2010Prop52
140
1.0
102
RTVSPost2010PropOp52
 70
     0
102
RTVSPost2010Prop53
 90
        2
102
RTVSPost2010PropOp53
 70
     1
102
RTVSPost2010Prop54
  1
strokes_ogs.tif
102
RTVSPost2010PropOp54
 70
     1
102
RTVSPost2010Prop55
280
     0
102
RTVSPost2010PropOp55
 70
     1
102
RTVSPost2010Prop56
140
1.0
102
RTVSPost2010PropOp56
 70
     1
102
RTVSPost2010Prop57
140
1.0
102
RTVSPost2010PropOp57
 70
     1
102
RTVSPropertyOp0
 70
     1
102
RTVSPropertyOp1
 70
     1
102
RTVSPropertyOp2
 70
     1
102
RTVSPropertyOp3
 70
     1
102
RTVSPropertyOp4
 70
     1
102
RTVSPropertyOp5
 70
     1
102
RTVSPropertyOp6
 70
     1
102
RTVSPropertyOp7
 70
     1
102
RTVSPropertyOp8
 70
     1
102
RTVSPropertyOp9
 70
     1
102
RTVSPropertyOp10
 70
     1
102
RTVSPropertyOp11
 70
     1
102
RTVSPropertyOp12
 70
     1
102
RTVSPropertyOp13
 70
     1
102
RTVSPropertyOp14
 70
     1
102
RTVSPropertyOp15
 70
     1
102
RTVSPropertyOp16
 70
     1
102
RTVSPropertyOp17
 70
     1
102
RTVSPropertyOp18
 70
     1
102
RTVSPropertyOp19
 70
     1
102
RTVSPropertyOp20
 70
     1
102
RTVSPropertyOp21
 70
     1
102
RTVSPropertyOp22
 70
     1
102
RTVSPropertyOp23
 70
     1
102
RTVSPropertyOp24
 70
     1
102
RTVSPropertyOp25
 70
     1
102
RTVSPropertyOp26
 70
     1
102
RTVSPropertyOp27
 70
     1
102
RTVSPropertyOp28
 70
     1
102
RTVSPropertyOp29
 70
     1
102
RTVSPropertyOp30
 70
     1
102
RTVSPropertyOp31
 70
     1
102
RTVSPropertyOp32
 70
     1
102
RTVSPropertyOp33
 70
     1
102
RTVSPropertyOp34
 70
     1
102
RTVSPropertyOp35
 70
     1
102
RTVSPropertyOp36
 70
     1
102
RTVSPropertyOp37
 70
     1
102
RTVSPropertyOp38
 70
     1
102
RTVSPropertyOp39
 70
     1
102
RTVSPropertyOp40
 70
     1
102
RTVSPropertyOp41
 70
     1
102
RTVSPropertyOp42
 70
     1
102
RTVSPropertyOp43
 70
     1
102
RTVSPropertyOp44
 70
     1
102
RTVSPropertyOp45
 70
     1
102
RTVSPropertyOp46
 70
     1
102
RTVSPropertyOp47
 70
     1
102
RTVSPropertyOp48
 70
     1
102
RTVSPropertyOp49
 70
     1
102
RTVSPropertyOp50
 70
     1
102
RTVSPropertyOp51
 70
     0
102
RTVSPropertyOp52
 70
     0
102
RTVSPropertyOp53
 70
     1
102
RTVSPropertyOp54
 70
     1
102
RTVSPropertyOp55
 70
     1
102
RTVSPropertyOp56
 70
     1
102
RTVSPropertyOp57
 70
     1
102
RTVSPropertyOp58
 70
     1
102
RTVSPropertyOp59
 70
     1
102
RTVSPropertyOp60
 70
     1
102
RTVSPropertyOp61
 70
     1
102
RTVSPropertyOp62
 70
     1
  0
XRECORD
  5
99DE
102
{ACAD_REACTORS
330
99DD
102
}
330
99DD
100
AcDbXrecord
280
     1
102
RTVSPost2010Prop28
280
     0
102
RTVSPost2010PropOp28
 70
     1
102
RTVSPost2010Prop29
280
     1
102
RTVSPost2010PropOp29
 70
     1
102
RTVSPost2010Prop30
280
     1
102
RTVSPost2010PropOp30
 70
     1
102
RTVSPost2010Prop31
280
     0
102
RTVSPost2010PropOp31
 70
     1
102
RTVSPost2010Prop32
280
     0
102
RTVSPost2010PropOp32
 70
     1
102
RTVSPost2010Prop33
280
     0
102
RTVSPost2010PropOp33
 70
     1
102
RTVSPost2010Prop34
280
     0
102
RTVSPost2010PropOp34
 70
     1
102
RTVSPost2010Prop35
280
     0
102
RTVSPost2010PropOp35
 70
     1
102
RTVSPost2010Prop36
280
     0
102
RTVSPost2010PropOp36
 70
     1
102
RTVSPost2010Prop37
 90
       50
102
RTVSPost2010PropOp37
 70
     1
102
RTVSPost2010Prop38
140
0.0
102
RTVSPost2010PropOp38
 70
     1
102
RTVSPost2010Prop39
140
1.0
102
RTVSPost2010PropOp39
 70
     1
102
RTVSPost2010Prop40
 90
        0
102
RTVSPost2010PropOp40
 70
     1
102
RTVSPost2010Prop41ColorIndex
 90
       18
102
RTVSPost2010Prop41ColorRGB
 90
        0
102
RTVSPost2010PropOp41
 70
     1
102
RTVSPost2010Prop42
 90
       50
102
RTVSPost2010PropOp42
 70
     1
102
RTVSPost2010Prop43
 90
        3
102
RTVSPost2010PropOp43
 70
     1
102
RTVSPost2010Prop44ColorIndex
 90
        5
102
RTVSPost2010Prop44ColorRGB
 90
      255
102
RTVSPost2010PropOp44
 70
     1
102
RTVSPost2010Prop45
280
     0
102
RTVSPost2010PropOp45
 70
     1
102
RTVSPost2010Prop46
 90
       50
102
RTVSPost2010PropOp46
 70
     1
102
RTVSPost2010Prop47
 90
       50
102
RTVSPost2010PropOp47
 70
     1
102
RTVSPost2010Prop48
 90
       50
102
RTVSPost2010PropOp48
 70
     1
102
RTVSPost2010Prop49
280
     0
102
RTVSPost2010PropOp49
 70
     1
102
RTVSPost2010Prop50
 90
       50
102
RTVSPost2010PropOp50
 70
     1
102
RTVSPost2010Prop51ColorIndex
 90
      256
102
RTVSPost2010Prop51ColorRGB
 90
-16777216
102
RTVSPost2010PropOp51
 70
     0
102
RTVSPost2010Prop52
140
1.0
102
RTVSPost2010PropOp52
 70
     0
102
RTVSPost2010Prop53
 90
        2
102
RTVSPost2010PropOp53
 70
     1
102
RTVSPost2010Prop54
  1
strokes_ogs.tif
102
RTVSPost2010PropOp54
 70
     1
102
RTVSPost2010Prop55
280
     0
102
RTVSPost2010PropOp55
 70
     1
102
RTVSPost2010Prop56
140
1.0
102
RTVSPost2010PropOp56
 70
     1
102
RTVSPost2010Prop57
140
1.0
102
RTVSPost2010PropOp57
 70
     1
102
RTVSPropertyOp0
 70
     1
102
RTVSPropertyOp1
 70
     1
102
RTVSPropertyOp2
 70
     1
102
RTVSPropertyOp3
 70
     1
102
RTVSPropertyOp4
 70
     1
102
RTVSPropertyOp5
 70
     1
102
RTVSPropertyOp6
 70
     1
102
RTVSPropertyOp7
 70
     1
102
RTVSPropertyOp8
 70
     1
102
RTVSPropertyOp9
 70
     1
102
RTVSPropertyOp10
 70
     1
102
RTVSPropertyOp11
 70
     1
102
RTVSPropertyOp12
 70
     1
102
RTVSPropertyOp13
 70
     1
102
RTVSPropertyOp14
 70
     1
102
RTVSPropertyOp15
 70
     1
102
RTVSPropertyOp16
 70
     1
102
RTVSPropertyOp17
 70
     1
102
RTVSPropertyOp18
 70
     1
102
RTVSPropertyOp19
 70
     1
102
RTVSPropertyOp20
 70
     1
102
RTVSPropertyOp21
 70
     1
102
RTVSPropertyOp22
 70
     1
102
RTVSPropertyOp23
 70
     1
102
RTVSPropertyOp24
 70
     1
102
RTVSPropertyOp25
 70
     1
102
RTVSPropertyOp26
 70
     1
102
RTVSPropertyOp27
 70
     1
102
RTVSPropertyOp28
 70
     1
102
RTVSPropertyOp29
 70
     1
102
RTVSPropertyOp30
 70
     1
102
RTVSPropertyOp31
 70
     1
102
RTVSPropertyOp32
 70
     1
102
RTVSPropertyOp33
 70
     1
102
RTVSPropertyOp34
 70
     1
102
RTVSPropertyOp35
 70
     1
102
RTVSPropertyOp36
 70
     1
102
RTVSPropertyOp37
 70
     1
102
RTVSPropertyOp38
 70
     1
102
RTVSPropertyOp39
 70
     1
102
RTVSPropertyOp40
 70
     1
102
RTVSPropertyOp41
 70
     1
102
RTVSPropertyOp42
 70
     1
102
RTVSPropertyOp43
 70
     1
102
RTVSPropertyOp44
 70
     1
102
RTVSPropertyOp45
 70
     1
102
RTVSPropertyOp46
 70
     1
102
RTVSPropertyOp47
 70
     1
102
RTVSPropertyOp48
 70
     1
102
RTVSPropertyOp49
 70
     1
102
RTVSPropertyOp50
 70
     1
102
RTVSPropertyOp51
 70
     0
102
RTVSPropertyOp52
 70
     0
102
RTVSPropertyOp53
 70
     1
102
RTVSPropertyOp54
 70
     1
102
RTVSPropertyOp55
 70
     1
102
RTVSPropertyOp56
 70
     1
102
RTVSPropertyOp57
 70
     1
102
RTVSPropertyOp58
 70
     1
102
RTVSPropertyOp59
 70
     1
102
RTVSPropertyOp60
 70
     1
102
RTVSPropertyOp61
 70
     1
102
RTVSPropertyOp62
 70
     1
  0
XRECORD
  5
99D0
102
{ACAD_REACTORS
330
99CF
102
}
330
99CF
100
AcDbXrecord
280
     1
102
RTVSPost2010Prop28
280
     0
102
RTVSPost2010PropOp28
 70
     1
102
RTVSPost2010Prop29
280
     1
102
RTVSPost2010PropOp29
 70
     1
102
RTVSPost2010Prop30
280
     1
102
RTVSPost2010PropOp30
 70
     1
102
RTVSPost2010Prop31
280
     0
102
RTVSPost2010PropOp31
 70
     1
102
RTVSPost2010Prop32
280
     0
102
RTVSPost2010PropOp32
 70
     1
102
RTVSPost2010Prop33
280
     0
102
RTVSPost2010PropOp33
 70
     1
102
RTVSPost2010Prop34
280
     0
102
RTVSPost2010PropOp34
 70
     1
102
RTVSPost2010Prop35
280
     0
102
RTVSPost2010PropOp35
 70
     1
102
RTVSPost2010Prop36
280
     0
102
RTVSPost2010PropOp36
 70
     1
102
RTVSPost2010Prop37
 90
       50
102
RTVSPost2010PropOp37
 70
     1
102
RTVSPost2010Prop38
140
0.0
102
RTVSPost2010PropOp38
 70
     1
102
RTVSPost2010Prop39
140
1.0
102
RTVSPost2010PropOp39
 70
     1
102
RTVSPost2010Prop40
 90
        0
102
RTVSPost2010PropOp40
 70
     1
102
RTVSPost2010Prop41ColorIndex
 90
       18
102
RTVSPost2010Prop41ColorRGB
 90
        0
102
RTVSPost2010PropOp41
 70
     1
102
RTVSPost2010Prop42
 90
       50
102
RTVSPost2010PropOp42
 70
     1
102
RTVSPost2010Prop43
 90
        3
102
RTVSPost2010PropOp43
 70
     1
102
RTVSPost2010Prop44ColorIndex
 90
        5
102
RTVSPost2010Prop44ColorRGB
 90
      255
102
RTVSPost2010PropOp44
 70
     1
102
RTVSPost2010Prop45
280
     0
102
RTVSPost2010PropOp45
 70
     1
102
RTVSPost2010Prop46
 90
       50
102
RTVSPost2010PropOp46
 70
     1
102
RTVSPost2010Prop47
 90
       50
102
RTVSPost2010PropOp47
 70
     1
102
RTVSPost2010Prop48
 90
       50
102
RTVSPost2010PropOp48
 70
     1
102
RTVSPost2010Prop49
280
     0
102
RTVSPost2010PropOp49
 70
     1
102
RTVSPost2010Prop50
 90
       50
102
RTVSPost2010PropOp50
 70
     1
102
RTVSPost2010Prop51ColorIndex
 90
      256
102
RTVSPost2010Prop51ColorRGB
 90
-16777216
102
RTVSPost2010PropOp51
 70
     0
102
RTVSPost2010Prop52
140
1.0
102
RTVSPost2010PropOp52
 70
     0
102
RTVSPost2010Prop53
 90
        2
102
RTVSPost2010PropOp53
 70
     1
102
RTVSPost2010Prop54
  1
strokes_ogs.tif
102
RTVSPost2010PropOp54
 70
     1
102
RTVSPost2010Prop55
280
     0
102
RTVSPost2010PropOp55
 70
     1
102
RTVSPost2010Prop56
140
1.0
102
RTVSPost2010PropOp56
 70
     1
102
RTVSPost2010Prop57
140
1.0
102
RTVSPost2010PropOp57
 70
     1
102
RTVSPropertyOp0
 70
     1
102
RTVSPropertyOp1
 70
     1
102
RTVSPropertyOp2
 70
     1
102
RTVSPropertyOp3
 70
     1
102
RTVSPropertyOp4
 70
     1
102
RTVSPropertyOp5
 70
     1
102
RTVSPropertyOp6
 70
     1
102
RTVSPropertyOp7
 70
     1
102
RTVSPropertyOp8
 70
     1
102
RTVSPropertyOp9
 70
     1
102
RTVSPropertyOp10
 70
     1
102
RTVSPropertyOp11
 70
     1
102
RTVSPropertyOp12
 70
     1
102
RTVSPropertyOp13
 70
     1
102
RTVSPropertyOp14
 70
     1
102
RTVSPropertyOp15
 70
     1
102
RTVSPropertyOp16
 70
     1
102
RTVSPropertyOp17
 70
     1
102
RTVSPropertyOp18
 70
     1
102
RTVSPropertyOp19
 70
     1
102
RTVSPropertyOp20
 70
     1
102
RTVSPropertyOp21
 70
     1
102
RTVSPropertyOp22
 70
     1
102
RTVSPropertyOp23
 70
     1
102
RTVSPropertyOp24
 70
     1
102
RTVSPropertyOp25
 70
     1
102
RTVSPropertyOp26
 70
     1
102
RTVSPropertyOp27
 70
     1
102
RTVSPropertyOp28
 70
     1
102
RTVSPropertyOp29
 70
     1
102
RTVSPropertyOp30
 70
     1
102
RTVSPropertyOp31
 70
     1
102
RTVSPropertyOp32
 70
     1
102
RTVSPropertyOp33
 70
     1
102
RTVSPropertyOp34
 70
     1
102
RTVSPropertyOp35
 70
     1
102
RTVSPropertyOp36
 70
     1
102
RTVSPropertyOp37
 70
     1
102
RTVSPropertyOp38
 70
     1
102
RTVSPropertyOp39
 70
     1
102
RTVSPropertyOp40
 70
     1
102
RTVSPropertyOp41
 70
     1
102
RTVSPropertyOp42
 70
     1
102
RTVSPropertyOp43
 70
     1
102
RTVSPropertyOp44
 70
     1
102
RTVSPropertyOp45
 70
     1
102
RTVSPropertyOp46
 70
     1
102
RTVSPropertyOp47
 70
     1
102
RTVSPropertyOp48
 70
     1
102
RTVSPropertyOp49
 70
     1
102
RTVSPropertyOp50
 70
     1
102
RTVSPropertyOp51
 70
     0
102
RTVSPropertyOp52
 70
     0
102
RTVSPropertyOp53
 70
     1
102
RTVSPropertyOp54
 70
     1
102
RTVSPropertyOp55
 70
     1
102
RTVSPropertyOp56
 70
     1
102
RTVSPropertyOp57
 70
     1
102
RTVSPropertyOp58
 70
     1
102
RTVSPropertyOp59
 70
     1
102
RTVSPropertyOp60
 70
     1
102
RTVSPropertyOp61
 70
     1
102
RTVSPropertyOp62
 70
     1
  0
XRECORD
  5
99D4
102
{ACAD_REACTORS
330
99D3
102
}
330
99D3
100
AcDbXrecord
280
     1
102
RTVSPost2010Prop28
280
     0
102
RTVSPost2010PropOp28
 70
     1
102
RTVSPost2010Prop29
280
     1
102
RTVSPost2010PropOp29
 70
     1
102
RTVSPost2010Prop30
280
     1
102
RTVSPost2010PropOp30
 70
     1
102
RTVSPost2010Prop31
280
     0
102
RTVSPost2010PropOp31
 70
     1
102
RTVSPost2010Prop32
280
     0
102
RTVSPost2010PropOp32
 70
     1
102
RTVSPost2010Prop33
280
     0
102
RTVSPost2010PropOp33
 70
     1
102
RTVSPost2010Prop34
280
     0
102
RTVSPost2010PropOp34
 70
     1
102
RTVSPost2010Prop35
280
     0
102
RTVSPost2010PropOp35
 70
     1
102
RTVSPost2010Prop36
280
     0
102
RTVSPost2010PropOp36
 70
     1
102
RTVSPost2010Prop37
 90
       50
102
RTVSPost2010PropOp37
 70
     1
102
RTVSPost2010Prop38
140
0.0
102
RTVSPost2010PropOp38
 70
     1
102
RTVSPost2010Prop39
140
1.0
102
RTVSPost2010PropOp39
 70
     1
102
RTVSPost2010Prop40
 90
        0
102
RTVSPost2010PropOp40
 70
     1
102
RTVSPost2010Prop41ColorIndex
 90
       18
102
RTVSPost2010Prop41ColorRGB
 90
        0
102
RTVSPost2010PropOp41
 70
     1
102
RTVSPost2010Prop42
 90
       50
102
RTVSPost2010PropOp42
 70
     1
102
RTVSPost2010Prop43
 90
        3
102
RTVSPost2010PropOp43
 70
     1
102
RTVSPost2010Prop44ColorIndex
 90
        5
102
RTVSPost2010Prop44ColorRGB
 90
      255
102
RTVSPost2010PropOp44
 70
     1
102
RTVSPost2010Prop45
280
     0
102
RTVSPost2010PropOp45
 70
     1
102
RTVSPost2010Prop46
 90
       50
102
RTVSPost2010PropOp46
 70
     1
102
RTVSPost2010Prop47
 90
       50
102
RTVSPost2010PropOp47
 70
     1
102
RTVSPost2010Prop48
 90
       50
102
RTVSPost2010PropOp48
 70
     1
102
RTVSPost2010Prop49
280
     0
102
RTVSPost2010PropOp49
 70
     1
102
RTVSPost2010Prop50
 90
       50
102
RTVSPost2010PropOp50
 70
     1
102
RTVSPost2010Prop51ColorIndex
 90
      256
102
RTVSPost2010Prop51ColorRGB
 90
-16777216
102
RTVSPost2010PropOp51
 70
     0
102
RTVSPost2010Prop52
140
1.0
102
RTVSPost2010PropOp52
 70
     0
102
RTVSPost2010Prop53
 90
        2
102
RTVSPost2010PropOp53
 70
     1
102
RTVSPost2010Prop54
  1
strokes_ogs.tif
102
RTVSPost2010PropOp54
 70
     1
102
RTVSPost2010Prop55
280
     0
102
RTVSPost2010PropOp55
 70
     1
102
RTVSPost2010Prop56
140
1.0
102
RTVSPost2010PropOp56
 70
     1
102
RTVSPost2010Prop57
140
1.0
102
RTVSPost2010PropOp57
 70
     1
102
RTVSPropertyOp0
 70
     1
102
RTVSPropertyOp1
 70
     1
102
RTVSPropertyOp2
 70
     1
102
RTVSPropertyOp3
 70
     1
102
RTVSPropertyOp4
 70
     1
102
RTVSPropertyOp5
 70
     1
102
RTVSPropertyOp6
 70
     1
102
RTVSPropertyOp7
 70
     1
102
RTVSPropertyOp8
 70
     1
102
RTVSPropertyOp9
 70
     1
102
RTVSPropertyOp10
 70
     1
102
RTVSPropertyOp11
 70
     1
102
RTVSPropertyOp12
 70
     1
102
RTVSPropertyOp13
 70
     1
102
RTVSPropertyOp14
 70
     1
102
RTVSPropertyOp15
 70
     1
102
RTVSPropertyOp16
 70
     1
102
RTVSPropertyOp17
 70
     1
102
RTVSPropertyOp18
 70
     1
102
RTVSPropertyOp19
 70
     1
102
RTVSPropertyOp20
 70
     1
102
RTVSPropertyOp21
 70
     1
102
RTVSPropertyOp22
 70
     1
102
RTVSPropertyOp23
 70
     1
102
RTVSPropertyOp24
 70
     1
102
RTVSPropertyOp25
 70
     1
102
RTVSPropertyOp26
 70
     1
102
RTVSPropertyOp27
 70
     1
102
RTVSPropertyOp28
 70
     1
102
RTVSPropertyOp29
 70
     1
102
RTVSPropertyOp30
 70
     1
102
RTVSPropertyOp31
 70
     1
102
RTVSPropertyOp32
 70
     1
102
RTVSPropertyOp33
 70
     1
102
RTVSPropertyOp34
 70
     1
102
RTVSPropertyOp35
 70
     1
102
RTVSPropertyOp36
 70
     1
102
RTVSPropertyOp37
 70
     1
102
RTVSPropertyOp38
 70
     1
102
RTVSPropertyOp39
 70
     1
102
RTVSPropertyOp40
 70
     1
102
RTVSPropertyOp41
 70
     1
102
RTVSPropertyOp42
 70
     1
102
RTVSPropertyOp43
 70
     1
102
RTVSPropertyOp44
 70
     1
102
RTVSPropertyOp45
 70
     1
102
RTVSPropertyOp46
 70
     1
102
RTVSPropertyOp47
 70
     1
102
RTVSPropertyOp48
 70
     1
102
RTVSPropertyOp49
 70
     1
102
RTVSPropertyOp50
 70
     1
102
RTVSPropertyOp51
 70
     0
102
RTVSPropertyOp52
 70
     0
102
RTVSPropertyOp53
 70
     1
102
RTVSPropertyOp54
 70
     1
102
RTVSPropertyOp55
 70
     1
102
RTVSPropertyOp56
 70
     1
102
RTVSPropertyOp57
 70
     1
102
RTVSPropertyOp58
 70
     1
102
RTVSPropertyOp59
 70
     1
102
RTVSPropertyOp60
 70
     1
102
RTVSPropertyOp61
 70
     1
102
RTVSPropertyOp62
 70
     1
  0
XRECORD
  5
99EE
102
{ACAD_REACTORS
330
99ED
102
}
330
99ED
100
AcDbXrecord
280
     1
102
RTVSPost2010Prop28
280
     0
102
RTVSPost2010PropOp28
 70
     1
102
RTVSPost2010Prop29
280
     1
102
RTVSPost2010PropOp29
 70
     1
102
RTVSPost2010Prop30
280
     1
102
RTVSPost2010PropOp30
 70
     1
102
RTVSPost2010Prop31
280
     0
102
RTVSPost2010PropOp31
 70
     1
102
RTVSPost2010Prop32
280
     0
102
RTVSPost2010PropOp32
 70
     1
102
RTVSPost2010Prop33
280
     0
102
RTVSPost2010PropOp33
 70
     1
102
RTVSPost2010Prop34
280
     0
102
RTVSPost2010PropOp34
 70
     1
102
RTVSPost2010Prop35
280
     0
102
RTVSPost2010PropOp35
 70
     1
102
RTVSPost2010Prop36
280
     0
102
RTVSPost2010PropOp36
 70
     1
102
RTVSPost2010Prop37
 90
       50
102
RTVSPost2010PropOp37
 70
     0
102
RTVSPost2010Prop38
140
0.0
102
RTVSPost2010PropOp38
 70
     0
102
RTVSPost2010Prop39
140
1.0
102
RTVSPost2010PropOp39
 70
     0
102
RTVSPost2010Prop40
 90
        0
102
RTVSPost2010PropOp40
 70
     0
102
RTVSPost2010Prop41ColorIndex
 90
       18
102
RTVSPost2010Prop41ColorRGB
 90
        0
102
RTVSPost2010PropOp41
 70
     0
102
RTVSPost2010Prop42
 90
       50
102
RTVSPost2010PropOp42
 70
     0
102
RTVSPost2010Prop43
 90
        3
102
RTVSPost2010PropOp43
 70
     0
102
RTVSPost2010Prop44ColorIndex
 90
        5
102
RTVSPost2010Prop44ColorRGB
 90
      255
102
RTVSPost2010PropOp44
 70
     0
102
RTVSPost2010Prop45
280
     0
102
RTVSPost2010PropOp45
 70
     1
102
RTVSPost2010Prop46
 90
       50
102
RTVSPost2010PropOp46
 70
     0
102
RTVSPost2010Prop47
 90
       50
102
RTVSPost2010PropOp47
 70
     0
102
RTVSPost2010Prop48
 90
       50
102
RTVSPost2010PropOp48
 70
     0
102
RTVSPost2010Prop49
280
     0
102
RTVSPost2010PropOp49
 70
     1
102
RTVSPost2010Prop50
 90
       50
102
RTVSPost2010PropOp50
 70
     0
102
RTVSPost2010Prop51ColorIndex
 90
      256
102
RTVSPost2010Prop51ColorRGB
 90
-16777216
102
RTVSPost2010PropOp51
 70
     0
102
RTVSPost2010Prop52
140
1.0
102
RTVSPost2010PropOp52
 70
     0
102
RTVSPost2010Prop53
 90
        2
102
RTVSPost2010PropOp53
 70
     0
102
RTVSPost2010Prop54
  1
strokes_ogs.tif
102
RTVSPost2010PropOp54
 70
     0
102
RTVSPost2010Prop55
280
     0
102
RTVSPost2010PropOp55
 70
     1
102
RTVSPost2010Prop56
140
1.0
102
RTVSPost2010PropOp56
 70
     0
102
RTVSPost2010Prop57
140
1.0
102
RTVSPost2010PropOp57
 70
     0
102
RTVSPropertyOp0
 70
     0
102
RTVSPropertyOp1
 70
     0
102
RTVSPropertyOp2
 70
     0
102
RTVSPropertyOp3
 70
     0
102
RTVSPropertyOp4
 70
     0
102
RTVSPropertyOp5
 70
     0
102
RTVSPropertyOp6
 70
     0
102
RTVSPropertyOp7
 70
     0
102
RTVSPropertyOp8
 70
     0
102
RTVSPropertyOp9
 70
     0
102
RTVSPropertyOp10
 70
     0
102
RTVSPropertyOp11
 70
     0
102
RTVSPropertyOp12
 70
     0
102
RTVSPropertyOp13
 70
     0
102
RTVSPropertyOp14
 70
     2
102
RTVSPropertyOp15
 70
     0
102
RTVSPropertyOp16
 70
     0
102
RTVSPropertyOp17
 70
     0
102
RTVSPropertyOp18
 70
     0
102
RTVSPropertyOp19
 70
     0
102
RTVSPropertyOp20
 70
     0
102
RTVSPropertyOp21
 70
     0
102
RTVSPropertyOp22
 70
     0
102
RTVSPropertyOp23
 70
     0
102
RTVSPropertyOp24
 70
     0
102
RTVSPropertyOp25
 70
     0
102
RTVSPropertyOp26
 70
     0
102
RTVSPropertyOp27
 70
     0
102
RTVSPropertyOp28
 70
     1
102
RTVSPropertyOp29
 70
     1
102
RTVSPropertyOp30
 70
     1
102
RTVSPropertyOp31
 70
     1
102
RTVSPropertyOp32
 70
     1
102
RTVSPropertyOp33
 70
     1
102
RTVSPropertyOp34
 70
     1
102
RTVSPropertyOp35
 70
     1
102
RTVSPropertyOp36
 70
     1
102
RTVSPropertyOp37
 70
     0
102
RTVSPropertyOp38
 70
     0
102
RTVSPropertyOp39
 70
     0
102
RTVSPropertyOp40
 70
     0
102
RTVSPropertyOp41
 70
     0
102
RTVSPropertyOp42
 70
     0
102
RTVSPropertyOp43
 70
     0
102
RTVSPropertyOp44
 70
     0
102
RTVSPropertyOp45
 70
     1
102
RTVSPropertyOp46
 70
     0
102
RTVSPropertyOp47
 70
     0
102
RTVSPropertyOp48
 70
     0
102
RTVSPropertyOp49
 70
     1
102
RTVSPropertyOp50
 70
     0
102
RTVSPropertyOp51
 70
     0
102
RTVSPropertyOp52
 70
     0
102
RTVSPropertyOp53
 70
     0
102
RTVSPropertyOp54
 70
     0
102
RTVSPropertyOp55
 70
     1
102
RTVSPropertyOp56
 70
     0
102
RTVSPropertyOp57
 70
     0
102
RTVSPropertyOp58
 70
     0
102
RTVSPropertyOp59
 70
     0
102
RTVSPropertyOp60
 70
     0
102
RTVSPropertyOp61
 70
     0
102
RTVSPropertyOp62
 70
     0
  0
XRECORD
  5
99DC
102
{ACAD_REACTORS
330
99DB
102
}
330
99DB
100
AcDbXrecord
280
     1
102
RTVSPost2010Prop28
280
     0
102
RTVSPost2010PropOp28
 70
     1
102
RTVSPost2010Prop29
280
     1
102
RTVSPost2010PropOp29
 70
     1
102
RTVSPost2010Prop30
280
     1
102
RTVSPost2010PropOp30
 70
     1
102
RTVSPost2010Prop31
280
     0
102
RTVSPost2010PropOp31
 70
     1
102
RTVSPost2010Prop32
280
     0
102
RTVSPost2010PropOp32
 70
     1
102
RTVSPost2010Prop33
280
     0
102
RTVSPost2010PropOp33
 70
     1
102
RTVSPost2010Prop34
280
     0
102
RTVSPost2010PropOp34
 70
     1
102
RTVSPost2010Prop35
280
     0
102
RTVSPost2010PropOp35
 70
     1
102
RTVSPost2010Prop36
280
     0
102
RTVSPost2010PropOp36
 70
     1
102
RTVSPost2010Prop37
 90
       50
102
RTVSPost2010PropOp37
 70
     1
102
RTVSPost2010Prop38
140
0.0
102
RTVSPost2010PropOp38
 70
     1
102
RTVSPost2010Prop39
140
1.0
102
RTVSPost2010PropOp39
 70
     1
102
RTVSPost2010Prop40
 90
        0
102
RTVSPost2010PropOp40
 70
     1
102
RTVSPost2010Prop41ColorIndex
 90
       18
102
RTVSPost2010Prop41ColorRGB
 90
        0
102
RTVSPost2010PropOp41
 70
     1
102
RTVSPost2010Prop42
 90
       50
102
RTVSPost2010PropOp42
 70
     1
102
RTVSPost2010Prop43
 90
        3
102
RTVSPost2010PropOp43
 70
     1
102
RTVSPost2010Prop44ColorIndex
 90
        5
102
RTVSPost2010Prop44ColorRGB
 90
      255
102
RTVSPost2010PropOp44
 70
     1
102
RTVSPost2010Prop45
280
     0
102
RTVSPost2010PropOp45
 70
     1
102
RTVSPost2010Prop46
 90
       50
102
RTVSPost2010PropOp46
 70
     1
102
RTVSPost2010Prop47
 90
       50
102
RTVSPost2010PropOp47
 70
     1
102
RTVSPost2010Prop48
 90
       50
102
RTVSPost2010PropOp48
 70
     1
102
RTVSPost2010Prop49
280
     0
102
RTVSPost2010PropOp49
 70
     1
102
RTVSPost2010Prop50
 90
       50
102
RTVSPost2010PropOp50
 70
     1
102
RTVSPost2010Prop51ColorIndex
 90
      256
102
RTVSPost2010Prop51ColorRGB
 90
-16777216
102
RTVSPost2010PropOp51
 70
     0
102
RTVSPost2010Prop52
140
1.0
102
RTVSPost2010PropOp52
 70
     0
102
RTVSPost2010Prop53
 90
        2
102
RTVSPost2010PropOp53
 70
     1
102
RTVSPost2010Prop54
  1
strokes_ogs.tif
102
RTVSPost2010PropOp54
 70
     1
102
RTVSPost2010Prop55
280
     0
102
RTVSPost2010PropOp55
 70
     1
102
RTVSPost2010Prop56
140
1.0
102
RTVSPost2010PropOp56
 70
     1
102
RTVSPost2010Prop57
140
1.0
102
RTVSPost2010PropOp57
 70
     1
102
RTVSPropertyOp0
 70
     1
102
RTVSPropertyOp1
 70
     1
102
RTVSPropertyOp2
 70
     1
102
RTVSPropertyOp3
 70
     1
102
RTVSPropertyOp4
 70
     1
102
RTVSPropertyOp5
 70
     1
102
RTVSPropertyOp6
 70
     1
102
RTVSPropertyOp7
 70
     1
102
RTVSPropertyOp8
 70
     1
102
RTVSPropertyOp9
 70
     1
102
RTVSPropertyOp10
 70
     1
102
RTVSPropertyOp11
 70
     1
102
RTVSPropertyOp12
 70
     1
102
RTVSPropertyOp13
 70
     1
102
RTVSPropertyOp14
 70
     1
102
RTVSPropertyOp15
 70
     1
102
RTVSPropertyOp16
 70
     1
102
RTVSPropertyOp17
 70
     1
102
RTVSPropertyOp18
 70
     1
102
RTVSPropertyOp19
 70
     1
102
RTVSPropertyOp20
 70
     1
102
RTVSPropertyOp21
 70
     1
102
RTVSPropertyOp22
 70
     1
102
RTVSPropertyOp23
 70
     1
102
RTVSPropertyOp24
 70
     1
102
RTVSPropertyOp25
 70
     1
102
RTVSPropertyOp26
 70
     1
102
RTVSPropertyOp27
 70
     1
102
RTVSPropertyOp28
 70
     1
102
RTVSPropertyOp29
 70
     1
102
RTVSPropertyOp30
 70
     1
102
RTVSPropertyOp31
 70
     1
102
RTVSPropertyOp32
 70
     1
102
RTVSPropertyOp33
 70
     1
102
RTVSPropertyOp34
 70
     1
102
RTVSPropertyOp35
 70
     1
102
RTVSPropertyOp36
 70
     1
102
RTVSPropertyOp37
 70
     1
102
RTVSPropertyOp38
 70
     1
102
RTVSPropertyOp39
 70
     1
102
RTVSPropertyOp40
 70
     1
102
RTVSPropertyOp41
 70
     1
102
RTVSPropertyOp42
 70
     1
102
RTVSPropertyOp43
 70
     1
102
RTVSPropertyOp44
 70
     1
102
RTVSPropertyOp45
 70
     1
102
RTVSPropertyOp46
 70
     1
102
RTVSPropertyOp47
 70
     1
102
RTVSPropertyOp48
 70
     1
102
RTVSPropertyOp49
 70
     1
102
RTVSPropertyOp50
 70
     1
102
RTVSPropertyOp51
 70
     0
102
RTVSPropertyOp52
 70
     0
102
RTVSPropertyOp53
 70
     1
102
RTVSPropertyOp54
 70
     1
102
RTVSPropertyOp55
 70
     1
102
RTVSPropertyOp56
 70
     1
102
RTVSPropertyOp57
 70
     1
102
RTVSPropertyOp58
 70
     1
102
RTVSPropertyOp59
 70
     1
102
RTVSPropertyOp60
 70
     1
102
RTVSPropertyOp61
 70
     1
102
RTVSPropertyOp62
 70
     1
  0
XRECORD
  5
99C0
102
{ACAD_REACTORS
330
99BF
102
}
330
99BF
100
AcDbXrecord
280
     1
102
RTVSPost2010Prop28
280
     0
102
RTVSPost2010PropOp28
 70
     1
102
RTVSPost2010Prop29
280
     1
102
RTVSPost2010PropOp29
 70
     1
102
RTVSPost2010Prop30
280
     1
102
RTVSPost2010PropOp30
 70
     1
102
RTVSPost2010Prop31
280
     0
102
RTVSPost2010PropOp31
 70
     1
102
RTVSPost2010Prop32
280
     0
102
RTVSPost2010PropOp32
 70
     1
102
RTVSPost2010Prop33
280
     0
102
RTVSPost2010PropOp33
 70
     1
102
RTVSPost2010Prop34
280
     0
102
RTVSPost2010PropOp34
 70
     1
102
RTVSPost2010Prop35
280
     0
102
RTVSPost2010PropOp35
 70
     1
102
RTVSPost2010Prop36
280
     0
102
RTVSPost2010PropOp36
 70
     1
102
RTVSPost2010Prop37
 90
       50
102
RTVSPost2010PropOp37
 70
     1
102
RTVSPost2010Prop38
140
0.0
102
RTVSPost2010PropOp38
 70
     1
102
RTVSPost2010Prop39
140
1.0
102
RTVSPost2010PropOp39
 70
     1
102
RTVSPost2010Prop40
 90
        0
102
RTVSPost2010PropOp40
 70
     1
102
RTVSPost2010Prop41ColorIndex
 90
       18
102
RTVSPost2010Prop41ColorRGB
 90
        0
102
RTVSPost2010PropOp41
 70
     1
102
RTVSPost2010Prop42
 90
       50
102
RTVSPost2010PropOp42
 70
     1
102
RTVSPost2010Prop43
 90
        3
102
RTVSPost2010PropOp43
 70
     1
102
RTVSPost2010Prop44ColorIndex
 90
        5
102
RTVSPost2010Prop44ColorRGB
 90
      255
102
RTVSPost2010PropOp44
 70
     1
102
RTVSPost2010Prop45
280
     0
102
RTVSPost2010PropOp45
 70
     1
102
RTVSPost2010Prop46
 90
       50
102
RTVSPost2010PropOp46
 70
     1
102
RTVSPost2010Prop47
 90
       50
102
RTVSPost2010PropOp47
 70
     1
102
RTVSPost2010Prop48
 90
       50
102
RTVSPost2010PropOp48
 70
     1
102
RTVSPost2010Prop49
280
     0
102
RTVSPost2010PropOp49
 70
     1
102
RTVSPost2010Prop50
 90
       50
102
RTVSPost2010PropOp50
 70
     1
102
RTVSPost2010Prop51ColorIndex
 90
      256
102
RTVSPost2010Prop51ColorRGB
 90
-16777216
102
RTVSPost2010PropOp51
 70
     0
102
RTVSPost2010Prop52
140
1.0
102
RTVSPost2010PropOp52
 70
     0
102
RTVSPost2010Prop53
 90
        2
102
RTVSPost2010PropOp53
 70
     1
102
RTVSPost2010Prop54
  1
strokes_ogs.tif
102
RTVSPost2010PropOp54
 70
     1
102
RTVSPost2010Prop55
280
     0
102
RTVSPost2010PropOp55
 70
     1
102
RTVSPost2010Prop56
140
1.0
102
RTVSPost2010PropOp56
 70
     1
102
RTVSPost2010Prop57
140
1.0
102
RTVSPost2010PropOp57
 70
     1
102
RTVSPropertyOp0
 70
     1
102
RTVSPropertyOp1
 70
     1
102
RTVSPropertyOp2
 70
     1
102
RTVSPropertyOp3
 70
     1
102
RTVSPropertyOp4
 70
     1
102
RTVSPropertyOp5
 70
     1
102
RTVSPropertyOp6
 70
     1
102
RTVSPropertyOp7
 70
     1
102
RTVSPropertyOp8
 70
     1
102
RTVSPropertyOp9
 70
     1
102
RTVSPropertyOp10
 70
     1
102
RTVSPropertyOp11
 70
     1
102
RTVSPropertyOp12
 70
     1
102
RTVSPropertyOp13
 70
     1
102
RTVSPropertyOp14
 70
     1
102
RTVSPropertyOp15
 70
     1
102
RTVSPropertyOp16
 70
     1
102
RTVSPropertyOp17
 70
     1
102
RTVSPropertyOp18
 70
     1
102
RTVSPropertyOp19
 70
     1
102
RTVSPropertyOp20
 70
     1
102
RTVSPropertyOp21
 70
     1
102
RTVSPropertyOp22
 70
     1
102
RTVSPropertyOp23
 70
     1
102
RTVSPropertyOp24
 70
     1
102
RTVSPropertyOp25
 70
     1
102
RTVSPropertyOp26
 70
     1
102
RTVSPropertyOp27
 70
     1
102
RTVSPropertyOp28
 70
     1
102
RTVSPropertyOp29
 70
     1
102
RTVSPropertyOp30
 70
     1
102
RTVSPropertyOp31
 70
     1
102
RTVSPropertyOp32
 70
     1
102
RTVSPropertyOp33
 70
     1
102
RTVSPropertyOp34
 70
     1
102
RTVSPropertyOp35
 70
     1
102
RTVSPropertyOp36
 70
     1
102
RTVSPropertyOp37
 70
     1
102
RTVSPropertyOp38
 70
     1
102
RTVSPropertyOp39
 70
     1
102
RTVSPropertyOp40
 70
     1
102
RTVSPropertyOp41
 70
     1
102
RTVSPropertyOp42
 70
     1
102
RTVSPropertyOp43
 70
     1
102
RTVSPropertyOp44
 70
     1
102
RTVSPropertyOp45
 70
     1
102
RTVSPropertyOp46
 70
     1
102
RTVSPropertyOp47
 70
     1
102
RTVSPropertyOp48
 70
     1
102
RTVSPropertyOp49
 70
     1
102
RTVSPropertyOp50
 70
     1
102
RTVSPropertyOp51
 70
     0
102
RTVSPropertyOp52
 70
     0
102
RTVSPropertyOp53
 70
     1
102
RTVSPropertyOp54
 70
     1
102
RTVSPropertyOp55
 70
     1
102
RTVSPropertyOp56
 70
     1
102
RTVSPropertyOp57
 70
     1
102
RTVSPropertyOp58
 70
     1
102
RTVSPropertyOp59
 70
     1
102
RTVSPropertyOp60
 70
     1
102
RTVSPropertyOp61
 70
     1
102
RTVSPropertyOp62
 70
     1
  0
XRECORD
  5
99C2
102
{ACAD_REACTORS
330
99C1
102
}
330
99C1
100
AcDbXrecord
280
     1
102
RTVSPost2010Prop28
280
     0
102
RTVSPost2010PropOp28
 70
     1
102
RTVSPost2010Prop29
280
     1
102
RTVSPost2010PropOp29
 70
     1
102
RTVSPost2010Prop30
280
     1
102
RTVSPost2010PropOp30
 70
     1
102
RTVSPost2010Prop31
280
     0
102
RTVSPost2010PropOp31
 70
     1
102
RTVSPost2010Prop32
280
     0
102
RTVSPost2010PropOp32
 70
     1
102
RTVSPost2010Prop33
280
     0
102
RTVSPost2010PropOp33
 70
     1
102
RTVSPost2010Prop34
280
     0
102
RTVSPost2010PropOp34
 70
     1
102
RTVSPost2010Prop35
280
     0
102
RTVSPost2010PropOp35
 70
     1
102
RTVSPost2010Prop36
280
     0
102
RTVSPost2010PropOp36
 70
     1
102
RTVSPost2010Prop37
 90
       50
102
RTVSPost2010PropOp37
 70
     1
102
RTVSPost2010Prop38
140
0.0
102
RTVSPost2010PropOp38
 70
     1
102
RTVSPost2010Prop39
140
1.0
102
RTVSPost2010PropOp39
 70
     1
102
RTVSPost2010Prop40
 90
        0
102
RTVSPost2010PropOp40
 70
     1
102
RTVSPost2010Prop41ColorIndex
 90
       18
102
RTVSPost2010Prop41ColorRGB
 90
        0
102
RTVSPost2010PropOp41
 70
     1
102
RTVSPost2010Prop42
 90
       50
102
RTVSPost2010PropOp42
 70
     1
102
RTVSPost2010Prop43
 90
        3
102
RTVSPost2010PropOp43
 70
     1
102
RTVSPost2010Prop44ColorIndex
 90
        5
102
RTVSPost2010Prop44ColorRGB
 90
      255
102
RTVSPost2010PropOp44
 70
     1
102
RTVSPost2010Prop45
280
     0
102
RTVSPost2010PropOp45
 70
     1
102
RTVSPost2010Prop46
 90
       50
102
RTVSPost2010PropOp46
 70
     1
102
RTVSPost2010Prop47
 90
       50
102
RTVSPost2010PropOp47
 70
     1
102
RTVSPost2010Prop48
 90
       50
102
RTVSPost2010PropOp48
 70
     1
102
RTVSPost2010Prop49
280
     0
102
RTVSPost2010PropOp49
 70
     1
102
RTVSPost2010Prop50
 90
       50
102
RTVSPost2010PropOp50
 70
     1
102
RTVSPost2010Prop51ColorIndex
 90
      256
102
RTVSPost2010Prop51ColorRGB
 90
-16777216
102
RTVSPost2010PropOp51
 70
     0
102
RTVSPost2010Prop52
140
1.0
102
RTVSPost2010PropOp52
 70
     0
102
RTVSPost2010Prop53
 90
        2
102
RTVSPost2010PropOp53
 70
     1
102
RTVSPost2010Prop54
  1
strokes_ogs.tif
102
RTVSPost2010PropOp54
 70
     1
102
RTVSPost2010Prop55
280
     0
102
RTVSPost2010PropOp55
 70
     1
102
RTVSPost2010Prop56
140
1.0
102
RTVSPost2010PropOp56
 70
     1
102
RTVSPost2010Prop57
140
1.0
102
RTVSPost2010PropOp57
 70
     1
102
RTVSPropertyOp0
 70
     1
102
RTVSPropertyOp1
 70
     1
102
RTVSPropertyOp2
 70
     1
102
RTVSPropertyOp3
 70
     1
102
RTVSPropertyOp4
 70
     1
102
RTVSPropertyOp5
 70
     1
102
RTVSPropertyOp6
 70
     1
102
RTVSPropertyOp7
 70
     1
102
RTVSPropertyOp8
 70
     1
102
RTVSPropertyOp9
 70
     1
102
RTVSPropertyOp10
 70
     1
102
RTVSPropertyOp11
 70
     1
102
RTVSPropertyOp12
 70
     1
102
RTVSPropertyOp13
 70
     1
102
RTVSPropertyOp14
 70
     1
102
RTVSPropertyOp15
 70
     1
102
RTVSPropertyOp16
 70
     1
102
RTVSPropertyOp17
 70
     1
102
RTVSPropertyOp18
 70
     1
102
RTVSPropertyOp19
 70
     1
102
RTVSPropertyOp20
 70
     1
102
RTVSPropertyOp21
 70
     1
102
RTVSPropertyOp22
 70
     1
102
RTVSPropertyOp23
 70
     1
102
RTVSPropertyOp24
 70
     1
102
RTVSPropertyOp25
 70
     1
102
RTVSPropertyOp26
 70
     1
102
RTVSPropertyOp27
 70
     1
102
RTVSPropertyOp28
 70
     1
102
RTVSPropertyOp29
 70
     1
102
RTVSPropertyOp30
 70
     1
102
RTVSPropertyOp31
 70
     1
102
RTVSPropertyOp32
 70
     1
102
RTVSPropertyOp33
 70
     1
102
RTVSPropertyOp34
 70
     1
102
RTVSPropertyOp35
 70
     1
102
RTVSPropertyOp36
 70
     1
102
RTVSPropertyOp37
 70
     1
102
RTVSPropertyOp38
 70
     1
102
RTVSPropertyOp39
 70
     1
102
RTVSPropertyOp40
 70
     1
102
RTVSPropertyOp41
 70
     1
102
RTVSPropertyOp42
 70
     1
102
RTVSPropertyOp43
 70
     1
102
RTVSPropertyOp44
 70
     1
102
RTVSPropertyOp45
 70
     1
102
RTVSPropertyOp46
 70
     1
102
RTVSPropertyOp47
 70
     1
102
RTVSPropertyOp48
 70
     1
102
RTVSPropertyOp49
 70
     1
102
RTVSPropertyOp50
 70
     1
102
RTVSPropertyOp51
 70
     0
102
RTVSPropertyOp52
 70
     0
102
RTVSPropertyOp53
 70
     1
102
RTVSPropertyOp54
 70
     1
102
RTVSPropertyOp55
 70
     1
102
RTVSPropertyOp56
 70
     1
102
RTVSPropertyOp57
 70
     1
102
RTVSPropertyOp58
 70
     1
102
RTVSPropertyOp59
 70
     1
102
RTVSPropertyOp60
 70
     1
102
RTVSPropertyOp61
 70
     1
102
RTVSPropertyOp62
 70
     1
  0
XRECORD
  5
99C4
102
{ACAD_REACTORS
330
99C3
102
}
330
99C3
100
AcDbXrecord
280
     1
102
RTVSPost2010Prop28
280
     0
102
RTVSPost2010PropOp28
 70
     1
102
RTVSPost2010Prop29
280
     1
102
RTVSPost2010PropOp29
 70
     1
102
RTVSPost2010Prop30
280
     1
102
RTVSPost2010PropOp30
 70
     1
102
RTVSPost2010Prop31
280
     0
102
RTVSPost2010PropOp31
 70
     1
102
RTVSPost2010Prop32
280
     0
102
RTVSPost2010PropOp32
 70
     1
102
RTVSPost2010Prop33
280
     0
102
RTVSPost2010PropOp33
 70
     1
102
RTVSPost2010Prop34
280
     0
102
RTVSPost2010PropOp34
 70
     1
102
RTVSPost2010Prop35
280
     0
102
RTVSPost2010PropOp35
 70
     1
102
RTVSPost2010Prop36
280
     0
102
RTVSPost2010PropOp36
 70
     1
102
RTVSPost2010Prop37
 90
       50
102
RTVSPost2010PropOp37
 70
     1
102
RTVSPost2010Prop38
140
0.0
102
RTVSPost2010PropOp38
 70
     1
102
RTVSPost2010Prop39
140
1.0
102
RTVSPost2010PropOp39
 70
     1
102
RTVSPost2010Prop40
 90
        0
102
RTVSPost2010PropOp40
 70
     1
102
RTVSPost2010Prop41ColorIndex
 90
       18
102
RTVSPost2010Prop41ColorRGB
 90
        0
102
RTVSPost2010PropOp41
 70
     1
102
RTVSPost2010Prop42
 90
       50
102
RTVSPost2010PropOp42
 70
     1
102
RTVSPost2010Prop43
 90
        3
102
RTVSPost2010PropOp43
 70
     1
102
RTVSPost2010Prop44ColorIndex
 90
        5
102
RTVSPost2010Prop44ColorRGB
 90
      255
102
RTVSPost2010PropOp44
 70
     1
102
RTVSPost2010Prop45
280
     0
102
RTVSPost2010PropOp45
 70
     1
102
RTVSPost2010Prop46
 90
       50
102
RTVSPost2010PropOp46
 70
     1
102
RTVSPost2010Prop47
 90
       50
102
RTVSPost2010PropOp47
 70
     1
102
RTVSPost2010Prop48
 90
       50
102
RTVSPost2010PropOp48
 70
     1
102
RTVSPost2010Prop49
280
     0
102
RTVSPost2010PropOp49
 70
     1
102
RTVSPost2010Prop50
 90
       50
102
RTVSPost2010PropOp50
 70
     1
102
RTVSPost2010Prop51ColorIndex
 90
      256
102
RTVSPost2010Prop51ColorRGB
 90
-16777216
102
RTVSPost2010PropOp51
 70
     0
102
RTVSPost2010Prop52
140
1.0
102
RTVSPost2010PropOp52
 70
     0
102
RTVSPost2010Prop53
 90
        2
102
RTVSPost2010PropOp53
 70
     1
102
RTVSPost2010Prop54
  1
strokes_ogs.tif
102
RTVSPost2010PropOp54
 70
     1
102
RTVSPost2010Prop55
280
     0
102
RTVSPost2010PropOp55
 70
     1
102
RTVSPost2010Prop56
140
1.0
102
RTVSPost2010PropOp56
 70
     1
102
RTVSPost2010Prop57
140
1.0
102
RTVSPost2010PropOp57
 70
     1
102
RTVSPropertyOp0
 70
     1
102
RTVSPropertyOp1
 70
     1
102
RTVSPropertyOp2
 70
     1
102
RTVSPropertyOp3
 70
     1
102
RTVSPropertyOp4
 70
     1
102
RTVSPropertyOp5
 70
     1
102
RTVSPropertyOp6
 70
     1
102
RTVSPropertyOp7
 70
     1
102
RTVSPropertyOp8
 70
     1
102
RTVSPropertyOp9
 70
     1
102
RTVSPropertyOp10
 70
     1
102
RTVSPropertyOp11
 70
     1
102
RTVSPropertyOp12
 70
     1
102
RTVSPropertyOp13
 70
     1
102
RTVSPropertyOp14
 70
     1
102
RTVSPropertyOp15
 70
     1
102
RTVSPropertyOp16
 70
     1
102
RTVSPropertyOp17
 70
     1
102
RTVSPropertyOp18
 70
     1
102
RTVSPropertyOp19
 70
     1
102
RTVSPropertyOp20
 70
     1
102
RTVSPropertyOp21
 70
     1
102
RTVSPropertyOp22
 70
     1
102
RTVSPropertyOp23
 70
     1
102
RTVSPropertyOp24
 70
     1
102
RTVSPropertyOp25
 70
     1
102
RTVSPropertyOp26
 70
     1
102
RTVSPropertyOp27
 70
     1
102
RTVSPropertyOp28
 70
     1
102
RTVSPropertyOp29
 70
     1
102
RTVSPropertyOp30
 70
     1
102
RTVSPropertyOp31
 70
     1
102
RTVSPropertyOp32
 70
     1
102
RTVSPropertyOp33
 70
     1
102
RTVSPropertyOp34
 70
     1
102
RTVSPropertyOp35
 70
     1
102
RTVSPropertyOp36
 70
     1
102
RTVSPropertyOp37
 70
     1
102
RTVSPropertyOp38
 70
     1
102
RTVSPropertyOp39
 70
     1
102
RTVSPropertyOp40
 70
     1
102
RTVSPropertyOp41
 70
     1
102
RTVSPropertyOp42
 70
     1
102
RTVSPropertyOp43
 70
     1
102
RTVSPropertyOp44
 70
     1
102
RTVSPropertyOp45
 70
     1
102
RTVSPropertyOp46
 70
     1
102
RTVSPropertyOp47
 70
     1
102
RTVSPropertyOp48
 70
     1
102
RTVSPropertyOp49
 70
     1
102
RTVSPropertyOp50
 70
     1
102
RTVSPropertyOp51
 70
     0
102
RTVSPropertyOp52
 70
     0
102
RTVSPropertyOp53
 70
     1
102
RTVSPropertyOp54
 70
     1
102
RTVSPropertyOp55
 70
     1
102
RTVSPropertyOp56
 70
     1
102
RTVSPropertyOp57
 70
     1
102
RTVSPropertyOp58
 70
     1
102
RTVSPropertyOp59
 70
     1
102
RTVSPropertyOp60
 70
     1
102
RTVSPropertyOp61
 70
     1
102
RTVSPropertyOp62
 70
     1
  0
XRECORD
  5
99C6
102
{ACAD_REACTORS
330
99C5
102
}
330
99C5
100
AcDbXrecord
280
     1
102
RTVSPost2010Prop28
280
     0
102
RTVSPost2010PropOp28
 70
     1
102
RTVSPost2010Prop29
280
     1
102
RTVSPost2010PropOp29
 70
     1
102
RTVSPost2010Prop30
280
     1
102
RTVSPost2010PropOp30
 70
     1
102
RTVSPost2010Prop31
280
     0
102
RTVSPost2010PropOp31
 70
     1
102
RTVSPost2010Prop32
280
     0
102
RTVSPost2010PropOp32
 70
     1
102
RTVSPost2010Prop33
280
     0
102
RTVSPost2010PropOp33
 70
     1
102
RTVSPost2010Prop34
280
     0
102
RTVSPost2010PropOp34
 70
     1
102
RTVSPost2010Prop35
280
     0
102
RTVSPost2010PropOp35
 70
     1
102
RTVSPost2010Prop36
280
     0
102
RTVSPost2010PropOp36
 70
     1
102
RTVSPost2010Prop37
 90
       50
102
RTVSPost2010PropOp37
 70
     1
102
RTVSPost2010Prop38
140
0.0
102
RTVSPost2010PropOp38
 70
     1
102
RTVSPost2010Prop39
140
1.0
102
RTVSPost2010PropOp39
 70
     1
102
RTVSPost2010Prop40
 90
        0
102
RTVSPost2010PropOp40
 70
     1
102
RTVSPost2010Prop41ColorIndex
 90
       18
102
RTVSPost2010Prop41ColorRGB
 90
        0
102
RTVSPost2010PropOp41
 70
     1
102
RTVSPost2010Prop42
 90
       50
102
RTVSPost2010PropOp42
 70
     1
102
RTVSPost2010Prop43
 90
        3
102
RTVSPost2010PropOp43
 70
     1
102
RTVSPost2010Prop44ColorIndex
 90
        5
102
RTVSPost2010Prop44ColorRGB
 90
      255
102
RTVSPost2010PropOp44
 70
     1
102
RTVSPost2010Prop45
280
     0
102
RTVSPost2010PropOp45
 70
     1
102
RTVSPost2010Prop46
 90
       50
102
RTVSPost2010PropOp46
 70
     1
102
RTVSPost2010Prop47
 90
       50
102
RTVSPost2010PropOp47
 70
     1
102
RTVSPost2010Prop48
 90
       50
102
RTVSPost2010PropOp48
 70
     1
102
RTVSPost2010Prop49
280
     0
102
RTVSPost2010PropOp49
 70
     1
102
RTVSPost2010Prop50
 90
       50
102
RTVSPost2010PropOp50
 70
     1
102
RTVSPost2010Prop51ColorIndex
 90
      256
102
RTVSPost2010Prop51ColorRGB
 90
-16777216
102
RTVSPost2010PropOp51
 70
     0
102
RTVSPost2010Prop52
140
1.0
102
RTVSPost2010PropOp52
 70
     0
102
RTVSPost2010Prop53
 90
        2
102
RTVSPost2010PropOp53
 70
     1
102
RTVSPost2010Prop54
  1
strokes_ogs.tif
102
RTVSPost2010PropOp54
 70
     1
102
RTVSPost2010Prop55
280
     0
102
RTVSPost2010PropOp55
 70
     1
102
RTVSPost2010Prop56
140
1.0
102
RTVSPost2010PropOp56
 70
     1
102
RTVSPost2010Prop57
140
1.0
102
RTVSPost2010PropOp57
 70
     1
102
RTVSPropertyOp0
 70
     1
102
RTVSPropertyOp1
 70
     1
102
RTVSPropertyOp2
 70
     1
102
RTVSPropertyOp3
 70
     1
102
RTVSPropertyOp4
 70
     1
102
RTVSPropertyOp5
 70
     1
102
RTVSPropertyOp6
 70
     1
102
RTVSPropertyOp7
 70
     1
102
RTVSPropertyOp8
 70
     1
102
RTVSPropertyOp9
 70
     1
102
RTVSPropertyOp10
 70
     1
102
RTVSPropertyOp11
 70
     1
102
RTVSPropertyOp12
 70
     1
102
RTVSPropertyOp13
 70
     1
102
RTVSPropertyOp14
 70
     1
102
RTVSPropertyOp15
 70
     1
102
RTVSPropertyOp16
 70
     1
102
RTVSPropertyOp17
 70
     1
102
RTVSPropertyOp18
 70
     1
102
RTVSPropertyOp19
 70
     1
102
RTVSPropertyOp20
 70
     1
102
RTVSPropertyOp21
 70
     1
102
RTVSPropertyOp22
 70
     1
102
RTVSPropertyOp23
 70
     1
102
RTVSPropertyOp24
 70
     1
102
RTVSPropertyOp25
 70
     1
102
RTVSPropertyOp26
 70
     1
102
RTVSPropertyOp27
 70
     1
102
RTVSPropertyOp28
 70
     1
102
RTVSPropertyOp29
 70
     1
102
RTVSPropertyOp30
 70
     1
102
RTVSPropertyOp31
 70
     1
102
RTVSPropertyOp32
 70
     1
102
RTVSPropertyOp33
 70
     1
102
RTVSPropertyOp34
 70
     1
102
RTVSPropertyOp35
 70
     1
102
RTVSPropertyOp36
 70
     1
102
RTVSPropertyOp37
 70
     1
102
RTVSPropertyOp38
 70
     1
102
RTVSPropertyOp39
 70
     1
102
RTVSPropertyOp40
 70
     1
102
RTVSPropertyOp41
 70
     1
102
RTVSPropertyOp42
 70
     1
102
RTVSPropertyOp43
 70
     1
102
RTVSPropertyOp44
 70
     1
102
RTVSPropertyOp45
 70
     1
102
RTVSPropertyOp46
 70
     1
102
RTVSPropertyOp47
 70
     1
102
RTVSPropertyOp48
 70
     1
102
RTVSPropertyOp49
 70
     1
102
RTVSPropertyOp50
 70
     1
102
RTVSPropertyOp51
 70
     0
102
RTVSPropertyOp52
 70
     0
102
RTVSPropertyOp53
 70
     1
102
RTVSPropertyOp54
 70
     1
102
RTVSPropertyOp55
 70
     1
102
RTVSPropertyOp56
 70
     1
102
RTVSPropertyOp57
 70
     1
102
RTVSPropertyOp58
 70
     1
102
RTVSPropertyOp59
 70
     1
102
RTVSPropertyOp60
 70
     1
102
RTVSPropertyOp61
 70
     1
102
RTVSPropertyOp62
 70
     1
  0
XRECORD
  5
99CE
102
{ACAD_REACTORS
330
99CD
102
}
330
99CD
100
AcDbXrecord
280
     1
102
RTVSPost2010Prop28
280
     0
102
RTVSPost2010PropOp28
 70
     1
102
RTVSPost2010Prop29
280
     1
102
RTVSPost2010PropOp29
 70
     1
102
RTVSPost2010Prop30
280
     1
102
RTVSPost2010PropOp30
 70
     1
102
RTVSPost2010Prop31
280
     0
102
RTVSPost2010PropOp31
 70
     1
102
RTVSPost2010Prop32
280
     0
102
RTVSPost2010PropOp32
 70
     1
102
RTVSPost2010Prop33
280
     0
102
RTVSPost2010PropOp33
 70
     1
102
RTVSPost2010Prop34
280
     0
102
RTVSPost2010PropOp34
 70
     1
102
RTVSPost2010Prop35
280
     0
102
RTVSPost2010PropOp35
 70
     1
102
RTVSPost2010Prop36
280
     0
102
RTVSPost2010PropOp36
 70
     1
102
RTVSPost2010Prop37
 90
       50
102
RTVSPost2010PropOp37
 70
     1
102
RTVSPost2010Prop38
140
0.0
102
RTVSPost2010PropOp38
 70
     1
102
RTVSPost2010Prop39
140
1.0
102
RTVSPost2010PropOp39
 70
     1
102
RTVSPost2010Prop40
 90
        0
102
RTVSPost2010PropOp40
 70
     1
102
RTVSPost2010Prop41ColorIndex
 90
       18
102
RTVSPost2010Prop41ColorRGB
 90
        0
102
RTVSPost2010PropOp41
 70
     1
102
RTVSPost2010Prop42
 90
       50
102
RTVSPost2010PropOp42
 70
     1
102
RTVSPost2010Prop43
 90
        3
102
RTVSPost2010PropOp43
 70
     1
102
RTVSPost2010Prop44ColorIndex
 90
        5
102
RTVSPost2010Prop44ColorRGB
 90
      255
102
RTVSPost2010PropOp44
 70
     1
102
RTVSPost2010Prop45
280
     0
102
RTVSPost2010PropOp45
 70
     1
102
RTVSPost2010Prop46
 90
       50
102
RTVSPost2010PropOp46
 70
     1
102
RTVSPost2010Prop47
 90
       50
102
RTVSPost2010PropOp47
 70
     1
102
RTVSPost2010Prop48
 90
       50
102
RTVSPost2010PropOp48
 70
     1
102
RTVSPost2010Prop49
280
     0
102
RTVSPost2010PropOp49
 70
     1
102
RTVSPost2010Prop50
 90
       50
102
RTVSPost2010PropOp50
 70
     1
102
RTVSPost2010Prop51ColorIndex
 90
      256
102
RTVSPost2010Prop51ColorRGB
 90
-16777216
102
RTVSPost2010PropOp51
 70
     0
102
RTVSPost2010Prop52
140
1.0
102
RTVSPost2010PropOp52
 70
     0
102
RTVSPost2010Prop53
 90
        2
102
RTVSPost2010PropOp53
 70
     1
102
RTVSPost2010Prop54
  1
strokes_ogs.tif
102
RTVSPost2010PropOp54
 70
     1
102
RTVSPost2010Prop55
280
     0
102
RTVSPost2010PropOp55
 70
     1
102
RTVSPost2010Prop56
140
1.0
102
RTVSPost2010PropOp56
 70
     1
102
RTVSPost2010Prop57
140
1.0
102
RTVSPost2010PropOp57
 70
     1
102
RTVSPropertyOp0
 70
     1
102
RTVSPropertyOp1
 70
     1
102
RTVSPropertyOp2
 70
     1
102
RTVSPropertyOp3
 70
     1
102
RTVSPropertyOp4
 70
     1
102
RTVSPropertyOp5
 70
     1
102
RTVSPropertyOp6
 70
     1
102
RTVSPropertyOp7
 70
     1
102
RTVSPropertyOp8
 70
     1
102
RTVSPropertyOp9
 70
     1
102
RTVSPropertyOp10
 70
     1
102
RTVSPropertyOp11
 70
     1
102
RTVSPropertyOp12
 70
     1
102
RTVSPropertyOp13
 70
     1
102
RTVSPropertyOp14
 70
     1
102
RTVSPropertyOp15
 70
     1
102
RTVSPropertyOp16
 70
     1
102
RTVSPropertyOp17
 70
     1
102
RTVSPropertyOp18
 70
     1
102
RTVSPropertyOp19
 70
     1
102
RTVSPropertyOp20
 70
     1
102
RTVSPropertyOp21
 70
     1
102
RTVSPropertyOp22
 70
     1
102
RTVSPropertyOp23
 70
     1
102
RTVSPropertyOp24
 70
     1
102
RTVSPropertyOp25
 70
     1
102
RTVSPropertyOp26
 70
     1
102
RTVSPropertyOp27
 70
     1
102
RTVSPropertyOp28
 70
     1
102
RTVSPropertyOp29
 70
     1
102
RTVSPropertyOp30
 70
     1
102
RTVSPropertyOp31
 70
     1
102
RTVSPropertyOp32
 70
     1
102
RTVSPropertyOp33
 70
     1
102
RTVSPropertyOp34
 70
     1
102
RTVSPropertyOp35
 70
     1
102
RTVSPropertyOp36
 70
     1
102
RTVSPropertyOp37
 70
     1
102
RTVSPropertyOp38
 70
     1
102
RTVSPropertyOp39
 70
     1
102
RTVSPropertyOp40
 70
     1
102
RTVSPropertyOp41
 70
     1
102
RTVSPropertyOp42
 70
     1
102
RTVSPropertyOp43
 70
     1
102
RTVSPropertyOp44
 70
     1
102
RTVSPropertyOp45
 70
     1
102
RTVSPropertyOp46
 70
     1
102
RTVSPropertyOp47
 70
     1
102
RTVSPropertyOp48
 70
     1
102
RTVSPropertyOp49
 70
     1
102
RTVSPropertyOp50
 70
     1
102
RTVSPropertyOp51
 70
     0
102
RTVSPropertyOp52
 70
     0
102
RTVSPropertyOp53
 70
     1
102
RTVSPropertyOp54
 70
     1
102
RTVSPropertyOp55
 70
     1
102
RTVSPropertyOp56
 70
     1
102
RTVSPropertyOp57
 70
     1
102
RTVSPropertyOp58
 70
     1
102
RTVSPropertyOp59
 70
     1
102
RTVSPropertyOp60
 70
     1
102
RTVSPropertyOp61
 70
     1
102
RTVSPropertyOp62
 70
     1
  0
XRECORD
  5
99EA
102
{ACAD_REACTORS
330
99E9
102
}
330
99E9
100
AcDbXrecord
280
     1
102
RTVSPost2010Prop28
280
     0
102
RTVSPost2010PropOp28
 70
     1
102
RTVSPost2010Prop29
280
     1
102
RTVSPost2010PropOp29
 70
     1
102
RTVSPost2010Prop30
280
     1
102
RTVSPost2010PropOp30
 70
     1
102
RTVSPost2010Prop31
280
     0
102
RTVSPost2010PropOp31
 70
     1
102
RTVSPost2010Prop32
280
     0
102
RTVSPost2010PropOp32
 70
     1
102
RTVSPost2010Prop33
280
     0
102
RTVSPost2010PropOp33
 70
     1
102
RTVSPost2010Prop34
280
     0
102
RTVSPost2010PropOp34
 70
     1
102
RTVSPost2010Prop35
280
     0
102
RTVSPost2010PropOp35
 70
     1
102
RTVSPost2010Prop36
280
     0
102
RTVSPost2010PropOp36
 70
     1
102
RTVSPost2010Prop37
 90
       50
102
RTVSPost2010PropOp37
 70
     0
102
RTVSPost2010Prop38
140
0.0
102
RTVSPost2010PropOp38
 70
     0
102
RTVSPost2010Prop39
140
1.0
102
RTVSPost2010PropOp39
 70
     0
102
RTVSPost2010Prop40
 90
        0
102
RTVSPost2010PropOp40
 70
     0
102
RTVSPost2010Prop41ColorIndex
 90
       18
102
RTVSPost2010Prop41ColorRGB
 90
        0
102
RTVSPost2010PropOp41
 70
     0
102
RTVSPost2010Prop42
 90
       50
102
RTVSPost2010PropOp42
 70
     0
102
RTVSPost2010Prop43
 90
        3
102
RTVSPost2010PropOp43
 70
     0
102
RTVSPost2010Prop44ColorIndex
 90
        5
102
RTVSPost2010Prop44ColorRGB
 90
      255
102
RTVSPost2010PropOp44
 70
     0
102
RTVSPost2010Prop45
280
     0
102
RTVSPost2010PropOp45
 70
     1
102
RTVSPost2010Prop46
 90
       50
102
RTVSPost2010PropOp46
 70
     0
102
RTVSPost2010Prop47
 90
       50
102
RTVSPost2010PropOp47
 70
     0
102
RTVSPost2010Prop48
 90
       50
102
RTVSPost2010PropOp48
 70
     0
102
RTVSPost2010Prop49
280
     0
102
RTVSPost2010PropOp49
 70
     1
102
RTVSPost2010Prop50
 90
       50
102
RTVSPost2010PropOp50
 70
     0
102
RTVSPost2010Prop51ColorIndex
 90
      256
102
RTVSPost2010Prop51ColorRGB
 90
-16777216
102
RTVSPost2010PropOp51
 70
     0
102
RTVSPost2010Prop52
140
1.0
102
RTVSPost2010PropOp52
 70
     0
102
RTVSPost2010Prop53
 90
        2
102
RTVSPost2010PropOp53
 70
     0
102
RTVSPost2010Prop54
  1
strokes_ogs.tif
102
RTVSPost2010PropOp54
 70
     0
102
RTVSPost2010Prop55
280
     0
102
RTVSPost2010PropOp55
 70
     1
102
RTVSPost2010Prop56
140
1.0
102
RTVSPost2010PropOp56
 70
     0
102
RTVSPost2010Prop57
140
1.0
102
RTVSPost2010PropOp57
 70
     0
102
RTVSPropertyOp0
 70
     0
102
RTVSPropertyOp1
 70
     0
102
RTVSPropertyOp2
 70
     0
102
RTVSPropertyOp3
 70
     0
102
RTVSPropertyOp4
 70
     0
102
RTVSPropertyOp5
 70
     0
102
RTVSPropertyOp6
 70
     0
102
RTVSPropertyOp7
 70
     0
102
RTVSPropertyOp8
 70
     0
102
RTVSPropertyOp9
 70
     0
102
RTVSPropertyOp10
 70
     0
102
RTVSPropertyOp11
 70
     0
102
RTVSPropertyOp12
 70
     0
102
RTVSPropertyOp13
 70
     0
102
RTVSPropertyOp14
 70
     2
102
RTVSPropertyOp15
 70
     0
102
RTVSPropertyOp16
 70
     0
102
RTVSPropertyOp17
 70
     0
102
RTVSPropertyOp18
 70
     0
102
RTVSPropertyOp19
 70
     0
102
RTVSPropertyOp20
 70
     0
102
RTVSPropertyOp21
 70
     0
102
RTVSPropertyOp22
 70
     0
102
RTVSPropertyOp23
 70
     0
102
RTVSPropertyOp24
 70
     0
102
RTVSPropertyOp25
 70
     0
102
RTVSPropertyOp26
 70
     0
102
RTVSPropertyOp27
 70
     0
102
RTVSPropertyOp28
 70
     1
102
RTVSPropertyOp29
 70
     1
102
RTVSPropertyOp30
 70
     1
102
RTVSPropertyOp31
 70
     1
102
RTVSPropertyOp32
 70
     1
102
RTVSPropertyOp33
 70
     1
102
RTVSPropertyOp34
 70
     1
102
RTVSPropertyOp35
 70
     1
102
RTVSPropertyOp36
 70
     1
102
RTVSPropertyOp37
 70
     0
102
RTVSPropertyOp38
 70
     0
102
RTVSPropertyOp39
 70
     0
102
RTVSPropertyOp40
 70
     0
102
RTVSPropertyOp41
 70
     0
102
RTVSPropertyOp42
 70
     0
102
RTVSPropertyOp43
 70
     0
102
RTVSPropertyOp44
 70
     0
102
RTVSPropertyOp45
 70
     1
102
RTVSPropertyOp46
 70
     0
102
RTVSPropertyOp47
 70
     0
102
RTVSPropertyOp48
 70
     0
102
RTVSPropertyOp49
 70
     1
102
RTVSPropertyOp50
 70
     0
102
RTVSPropertyOp51
 70
     0
102
RTVSPropertyOp52
 70
     0
102
RTVSPropertyOp53
 70
     0
102
RTVSPropertyOp54
 70
     0
102
RTVSPropertyOp55
 70
     1
102
RTVSPropertyOp56
 70
     0
102
RTVSPropertyOp57
 70
     0
102
RTVSPropertyOp58
 70
     0
102
RTVSPropertyOp59
 70
     0
102
RTVSPropertyOp60
 70
     0
102
RTVSPropertyOp61
 70
     0
102
RTVSPropertyOp62
 70
     0
  0
XRECORD
  5
99DA
102
{ACAD_REACTORS
330
99D9
102
}
330
99D9
100
AcDbXrecord
280
     1
102
RTVSPost2010Prop28
280
     0
102
RTVSPost2010PropOp28
 70
     1
102
RTVSPost2010Prop29
280
     1
102
RTVSPost2010PropOp29
 70
     1
102
RTVSPost2010Prop30
280
     1
102
RTVSPost2010PropOp30
 70
     1
102
RTVSPost2010Prop31
280
     0
102
RTVSPost2010PropOp31
 70
     1
102
RTVSPost2010Prop32
280
     0
102
RTVSPost2010PropOp32
 70
     1
102
RTVSPost2010Prop33
280
     0
102
RTVSPost2010PropOp33
 70
     1
102
RTVSPost2010Prop34
280
     0
102
RTVSPost2010PropOp34
 70
     1
102
RTVSPost2010Prop35
280
     0
102
RTVSPost2010PropOp35
 70
     1
102
RTVSPost2010Prop36
280
     0
102
RTVSPost2010PropOp36
 70
     1
102
RTVSPost2010Prop37
 90
       50
102
RTVSPost2010PropOp37
 70
     1
102
RTVSPost2010Prop38
140
0.0
102
RTVSPost2010PropOp38
 70
     1
102
RTVSPost2010Prop39
140
1.0
102
RTVSPost2010PropOp39
 70
     1
102
RTVSPost2010Prop40
 90
        0
102
RTVSPost2010PropOp40
 70
     1
102
RTVSPost2010Prop41ColorIndex
 90
       18
102
RTVSPost2010Prop41ColorRGB
 90
        0
102
RTVSPost2010PropOp41
 70
     1
102
RTVSPost2010Prop42
 90
       50
102
RTVSPost2010PropOp42
 70
     1
102
RTVSPost2010Prop43
 90
        3
102
RTVSPost2010PropOp43
 70
     1
102
RTVSPost2010Prop44ColorIndex
 90
        5
102
RTVSPost2010Prop44ColorRGB
 90
      255
102
RTVSPost2010PropOp44
 70
     1
102
RTVSPost2010Prop45
280
     0
102
RTVSPost2010PropOp45
 70
     1
102
RTVSPost2010Prop46
 90
       50
102
RTVSPost2010PropOp46
 70
     1
102
RTVSPost2010Prop47
 90
       50
102
RTVSPost2010PropOp47
 70
     1
102
RTVSPost2010Prop48
 90
       50
102
RTVSPost2010PropOp48
 70
     1
102
RTVSPost2010Prop49
280
     0
102
RTVSPost2010PropOp49
 70
     1
102
RTVSPost2010Prop50
 90
       50
102
RTVSPost2010PropOp50
 70
     1
102
RTVSPost2010Prop51ColorIndex
 90
      256
102
RTVSPost2010Prop51ColorRGB
 90
-16777216
102
RTVSPost2010PropOp51
 70
     0
102
RTVSPost2010Prop52
140
1.0
102
RTVSPost2010PropOp52
 70
     0
102
RTVSPost2010Prop53
 90
        2
102
RTVSPost2010PropOp53
 70
     1
102
RTVSPost2010Prop54
  1
strokes_ogs.tif
102
RTVSPost2010PropOp54
 70
     1
102
RTVSPost2010Prop55
280
     0
102
RTVSPost2010PropOp55
 70
     1
102
RTVSPost2010Prop56
140
1.0
102
RTVSPost2010PropOp56
 70
     1
102
RTVSPost2010Prop57
140
1.0
102
RTVSPost2010PropOp57
 70
     1
102
RTVSPropertyOp0
 70
     1
102
RTVSPropertyOp1
 70
     1
102
RTVSPropertyOp2
 70
     1
102
RTVSPropertyOp3
 70
     1
102
RTVSPropertyOp4
 70
     1
102
RTVSPropertyOp5
 70
     1
102
RTVSPropertyOp6
 70
     1
102
RTVSPropertyOp7
 70
     1
102
RTVSPropertyOp8
 70
     1
102
RTVSPropertyOp9
 70
     1
102
RTVSPropertyOp10
 70
     1
102
RTVSPropertyOp11
 70
     1
102
RTVSPropertyOp12
 70
     1
102
RTVSPropertyOp13
 70
     1
102
RTVSPropertyOp14
 70
     1
102
RTVSPropertyOp15
 70
     1
102
RTVSPropertyOp16
 70
     1
102
RTVSPropertyOp17
 70
     1
102
RTVSPropertyOp18
 70
     1
102
RTVSPropertyOp19
 70
     1
102
RTVSPropertyOp20
 70
     1
102
RTVSPropertyOp21
 70
     1
102
RTVSPropertyOp22
 70
     1
102
RTVSPropertyOp23
 70
     1
102
RTVSPropertyOp24
 70
     1
102
RTVSPropertyOp25
 70
     1
102
RTVSPropertyOp26
 70
     1
102
RTVSPropertyOp27
 70
     1
102
RTVSPropertyOp28
 70
     1
102
RTVSPropertyOp29
 70
     1
102
RTVSPropertyOp30
 70
     1
102
RTVSPropertyOp31
 70
     1
102
RTVSPropertyOp32
 70
     1
102
RTVSPropertyOp33
 70
     1
102
RTVSPropertyOp34
 70
     1
102
RTVSPropertyOp35
 70
     1
102
RTVSPropertyOp36
 70
     1
102
RTVSPropertyOp37
 70
     1
102
RTVSPropertyOp38
 70
     1
102
RTVSPropertyOp39
 70
     1
102
RTVSPropertyOp40
 70
     1
102
RTVSPropertyOp41
 70
     1
102
RTVSPropertyOp42
 70
     1
102
RTVSPropertyOp43
 70
     1
102
RTVSPropertyOp44
 70
     1
102
RTVSPropertyOp45
 70
     1
102
RTVSPropertyOp46
 70
     1
102
RTVSPropertyOp47
 70
     1
102
RTVSPropertyOp48
 70
     1
102
RTVSPropertyOp49
 70
     1
102
RTVSPropertyOp50
 70
     1
102
RTVSPropertyOp51
 70
     0
102
RTVSPropertyOp52
 70
     0
102
RTVSPropertyOp53
 70
     1
102
RTVSPropertyOp54
 70
     1
102
RTVSPropertyOp55
 70
     1
102
RTVSPropertyOp56
 70
     1
102
RTVSPropertyOp57
 70
     1
102
RTVSPropertyOp58
 70
     1
102
RTVSPropertyOp59
 70
     1
102
RTVSPropertyOp60
 70
     1
102
RTVSPropertyOp61
 70
     1
102
RTVSPropertyOp62
 70
     1
  0
XRECORD
  5
99EC
102
{ACAD_REACTORS
330
99EB
102
}
330
99EB
100
AcDbXrecord
280
     1
102
RTVSPost2010Prop28
280
     0
102
RTVSPost2010PropOp28
 70
     1
102
RTVSPost2010Prop29
280
     1
102
RTVSPost2010PropOp29
 70
     1
102
RTVSPost2010Prop30
280
     1
102
RTVSPost2010PropOp30
 70
     1
102
RTVSPost2010Prop31
280
     0
102
RTVSPost2010PropOp31
 70
     1
102
RTVSPost2010Prop32
280
     0
102
RTVSPost2010PropOp32
 70
     1
102
RTVSPost2010Prop33
280
     0
102
RTVSPost2010PropOp33
 70
     1
102
RTVSPost2010Prop34
280
     0
102
RTVSPost2010PropOp34
 70
     1
102
RTVSPost2010Prop35
280
     0
102
RTVSPost2010PropOp35
 70
     1
102
RTVSPost2010Prop36
280
     0
102
RTVSPost2010PropOp36
 70
     1
102
RTVSPost2010Prop37
 90
       50
102
RTVSPost2010PropOp37
 70
     0
102
RTVSPost2010Prop38
140
0.0
102
RTVSPost2010PropOp38
 70
     0
102
RTVSPost2010Prop39
140
1.0
102
RTVSPost2010PropOp39
 70
     0
102
RTVSPost2010Prop40
 90
        0
102
RTVSPost2010PropOp40
 70
     0
102
RTVSPost2010Prop41ColorIndex
 90
       18
102
RTVSPost2010Prop41ColorRGB
 90
        0
102
RTVSPost2010PropOp41
 70
     0
102
RTVSPost2010Prop42
 90
       50
102
RTVSPost2010PropOp42
 70
     0
102
RTVSPost2010Prop43
 90
        3
102
RTVSPost2010PropOp43
 70
     0
102
RTVSPost2010Prop44ColorIndex
 90
        5
102
RTVSPost2010Prop44ColorRGB
 90
      255
102
RTVSPost2010PropOp44
 70
     0
102
RTVSPost2010Prop45
280
     0
102
RTVSPost2010PropOp45
 70
     1
102
RTVSPost2010Prop46
 90
       50
102
RTVSPost2010PropOp46
 70
     0
102
RTVSPost2010Prop47
 90
       50
102
RTVSPost2010PropOp47
 70
     0
102
RTVSPost2010Prop48
 90
       50
102
RTVSPost2010PropOp48
 70
     0
102
RTVSPost2010Prop49
280
     0
102
RTVSPost2010PropOp49
 70
     1
102
RTVSPost2010Prop50
 90
       50
102
RTVSPost2010PropOp50
 70
     0
102
RTVSPost2010Prop51ColorIndex
 90
      256
102
RTVSPost2010Prop51ColorRGB
 90
-16777216
102
RTVSPost2010PropOp51
 70
     0
102
RTVSPost2010Prop52
140
1.0
102
RTVSPost2010PropOp52
 70
     0
102
RTVSPost2010Prop53
 90
        2
102
RTVSPost2010PropOp53
 70
     0
102
RTVSPost2010Prop54
  1
strokes_ogs.tif
102
RTVSPost2010PropOp54
 70
     0
102
RTVSPost2010Prop55
280
     0
102
RTVSPost2010PropOp55
 70
     1
102
RTVSPost2010Prop56
140
1.0
102
RTVSPost2010PropOp56
 70
     0
102
RTVSPost2010Prop57
140
1.0
102
RTVSPost2010PropOp57
 70
     0
102
RTVSPropertyOp0
 70
     0
102
RTVSPropertyOp1
 70
     0
102
RTVSPropertyOp2
 70
     0
102
RTVSPropertyOp3
 70
     0
102
RTVSPropertyOp4
 70
     0
102
RTVSPropertyOp5
 70
     0
102
RTVSPropertyOp6
 70
     0
102
RTVSPropertyOp7
 70
     0
102
RTVSPropertyOp8
 70
     0
102
RTVSPropertyOp9
 70
     0
102
RTVSPropertyOp10
 70
     0
102
RTVSPropertyOp11
 70
     0
102
RTVSPropertyOp12
 70
     0
102
RTVSPropertyOp13
 70
     0
102
RTVSPropertyOp14
 70
     2
102
RTVSPropertyOp15
 70
     0
102
RTVSPropertyOp16
 70
     0
102
RTVSPropertyOp17
 70
     0
102
RTVSPropertyOp18
 70
     0
102
RTVSPropertyOp19
 70
     0
102
RTVSPropertyOp20
 70
     0
102
RTVSPropertyOp21
 70
     0
102
RTVSPropertyOp22
 70
     0
102
RTVSPropertyOp23
 70
     0
102
RTVSPropertyOp24
 70
     0
102
RTVSPropertyOp25
 70
     0
102
RTVSPropertyOp26
 70
     0
102
RTVSPropertyOp27
 70
     0
102
RTVSPropertyOp28
 70
     1
102
RTVSPropertyOp29
 70
     1
102
RTVSPropertyOp30
 70
     1
102
RTVSPropertyOp31
 70
     1
102
RTVSPropertyOp32
 70
     1
102
RTVSPropertyOp33
 70
     1
102
RTVSPropertyOp34
 70
     1
102
RTVSPropertyOp35
 70
     1
102
RTVSPropertyOp36
 70
     1
102
RTVSPropertyOp37
 70
     0
102
RTVSPropertyOp38
 70
     0
102
RTVSPropertyOp39
 70
     0
102
RTVSPropertyOp40
 70
     0
102
RTVSPropertyOp41
 70
     0
102
RTVSPropertyOp42
 70
     0
102
RTVSPropertyOp43
 70
     0
102
RTVSPropertyOp44
 70
     0
102
RTVSPropertyOp45
 70
     1
102
RTVSPropertyOp46
 70
     0
102
RTVSPropertyOp47
 70
     0
102
RTVSPropertyOp48
 70
     0
102
RTVSPropertyOp49
 70
     1
102
RTVSPropertyOp50
 70
     0
102
RTVSPropertyOp51
 70
     0
102
RTVSPropertyOp52
 70
     0
102
RTVSPropertyOp53
 70
     0
102
RTVSPropertyOp54
 70
     0
102
RTVSPropertyOp55
 70
     1
102
RTVSPropertyOp56
 70
     0
102
RTVSPropertyOp57
 70
     0
102
RTVSPropertyOp58
 70
     0
102
RTVSPropertyOp59
 70
     0
102
RTVSPropertyOp60
 70
     0
102
RTVSPropertyOp61
 70
     0
102
RTVSPropertyOp62
 70
     0
  0
XRECORD
  5
99D2
102
{ACAD_REACTORS
330
99D1
102
}
330
99D1
100
AcDbXrecord
280
     1
102
RTVSPost2010Prop28
280
     0
102
RTVSPost2010PropOp28
 70
     1
102
RTVSPost2010Prop29
280
     1
102
RTVSPost2010PropOp29
 70
     1
102
RTVSPost2010Prop30
280
     1
102
RTVSPost2010PropOp30
 70
     1
102
RTVSPost2010Prop31
280
     0
102
RTVSPost2010PropOp31
 70
     1
102
RTVSPost2010Prop32
280
     0
102
RTVSPost2010PropOp32
 70
     1
102
RTVSPost2010Prop33
280
     0
102
RTVSPost2010PropOp33
 70
     1
102
RTVSPost2010Prop34
280
     0
102
RTVSPost2010PropOp34
 70
     1
102
RTVSPost2010Prop35
280
     0
102
RTVSPost2010PropOp35
 70
     1
102
RTVSPost2010Prop36
280
     0
102
RTVSPost2010PropOp36
 70
     1
102
RTVSPost2010Prop37
 90
       50
102
RTVSPost2010PropOp37
 70
     1
102
RTVSPost2010Prop38
140
0.0
102
RTVSPost2010PropOp38
 70
     1
102
RTVSPost2010Prop39
140
1.0
102
RTVSPost2010PropOp39
 70
     1
102
RTVSPost2010Prop40
 90
        0
102
RTVSPost2010PropOp40
 70
     1
102
RTVSPost2010Prop41ColorIndex
 90
       18
102
RTVSPost2010Prop41ColorRGB
 90
        0
102
RTVSPost2010PropOp41
 70
     1
102
RTVSPost2010Prop42
 90
       50
102
RTVSPost2010PropOp42
 70
     1
102
RTVSPost2010Prop43
 90
        3
102
RTVSPost2010PropOp43
 70
     1
102
RTVSPost2010Prop44ColorIndex
 90
        5
102
RTVSPost2010Prop44ColorRGB
 90
      255
102
RTVSPost2010PropOp44
 70
     1
102
RTVSPost2010Prop45
280
     0
102
RTVSPost2010PropOp45
 70
     1
102
RTVSPost2010Prop46
 90
       50
102
RTVSPost2010PropOp46
 70
     1
102
RTVSPost2010Prop47
 90
       50
102
RTVSPost2010PropOp47
 70
     1
102
RTVSPost2010Prop48
 90
       50
102
RTVSPost2010PropOp48
 70
     1
102
RTVSPost2010Prop49
280
     0
102
RTVSPost2010PropOp49
 70
     1
102
RTVSPost2010Prop50
 90
       50
102
RTVSPost2010PropOp50
 70
     1
102
RTVSPost2010Prop51ColorIndex
 90
      256
102
RTVSPost2010Prop51ColorRGB
 90
-16777216
102
RTVSPost2010PropOp51
 70
     0
102
RTVSPost2010Prop52
140
1.0
102
RTVSPost2010PropOp52
 70
     0
102
RTVSPost2010Prop53
 90
        2
102
RTVSPost2010PropOp53
 70
     1
102
RTVSPost2010Prop54
  1
strokes_ogs.tif
102
RTVSPost2010PropOp54
 70
     1
102
RTVSPost2010Prop55
280
     0
102
RTVSPost2010PropOp55
 70
     1
102
RTVSPost2010Prop56
140
1.0
102
RTVSPost2010PropOp56
 70
     1
102
RTVSPost2010Prop57
140
1.0
102
RTVSPost2010PropOp57
 70
     1
102
RTVSPropertyOp0
 70
     1
102
RTVSPropertyOp1
 70
     1
102
RTVSPropertyOp2
 70
     1
102
RTVSPropertyOp3
 70
     1
102
RTVSPropertyOp4
 70
     1
102
RTVSPropertyOp5
 70
     1
102
RTVSPropertyOp6
 70
     1
102
RTVSPropertyOp7
 70
     1
102
RTVSPropertyOp8
 70
     1
102
RTVSPropertyOp9
 70
     1
102
RTVSPropertyOp10
 70
     1
102
RTVSPropertyOp11
 70
     1
102
RTVSPropertyOp12
 70
     1
102
RTVSPropertyOp13
 70
     1
102
RTVSPropertyOp14
 70
     1
102
RTVSPropertyOp15
 70
     1
102
RTVSPropertyOp16
 70
     1
102
RTVSPropertyOp17
 70
     1
102
RTVSPropertyOp18
 70
     1
102
RTVSPropertyOp19
 70
     1
102
RTVSPropertyOp20
 70
     1
102
RTVSPropertyOp21
 70
     1
102
RTVSPropertyOp22
 70
     1
102
RTVSPropertyOp23
 70
     1
102
RTVSPropertyOp24
 70
     1
102
RTVSPropertyOp25
 70
     1
102
RTVSPropertyOp26
 70
     1
102
RTVSPropertyOp27
 70
     1
102
RTVSPropertyOp28
 70
     1
102
RTVSPropertyOp29
 70
     1
102
RTVSPropertyOp30
 70
     1
102
RTVSPropertyOp31
 70
     1
102
RTVSPropertyOp32
 70
     1
102
RTVSPropertyOp33
 70
     1
102
RTVSPropertyOp34
 70
     1
102
RTVSPropertyOp35
 70
     1
102
RTVSPropertyOp36
 70
     1
102
RTVSPropertyOp37
 70
     1
102
RTVSPropertyOp38
 70
     1
102
RTVSPropertyOp39
 70
     1
102
RTVSPropertyOp40
 70
     1
102
RTVSPropertyOp41
 70
     1
102
RTVSPropertyOp42
 70
     1
102
RTVSPropertyOp43
 70
     1
102
RTVSPropertyOp44
 70
     1
102
RTVSPropertyOp45
 70
     1
102
RTVSPropertyOp46
 70
     1
102
RTVSPropertyOp47
 70
     1
102
RTVSPropertyOp48
 70
     1
102
RTVSPropertyOp49
 70
     1
102
RTVSPropertyOp50
 70
     1
102
RTVSPropertyOp51
 70
     0
102
RTVSPropertyOp52
 70
     0
102
RTVSPropertyOp53
 70
     1
102
RTVSPropertyOp54
 70
     1
102
RTVSPropertyOp55
 70
     1
102
RTVSPropertyOp56
 70
     1
102
RTVSPropertyOp57
 70
     1
102
RTVSPropertyOp58
 70
     1
102
RTVSPropertyOp59
 70
     1
102
RTVSPropertyOp60
 70
     1
102
RTVSPropertyOp61
 70
     1
102
RTVSPropertyOp62
 70
     1
  0
XRECORD
  5
99E8
102
{ACAD_REACTORS
330
99E7
102
}
330
99E7
100
AcDbXrecord
280
     1
102
RTVSPost2010Prop28
280
     0
102
RTVSPost2010PropOp28
 70
     1
102
RTVSPost2010Prop29
280
     1
102
RTVSPost2010PropOp29
 70
     1
102
RTVSPost2010Prop30
280
     1
102
RTVSPost2010PropOp30
 70
     1
102
RTVSPost2010Prop31
280
     0
102
RTVSPost2010PropOp31
 70
     1
102
RTVSPost2010Prop32
280
     0
102
RTVSPost2010PropOp32
 70
     1
102
RTVSPost2010Prop33
280
     0
102
RTVSPost2010PropOp33
 70
     1
102
RTVSPost2010Prop34
280
     0
102
RTVSPost2010PropOp34
 70
     1
102
RTVSPost2010Prop35
280
     0
102
RTVSPost2010PropOp35
 70
     1
102
RTVSPost2010Prop36
280
     0
102
RTVSPost2010PropOp36
 70
     1
102
RTVSPost2010Prop37
 90
       50
102
RTVSPost2010PropOp37
 70
     1
102
RTVSPost2010Prop38
140
0.0
102
RTVSPost2010PropOp38
 70
     1
102
RTVSPost2010Prop39
140
1.0
102
RTVSPost2010PropOp39
 70
     1
102
RTVSPost2010Prop40
 90
        0
102
RTVSPost2010PropOp40
 70
     1
102
RTVSPost2010Prop41ColorIndex
 90
       18
102
RTVSPost2010Prop41ColorRGB
 90
        0
102
RTVSPost2010PropOp41
 70
     1
102
RTVSPost2010Prop42
 90
       50
102
RTVSPost2010PropOp42
 70
     1
102
RTVSPost2010Prop43
 90
        3
102
RTVSPost2010PropOp43
 70
     1
102
RTVSPost2010Prop44ColorIndex
 90
        5
102
RTVSPost2010Prop44ColorRGB
 90
      255
102
RTVSPost2010PropOp44
 70
     1
102
RTVSPost2010Prop45
280
     0
102
RTVSPost2010PropOp45
 70
     1
102
RTVSPost2010Prop46
 90
       50
102
RTVSPost2010PropOp46
 70
     1
102
RTVSPost2010Prop47
 90
       50
102
RTVSPost2010PropOp47
 70
     1
102
RTVSPost2010Prop48
 90
       50
102
RTVSPost2010PropOp48
 70
     1
102
RTVSPost2010Prop49
280
     0
102
RTVSPost2010PropOp49
 70
     1
102
RTVSPost2010Prop50
 90
       50
102
RTVSPost2010PropOp50
 70
     1
102
RTVSPost2010Prop51ColorIndex
 90
      256
102
RTVSPost2010Prop51ColorRGB
 90
-16777216
102
RTVSPost2010PropOp51
 70
     0
102
RTVSPost2010Prop52
140
1.0
102
RTVSPost2010PropOp52
 70
     0
102
RTVSPost2010Prop53
 90
        2
102
RTVSPost2010PropOp53
 70
     1
102
RTVSPost2010Prop54
  1
strokes_ogs.tif
102
RTVSPost2010PropOp54
 70
     1
102
RTVSPost2010Prop55
280
     0
102
RTVSPost2010PropOp55
 70
     1
102
RTVSPost2010Prop56
140
1.0
102
RTVSPost2010PropOp56
 70
     1
102
RTVSPost2010Prop57
140
1.0
102
RTVSPost2010PropOp57
 70
     1
102
RTVSPropertyOp0
 70
     1
102
RTVSPropertyOp1
 70
     1
102
RTVSPropertyOp2
 70
     1
102
RTVSPropertyOp3
 70
     1
102
RTVSPropertyOp4
 70
     1
102
RTVSPropertyOp5
 70
     1
102
RTVSPropertyOp6
 70
     1
102
RTVSPropertyOp7
 70
     1
102
RTVSPropertyOp8
 70
     1
102
RTVSPropertyOp9
 70
     1
102
RTVSPropertyOp10
 70
     1
102
RTVSPropertyOp11
 70
     1
102
RTVSPropertyOp12
 70
     1
102
RTVSPropertyOp13
 70
     1
102
RTVSPropertyOp14
 70
     1
102
RTVSPropertyOp15
 70
     1
102
RTVSPropertyOp16
 70
     1
102
RTVSPropertyOp17
 70
     1
102
RTVSPropertyOp18
 70
     1
102
RTVSPropertyOp19
 70
     1
102
RTVSPropertyOp20
 70
     1
102
RTVSPropertyOp21
 70
     1
102
RTVSPropertyOp22
 70
     1
102
RTVSPropertyOp23
 70
     1
102
RTVSPropertyOp24
 70
     1
102
RTVSPropertyOp25
 70
     1
102
RTVSPropertyOp26
 70
     1
102
RTVSPropertyOp27
 70
     1
102
RTVSPropertyOp28
 70
     1
102
RTVSPropertyOp29
 70
     1
102
RTVSPropertyOp30
 70
     1
102
RTVSPropertyOp31
 70
     1
102
RTVSPropertyOp32
 70
     1
102
RTVSPropertyOp33
 70
     1
102
RTVSPropertyOp34
 70
     1
102
RTVSPropertyOp35
 70
     1
102
RTVSPropertyOp36
 70
     1
102
RTVSPropertyOp37
 70
     1
102
RTVSPropertyOp38
 70
     1
102
RTVSPropertyOp39
 70
     1
102
RTVSPropertyOp40
 70
     1
102
RTVSPropertyOp41
 70
     1
102
RTVSPropertyOp42
 70
     1
102
RTVSPropertyOp43
 70
     1
102
RTVSPropertyOp44
 70
     1
102
RTVSPropertyOp45
 70
     1
102
RTVSPropertyOp46
 70
     1
102
RTVSPropertyOp47
 70
     1
102
RTVSPropertyOp48
 70
     1
102
RTVSPropertyOp49
 70
     1
102
RTVSPropertyOp50
 70
     1
102
RTVSPropertyOp51
 70
     0
102
RTVSPropertyOp52
 70
     0
102
RTVSPropertyOp53
 70
     1
102
RTVSPropertyOp54
 70
     1
102
RTVSPropertyOp55
 70
     1
102
RTVSPropertyOp56
 70
     1
102
RTVSPropertyOp57
 70
     1
102
RTVSPropertyOp58
 70
     1
102
RTVSPropertyOp59
 70
     1
102
RTVSPropertyOp60
 70
     1
102
RTVSPropertyOp61
 70
     1
102
RTVSPropertyOp62
 70
     1
  0
XRECORD
  5
99E6
102
{ACAD_REACTORS
330
99E5
102
}
330
99E5
100
AcDbXrecord
280
     1
102
RTVSPost2010Prop28
280
     0
102
RTVSPost2010PropOp28
 70
     1
102
RTVSPost2010Prop29
280
     1
102
RTVSPost2010PropOp29
 70
     1
102
RTVSPost2010Prop30
280
     1
102
RTVSPost2010PropOp30
 70
     1
102
RTVSPost2010Prop31
280
     0
102
RTVSPost2010PropOp31
 70
     1
102
RTVSPost2010Prop32
280
     0
102
RTVSPost2010PropOp32
 70
     1
102
RTVSPost2010Prop33
280
     0
102
RTVSPost2010PropOp33
 70
     1
102
RTVSPost2010Prop34
280
     0
102
RTVSPost2010PropOp34
 70
     1
102
RTVSPost2010Prop35
280
     0
102
RTVSPost2010PropOp35
 70
     1
102
RTVSPost2010Prop36
280
     0
102
RTVSPost2010PropOp36
 70
     1
102
RTVSPost2010Prop37
 90
       50
102
RTVSPost2010PropOp37
 70
     1
102
RTVSPost2010Prop38
140
0.0
102
RTVSPost2010PropOp38
 70
     1
102
RTVSPost2010Prop39
140
1.0
102
RTVSPost2010PropOp39
 70
     1
102
RTVSPost2010Prop40
 90
        0
102
RTVSPost2010PropOp40
 70
     1
102
RTVSPost2010Prop41ColorIndex
 90
       18
102
RTVSPost2010Prop41ColorRGB
 90
        0
102
RTVSPost2010PropOp41
 70
     1
102
RTVSPost2010Prop42
 90
       50
102
RTVSPost2010PropOp42
 70
     1
102
RTVSPost2010Prop43
 90
        3
102
RTVSPost2010PropOp43
 70
     1
102
RTVSPost2010Prop44ColorIndex
 90
        5
102
RTVSPost2010Prop44ColorRGB
 90
      255
102
RTVSPost2010PropOp44
 70
     1
102
RTVSPost2010Prop45
280
     0
102
RTVSPost2010PropOp45
 70
     1
102
RTVSPost2010Prop46
 90
       50
102
RTVSPost2010PropOp46
 70
     1
102
RTVSPost2010Prop47
 90
       50
102
RTVSPost2010PropOp47
 70
     1
102
RTVSPost2010Prop48
 90
       50
102
RTVSPost2010PropOp48
 70
     1
102
RTVSPost2010Prop49
280
     0
102
RTVSPost2010PropOp49
 70
     1
102
RTVSPost2010Prop50
 90
       50
102
RTVSPost2010PropOp50
 70
     1
102
RTVSPost2010Prop51ColorIndex
 90
      256
102
RTVSPost2010Prop51ColorRGB
 90
-16777216
102
RTVSPost2010PropOp51
 70
     0
102
RTVSPost2010Prop52
140
1.0
102
RTVSPost2010PropOp52
 70
     0
102
RTVSPost2010Prop53
 90
        2
102
RTVSPost2010PropOp53
 70
     1
102
RTVSPost2010Prop54
  1
strokes_ogs.tif
102
RTVSPost2010PropOp54
 70
     1
102
RTVSPost2010Prop55
280
     0
102
RTVSPost2010PropOp55
 70
     1
102
RTVSPost2010Prop56
140
1.0
102
RTVSPost2010PropOp56
 70
     1
102
RTVSPost2010Prop57
140
1.0
102
RTVSPost2010PropOp57
 70
     1
102
RTVSPropertyOp0
 70
     1
102
RTVSPropertyOp1
 70
     1
102
RTVSPropertyOp2
 70
     1
102
RTVSPropertyOp3
 70
     1
102
RTVSPropertyOp4
 70
     1
102
RTVSPropertyOp5
 70
     1
102
RTVSPropertyOp6
 70
     1
102
RTVSPropertyOp7
 70
     1
102
RTVSPropertyOp8
 70
     1
102
RTVSPropertyOp9
 70
     1
102
RTVSPropertyOp10
 70
     1
102
RTVSPropertyOp11
 70
     1
102
RTVSPropertyOp12
 70
     1
102
RTVSPropertyOp13
 70
     1
102
RTVSPropertyOp14
 70
     1
102
RTVSPropertyOp15
 70
     1
102
RTVSPropertyOp16
 70
     1
102
RTVSPropertyOp17
 70
     1
102
RTVSPropertyOp18
 70
     1
102
RTVSPropertyOp19
 70
     1
102
RTVSPropertyOp20
 70
     1
102
RTVSPropertyOp21
 70
     1
102
RTVSPropertyOp22
 70
     1
102
RTVSPropertyOp23
 70
     1
102
RTVSPropertyOp24
 70
     1
102
RTVSPropertyOp25
 70
     1
102
RTVSPropertyOp26
 70
     1
102
RTVSPropertyOp27
 70
     1
102
RTVSPropertyOp28
 70
     1
102
RTVSPropertyOp29
 70
     1
102
RTVSPropertyOp30
 70
     1
102
RTVSPropertyOp31
 70
     1
102
RTVSPropertyOp32
 70
     1
102
RTVSPropertyOp33
 70
     1
102
RTVSPropertyOp34
 70
     1
102
RTVSPropertyOp35
 70
     1
102
RTVSPropertyOp36
 70
     1
102
RTVSPropertyOp37
 70
     1
102
RTVSPropertyOp38
 70
     1
102
RTVSPropertyOp39
 70
     1
102
RTVSPropertyOp40
 70
     1
102
RTVSPropertyOp41
 70
     1
102
RTVSPropertyOp42
 70
     1
102
RTVSPropertyOp43
 70
     1
102
RTVSPropertyOp44
 70
     1
102
RTVSPropertyOp45
 70
     1
102
RTVSPropertyOp46
 70
     1
102
RTVSPropertyOp47
 70
     1
102
RTVSPropertyOp48
 70
     1
102
RTVSPropertyOp49
 70
     1
102
RTVSPropertyOp50
 70
     1
102
RTVSPropertyOp51
 70
     0
102
RTVSPropertyOp52
 70
     0
102
RTVSPropertyOp53
 70
     1
102
RTVSPropertyOp54
 70
     1
102
RTVSPropertyOp55
 70
     1
102
RTVSPropertyOp56
 70
     1
102
RTVSPropertyOp57
 70
     1
102
RTVSPropertyOp58
 70
     1
102
RTVSPropertyOp59
 70
     1
102
RTVSPropertyOp60
 70
     1
102
RTVSPropertyOp61
 70
     1
102
RTVSPropertyOp62
 70
     1
  0
XRECORD
  5
99E0
102
{ACAD_REACTORS
330
99DF
102
}
330
99DF
100
AcDbXrecord
280
     1
102
RTVSPost2010Prop28
280
     0
102
RTVSPost2010PropOp28
 70
     1
102
RTVSPost2010Prop29
280
     1
102
RTVSPost2010PropOp29
 70
     1
102
RTVSPost2010Prop30
280
     1
102
RTVSPost2010PropOp30
 70
     1
102
RTVSPost2010Prop31
280
     0
102
RTVSPost2010PropOp31
 70
     1
102
RTVSPost2010Prop32
280
     0
102
RTVSPost2010PropOp32
 70
     1
102
RTVSPost2010Prop33
280
     0
102
RTVSPost2010PropOp33
 70
     1
102
RTVSPost2010Prop34
280
     0
102
RTVSPost2010PropOp34
 70
     1
102
RTVSPost2010Prop35
280
     0
102
RTVSPost2010PropOp35
 70
     1
102
RTVSPost2010Prop36
280
     0
102
RTVSPost2010PropOp36
 70
     1
102
RTVSPost2010Prop37
 90
       50
102
RTVSPost2010PropOp37
 70
     1
102
RTVSPost2010Prop38
140
0.0
102
RTVSPost2010PropOp38
 70
     1
102
RTVSPost2010Prop39
140
1.0
102
RTVSPost2010PropOp39
 70
     1
102
RTVSPost2010Prop40
 90
        0
102
RTVSPost2010PropOp40
 70
     1
102
RTVSPost2010Prop41ColorIndex
 90
       18
102
RTVSPost2010Prop41ColorRGB
 90
        0
102
RTVSPost2010PropOp41
 70
     1
102
RTVSPost2010Prop42
 90
       50
102
RTVSPost2010PropOp42
 70
     1
102
RTVSPost2010Prop43
 90
        3
102
RTVSPost2010PropOp43
 70
     1
102
RTVSPost2010Prop44ColorIndex
 90
        5
102
RTVSPost2010Prop44ColorRGB
 90
      255
102
RTVSPost2010PropOp44
 70
     1
102
RTVSPost2010Prop45
280
     0
102
RTVSPost2010PropOp45
 70
     1
102
RTVSPost2010Prop46
 90
       50
102
RTVSPost2010PropOp46
 70
     1
102
RTVSPost2010Prop47
 90
       50
102
RTVSPost2010PropOp47
 70
     1
102
RTVSPost2010Prop48
 90
       50
102
RTVSPost2010PropOp48
 70
     1
102
RTVSPost2010Prop49
280
     0
102
RTVSPost2010PropOp49
 70
     1
102
RTVSPost2010Prop50
 90
       50
102
RTVSPost2010PropOp50
 70
     1
102
RTVSPost2010Prop51ColorIndex
 90
      256
102
RTVSPost2010Prop51ColorRGB
 90
-16777216
102
RTVSPost2010PropOp51
 70
     0
102
RTVSPost2010Prop52
140
1.0
102
RTVSPost2010PropOp52
 70
     0
102
RTVSPost2010Prop53
 90
        2
102
RTVSPost2010PropOp53
 70
     1
102
RTVSPost2010Prop54
  1
strokes_ogs.tif
102
RTVSPost2010PropOp54
 70
     1
102
RTVSPost2010Prop55
280
     0
102
RTVSPost2010PropOp55
 70
     1
102
RTVSPost2010Prop56
140
1.0
102
RTVSPost2010PropOp56
 70
     1
102
RTVSPost2010Prop57
140
1.0
102
RTVSPost2010PropOp57
 70
     1
102
RTVSPropertyOp0
 70
     1
102
RTVSPropertyOp1
 70
     1
102
RTVSPropertyOp2
 70
     1
102
RTVSPropertyOp3
 70
     1
102
RTVSPropertyOp4
 70
     1
102
RTVSPropertyOp5
 70
     1
102
RTVSPropertyOp6
 70
     1
102
RTVSPropertyOp7
 70
     1
102
RTVSPropertyOp8
 70
     1
102
RTVSPropertyOp9
 70
     1
102
RTVSPropertyOp10
 70
     1
102
RTVSPropertyOp11
 70
     1
102
RTVSPropertyOp12
 70
     1
102
RTVSPropertyOp13
 70
     1
102
RTVSPropertyOp14
 70
     1
102
RTVSPropertyOp15
 70
     1
102
RTVSPropertyOp16
 70
     1
102
RTVSPropertyOp17
 70
     1
102
RTVSPropertyOp18
 70
     1
102
RTVSPropertyOp19
 70
     1
102
RTVSPropertyOp20
 70
     1
102
RTVSPropertyOp21
 70
     1
102
RTVSPropertyOp22
 70
     1
102
RTVSPropertyOp23
 70
     1
102
RTVSPropertyOp24
 70
     1
102
RTVSPropertyOp25
 70
     1
102
RTVSPropertyOp26
 70
     1
102
RTVSPropertyOp27
 70
     1
102
RTVSPropertyOp28
 70
     1
102
RTVSPropertyOp29
 70
     1
102
RTVSPropertyOp30
 70
     1
102
RTVSPropertyOp31
 70
     1
102
RTVSPropertyOp32
 70
     1
102
RTVSPropertyOp33
 70
     1
102
RTVSPropertyOp34
 70
     1
102
RTVSPropertyOp35
 70
     1
102
RTVSPropertyOp36
 70
     1
102
RTVSPropertyOp37
 70
     1
102
RTVSPropertyOp38
 70
     1
102
RTVSPropertyOp39
 70
     1
102
RTVSPropertyOp40
 70
     1
102
RTVSPropertyOp41
 70
     1
102
RTVSPropertyOp42
 70
     1
102
RTVSPropertyOp43
 70
     1
102
RTVSPropertyOp44
 70
     1
102
RTVSPropertyOp45
 70
     1
102
RTVSPropertyOp46
 70
     1
102
RTVSPropertyOp47
 70
     1
102
RTVSPropertyOp48
 70
     1
102
RTVSPropertyOp49
 70
     1
102
RTVSPropertyOp50
 70
     1
102
RTVSPropertyOp51
 70
     0
102
RTVSPropertyOp52
 70
     0
102
RTVSPropertyOp53
 70
     1
102
RTVSPropertyOp54
 70
     1
102
RTVSPropertyOp55
 70
     1
102
RTVSPropertyOp56
 70
     1
102
RTVSPropertyOp57
 70
     1
102
RTVSPropertyOp58
 70
     1
102
RTVSPropertyOp59
 70
     1
102
RTVSPropertyOp60
 70
     1
102
RTVSPropertyOp61
 70
     1
102
RTVSPropertyOp62
 70
     1
  0
XRECORD
  5
99E2
102
{ACAD_REACTORS
330
99E1
102
}
330
99E1
100
AcDbXrecord
280
     1
102
RTVSPost2010Prop28
280
     0
102
RTVSPost2010PropOp28
 70
     1
102
RTVSPost2010Prop29
280
     1
102
RTVSPost2010PropOp29
 70
     1
102
RTVSPost2010Prop30
280
     1
102
RTVSPost2010PropOp30
 70
     1
102
RTVSPost2010Prop31
280
     0
102
RTVSPost2010PropOp31
 70
     1
102
RTVSPost2010Prop32
280
     0
102
RTVSPost2010PropOp32
 70
     1
102
RTVSPost2010Prop33
280
     0
102
RTVSPost2010PropOp33
 70
     1
102
RTVSPost2010Prop34
280
     0
102
RTVSPost2010PropOp34
 70
     1
102
RTVSPost2010Prop35
280
     0
102
RTVSPost2010PropOp35
 70
     1
102
RTVSPost2010Prop36
280
     0
102
RTVSPost2010PropOp36
 70
     1
102
RTVSPost2010Prop37
 90
       50
102
RTVSPost2010PropOp37
 70
     1
102
RTVSPost2010Prop38
140
0.0
102
RTVSPost2010PropOp38
 70
     1
102
RTVSPost2010Prop39
140
1.0
102
RTVSPost2010PropOp39
 70
     1
102
RTVSPost2010Prop40
 90
        0
102
RTVSPost2010PropOp40
 70
     1
102
RTVSPost2010Prop41ColorIndex
 90
       18
102
RTVSPost2010Prop41ColorRGB
 90
        0
102
RTVSPost2010PropOp41
 70
     1
102
RTVSPost2010Prop42
 90
       50
102
RTVSPost2010PropOp42
 70
     1
102
RTVSPost2010Prop43
 90
        3
102
RTVSPost2010PropOp43
 70
     1
102
RTVSPost2010Prop44ColorIndex
 90
        5
102
RTVSPost2010Prop44ColorRGB
 90
      255
102
RTVSPost2010PropOp44
 70
     1
102
RTVSPost2010Prop45
280
     0
102
RTVSPost2010PropOp45
 70
     1
102
RTVSPost2010Prop46
 90
       50
102
RTVSPost2010PropOp46
 70
     1
102
RTVSPost2010Prop47
 90
       50
102
RTVSPost2010PropOp47
 70
     1
102
RTVSPost2010Prop48
 90
       50
102
RTVSPost2010PropOp48
 70
     1
102
RTVSPost2010Prop49
280
     0
102
RTVSPost2010PropOp49
 70
     1
102
RTVSPost2010Prop50
 90
       50
102
RTVSPost2010PropOp50
 70
     1
102
RTVSPost2010Prop51ColorIndex
 90
      256
102
RTVSPost2010Prop51ColorRGB
 90
-16777216
102
RTVSPost2010PropOp51
 70
     0
102
RTVSPost2010Prop52
140
1.0
102
RTVSPost2010PropOp52
 70
     0
102
RTVSPost2010Prop53
 90
        2
102
RTVSPost2010PropOp53
 70
     1
102
RTVSPost2010Prop54
  1
strokes_ogs.tif
102
RTVSPost2010PropOp54
 70
     1
102
RTVSPost2010Prop55
280
     0
102
RTVSPost2010PropOp55
 70
     1
102
RTVSPost2010Prop56
140
1.0
102
RTVSPost2010PropOp56
 70
     1
102
RTVSPost2010Prop57
140
1.0
102
RTVSPost2010PropOp57
 70
     1
102
RTVSPropertyOp0
 70
     1
102
RTVSPropertyOp1
 70
     1
102
RTVSPropertyOp2
 70
     1
102
RTVSPropertyOp3
 70
     1
102
RTVSPropertyOp4
 70
     1
102
RTVSPropertyOp5
 70
     1
102
RTVSPropertyOp6
 70
     1
102
RTVSPropertyOp7
 70
     1
102
RTVSPropertyOp8
 70
     1
102
RTVSPropertyOp9
 70
     1
102
RTVSPropertyOp10
 70
     1
102
RTVSPropertyOp11
 70
     1
102
RTVSPropertyOp12
 70
     1
102
RTVSPropertyOp13
 70
     1
102
RTVSPropertyOp14
 70
     1
102
RTVSPropertyOp15
 70
     1
102
RTVSPropertyOp16
 70
     1
102
RTVSPropertyOp17
 70
     1
102
RTVSPropertyOp18
 70
     1
102
RTVSPropertyOp19
 70
     1
102
RTVSPropertyOp20
 70
     1
102
RTVSPropertyOp21
 70
     1
102
RTVSPropertyOp22
 70
     1
102
RTVSPropertyOp23
 70
     1
102
RTVSPropertyOp24
 70
     1
102
RTVSPropertyOp25
 70
     1
102
RTVSPropertyOp26
 70
     1
102
RTVSPropertyOp27
 70
     1
102
RTVSPropertyOp28
 70
     1
102
RTVSPropertyOp29
 70
     1
102
RTVSPropertyOp30
 70
     1
102
RTVSPropertyOp31
 70
     1
102
RTVSPropertyOp32
 70
     1
102
RTVSPropertyOp33
 70
     1
102
RTVSPropertyOp34
 70
     1
102
RTVSPropertyOp35
 70
     1
102
RTVSPropertyOp36
 70
     1
102
RTVSPropertyOp37
 70
     1
102
RTVSPropertyOp38
 70
     1
102
RTVSPropertyOp39
 70
     1
102
RTVSPropertyOp40
 70
     1
102
RTVSPropertyOp41
 70
     1
102
RTVSPropertyOp42
 70
     1
102
RTVSPropertyOp43
 70
     1
102
RTVSPropertyOp44
 70
     1
102
RTVSPropertyOp45
 70
     1
102
RTVSPropertyOp46
 70
     1
102
RTVSPropertyOp47
 70
     1
102
RTVSPropertyOp48
 70
     1
102
RTVSPropertyOp49
 70
     1
102
RTVSPropertyOp50
 70
     1
102
RTVSPropertyOp51
 70
     0
102
RTVSPropertyOp52
 70
     0
102
RTVSPropertyOp53
 70
     1
102
RTVSPropertyOp54
 70
     1
102
RTVSPropertyOp55
 70
     1
102
RTVSPropertyOp56
 70
     1
102
RTVSPropertyOp57
 70
     1
102
RTVSPropertyOp58
 70
     1
102
RTVSPropertyOp59
 70
     1
102
RTVSPropertyOp60
 70
     1
102
RTVSPropertyOp61
 70
     1
102
RTVSPropertyOp62
 70
     1
  0
XRECORD
  5
99D8
102
{ACAD_REACTORS
330
99D7
102
}
330
99D7
100
AcDbXrecord
280
     1
102
RTVSPost2010Prop28
280
     0
102
RTVSPost2010PropOp28
 70
     1
102
RTVSPost2010Prop29
280
     1
102
RTVSPost2010PropOp29
 70
     1
102
RTVSPost2010Prop30
280
     1
102
RTVSPost2010PropOp30
 70
     1
102
RTVSPost2010Prop31
280
     0
102
RTVSPost2010PropOp31
 70
     1
102
RTVSPost2010Prop32
280
     0
102
RTVSPost2010PropOp32
 70
     1
102
RTVSPost2010Prop33
280
     0
102
RTVSPost2010PropOp33
 70
     1
102
RTVSPost2010Prop34
280
     0
102
RTVSPost2010PropOp34
 70
     1
102
RTVSPost2010Prop35
280
     0
102
RTVSPost2010PropOp35
 70
     1
102
RTVSPost2010Prop36
280
     0
102
RTVSPost2010PropOp36
 70
     1
102
RTVSPost2010Prop37
 90
       50
102
RTVSPost2010PropOp37
 70
     1
102
RTVSPost2010Prop38
140
0.0
102
RTVSPost2010PropOp38
 70
     1
102
RTVSPost2010Prop39
140
1.0
102
RTVSPost2010PropOp39
 70
     1
102
RTVSPost2010Prop40
 90
        0
102
RTVSPost2010PropOp40
 70
     1
102
RTVSPost2010Prop41ColorIndex
 90
       18
102
RTVSPost2010Prop41ColorRGB
 90
        0
102
RTVSPost2010PropOp41
 70
     1
102
RTVSPost2010Prop42
 90
       50
102
RTVSPost2010PropOp42
 70
     1
102
RTVSPost2010Prop43
 90
        3
102
RTVSPost2010PropOp43
 70
     1
102
RTVSPost2010Prop44ColorIndex
 90
        5
102
RTVSPost2010Prop44ColorRGB
 90
      255
102
RTVSPost2010PropOp44
 70
     1
102
RTVSPost2010Prop45
280
     0
102
RTVSPost2010PropOp45
 70
     1
102
RTVSPost2010Prop46
 90
       50
102
RTVSPost2010PropOp46
 70
     1
102
RTVSPost2010Prop47
 90
       50
102
RTVSPost2010PropOp47
 70
     1
102
RTVSPost2010Prop48
 90
       50
102
RTVSPost2010PropOp48
 70
     1
102
RTVSPost2010Prop49
280
     0
102
RTVSPost2010PropOp49
 70
     1
102
RTVSPost2010Prop50
 90
       50
102
RTVSPost2010PropOp50
 70
     1
102
RTVSPost2010Prop51ColorIndex
 90
      256
102
RTVSPost2010Prop51ColorRGB
 90
-16777216
102
RTVSPost2010PropOp51
 70
     0
102
RTVSPost2010Prop52
140
1.0
102
RTVSPost2010PropOp52
 70
     0
102
RTVSPost2010Prop53
 90
        2
102
RTVSPost2010PropOp53
 70
     1
102
RTVSPost2010Prop54
  1
strokes_ogs.tif
102
RTVSPost2010PropOp54
 70
     1
102
RTVSPost2010Prop55
280
     0
102
RTVSPost2010PropOp55
 70
     1
102
RTVSPost2010Prop56
140
1.0
102
RTVSPost2010PropOp56
 70
     1
102
RTVSPost2010Prop57
140
1.0
102
RTVSPost2010PropOp57
 70
     1
102
RTVSPropertyOp0
 70
     1
102
RTVSPropertyOp1
 70
     1
102
RTVSPropertyOp2
 70
     1
102
RTVSPropertyOp3
 70
     1
102
RTVSPropertyOp4
 70
     1
102
RTVSPropertyOp5
 70
     1
102
RTVSPropertyOp6
 70
     1
102
RTVSPropertyOp7
 70
     1
102
RTVSPropertyOp8
 70
     1
102
RTVSPropertyOp9
 70
     1
102
RTVSPropertyOp10
 70
     1
102
RTVSPropertyOp11
 70
     1
102
RTVSPropertyOp12
 70
     1
102
RTVSPropertyOp13
 70
     1
102
RTVSPropertyOp14
 70
     1
102
RTVSPropertyOp15
 70
     1
102
RTVSPropertyOp16
 70
     1
102
RTVSPropertyOp17
 70
     1
102
RTVSPropertyOp18
 70
     1
102
RTVSPropertyOp19
 70
     1
102
RTVSPropertyOp20
 70
     1
102
RTVSPropertyOp21
 70
     1
102
RTVSPropertyOp22
 70
     1
102
RTVSPropertyOp23
 70
     1
102
RTVSPropertyOp24
 70
     1
102
RTVSPropertyOp25
 70
     1
102
RTVSPropertyOp26
 70
     1
102
RTVSPropertyOp27
 70
     1
102
RTVSPropertyOp28
 70
     1
102
RTVSPropertyOp29
 70
     1
102
RTVSPropertyOp30
 70
     1
102
RTVSPropertyOp31
 70
     1
102
RTVSPropertyOp32
 70
     1
102
RTVSPropertyOp33
 70
     1
102
RTVSPropertyOp34
 70
     1
102
RTVSPropertyOp35
 70
     1
102
RTVSPropertyOp36
 70
     1
102
RTVSPropertyOp37
 70
     1
102
RTVSPropertyOp38
 70
     1
102
RTVSPropertyOp39
 70
     1
102
RTVSPropertyOp40
 70
     1
102
RTVSPropertyOp41
 70
     1
102
RTVSPropertyOp42
 70
     1
102
RTVSPropertyOp43
 70
     1
102
RTVSPropertyOp44
 70
     1
102
RTVSPropertyOp45
 70
     1
102
RTVSPropertyOp46
 70
     1
102
RTVSPropertyOp47
 70
     1
102
RTVSPropertyOp48
 70
     1
102
RTVSPropertyOp49
 70
     1
102
RTVSPropertyOp50
 70
     1
102
RTVSPropertyOp51
 70
     0
102
RTVSPropertyOp52
 70
     0
102
RTVSPropertyOp53
 70
     1
102
RTVSPropertyOp54
 70
     1
102
RTVSPropertyOp55
 70
     1
102
RTVSPropertyOp56
 70
     1
102
RTVSPropertyOp57
 70
     1
102
RTVSPropertyOp58
 70
     1
102
RTVSPropertyOp59
 70
     1
102
RTVSPropertyOp60
 70
     1
102
RTVSPropertyOp61
 70
     1
102
RTVSPropertyOp62
 70
     1
  0
XRECORD
  5
99CC
102
{ACAD_REACTORS
330
99CB
102
}
330
99CB
100
AcDbXrecord
280
     1
102
RTVSPost2010Prop28
280
     0
102
RTVSPost2010PropOp28
 70
     1
102
RTVSPost2010Prop29
280
     1
102
RTVSPost2010PropOp29
 70
     1
102
RTVSPost2010Prop30
280
     1
102
RTVSPost2010PropOp30
 70
     1
102
RTVSPost2010Prop31
280
     0
102
RTVSPost2010PropOp31
 70
     1
102
RTVSPost2010Prop32
280
     0
102
RTVSPost2010PropOp32
 70
     1
102
RTVSPost2010Prop33
280
     0
102
RTVSPost2010PropOp33
 70
     1
102
RTVSPost2010Prop34
280
     0
102
RTVSPost2010PropOp34
 70
     1
102
RTVSPost2010Prop35
280
     0
102
RTVSPost2010PropOp35
 70
     1
102
RTVSPost2010Prop36
280
     0
102
RTVSPost2010PropOp36
 70
     1
102
RTVSPost2010Prop37
 90
       50
102
RTVSPost2010PropOp37
 70
     1
102
RTVSPost2010Prop38
140
0.0
102
RTVSPost2010PropOp38
 70
     1
102
RTVSPost2010Prop39
140
1.0
102
RTVSPost2010PropOp39
 70
     1
102
RTVSPost2010Prop40
 90
        0
102
RTVSPost2010PropOp40
 70
     1
102
RTVSPost2010Prop41ColorIndex
 90
       18
102
RTVSPost2010Prop41ColorRGB
 90
        0
102
RTVSPost2010PropOp41
 70
     1
102
RTVSPost2010Prop42
 90
       50
102
RTVSPost2010PropOp42
 70
     1
102
RTVSPost2010Prop43
 90
        3
102
RTVSPost2010PropOp43
 70
     1
102
RTVSPost2010Prop44ColorIndex
 90
        5
102
RTVSPost2010Prop44ColorRGB
 90
      255
102
RTVSPost2010PropOp44
 70
     1
102
RTVSPost2010Prop45
280
     0
102
RTVSPost2010PropOp45
 70
     1
102
RTVSPost2010Prop46
 90
       50
102
RTVSPost2010PropOp46
 70
     1
102
RTVSPost2010Prop47
 90
       50
102
RTVSPost2010PropOp47
 70
     1
102
RTVSPost2010Prop48
 90
       50
102
RTVSPost2010PropOp48
 70
     1
102
RTVSPost2010Prop49
280
     0
102
RTVSPost2010PropOp49
 70
     1
102
RTVSPost2010Prop50
 90
       50
102
RTVSPost2010PropOp50
 70
     1
102
RTVSPost2010Prop51ColorIndex
 90
      256
102
RTVSPost2010Prop51ColorRGB
 90
-16777216
102
RTVSPost2010PropOp51
 70
     0
102
RTVSPost2010Prop52
140
1.0
102
RTVSPost2010PropOp52
 70
     0
102
RTVSPost2010Prop53
 90
        2
102
RTVSPost2010PropOp53
 70
     1
102
RTVSPost2010Prop54
  1
strokes_ogs.tif
102
RTVSPost2010PropOp54
 70
     1
102
RTVSPost2010Prop55
280
     0
102
RTVSPost2010PropOp55
 70
     1
102
RTVSPost2010Prop56
140
1.0
102
RTVSPost2010PropOp56
 70
     1
102
RTVSPost2010Prop57
140
1.0
102
RTVSPost2010PropOp57
 70
     1
102
RTVSPropertyOp0
 70
     1
102
RTVSPropertyOp1
 70
     1
102
RTVSPropertyOp2
 70
     1
102
RTVSPropertyOp3
 70
     1
102
RTVSPropertyOp4
 70
     1
102
RTVSPropertyOp5
 70
     1
102
RTVSPropertyOp6
 70
     1
102
RTVSPropertyOp7
 70
     1
102
RTVSPropertyOp8
 70
     1
102
RTVSPropertyOp9
 70
     1
102
RTVSPropertyOp10
 70
     1
102
RTVSPropertyOp11
 70
     1
102
RTVSPropertyOp12
 70
     1
102
RTVSPropertyOp13
 70
     1
102
RTVSPropertyOp14
 70
     1
102
RTVSPropertyOp15
 70
     1
102
RTVSPropertyOp16
 70
     1
102
RTVSPropertyOp17
 70
     1
102
RTVSPropertyOp18
 70
     1
102
RTVSPropertyOp19
 70
     1
102
RTVSPropertyOp20
 70
     1
102
RTVSPropertyOp21
 70
     1
102
RTVSPropertyOp22
 70
     1
102
RTVSPropertyOp23
 70
     1
102
RTVSPropertyOp24
 70
     1
102
RTVSPropertyOp25
 70
     1
102
RTVSPropertyOp26
 70
     1
102
RTVSPropertyOp27
 70
     1
102
RTVSPropertyOp28
 70
     1
102
RTVSPropertyOp29
 70
     1
102
RTVSPropertyOp30
 70
     1
102
RTVSPropertyOp31
 70
     1
102
RTVSPropertyOp32
 70
     1
102
RTVSPropertyOp33
 70
     1
102
RTVSPropertyOp34
 70
     1
102
RTVSPropertyOp35
 70
     1
102
RTVSPropertyOp36
 70
     1
102
RTVSPropertyOp37
 70
     1
102
RTVSPropertyOp38
 70
     1
102
RTVSPropertyOp39
 70
     1
102
RTVSPropertyOp40
 70
     1
102
RTVSPropertyOp41
 70
     1
102
RTVSPropertyOp42
 70
     1
102
RTVSPropertyOp43
 70
     1
102
RTVSPropertyOp44
 70
     1
102
RTVSPropertyOp45
 70
     1
102
RTVSPropertyOp46
 70
     1
102
RTVSPropertyOp47
 70
     1
102
RTVSPropertyOp48
 70
     1
102
RTVSPropertyOp49
 70
     1
102
RTVSPropertyOp50
 70
     1
102
RTVSPropertyOp51
 70
     0
102
RTVSPropertyOp52
 70
     0
102
RTVSPropertyOp53
 70
     1
102
RTVSPropertyOp54
 70
     1
102
RTVSPropertyOp55
 70
     1
102
RTVSPropertyOp56
 70
     1
102
RTVSPropertyOp57
 70
     1
102
RTVSPropertyOp58
 70
     1
102
RTVSPropertyOp59
 70
     1
102
RTVSPropertyOp60
 70
     1
102
RTVSPropertyOp61
 70
     1
102
RTVSPropertyOp62
 70
     1
  0
XRECORD
  5
99E4
102
{ACAD_REACTORS
330
99E3
102
}
330
99E3
100
AcDbXrecord
280
     1
102
RTVSPost2010Prop28
280
     0
102
RTVSPost2010PropOp28
 70
     1
102
RTVSPost2010Prop29
280
     1
102
RTVSPost2010PropOp29
 70
     1
102
RTVSPost2010Prop30
280
     1
102
RTVSPost2010PropOp30
 70
     1
102
RTVSPost2010Prop31
280
     0
102
RTVSPost2010PropOp31
 70
     1
102
RTVSPost2010Prop32
280
     0
102
RTVSPost2010PropOp32
 70
     1
102
RTVSPost2010Prop33
280
     0
102
RTVSPost2010PropOp33
 70
     1
102
RTVSPost2010Prop34
280
     0
102
RTVSPost2010PropOp34
 70
     1
102
RTVSPost2010Prop35
280
     0
102
RTVSPost2010PropOp35
 70
     1
102
RTVSPost2010Prop36
280
     0
102
RTVSPost2010PropOp36
 70
     1
102
RTVSPost2010Prop37
 90
       50
102
RTVSPost2010PropOp37
 70
     1
102
RTVSPost2010Prop38
140
0.0
102
RTVSPost2010PropOp38
 70
     1
102
RTVSPost2010Prop39
140
1.0
102
RTVSPost2010PropOp39
 70
     1
102
RTVSPost2010Prop40
 90
        0
102
RTVSPost2010PropOp40
 70
     1
102
RTVSPost2010Prop41ColorIndex
 90
       18
102
RTVSPost2010Prop41ColorRGB
 90
        0
102
RTVSPost2010PropOp41
 70
     1
102
RTVSPost2010Prop42
 90
       50
102
RTVSPost2010PropOp42
 70
     1
102
RTVSPost2010Prop43
 90
        3
102
RTVSPost2010PropOp43
 70
     1
102
RTVSPost2010Prop44ColorIndex
 90
        5
102
RTVSPost2010Prop44ColorRGB
 90
      255
102
RTVSPost2010PropOp44
 70
     1
102
RTVSPost2010Prop45
280
     0
102
RTVSPost2010PropOp45
 70
     1
102
RTVSPost2010Prop46
 90
       50
102
RTVSPost2010PropOp46
 70
     1
102
RTVSPost2010Prop47
 90
       50
102
RTVSPost2010PropOp47
 70
     1
102
RTVSPost2010Prop48
 90
       50
102
RTVSPost2010PropOp48
 70
     1
102
RTVSPost2010Prop49
280
     0
102
RTVSPost2010PropOp49
 70
     1
102
RTVSPost2010Prop50
 90
       50
102
RTVSPost2010PropOp50
 70
     1
102
RTVSPost2010Prop51ColorIndex
 90
      256
102
RTVSPost2010Prop51ColorRGB
 90
-16777216
102
RTVSPost2010PropOp51
 70
     0
102
RTVSPost2010Prop52
140
1.0
102
RTVSPost2010PropOp52
 70
     0
102
RTVSPost2010Prop53
 90
        2
102
RTVSPost2010PropOp53
 70
     1
102
RTVSPost2010Prop54
  1
strokes_ogs.tif
102
RTVSPost2010PropOp54
 70
     1
102
RTVSPost2010Prop55
280
     0
102
RTVSPost2010PropOp55
 70
     1
102
RTVSPost2010Prop56
140
1.0
102
RTVSPost2010PropOp56
 70
     1
102
RTVSPost2010Prop57
140
1.0
102
RTVSPost2010PropOp57
 70
     1
102
RTVSPropertyOp0
 70
     1
102
RTVSPropertyOp1
 70
     1
102
RTVSPropertyOp2
 70
     1
102
RTVSPropertyOp3
 70
     1
102
RTVSPropertyOp4
 70
     1
102
RTVSPropertyOp5
 70
     1
102
RTVSPropertyOp6
 70
     1
102
RTVSPropertyOp7
 70
     1
102
RTVSPropertyOp8
 70
     1
102
RTVSPropertyOp9
 70
     1
102
RTVSPropertyOp10
 70
     1
102
RTVSPropertyOp11
 70
     1
102
RTVSPropertyOp12
 70
     1
102
RTVSPropertyOp13
 70
     1
102
RTVSPropertyOp14
 70
     1
102
RTVSPropertyOp15
 70
     1
102
RTVSPropertyOp16
 70
     1
102
RTVSPropertyOp17
 70
     1
102
RTVSPropertyOp18
 70
     1
102
RTVSPropertyOp19
 70
     1
102
RTVSPropertyOp20
 70
     1
102
RTVSPropertyOp21
 70
     1
102
RTVSPropertyOp22
 70
     1
102
RTVSPropertyOp23
 70
     1
102
RTVSPropertyOp24
 70
     1
102
RTVSPropertyOp25
 70
     1
102
RTVSPropertyOp26
 70
     1
102
RTVSPropertyOp27
 70
     1
102
RTVSPropertyOp28
 70
     1
102
RTVSPropertyOp29
 70
     1
102
RTVSPropertyOp30
 70
     1
102
RTVSPropertyOp31
 70
     1
102
RTVSPropertyOp32
 70
     1
102
RTVSPropertyOp33
 70
     1
102
RTVSPropertyOp34
 70
     1
102
RTVSPropertyOp35
 70
     1
102
RTVSPropertyOp36
 70
     1
102
RTVSPropertyOp37
 70
     1
102
RTVSPropertyOp38
 70
     1
102
RTVSPropertyOp39
 70
     1
102
RTVSPropertyOp40
 70
     1
102
RTVSPropertyOp41
 70
     1
102
RTVSPropertyOp42
 70
     1
102
RTVSPropertyOp43
 70
     1
102
RTVSPropertyOp44
 70
     1
102
RTVSPropertyOp45
 70
     1
102
RTVSPropertyOp46
 70
     1
102
RTVSPropertyOp47
 70
     1
102
RTVSPropertyOp48
 70
     1
102
RTVSPropertyOp49
 70
     1
102
RTVSPropertyOp50
 70
     1
102
RTVSPropertyOp51
 70
     0
102
RTVSPropertyOp52
 70
     0
102
RTVSPropertyOp53
 70
     1
102
RTVSPropertyOp54
 70
     1
102
RTVSPropertyOp55
 70
     1
102
RTVSPropertyOp56
 70
     1
102
RTVSPropertyOp57
 70
     1
102
RTVSPropertyOp58
 70
     1
102
RTVSPropertyOp59
 70
     1
102
RTVSPropertyOp60
 70
     1
102
RTVSPropertyOp61
 70
     1
102
RTVSPropertyOp62
 70
     1
  0
ENDSEC
  0
EOF
