  0
SECTION
  2
HEADER
  9
$ACADVER
  1
AC1015
  9
$ACADMAINTVER
 70
    20
  9
$DWGCODEPAGE
  3
ANSI_932
  9
$INSBASE
 10
0.0
 20
0.0
 30
0.0
  9
$EXTMIN
 10
10.0
 20
9.999999999999998
 30
0.0
  9
$EXTMAX
 10
446.7007119999998
 20
279.4739169999999
 30
0.0
  9
$LIMMIN
 10
0.0
 20
0.0
  9
$LIMMAX
 10
495.0
 20
341.25
  9
$ORTHOMODE
 70
     1
  9
$REGENMODE
 70
     1
  9
$FILLMODE
 70
     1
  9
$QTEXTMODE
 70
     0
  9
$MIRRTEXT
 70
     1
  9
$LTSCALE
 40
20.0
  9
$ATTMODE
 70
     1
  9
$TEXTSIZE
 40
5.0
  9
$TRACEWID
 40
1.0
  9
$TEXTSTYLE
  7
STANDARD
  9
$CLAYER
  8
0
  9
$CELTYPE
  6
BYLAYER
  9
$CECOLOR
 62
   256
  9
$CELTSCALE
 40
1.0
  9
$DISPSILH
 70
     0
  9
$DIMSCALE
 40
1.0
  9
$DIMASZ
 40
3.0
  9
$DIMEXO
 40
1.0
  9
$DIMDLI
 40
10.0
  9
$DIMRND
 40
0.0
  9
$DIMDLE
 40
0.0
  9
$DIMEXE
 40
1.0
  9
$DIMTP
 40
0.0
  9
$DIMTM
 40
0.0
  9
$DIMTXT
 40
3.2
  9
$DIMCEN
 40
0.0
  9
$DIMTSZ
 40
0.0
  9
$DIMTOL
 70
     0
  9
$DIMLIM
 70
     0
  9
$DIMTIH
 70
     0
  9
$DIMTOH
 70
     0
  9
$DIMSE1
 70
     0
  9
$DIMSE2
 70
     0
  9
$DIMTAD
 70
     3
  9
$DIMZIN
 70
     8
  9
$DIMBLK
  1

  9
$DIMASO
 70
     1
  9
$DIMSHO
 70
     1
  9
$DIMPOST
  1

  9
$DIMAPOST
  1

  9
$DIMALT
 70
     0
  9
$DIMALTD
 70
     2
  9
$DIMALTF
 40
25.4
  9
$DIMLFAC
 40
1.0
  9
$DIMTOFL
 70
     1
  9
$DIMTVP
 40
0.0
  9
$DIMTIX
 70
     0
  9
$DIMSOXD
 70
     0
  9
$DIMSAH
 70
     1
  9
$DIMBLK1
  1

  9
$DIMBLK2
  1

  9
$DIMSTYLE
  2
STANDARD
  9
$DIMCLRD
 70
     0
  9
$DIMCLRE
 70
     0
  9
$DIMCLRT
 70
     0
  9
$DIMTFAC
 40
1.0
  9
$DIMGAP
 40
1.0
  9
$DIMJUST
 70
     0
  9
$DIMSD1
 70
     0
  9
$DIMSD2
 70
     0
  9
$DIMTOLJ
 70
     1
  9
$DIMTZIN
 70
     0
  9
$DIMALTZ
 70
     0
  9
$DIMALTTZ
 70
     0
  9
$DIMUPT
 70
     0
  9
$DIMDEC
 70
     4
  9
$DIMTDEC
 70
     4
  9
$DIMALTU
 70
     2
  9
$DIMALTTD
 70
     2
  9
$DIMTXSTY
  7
STANDARD
  9
$DIMAUNIT
 70
     0
  9
$DIMADEC
 70
     0
  9
$DIMALTRND
 40
0.0
  9
$DIMAZIN
 70
     0
  9
$DIMDSEP
 70
    46
  9
$DIMATFIT
 70
     3
  9
$DIMFRAC
 70
     0
  9
$DIMLDRBLK
  1

  9
$DIMLUNIT
 70
     2
  9
$DIMLWD
 70
    -2
  9
$DIMLWE
 70
    -2
  9
$DIMTMOVE
 70
     0
  9
$LUNITS
 70
     2
  9
$LUPREC
 70
     4
  9
$SKETCHINC
 40
1.0
  9
$FILLETRAD
 40
2.0
  9
$AUNITS
 70
     0
  9
$AUPREC
 70
     2
  9
$MENU
  1
.
  9
$ELEVATION
 40
0.0
  9
$PELEVATION
 40
0.0
  9
$THICKNESS
 40
0.0
  9
$LIMCHECK
 70
     0
  9
$CHAMFERA
 40
10.0
  9
$CHAMFERB
 40
10.0
  9
$CHAMFERC
 40
0.0
  9
$CHAMFERD
 40
0.0
  9
$SKPOLY
 70
     0
  9
$TDCREATE
 40
2450737.744910417
  9
$TDUCREATE
 40
2450737.369910417
  9
$TDUPDATE
 40
2457192.638085614
  9
$TDUUPDATE
 40
2457192.263085614
  9
$TDINDWG
 40
0.0000147917
  9
$TDUSRTIMER
 40
0.0000143056
  9
$USRTIMER
 70
     1
  9
$ANGBASE
 50
0.0
  9
$ANGDIR
 70
     0
  9
$PDMODE
 70
     0
  9
$PDSIZE
 40
0.0
  9
$PLINEWID
 40
0.0
  9
$SPLFRAME
 70
     0
  9
$SPLINETYPE
 70
     6
  9
$SPLINESEGS
 70
     8
  9
$HANDSEED
  5
96A6
  9
$SURFTAB1
 70
     6
  9
$SURFTAB2
 70
     6
  9
$SURFTYPE
 70
     6
  9
$SURFU
 70
     6
  9
$SURFV
 70
     6
  9
$UCSBASE
  2

  9
$UCSNAME
  2

  9
$UCSORG
 10
0.0
 20
0.0
 30
0.0
  9
$UCSXDIR
 10
1.0
 20
0.0
 30
0.0
  9
$UCSYDIR
 10
0.0
 20
1.0
 30
0.0
  9
$UCSORTHOREF
  2

  9
$UCSORTHOVIEW
 70
     0
  9
$UCSORGTOP
 10
0.0
 20
0.0
 30
0.0
  9
$UCSORGBOTTOM
 10
0.0
 20
0.0
 30
0.0
  9
$UCSORGLEFT
 10
0.0
 20
0.0
 30
0.0
  9
$UCSORGRIGHT
 10
0.0
 20
0.0
 30
0.0
  9
$UCSORGFRONT
 10
0.0
 20
0.0
 30
0.0
  9
$UCSORGBACK
 10
0.0
 20
0.0
 30
0.0
  9
$PUCSBASE
  2

  9
$PUCSNAME
  2

  9
$PUCSORG
 10
0.0
 20
0.0
 30
0.0
  9
$PUCSXDIR
 10
1.0
 20
0.0
 30
0.0
  9
$PUCSYDIR
 10
0.0
 20
1.0
 30
0.0
  9
$PUCSORTHOREF
  2

  9
$PUCSORTHOVIEW
 70
     0
  9
$PUCSORGTOP
 10
0.0
 20
0.0
 30
0.0
  9
$PUCSORGBOTTOM
 10
0.0
 20
0.0
 30
0.0
  9
$PUCSORGLEFT
 10
0.0
 20
0.0
 30
0.0
  9
$PUCSORGRIGHT
 10
0.0
 20
0.0
 30
0.0
  9
$PUCSORGFRONT
 10
0.0
 20
0.0
 30
0.0
  9
$PUCSORGBACK
 10
0.0
 20
0.0
 30
0.0
  9
$USERI1
 70
     0
  9
$USERI2
 70
     0
  9
$USERI3
 70
     0
  9
$USERI4
 70
     0
  9
$USERI5
 70
     0
  9
$USERR1
 40
0.0
  9
$USERR2
 40
0.0
  9
$USERR3
 40
0.0
  9
$USERR4
 40
0.0
  9
$USERR5
 40
0.0
  9
$WORLDVIEW
 70
     1
  9
$SHADEDGE
 70
     3
  9
$SHADEDIF
 70
    70
  9
$TILEMODE
 70
     1
  9
$MAXACTVP
 70
    16
  9
$PINSBASE
 10
0.0
 20
0.0
 30
0.0
  9
$PLIMCHECK
 70
     0
  9
$PEXTMIN
 10
1.000000000000000E+20
 20
1.000000000000000E+20
 30
1.000000000000000E+20
  9
$PEXTMAX
 10
-1.000000000000000E+20
 20
-1.000000000000000E+20
 30
-1.000000000000000E+20
  9
$PLIMMIN
 10
0.0
 20
0.0
  9
$PLIMMAX
 10
420.0
 20
297.0
  9
$UNITMODE
 70
     0
  9
$VISRETAIN
 70
     0
  9
$PLINEGEN
 70
     0
  9
$PSLTSCALE
 70
     0
  9
$TREEDEPTH
 70
  3020
  9
$CMLSTYLE
  2
STANDARD
  9
$CMLJUST
 70
     0
  9
$CMLSCALE
 40
1.0
  9
$PROXYGRAPHICS
 70
     1
  9
$MEASUREMENT
 70
     0
  9
$CELWEIGHT
370
    -1
  9
$ENDCAPS
280
     0
  9
$JOINSTYLE
280
     0
  9
$LWDISPLAY
290
     0
  9
$INSUNITS
 70
     0
  9
$HYPERLINKBASE
  1

  9
$STYLESHEET
  1

  9
$XEDIT
290
     1
  9
$CEPSNTYPE
380
     0
  9
$PSTYLEMODE
290
     1
  9
$FINGERPRINTGUID
  2
{73A99953-51E6-4CD1-B530-F5AF013D274D}
  9
$VERSIONGUID
  2
{455F221C-EE57-4F41-94D9-071DCB09CBA7}
  9
$EXTNAMES
290
     1
  9
$PSVPSCALE
 40
0.0
  9
$OLESTARTUP
290
     0
  0
ENDSEC
  0
SECTION
  2
CLASSES
  0
CLASS
  1
ACDBDICTIONARYWDFLT
  2
AcDbDictionaryWithDefault
  3
ObjectDBX Classes
 90
        0
280
     0
281
     0
  0
CLASS
  1
ACDBPLACEHOLDER
  2
AcDbPlaceHolder
  3
ObjectDBX Classes
 90
        0
280
     0
281
     0
  0
CLASS
  1
LAYOUT
  2
AcDbLayout
  3
ObjectDBX Classes
 90
        0
280
     0
281
     0
  0
CLASS
  1
DICTIONARYVAR
  2
AcDbDictionaryVar
  3
ObjectDBX Classes
 90
        0
280
     0
281
     0
  0
CLASS
  1
MATERIAL
  2
AcDbMaterial
  3
ObjectDBX Classes
 90
     1153
280
     0
281
     0
  0
CLASS
  1
VISUALSTYLE
  2
AcDbVisualStyle
  3
ObjectDBX Classes
 90
     4095
280
     0
281
     0
  0
CLASS
  1
TABLESTYLE
  2
AcDbTableStyle
  3
ObjectDBX Classes
 90
     4095
280
     0
281
     0
  0
CLASS
  1
SCALE
  2
AcDbScale
  3
ObjectDBX Classes
 90
     1153
280
     0
281
     0
  0
CLASS
  1
MLEADERSTYLE
  2
AcDbMLeaderStyle
  3
ACDB_MLEADERSTYLE_CLASS
 90
     4095
280
     0
281
     0
  0
CLASS
  1
ACDBSECTIONVIEWSTYLE
  2
AcDbSectionViewStyle
  3
ObjectDBX Classes
 90
     1025
280
     0
281
     0
  0
CLASS
  1
ACDBDETAILVIEWSTYLE
  2
AcDbDetailViewStyle
  3
ObjectDBX Classes
 90
     1025
280
     0
281
     0
  0
CLASS
  1
CELLSTYLEMAP
  2
AcDbCellStyleMap
  3
ObjectDBX Classes
 90
     1152
280
     0
281
     0
  0
ENDSEC
  0
SECTION
  2
TABLES
  0
TABLE
  2
VPORT
  5
941C
330
0
100
AcDbSymbolTable
 70
     1
  0
VPORT
  5
95EF
330
941C
100
AcDbSymbolTableRecord
100
AcDbViewportTableRecord
  2
*ACTIVE
 70
     0
 10
0.0
 20
0.0
 11
1.0
 21
1.0
 12
309.9769981916998
 22
144.7328861251099
 13
0.0
 23
0.0
 14
10.0
 24
10.0
 15
10.0
 25
10.0
 16
0.0
 26
0.0
 36
1.0
 17
0.0
 27
0.0
 37
0.0
 40
272.5055869902369
 41
1.899603698811096
 42
50.0
 43
0.0
 44
0.0
 50
0.0
 51
0.0
 71
     0
 72
   100
 73
     1
 74
     0
 75
     0
 76
     0
 77
     0
 78
     0
281
     0
 65
     1
110
0.0
120
0.0
130
0.0
111
1.0
121
0.0
131
0.0
112
0.0
122
1.0
132
0.0
 79
     0
146
0.0
1001
ACAD_NAV_VCDISPLAY
1070
     3
  0
ENDTAB
  0
TABLE
  2
LTYPE
  5
9419
330
0
100
AcDbSymbolTable
 70
     4
  0
LTYPE
  5
9427
330
9419
100
AcDbSymbolTableRecord
100
AcDbLinetypeTableRecord
  2
BYBLOCK
 70
     0
  3

 72
    65
 73
     0
 40
0.0
  0
LTYPE
  5
9428
330
9419
100
AcDbSymbolTableRecord
100
AcDbLinetypeTableRecord
  2
BYLAYER
 70
     0
  3

 72
    65
 73
     0
 40
0.0
  0
LTYPE
  5
9429
330
9419
100
AcDbSymbolTableRecord
100
AcDbLinetypeTableRecord
  2
CONTINUOUS
 70
     0
  3
Solid line
 72
    65
 73
     0
 40
0.0
  0
LTYPE
  5
9437
330
9419
100
AcDbSymbolTableRecord
100
AcDbLinetypeTableRecord
  2
DASHED
 70
     0
  3
__ __ __ __ __ __ __ __ __ __ __ __ __ __ __ __
 72
    65
 73
     2
 40
0.75
 49
0.5
 74
     0
 49
-0.25
 74
     0
  0
LTYPE
  5
9438
330
9419
100
AcDbSymbolTableRecord
100
AcDbLinetypeTableRecord
  2
CENTER
 70
     0
  3
____ _ ____ _ ____ _ ____ _ ____ _ ____ _ ____ 
 72
    65
 73
     4
 40
2.0
 49
1.25
 74
     0
 49
-0.25
 74
     0
 49
0.25
 74
     0
 49
-0.25
 74
     0
  0
LTYPE
  5
9439
330
9419
100
AcDbSymbolTableRecord
100
AcDbLinetypeTableRecord
  2
PHANTOM
 70
     0
  3
______  __  __  ______  __  __  ______  __  __ 
 72
    65
 73
     6
 40
2.5
 49
1.25
 74
     0
 49
-0.25
 74
     0
 49
0.25
 74
     0
 49
-0.25
 74
     0
 49
0.25
 74
     0
 49
-0.25
 74
     0
  0
ENDTAB
  0
TABLE
  2
LAYER
  5
9416
330
0
100
AcDbSymbolTable
 70
     8
  0
LAYER
  5
9424
102
{ACAD_XDICTIONARY
360
964A
102
}
330
9416
100
AcDbSymbolTableRecord
100
AcDbLayerTableRecord
  2
0
 70
     0
 62
     7
  6
CONTINUOUS
370
    -3
390
95F8
  0
LAYER
  5
943A
102
{ACAD_XDICTIONARY
360
964C
102
}
330
9416
100
AcDbSymbolTableRecord
100
AcDbLayerTableRecord
  2
4
 70
     0
 62
     1
  6
CENTER
370
    -3
390
95F8
  0
LAYER
  5
943B
102
{ACAD_XDICTIONARY
360
964E
102
}
330
9416
100
AcDbSymbolTableRecord
100
AcDbLayerTableRecord
  2
5
 70
     0
 62
     6
  6
PHANTOM
370
    -3
390
95F8
  0
LAYER
  5
943C
102
{ACAD_XDICTIONARY
360
9650
102
}
330
9416
100
AcDbSymbolTableRecord
100
AcDbLayerTableRecord
  2
1
 70
     0
 62
     7
  6
CONTINUOUS
370
    -3
390
95F8
  0
LAYER
  5
943D
102
{ACAD_XDICTIONARY
360
9652
102
}
330
9416
100
AcDbSymbolTableRecord
100
AcDbLayerTableRecord
  2
2
 70
     0
 62
     4
  6
CONTINUOUS
370
    -3
390
95F8
  0
LAYER
  5
943E
102
{ACAD_XDICTIONARY
360
9654
102
}
330
9416
100
AcDbSymbolTableRecord
100
AcDbLayerTableRecord
  2
3
 70
     0
 62
     2
  6
DASHED
370
    -3
390
95F8
  0
LAYER
  5
943F
102
{ACAD_XDICTIONARY
360
9656
102
}
330
9416
100
AcDbSymbolTableRecord
100
AcDbLayerTableRecord
  2
6
 70
     0
 62
     5
  6
CONTINUOUS
370
    -3
390
95F8
  0
LAYER
  5
9440
102
{ACAD_XDICTIONARY
360
9658
102
}
330
9416
100
AcDbSymbolTableRecord
100
AcDbLayerTableRecord
  2
7
 70
     0
 62
     3
  6
CONTINUOUS
370
    -3
390
95F8
  0
ENDTAB
  0
TABLE
  2
STYLE
  5
9417
330
0
100
AcDbSymbolTable
 70
     1
  0
STYLE
  5
9425
330
9417
100
AcDbSymbolTableRecord
100
AcDbTextStyleTableRecord
  2
STANDARD
 70
     0
 40
0.0
 41
1.0
 50
0.0
 71
     0
 42
5.0
  3
txt
  4

  0
ENDTAB
  0
TABLE
  2
VIEW
  5
941A
330
0
100
AcDbSymbolTable
 70
     0
  0
ENDTAB
  0
TABLE
  2
UCS
  5
941B
330
0
100
AcDbSymbolTable
 70
     0
  0
ENDTAB
  0
TABLE
  2
APPID
  5
941D
330
0
100
AcDbSymbolTable
 70
     3
  0
APPID
  5
9426
330
941D
100
AcDbSymbolTableRecord
100
AcDbRegAppTableRecord
  2
ACAD
 70
     0
  0
APPID
  5
9664
330
941D
100
AcDbSymbolTableRecord
100
AcDbRegAppTableRecord
  2
ACAD_NAV_VCDISPLAY
 70
     0
  0
APPID
  5
969D
330
941D
100
AcDbSymbolTableRecord
100
AcDbRegAppTableRecord
  2
ACAD_MLEADERVER
 70
     0
  0
ENDTAB
  0
TABLE
  2
DIMSTYLE
  5
941E
330
0
100
AcDbSymbolTable
 70
     1
100
AcDbDimStyleTable
 71
     0
  0
DIMSTYLE
105
9442
330
941E
100
AcDbSymbolTableRecord
100
AcDbDimStyleTableRecord
  2
STANDARD
 70
     0
 41
3.0
 42
1.0
 43
10.0
 44
1.0
 73
     0
 74
     0
 77
     3
 78
     8
140
3.2
141
0.0
147
1.0
172
     1
173
     1
284
     8
285
     8
286
     8
340
9425
  0
ENDTAB
  0
TABLE
  2
BLOCK_RECORD
  5
9415
330
0
100
AcDbSymbolTable
 70
     0
  0
BLOCK_RECORD
  5
9432
102
{ACAD_XDICTIONARY
360
95F2
102
}
330
9415
100
AcDbSymbolTableRecord
100
AcDbBlockTableRecord
  2
*MODEL_SPACE
340
9646
  0
BLOCK_RECORD
  5
942E
102
{ACAD_XDICTIONARY
360
95F0
102
}
330
9415
100
AcDbSymbolTableRecord
100
AcDbBlockTableRecord
  2
*PAPER_SPACE
340
9647
  0
ENDTAB
  0
ENDSEC
  0
SECTION
  2
BLOCKS
  0
BLOCK
  5
9433
330
9432
100
AcDbEntity
  8
0
100
AcDbBlockBegin
  2
*MODEL_SPACE
 70
     0
 10
0.0
 20
0.0
 30
0.0
  3
*MODEL_SPACE
  1

  0
ENDBLK
  5
9434
330
9432
100
AcDbEntity
  8
0
100
AcDbBlockEnd
  0
BLOCK
  5
942F
330
942E
100
AcDbEntity
 67
     1
  8
0
100
AcDbBlockBegin
  2
*PAPER_SPACE
 70
     0
 10
0.0
 20
0.0
 30
0.0
  3
*PAPER_SPACE
  1

  0
ENDBLK
  5
9430
330
942E
100
AcDbEntity
 67
     1
  8
0
100
AcDbBlockEnd
  0
ENDSEC
  0
SECTION
  2
ENTITIES
  0
TEXT
  5
944A
330
9432
100
AcDbEntity
  8
7
  6
Continuous
100
AcDbText
 10
10.0
 20
18.0
 30
0.0
 40
3.0
  1
TYPE No.THA-172-2
100
AcDbText
  0
TEXT
  5
944B
330
9432
100
AcDbEntity
  8
7
  6
Continuous
100
AcDbText
 10
10.0
 20
26.0
 30
0.0
 40
3.0
  1
CODE No.3892
100
AcDbText
  0
TEXT
  5
944C
330
9432
100
AcDbEntity
  8
1
  6
Continuous
100
AcDbText
 10
10.0
 20
10.0
 30
0.0
 40
1.399999999999999
  1
LAYER
100
AcDbText
  0
TEXT
  5
944D
330
9432
100
AcDbEntity
  8
1
  6
Continuous
100
AcDbText
 10
17.97951099999998
 20
10.04873699999998
 30
0.0
 40
1.399999999999999
  1
1
100
AcDbText
  0
TEXT
  5
944E
330
9432
100
AcDbEntity
  8
7
  6
Continuous
100
AcDbText
 10
29.97951099999999
 20
10.04873699999998
 30
0.0
 40
1.399999999999999
  1
7
100
AcDbText
  0
TEXT
  5
944F
330
9432
100
AcDbEntity
  8
4
  6
CENTER
100
AcDbText
 10
23.97951099999999
 20
10.04873699999998
 30
0.0
 40
1.399999999999999
  1
4
100
AcDbText
  0
TEXT
  5
9450
330
9432
100
AcDbEntity
  8
3
  6
DASHED
100
AcDbText
 10
21.979511
 20
10.04873699999998
 30
0.0
 40
1.399999999999999
  1
3
100
AcDbText
  0
TEXT
  5
9451
330
9432
100
AcDbEntity
  8
2
  6
Continuous
100
AcDbText
 10
19.97951099999999
 20
10.04873699999998
 30
0.0
 40
1.399999999999999
  1
2
100
AcDbText
  0
TEXT
  5
9452
330
9432
100
AcDbEntity
  8
6
  6
Continuous
100
AcDbText
 10
27.979511
 20
10.04873699999998
 30
0.0
 40
1.399999999999999
  1
6
100
AcDbText
  0
TEXT
  5
9453
330
9432
100
AcDbEntity
  8
5
  6
PHANTOM
100
AcDbText
 10
25.97951099999999
 20
10.04873699999998
 30
0.0
 40
1.399999999999999
  1
5
100
AcDbText
  0
LINE
  5
9454
330
9432
100
AcDbEntity
  8
1
  6
Continuous
100
AcDbLine
 10
245.4788119999999
 20
114.4739169999999
 30
0.0
 11
245.4788119999999
 21
203.4739169999999
 31
0.0
  0
LINE
  5
9455
330
9432
100
AcDbEntity
  8
1
  6
Continuous
100
AcDbLine
 10
257.478812
 20
197.973917
 30
0.0
 11
257.478812
 21
179.4739169999998
 31
0.0
  0
LINE
  5
9456
330
9432
100
AcDbEntity
  8
1
  6
Continuous
100
AcDbLine
 10
238.9788119999999
 20
197.973917
 30
0.0
 11
238.9788119999999
 21
119.9739169999999
 31
0.0
  0
LINE
  5
9457
330
9432
100
AcDbEntity
  8
1
  6
Continuous
100
AcDbLine
 10
240.9788119999999
 20
203.4739169999999
 30
0.0
 11
240.9788119999999
 21
114.4739169999999
 31
0.0
  0
LINE
  5
9458
330
9432
100
AcDbEntity
  8
1
  6
Continuous
100
AcDbLine
 10
243.4788119999999
 20
203.4739169999999
 30
0.0
 11
243.4788119999999
 21
114.4739169999999
 31
0.0
  0
ARC
  5
9459
330
9432
100
AcDbEntity
  8
1
  6
Continuous
100
AcDbCircle
 10
37.97881199999999
 20
195.9739169999998
 30
0.0
 40
2.5
100
AcDbArc
 50
90.0
 51
180.0
  0
ARC
  5
945A
330
9432
100
AcDbEntity
  8
1
  6
Continuous
100
AcDbCircle
 10
37.97881199999999
 20
195.9739169999998
 30
0.0
 40
3.5
100
AcDbArc
 50
90.0
 51
180.0
  0
ARC
  5
945B
330
9432
100
AcDbEntity
  8
1
  6
Continuous
100
AcDbCircle
 10
37.97881199999999
 20
195.9739169999998
 30
0.0
 40
5.5
100
AcDbArc
 50
90.0
 51
180.0
  0
ARC
  5
945C
330
9432
100
AcDbEntity
  8
1
  6
Continuous
100
AcDbCircle
 10
141.9788119999998
 20
195.9739169999998
 30
0.0
 40
2.5
100
AcDbArc
 50
0.0
 51
90.0
  0
ARC
  5
945D
330
9432
100
AcDbEntity
  8
1
  6
Continuous
100
AcDbCircle
 10
141.9788119999998
 20
195.9739169999998
 30
0.0
 40
3.5
100
AcDbArc
 50
0.0
 51
90.0
  0
ARC
  5
945E
330
9432
100
AcDbEntity
  8
1
  6
Continuous
100
AcDbCircle
 10
141.9788119999998
 20
195.9739169999998
 30
0.0
 40
5.5
100
AcDbArc
 50
0.0
 51
90.0
  0
LINE
  5
945F
330
9432
100
AcDbEntity
  8
4
  6
CENTER
100
AcDbLine
 10
89.978812
 20
213.9739169999999
 30
0.0
 11
89.978812
 21
103.973917
 31
0.0
  0
LINE
  5
9460
330
9432
100
AcDbEntity
  8
1
  6
Continuous
100
AcDbLine
 10
158.978812
 20
201.973917
 30
0.0
 11
158.978812
 21
115.9739169999999
 31
0.0
  0
LINE
  5
9461
330
9432
100
AcDbEntity
  8
1
  6
Continuous
100
AcDbLine
 10
20.97881199999999
 20
201.973917
 30
0.0
 11
20.97881199999999
 21
115.9739169999999
 31
0.0
  0
LINE
  5
9462
330
9432
100
AcDbEntity
  8
1
  6
Continuous
100
AcDbLine
 10
143.978812
 20
45.473917
 30
0.0
 11
133.478812
 21
45.473917
 31
0.0
  0
LINE
  5
9463
330
9432
100
AcDbEntity
  8
1
  6
Continuous
100
AcDbLine
 10
35.97881199999999
 20
48.473917
 30
0.0
 11
143.978812
 21
48.473917
 31
0.0
  0
LINE
  5
9464
330
9432
100
AcDbEntity
  8
1
  6
Continuous
100
AcDbLine
 10
35.47881199999999
 20
63.973917
 30
0.0
 11
144.478812
 21
63.973917
 31
0.0
  0
LINE
  5
9465
330
9432
100
AcDbEntity
  8
1
  6
Continuous
100
AcDbLine
 10
21.478812
 20
61.973917
 30
0.0
 11
158.4788119999998
 21
61.973917
 31
0.0
  0
LINE
  5
9466
330
9432
100
AcDbEntity
  8
1
  6
Continuous
100
AcDbLine
 10
21.478812
 20
59.473917
 30
0.0
 11
32.428816
 21
59.473917
 31
0.0
  0
LINE
  5
9467
330
9432
100
AcDbEntity
  8
4
  6
CENTER
100
AcDbLine
 10
10.97881199999999
 20
158.973917
 30
0.0
 11
168.978812
 21
158.973917
 31
0.0
  0
LINE
  5
9468
330
9432
100
AcDbEntity
  8
1
  6
Continuous
100
AcDbLine
 10
140.9788119999998
 20
178.973917
 30
0.0
 11
141.478812
 21
178.973917
 31
0.0
  0
LINE
  5
9469
330
9432
100
AcDbEntity
  8
4
  6
CENTER
100
AcDbLine
 10
27.991273
 20
185.1739169999999
 30
0.0
 11
151.9663509999998
 21
185.1739169999999
 31
0.0
  0
LINE
  5
946A
330
9432
100
AcDbEntity
  8
1
  6
Continuous
100
AcDbLine
 10
38.47881199999999
 20
121.9739169999999
 30
0.0
 11
141.478812
 21
121.9739169999999
 31
0.0
  0
LINE
  5
946B
330
9432
100
AcDbEntity
  8
1
  6
Continuous
100
AcDbLine
 10
37.97881199999999
 20
119.4739169999998
 30
0.0
 11
141.9788119999998
 21
119.4739169999998
 31
0.0
  0
LINE
  5
946C
330
9432
100
AcDbEntity
  8
1
  6
Continuous
100
AcDbLine
 10
37.97881199999999
 20
118.4739169999998
 30
0.0
 11
141.9788119999998
 21
118.4739169999998
 31
0.0
  0
LINE
  5
946D
330
9432
100
AcDbEntity
  8
1
  6
Continuous
100
AcDbLine
 10
37.97881199999999
 20
116.4739169999998
 30
0.0
 11
141.9788119999998
 21
116.4739169999998
 31
0.0
  0
LINE
  5
946E
330
9432
100
AcDbEntity
  8
1
  6
Continuous
100
AcDbLine
 10
38.47881199999999
 20
195.9739169999998
 30
0.0
 11
141.478812
 21
195.9739169999998
 31
0.0
  0
LINE
  5
946F
330
9432
100
AcDbEntity
  8
1
  6
Continuous
100
AcDbLine
 10
22.97881199999999
 20
113.9739169999999
 30
0.0
 11
156.978812
 21
113.9739169999999
 31
0.0
  0
LINE
  5
9470
330
9432
100
AcDbEntity
  8
4
  6
CENTER
100
AcDbLine
 10
54.978817
 20
50.473917
 30
0.0
 11
54.978817
 21
44.34491699999997
 31
0.0
  0
LINE
  5
9471
330
9432
100
AcDbEntity
  8
1
  6
Continuous
100
AcDbLine
 10
35.47881199999999
 20
55.47391700000001
 30
0.0
 11
35.47881199999999
 21
45.973917
 31
0.0
  0
ARC
  5
9472
330
9432
100
AcDbEntity
  8
1
  6
Continuous
100
AcDbCircle
 10
35.97881199999999
 20
48.973917
 30
0.0
 40
0.5
100
AcDbArc
 50
180.0
 51
270.0
  0
ARC
  5
9473
330
9432
100
AcDbEntity
  8
1
  6
Continuous
100
AcDbCircle
 10
35.97881199999999
 20
45.973917
 30
0.0
 40
0.5
100
AcDbArc
 50
180.0
 51
270.0
  0
ARC
  5
9474
330
9432
100
AcDbEntity
  8
1
  6
Continuous
100
AcDbCircle
 10
53.60381199999999
 20
50.04491699999999
 30
0.0
 40
3.97149
100
AcDbArc
 50
249.744
 51
290.2559999999999
  0
LINE
  5
9475
330
9432
100
AcDbEntity
  8
1
  6
Continuous
100
AcDbLine
 10
57.728812
 20
46.07391699999999
 30
0.0
 11
52.22881199999999
 21
46.07391699999999
 31
0.0
  0
LINE
  5
9476
330
9432
100
AcDbEntity
  8
1
  6
Continuous
100
AcDbLine
 10
57.728812
 20
48.473917
 30
0.0
 11
52.22881199999999
 21
48.473917
 31
0.0
  0
LINE
  5
9477
330
9432
100
AcDbEntity
  8
1
  6
Continuous
100
AcDbLine
 10
35.97881199999999
 20
45.473917
 30
0.0
 11
46.47881199999999
 21
45.473917
 31
0.0
  0
ARC
  5
9478
330
9432
100
AcDbEntity
  8
1
  6
Continuous
100
AcDbCircle
 10
46.47881199999999
 20
45.973917
 30
0.0
 40
0.5
100
AcDbArc
 50
270.0
 51
0.0
  0
ARC
  5
9479
330
9432
100
AcDbEntity
  8
1
  6
Continuous
100
AcDbCircle
 10
47.478812
 20
47.973917
 30
0.0
 40
0.5
100
AcDbArc
 50
90.0
 51
180.0
  0
LINE
  5
947A
330
9432
100
AcDbEntity
  8
1
  6
Continuous
100
AcDbLine
 10
46.978812
 20
47.973917
 30
0.0
 11
46.978812
 21
45.973917
 31
0.0
  0
LINE
  5
947B
330
9432
100
AcDbEntity
  8
1
  6
Continuous
100
AcDbLine
 10
52.22881199999999
 20
48.473917
 30
0.0
 11
52.22881199999999
 21
46.07391699999999
 31
0.0
  0
ARC
  5
947C
330
9432
100
AcDbEntity
  8
1
  6
Continuous
100
AcDbCircle
 10
56.353812
 20
50.04491699999999
 30
0.0
 40
3.97149
100
AcDbArc
 50
249.744
 51
290.2559999999999
  0
LINE
  5
947D
330
9432
100
AcDbEntity
  8
2
  6
Continuous
100
AcDbLine
 10
53.749327
 20
46.07391699999999
 30
0.0
 11
53.749327
 21
45.473917
 31
0.0
  0
LINE
  5
947E
330
9432
100
AcDbEntity
  8
2
  6
Continuous
100
AcDbLine
 10
56.20830699999999
 20
46.07391699999999
 30
0.0
 11
56.20830699999999
 21
45.473917
 31
0.0
  0
LINE
  5
947F
330
9432
100
AcDbEntity
  8
1
  6
Continuous
100
AcDbLine
 10
56.47881700000001
 20
46.07391699999999
 30
0.0
 11
56.47881700000001
 21
45.473917
 31
0.0
  0
LINE
  5
9480
330
9432
100
AcDbEntity
  8
1
  6
Continuous
100
AcDbLine
 10
53.47881700000001
 20
46.07391699999999
 30
0.0
 11
53.47881700000001
 21
45.473917
 31
0.0
  0
LINE
  5
9481
330
9432
100
AcDbEntity
  8
1
  6
Continuous
100
AcDbLine
 10
53.47881700000001
 20
45.473917
 30
0.0
 11
56.47881700000001
 21
45.473917
 31
0.0
  0
LINE
  5
9482
330
9432
100
AcDbEntity
  8
1
  6
Continuous
100
AcDbLine
 10
57.728812
 20
48.473917
 30
0.0
 11
57.728812
 21
46.07391699999999
 31
0.0
  0
LINE
  5
9483
330
9432
100
AcDbEntity
  8
1
  6
Continuous
100
AcDbLine
 10
54.978812
 20
48.473917
 30
0.0
 11
54.978812
 21
46.31891699999999
 31
0.0
  0
ARC
  5
9484
330
9432
100
AcDbEntity
  8
1
  6
Continuous
100
AcDbCircle
 10
33.47881199999999
 20
55.47391700000001
 30
0.0
 40
2.0
100
AcDbArc
 50
0.0
 51
90.0
  0
LINE
  5
9485
330
9432
100
AcDbEntity
  8
1
  6
Continuous
100
AcDbLine
 10
20.97881199999999
 20
61.473917
 30
0.0
 11
20.97881199999999
 21
59.97391700000001
 31
0.0
  0
LINE
  5
9486
330
9432
100
AcDbEntity
  8
4
  6
CENTER
100
AcDbLine
 10
25.97881199999999
 20
64.973917
 30
0.0
 11
25.97881199999999
 21
56.473917
 31
0.0
  0
ARC
  5
9487
330
9432
100
AcDbEntity
  8
1
  6
Continuous
100
AcDbCircle
 10
21.478812
 20
59.97391700000001
 30
0.0
 40
0.5
100
AcDbArc
 50
180.0
 51
270.0
  0
LINE
  5
9488
330
9432
100
AcDbEntity
  8
1
  6
Continuous
100
AcDbLine
 10
30.47881199999999
 20
58.973917
 30
0.0
 11
30.47881199999999
 21
57.97391700000001
 31
0.0
  0
LINE
  5
9489
330
9432
100
AcDbEntity
  8
1
  6
Continuous
100
AcDbLine
 10
30.97881199999999
 20
57.47391700000001
 30
0.0
 11
148.978812
 21
57.47391700000001
 31
0.0
  0
ARC
  5
948A
330
9432
100
AcDbEntity
  8
1
  6
Continuous
100
AcDbCircle
 10
30.97881199999999
 20
57.97391700000001
 30
0.0
 40
0.5
100
AcDbArc
 50
180.0
 51
270.0
  0
ARC
  5
948B
330
9432
100
AcDbEntity
  8
1
  6
Continuous
100
AcDbCircle
 10
29.978812
 20
58.973917
 30
0.0
 40
0.5
100
AcDbArc
 50
0.0
 51
90.0
  0
ARC
  5
948C
330
9432
100
AcDbEntity
  8
1
  6
Continuous
100
AcDbCircle
 10
21.478812
 20
61.473917
 30
0.0
 40
0.5
100
AcDbArc
 50
90.0
 51
180.0
  0
LINE
  5
948D
330
9432
100
AcDbEntity
  8
4
  6
CENTER
100
AcDbLine
 10
124.978807
 20
50.473917
 30
0.0
 11
124.978807
 21
44.34491699999997
 31
0.0
  0
LINE
  5
948E
330
9432
100
AcDbEntity
  8
4
  6
CENTER
100
AcDbLine
 10
89.978812
 20
73.973917
 30
0.0
 11
89.978812
 21
38.473917
 31
0.0
  0
LINE
  5
948F
330
9432
100
AcDbEntity
  8
1
  6
Continuous
100
AcDbLine
 10
122.2288119999999
 20
48.473917
 30
0.0
 11
127.728812
 21
48.473917
 31
0.0
  0
ARC
  5
9490
330
9432
100
AcDbEntity
  8
1
  6
Continuous
100
AcDbCircle
 10
123.603812
 20
50.04491699999999
 30
0.0
 40
3.97149
100
AcDbArc
 50
249.744
 51
290.2559999999999
  0
LINE
  5
9491
330
9432
100
AcDbEntity
  8
1
  6
Continuous
100
AcDbLine
 10
122.2288119999999
 20
46.07391699999999
 30
0.0
 11
127.728812
 21
46.07391699999999
 31
0.0
  0
LINE
  5
9492
330
9432
100
AcDbEntity
  8
1
  6
Continuous
100
AcDbLine
 10
126.478807
 20
45.473917
 30
0.0
 11
123.478807
 21
45.473917
 31
0.0
  0
LINE
  5
9493
330
9432
100
AcDbEntity
  8
1
  6
Continuous
100
AcDbLine
 10
123.478807
 20
46.07391699999999
 30
0.0
 11
123.478807
 21
45.473917
 31
0.0
  0
LINE
  5
9494
330
9432
100
AcDbEntity
  8
1
  6
Continuous
100
AcDbLine
 10
122.2288119999999
 20
48.473917
 30
0.0
 11
122.2288119999999
 21
46.07391699999999
 31
0.0
  0
ARC
  5
9495
330
9432
100
AcDbEntity
  8
1
  6
Continuous
100
AcDbCircle
 10
132.478812
 20
47.973917
 30
0.0
 40
0.5
100
AcDbArc
 50
0.0
 51
90.0
  0
LINE
  5
9496
330
9432
100
AcDbEntity
  8
2
  6
Continuous
100
AcDbLine
 10
126.208297
 20
46.07391699999999
 30
0.0
 11
126.208297
 21
45.473917
 31
0.0
  0
LINE
  5
9497
330
9432
100
AcDbEntity
  8
2
  6
Continuous
100
AcDbLine
 10
123.749317
 20
46.07391699999999
 30
0.0
 11
123.749317
 21
45.473917
 31
0.0
  0
LINE
  5
9498
330
9432
100
AcDbEntity
  8
1
  6
Continuous
100
AcDbLine
 10
126.478807
 20
46.07391699999999
 30
0.0
 11
126.478807
 21
45.473917
 31
0.0
  0
ARC
  5
9499
330
9432
100
AcDbEntity
  8
1
  6
Continuous
100
AcDbCircle
 10
126.3538119999999
 20
50.04491699999999
 30
0.0
 40
3.97149
100
AcDbArc
 50
249.744
 51
290.2559999999999
  0
LINE
  5
949A
330
9432
100
AcDbEntity
  8
1
  6
Continuous
100
AcDbLine
 10
124.978812
 20
48.473917
 30
0.0
 11
124.978812
 21
46.31891699999999
 31
0.0
  0
LINE
  5
949B
330
9432
100
AcDbEntity
  8
1
  6
Continuous
100
AcDbLine
 10
127.728812
 20
48.473917
 30
0.0
 11
127.728812
 21
46.07391699999999
 31
0.0
  0
ARC
  5
949C
330
9432
100
AcDbEntity
  8
1
  6
Continuous
100
AcDbCircle
 10
133.478812
 20
45.973917
 30
0.0
 40
0.5
100
AcDbArc
 50
180.0
 51
270.0
  0
LINE
  5
949D
330
9432
100
AcDbEntity
  8
1
  6
Continuous
100
AcDbLine
 10
132.978812
 20
47.973917
 30
0.0
 11
132.978812
 21
45.973917
 31
0.0
  0
LINE
  5
949E
330
9432
100
AcDbEntity
  8
1
  6
Continuous
100
AcDbLine
 10
49.978812
 20
140.1739169999999
 30
0.0
 11
129.978812
 21
140.1739169999999
 31
0.0
  0
LINE
  5
949F
330
9432
100
AcDbEntity
  8
1
  6
Continuous
100
AcDbLine
 10
39.47881199999999
 20
123.1739169999999
 30
0.0
 11
140.478812
 21
123.1739169999999
 31
0.0
  0
LINE
  5
94A0
330
9432
100
AcDbEntity
  8
1
  6
Continuous
100
AcDbLine
 10
44.978812
 20
178.1739169999999
 30
0.0
 11
134.978812
 21
178.1739169999999
 31
0.0
  0
LINE
  5
94A1
330
9432
100
AcDbEntity
  8
1
  6
Continuous
100
AcDbLine
 10
44.978812
 20
195.9739169999998
 30
0.0
 11
44.978812
 21
142.857292
 31
0.0
  0
LINE
  5
94A2
330
9432
100
AcDbEntity
  8
1
  6
Continuous
100
AcDbLine
 10
43.97881199999999
 20
192.6739169999999
 30
0.0
 11
43.97881199999999
 21
146.1739169999999
 31
0.0
  0
LINE
  5
94A3
330
9432
100
AcDbEntity
  8
1
  6
Continuous
100
AcDbLine
 10
38.978812
 20
192.6739169999999
 30
0.0
 11
38.978812
 21
123.6739169999998
 31
0.0
  0
LINE
  5
94A4
330
9432
100
AcDbEntity
  8
1
  6
Continuous
100
AcDbLine
 10
37.97881199999999
 20
195.473917
 30
0.0
 11
37.97881199999999
 21
122.4739169999998
 31
0.0
  0
LINE
  5
94A5
330
9432
100
AcDbEntity
  8
1
  6
Continuous
100
AcDbLine
 10
35.47881199999999
 20
195.9739169999998
 30
0.0
 11
35.47881199999999
 21
121.9739169999999
 31
0.0
  0
LINE
  5
94A6
330
9432
100
AcDbEntity
  8
1
  6
Continuous
100
AcDbLine
 10
34.47881199999999
 20
195.9739169999998
 30
0.0
 11
34.47881199999999
 21
121.9739169999999
 31
0.0
  0
LINE
  5
94A7
330
9432
100
AcDbEntity
  8
1
  6
Continuous
100
AcDbLine
 10
32.478812
 20
195.9739169999998
 30
0.0
 11
32.478812
 21
121.9739169999999
 31
0.0
  0
ARC
  5
94A8
330
9432
100
AcDbEntity
  8
1
  6
Continuous
100
AcDbCircle
 10
37.97881199999999
 20
121.9739169999999
 30
0.0
 40
5.5
100
AcDbArc
 50
180.0
 51
270.0
  0
ARC
  5
94A9
330
9432
100
AcDbEntity
  8
1
  6
Continuous
100
AcDbCircle
 10
37.97881199999999
 20
121.9739169999999
 30
0.0
 40
3.5
100
AcDbArc
 50
180.0
 51
270.0
  0
ARC
  5
94AA
330
9432
100
AcDbEntity
  8
1
  6
Continuous
100
AcDbCircle
 10
37.97881199999999
 20
121.9739169999999
 30
0.0
 40
2.5
100
AcDbArc
 50
180.0
 51
270.0
  0
ARC
  5
94AB
330
9432
100
AcDbEntity
  8
1
  6
Continuous
100
AcDbCircle
 10
22.97881199999999
 20
115.9739169999999
 30
0.0
 40
2.0
100
AcDbArc
 50
180.0
 51
270.0
  0
LINE
  5
94AC
330
9432
100
AcDbEntity
  8
4
  6
CENTER
100
AcDbLine
 10
25.97881199999999
 20
135.2739169999999
 30
0.0
 11
25.97881199999999
 21
122.6739169999998
 31
0.0
  0
LINE
  5
94AD
330
9432
100
AcDbEntity
  8
4
  6
CENTER
100
AcDbLine
 10
19.678812
 20
128.973917
 30
0.0
 11
32.27881200000001
 21
128.973917
 31
0.0
  0
CIRCLE
  5
94AE
330
9432
100
AcDbEntity
  8
1
  6
Continuous
100
AcDbCircle
 10
25.97881199999999
 20
128.973917
 30
0.0
 40
2.149999999999999
  0
CIRCLE
  5
94AF
330
9432
100
AcDbEntity
  8
1
  6
Continuous
100
AcDbCircle
 10
25.97881199999999
 20
128.973917
 30
0.0
 40
4.299999999999998
  0
ARC
  5
94B0
330
9432
100
AcDbEntity
  8
1
  6
Continuous
100
AcDbCircle
 10
38.47881199999999
 20
122.4739169999998
 30
0.0
 40
0.5
100
AcDbArc
 50
180.0
 51
270.0
  0
ARC
  5
94B1
330
9432
100
AcDbEntity
  8
1
  6
Continuous
100
AcDbCircle
 10
39.47881199999999
 20
123.6739169999998
 30
0.0
 40
0.5
100
AcDbArc
 50
180.0
 51
270.0
  0
ARC
  5
94B2
330
9432
100
AcDbEntity
  8
1
  6
Continuous
100
AcDbCircle
 10
49.978812
 20
146.1739169999999
 30
0.0
 40
6.0
100
AcDbArc
 50
180.0
 51
270.0
  0
LINE
  5
94B3
330
9432
100
AcDbEntity
  8
4
  6
CENTER
100
AcDbLine
 10
25.97881199999999
 20
195.2739169999999
 30
0.0
 11
25.97881199999999
 21
182.6739169999999
 31
0.0
  0
LINE
  5
94B4
330
9432
100
AcDbEntity
  8
4
  6
CENTER
100
AcDbLine
 10
19.678812
 20
188.973917
 30
0.0
 11
32.27881200000001
 21
188.973917
 31
0.0
  0
CIRCLE
  5
94B5
330
9432
100
AcDbEntity
  8
1
  6
Continuous
100
AcDbCircle
 10
25.97881199999999
 20
188.973917
 30
0.0
 40
2.149999999999999
  0
CIRCLE
  5
94B6
330
9432
100
AcDbEntity
  8
1
  6
Continuous
100
AcDbCircle
 10
25.97881199999999
 20
188.973917
 30
0.0
 40
4.299999999999998
  0
LINE
  5
94B7
330
9432
100
AcDbEntity
  8
1
  6
Continuous
100
AcDbLine
 10
54.28574799999999
 20
171.4740159999998
 30
0.0
 11
54.06250799999999
 21
172.0564669999999
 31
0.0
  0
LINE
  5
94B8
330
9432
100
AcDbEntity
  8
4
  6
CENTER
100
AcDbLine
 10
54.978812
 20
167.057917
 30
0.0
 11
54.978812
 21
175.9469169999999
 31
0.0
  0
LINE
  5
94B9
330
9432
100
AcDbEntity
  8
1
  6
Continuous
100
AcDbLine
 10
55.67258299999998
 20
171.4745249999998
 30
0.0
 11
55.89556899999998
 21
172.056226
 31
0.0
  0
CIRCLE
  5
94BA
330
9432
100
AcDbEntity
  8
1
  6
Continuous
100
AcDbCircle
 10
54.978812
 20
171.473917
 30
0.0
 40
3.45
  0
LINE
  5
94BB
330
9432
100
AcDbEntity
  8
4
  6
CENTER
100
AcDbLine
 10
50.709232
 20
171.473917
 30
0.0
 11
59.170772
 21
171.473917
 31
0.0
  0
LINE
  5
94BC
330
9432
100
AcDbEntity
  8
1
  6
Continuous
100
AcDbLine
 10
54.28574799999999
 20
171.4740159999998
 30
0.0
 11
54.062762
 21
170.892314
 31
0.0
  0
LINE
  5
94BD
330
9432
100
AcDbEntity
  8
1
  6
Continuous
100
AcDbLine
 10
54.062762
 20
170.892314
 30
0.0
 11
53.804308
 21
170.624681
 31
0.0
  0
LINE
  5
94BE
330
9432
100
AcDbEntity
  8
1
  6
Continuous
100
AcDbLine
 10
54.978911
 20
170.780853
 30
0.0
 11
54.39721
 21
170.5578669999999
 31
0.0
  0
LINE
  5
94BF
330
9432
100
AcDbEntity
  8
1
  6
Continuous
100
AcDbLine
 10
54.978911
 20
170.780853
 30
0.0
 11
55.561362
 21
170.557612
 31
0.0
  0
LINE
  5
94C0
330
9432
100
AcDbEntity
  8
1
  6
Continuous
100
AcDbLine
 10
55.561362
 20
170.557612
 30
0.0
 11
55.8285
 21
170.2989599999999
 31
0.0
  0
LINE
  5
94C1
330
9432
100
AcDbEntity
  8
1
  6
Continuous
100
AcDbLine
 10
55.895823
 20
170.892074
 30
0.0
 11
56.153769
 21
170.624229
 31
0.0
  0
LINE
  5
94C2
330
9432
100
AcDbEntity
  8
1
  6
Continuous
100
AcDbLine
 10
55.67258999999999
 20
171.4745179999999
 30
0.0
 11
55.89583100000001
 21
170.8920669999999
 31
0.0
  0
ARC
  5
94C3
330
9432
100
AcDbEntity
  8
1
  6
Continuous
100
AcDbCircle
 10
54.978812
 20
171.473917
 30
0.0
 40
1.45
100
AcDbArc
 50
305.873
 51
324.127
  0
LINE
  5
94C4
330
9432
100
AcDbEntity
  8
1
  6
Continuous
100
AcDbLine
 10
54.39721
 20
170.5578669999999
 30
0.0
 11
54.12957699999999
 21
170.2994119999999
 31
0.0
  0
ARC
  5
94C5
330
9432
100
AcDbEntity
  8
1
  6
Continuous
100
AcDbCircle
 10
54.978812
 20
171.473917
 30
0.0
 40
1.45
100
AcDbArc
 50
215.8729999999998
 51
234.127
  0
LINE
  5
94C6
330
9432
100
AcDbEntity
  8
1
  6
Continuous
100
AcDbLine
 10
44.478812
 20
180.1739169999999
 30
0.0
 11
44.978812
 21
180.1739169999999
 31
0.0
  0
ARC
  5
94C7
330
9432
100
AcDbEntity
  8
1
  6
Continuous
100
AcDbCircle
 10
44.478812
 20
179.4739169999998
 30
0.0
 40
0.5
100
AcDbArc
 50
270.0
 51
0.0
  0
ARC
  5
94C8
330
9432
100
AcDbEntity
  8
1
  6
Continuous
100
AcDbCircle
 10
44.478812
 20
179.6739169999999
 30
0.0
 40
0.5
100
AcDbArc
 50
90.0
 51
180.0
  0
LINE
  5
94C9
330
9432
100
AcDbEntity
  8
1
  6
Continuous
100
AcDbLine
 10
38.978812
 20
178.973917
 30
0.0
 11
38.47881199999999
 21
178.973917
 31
0.0
  0
LINE
  5
94CA
330
9432
100
AcDbEntity
  8
1
  6
Continuous
100
AcDbLine
 10
44.478812
 20
178.973917
 30
0.0
 11
43.97881199999999
 21
178.973917
 31
0.0
  0
ARC
  5
94CB
330
9432
100
AcDbEntity
  8
1
  6
Continuous
100
AcDbCircle
 10
38.47881199999999
 20
179.4739169999998
 30
0.0
 40
0.5
100
AcDbArc
 50
180.0
 51
270.0
  0
LINE
  5
94CC
330
9432
100
AcDbEntity
  8
1
  6
Continuous
100
AcDbLine
 10
44.478812
 20
190.1739169999999
 30
0.0
 11
44.978812
 21
190.1739169999999
 31
0.0
  0
LINE
  5
94CD
330
9432
100
AcDbEntity
  8
1
  6
Continuous
100
AcDbLine
 10
39.47881199999999
 20
193.973917
 30
0.0
 11
44.978812
 21
193.973917
 31
0.0
  0
LINE
  5
94CE
330
9432
100
AcDbEntity
  8
1
  6
Continuous
100
AcDbLine
 10
39.47881199999999
 20
195.9739169999998
 30
0.0
 11
39.47881199999999
 21
193.973917
 31
0.0
  0
ARC
  5
94CF
330
9432
100
AcDbEntity
  8
1
  6
Continuous
100
AcDbCircle
 10
44.478812
 20
190.6739169999999
 30
0.0
 40
0.5
100
AcDbArc
 50
180.0
 51
270.0
  0
ARC
  5
94D0
330
9432
100
AcDbEntity
  8
1
  6
Continuous
100
AcDbCircle
 10
43.47881199999998
 20
192.6739169999999
 30
0.0
 40
0.5
100
AcDbArc
 50
0.0
 51
90.0
  0
ARC
  5
94D1
330
9432
100
AcDbEntity
  8
1
  6
Continuous
100
AcDbCircle
 10
39.47881199999999
 20
192.6739169999999
 30
0.0
 40
0.5
100
AcDbArc
 50
90.0
 51
180.0
  0
LINE
  5
94D2
330
9432
100
AcDbEntity
  8
1
  6
Continuous
100
AcDbLine
 10
39.47881199999999
 20
193.1739169999999
 30
0.0
 11
43.47881199999998
 21
193.1739169999999
 31
0.0
  0
ARC
  5
94D3
330
9432
100
AcDbEntity
  8
1
  6
Continuous
100
AcDbCircle
 10
38.47881199999999
 20
195.473917
 30
0.0
 40
0.5
100
AcDbArc
 50
90.0
 51
180.0
  0
LINE
  5
94D4
330
9432
100
AcDbEntity
  8
1
  6
Continuous
100
AcDbLine
 10
54.97942
 20
172.167687
 30
0.0
 11
55.561129
 21
172.3906659999999
 31
0.0
  0
LINE
  5
94D5
330
9432
100
AcDbEntity
  8
1
  6
Continuous
100
AcDbLine
 10
54.979413
 20
172.1676939999999
 30
0.0
 11
54.39696899999999
 21
172.3909279999998
 31
0.0
  0
LINE
  5
94D6
330
9432
100
AcDbEntity
  8
1
  6
Continuous
100
AcDbLine
 10
54.39696899999999
 20
172.3909279999998
 30
0.0
 11
54.12912399999999
 21
172.648874
 31
0.0
  0
LINE
  5
94D7
330
9432
100
AcDbEntity
  8
1
  6
Continuous
100
AcDbLine
 10
54.06250799999999
 20
172.0564669999999
 30
0.0
 11
53.803855
 21
172.3236039999999
 31
0.0
  0
ARC
  5
94D8
330
9432
100
AcDbEntity
  8
1
  6
Continuous
100
AcDbCircle
 10
54.978812
 20
171.473917
 30
0.0
 40
1.45
100
AcDbArc
 50
125.8731999999998
 51
144.1269
  0
LINE
  5
94D9
330
9432
100
AcDbEntity
  8
1
  6
Continuous
100
AcDbLine
 10
55.561122
 20
172.3906739999999
 30
0.0
 11
55.828754
 21
172.6491279999999
 31
0.0
  0
LINE
  5
94DA
330
9432
100
AcDbEntity
  8
1
  6
Continuous
100
AcDbLine
 10
55.89556899999998
 20
172.056226
 30
0.0
 11
56.154024
 21
172.323859
 31
0.0
  0
ARC
  5
94DB
330
9432
100
AcDbEntity
  8
1
  6
Continuous
100
AcDbCircle
 10
54.978812
 20
171.473917
 30
0.0
 40
1.45
100
AcDbArc
 50
35.87299999999999
 51
54.12684999999999
  0
LINE
  5
94DC
330
9432
100
AcDbEntity
  8
1
  6
Continuous
100
AcDbLine
 10
140.9788119999998
 20
192.6739169999999
 30
0.0
 11
140.9788119999998
 21
123.6739169999998
 31
0.0
  0
LINE
  5
94DD
330
9432
100
AcDbEntity
  8
1
  6
Continuous
100
AcDbLine
 10
135.978812
 20
192.6739169999999
 30
0.0
 11
135.978812
 21
146.1739169999999
 31
0.0
  0
LINE
  5
94DE
330
9432
100
AcDbEntity
  8
1
  6
Continuous
100
AcDbLine
 10
134.978812
 20
195.9739169999998
 30
0.0
 11
134.978812
 21
142.857292
 31
0.0
  0
ARC
  5
94DF
330
9432
100
AcDbEntity
  8
1
  6
Continuous
100
AcDbCircle
 10
140.478812
 20
123.6739169999998
 30
0.0
 40
0.5
100
AcDbArc
 50
270.0
 51
0.0
  0
ARC
  5
94E0
330
9432
100
AcDbEntity
  8
1
  6
Continuous
100
AcDbCircle
 10
129.978812
 20
146.1739169999999
 30
0.0
 40
6.0
100
AcDbArc
 50
270.0
 51
0.0
  0
CIRCLE
  5
94E1
330
9432
100
AcDbEntity
  8
1
  6
Continuous
100
AcDbCircle
 10
124.978812
 20
171.473917
 30
0.0
 40
3.45
  0
LINE
  5
94E2
330
9432
100
AcDbEntity
  8
4
  6
CENTER
100
AcDbLine
 10
124.978812
 20
167.057917
 30
0.0
 11
124.978812
 21
175.9469169999999
 31
0.0
  0
LINE
  5
94E3
330
9432
100
AcDbEntity
  8
1
  6
Continuous
100
AcDbLine
 10
125.671876
 20
171.4740159999998
 30
0.0
 11
125.8951159999998
 21
172.0564669999999
 31
0.0
  0
LINE
  5
94E4
330
9432
100
AcDbEntity
  8
1
  6
Continuous
100
AcDbLine
 10
124.2850409999998
 20
171.4745249999998
 30
0.0
 11
124.062055
 21
172.056226
 31
0.0
  0
LINE
  5
94E5
330
9432
100
AcDbEntity
  8
4
  6
CENTER
100
AcDbLine
 10
129.248392
 20
171.473917
 30
0.0
 11
120.7868519999999
 21
171.473917
 31
0.0
  0
LINE
  5
94E6
330
9432
100
AcDbEntity
  8
1
  6
Continuous
100
AcDbLine
 10
125.671876
 20
171.4740159999998
 30
0.0
 11
125.894862
 21
170.892314
 31
0.0
  0
LINE
  5
94E7
330
9432
100
AcDbEntity
  8
1
  6
Continuous
100
AcDbLine
 10
125.894862
 20
170.892314
 30
0.0
 11
126.1533159999999
 21
170.624681
 31
0.0
  0
LINE
  5
94E8
330
9432
100
AcDbEntity
  8
1
  6
Continuous
100
AcDbLine
 10
124.9787129999998
 20
170.780853
 30
0.0
 11
125.5604139999998
 21
170.5578669999999
 31
0.0
  0
LINE
  5
94E9
330
9432
100
AcDbEntity
  8
1
  6
Continuous
100
AcDbLine
 10
124.9787129999998
 20
170.780853
 30
0.0
 11
124.396262
 21
170.557612
 31
0.0
  0
LINE
  5
94EA
330
9432
100
AcDbEntity
  8
1
  6
Continuous
100
AcDbLine
 10
124.396262
 20
170.557612
 30
0.0
 11
124.129124
 21
170.2989599999999
 31
0.0
  0
LINE
  5
94EB
330
9432
100
AcDbEntity
  8
1
  6
Continuous
100
AcDbLine
 10
124.061801
 20
170.892074
 30
0.0
 11
123.8038549999999
 21
170.624229
 31
0.0
  0
LINE
  5
94EC
330
9432
100
AcDbEntity
  8
1
  6
Continuous
100
AcDbLine
 10
124.285034
 20
171.4745179999999
 30
0.0
 11
124.0617939999999
 21
170.8920669999999
 31
0.0
  0
ARC
  5
94ED
330
9432
100
AcDbEntity
  8
1
  6
Continuous
100
AcDbCircle
 10
124.978812
 20
171.473917
 30
0.0
 40
1.45
100
AcDbArc
 50
215.8729999999998
 51
234.127
  0
LINE
  5
94EE
330
9432
100
AcDbEntity
  8
1
  6
Continuous
100
AcDbLine
 10
125.5604139999998
 20
170.5578669999999
 30
0.0
 11
125.828047
 21
170.2994119999999
 31
0.0
  0
ARC
  5
94EF
330
9432
100
AcDbEntity
  8
1
  6
Continuous
100
AcDbCircle
 10
124.978812
 20
171.473917
 30
0.0
 40
1.45
100
AcDbArc
 50
305.873
 51
324.127
  0
LINE
  5
94F0
330
9432
100
AcDbEntity
  8
1
  6
Continuous
100
AcDbLine
 10
124.978204
 20
172.167687
 30
0.0
 11
124.396495
 21
172.3906659999999
 31
0.0
  0
LINE
  5
94F1
330
9432
100
AcDbEntity
  8
1
  6
Continuous
100
AcDbLine
 10
124.978211
 20
172.1676939999999
 30
0.0
 11
125.560655
 21
172.3909279999998
 31
0.0
  0
LINE
  5
94F2
330
9432
100
AcDbEntity
  8
1
  6
Continuous
100
AcDbLine
 10
125.560655
 20
172.3909279999998
 30
0.0
 11
125.8285
 21
172.648874
 31
0.0
  0
LINE
  5
94F3
330
9432
100
AcDbEntity
  8
1
  6
Continuous
100
AcDbLine
 10
125.8951159999998
 20
172.0564669999999
 30
0.0
 11
126.1537689999999
 21
172.3236039999999
 31
0.0
  0
ARC
  5
94F4
330
9432
100
AcDbEntity
  8
1
  6
Continuous
100
AcDbCircle
 10
124.978812
 20
171.473917
 30
0.0
 40
1.45
100
AcDbArc
 50
35.8731
 51
54.12679999999999
  0
LINE
  5
94F5
330
9432
100
AcDbEntity
  8
1
  6
Continuous
100
AcDbLine
 10
124.396503
 20
172.3906739999999
 30
0.0
 11
124.1288699999999
 21
172.6491279999999
 31
0.0
  0
LINE
  5
94F6
330
9432
100
AcDbEntity
  8
1
  6
Continuous
100
AcDbLine
 10
124.062055
 20
172.056226
 30
0.0
 11
123.803601
 21
172.323859
 31
0.0
  0
ARC
  5
94F7
330
9432
100
AcDbEntity
  8
1
  6
Continuous
100
AcDbCircle
 10
124.978812
 20
171.473917
 30
0.0
 40
1.45
100
AcDbArc
 50
125.8731499999999
 51
144.127
  0
ARC
  5
94F8
330
9432
100
AcDbEntity
  8
1
  6
Continuous
100
AcDbCircle
 10
135.478812
 20
179.4739169999998
 30
0.0
 40
0.5
100
AcDbArc
 50
180.0
 51
270.0
  0
LINE
  5
94F9
330
9432
100
AcDbEntity
  8
1
  6
Continuous
100
AcDbLine
 10
135.478812
 20
178.973917
 30
0.0
 11
135.978812
 21
178.973917
 31
0.0
  0
LINE
  5
94FA
330
9432
100
AcDbEntity
  8
1
  6
Continuous
100
AcDbLine
 10
135.478812
 20
180.1739169999999
 30
0.0
 11
134.978812
 21
180.1739169999999
 31
0.0
  0
ARC
  5
94FB
330
9432
100
AcDbEntity
  8
1
  6
Continuous
100
AcDbCircle
 10
135.478812
 20
179.6739169999999
 30
0.0
 40
0.5
100
AcDbArc
 50
0.0
 51
90.0
  0
ARC
  5
94FC
330
9432
100
AcDbEntity
  8
1
  6
Continuous
100
AcDbCircle
 10
136.478812
 20
192.6739169999999
 30
0.0
 40
0.5
100
AcDbArc
 50
90.0
 51
180.0
  0
LINE
  5
94FD
330
9432
100
AcDbEntity
  8
1
  6
Continuous
100
AcDbLine
 10
135.478812
 20
190.1739169999999
 30
0.0
 11
134.978812
 21
190.1739169999999
 31
0.0
  0
ARC
  5
94FE
330
9432
100
AcDbEntity
  8
1
  6
Continuous
100
AcDbCircle
 10
135.478812
 20
190.6739169999999
 30
0.0
 40
0.5
100
AcDbArc
 50
270.0
 51
0.0
  0
ARC
  5
94FF
330
9432
100
AcDbEntity
  8
1
  6
Continuous
100
AcDbCircle
 10
140.478812
 20
192.6739169999999
 30
0.0
 40
0.5
100
AcDbArc
 50
0.0
 51
90.0
  0
LINE
  5
9500
330
9432
100
AcDbEntity
  8
1
  6
Continuous
100
AcDbLine
 10
140.478812
 20
195.9739169999998
 30
0.0
 11
140.478812
 21
193.973917
 31
0.0
  0
LINE
  5
9501
330
9432
100
AcDbEntity
  8
1
  6
Continuous
100
AcDbLine
 10
140.478812
 20
193.973917
 30
0.0
 11
134.978812
 21
193.973917
 31
0.0
  0
LINE
  5
9502
330
9432
100
AcDbEntity
  8
1
  6
Continuous
100
AcDbLine
 10
140.478812
 20
193.1739169999999
 30
0.0
 11
136.478812
 21
193.1739169999999
 31
0.0
  0
LINE
  5
9503
330
9432
100
AcDbEntity
  8
1
  6
Continuous
100
AcDbLine
 10
144.478812
 20
55.47391700000001
 30
0.0
 11
144.478812
 21
45.973917
 31
0.0
  0
ARC
  5
9504
330
9432
100
AcDbEntity
  8
1
  6
Continuous
100
AcDbCircle
 10
143.978812
 20
48.973917
 30
0.0
 40
0.5
100
AcDbArc
 50
270.0
 51
0.0
  0
ARC
  5
9505
330
9432
100
AcDbEntity
  8
1
  6
Continuous
100
AcDbCircle
 10
143.978812
 20
45.973917
 30
0.0
 40
0.5
100
AcDbArc
 50
270.0
 51
0.0
  0
ARC
  5
9506
330
9432
100
AcDbEntity
  8
1
  6
Continuous
100
AcDbCircle
 10
158.4788119999998
 20
61.473917
 30
0.0
 40
0.5
100
AcDbArc
 50
0.0
 51
90.0
  0
ARC
  5
9507
330
9432
100
AcDbEntity
  8
1
  6
Continuous
100
AcDbCircle
 10
158.4788119999998
 20
59.97391700000001
 30
0.0
 40
0.5
100
AcDbArc
 50
270.0
 51
0.0
  0
LINE
  5
9508
330
9432
100
AcDbEntity
  8
4
  6
CENTER
100
AcDbLine
 10
153.978812
 20
64.973917
 30
0.0
 11
153.978812
 21
56.473917
 31
0.0
  0
LINE
  5
9509
330
9432
100
AcDbEntity
  8
1
  6
Continuous
100
AcDbLine
 10
149.478812
 20
58.973917
 30
0.0
 11
149.478812
 21
57.97391700000001
 31
0.0
  0
ARC
  5
950A
330
9432
100
AcDbEntity
  8
1
  6
Continuous
100
AcDbCircle
 10
148.978812
 20
57.97391700000001
 30
0.0
 40
0.5
100
AcDbArc
 50
270.0
 51
0.0
  0
ARC
  5
950B
330
9432
100
AcDbEntity
  8
1
  6
Continuous
100
AcDbCircle
 10
146.478812
 20
55.47391700000001
 30
0.0
 40
2.0
100
AcDbArc
 50
90.0
 51
180.0
  0
ARC
  5
950C
330
9432
100
AcDbEntity
  8
1
  6
Continuous
100
AcDbCircle
 10
149.978812
 20
58.973917
 30
0.0
 40
0.5
100
AcDbArc
 50
90.0
 51
180.0
  0
LINE
  5
950D
330
9432
100
AcDbEntity
  8
1
  6
Continuous
100
AcDbLine
 10
158.978812
 20
61.473917
 30
0.0
 11
158.978812
 21
59.97391700000001
 31
0.0
  0
LINE
  5
950E
330
9432
100
AcDbEntity
  8
5
  6
PHANTOM
100
AcDbLine
 10
191.321446
 20
181.5203159999999
 30
0.0
 11
238.9788119999999
 21
180.3661879999999
 31
0.0
  0
LINE
  5
950F
330
9432
100
AcDbEntity
  8
5
  6
PHANTOM
100
AcDbLine
 10
186.978812
 20
193.1739169999999
 30
0.0
 11
238.9788119999999
 21
193.1739169999999
 31
0.0
  0
LINE
  5
9510
330
9432
100
AcDbEntity
  8
1
  6
Continuous
100
AcDbLine
 10
147.478812
 20
195.9739169999998
 30
0.0
 11
147.478812
 21
121.9739169999999
 31
0.0
  0
LINE
  5
9511
330
9432
100
AcDbEntity
  8
1
  6
Continuous
100
AcDbLine
 10
145.478812
 20
195.9739169999998
 30
0.0
 11
145.478812
 21
121.9739169999999
 31
0.0
  0
LINE
  5
9512
330
9432
100
AcDbEntity
  8
1
  6
Continuous
100
AcDbLine
 10
144.478812
 20
195.9739169999998
 30
0.0
 11
144.478812
 21
121.9739169999999
 31
0.0
  0
LINE
  5
9513
330
9432
100
AcDbEntity
  8
1
  6
Continuous
100
AcDbLine
 10
141.9788119999998
 20
195.473917
 30
0.0
 11
141.9788119999998
 21
122.4739169999998
 31
0.0
  0
ARC
  5
9514
330
9432
100
AcDbEntity
  8
1
  6
Continuous
100
AcDbCircle
 10
156.978812
 20
115.9739169999999
 30
0.0
 40
2.0
100
AcDbArc
 50
270.0
 51
0.0
  0
ARC
  5
9515
330
9432
100
AcDbEntity
  8
1
  6
Continuous
100
AcDbCircle
 10
141.478812
 20
122.4739169999998
 30
0.0
 40
0.5
100
AcDbArc
 50
270.0
 51
0.0
  0
ARC
  5
9516
330
9432
100
AcDbEntity
  8
1
  6
Continuous
100
AcDbCircle
 10
141.9788119999998
 20
121.9739169999999
 30
0.0
 40
2.5
100
AcDbArc
 50
270.0
 51
0.0
  0
ARC
  5
9517
330
9432
100
AcDbEntity
  8
1
  6
Continuous
100
AcDbCircle
 10
141.9788119999998
 20
121.9739169999999
 30
0.0
 40
3.5
100
AcDbArc
 50
270.0
 51
0.0
  0
ARC
  5
9518
330
9432
100
AcDbEntity
  8
1
  6
Continuous
100
AcDbCircle
 10
141.9788119999998
 20
121.9739169999999
 30
0.0
 40
5.5
100
AcDbArc
 50
270.0
 51
0.0
  0
LINE
  5
9519
330
9432
100
AcDbEntity
  8
4
  6
CENTER
100
AcDbLine
 10
147.6788119999999
 20
128.973917
 30
0.0
 11
160.2788119999999
 21
128.973917
 31
0.0
  0
LINE
  5
951A
330
9432
100
AcDbEntity
  8
4
  6
CENTER
100
AcDbLine
 10
153.978812
 20
135.2739169999999
 30
0.0
 11
153.978812
 21
122.6739169999998
 31
0.0
  0
CIRCLE
  5
951B
330
9432
100
AcDbEntity
  8
1
  6
Continuous
100
AcDbCircle
 10
153.978812
 20
128.973917
 30
0.0
 40
4.299999999999998
  0
CIRCLE
  5
951C
330
9432
100
AcDbEntity
  8
1
  6
Continuous
100
AcDbCircle
 10
153.978812
 20
128.973917
 30
0.0
 40
2.149999999999999
  0
LINE
  5
951D
330
9432
100
AcDbEntity
  8
4
  6
CENTER
100
AcDbLine
 10
147.6788119999999
 20
188.973917
 30
0.0
 11
160.2788119999999
 21
188.973917
 31
0.0
  0
LINE
  5
951E
330
9432
100
AcDbEntity
  8
4
  6
CENTER
100
AcDbLine
 10
153.978812
 20
195.2739169999999
 30
0.0
 11
153.978812
 21
182.6739169999999
 31
0.0
  0
ARC
  5
951F
330
9432
100
AcDbEntity
  8
1
  6
Continuous
100
AcDbCircle
 10
141.478812
 20
179.4739169999998
 30
0.0
 40
0.5
100
AcDbArc
 50
270.0
 51
0.0
  0
CIRCLE
  5
9520
330
9432
100
AcDbEntity
  8
1
  6
Continuous
100
AcDbCircle
 10
153.978812
 20
188.973917
 30
0.0
 40
4.299999999999998
  0
ARC
  5
9521
330
9432
100
AcDbEntity
  8
1
  6
Continuous
100
AcDbCircle
 10
141.478812
 20
195.473917
 30
0.0
 40
0.5
100
AcDbArc
 50
0.0
 51
90.0
  0
CIRCLE
  5
9522
330
9432
100
AcDbEntity
  8
1
  6
Continuous
100
AcDbCircle
 10
153.978812
 20
188.973917
 30
0.0
 40
2.149999999999999
  0
ARC
  5
9523
330
9432
100
AcDbEntity
  8
5
  6
PHANTOM
100
AcDbCircle
 10
191.478812
 20
188.0184109999999
 30
0.0
 40
6.5
100
AcDbArc
 50
180.0
 51
268.612728
  0
ARC
  5
9524
330
9432
100
AcDbEntity
  8
5
  6
PHANTOM
100
AcDbCircle
 10
186.978812
 20
191.1739169999999
 30
0.0
 40
2.0
100
AcDbArc
 50
90.0
 51
180.0
  0
LINE
  5
9525
330
9432
100
AcDbEntity
  8
5
  6
PHANTOM
100
AcDbLine
 10
184.978812
 20
191.1739169999999
 30
0.0
 11
184.978812
 21
188.0184109999999
 31
0.0
  0
LINE
  5
9526
330
9432
100
AcDbEntity
  8
1
  6
Continuous
100
AcDbLine
 10
254.478812
 20
178.4739169999998
 30
0.0
 11
254.478812
 21
119.9739169999999
 31
0.0
  0
LINE
  5
9527
330
9432
100
AcDbEntity
  8
1
  6
Continuous
100
AcDbLine
 10
245.978812
 20
119.4739169999998
 30
0.0
 11
253.978812
 21
119.4739169999998
 31
0.0
  0
ARC
  5
9528
330
9432
100
AcDbEntity
  8
1
  6
Continuous
100
AcDbCircle
 10
242.9788119999999
 20
114.4739169999999
 30
0.0
 40
0.5
100
AcDbArc
 50
270.0
 51
0.0
  0
ARC
  5
9529
330
9432
100
AcDbEntity
  8
1
  6
Continuous
100
AcDbCircle
 10
245.978812
 20
118.9739169999999
 30
0.0
 40
0.5
100
AcDbArc
 50
90.0
 51
180.0
  0
ARC
  5
952A
330
9432
100
AcDbEntity
  8
1
  6
Continuous
100
AcDbCircle
 10
240.478812
 20
118.9739169999999
 30
0.0
 40
0.5
100
AcDbArc
 50
0.0
 51
90.0
  0
ARC
  5
952B
330
9432
100
AcDbEntity
  8
1
  6
Continuous
100
AcDbCircle
 10
239.478812
 20
119.9739169999999
 30
0.0
 40
0.5
100
AcDbArc
 50
180.0
 51
270.0
  0
LINE
  5
952C
330
9432
100
AcDbEntity
  8
1
  6
Continuous
100
AcDbLine
 10
239.478812
 20
119.4739169999998
 30
0.0
 11
240.478812
 21
119.4739169999998
 31
0.0
  0
ARC
  5
952D
330
9432
100
AcDbEntity
  8
1
  6
Continuous
100
AcDbCircle
 10
244.978812
 20
114.4739169999999
 30
0.0
 40
0.5
100
AcDbArc
 50
270.0
 51
0.0
  0
ARC
  5
952E
330
9432
100
AcDbEntity
  8
1
  6
Continuous
100
AcDbCircle
 10
241.478812
 20
114.4739169999999
 30
0.0
 40
0.5
100
AcDbArc
 50
180.0
 51
270.0
  0
LINE
  5
952F
330
9432
100
AcDbEntity
  8
1
  6
Continuous
100
AcDbLine
 10
241.478812
 20
113.9739169999999
 30
0.0
 11
244.978812
 21
113.9739169999999
 31
0.0
  0
ARC
  5
9530
330
9432
100
AcDbEntity
  8
1
  6
Continuous
100
AcDbCircle
 10
253.978812
 20
119.9739169999999
 30
0.0
 40
0.5
100
AcDbArc
 50
270.0
 51
0.0
  0
LINE
  5
9531
330
9432
100
AcDbEntity
  8
4
  6
CENTER
100
AcDbLine
 10
228.978812
 20
158.973917
 30
0.0
 11
264.478812
 21
158.973917
 31
0.0
  0
LINE
  5
9532
330
9432
100
AcDbEntity
  8
1
  6
Continuous
100
AcDbLine
 10
257.478812
 20
169.9739219999998
 30
0.0
 11
257.478812
 21
172.9739219999999
 31
0.0
  0
LINE
  5
9533
330
9432
100
AcDbEntity
  8
1
  6
Continuous
100
AcDbLine
 10
256.8788119999999
 20
168.7239219999999
 30
0.0
 11
256.8788119999999
 21
174.2239219999999
 31
0.0
  0
LINE
  5
9534
330
9432
100
AcDbEntity
  8
1
  6
Continuous
100
AcDbLine
 10
254.478812
 20
174.6494219999999
 30
0.0
 11
254.478812
 21
168.2985219999999
 31
0.0
  0
ARC
  5
9535
330
9432
100
AcDbEntity
  8
1
  6
Continuous
100
AcDbCircle
 10
251.6248119999999
 20
171.473922
 30
0.0
 40
5.254349999999998
100
AcDbArc
 50
342.4119999999998
 51
17.588
  0
LINE
  5
9536
330
9432
100
AcDbEntity
  8
4
  6
CENTER
100
AcDbLine
 10
252.478812
 20
171.473922
 30
0.0
 11
258.607812
 21
171.473922
 31
0.0
  0
LINE
  5
9537
330
9432
100
AcDbEntity
  8
1
  6
Continuous
100
AcDbLine
 10
256.6338119999999
 20
168.2985219999999
 30
0.0
 11
254.478812
 21
168.2985219999999
 31
0.0
  0
LINE
  5
9538
330
9432
100
AcDbEntity
  8
1
  6
Continuous
100
AcDbLine
 10
256.6338119999999
 20
169.886222
 30
0.0
 11
254.478812
 21
169.886222
 31
0.0
  0
LINE
  5
9539
330
9432
100
AcDbEntity
  8
1
  6
Continuous
100
AcDbLine
 10
256.8788119999999
 20
169.9739219999998
 30
0.0
 11
257.478812
 21
169.9739219999998
 31
0.0
  0
LINE
  5
953A
330
9432
100
AcDbEntity
  8
2
  6
Continuous
100
AcDbLine
 10
256.8788119999999
 20
170.2444319999999
 30
0.0
 11
257.478812
 21
170.2444319999999
 31
0.0
  0
LINE
  5
953B
330
9432
100
AcDbEntity
  8
1
  6
Continuous
100
AcDbLine
 10
256.8788119999999
 20
168.7239219999999
 30
0.0
 11
256.6338119999999
 21
168.2985219999999
 31
0.0
  0
ARC
  5
953C
330
9432
100
AcDbEntity
  8
1
  6
Continuous
100
AcDbCircle
 10
255.473812
 20
169.092422
 30
0.0
 40
1.40571
100
AcDbArc
 50
325.6159999999998
 51
34.384
  0
LINE
  5
953D
330
9432
100
AcDbEntity
  8
1
  6
Continuous
100
AcDbLine
 10
256.6338119999999
 20
173.0616219999998
 30
0.0
 11
254.478812
 21
173.0616219999998
 31
0.0
  0
LINE
  5
953E
330
9432
100
AcDbEntity
  8
1
  6
Continuous
100
AcDbLine
 10
256.6338119999999
 20
174.6494219999999
 30
0.0
 11
254.478812
 21
174.6494219999999
 31
0.0
  0
LINE
  5
953F
330
9432
100
AcDbEntity
  8
1
  6
Continuous
100
AcDbLine
 10
254.978812
 20
178.973917
 30
0.0
 11
256.978812
 21
178.973917
 31
0.0
  0
ARC
  5
9540
330
9432
100
AcDbEntity
  8
1
  6
Continuous
100
AcDbCircle
 10
254.978812
 20
178.4739169999998
 30
0.0
 40
0.5
100
AcDbArc
 50
90.0
 51
180.0
  0
LINE
  5
9541
330
9432
100
AcDbEntity
  8
1
  6
Continuous
100
AcDbLine
 10
256.8788119999999
 20
172.9739219999999
 30
0.0
 11
257.478812
 21
172.9739219999999
 31
0.0
  0
LINE
  5
9542
330
9432
100
AcDbEntity
  8
2
  6
Continuous
100
AcDbLine
 10
256.8788119999999
 20
172.7034119999999
 30
0.0
 11
257.478812
 21
172.7034119999999
 31
0.0
  0
LINE
  5
9543
330
9432
100
AcDbEntity
  8
1
  6
Continuous
100
AcDbLine
 10
256.8788119999999
 20
174.2239219999999
 30
0.0
 11
256.6338119999999
 21
174.6494219999999
 31
0.0
  0
ARC
  5
9544
330
9432
100
AcDbEntity
  8
1
  6
Continuous
100
AcDbCircle
 10
255.473812
 20
173.855522
 30
0.0
 40
1.40571
100
AcDbArc
 50
325.6159999999998
 51
34.384
  0
ARC
  5
9545
330
9432
100
AcDbEntity
  8
1
  6
Continuous
100
AcDbCircle
 10
256.978812
 20
179.4739169999998
 30
0.0
 40
0.5
100
AcDbArc
 50
270.0
 51
0.0
  0
LINE
  5
9546
330
9432
100
AcDbEntity
  8
1
  6
Continuous
100
AcDbLine
 10
143.978812
 20
272.4739169999998
 30
0.0
 11
133.478812
 21
272.4739169999998
 31
0.0
  0
LINE
  5
9547
330
9432
100
AcDbEntity
  8
1
  6
Continuous
100
AcDbLine
 10
21.478812
 20
258.4739169999999
 30
0.0
 11
32.43452599999999
 21
258.4739169999999
 31
0.0
  0
LINE
  5
9548
330
9432
100
AcDbEntity
  8
1
  6
Continuous
100
AcDbLine
 10
21.478812
 20
255.9739169999998
 30
0.0
 11
158.4788119999998
 21
255.9739169999998
 31
0.0
  0
LINE
  5
9549
330
9432
100
AcDbEntity
  8
1
  6
Continuous
100
AcDbLine
 10
35.47881199999999
 20
253.973917
 30
0.0
 11
144.478812
 21
253.973917
 31
0.0
  0
LINE
  5
954A
330
9432
100
AcDbEntity
  8
1
  6
Continuous
100
AcDbLine
 10
37.97881199999999
 20
201.4739169999999
 30
0.0
 11
141.9788119999998
 21
201.4739169999999
 31
0.0
  0
LINE
  5
954B
330
9432
100
AcDbEntity
  8
1
  6
Continuous
100
AcDbLine
 10
37.97881199999999
 20
199.473917
 30
0.0
 11
141.9788119999998
 21
199.473917
 31
0.0
  0
LINE
  5
954C
330
9432
100
AcDbEntity
  8
1
  6
Continuous
100
AcDbLine
 10
37.97881199999999
 20
198.473917
 30
0.0
 11
141.9788119999998
 21
198.473917
 31
0.0
  0
LINE
  5
954D
330
9432
100
AcDbEntity
  8
1
  6
Continuous
100
AcDbLine
 10
22.97881199999999
 20
203.9739169999998
 30
0.0
 11
156.978812
 21
203.9739169999998
 31
0.0
  0
LINE
  5
954E
330
9432
100
AcDbEntity
  8
1
  6
Continuous
100
AcDbLine
 10
22.97881199999999
 20
203.9739169999998
 30
0.0
 11
156.978812
 21
203.9739169999998
 31
0.0
  0
LINE
  5
954F
330
9432
100
AcDbEntity
  8
1
  6
Continuous
100
AcDbLine
 10
47.478812
 20
269.4739169999999
 30
0.0
 11
132.478812
 21
269.4739169999999
 31
0.0
  0
ARC
  5
9550
330
9432
100
AcDbEntity
  8
1
  6
Continuous
100
AcDbCircle
 10
22.97881199999999
 20
201.973917
 30
0.0
 40
2.0
100
AcDbArc
 50
90.0
 51
180.0
  0
ARC
  5
9551
330
9432
100
AcDbEntity
  8
1
  6
Continuous
100
AcDbCircle
 10
33.47881199999999
 20
262.4739169999999
 30
0.0
 40
2.0
100
AcDbArc
 50
270.0
 51
0.0
  0
ARC
  5
9552
330
9432
100
AcDbEntity
  8
1
  6
Continuous
100
AcDbCircle
 10
35.97881199999999
 20
271.9739169999999
 30
0.0
 40
0.5
100
AcDbArc
 50
90.0
 51
180.0
  0
LINE
  5
9553
330
9432
100
AcDbEntity
  8
1
  6
Continuous
100
AcDbLine
 10
35.47881199999999
 20
262.4739169999999
 30
0.0
 11
35.47881199999999
 21
271.9739169999999
 31
0.0
  0
LINE
  5
9554
330
9432
100
AcDbEntity
  8
4
  6
CENTER
100
AcDbLine
 10
25.97881199999999
 20
252.973917
 30
0.0
 11
25.97881199999999
 21
261.4739169999999
 31
0.0
  0
LINE
  5
9555
330
9432
100
AcDbEntity
  8
1
  6
Continuous
100
AcDbLine
 10
20.97881199999999
 20
256.4739169999999
 30
0.0
 11
20.97881199999999
 21
257.9739169999999
 31
0.0
  0
ARC
  5
9556
330
9432
100
AcDbEntity
  8
1
  6
Continuous
100
AcDbCircle
 10
21.478812
 20
256.4739169999999
 30
0.0
 40
0.5
100
AcDbArc
 50
180.0
 51
270.0
  0
ARC
  5
9557
330
9432
100
AcDbEntity
  8
1
  6
Continuous
100
AcDbCircle
 10
21.478812
 20
257.9739169999999
 30
0.0
 40
0.5
100
AcDbArc
 50
90.0
 51
180.0
  0
ARC
  5
9558
330
9432
100
AcDbEntity
  8
1
  6
Continuous
100
AcDbCircle
 10
29.978812
 20
258.9739169999999
 30
0.0
 40
0.5
100
AcDbArc
 50
270.0
 51
0.0
  0
ARC
  5
9559
330
9432
100
AcDbEntity
  8
1
  6
Continuous
100
AcDbCircle
 10
30.97881199999999
 20
259.9739169999998
 30
0.0
 40
0.5
100
AcDbArc
 50
90.0
 51
180.0
  0
LINE
  5
955A
330
9432
100
AcDbEntity
  8
1
  6
Continuous
100
AcDbLine
 10
30.97881199999999
 20
260.4739169999999
 30
0.0
 11
148.978812
 21
260.4739169999999
 31
0.0
  0
LINE
  5
955B
330
9432
100
AcDbEntity
  8
1
  6
Continuous
100
AcDbLine
 10
30.47881199999999
 20
258.9739169999999
 30
0.0
 11
30.47881199999999
 21
259.9739169999998
 31
0.0
  0
LINE
  5
955C
330
9432
100
AcDbEntity
  8
1
  6
Continuous
100
AcDbLine
 10
57.72880699999999
 20
269.4739169999999
 30
0.0
 11
57.72880699999999
 21
271.873917
 31
0.0
  0
LINE
  5
955D
330
9432
100
AcDbEntity
  8
1
  6
Continuous
100
AcDbLine
 10
54.97880699999999
 20
269.4739169999999
 30
0.0
 11
54.97880699999999
 21
271.628917
 31
0.0
  0
LINE
  5
955E
330
9432
100
AcDbEntity
  8
1
  6
Continuous
100
AcDbLine
 10
52.22880700000001
 20
269.4739169999999
 30
0.0
 11
52.22880700000001
 21
271.873917
 31
0.0
  0
LINE
  5
955F
330
9432
100
AcDbEntity
  8
4
  6
CENTER
100
AcDbLine
 10
54.978812
 20
267.4739169999999
 30
0.0
 11
54.978812
 21
273.602917
 31
0.0
  0
ARC
  5
9560
330
9432
100
AcDbEntity
  8
1
  6
Continuous
100
AcDbCircle
 10
47.478812
 20
269.9739169999999
 30
0.0
 40
0.5
100
AcDbArc
 50
180.0
 51
270.0
  0
LINE
  5
9561
330
9432
100
AcDbEntity
  8
1
  6
Continuous
100
AcDbLine
 10
57.72880699999999
 20
269.4739169999999
 30
0.0
 11
52.22880700000001
 21
269.4739169999999
 31
0.0
  0
ARC
  5
9562
330
9432
100
AcDbEntity
  8
1
  6
Continuous
100
AcDbCircle
 10
53.603807
 20
267.902917
 30
0.0
 40
3.97149
100
AcDbArc
 50
69.744
 51
110.2559999999999
  0
LINE
  5
9563
330
9432
100
AcDbEntity
  8
1
  6
Continuous
100
AcDbLine
 10
57.72880699999999
 20
271.873917
 30
0.0
 11
52.22880700000001
 21
271.873917
 31
0.0
  0
LINE
  5
9564
330
9432
100
AcDbEntity
  8
1
  6
Continuous
100
AcDbLine
 10
35.97881199999999
 20
272.4739169999998
 30
0.0
 11
46.47881199999999
 21
272.4739169999998
 31
0.0
  0
ARC
  5
9565
330
9432
100
AcDbEntity
  8
1
  6
Continuous
100
AcDbCircle
 10
46.47881199999999
 20
271.9739169999999
 30
0.0
 40
0.5
100
AcDbArc
 50
0.0
 51
90.0
  0
LINE
  5
9566
330
9432
100
AcDbEntity
  8
1
  6
Continuous
100
AcDbLine
 10
46.978812
 20
269.9739169999999
 30
0.0
 11
46.978812
 21
271.9739169999999
 31
0.0
  0
ARC
  5
9567
330
9432
100
AcDbEntity
  8
1
  6
Continuous
100
AcDbCircle
 10
56.35380699999998
 20
267.902917
 30
0.0
 40
3.97149
100
AcDbArc
 50
69.744
 51
110.2559999999999
  0
LINE
  5
9568
330
9432
100
AcDbEntity
  8
1
  6
Continuous
100
AcDbLine
 10
53.47881199999999
 20
271.873917
 30
0.0
 11
53.47881199999999
 21
272.4739169999998
 31
0.0
  0
LINE
  5
9569
330
9432
100
AcDbEntity
  8
2
  6
Continuous
100
AcDbLine
 10
53.74932199999999
 20
271.873917
 30
0.0
 11
53.74932199999999
 21
272.4739169999998
 31
0.0
  0
LINE
  5
956A
330
9432
100
AcDbEntity
  8
1
  6
Continuous
100
AcDbLine
 10
56.478812
 20
271.873917
 30
0.0
 11
56.478812
 21
272.4739169999998
 31
0.0
  0
LINE
  5
956B
330
9432
100
AcDbEntity
  8
2
  6
Continuous
100
AcDbLine
 10
56.208302
 20
271.873917
 30
0.0
 11
56.208302
 21
272.4739169999998
 31
0.0
  0
LINE
  5
956C
330
9432
100
AcDbEntity
  8
1
  6
Continuous
100
AcDbLine
 10
53.47881199999999
 20
272.4739169999998
 30
0.0
 11
56.478812
 21
272.4739169999998
 31
0.0
  0
LINE
  5
956D
330
9432
100
AcDbEntity
  8
4
  6
CENTER
100
AcDbLine
 10
89.978812
 20
243.973917
 30
0.0
 11
89.978812
 21
279.4739169999999
 31
0.0
  0
LINE
  5
956E
330
9432
100
AcDbEntity
  8
1
  6
Continuous
100
AcDbLine
 10
122.2288169999999
 20
269.4739169999999
 30
0.0
 11
122.2288169999999
 21
271.873917
 31
0.0
  0
LINE
  5
956F
330
9432
100
AcDbEntity
  8
1
  6
Continuous
100
AcDbLine
 10
124.9788169999999
 20
269.4739169999999
 30
0.0
 11
124.9788169999999
 21
271.628917
 31
0.0
  0
LINE
  5
9570
330
9432
100
AcDbEntity
  8
1
  6
Continuous
100
AcDbLine
 10
127.728817
 20
269.4739169999999
 30
0.0
 11
127.728817
 21
271.873917
 31
0.0
  0
LINE
  5
9571
330
9432
100
AcDbEntity
  8
4
  6
CENTER
100
AcDbLine
 10
124.978812
 20
267.4739169999999
 30
0.0
 11
124.978812
 21
273.602917
 31
0.0
  0
ARC
  5
9572
330
9432
100
AcDbEntity
  8
1
  6
Continuous
100
AcDbCircle
 10
132.478812
 20
269.9739169999999
 30
0.0
 40
0.5
100
AcDbArc
 50
270.0
 51
0.0
  0
LINE
  5
9573
330
9432
100
AcDbEntity
  8
1
  6
Continuous
100
AcDbLine
 10
122.2288169999999
 20
269.4739169999999
 30
0.0
 11
127.728817
 21
269.4739169999999
 31
0.0
  0
LINE
  5
9574
330
9432
100
AcDbEntity
  8
1
  6
Continuous
100
AcDbLine
 10
122.3770999999999
 20
269.4739169999999
 30
0.0
 11
127.8771
 21
269.4739169999999
 31
0.0
  0
LINE
  5
9575
330
9432
100
AcDbEntity
  8
1
  6
Continuous
100
AcDbLine
 10
126.478812
 20
272.4739169999998
 30
0.0
 11
123.478812
 21
272.4739169999998
 31
0.0
  0
ARC
  5
9576
330
9432
100
AcDbEntity
  8
1
  6
Continuous
100
AcDbCircle
 10
123.603817
 20
267.902917
 30
0.0
 40
3.97149
100
AcDbArc
 50
69.744
 51
110.2559999999999
  0
LINE
  5
9577
330
9432
100
AcDbEntity
  8
1
  6
Continuous
100
AcDbLine
 10
122.2288169999999
 20
271.873917
 30
0.0
 11
127.728817
 21
271.873917
 31
0.0
  0
LINE
  5
9578
330
9432
100
AcDbEntity
  8
1
  6
Continuous
100
AcDbLine
 10
123.478812
 20
271.873917
 30
0.0
 11
123.478812
 21
272.4739169999998
 31
0.0
  0
LINE
  5
9579
330
9432
100
AcDbEntity
  8
2
  6
Continuous
100
AcDbLine
 10
126.208302
 20
271.873917
 30
0.0
 11
126.208302
 21
272.4739169999998
 31
0.0
  0
LINE
  5
957A
330
9432
100
AcDbEntity
  8
2
  6
Continuous
100
AcDbLine
 10
123.7493219999999
 20
271.873917
 30
0.0
 11
123.7493219999999
 21
272.4739169999998
 31
0.0
  0
LINE
  5
957B
330
9432
100
AcDbEntity
  8
1
  6
Continuous
100
AcDbLine
 10
126.478812
 20
271.873917
 30
0.0
 11
126.478812
 21
272.4739169999998
 31
0.0
  0
ARC
  5
957C
330
9432
100
AcDbEntity
  8
1
  6
Continuous
100
AcDbCircle
 10
126.3538169999999
 20
267.902917
 30
0.0
 40
3.97149
100
AcDbArc
 50
69.744
 51
110.2559999999999
  0
LINE
  5
957D
330
9432
100
AcDbEntity
  8
1
  6
Continuous
100
AcDbLine
 10
132.978812
 20
269.9739169999999
 30
0.0
 11
132.978812
 21
271.9739169999999
 31
0.0
  0
ARC
  5
957E
330
9432
100
AcDbEntity
  8
1
  6
Continuous
100
AcDbCircle
 10
133.478812
 20
271.9739169999999
 30
0.0
 40
0.5
100
AcDbArc
 50
90.0
 51
180.0
  0
ARC
  5
957F
330
9432
100
AcDbEntity
  8
1
  6
Continuous
100
AcDbCircle
 10
156.978812
 20
201.973917
 30
0.0
 40
2.0
100
AcDbArc
 50
0.0
 51
90.0
  0
LINE
  5
9580
330
9432
100
AcDbEntity
  8
1
  6
Continuous
100
AcDbLine
 10
144.478812
 20
262.4739169999999
 30
0.0
 11
144.478812
 21
271.9739169999999
 31
0.0
  0
ARC
  5
9581
330
9432
100
AcDbEntity
  8
1
  6
Continuous
100
AcDbCircle
 10
158.4788119999998
 20
257.9739169999999
 30
0.0
 40
0.5
100
AcDbArc
 50
0.0
 51
90.0
  0
ARC
  5
9582
330
9432
100
AcDbEntity
  8
1
  6
Continuous
100
AcDbCircle
 10
158.4788119999998
 20
256.4739169999999
 30
0.0
 40
0.5
100
AcDbArc
 50
270.0
 51
0.0
  0
LINE
  5
9583
330
9432
100
AcDbEntity
  8
4
  6
CENTER
100
AcDbLine
 10
153.978812
 20
252.973917
 30
0.0
 11
153.978812
 21
261.4739169999999
 31
0.0
  0
ARC
  5
9584
330
9432
100
AcDbEntity
  8
1
  6
Continuous
100
AcDbCircle
 10
146.478812
 20
262.4739169999999
 30
0.0
 40
2.0
100
AcDbArc
 50
180.0
 51
270.0
  0
ARC
  5
9585
330
9432
100
AcDbEntity
  8
1
  6
Continuous
100
AcDbCircle
 10
148.978812
 20
259.9739169999998
 30
0.0
 40
0.5
100
AcDbArc
 50
0.0
 51
90.0
  0
LINE
  5
9586
330
9432
100
AcDbEntity
  8
1
  6
Continuous
100
AcDbLine
 10
149.478812
 20
258.9739169999999
 30
0.0
 11
149.478812
 21
259.9739169999998
 31
0.0
  0
ARC
  5
9587
330
9432
100
AcDbEntity
  8
1
  6
Continuous
100
AcDbCircle
 10
149.978812
 20
258.9739169999999
 30
0.0
 40
0.5
100
AcDbArc
 50
180.0
 51
270.0
  0
LINE
  5
9588
330
9432
100
AcDbEntity
  8
1
  6
Continuous
100
AcDbLine
 10
158.978812
 20
256.4739169999999
 30
0.0
 11
158.978812
 21
257.9739169999999
 31
0.0
  0
ARC
  5
9589
330
9432
100
AcDbEntity
  8
1
  6
Continuous
100
AcDbCircle
 10
143.978812
 20
271.9739169999999
 30
0.0
 40
0.5
100
AcDbArc
 50
0.0
 51
90.0
  0
LINE
  5
958A
330
9432
100
AcDbEntity
  8
1
  6
Continuous
100
AcDbLine
 10
245.978812
 20
198.473917
 30
0.0
 11
256.978812
 21
198.473917
 31
0.0
  0
ARC
  5
958B
330
9432
100
AcDbEntity
  8
1
  6
Continuous
100
AcDbCircle
 10
242.9788119999999
 20
203.4739169999999
 30
0.0
 40
0.5
100
AcDbArc
 50
0.0
 51
90.0
  0
ARC
  5
958C
330
9432
100
AcDbEntity
  8
1
  6
Continuous
100
AcDbCircle
 10
245.978812
 20
198.973917
 30
0.0
 40
0.5
100
AcDbArc
 50
180.0
 51
270.0
  0
ARC
  5
958D
330
9432
100
AcDbEntity
  8
1
  6
Continuous
100
AcDbCircle
 10
240.478812
 20
198.973917
 30
0.0
 40
0.5
100
AcDbArc
 50
270.0
 51
0.0
  0
ARC
  5
958E
330
9432
100
AcDbEntity
  8
1
  6
Continuous
100
AcDbCircle
 10
239.478812
 20
197.973917
 30
0.0
 40
0.5
100
AcDbArc
 50
90.0
 51
180.0
  0
LINE
  5
958F
330
9432
100
AcDbEntity
  8
1
  6
Continuous
100
AcDbLine
 10
239.478812
 20
198.473917
 30
0.0
 11
240.478812
 21
198.473917
 31
0.0
  0
ARC
  5
9590
330
9432
100
AcDbEntity
  8
1
  6
Continuous
100
AcDbCircle
 10
244.978812
 20
203.4739169999999
 30
0.0
 40
0.5
100
AcDbArc
 50
0.0
 51
90.0
  0
ARC
  5
9591
330
9432
100
AcDbEntity
  8
1
  6
Continuous
100
AcDbCircle
 10
241.478812
 20
203.4739169999999
 30
0.0
 40
0.5
100
AcDbArc
 50
90.0
 51
180.0
  0
LINE
  5
9592
330
9432
100
AcDbEntity
  8
1
  6
Continuous
100
AcDbLine
 10
241.478812
 20
203.9739169999998
 30
0.0
 11
244.978812
 21
203.9739169999998
 31
0.0
  0
ARC
  5
9593
330
9432
100
AcDbEntity
  8
1
  6
Continuous
100
AcDbCircle
 10
256.978812
 20
197.973917
 30
0.0
 40
0.5
100
AcDbArc
 50
0.0
 51
90.0
  0
LINE
  5
9594
330
9432
100
AcDbEntity
  8
4
  6
CENTER
100
AcDbLine
 10
367.700712
 20
213.9739169999999
 30
0.0
 11
367.700712
 21
103.973917
 31
0.0
  0
ARC
  5
9595
330
9432
100
AcDbEntity
  8
1
  6
Continuous
100
AcDbCircle
 10
315.700712
 20
195.9739169999998
 30
0.0
 40
2.5
100
AcDbArc
 50
90.0
 51
180.0
  0
LINE
  5
9596
330
9432
100
AcDbEntity
  8
1
  6
Continuous
100
AcDbLine
 10
298.700712
 20
201.973917
 30
0.0
 11
298.700712
 21
115.9739169999999
 31
0.0
  0
ARC
  5
9597
330
9432
100
AcDbEntity
  8
1
  6
Continuous
100
AcDbCircle
 10
419.700712
 20
195.9739169999998
 30
0.0
 40
2.5
100
AcDbArc
 50
0.0
 51
90.0
  0
LINE
  5
9598
330
9432
100
AcDbEntity
  8
1
  6
Continuous
100
AcDbLine
 10
436.700712
 20
201.973917
 30
0.0
 11
436.700712
 21
115.9739169999999
 31
0.0
  0
ARC
  5
9599
330
9432
100
AcDbEntity
  8
1
  6
Continuous
100
AcDbCircle
 10
419.700712
 20
181.473917
 30
0.0
 40
2.5
100
AcDbArc
 50
270.0
 51
0.0
  0
ARC
  5
959A
330
9432
100
AcDbEntity
  8
1
  6
Continuous
100
AcDbCircle
 10
419.700712
 20
121.9739169999999
 30
0.0
 40
2.5
100
AcDbArc
 50
270.0
 51
0.0
  0
LINE
  5
959B
330
9432
100
AcDbEntity
  8
1
  6
Continuous
100
AcDbLine
 10
434.7007119999998
 20
113.9739169999999
 30
0.0
 11
300.700712
 21
113.9739169999999
 31
0.0
  0
LINE
  5
959C
330
9432
100
AcDbEntity
  8
4
  6
CENTER
100
AcDbLine
 10
446.7007119999998
 20
158.973917
 30
0.0
 11
288.700712
 21
158.973917
 31
0.0
  0
LINE
  5
959D
330
9432
100
AcDbEntity
  8
1
  6
Continuous
100
AcDbLine
 10
419.700712
 20
119.4739169999998
 30
0.0
 11
315.700712
 21
119.4739169999998
 31
0.0
  0
LINE
  5
959E
330
9432
100
AcDbEntity
  8
1
  6
Continuous
100
AcDbLine
 10
313.200712
 20
195.9739169999998
 30
0.0
 11
313.200712
 21
121.9739169999999
 31
0.0
  0
ARC
  5
959F
330
9432
100
AcDbEntity
  8
1
  6
Continuous
100
AcDbCircle
 10
300.700712
 20
115.9739169999999
 30
0.0
 40
2.0
100
AcDbArc
 50
180.0
 51
270.0
  0
ARC
  5
95A0
330
9432
100
AcDbEntity
  8
1
  6
Continuous
100
AcDbCircle
 10
315.700712
 20
121.9739169999999
 30
0.0
 40
2.5
100
AcDbArc
 50
180.0
 51
270.0
  0
LINE
  5
95A1
330
9432
100
AcDbEntity
  8
4
  6
CENTER
100
AcDbLine
 10
307.8507119999998
 20
128.973917
 30
0.0
 11
299.5507119999999
 21
128.973917
 31
0.0
  0
LINE
  5
95A2
330
9432
100
AcDbEntity
  8
4
  6
CENTER
100
AcDbLine
 10
303.700712
 20
133.123917
 30
0.0
 11
303.700712
 21
124.8239169999998
 31
0.0
  0
CIRCLE
  5
95A3
330
9432
100
AcDbEntity
  8
1
  6
Continuous
100
AcDbCircle
 10
303.700712
 20
128.973917
 30
0.0
 40
2.149999999999999
  0
LINE
  5
95A4
330
9432
100
AcDbEntity
  8
1
  6
Continuous
100
AcDbLine
 10
315.700712
 20
178.973917
 30
0.0
 11
322.700712
 21
178.973917
 31
0.0
  0
ARC
  5
95A5
330
9432
100
AcDbEntity
  8
1
  6
Continuous
100
AcDbCircle
 10
315.700712
 20
181.473917
 30
0.0
 40
2.5
100
AcDbArc
 50
180.0
 51
270.0
  0
LINE
  5
95A6
330
9432
100
AcDbEntity
  8
4
  6
CENTER
100
AcDbLine
 10
307.8507119999998
 20
188.973917
 30
0.0
 11
299.5507119999999
 21
188.973917
 31
0.0
  0
CIRCLE
  5
95A7
330
9432
100
AcDbEntity
  8
1
  6
Continuous
100
AcDbCircle
 10
303.700712
 20
188.973917
 30
0.0
 40
2.149999999999999
  0
LINE
  5
95A8
330
9432
100
AcDbEntity
  8
4
  6
CENTER
100
AcDbLine
 10
303.700712
 20
193.1239169999998
 30
0.0
 11
303.700712
 21
184.823917
 31
0.0
  0
LINE
  5
95A9
330
9432
100
AcDbEntity
  8
1
  6
Continuous
100
AcDbLine
 10
329.950712
 20
173.0616169999999
 30
0.0
 11
329.950712
 21
169.8862169999999
 31
0.0
  0
LINE
  5
95AA
330
9432
100
AcDbEntity
  8
1
  6
Continuous
100
AcDbLine
 10
335.450712
 20
173.0616169999999
 30
0.0
 11
335.450712
 21
169.8862169999999
 31
0.0
  0
LINE
  5
95AB
330
9432
100
AcDbEntity
  8
4
  6
CENTER
100
AcDbLine
 10
332.700712
 20
175.473917
 30
0.0
 11
332.700712
 21
167.473917
 31
0.0
  0
CIRCLE
  5
95AC
330
9432
100
AcDbEntity
  8
1
  6
Continuous
100
AcDbCircle
 10
332.700712
 20
171.473917
 30
0.0
 40
1.5
  0
CIRCLE
  5
95AD
330
9432
100
AcDbEntity
  8
2
  6
Continuous
100
AcDbCircle
 10
332.700712
 20
171.473917
 30
0.0
 40
1.2295
  0
CIRCLE
  5
95AE
330
9432
100
AcDbEntity
  8
1
  6
Continuous
100
AcDbCircle
 10
332.700712
 20
171.473917
 30
0.0
 40
2.75
  0
LINE
  5
95AF
330
9432
100
AcDbEntity
  8
1
  6
Continuous
100
AcDbLine
 10
332.700712
 20
168.298417
 30
0.0
 11
335.450712
 21
169.8862169999999
 31
0.0
  0
LINE
  5
95B0
330
9432
100
AcDbEntity
  8
4
  6
CENTER
100
AcDbLine
 10
328.700712
 20
171.473917
 30
0.0
 11
336.700712
 21
171.473917
 31
0.0
  0
LINE
  5
95B1
330
9432
100
AcDbEntity
  8
1
  6
Continuous
100
AcDbLine
 10
332.700712
 20
168.298517
 30
0.0
 11
329.950712
 21
169.8862169999999
 31
0.0
  0
LINE
  5
95B2
330
9432
100
AcDbEntity
  8
1
  6
Continuous
100
AcDbLine
 10
335.450712
 20
173.0616169999999
 30
0.0
 11
332.700712
 21
174.6493169999999
 31
0.0
  0
LINE
  5
95B3
330
9432
100
AcDbEntity
  8
1
  6
Continuous
100
AcDbLine
 10
324.700712
 20
196.473917
 30
0.0
 11
324.700712
 21
180.973917
 31
0.0
  0
LINE
  5
95B4
330
9432
100
AcDbEntity
  8
1
  6
Continuous
100
AcDbLine
 10
329.950712
 20
173.0616169999999
 30
0.0
 11
332.700712
 21
174.6493169999999
 31
0.0
  0
LINE
  5
95B5
330
9432
100
AcDbEntity
  8
1
  6
Continuous
100
AcDbLine
 10
422.2007119999998
 20
195.9739169999998
 30
0.0
 11
422.2007119999998
 21
121.9739169999999
 31
0.0
  0
LINE
  5
95B6
330
9432
100
AcDbEntity
  8
1
  6
Continuous
100
AcDbLine
 10
399.950712
 20
173.0616169999999
 30
0.0
 11
399.950712
 21
169.8862169999999
 31
0.0
  0
CIRCLE
  5
95B7
330
9432
100
AcDbEntity
  8
2
  6
Continuous
100
AcDbCircle
 10
402.700712
 20
171.473917
 30
0.0
 40
1.2295
  0
CIRCLE
  5
95B8
330
9432
100
AcDbEntity
  8
1
  6
Continuous
100
AcDbCircle
 10
402.700712
 20
171.473917
 30
0.0
 40
1.5
  0
LINE
  5
95B9
330
9432
100
AcDbEntity
  8
4
  6
CENTER
100
AcDbLine
 10
402.700712
 20
175.473917
 30
0.0
 11
402.700712
 21
167.473917
 31
0.0
  0
LINE
  5
95BA
330
9432
100
AcDbEntity
  8
1
  6
Continuous
100
AcDbLine
 10
405.450712
 20
173.0616169999999
 30
0.0
 11
405.450712
 21
169.8862169999999
 31
0.0
  0
CIRCLE
  5
95BB
330
9432
100
AcDbEntity
  8
1
  6
Continuous
100
AcDbCircle
 10
402.700712
 20
171.473917
 30
0.0
 40
2.75
  0
LINE
  5
95BC
330
9432
100
AcDbEntity
  8
1
  6
Continuous
100
AcDbLine
 10
402.700712
 20
168.298517
 30
0.0
 11
405.450712
 21
169.8862169999999
 31
0.0
  0
LINE
  5
95BD
330
9432
100
AcDbEntity
  8
4
  6
CENTER
100
AcDbLine
 10
406.700712
 20
171.473917
 30
0.0
 11
398.700712
 21
171.473917
 31
0.0
  0
LINE
  5
95BE
330
9432
100
AcDbEntity
  8
1
  6
Continuous
100
AcDbLine
 10
402.700712
 20
168.298417
 30
0.0
 11
399.950712
 21
169.8862169999999
 31
0.0
  0
LINE
  5
95BF
330
9432
100
AcDbEntity
  8
1
  6
Continuous
100
AcDbLine
 10
405.450712
 20
173.0616169999999
 30
0.0
 11
402.700712
 21
174.6493169999999
 31
0.0
  0
LINE
  5
95C0
330
9432
100
AcDbEntity
  8
1
  6
Continuous
100
AcDbLine
 10
399.950712
 20
173.0616169999999
 30
0.0
 11
402.700712
 21
174.6493169999999
 31
0.0
  0
LINE
  5
95C1
330
9432
100
AcDbEntity
  8
1
  6
Continuous
100
AcDbLine
 10
410.700712
 20
196.473917
 30
0.0
 11
410.700712
 21
180.973917
 31
0.0
  0
LINE
  5
95C2
330
9432
100
AcDbEntity
  8
1
  6
Continuous
100
AcDbLine
 10
419.700712
 20
178.973917
 30
0.0
 11
412.700712
 21
178.973917
 31
0.0
  0
ARC
  5
95C3
330
9432
100
AcDbEntity
  8
1
  6
Continuous
100
AcDbCircle
 10
434.7007119999998
 20
115.9739169999999
 30
0.0
 40
2.0
100
AcDbArc
 50
270.0
 51
0.0
  0
LINE
  5
95C4
330
9432
100
AcDbEntity
  8
4
  6
CENTER
100
AcDbLine
 10
435.8507119999998
 20
128.973917
 30
0.0
 11
427.5507119999998
 21
128.973917
 31
0.0
  0
CIRCLE
  5
95C5
330
9432
100
AcDbEntity
  8
1
  6
Continuous
100
AcDbCircle
 10
431.700712
 20
128.973917
 30
0.0
 40
2.149999999999999
  0
LINE
  5
95C6
330
9432
100
AcDbEntity
  8
4
  6
CENTER
100
AcDbLine
 10
431.700712
 20
133.123917
 30
0.0
 11
431.700712
 21
124.8239169999998
 31
0.0
  0
LINE
  5
95C7
330
9432
100
AcDbEntity
  8
4
  6
CENTER
100
AcDbLine
 10
435.8507119999998
 20
188.973917
 30
0.0
 11
427.5507119999998
 21
188.973917
 31
0.0
  0
CIRCLE
  5
95C8
330
9432
100
AcDbEntity
  8
1
  6
Continuous
100
AcDbCircle
 10
431.700712
 20
188.973917
 30
0.0
 40
2.149999999999999
  0
LINE
  5
95C9
330
9432
100
AcDbEntity
  8
4
  6
CENTER
100
AcDbLine
 10
431.700712
 20
193.1239169999998
 30
0.0
 11
431.700712
 21
184.823917
 31
0.0
  0
LINE
  5
95CA
330
9432
100
AcDbEntity
  8
1
  6
Continuous
100
AcDbLine
 10
434.7007119999998
 20
203.9739169999998
 30
0.0
 11
300.700712
 21
203.9739169999998
 31
0.0
  0
LINE
  5
95CB
330
9432
100
AcDbEntity
  8
1
  6
Continuous
100
AcDbLine
 10
419.700712
 20
198.473917
 30
0.0
 11
315.700712
 21
198.473917
 31
0.0
  0
ARC
  5
95CC
330
9432
100
AcDbEntity
  8
1
  6
Continuous
100
AcDbCircle
 10
300.700712
 20
201.973917
 30
0.0
 40
2.0
100
AcDbArc
 50
90.0
 51
180.0
  0
ARC
  5
95CD
330
9432
100
AcDbEntity
  8
1
  6
Continuous
100
AcDbCircle
 10
434.7007119999998
 20
201.973917
 30
0.0
 40
2.0
100
AcDbArc
 50
0.0
 51
90.0
  0
LINE
  5
95CE
330
9432
100
AcDbEntity
  8
4
  6
CENTER
100
AcDbLine
 10
246.978812
 20
189.976774
 30
0.0
 11
246.978812
 21
180.371059
 31
0.0
  0
LINE
  5
95CF
330
9432
100
AcDbEntity
  8
4
  6
CENTER
100
AcDbLine
 10
242.8467669999998
 20
185.1739169999999
 30
0.0
 11
251.144348
 21
185.1739169999999
 31
0.0
  0
LINE
  5
95D0
330
9432
100
AcDbEntity
  8
4
  6
CENTER
100
AcDbLine
 10
27.59440899999999
 20
55.97391700000001
 30
0.0
 11
151.5228009999999
 21
55.97391700000001
 31
0.0
  0
LINE
  5
95D1
330
9432
100
AcDbEntity
  8
4
  6
CENTER
100
AcDbLine
 10
28.120313
 20
261.9739169999999
 30
0.0
 11
151.781047
 21
261.9739169999999
 31
0.0
  0
LINE
  5
95D2
330
9432
100
AcDbEntity
  8
1
  6
Continuous
100
AcDbLine
 10
147.446082
 20
258.4739169999999
 30
0.0
 11
158.4788119999998
 21
258.4739169999999
 31
0.0
  0
LINE
  5
95D3
330
9432
100
AcDbEntity
  8
1
  6
Continuous
100
AcDbLine
 10
147.5222599999999
 20
59.473917
 30
0.0
 11
158.4788119999998
 21
59.473917
 31
0.0
  0
LINE
  5
95D4
330
9432
100
AcDbEntity
  8
1
  6
Continuous
100
AcDbLine
 10
427.200712
 20
201.973917
 30
0.0
 11
427.200712
 21
115.9739169999999
 31
0.0
  0
LINE
  5
95D5
330
9432
100
AcDbEntity
  8
1
  6
Continuous
100
AcDbLine
 10
308.200712
 20
201.973917
 30
0.0
 11
308.200712
 21
115.9739169999999
 31
0.0
  0
ARC
  5
95D6
330
9432
100
AcDbEntity
  8
1
  6
Continuous
100
AcDbCircle
 10
310.200712
 20
201.973917
 30
0.0
 40
2.0
100
AcDbArc
 50
90.0
 51
180.0
  0
ARC
  5
95D7
330
9432
100
AcDbEntity
  8
1
  6
Continuous
100
AcDbCircle
 10
310.200712
 20
115.9739169999999
 30
0.0
 40
2.0
100
AcDbArc
 50
180.0
 51
270.0
  0
ARC
  5
95D8
330
9432
100
AcDbEntity
  8
1
  6
Continuous
100
AcDbCircle
 10
425.200712
 20
115.9739169999999
 30
0.0
 40
2.0
100
AcDbArc
 50
270.0
 51
0.0
  0
ARC
  5
95D9
330
9432
100
AcDbEntity
  8
1
  6
Continuous
100
AcDbCircle
 10
425.200712
 20
201.973917
 30
0.0
 40
2.0
100
AcDbArc
 50
0.0
 51
90.0
  0
LINE
  5
95DA
330
9432
100
AcDbEntity
  8
1
  6
Continuous
100
AcDbLine
 10
144.478812
 20
61.973917
 30
0.0
 11
144.478812
 21
63.973917
 31
0.0
  0
LINE
  5
95DB
330
9432
100
AcDbEntity
  8
1
  6
Continuous
100
AcDbLine
 10
35.47881199999999
 20
61.973917
 30
0.0
 11
35.47881199999999
 21
63.973917
 31
0.0
  0
LINE
  5
95DC
330
9432
100
AcDbEntity
  8
1
  6
Continuous
100
AcDbLine
 10
35.47881199999999
 20
255.9739169999998
 30
0.0
 11
35.47881199999999
 21
253.973917
 31
0.0
  0
LINE
  5
95DD
330
9432
100
AcDbEntity
  8
1
  6
Continuous
100
AcDbLine
 10
144.478812
 20
255.9739169999998
 30
0.0
 11
144.478812
 21
253.973917
 31
0.0
  0
ARC
  5
95DE
330
9432
100
AcDbEntity
  8
1
  6
Continuous
100
AcDbCircle
 10
322.700712
 20
180.973917
 30
0.0
 40
2.0
100
AcDbArc
 50
270.0
 51
0.0
  0
ARC
  5
95DF
330
9432
100
AcDbEntity
  8
1
  6
Continuous
100
AcDbCircle
 10
412.700712
 20
180.973917
 30
0.0
 40
2.0
100
AcDbArc
 50
180.0
 51
270.0
  0
ARC
  5
95E0
330
9432
100
AcDbEntity
  8
1
  6
Continuous
100
AcDbCircle
 10
412.700712
 20
196.473917
 30
0.0
 40
2.0
100
AcDbArc
 50
90.0
 51
180.0
  0
ARC
  5
95E1
330
9432
100
AcDbEntity
  8
1
  6
Continuous
100
AcDbCircle
 10
322.700712
 20
196.473917
 30
0.0
 40
2.0
100
AcDbArc
 50
0.0
 51
90.0
  0
LINE
  5
95E2
330
9432
100
AcDbEntity
  8
4
  6
CENTER
100
AcDbLine
 10
235.627892
 20
188.973917
 30
0.0
 11
248.227892
 21
188.973917
 31
0.0
  0
LINE
  5
95E3
330
9432
100
AcDbEntity
  8
4
  6
CENTER
100
AcDbLine
 10
235.627892
 20
128.973917
 30
0.0
 11
248.227892
 21
128.973917
 31
0.0
  0
ENDSEC
  0
SECTION
  2
OBJECTS
  0
DICTIONARY
  5
9420
330
0
100
AcDbDictionary
281
     1
  3
ACAD_CIP_PREVIOUS_PRODUCT_INFO
350
9649
  3
ACAD_COLOR
350
962B
  3
ACAD_DETAILVIEWSTYLE
350
9644
  3
ACAD_GROUP
350
9421
  3
ACAD_LAYOUT
350
942D
  3
ACAD_MATERIAL
350
95F9
  3
ACAD_MLEADERSTYLE
350
9640
  3
ACAD_MLINESTYLE
350
942A
  3
ACAD_PLOTSETTINGS
350
942C
  3
ACAD_PLOTSTYLENAME
350
95F7
  3
ACAD_SCALELIST
350
962E
  3
ACAD_SECTIONVIEWSTYLE
350
9642
  3
ACAD_TABLESTYLE
350
962C
  3
ACAD_VISUALSTYLE
350
9612
  3
ACDB_RECOMPOSE_DATA
350
9667
  3
AcDbVariableDictionary
350
965A
  3
DWGPROPS
350
9668
  0
DICTIONARY
  5
964A
330
9424
100
AcDbDictionary
280
     1
281
     1
  3
ADSK_XREC_LAYER_RECONCILED
360
964B
  0
DICTIONARY
  5
964C
330
943A
100
AcDbDictionary
280
     1
281
     1
  3
ADSK_XREC_LAYER_RECONCILED
360
964D
  0
DICTIONARY
  5
964E
330
943B
100
AcDbDictionary
280
     1
281
     1
  3
ADSK_XREC_LAYER_RECONCILED
360
964F
  0
DICTIONARY
  5
9650
330
943C
100
AcDbDictionary
280
     1
281
     1
  3
ADSK_XREC_LAYER_RECONCILED
360
9651
  0
DICTIONARY
  5
9652
330
943D
100
AcDbDictionary
280
     1
281
     1
  3
ADSK_XREC_LAYER_RECONCILED
360
9653
  0
DICTIONARY
  5
9654
330
943E
100
AcDbDictionary
280
     1
281
     1
  3
ADSK_XREC_LAYER_RECONCILED
360
9655
  0
DICTIONARY
  5
9656
330
943F
100
AcDbDictionary
280
     1
281
     1
  3
ADSK_XREC_LAYER_RECONCILED
360
9657
  0
DICTIONARY
  5
9658
330
9440
100
AcDbDictionary
280
     1
281
     1
  3
ADSK_XREC_LAYER_RECONCILED
360
9659
  0
DICTIONARY
  5
95F2
330
9432
100
AcDbDictionary
281
     1
  3
ACAD_LAYOUTSELFREF
350
95F3
  0
DICTIONARY
  5
95F0
330
942E
100
AcDbDictionary
281
     1
  3
ACAD_LAYOUTSELFREF
350
95F1
  0
XRECORD
  5
9649
102
{ACAD_REACTORS
330
9420
102
}
330
9420
100
AcDbXrecord
280
     1
300
ACDLT
300
2014
300
ACDLT_F_S
  0
DICTIONARY
  5
962B
102
{ACAD_REACTORS
330
9420
102
}
330
9420
100
AcDbDictionary
281
     1
  0
DICTIONARY
  5
9644
102
{ACAD_REACTORS
330
9420
102
}
330
9420
100
AcDbDictionary
281
     1
  3
Imperial24
350
9645
  0
DICTIONARY
  5
9421
102
{ACAD_REACTORS
330
9420
102
}
330
9420
100
AcDbDictionary
281
     1
  0
DICTIONARY
  5
942D
102
{ACAD_REACTORS
330
9420
102
}
330
9420
100
AcDbDictionary
281
     1
  3
Model
350
9646
  3
レイアウト1
350
9647
  0
DICTIONARY
  5
95F9
102
{ACAD_REACTORS
330
9420
102
}
330
9420
100
AcDbDictionary
281
     1
  3
ByBlock
350
9602
  3
ByLayer
350
95FA
  3
Global
350
960A
  0
DICTIONARY
  5
9640
102
{ACAD_REACTORS
330
9420
102
}
330
9420
100
AcDbDictionary
281
     1
  3
Standard
350
9641
  0
DICTIONARY
  5
942A
102
{ACAD_REACTORS
330
9420
102
}
330
9420
100
AcDbDictionary
281
     1
  3
STANDARD
350
942B
  0
DICTIONARY
  5
942C
102
{ACAD_REACTORS
330
9420
102
}
330
9420
100
AcDbDictionary
281
     1
  0
ACDBDICTIONARYWDFLT
  5
95F7
102
{ACAD_REACTORS
330
9420
102
}
330
9420
100
AcDbDictionary
281
     1
  3
Normal
350
95F8
100
AcDbDictionaryWithDefault
340
95F8
  0
DICTIONARY
  5
962E
102
{ACAD_REACTORS
330
9420
102
}
330
9420
100
AcDbDictionary
281
     1
  3
A0
350
962F
  3
A1
350
9630
  3
A2
350
9631
  3
A3
350
9632
  3
A4
350
9633
  3
A5
350
9634
  3
A6
350
9635
  3
A7
350
9636
  3
A8
350
9637
  3
A9
350
9638
  3
B0
350
9639
  3
B1
350
963A
  3
B2
350
963B
  3
B3
350
963C
  3
B4
350
963D
  3
B5
350
963E
  3
B6
350
963F
  0
DICTIONARY
  5
9642
102
{ACAD_REACTORS
330
9420
102
}
330
9420
100
AcDbDictionary
281
     1
  3
Imperial24
350
9643
  0
DICTIONARY
  5
962C
102
{ACAD_REACTORS
330
9420
102
}
330
9420
100
AcDbDictionary
281
     1
  3
Standard
350
962D
  0
DICTIONARY
  5
9612
102
{ACAD_REACTORS
330
9420
102
}
330
9420
100
AcDbDictionary
281
     1
  3
2dWireframe
350
9618
  3
Basic
350
9617
  3
Brighten
350
961E
  3
ColorChange
350
9622
  3
Conceptual
350
961B
  3
Dim
350
961D
  3
EdgeColorOff
350
962A
  3
Facepattern
350
9621
  3
Flat
350
9613
  3
FlatWithEdges
350
9614
  3
Gouraud
350
9615
  3
GouraudWithEdges
350
9616
  3
Hidden
350
961A
  3
JitterOff
350
9628
  3
Linepattern
350
9620
  3
OverhangOff
350
9629
  3
Realistic
350
961C
  3
Shaded
350
9627
  3
Shaded with edges
350
9626
  3
Shades of Gray
350
9623
  3
Sketchy
350
9624
  3
Thicken
350
961F
  3
Wireframe
350
9619
  3
X-Ray
350
9625
  0
XRECORD
  5
9667
102
{ACAD_REACTORS
330
9420
102
}
330
9420
100
AcDbXrecord
280
     1
 90
        1
330
962D
  0
DICTIONARY
  5
965A
102
{ACAD_REACTORS
330
9420
102
}
330
9420
100
AcDbDictionary
281
     1
  3
CANNOSCALE
350
965F
  3
CMLEADERSTYLE
350
965C
  3
CTABLESTYLE
350
965B
  3
CVIEWDETAILSTYLE
350
965D
  3
CVIEWSECTIONSTYLE
350
965E
  3
DIMASSOC
350
9662
  3
INDEXCTL
350
9661
  3
SORTENTS
350
9660
  3
XCLIPFRAME
350
9663
  0
XRECORD
  5
9668
102
{ACAD_REACTORS
330
9420
102
}
330
9420
100
AcDbXrecord
280
     1
  1
DWGPROPS COOKIE
  2

  3

  4

  6

  7

  8
Yoshitsune
  9

300
=
301
=
302
=
303
=
304
=
305
=
306
=
307
=
308
=
309
=
 40
0.0000141203703704
 41
2450737.744910417
 42
2457192.638085614
  1

 90
        0
  0
XRECORD
  5
964B
102
{ACAD_REACTORS
330
964A
102
}
330
964A
100
AcDbXrecord
280
     1
290
     1
  0
XRECORD
  5
964D
102
{ACAD_REACTORS
330
964C
102
}
330
964C
100
AcDbXrecord
280
     1
290
     1
  0
XRECORD
  5
964F
102
{ACAD_REACTORS
330
964E
102
}
330
964E
100
AcDbXrecord
280
     1
290
     1
  0
XRECORD
  5
9651
102
{ACAD_REACTORS
330
9650
102
}
330
9650
100
AcDbXrecord
280
     1
290
     1
  0
XRECORD
  5
9653
102
{ACAD_REACTORS
330
9652
102
}
330
9652
100
AcDbXrecord
280
     1
290
     1
  0
XRECORD
  5
9655
102
{ACAD_REACTORS
330
9654
102
}
330
9654
100
AcDbXrecord
280
     1
290
     1
  0
XRECORD
  5
9657
102
{ACAD_REACTORS
330
9656
102
}
330
9656
100
AcDbXrecord
280
     1
290
     1
  0
XRECORD
  5
9659
102
{ACAD_REACTORS
330
9658
102
}
330
9658
100
AcDbXrecord
280
     1
290
     1
  0
XRECORD
  5
95F3
102
{ACAD_REACTORS
330
95F2
102
}
330
95F2
100
AcDbXrecord
280
     1
340
9432
  0
XRECORD
  5
95F1
102
{ACAD_REACTORS
330
95F0
102
}
330
95F0
100
AcDbXrecord
280
     1
340
942E
  0
ACDBDETAILVIEWSTYLE
  5
9645
102
{ACAD_XDICTIONARY
360
96A0
102
}
102
{ACAD_REACTORS
330
9644
102
}
330
9644
100
AcDbModelDocViewStyle
 70
     0
  3
Imperial24
290
     0
100
AcDbDetailViewStyle
 70
     0
 71
     0
 90
        3
 71
     1
340
9425
 40
0.24
340
0
 40
0.24
300

 40
0.36
280
     3
 71
     2
340
9429
 90
       25
 71
     3
340
9425
 40
0.24
 90
        1
 40
0.75
 90
        1
300
%<\AcVar ViewType \f "%tc1">% %<\AcVar ViewDetailId>%\PSCALE %<\AcVar ViewScale \f "%sn">%
 71
     4
340
9429
 90
       25
340
9429
 90
       25
280
     0
  0
LAYOUT
  5
9646
102
{ACAD_XDICTIONARY
360
96A2
102
}
102
{ACAD_REACTORS
330
942D
102
}
330
942D
100
AcDbPlotSettings
  1

  2
Canon LBP9100C
  4

  6

 40
0.0
 41
0.0
 42
0.0
 43
0.0
 44
0.0
 45
0.0
 46
0.0
 47
0.0
 48
0.0
 49
0.0
140
0.0
141
0.0
142
1.0
143
1.0
 70
  1712
 72
     0
 73
     0
 74
     0
  7

 75
     0
147
1.0
148
0.0
149
0.0
100
AcDbLayout
  1
Model
 70
     1
 71
     0
 10
0.0
 20
0.0
 11
12.0
 21
9.0
 12
0.0
 22
0.0
 32
0.0
 14
0.0
 24
0.0
 34
0.0
 15
0.0
 25
0.0
 35
0.0
146
0.0
 13
0.0
 23
0.0
 33
0.0
 16
1.0
 26
0.0
 36
0.0
 17
0.0
 27
1.0
 37
0.0
 76
     0
330
9432
331
95EF
  0
LAYOUT
  5
9647
102
{ACAD_XDICTIONARY
360
96A4
102
}
102
{ACAD_REACTORS
330
942D
102
}
330
942D
100
AcDbPlotSettings
  1

  2
Canon LBP9100C
  4

  6

 40
0.0
 41
0.0
 42
0.0
 43
0.0
 44
0.0
 45
0.0
 46
0.0
 47
0.0
 48
0.0
 49
0.0
140
0.0
141
0.0
142
1.0
143
1.0
 70
   688
 72
     0
 73
     0
 74
     5
  7

 75
    16
147
1.0
148
0.0
149
0.0
100
AcDbLayout
  1
レイアウト1
 70
     0
 71
     1
 10
0.0
 20
0.0
 11
420.0
 21
297.0
 12
0.0
 22
0.0
 32
0.0
 14
1.000000000000000E+20
 24
1.000000000000000E+20
 34
1.000000000000000E+20
 15
-1.000000000000000E+20
 25
-1.000000000000000E+20
 35
-1.000000000000000E+20
146
0.0
 13
0.0
 23
0.0
 33
0.0
 16
1.0
 26
0.0
 36
0.0
 17
0.0
 27
1.0
 37
0.0
 76
     0
330
942E
  0
MATERIAL
  5
9602
102
{ACAD_XDICTIONARY
360
9603
102
}
102
{ACAD_REACTORS
330
95F9
102
}
330
95F9
100
AcDbMaterial
  1
ByBlock
 72
     0
 43
0.0208333333333333
 43
0.0
 43
0.0
 43
0.0
 43
0.0
 43
0.0208333333333333
 43
0.0
 43
0.0
 43
0.0
 43
0.0
 43
1.0
 43
0.0
 43
0.0
 43
0.0
 43
0.0
 43
1.0
 77
     0
 47
0.0208333333333333
 47
0.0
 47
0.0
 47
0.0
 47
0.0
 47
0.0208333333333333
 47
0.0
 47
0.0
 47
0.0
 47
0.0
 47
1.0
 47
0.0
 47
0.0
 47
0.0
 47
0.0
 47
1.0
171
     0
 49
0.0208333333333333
 49
0.0
 49
0.0
 49
0.0
 49
0.0
 49
0.0208333333333333
 49
0.0
 49
0.0
 49
0.0
 49
0.0
 49
1.0
 49
0.0
 49
0.0
 49
0.0
 49
0.0
 49
1.0
175
     0
142
0.0208333333333333
142
0.0
142
0.0
142
0.0
142
0.0
142
0.0208333333333333
142
0.0
142
0.0
142
0.0
142
0.0
142
1.0
142
0.0
142
0.0
142
0.0
142
0.0
142
1.0
179
     0
144
0.0208333333333333
144
0.0
144
0.0
144
0.0
144
0.0
144
0.0208333333333333
144
0.0
144
0.0
144
0.0
144
0.0
144
1.0
144
0.0
144
0.0
144
0.0
144
0.0
144
1.0
147
0.0208333333333333
147
0.0
147
0.0
147
0.0
147
0.0
147
0.0208333333333333
147
0.0
147
0.0
147
0.0
147
0.0
147
1.0
147
0.0
147
0.0
147
0.0
147
0.0
147
1.0
  0
MATERIAL
  5
95FA
102
{ACAD_XDICTIONARY
360
95FB
102
}
102
{ACAD_REACTORS
330
95F9
102
}
330
95F9
100
AcDbMaterial
  1
ByLayer
 72
     0
 43
0.0208333333333333
 43
0.0
 43
0.0
 43
0.0
 43
0.0
 43
0.0208333333333333
 43
0.0
 43
0.0
 43
0.0
 43
0.0
 43
1.0
 43
0.0
 43
0.0
 43
0.0
 43
0.0
 43
1.0
 77
     0
 47
0.0208333333333333
 47
0.0
 47
0.0
 47
0.0
 47
0.0
 47
0.0208333333333333
 47
0.0
 47
0.0
 47
0.0
 47
0.0
 47
1.0
 47
0.0
 47
0.0
 47
0.0
 47
0.0
 47
1.0
171
     0
 49
0.0208333333333333
 49
0.0
 49
0.0
 49
0.0
 49
0.0
 49
0.0208333333333333
 49
0.0
 49
0.0
 49
0.0
 49
0.0
 49
1.0
 49
0.0
 49
0.0
 49
0.0
 49
0.0
 49
1.0
175
     0
142
0.0208333333333333
142
0.0
142
0.0
142
0.0
142
0.0
142
0.0208333333333333
142
0.0
142
0.0
142
0.0
142
0.0
142
1.0
142
0.0
142
0.0
142
0.0
142
0.0
142
1.0
179
     0
144
0.0208333333333333
144
0.0
144
0.0
144
0.0
144
0.0
144
0.0208333333333333
144
0.0
144
0.0
144
0.0
144
0.0
144
1.0
144
0.0
144
0.0
144
0.0
144
0.0
144
1.0
147
0.0208333333333333
147
0.0
147
0.0
147
0.0
147
0.0
147
0.0208333333333333
147
0.0
147
0.0
147
0.0
147
0.0
147
1.0
147
0.0
147
0.0
147
0.0
147
0.0
147
1.0
  0
MATERIAL
  5
960A
102
{ACAD_XDICTIONARY
360
960B
102
}
102
{ACAD_REACTORS
330
95F9
102
}
330
95F9
100
AcDbMaterial
  1
Global
 72
     0
 43
0.0208333333333333
 43
0.0
 43
0.0
 43
0.0
 43
0.0
 43
0.0208333333333333
 43
0.0
 43
0.0
 43
0.0
 43
0.0
 43
1.0
 43
0.0
 43
0.0
 43
0.0
 43
0.0
 43
1.0
 77
     0
 47
0.0208333333333333
 47
0.0
 47
0.0
 47
0.0
 47
0.0
 47
0.0208333333333333
 47
0.0
 47
0.0
 47
0.0
 47
0.0
 47
1.0
 47
0.0
 47
0.0
 47
0.0
 47
0.0
 47
1.0
171
     0
 49
0.0208333333333333
 49
0.0
 49
0.0
 49
0.0
 49
0.0
 49
0.0208333333333333
 49
0.0
 49
0.0
 49
0.0
 49
0.0
 49
1.0
 49
0.0
 49
0.0
 49
0.0
 49
0.0
 49
1.0
175
     0
142
0.0208333333333333
142
0.0
142
0.0
142
0.0
142
0.0
142
0.0208333333333333
142
0.0
142
0.0
142
0.0
142
0.0
142
1.0
142
0.0
142
0.0
142
0.0
142
0.0
142
1.0
179
     0
144
0.0208333333333333
144
0.0
144
0.0
144
0.0
144
0.0
144
0.0208333333333333
144
0.0
144
0.0
144
0.0
144
0.0
144
1.0
144
0.0
144
0.0
144
0.0
144
0.0
144
1.0
147
0.0208333333333333
147
0.0
147
0.0
147
0.0
147
0.0
147
0.0208333333333333
147
0.0
147
0.0
147
0.0
147
0.0
147
1.0
147
0.0
147
0.0
147
0.0
147
0.0
147
1.0
  0
MLEADERSTYLE
  5
9641
102
{ACAD_REACTORS
330
9640
102
}
330
9640
100
AcDbMLeaderStyle
170
     2
171
     1
172
     0
 90
        2
 40
0.0
 41
0.0
173
     1
 91
-1056964608
340
9427
 92
       -2
290
     1
 42
0.09
291
     1
 43
0.36
  3
Standard
 44
0.18
300

342
9425
174
     1
178
     6
175
     1
176
     0
 93
-1056964608
 45
0.18
292
     0
297
     0
 46
0.18
 94
-1056964608
 47
1.0
 49
1.0
140
1.0
293
     1
141
0.0
294
     1
177
     0
142
1.0
295
     0
296
     0
143
0.125
1001
ACAD_MLEADERVER
1070
     2
  0
MLINESTYLE
  5
942B
102
{ACAD_REACTORS
330
942A
102
}
330
942A
100
AcDbMlineStyle
  2
STANDARD
 70
     0
  3

 62
   256
 51
90.0
 52
90.0
 71
     2
 49
0.5
 62
   256
  6
BYLAYER
 49
-0.5
 62
   256
  6
BYLAYER
  0
ACDBPLACEHOLDER
  5
95F8
102
{ACAD_REACTORS
330
95F7
102
}
330
95F7
  0
SCALE
  5
962F
102
{ACAD_REACTORS
330
962E
102
}
330
962E
100
AcDbScale
 70
     0
300
1:1
140
1.0
141
1.0
290
     1
  0
SCALE
  5
9630
102
{ACAD_REACTORS
330
962E
102
}
330
962E
100
AcDbScale
 70
     0
300
1/128" = 1'-0"
140
0.0078125
141
12.0
290
     0
  0
SCALE
  5
9631
102
{ACAD_REACTORS
330
962E
102
}
330
962E
100
AcDbScale
 70
     0
300
1/64" = 1'-0"
140
0.015625
141
12.0
290
     0
  0
SCALE
  5
9632
102
{ACAD_REACTORS
330
962E
102
}
330
962E
100
AcDbScale
 70
     0
300
1/32" = 1'-0"
140
0.03125
141
12.0
290
     0
  0
SCALE
  5
9633
102
{ACAD_REACTORS
330
962E
102
}
330
962E
100
AcDbScale
 70
     0
300
1/16" = 1'-0"
140
0.0625
141
12.0
290
     0
  0
SCALE
  5
9634
102
{ACAD_REACTORS
330
962E
102
}
330
962E
100
AcDbScale
 70
     0
300
3/32" = 1'-0"
140
0.09375
141
12.0
290
     0
  0
SCALE
  5
9635
102
{ACAD_REACTORS
330
962E
102
}
330
962E
100
AcDbScale
 70
     0
300
1/8" = 1'-0"
140
0.125
141
12.0
290
     0
  0
SCALE
  5
9636
102
{ACAD_REACTORS
330
962E
102
}
330
962E
100
AcDbScale
 70
     0
300
3/16" = 1'-0"
140
0.1875
141
12.0
290
     0
  0
SCALE
  5
9637
102
{ACAD_REACTORS
330
962E
102
}
330
962E
100
AcDbScale
 70
     0
300
1/4" = 1'-0"
140
0.25
141
12.0
290
     0
  0
SCALE
  5
9638
102
{ACAD_REACTORS
330
962E
102
}
330
962E
100
AcDbScale
 70
     0
300
3/8" = 1'-0"
140
0.375
141
12.0
290
     0
  0
SCALE
  5
9639
102
{ACAD_REACTORS
330
962E
102
}
330
962E
100
AcDbScale
 70
     0
300
1/2" = 1'-0"
140
0.5
141
12.0
290
     0
  0
SCALE
  5
963A
102
{ACAD_REACTORS
330
962E
102
}
330
962E
100
AcDbScale
 70
     0
300
3/4" = 1'-0"
140
0.75
141
12.0
290
     0
  0
SCALE
  5
963B
102
{ACAD_REACTORS
330
962E
102
}
330
962E
100
AcDbScale
 70
     0
300
1" = 1'-0"
140
1.0
141
12.0
290
     0
  0
SCALE
  5
963C
102
{ACAD_REACTORS
330
962E
102
}
330
962E
100
AcDbScale
 70
     0
300
1-1/2" = 1'-0"
140
1.5
141
12.0
290
     0
  0
SCALE
  5
963D
102
{ACAD_REACTORS
330
962E
102
}
330
962E
100
AcDbScale
 70
     0
300
3" = 1'-0"
140
3.0
141
12.0
290
     0
  0
SCALE
  5
963E
102
{ACAD_REACTORS
330
962E
102
}
330
962E
100
AcDbScale
 70
     0
300
6" = 1'-0"
140
6.0
141
12.0
290
     0
  0
SCALE
  5
963F
102
{ACAD_REACTORS
330
962E
102
}
330
962E
100
AcDbScale
 70
     0
300
1'-0" = 1'-0"
140
12.0
141
12.0
290
     0
  0
ACDBSECTIONVIEWSTYLE
  5
9643
102
{ACAD_XDICTIONARY
360
969E
102
}
102
{ACAD_REACTORS
330
9642
102
}
330
9642
100
AcDbModelDocViewStyle
 70
     0
  3
Imperial24
290
     0
100
AcDbSectionViewStyle
 70
     0
 71
     0
 90
       78
 71
     1
340
9425
 40
0.24
340
0
340
0
 40
0.24
300
I, O, Q, S, X, Z
 40
0.48
 90
        3
 40
0.18
 90
        1
 71
     2
340
9429
 90
       25
340
9429
 90
       50
 40
0.24
 40
0.0
 40
0.24
 71
     3
340
9425
 40
0.24
 90
        1
 40
0.75
 90
        1
300
%<\AcVar ViewType \f "%tc1">% %<\AcVar ViewSectionStartId>%-%<\AcVar ViewSectionEndId>%\PSCALE %<\AcVar ViewScale \f "%sn">%
 71
     4
300
ANSI31
 40
1.0
 90
        0
290
     0
290
     0
 90
        6
 40
0.0
 40
1.570796326794896
 40
0.2617993877991494
 40
1.308996938995747
 40
-0.2617993877991494
 40
1.832595714594046
  0
TABLESTYLE
  5
962D
102
{ACAD_XDICTIONARY
360
9665
102
}
102
{ACAD_REACTORS
330
962C
102
}
330
962C
100
AcDbTableStyle
  3
Standard
 70
     0
 71
     0
 40
0.06
 41
0.06
280
     0
281
     0
  7
STANDARD
140
0.18
170
     2
 62
     0
 63
     7
283
     0
274
    -2
284
     1
 64
     0
275
    -2
285
     1
 65
     0
276
    -2
286
     1
 66
     0
277
    -2
287
     1
 67
     0
278
    -2
288
     1
 68
     0
279
    -2
289
     1
 69
     0
  7
STANDARD
140
0.25
170
     5
 62
     0
 63
     7
283
     0
274
    -2
284
     1
 64
     0
275
    -2
285
     1
 65
     0
276
    -2
286
     1
 66
     0
277
    -2
287
     1
 67
     0
278
    -2
288
     1
 68
     0
279
    -2
289
     1
 69
     0
  7
STANDARD
140
0.18
170
     5
 62
     0
 63
     7
283
     0
274
    -2
284
     1
 64
     0
275
    -2
285
     1
 65
     0
276
    -2
286
     1
 66
     0
277
    -2
287
     1
 67
     0
278
    -2
288
     1
 68
     0
279
    -2
289
     1
 69
     0
  0
VISUALSTYLE
  5
9618
102
{ACAD_XDICTIONARY
360
9676
102
}
102
{ACAD_REACTORS
330
9612
102
}
330
9612
100
AcDbVisualStyle
  2
2dWireframe
 70
     4
 71
     0
 72
     2
 73
     0
 90
        0
 40
-0.6
 41
-30.0
 62
     5
 63
     7
 74
     1
 91
        4
 64
     7
 65
   257
 75
     1
175
     1
 42
1.0
 92
        0
 66
   257
 43
1.0
 76
     1
 77
     6
 78
     2
 67
     7
 79
     5
170
     0
171
     0
290
     0
174
     0
 93
        1
 44
0.0
173
     0
291
     0
 45
0.0
1001
ACAD
1000
AcDbSavedByObjectVersion
1070
     0
  0
VISUALSTYLE
  5
9617
102
{ACAD_XDICTIONARY
360
9674
102
}
102
{ACAD_REACTORS
330
9612
102
}
330
9612
100
AcDbVisualStyle
  2
Basic
 70
     7
 71
     1
 72
     0
 73
     1
 90
        0
 40
-0.6
 41
-30.0
 62
     5
 63
     7
 74
     0
 91
        4
 64
     7
 65
   257
 75
     1
175
     1
 42
1.0
 92
        8
 66
     7
 43
1.0
 76
     1
 77
     6
 78
     2
 67
     7
 79
     5
170
     0
171
     0
290
     0
174
     0
 93
        1
 44
0.0
173
     0
291
     1
 45
0.0
1001
ACAD
1000
AcDbSavedByObjectVersion
1070
     0
  0
VISUALSTYLE
  5
961E
102
{ACAD_XDICTIONARY
360
9682
102
}
102
{ACAD_REACTORS
330
9612
102
}
330
9612
100
AcDbVisualStyle
  2
Brighten
 70
    12
 71
     2
 72
     2
 73
     0
 90
        0
 40
-0.6
 41
-30.0
 62
     5
 63
     7
 74
     1
 91
        4
 64
     7
 65
   257
 75
     1
175
     1
 42
1.0
 92
        8
 66
     7
 43
1.0
 76
     1
 77
     6
 78
     2
 67
     7
 79
     5
170
     0
171
     0
290
     0
174
     0
 93
        1
 44
50.0
173
     0
291
     1
 45
0.0
1001
ACAD
1000
AcDbSavedByObjectVersion
1070
     0
  0
VISUALSTYLE
  5
9622
102
{ACAD_XDICTIONARY
360
968A
102
}
102
{ACAD_REACTORS
330
9612
102
}
330
9612
100
AcDbVisualStyle
  2
ColorChange
 70
    16
 71
     2
 72
     2
 73
     3
 90
        0
 40
-0.6
 41
-30.0
 62
     5
 63
     8
 74
     1
 91
        4
 64
     7
 65
   257
 75
     1
175
     1
 42
1.0
 92
        8
 66
     8
 43
1.0
 76
     1
 77
     6
 78
     2
 67
     7
 79
     5
170
     0
171
     0
290
     0
174
     0
 93
        1
 44
0.0
173
     0
291
     1
 45
0.0
1001
ACAD
1000
AcDbSavedByObjectVersion
1070
     0
  0
VISUALSTYLE
  5
961B
102
{ACAD_XDICTIONARY
360
967C
102
}
102
{ACAD_REACTORS
330
9612
102
}
330
9612
100
AcDbVisualStyle
  2
Conceptual
 70
     9
 71
     3
 72
     2
 73
     0
 90
        0
 40
-0.6
 41
-30.0
 62
     5
 63
     7
 74
     2
 91
        2
 64
     7
 65
   257
 75
     1
175
     1
 42
179.0
 92
        8
 66
     7
 43
1.0
 76
     1
 77
     6
 78
     2
 67
     7
 79
     3
170
     0
171
     0
290
     0
174
     0
 93
        1
 44
0.0
173
     0
291
     0
 45
0.0
1001
ACAD
1000
AcDbSavedByObjectVersion
1070
     0
  0
VISUALSTYLE
  5
961D
102
{ACAD_XDICTIONARY
360
9680
102
}
102
{ACAD_REACTORS
330
9612
102
}
330
9612
100
AcDbVisualStyle
  2
Dim
 70
    11
 71
     2
 72
     2
 73
     0
 90
        0
 40
-0.6
 41
-30.0
 62
     5
 63
     7
 74
     1
 91
        4
 64
     7
 65
   257
 75
     1
175
     1
 42
1.0
 92
        8
 66
     7
 43
1.0
 76
     1
 77
     6
 78
     2
 67
     7
 79
     5
170
     0
171
     0
290
     0
174
     0
 93
        1
 44
-50.0
173
     0
291
     1
 45
0.0
1001
ACAD
1000
AcDbSavedByObjectVersion
1070
     0
  0
VISUALSTYLE
  5
962A
102
{ACAD_XDICTIONARY
360
969A
102
}
102
{ACAD_REACTORS
330
9612
102
}
330
9612
100
AcDbVisualStyle
  2
EdgeColorOff
 70
    22
 71
     2
 72
     2
 73
     0
 90
        0
 40
-0.6
 41
-30.0
 62
     5
 63
     7
 74
     1
 91
        4
 64
     7
 65
   257
 75
     1
175
     1
 42
1.0
 92
        8
 66
     7
 43
1.0
 76
     1
 77
     6
 78
     2
 67
     7
 79
     5
170
     0
171
     0
290
     0
174
     0
 93
        1
 44
0.0
173
     0
291
     1
 45
0.0
1001
ACAD
1000
AcDbSavedByObjectVersion
1070
     0
  0
VISUALSTYLE
  5
9621
102
{ACAD_XDICTIONARY
360
9688
102
}
102
{ACAD_REACTORS
330
9612
102
}
330
9612
100
AcDbVisualStyle
  2
Facepattern
 70
    15
 71
     2
 72
     2
 73
     0
 90
        0
 40
-0.6
 41
-30.0
 62
     5
 63
     7
 74
     1
 91
        4
 64
     7
 65
   257
 75
     1
175
     1
 42
1.0
 92
        8
 66
     7
 43
1.0
 76
     1
 77
     6
 78
     2
 67
     7
 79
     5
170
     0
171
     0
290
     0
174
     0
 93
        1
 44
0.0
173
     0
291
     1
 45
0.0
1001
ACAD
1000
AcDbSavedByObjectVersion
1070
     0
  0
VISUALSTYLE
  5
9613
102
{ACAD_XDICTIONARY
360
966C
102
}
102
{ACAD_REACTORS
330
9612
102
}
330
9612
100
AcDbVisualStyle
  2
Flat
 70
     0
 71
     2
 72
     1
 73
     1
 90
        2
 40
-0.6
 41
30.0
 62
     5
 63
     7
 74
     0
 91
        0
 64
     7
 65
   257
 75
     1
175
     1
 42
1.0
 92
        8
 66
     7
 43
1.0
 76
     1
 77
     6
 78
     2
 67
     7
 79
     5
170
     0
171
     0
290
     0
174
     0
 93
       13
 44
0.0
173
     0
291
     1
 45
0.0
1001
ACAD
1000
AcDbSavedByObjectVersion
1070
     0
  0
VISUALSTYLE
  5
9614
102
{ACAD_XDICTIONARY
360
966E
102
}
102
{ACAD_REACTORS
330
9612
102
}
330
9612
100
AcDbVisualStyle
  2
FlatWithEdges
 70
     1
 71
     2
 72
     1
 73
     1
 90
        2
 40
-0.6
 41
30.0
 62
     5
 63
     7
 74
     1
 91
        0
 64
     7
 65
   257
 75
     1
175
     1
 42
1.0
 92
        0
 66
   257
 43
1.0
 76
     1
 77
     6
 78
     2
 67
     7
 79
     5
170
     0
171
     0
290
     0
174
     0
 93
       13
 44
0.0
173
     0
291
     1
 45
0.0
1001
ACAD
1000
AcDbSavedByObjectVersion
1070
     0
  0
VISUALSTYLE
  5
9615
102
{ACAD_XDICTIONARY
360
9670
102
}
102
{ACAD_REACTORS
330
9612
102
}
330
9612
100
AcDbVisualStyle
  2
Gouraud
 70
     2
 71
     2
 72
     2
 73
     1
 90
        2
 40
-0.6
 41
30.0
 62
     5
 63
     7
 74
     0
 91
        0
 64
     7
 65
   257
 75
     1
175
     1
 42
1.0
 92
        0
 66
     7
 43
1.0
 76
     1
 77
     6
 78
     2
 67
     7
 79
     5
170
     0
171
     0
290
     0
174
     0
 93
       13
 44
0.0
173
     0
291
     1
 45
0.0
1001
ACAD
1000
AcDbSavedByObjectVersion
1070
     0
  0
VISUALSTYLE
  5
9616
102
{ACAD_XDICTIONARY
360
9672
102
}
102
{ACAD_REACTORS
330
9612
102
}
330
9612
100
AcDbVisualStyle
  2
GouraudWithEdges
 70
     3
 71
     2
 72
     2
 73
     1
 90
        2
 40
-0.6
 41
30.0
 62
     5
 63
     7
 74
     1
 91
        0
 64
     7
 65
   257
 75
     1
175
     1
 42
1.0
 92
        0
 66
   257
 43
1.0
 76
     1
 77
     6
 78
     2
 67
     7
 79
     5
170
     0
171
     0
290
     0
174
     0
 93
       13
 44
0.0
173
     0
291
     1
 45
0.0
1001
ACAD
1000
AcDbSavedByObjectVersion
1070
     0
  0
VISUALSTYLE
  5
961A
102
{ACAD_XDICTIONARY
360
967A
102
}
102
{ACAD_REACTORS
330
9612
102
}
330
9612
100
AcDbVisualStyle
  2
Hidden
 70
     6
 71
     1
 72
     2
 73
     2
 90
        0
 40
-0.6
 41
-30.0
 62
     5
 63
     7
 74
     2
 91
        2
 64
     7
 65
   257
 75
     2
175
     1
 42
40.0
 92
        0
 66
   257
 43
1.0
 76
     1
 77
     6
 78
     2
 67
     7
 79
     3
170
     0
171
     0
290
     0
174
     0
 93
        1
 44
0.0
173
     0
291
     0
 45
0.0
1001
ACAD
1000
AcDbSavedByObjectVersion
1070
     0
  0
VISUALSTYLE
  5
9628
102
{ACAD_XDICTIONARY
360
9696
102
}
102
{ACAD_REACTORS
330
9612
102
}
330
9612
100
AcDbVisualStyle
  2
JitterOff
 70
    20
 71
     2
 72
     2
 73
     0
 90
        0
 40
-0.6
 41
-30.0
 62
     5
 63
     7
 74
     1
 91
        4
 64
     7
 65
   257
 75
     1
175
     1
 42
1.0
 92
       10
 66
     7
 43
1.0
 76
     1
 77
     6
 78
     2
 67
     7
 79
     5
170
     0
171
     0
290
     0
174
     0
 93
        1
 44
0.0
173
     0
291
     1
 45
0.0
1001
ACAD
1000
AcDbSavedByObjectVersion
1070
     0
  0
VISUALSTYLE
  5
9620
102
{ACAD_XDICTIONARY
360
9686
102
}
102
{ACAD_REACTORS
330
9612
102
}
330
9612
100
AcDbVisualStyle
  2
Linepattern
 70
    14
 71
     2
 72
     2
 73
     0
 90
        0
 40
-0.6
 41
-30.0
 62
     5
 63
     7
 74
     1
 91
        4
 64
     7
 65
   257
 75
     7
175
     7
 42
1.0
 92
        8
 66
     7
 43
1.0
 76
     1
 77
     6
 78
     2
 67
     7
 79
     5
170
     0
171
     0
290
     0
174
     0
 93
        1
 44
0.0
173
     0
291
     1
 45
0.0
1001
ACAD
1000
AcDbSavedByObjectVersion
1070
     0
  0
VISUALSTYLE
  5
9629
102
{ACAD_XDICTIONARY
360
9698
102
}
102
{ACAD_REACTORS
330
9612
102
}
330
9612
100
AcDbVisualStyle
  2
OverhangOff
 70
    21
 71
     2
 72
     2
 73
     0
 90
        0
 40
-0.6
 41
-30.0
 62
     5
 63
     7
 74
     1
 91
        4
 64
     7
 65
   257
 75
     1
175
     1
 42
1.0
 92
        9
 66
     7
 43
1.0
 76
     1
 77
     6
 78
     2
 67
     7
 79
     5
170
     0
171
     0
290
     0
174
     0
 93
        1
 44
0.0
173
     0
291
     1
 45
0.0
1001
ACAD
1000
AcDbSavedByObjectVersion
1070
     0
  0
VISUALSTYLE
  5
961C
102
{ACAD_XDICTIONARY
360
967E
102
}
102
{ACAD_REACTORS
330
9612
102
}
330
9612
100
AcDbVisualStyle
  2
Realistic
 70
     8
 71
     2
 72
     3
 73
     0
 90
        2
 40
-0.6
 41
30.0
 62
     5
 63
     7
 74
     0
 91
        0
 64
     7
 65
   257
 75
     1
175
     1
 42
1.0
 92
        8
 66
   257
 43
1.0
 76
     1
 77
     6
 78
     2
 67
     7
 79
     3
170
     0
171
     0
290
     0
174
     0
 93
       13
 44
0.0
173
     0
291
     0
 45
0.0
1001
ACAD
1000
AcDbSavedByObjectVersion
1070
     0
  0
VISUALSTYLE
  5
9627
102
{ACAD_XDICTIONARY
360
9694
102
}
102
{ACAD_REACTORS
330
9612
102
}
330
9612
100
AcDbVisualStyle
  2
Shaded
 70
    27
 71
     2
 72
     2
 73
     1
 90
        2
 40
-0.6
 41
30.0
 62
     5
 63
     7
 74
     0
 91
        4
 64
     7
 65
   257
 75
     1
175
     1
 42
1.0
 92
        8
 66
   257
 43
1.0
 76
     1
 77
     6
 78
     2
 67
     8
 79
     3
170
     0
171
     0
290
     0
174
     0
 93
        5
 44
0.0
173
     0
291
     0
 45
0.0
1001
ACAD
1000
AcDbSavedByObjectVersion
1070
     0
  0
VISUALSTYLE
  5
9626
102
{ACAD_XDICTIONARY
360
9692
102
}
102
{ACAD_REACTORS
330
9612
102
}
330
9612
100
AcDbVisualStyle
  2
Shaded with edges
 70
    26
 71
     2
 72
     2
 73
     1
 90
        2
 40
-0.6
 41
30.0
 62
     5
 63
     7
 74
     1
 91
       10
 64
     7
 65
   257
 75
     2
175
     1
 42
1.0
 92
        8
 66
   257
 43
1.0
 76
     1
 77
     6
 78
     2
 67
     7
 79
     3
170
     0
171
     0
290
     0
174
     0
 93
        5
 44
0.0
173
     0
291
     0
 45
0.0
1001
ACAD
1000
AcDbSavedByObjectVersion
1070
     0
  0
VISUALSTYLE
  5
9623
102
{ACAD_XDICTIONARY
360
968C
102
}
102
{ACAD_REACTORS
330
9612
102
}
330
9612
100
AcDbVisualStyle
  2
Shades of Gray
 70
    23
 71
     2
 72
     2
 73
     3
 90
        0
 40
-0.6
 41
-30.0
 62
     5
 63
     7
 74
     2
 91
        2
 64
     7
 65
     7
 75
     1
175
     1
 42
40.0
 92
        8
 66
     7
 43
1.0
 76
     1
 77
     6
 78
     2
 67
     7
 79
     3
170
     0
171
     0
290
     0
174
     0
 93
        1
 44
0.0
173
     0
291
     0
 45
0.0
1001
ACAD
1000
AcDbSavedByObjectVersion
1070
     0
  0
VISUALSTYLE
  5
9624
102
{ACAD_XDICTIONARY
360
968E
102
}
102
{ACAD_REACTORS
330
9612
102
}
330
9612
100
AcDbVisualStyle
  2
Sketchy
 70
    24
 71
     1
 72
     2
 73
     2
 90
        0
 40
-0.6
 41
-30.0
 62
     5
 63
     7
 74
     2
 91
        2
 64
     7
 65
     7
 75
     1
175
     1
 42
40.0
 92
       11
 66
     7
 43
1.0
 76
     1
 77
     6
 78
     2
 67
     7
 79
     6
170
     0
171
     0
290
     0
174
     0
 93
        1
 44
0.0
173
     0
291
     0
 45
0.0
1001
ACAD
1000
AcDbSavedByObjectVersion
1070
     0
  0
VISUALSTYLE
  5
961F
102
{ACAD_XDICTIONARY
360
9684
102
}
102
{ACAD_REACTORS
330
9612
102
}
330
9612
100
AcDbVisualStyle
  2
Thicken
 70
    13
 71
     2
 72
     2
 73
     0
 90
        0
 40
-0.6
 41
-30.0
 62
     5
 63
     7
 74
     1
 91
        4
 64
     7
 65
   257
 75
     1
175
     1
 42
1.0
 92
       12
 66
     7
 43
1.0
 76
     1
 77
     6
 78
     2
 67
     7
 79
     5
170
     0
171
     0
290
     0
174
     0
 93
        1
 44
0.0
173
     0
291
     1
 45
0.0
1001
ACAD
1000
AcDbSavedByObjectVersion
1070
     0
  0
VISUALSTYLE
  5
9619
102
{ACAD_XDICTIONARY
360
9678
102
}
102
{ACAD_REACTORS
330
9612
102
}
330
9612
100
AcDbVisualStyle
  2
Wireframe
 70
     5
 71
     0
 72
     2
 73
     0
 90
        0
 40
-0.6
 41
-30.0
 62
     5
 63
     7
 74
     1
 91
        4
 64
     7
 65
   257
 75
     1
175
     1
 42
1.0
 92
        0
 66
   257
 43
1.0
 76
     1
 77
     6
 78
     2
 67
     7
 79
     3
170
     0
171
     0
290
     0
174
     0
 93
        1
 44
0.0
173
     0
291
     0
 45
0.0
1001
ACAD
1000
AcDbSavedByObjectVersion
1070
     0
  0
VISUALSTYLE
  5
9625
102
{ACAD_XDICTIONARY
360
9690
102
}
102
{ACAD_REACTORS
330
9612
102
}
330
9612
100
AcDbVisualStyle
  2
X-Ray
 70
    25
 71
     2
 72
     2
 73
     1
 90
        1
 40
0.5
 41
-30.0
 62
     5
 63
     7
 74
     1
 91
        0
 64
     7
 65
   257
 75
     1
175
     1
 42
1.0
 92
        8
 66
     7
 43
1.0
 76
     1
 77
     6
 78
     2
 67
     7
 79
     3
170
     0
171
     0
290
     0
174
     0
 93
       13
 44
0.0
173
     0
291
     0
 45
0.0
1001
ACAD
1000
AcDbSavedByObjectVersion
1070
     0
  0
DICTIONARYVAR
  5
965F
102
{ACAD_REACTORS
330
965A
102
}
330
965A
100
DictionaryVariables
280
     0
  1
1:1
  0
DICTIONARYVAR
  5
965C
102
{ACAD_REACTORS
330
965A
102
}
330
965A
100
DictionaryVariables
280
     0
  1
STANDARD
  0
DICTIONARYVAR
  5
965B
102
{ACAD_REACTORS
330
965A
102
}
330
965A
100
DictionaryVariables
280
     0
  1
STANDARD
  0
DICTIONARYVAR
  5
965D
102
{ACAD_REACTORS
330
965A
102
}
330
965A
100
DictionaryVariables
280
     0
  1
Imperial24
  0
DICTIONARYVAR
  5
965E
102
{ACAD_REACTORS
330
965A
102
}
330
965A
100
DictionaryVariables
280
     0
  1
Imperial24
  0
DICTIONARYVAR
  5
9662
102
{ACAD_REACTORS
330
965A
102
}
330
965A
100
DictionaryVariables
280
     0
  1
1
  0
DICTIONARYVAR
  5
9661
102
{ACAD_REACTORS
330
965A
102
}
330
965A
100
DictionaryVariables
280
     0
  1
0
  0
DICTIONARYVAR
  5
9660
102
{ACAD_REACTORS
330
965A
102
}
330
965A
100
DictionaryVariables
280
     0
  1
127
  0
DICTIONARYVAR
  5
9663
102
{ACAD_REACTORS
330
965A
102
}
330
965A
100
DictionaryVariables
280
     0
  1
2
  0
DICTIONARY
  5
96A0
330
9645
100
AcDbDictionary
280
     1
281
     1
  3
ACAD_XREC_ROUNDTRIP
360
96A1
  0
DICTIONARY
  5
96A2
330
9646
100
AcDbDictionary
280
     1
281
     1
  3
ACAD_XREC_ROUNDTRIP
360
96A3
  0
DICTIONARY
  5
96A4
330
9647
100
AcDbDictionary
280
     1
281
     1
  3
ACAD_XREC_ROUNDTRIP
360
96A5
  0
DICTIONARY
  5
9603
330
9602
100
AcDbDictionary
280
     1
281
     1
  3
ACAD_XREC_ROUNDTRIP
360
966A
  3
BUMPTILE
360
9605
  3
DIFFUSETILE
360
9604
  3
OPACITYTILE
360
9608
  3
REFLECTIONTILE
360
9607
  3
REFRACTIONTILE
360
9609
  3
SPECULARTILE
360
9606
  0
DICTIONARY
  5
95FB
330
95FA
100
AcDbDictionary
280
     1
281
     1
  3
ACAD_XREC_ROUNDTRIP
360
9669
  3
BUMPTILE
360
95FD
  3
DIFFUSETILE
360
95FC
  3
OPACITYTILE
360
9600
  3
REFLECTIONTILE
360
95FF
  3
REFRACTIONTILE
360
9601
  3
SPECULARTILE
360
95FE
  0
DICTIONARY
  5
960B
330
960A
100
AcDbDictionary
280
     1
281
     1
  3
ACAD_XREC_ROUNDTRIP
360
966B
  3
BUMPTILE
360
960D
  3
DIFFUSETILE
360
960C
  3
OPACITYTILE
360
9610
  3
REFLECTIONTILE
360
960F
  3
REFRACTIONTILE
360
9611
  3
SPECULARTILE
360
960E
  0
DICTIONARY
  5
969E
330
9643
100
AcDbDictionary
280
     1
281
     1
  3
ACAD_XREC_ROUNDTRIP
360
969F
  0
DICTIONARY
  5
9665
330
962D
100
AcDbDictionary
280
     1
281
     1
  3
ACAD_ROUNDTRIP_2008_TABLESTYLE_CELLSTYLEMAP
360
9666
  3
ACAD_XREC_ROUNDTRIP
360
969C
  0
DICTIONARY
  5
9676
330
9618
100
AcDbDictionary
280
     1
281
     1
  3
ACAD_XREC_ROUNDTRIP
360
9677
  0
DICTIONARY
  5
9674
330
9617
100
AcDbDictionary
280
     1
281
     1
  3
ACAD_XREC_ROUNDTRIP
360
9675
  0
DICTIONARY
  5
9682
330
961E
100
AcDbDictionary
280
     1
281
     1
  3
ACAD_XREC_ROUNDTRIP
360
9683
  0
DICTIONARY
  5
968A
330
9622
100
AcDbDictionary
280
     1
281
     1
  3
ACAD_XREC_ROUNDTRIP
360
968B
  0
DICTIONARY
  5
967C
330
961B
100
AcDbDictionary
280
     1
281
     1
  3
ACAD_XREC_ROUNDTRIP
360
967D
  0
DICTIONARY
  5
9680
330
961D
100
AcDbDictionary
280
     1
281
     1
  3
ACAD_XREC_ROUNDTRIP
360
9681
  0
DICTIONARY
  5
969A
330
962A
100
AcDbDictionary
280
     1
281
     1
  3
ACAD_XREC_ROUNDTRIP
360
969B
  0
DICTIONARY
  5
9688
330
9621
100
AcDbDictionary
280
     1
281
     1
  3
ACAD_XREC_ROUNDTRIP
360
9689
  0
DICTIONARY
  5
966C
330
9613
100
AcDbDictionary
280
     1
281
     1
  3
ACAD_XREC_ROUNDTRIP
360
966D
  0
DICTIONARY
  5
966E
330
9614
100
AcDbDictionary
280
     1
281
     1
  3
ACAD_XREC_ROUNDTRIP
360
966F
  0
DICTIONARY
  5
9670
330
9615
100
AcDbDictionary
280
     1
281
     1
  3
ACAD_XREC_ROUNDTRIP
360
9671
  0
DICTIONARY
  5
9672
330
9616
100
AcDbDictionary
280
     1
281
     1
  3
ACAD_XREC_ROUNDTRIP
360
9673
  0
DICTIONARY
  5
967A
330
961A
100
AcDbDictionary
280
     1
281
     1
  3
ACAD_XREC_ROUNDTRIP
360
967B
  0
DICTIONARY
  5
9696
330
9628
100
AcDbDictionary
280
     1
281
     1
  3
ACAD_XREC_ROUNDTRIP
360
9697
  0
DICTIONARY
  5
9686
330
9620
100
AcDbDictionary
280
     1
281
     1
  3
ACAD_XREC_ROUNDTRIP
360
9687
  0
DICTIONARY
  5
9698
330
9629
100
AcDbDictionary
280
     1
281
     1
  3
ACAD_XREC_ROUNDTRIP
360
9699
  0
DICTIONARY
  5
967E
330
961C
100
AcDbDictionary
280
     1
281
     1
  3
ACAD_XREC_ROUNDTRIP
360
967F
  0
DICTIONARY
  5
9694
330
9627
100
AcDbDictionary
280
     1
281
     1
  3
ACAD_XREC_ROUNDTRIP
360
9695
  0
DICTIONARY
  5
9692
330
9626
100
AcDbDictionary
280
     1
281
     1
  3
ACAD_XREC_ROUNDTRIP
360
9693
  0
DICTIONARY
  5
968C
330
9623
100
AcDbDictionary
280
     1
281
     1
  3
ACAD_XREC_ROUNDTRIP
360
968D
  0
DICTIONARY
  5
968E
330
9624
100
AcDbDictionary
280
     1
281
     1
  3
ACAD_XREC_ROUNDTRIP
360
968F
  0
DICTIONARY
  5
9684
330
961F
100
AcDbDictionary
280
     1
281
     1
  3
ACAD_XREC_ROUNDTRIP
360
9685
  0
DICTIONARY
  5
9678
330
9619
100
AcDbDictionary
280
     1
281
     1
  3
ACAD_XREC_ROUNDTRIP
360
9679
  0
DICTIONARY
  5
9690
330
9625
100
AcDbDictionary
280
     1
281
     1
  3
ACAD_XREC_ROUNDTRIP
360
9691
  0
XRECORD
  5
96A1
102
{ACAD_REACTORS
330
96A0
102
}
330
96A0
100
AcDbXrecord
280
     1
102
DISPLAYNAME
  1
Imperial24
102
FLAGS
 90
        0
  0
XRECORD
  5
96A3
102
{ACAD_REACTORS
330
96A2
102
}
330
96A2
100
AcDbXrecord
280
     1
102
SHADEPLOT
 70
     0
102
SHADEPLOTRESLEVEL
 70
     2
102
SHADEPLOTCUSTOMDPI
 70
   300
  0
XRECORD
  5
96A5
102
{ACAD_REACTORS
330
96A4
102
}
330
96A4
100
AcDbXrecord
280
     1
102
SHADEPLOT
 70
     0
102
SHADEPLOTRESLEVEL
 70
     2
102
SHADEPLOTCUSTOMDPI
 70
   300
  0
XRECORD
  5
966A
102
{ACAD_REACTORS
330
9603
102
}
330
9603
100
AcDbXrecord
280
     1
102
MATERIAL
148
0.0
149
0.0
149
0.0
 93
        0
 94
      127
282
     0
 72
     0
 77
     0
171
     0
175
     0
179
     0
273
     0
  0
XRECORD
  5
9605
102
{ACAD_REACTORS
330
9603
102
}
330
9603
100
AcDbXrecord
280
     1
270
     1
271
     1
  0
XRECORD
  5
9604
102
{ACAD_REACTORS
330
9603
102
}
330
9603
100
AcDbXrecord
280
     1
270
     1
271
     1
  0
XRECORD
  5
9608
102
{ACAD_REACTORS
330
9603
102
}
330
9603
100
AcDbXrecord
280
     1
270
     1
271
     1
  0
XRECORD
  5
9607
102
{ACAD_REACTORS
330
9603
102
}
330
9603
100
AcDbXrecord
280
     1
270
     1
271
     1
  0
XRECORD
  5
9609
102
{ACAD_REACTORS
330
9603
102
}
330
9603
100
AcDbXrecord
280
     1
270
     1
271
     1
  0
XRECORD
  5
9606
102
{ACAD_REACTORS
330
9603
102
}
330
9603
100
AcDbXrecord
280
     1
270
     1
271
     1
  0
XRECORD
  5
9669
102
{ACAD_REACTORS
330
95FB
102
}
330
95FB
100
AcDbXrecord
280
     1
102
MATERIAL
148
0.0
149
0.0
149
0.0
 93
        0
 94
      127
282
     0
 72
     0
 77
     0
171
     0
175
     0
179
     0
273
     0
  0
XRECORD
  5
95FD
102
{ACAD_REACTORS
330
95FB
102
}
330
95FB
100
AcDbXrecord
280
     1
270
     1
271
     1
  0
XRECORD
  5
95FC
102
{ACAD_REACTORS
330
95FB
102
}
330
95FB
100
AcDbXrecord
280
     1
270
     1
271
     1
  0
XRECORD
  5
9600
102
{ACAD_REACTORS
330
95FB
102
}
330
95FB
100
AcDbXrecord
280
     1
270
     1
271
     1
  0
XRECORD
  5
95FF
102
{ACAD_REACTORS
330
95FB
102
}
330
95FB
100
AcDbXrecord
280
     1
270
     1
271
     1
  0
XRECORD
  5
9601
102
{ACAD_REACTORS
330
95FB
102
}
330
95FB
100
AcDbXrecord
280
     1
270
     1
271
     1
  0
XRECORD
  5
95FE
102
{ACAD_REACTORS
330
95FB
102
}
330
95FB
100
AcDbXrecord
280
     1
270
     1
271
     1
  0
XRECORD
  5
966B
102
{ACAD_REACTORS
330
960B
102
}
330
960B
100
AcDbXrecord
280
     1
102
MATERIAL
148
0.0
149
0.0
149
0.0
 93
        0
 94
      127
282
     0
 72
     0
 77
     0
171
     0
175
     0
179
     0
273
     0
  0
XRECORD
  5
960D
102
{ACAD_REACTORS
330
960B
102
}
330
960B
100
AcDbXrecord
280
     1
270
     1
271
     1
  0
XRECORD
  5
960C
102
{ACAD_REACTORS
330
960B
102
}
330
960B
100
AcDbXrecord
280
     1
270
     1
271
     1
  0
XRECORD
  5
9610
102
{ACAD_REACTORS
330
960B
102
}
330
960B
100
AcDbXrecord
280
     1
270
     1
271
     1
  0
XRECORD
  5
960F
102
{ACAD_REACTORS
330
960B
102
}
330
960B
100
AcDbXrecord
280
     1
270
     1
271
     1
  0
XRECORD
  5
9611
102
{ACAD_REACTORS
330
960B
102
}
330
960B
100
AcDbXrecord
280
     1
270
     1
271
     1
  0
XRECORD
  5
960E
102
{ACAD_REACTORS
330
960B
102
}
330
960B
100
AcDbXrecord
280
     1
270
     1
271
     1
  0
XRECORD
  5
969F
102
{ACAD_REACTORS
330
969E
102
}
330
969E
100
AcDbXrecord
280
     1
102
DISPLAYNAME
  1
Imperial24
102
FLAGS
 90
        0
  0
CELLSTYLEMAP
  5
9666
102
{ACAD_REACTORS
330
9665
102
}
330
9665
100
AcDbCellStyleMap
 90
        3
300
CELLSTYLE
  1
TABLEFORMAT_BEGIN
 90
        5
170
     1
 91
        0
 92
    32768
 62
   257
 93
        1
300
CONTENTFORMAT
  1
CONTENTFORMAT_BEGIN
 90
        0
 91
        0
 92
      512
 93
        0
300

 40
0.0
140
1.0
 94
        5
 62
     0
340
9425
144
0.25
309
CONTENTFORMAT_END
171
     0
 94
        0
309
TABLEFORMAT_END
  1
CELLSTYLE_BEGIN
 90
        1
 91
        1
300
_TITLE
309
CELLSTYLE_END
300
CELLSTYLE
  1
TABLEFORMAT_BEGIN
 90
        5
170
     1
 91
        0
 92
        0
 62
   257
 93
        1
300
CONTENTFORMAT
  1
CONTENTFORMAT_BEGIN
 90
        0
 91
        0
 92
      512
 93
        0
300

 40
0.0
140
1.0
 94
        5
 62
     0
340
9425
144
0.18
309
CONTENTFORMAT_END
171
     0
 94
        0
309
TABLEFORMAT_END
  1
CELLSTYLE_BEGIN
 90
        2
 91
        1
300
_HEADER
309
CELLSTYLE_END
300
CELLSTYLE
  1
TABLEFORMAT_BEGIN
 90
        5
170
     1
 91
        0
 92
        0
 62
   257
 93
        1
300
CONTENTFORMAT
  1
CONTENTFORMAT_BEGIN
 90
        0
 91
        0
 92
      512
 93
        0
300

 40
0.0
140
1.0
 94
        2
 62
     0
340
9425
144
0.18
309
CONTENTFORMAT_END
171
     0
 94
        0
309
TABLEFORMAT_END
  1
CELLSTYLE_BEGIN
 90
        3
 91
        2
300
_DATA
309
CELLSTYLE_END
  0
XRECORD
  5
969C
102
{ACAD_REACTORS
330
9665
102
}
330
9665
100
AcDbXrecord
280
     1
102
ACAD_ROUNDTRIP_PRE2007_TABLESTYLE
 90
      512
 91
        0
  1

 92
      512
 93
        0
  2

 94
      512
 95
        0
  3

  0
XRECORD
  5
9677
102
{ACAD_REACTORS
330
9676
102
}
330
9676
100
AcDbXrecord
280
     1
102
RTVSPost2010Prop28
280
     1
102
RTVSPost2010PropOp28
 70
     1
102
RTVSPost2010Prop29
280
     1
102
RTVSPost2010PropOp29
 70
     1
102
RTVSPost2010Prop30
280
     0
102
RTVSPost2010PropOp30
 70
     1
102
RTVSPost2010Prop31
280
     0
102
RTVSPost2010PropOp31
 70
     1
102
RTVSPost2010Prop32
280
     0
102
RTVSPost2010PropOp32
 70
     1
102
RTVSPost2010Prop33
280
     0
102
RTVSPost2010PropOp33
 70
     1
102
RTVSPost2010Prop34
280
     0
102
RTVSPost2010PropOp34
 70
     1
102
RTVSPost2010Prop35
280
     0
102
RTVSPost2010PropOp35
 70
     1
102
RTVSPost2010Prop36
280
     0
102
RTVSPost2010PropOp36
 70
     1
102
RTVSPost2010Prop37
 90
       50
102
RTVSPost2010PropOp37
 70
     1
102
RTVSPost2010Prop38
140
0.0
102
RTVSPost2010PropOp38
 70
     1
102
RTVSPost2010Prop39
140
1.0
102
RTVSPost2010PropOp39
 70
     1
102
RTVSPost2010Prop40
 90
        0
102
RTVSPost2010PropOp40
 70
     1
102
RTVSPost2010Prop41ColorIndex
 90
       18
102
RTVSPost2010Prop41ColorRGB
 90
        0
102
RTVSPost2010PropOp41
 70
     1
102
RTVSPost2010Prop42
 90
       50
102
RTVSPost2010PropOp42
 70
     1
102
RTVSPost2010Prop43
 90
        3
102
RTVSPost2010PropOp43
 70
     1
102
RTVSPost2010Prop44ColorIndex
 90
        5
102
RTVSPost2010Prop44ColorRGB
 90
      255
102
RTVSPost2010PropOp44
 70
     1
102
RTVSPost2010Prop45
280
     0
102
RTVSPost2010PropOp45
 70
     1
102
RTVSPost2010Prop46
 90
       50
102
RTVSPost2010PropOp46
 70
     1
102
RTVSPost2010Prop47
 90
       50
102
RTVSPost2010PropOp47
 70
     1
102
RTVSPost2010Prop48
 90
       50
102
RTVSPost2010PropOp48
 70
     1
102
RTVSPost2010Prop49
280
     0
102
RTVSPost2010PropOp49
 70
     1
102
RTVSPost2010Prop50
 90
       50
102
RTVSPost2010PropOp50
 70
     1
102
RTVSPost2010Prop51ColorIndex
 90
      256
102
RTVSPost2010Prop51ColorRGB
 90
-16777216
102
RTVSPost2010PropOp51
 70
     0
102
RTVSPost2010Prop52
140
1.0
102
RTVSPost2010PropOp52
 70
     0
102
RTVSPost2010Prop53
 90
        2
102
RTVSPost2010PropOp53
 70
     1
102
RTVSPost2010Prop54
  1
strokes_ogs.tif
102
RTVSPost2010PropOp54
 70
     1
102
RTVSPost2010Prop55
280
     0
102
RTVSPost2010PropOp55
 70
     1
102
RTVSPost2010Prop56
140
1.0
102
RTVSPost2010PropOp56
 70
     1
102
RTVSPost2010Prop57
140
1.0
102
RTVSPost2010PropOp57
 70
     1
102
RTVSPropertyOp0
 70
     1
102
RTVSPropertyOp1
 70
     1
102
RTVSPropertyOp2
 70
     1
102
RTVSPropertyOp3
 70
     1
102
RTVSPropertyOp4
 70
     1
102
RTVSPropertyOp5
 70
     1
102
RTVSPropertyOp6
 70
     1
102
RTVSPropertyOp7
 70
     1
102
RTVSPropertyOp8
 70
     1
102
RTVSPropertyOp9
 70
     1
102
RTVSPropertyOp10
 70
     1
102
RTVSPropertyOp11
 70
     1
102
RTVSPropertyOp12
 70
     1
102
RTVSPropertyOp13
 70
     1
102
RTVSPropertyOp14
 70
     1
102
RTVSPropertyOp15
 70
     1
102
RTVSPropertyOp16
 70
     1
102
RTVSPropertyOp17
 70
     1
102
RTVSPropertyOp18
 70
     1
102
RTVSPropertyOp19
 70
     1
102
RTVSPropertyOp20
 70
     1
102
RTVSPropertyOp21
 70
     1
102
RTVSPropertyOp22
 70
     1
102
RTVSPropertyOp23
 70
     1
102
RTVSPropertyOp24
 70
     1
102
RTVSPropertyOp25
 70
     1
102
RTVSPropertyOp26
 70
     1
102
RTVSPropertyOp27
 70
     1
102
RTVSPropertyOp28
 70
     1
102
RTVSPropertyOp29
 70
     1
102
RTVSPropertyOp30
 70
     1
102
RTVSPropertyOp31
 70
     1
102
RTVSPropertyOp32
 70
     1
102
RTVSPropertyOp33
 70
     1
102
RTVSPropertyOp34
 70
     1
102
RTVSPropertyOp35
 70
     1
102
RTVSPropertyOp36
 70
     1
102
RTVSPropertyOp37
 70
     1
102
RTVSPropertyOp38
 70
     1
102
RTVSPropertyOp39
 70
     1
102
RTVSPropertyOp40
 70
     1
102
RTVSPropertyOp41
 70
     1
102
RTVSPropertyOp42
 70
     1
102
RTVSPropertyOp43
 70
     1
102
RTVSPropertyOp44
 70
     1
102
RTVSPropertyOp45
 70
     1
102
RTVSPropertyOp46
 70
     1
102
RTVSPropertyOp47
 70
     1
102
RTVSPropertyOp48
 70
     1
102
RTVSPropertyOp49
 70
     1
102
RTVSPropertyOp50
 70
     1
102
RTVSPropertyOp51
 70
     0
102
RTVSPropertyOp52
 70
     0
102
RTVSPropertyOp53
 70
     1
102
RTVSPropertyOp54
 70
     1
102
RTVSPropertyOp55
 70
     1
102
RTVSPropertyOp56
 70
     1
102
RTVSPropertyOp57
 70
     1
102
RTVSPropertyOp58
 70
     1
102
RTVSPropertyOp59
 70
     1
102
RTVSPropertyOp60
 70
     1
102
RTVSPropertyOp61
 70
     1
102
RTVSPropertyOp62
 70
     1
  0
XRECORD
  5
9675
102
{ACAD_REACTORS
330
9674
102
}
330
9674
100
AcDbXrecord
280
     1
102
RTVSPost2010Prop28
280
     0
102
RTVSPost2010PropOp28
 70
     1
102
RTVSPost2010Prop29
280
     1
102
RTVSPost2010PropOp29
 70
     1
102
RTVSPost2010Prop30
280
     1
102
RTVSPost2010PropOp30
 70
     1
102
RTVSPost2010Prop31
280
     0
102
RTVSPost2010PropOp31
 70
     1
102
RTVSPost2010Prop32
280
     0
102
RTVSPost2010PropOp32
 70
     1
102
RTVSPost2010Prop33
280
     0
102
RTVSPost2010PropOp33
 70
     1
102
RTVSPost2010Prop34
280
     0
102
RTVSPost2010PropOp34
 70
     1
102
RTVSPost2010Prop35
280
     0
102
RTVSPost2010PropOp35
 70
     1
102
RTVSPost2010Prop36
280
     0
102
RTVSPost2010PropOp36
 70
     1
102
RTVSPost2010Prop37
 90
       50
102
RTVSPost2010PropOp37
 70
     1
102
RTVSPost2010Prop38
140
0.0
102
RTVSPost2010PropOp38
 70
     1
102
RTVSPost2010Prop39
140
1.0
102
RTVSPost2010PropOp39
 70
     1
102
RTVSPost2010Prop40
 90
        0
102
RTVSPost2010PropOp40
 70
     1
102
RTVSPost2010Prop41ColorIndex
 90
       18
102
RTVSPost2010Prop41ColorRGB
 90
        0
102
RTVSPost2010PropOp41
 70
     1
102
RTVSPost2010Prop42
 90
       50
102
RTVSPost2010PropOp42
 70
     1
102
RTVSPost2010Prop43
 90
        3
102
RTVSPost2010PropOp43
 70
     1
102
RTVSPost2010Prop44ColorIndex
 90
        5
102
RTVSPost2010Prop44ColorRGB
 90
      255
102
RTVSPost2010PropOp44
 70
     1
102
RTVSPost2010Prop45
280
     0
102
RTVSPost2010PropOp45
 70
     1
102
RTVSPost2010Prop46
 90
       50
102
RTVSPost2010PropOp46
 70
     1
102
RTVSPost2010Prop47
 90
       50
102
RTVSPost2010PropOp47
 70
     1
102
RTVSPost2010Prop48
 90
       50
102
RTVSPost2010PropOp48
 70
     1
102
RTVSPost2010Prop49
280
     0
102
RTVSPost2010PropOp49
 70
     1
102
RTVSPost2010Prop50
 90
       50
102
RTVSPost2010PropOp50
 70
     1
102
RTVSPost2010Prop51ColorIndex
 90
      256
102
RTVSPost2010Prop51ColorRGB
 90
-16777216
102
RTVSPost2010PropOp51
 70
     0
102
RTVSPost2010Prop52
140
1.0
102
RTVSPost2010PropOp52
 70
     0
102
RTVSPost2010Prop53
 90
        2
102
RTVSPost2010PropOp53
 70
     1
102
RTVSPost2010Prop54
  1
strokes_ogs.tif
102
RTVSPost2010PropOp54
 70
     1
102
RTVSPost2010Prop55
280
     0
102
RTVSPost2010PropOp55
 70
     1
102
RTVSPost2010Prop56
140
1.0
102
RTVSPost2010PropOp56
 70
     1
102
RTVSPost2010Prop57
140
1.0
102
RTVSPost2010PropOp57
 70
     1
102
RTVSPropertyOp0
 70
     1
102
RTVSPropertyOp1
 70
     1
102
RTVSPropertyOp2
 70
     1
102
RTVSPropertyOp3
 70
     1
102
RTVSPropertyOp4
 70
     1
102
RTVSPropertyOp5
 70
     1
102
RTVSPropertyOp6
 70
     1
102
RTVSPropertyOp7
 70
     1
102
RTVSPropertyOp8
 70
     1
102
RTVSPropertyOp9
 70
     1
102
RTVSPropertyOp10
 70
     1
102
RTVSPropertyOp11
 70
     1
102
RTVSPropertyOp12
 70
     1
102
RTVSPropertyOp13
 70
     1
102
RTVSPropertyOp14
 70
     1
102
RTVSPropertyOp15
 70
     1
102
RTVSPropertyOp16
 70
     1
102
RTVSPropertyOp17
 70
     1
102
RTVSPropertyOp18
 70
     1
102
RTVSPropertyOp19
 70
     1
102
RTVSPropertyOp20
 70
     1
102
RTVSPropertyOp21
 70
     1
102
RTVSPropertyOp22
 70
     1
102
RTVSPropertyOp23
 70
     1
102
RTVSPropertyOp24
 70
     1
102
RTVSPropertyOp25
 70
     1
102
RTVSPropertyOp26
 70
     1
102
RTVSPropertyOp27
 70
     1
102
RTVSPropertyOp28
 70
     1
102
RTVSPropertyOp29
 70
     1
102
RTVSPropertyOp30
 70
     1
102
RTVSPropertyOp31
 70
     1
102
RTVSPropertyOp32
 70
     1
102
RTVSPropertyOp33
 70
     1
102
RTVSPropertyOp34
 70
     1
102
RTVSPropertyOp35
 70
     1
102
RTVSPropertyOp36
 70
     1
102
RTVSPropertyOp37
 70
     1
102
RTVSPropertyOp38
 70
     1
102
RTVSPropertyOp39
 70
     1
102
RTVSPropertyOp40
 70
     1
102
RTVSPropertyOp41
 70
     1
102
RTVSPropertyOp42
 70
     1
102
RTVSPropertyOp43
 70
     1
102
RTVSPropertyOp44
 70
     1
102
RTVSPropertyOp45
 70
     1
102
RTVSPropertyOp46
 70
     1
102
RTVSPropertyOp47
 70
     1
102
RTVSPropertyOp48
 70
     1
102
RTVSPropertyOp49
 70
     1
102
RTVSPropertyOp50
 70
     1
102
RTVSPropertyOp51
 70
     0
102
RTVSPropertyOp52
 70
     0
102
RTVSPropertyOp53
 70
     1
102
RTVSPropertyOp54
 70
     1
102
RTVSPropertyOp55
 70
     1
102
RTVSPropertyOp56
 70
     1
102
RTVSPropertyOp57
 70
     1
102
RTVSPropertyOp58
 70
     1
102
RTVSPropertyOp59
 70
     1
102
RTVSPropertyOp60
 70
     1
102
RTVSPropertyOp61
 70
     1
102
RTVSPropertyOp62
 70
     1
  0
XRECORD
  5
9683
102
{ACAD_REACTORS
330
9682
102
}
330
9682
100
AcDbXrecord
280
     1
102
RTVSPost2010Prop28
280
     0
102
RTVSPost2010PropOp28
 70
     1
102
RTVSPost2010Prop29
280
     1
102
RTVSPost2010PropOp29
 70
     1
102
RTVSPost2010Prop30
280
     1
102
RTVSPost2010PropOp30
 70
     1
102
RTVSPost2010Prop31
280
     0
102
RTVSPost2010PropOp31
 70
     1
102
RTVSPost2010Prop32
280
     0
102
RTVSPost2010PropOp32
 70
     1
102
RTVSPost2010Prop33
280
     0
102
RTVSPost2010PropOp33
 70
     1
102
RTVSPost2010Prop34
280
     0
102
RTVSPost2010PropOp34
 70
     1
102
RTVSPost2010Prop35
280
     0
102
RTVSPost2010PropOp35
 70
     1
102
RTVSPost2010Prop36
280
     0
102
RTVSPost2010PropOp36
 70
     1
102
RTVSPost2010Prop37
 90
       50
102
RTVSPost2010PropOp37
 70
     1
102
RTVSPost2010Prop38
140
0.0
102
RTVSPost2010PropOp38
 70
     1
102
RTVSPost2010Prop39
140
1.0
102
RTVSPost2010PropOp39
 70
     1
102
RTVSPost2010Prop40
 90
        0
102
RTVSPost2010PropOp40
 70
     1
102
RTVSPost2010Prop41ColorIndex
 90
       18
102
RTVSPost2010Prop41ColorRGB
 90
        0
102
RTVSPost2010PropOp41
 70
     1
102
RTVSPost2010Prop42
 90
       50
102
RTVSPost2010PropOp42
 70
     1
102
RTVSPost2010Prop43
 90
        3
102
RTVSPost2010PropOp43
 70
     1
102
RTVSPost2010Prop44ColorIndex
 90
        5
102
RTVSPost2010Prop44ColorRGB
 90
      255
102
RTVSPost2010PropOp44
 70
     1
102
RTVSPost2010Prop45
280
     0
102
RTVSPost2010PropOp45
 70
     1
102
RTVSPost2010Prop46
 90
       50
102
RTVSPost2010PropOp46
 70
     1
102
RTVSPost2010Prop47
 90
       50
102
RTVSPost2010PropOp47
 70
     1
102
RTVSPost2010Prop48
 90
       50
102
RTVSPost2010PropOp48
 70
     1
102
RTVSPost2010Prop49
280
     0
102
RTVSPost2010PropOp49
 70
     1
102
RTVSPost2010Prop50
 90
       50
102
RTVSPost2010PropOp50
 70
     1
102
RTVSPost2010Prop51ColorIndex
 90
      256
102
RTVSPost2010Prop51ColorRGB
 90
-16777216
102
RTVSPost2010PropOp51
 70
     0
102
RTVSPost2010Prop52
140
1.0
102
RTVSPost2010PropOp52
 70
     0
102
RTVSPost2010Prop53
 90
        2
102
RTVSPost2010PropOp53
 70
     1
102
RTVSPost2010Prop54
  1
strokes_ogs.tif
102
RTVSPost2010PropOp54
 70
     1
102
RTVSPost2010Prop55
280
     0
102
RTVSPost2010PropOp55
 70
     1
102
RTVSPost2010Prop56
140
1.0
102
RTVSPost2010PropOp56
 70
     1
102
RTVSPost2010Prop57
140
1.0
102
RTVSPost2010PropOp57
 70
     1
102
RTVSPropertyOp0
 70
     1
102
RTVSPropertyOp1
 70
     1
102
RTVSPropertyOp2
 70
     1
102
RTVSPropertyOp3
 70
     1
102
RTVSPropertyOp4
 70
     1
102
RTVSPropertyOp5
 70
     1
102
RTVSPropertyOp6
 70
     1
102
RTVSPropertyOp7
 70
     1
102
RTVSPropertyOp8
 70
     1
102
RTVSPropertyOp9
 70
     1
102
RTVSPropertyOp10
 70
     1
102
RTVSPropertyOp11
 70
     1
102
RTVSPropertyOp12
 70
     1
102
RTVSPropertyOp13
 70
     1
102
RTVSPropertyOp14
 70
     1
102
RTVSPropertyOp15
 70
     1
102
RTVSPropertyOp16
 70
     1
102
RTVSPropertyOp17
 70
     1
102
RTVSPropertyOp18
 70
     1
102
RTVSPropertyOp19
 70
     1
102
RTVSPropertyOp20
 70
     1
102
RTVSPropertyOp21
 70
     1
102
RTVSPropertyOp22
 70
     1
102
RTVSPropertyOp23
 70
     1
102
RTVSPropertyOp24
 70
     1
102
RTVSPropertyOp25
 70
     1
102
RTVSPropertyOp26
 70
     1
102
RTVSPropertyOp27
 70
     1
102
RTVSPropertyOp28
 70
     1
102
RTVSPropertyOp29
 70
     1
102
RTVSPropertyOp30
 70
     1
102
RTVSPropertyOp31
 70
     1
102
RTVSPropertyOp32
 70
     1
102
RTVSPropertyOp33
 70
     1
102
RTVSPropertyOp34
 70
     1
102
RTVSPropertyOp35
 70
     1
102
RTVSPropertyOp36
 70
     1
102
RTVSPropertyOp37
 70
     1
102
RTVSPropertyOp38
 70
     1
102
RTVSPropertyOp39
 70
     1
102
RTVSPropertyOp40
 70
     1
102
RTVSPropertyOp41
 70
     1
102
RTVSPropertyOp42
 70
     1
102
RTVSPropertyOp43
 70
     1
102
RTVSPropertyOp44
 70
     1
102
RTVSPropertyOp45
 70
     1
102
RTVSPropertyOp46
 70
     1
102
RTVSPropertyOp47
 70
     1
102
RTVSPropertyOp48
 70
     1
102
RTVSPropertyOp49
 70
     1
102
RTVSPropertyOp50
 70
     1
102
RTVSPropertyOp51
 70
     0
102
RTVSPropertyOp52
 70
     0
102
RTVSPropertyOp53
 70
     1
102
RTVSPropertyOp54
 70
     1
102
RTVSPropertyOp55
 70
     1
102
RTVSPropertyOp56
 70
     1
102
RTVSPropertyOp57
 70
     1
102
RTVSPropertyOp58
 70
     1
102
RTVSPropertyOp59
 70
     1
102
RTVSPropertyOp60
 70
     1
102
RTVSPropertyOp61
 70
     1
102
RTVSPropertyOp62
 70
     1
  0
XRECORD
  5
968B
102
{ACAD_REACTORS
330
968A
102
}
330
968A
100
AcDbXrecord
280
     1
102
RTVSPost2010Prop28
280
     0
102
RTVSPost2010PropOp28
 70
     1
102
RTVSPost2010Prop29
280
     1
102
RTVSPost2010PropOp29
 70
     1
102
RTVSPost2010Prop30
280
     1
102
RTVSPost2010PropOp30
 70
     1
102
RTVSPost2010Prop31
280
     0
102
RTVSPost2010PropOp31
 70
     1
102
RTVSPost2010Prop32
280
     0
102
RTVSPost2010PropOp32
 70
     1
102
RTVSPost2010Prop33
280
     0
102
RTVSPost2010PropOp33
 70
     1
102
RTVSPost2010Prop34
280
     0
102
RTVSPost2010PropOp34
 70
     1
102
RTVSPost2010Prop35
280
     0
102
RTVSPost2010PropOp35
 70
     1
102
RTVSPost2010Prop36
280
     0
102
RTVSPost2010PropOp36
 70
     1
102
RTVSPost2010Prop37
 90
       50
102
RTVSPost2010PropOp37
 70
     1
102
RTVSPost2010Prop38
140
0.0
102
RTVSPost2010PropOp38
 70
     1
102
RTVSPost2010Prop39
140
1.0
102
RTVSPost2010PropOp39
 70
     1
102
RTVSPost2010Prop40
 90
        0
102
RTVSPost2010PropOp40
 70
     1
102
RTVSPost2010Prop41ColorIndex
 90
       18
102
RTVSPost2010Prop41ColorRGB
 90
        0
102
RTVSPost2010PropOp41
 70
     1
102
RTVSPost2010Prop42
 90
       50
102
RTVSPost2010PropOp42
 70
     1
102
RTVSPost2010Prop43
 90
        3
102
RTVSPost2010PropOp43
 70
     1
102
RTVSPost2010Prop44ColorIndex
 90
        5
102
RTVSPost2010Prop44ColorRGB
 90
      255
102
RTVSPost2010PropOp44
 70
     1
102
RTVSPost2010Prop45
280
     0
102
RTVSPost2010PropOp45
 70
     1
102
RTVSPost2010Prop46
 90
       50
102
RTVSPost2010PropOp46
 70
     1
102
RTVSPost2010Prop47
 90
       50
102
RTVSPost2010PropOp47
 70
     1
102
RTVSPost2010Prop48
 90
       50
102
RTVSPost2010PropOp48
 70
     1
102
RTVSPost2010Prop49
280
     0
102
RTVSPost2010PropOp49
 70
     1
102
RTVSPost2010Prop50
 90
       50
102
RTVSPost2010PropOp50
 70
     1
102
RTVSPost2010Prop51ColorIndex
 90
      256
102
RTVSPost2010Prop51ColorRGB
 90
-16777216
102
RTVSPost2010PropOp51
 70
     0
102
RTVSPost2010Prop52
140
1.0
102
RTVSPost2010PropOp52
 70
     0
102
RTVSPost2010Prop53
 90
        2
102
RTVSPost2010PropOp53
 70
     1
102
RTVSPost2010Prop54
  1
strokes_ogs.tif
102
RTVSPost2010PropOp54
 70
     1
102
RTVSPost2010Prop55
280
     0
102
RTVSPost2010PropOp55
 70
     1
102
RTVSPost2010Prop56
140
1.0
102
RTVSPost2010PropOp56
 70
     1
102
RTVSPost2010Prop57
140
1.0
102
RTVSPost2010PropOp57
 70
     1
102
RTVSPropertyOp0
 70
     1
102
RTVSPropertyOp1
 70
     1
102
RTVSPropertyOp2
 70
     1
102
RTVSPropertyOp3
 70
     1
102
RTVSPropertyOp4
 70
     1
102
RTVSPropertyOp5
 70
     1
102
RTVSPropertyOp6
 70
     1
102
RTVSPropertyOp7
 70
     1
102
RTVSPropertyOp8
 70
     1
102
RTVSPropertyOp9
 70
     1
102
RTVSPropertyOp10
 70
     1
102
RTVSPropertyOp11
 70
     1
102
RTVSPropertyOp12
 70
     1
102
RTVSPropertyOp13
 70
     1
102
RTVSPropertyOp14
 70
     1
102
RTVSPropertyOp15
 70
     1
102
RTVSPropertyOp16
 70
     1
102
RTVSPropertyOp17
 70
     1
102
RTVSPropertyOp18
 70
     1
102
RTVSPropertyOp19
 70
     1
102
RTVSPropertyOp20
 70
     1
102
RTVSPropertyOp21
 70
     1
102
RTVSPropertyOp22
 70
     1
102
RTVSPropertyOp23
 70
     1
102
RTVSPropertyOp24
 70
     1
102
RTVSPropertyOp25
 70
     1
102
RTVSPropertyOp26
 70
     1
102
RTVSPropertyOp27
 70
     1
102
RTVSPropertyOp28
 70
     1
102
RTVSPropertyOp29
 70
     1
102
RTVSPropertyOp30
 70
     1
102
RTVSPropertyOp31
 70
     1
102
RTVSPropertyOp32
 70
     1
102
RTVSPropertyOp33
 70
     1
102
RTVSPropertyOp34
 70
     1
102
RTVSPropertyOp35
 70
     1
102
RTVSPropertyOp36
 70
     1
102
RTVSPropertyOp37
 70
     1
102
RTVSPropertyOp38
 70
     1
102
RTVSPropertyOp39
 70
     1
102
RTVSPropertyOp40
 70
     1
102
RTVSPropertyOp41
 70
     1
102
RTVSPropertyOp42
 70
     1
102
RTVSPropertyOp43
 70
     1
102
RTVSPropertyOp44
 70
     1
102
RTVSPropertyOp45
 70
     1
102
RTVSPropertyOp46
 70
     1
102
RTVSPropertyOp47
 70
     1
102
RTVSPropertyOp48
 70
     1
102
RTVSPropertyOp49
 70
     1
102
RTVSPropertyOp50
 70
     1
102
RTVSPropertyOp51
 70
     0
102
RTVSPropertyOp52
 70
     0
102
RTVSPropertyOp53
 70
     1
102
RTVSPropertyOp54
 70
     1
102
RTVSPropertyOp55
 70
     1
102
RTVSPropertyOp56
 70
     1
102
RTVSPropertyOp57
 70
     1
102
RTVSPropertyOp58
 70
     1
102
RTVSPropertyOp59
 70
     1
102
RTVSPropertyOp60
 70
     1
102
RTVSPropertyOp61
 70
     1
102
RTVSPropertyOp62
 70
     1
  0
XRECORD
  5
967D
102
{ACAD_REACTORS
330
967C
102
}
330
967C
100
AcDbXrecord
280
     1
102
RTVSPost2010Prop28
280
     0
102
RTVSPost2010PropOp28
 70
     1
102
RTVSPost2010Prop29
280
     1
102
RTVSPost2010PropOp29
 70
     1
102
RTVSPost2010Prop30
280
     1
102
RTVSPost2010PropOp30
 70
     1
102
RTVSPost2010Prop31
280
     0
102
RTVSPost2010PropOp31
 70
     1
102
RTVSPost2010Prop32
280
     0
102
RTVSPost2010PropOp32
 70
     1
102
RTVSPost2010Prop33
280
     0
102
RTVSPost2010PropOp33
 70
     1
102
RTVSPost2010Prop34
280
     0
102
RTVSPost2010PropOp34
 70
     1
102
RTVSPost2010Prop35
280
     0
102
RTVSPost2010PropOp35
 70
     1
102
RTVSPost2010Prop36
280
     0
102
RTVSPost2010PropOp36
 70
     1
102
RTVSPost2010Prop37
 90
       50
102
RTVSPost2010PropOp37
 70
     1
102
RTVSPost2010Prop38
140
0.0
102
RTVSPost2010PropOp38
 70
     1
102
RTVSPost2010Prop39
140
1.0
102
RTVSPost2010PropOp39
 70
     1
102
RTVSPost2010Prop40
 90
        0
102
RTVSPost2010PropOp40
 70
     1
102
RTVSPost2010Prop41ColorIndex
 90
       18
102
RTVSPost2010Prop41ColorRGB
 90
        0
102
RTVSPost2010PropOp41
 70
     1
102
RTVSPost2010Prop42
 90
       50
102
RTVSPost2010PropOp42
 70
     1
102
RTVSPost2010Prop43
 90
        3
102
RTVSPost2010PropOp43
 70
     1
102
RTVSPost2010Prop44ColorIndex
 90
        5
102
RTVSPost2010Prop44ColorRGB
 90
      255
102
RTVSPost2010PropOp44
 70
     1
102
RTVSPost2010Prop45
280
     0
102
RTVSPost2010PropOp45
 70
     1
102
RTVSPost2010Prop46
 90
       50
102
RTVSPost2010PropOp46
 70
     1
102
RTVSPost2010Prop47
 90
       50
102
RTVSPost2010PropOp47
 70
     1
102
RTVSPost2010Prop48
 90
       50
102
RTVSPost2010PropOp48
 70
     1
102
RTVSPost2010Prop49
280
     0
102
RTVSPost2010PropOp49
 70
     1
102
RTVSPost2010Prop50
 90
       50
102
RTVSPost2010PropOp50
 70
     1
102
RTVSPost2010Prop51ColorIndex
 90
      256
102
RTVSPost2010Prop51ColorRGB
 90
-16777216
102
RTVSPost2010PropOp51
 70
     0
102
RTVSPost2010Prop52
140
1.0
102
RTVSPost2010PropOp52
 70
     0
102
RTVSPost2010Prop53
 90
        2
102
RTVSPost2010PropOp53
 70
     1
102
RTVSPost2010Prop54
  1
strokes_ogs.tif
102
RTVSPost2010PropOp54
 70
     1
102
RTVSPost2010Prop55
280
     0
102
RTVSPost2010PropOp55
 70
     1
102
RTVSPost2010Prop56
140
1.0
102
RTVSPost2010PropOp56
 70
     1
102
RTVSPost2010Prop57
140
1.0
102
RTVSPost2010PropOp57
 70
     1
102
RTVSPropertyOp0
 70
     1
102
RTVSPropertyOp1
 70
     1
102
RTVSPropertyOp2
 70
     1
102
RTVSPropertyOp3
 70
     1
102
RTVSPropertyOp4
 70
     1
102
RTVSPropertyOp5
 70
     1
102
RTVSPropertyOp6
 70
     1
102
RTVSPropertyOp7
 70
     1
102
RTVSPropertyOp8
 70
     1
102
RTVSPropertyOp9
 70
     1
102
RTVSPropertyOp10
 70
     1
102
RTVSPropertyOp11
 70
     1
102
RTVSPropertyOp12
 70
     1
102
RTVSPropertyOp13
 70
     1
102
RTVSPropertyOp14
 70
     1
102
RTVSPropertyOp15
 70
     1
102
RTVSPropertyOp16
 70
     1
102
RTVSPropertyOp17
 70
     1
102
RTVSPropertyOp18
 70
     1
102
RTVSPropertyOp19
 70
     1
102
RTVSPropertyOp20
 70
     1
102
RTVSPropertyOp21
 70
     1
102
RTVSPropertyOp22
 70
     1
102
RTVSPropertyOp23
 70
     1
102
RTVSPropertyOp24
 70
     1
102
RTVSPropertyOp25
 70
     1
102
RTVSPropertyOp26
 70
     1
102
RTVSPropertyOp27
 70
     1
102
RTVSPropertyOp28
 70
     1
102
RTVSPropertyOp29
 70
     1
102
RTVSPropertyOp30
 70
     1
102
RTVSPropertyOp31
 70
     1
102
RTVSPropertyOp32
 70
     1
102
RTVSPropertyOp33
 70
     1
102
RTVSPropertyOp34
 70
     1
102
RTVSPropertyOp35
 70
     1
102
RTVSPropertyOp36
 70
     1
102
RTVSPropertyOp37
 70
     1
102
RTVSPropertyOp38
 70
     1
102
RTVSPropertyOp39
 70
     1
102
RTVSPropertyOp40
 70
     1
102
RTVSPropertyOp41
 70
     1
102
RTVSPropertyOp42
 70
     1
102
RTVSPropertyOp43
 70
     1
102
RTVSPropertyOp44
 70
     1
102
RTVSPropertyOp45
 70
     1
102
RTVSPropertyOp46
 70
     1
102
RTVSPropertyOp47
 70
     1
102
RTVSPropertyOp48
 70
     1
102
RTVSPropertyOp49
 70
     1
102
RTVSPropertyOp50
 70
     1
102
RTVSPropertyOp51
 70
     0
102
RTVSPropertyOp52
 70
     0
102
RTVSPropertyOp53
 70
     1
102
RTVSPropertyOp54
 70
     1
102
RTVSPropertyOp55
 70
     1
102
RTVSPropertyOp56
 70
     1
102
RTVSPropertyOp57
 70
     1
102
RTVSPropertyOp58
 70
     1
102
RTVSPropertyOp59
 70
     1
102
RTVSPropertyOp60
 70
     1
102
RTVSPropertyOp61
 70
     1
102
RTVSPropertyOp62
 70
     1
  0
XRECORD
  5
9681
102
{ACAD_REACTORS
330
9680
102
}
330
9680
100
AcDbXrecord
280
     1
102
RTVSPost2010Prop28
280
     0
102
RTVSPost2010PropOp28
 70
     1
102
RTVSPost2010Prop29
280
     1
102
RTVSPost2010PropOp29
 70
     1
102
RTVSPost2010Prop30
280
     1
102
RTVSPost2010PropOp30
 70
     1
102
RTVSPost2010Prop31
280
     0
102
RTVSPost2010PropOp31
 70
     1
102
RTVSPost2010Prop32
280
     0
102
RTVSPost2010PropOp32
 70
     1
102
RTVSPost2010Prop33
280
     0
102
RTVSPost2010PropOp33
 70
     1
102
RTVSPost2010Prop34
280
     0
102
RTVSPost2010PropOp34
 70
     1
102
RTVSPost2010Prop35
280
     0
102
RTVSPost2010PropOp35
 70
     1
102
RTVSPost2010Prop36
280
     0
102
RTVSPost2010PropOp36
 70
     1
102
RTVSPost2010Prop37
 90
       50
102
RTVSPost2010PropOp37
 70
     1
102
RTVSPost2010Prop38
140
0.0
102
RTVSPost2010PropOp38
 70
     1
102
RTVSPost2010Prop39
140
1.0
102
RTVSPost2010PropOp39
 70
     1
102
RTVSPost2010Prop40
 90
        0
102
RTVSPost2010PropOp40
 70
     1
102
RTVSPost2010Prop41ColorIndex
 90
       18
102
RTVSPost2010Prop41ColorRGB
 90
        0
102
RTVSPost2010PropOp41
 70
     1
102
RTVSPost2010Prop42
 90
       50
102
RTVSPost2010PropOp42
 70
     1
102
RTVSPost2010Prop43
 90
        3
102
RTVSPost2010PropOp43
 70
     1
102
RTVSPost2010Prop44ColorIndex
 90
        5
102
RTVSPost2010Prop44ColorRGB
 90
      255
102
RTVSPost2010PropOp44
 70
     1
102
RTVSPost2010Prop45
280
     0
102
RTVSPost2010PropOp45
 70
     1
102
RTVSPost2010Prop46
 90
       50
102
RTVSPost2010PropOp46
 70
     1
102
RTVSPost2010Prop47
 90
       50
102
RTVSPost2010PropOp47
 70
     1
102
RTVSPost2010Prop48
 90
       50
102
RTVSPost2010PropOp48
 70
     1
102
RTVSPost2010Prop49
280
     0
102
RTVSPost2010PropOp49
 70
     1
102
RTVSPost2010Prop50
 90
       50
102
RTVSPost2010PropOp50
 70
     1
102
RTVSPost2010Prop51ColorIndex
 90
      256
102
RTVSPost2010Prop51ColorRGB
 90
-16777216
102
RTVSPost2010PropOp51
 70
     0
102
RTVSPost2010Prop52
140
1.0
102
RTVSPost2010PropOp52
 70
     0
102
RTVSPost2010Prop53
 90
        2
102
RTVSPost2010PropOp53
 70
     1
102
RTVSPost2010Prop54
  1
strokes_ogs.tif
102
RTVSPost2010PropOp54
 70
     1
102
RTVSPost2010Prop55
280
     0
102
RTVSPost2010PropOp55
 70
     1
102
RTVSPost2010Prop56
140
1.0
102
RTVSPost2010PropOp56
 70
     1
102
RTVSPost2010Prop57
140
1.0
102
RTVSPost2010PropOp57
 70
     1
102
RTVSPropertyOp0
 70
     1
102
RTVSPropertyOp1
 70
     1
102
RTVSPropertyOp2
 70
     1
102
RTVSPropertyOp3
 70
     1
102
RTVSPropertyOp4
 70
     1
102
RTVSPropertyOp5
 70
     1
102
RTVSPropertyOp6
 70
     1
102
RTVSPropertyOp7
 70
     1
102
RTVSPropertyOp8
 70
     1
102
RTVSPropertyOp9
 70
     1
102
RTVSPropertyOp10
 70
     1
102
RTVSPropertyOp11
 70
     1
102
RTVSPropertyOp12
 70
     1
102
RTVSPropertyOp13
 70
     1
102
RTVSPropertyOp14
 70
     1
102
RTVSPropertyOp15
 70
     1
102
RTVSPropertyOp16
 70
     1
102
RTVSPropertyOp17
 70
     1
102
RTVSPropertyOp18
 70
     1
102
RTVSPropertyOp19
 70
     1
102
RTVSPropertyOp20
 70
     1
102
RTVSPropertyOp21
 70
     1
102
RTVSPropertyOp22
 70
     1
102
RTVSPropertyOp23
 70
     1
102
RTVSPropertyOp24
 70
     1
102
RTVSPropertyOp25
 70
     1
102
RTVSPropertyOp26
 70
     1
102
RTVSPropertyOp27
 70
     1
102
RTVSPropertyOp28
 70
     1
102
RTVSPropertyOp29
 70
     1
102
RTVSPropertyOp30
 70
     1
102
RTVSPropertyOp31
 70
     1
102
RTVSPropertyOp32
 70
     1
102
RTVSPropertyOp33
 70
     1
102
RTVSPropertyOp34
 70
     1
102
RTVSPropertyOp35
 70
     1
102
RTVSPropertyOp36
 70
     1
102
RTVSPropertyOp37
 70
     1
102
RTVSPropertyOp38
 70
     1
102
RTVSPropertyOp39
 70
     1
102
RTVSPropertyOp40
 70
     1
102
RTVSPropertyOp41
 70
     1
102
RTVSPropertyOp42
 70
     1
102
RTVSPropertyOp43
 70
     1
102
RTVSPropertyOp44
 70
     1
102
RTVSPropertyOp45
 70
     1
102
RTVSPropertyOp46
 70
     1
102
RTVSPropertyOp47
 70
     1
102
RTVSPropertyOp48
 70
     1
102
RTVSPropertyOp49
 70
     1
102
RTVSPropertyOp50
 70
     1
102
RTVSPropertyOp51
 70
     0
102
RTVSPropertyOp52
 70
     0
102
RTVSPropertyOp53
 70
     1
102
RTVSPropertyOp54
 70
     1
102
RTVSPropertyOp55
 70
     1
102
RTVSPropertyOp56
 70
     1
102
RTVSPropertyOp57
 70
     1
102
RTVSPropertyOp58
 70
     1
102
RTVSPropertyOp59
 70
     1
102
RTVSPropertyOp60
 70
     1
102
RTVSPropertyOp61
 70
     1
102
RTVSPropertyOp62
 70
     1
  0
XRECORD
  5
969B
102
{ACAD_REACTORS
330
969A
102
}
330
969A
100
AcDbXrecord
280
     1
102
RTVSPost2010Prop28
280
     0
102
RTVSPost2010PropOp28
 70
     1
102
RTVSPost2010Prop29
280
     1
102
RTVSPost2010PropOp29
 70
     1
102
RTVSPost2010Prop30
280
     1
102
RTVSPost2010PropOp30
 70
     1
102
RTVSPost2010Prop31
280
     0
102
RTVSPost2010PropOp31
 70
     1
102
RTVSPost2010Prop32
280
     0
102
RTVSPost2010PropOp32
 70
     1
102
RTVSPost2010Prop33
280
     0
102
RTVSPost2010PropOp33
 70
     1
102
RTVSPost2010Prop34
280
     0
102
RTVSPost2010PropOp34
 70
     1
102
RTVSPost2010Prop35
280
     0
102
RTVSPost2010PropOp35
 70
     1
102
RTVSPost2010Prop36
280
     0
102
RTVSPost2010PropOp36
 70
     1
102
RTVSPost2010Prop37
 90
       50
102
RTVSPost2010PropOp37
 70
     0
102
RTVSPost2010Prop38
140
0.0
102
RTVSPost2010PropOp38
 70
     0
102
RTVSPost2010Prop39
140
1.0
102
RTVSPost2010PropOp39
 70
     0
102
RTVSPost2010Prop40
 90
        0
102
RTVSPost2010PropOp40
 70
     0
102
RTVSPost2010Prop41ColorIndex
 90
       18
102
RTVSPost2010Prop41ColorRGB
 90
        0
102
RTVSPost2010PropOp41
 70
     0
102
RTVSPost2010Prop42
 90
       50
102
RTVSPost2010PropOp42
 70
     0
102
RTVSPost2010Prop43
 90
        3
102
RTVSPost2010PropOp43
 70
     0
102
RTVSPost2010Prop44ColorIndex
 90
        5
102
RTVSPost2010Prop44ColorRGB
 90
      255
102
RTVSPost2010PropOp44
 70
     0
102
RTVSPost2010Prop45
280
     0
102
RTVSPost2010PropOp45
 70
     1
102
RTVSPost2010Prop46
 90
       50
102
RTVSPost2010PropOp46
 70
     0
102
RTVSPost2010Prop47
 90
       50
102
RTVSPost2010PropOp47
 70
     0
102
RTVSPost2010Prop48
 90
       50
102
RTVSPost2010PropOp48
 70
     0
102
RTVSPost2010Prop49
280
     0
102
RTVSPost2010PropOp49
 70
     1
102
RTVSPost2010Prop50
 90
       50
102
RTVSPost2010PropOp50
 70
     0
102
RTVSPost2010Prop51ColorIndex
 90
      256
102
RTVSPost2010Prop51ColorRGB
 90
-16777216
102
RTVSPost2010PropOp51
 70
     0
102
RTVSPost2010Prop52
140
1.0
102
RTVSPost2010PropOp52
 70
     0
102
RTVSPost2010Prop53
 90
        2
102
RTVSPost2010PropOp53
 70
     0
102
RTVSPost2010Prop54
  1
strokes_ogs.tif
102
RTVSPost2010PropOp54
 70
     0
102
RTVSPost2010Prop55
280
     0
102
RTVSPost2010PropOp55
 70
     1
102
RTVSPost2010Prop56
140
1.0
102
RTVSPost2010PropOp56
 70
     0
102
RTVSPost2010Prop57
140
1.0
102
RTVSPost2010PropOp57
 70
     0
102
RTVSPropertyOp0
 70
     0
102
RTVSPropertyOp1
 70
     0
102
RTVSPropertyOp2
 70
     0
102
RTVSPropertyOp3
 70
     0
102
RTVSPropertyOp4
 70
     0
102
RTVSPropertyOp5
 70
     0
102
RTVSPropertyOp6
 70
     0
102
RTVSPropertyOp7
 70
     0
102
RTVSPropertyOp8
 70
     0
102
RTVSPropertyOp9
 70
     0
102
RTVSPropertyOp10
 70
     0
102
RTVSPropertyOp11
 70
     0
102
RTVSPropertyOp12
 70
     0
102
RTVSPropertyOp13
 70
     0
102
RTVSPropertyOp14
 70
     2
102
RTVSPropertyOp15
 70
     0
102
RTVSPropertyOp16
 70
     0
102
RTVSPropertyOp17
 70
     0
102
RTVSPropertyOp18
 70
     0
102
RTVSPropertyOp19
 70
     0
102
RTVSPropertyOp20
 70
     0
102
RTVSPropertyOp21
 70
     0
102
RTVSPropertyOp22
 70
     0
102
RTVSPropertyOp23
 70
     0
102
RTVSPropertyOp24
 70
     0
102
RTVSPropertyOp25
 70
     0
102
RTVSPropertyOp26
 70
     0
102
RTVSPropertyOp27
 70
     0
102
RTVSPropertyOp28
 70
     1
102
RTVSPropertyOp29
 70
     1
102
RTVSPropertyOp30
 70
     1
102
RTVSPropertyOp31
 70
     1
102
RTVSPropertyOp32
 70
     1
102
RTVSPropertyOp33
 70
     1
102
RTVSPropertyOp34
 70
     1
102
RTVSPropertyOp35
 70
     1
102
RTVSPropertyOp36
 70
     1
102
RTVSPropertyOp37
 70
     0
102
RTVSPropertyOp38
 70
     0
102
RTVSPropertyOp39
 70
     0
102
RTVSPropertyOp40
 70
     0
102
RTVSPropertyOp41
 70
     0
102
RTVSPropertyOp42
 70
     0
102
RTVSPropertyOp43
 70
     0
102
RTVSPropertyOp44
 70
     0
102
RTVSPropertyOp45
 70
     1
102
RTVSPropertyOp46
 70
     0
102
RTVSPropertyOp47
 70
     0
102
RTVSPropertyOp48
 70
     0
102
RTVSPropertyOp49
 70
     1
102
RTVSPropertyOp50
 70
     0
102
RTVSPropertyOp51
 70
     0
102
RTVSPropertyOp52
 70
     0
102
RTVSPropertyOp53
 70
     0
102
RTVSPropertyOp54
 70
     0
102
RTVSPropertyOp55
 70
     1
102
RTVSPropertyOp56
 70
     0
102
RTVSPropertyOp57
 70
     0
102
RTVSPropertyOp58
 70
     0
102
RTVSPropertyOp59
 70
     0
102
RTVSPropertyOp60
 70
     0
102
RTVSPropertyOp61
 70
     0
102
RTVSPropertyOp62
 70
     0
  0
XRECORD
  5
9689
102
{ACAD_REACTORS
330
9688
102
}
330
9688
100
AcDbXrecord
280
     1
102
RTVSPost2010Prop28
280
     0
102
RTVSPost2010PropOp28
 70
     1
102
RTVSPost2010Prop29
280
     1
102
RTVSPost2010PropOp29
 70
     1
102
RTVSPost2010Prop30
280
     1
102
RTVSPost2010PropOp30
 70
     1
102
RTVSPost2010Prop31
280
     0
102
RTVSPost2010PropOp31
 70
     1
102
RTVSPost2010Prop32
280
     0
102
RTVSPost2010PropOp32
 70
     1
102
RTVSPost2010Prop33
280
     0
102
RTVSPost2010PropOp33
 70
     1
102
RTVSPost2010Prop34
280
     0
102
RTVSPost2010PropOp34
 70
     1
102
RTVSPost2010Prop35
280
     0
102
RTVSPost2010PropOp35
 70
     1
102
RTVSPost2010Prop36
280
     0
102
RTVSPost2010PropOp36
 70
     1
102
RTVSPost2010Prop37
 90
       50
102
RTVSPost2010PropOp37
 70
     1
102
RTVSPost2010Prop38
140
0.0
102
RTVSPost2010PropOp38
 70
     1
102
RTVSPost2010Prop39
140
1.0
102
RTVSPost2010PropOp39
 70
     1
102
RTVSPost2010Prop40
 90
        0
102
RTVSPost2010PropOp40
 70
     1
102
RTVSPost2010Prop41ColorIndex
 90
       18
102
RTVSPost2010Prop41ColorRGB
 90
        0
102
RTVSPost2010PropOp41
 70
     1
102
RTVSPost2010Prop42
 90
       50
102
RTVSPost2010PropOp42
 70
     1
102
RTVSPost2010Prop43
 90
        3
102
RTVSPost2010PropOp43
 70
     1
102
RTVSPost2010Prop44ColorIndex
 90
        5
102
RTVSPost2010Prop44ColorRGB
 90
      255
102
RTVSPost2010PropOp44
 70
     1
102
RTVSPost2010Prop45
280
     0
102
RTVSPost2010PropOp45
 70
     1
102
RTVSPost2010Prop46
 90
       50
102
RTVSPost2010PropOp46
 70
     1
102
RTVSPost2010Prop47
 90
       50
102
RTVSPost2010PropOp47
 70
     1
102
RTVSPost2010Prop48
 90
       50
102
RTVSPost2010PropOp48
 70
     1
102
RTVSPost2010Prop49
280
     0
102
RTVSPost2010PropOp49
 70
     1
102
RTVSPost2010Prop50
 90
       50
102
RTVSPost2010PropOp50
 70
     1
102
RTVSPost2010Prop51ColorIndex
 90
      256
102
RTVSPost2010Prop51ColorRGB
 90
-16777216
102
RTVSPost2010PropOp51
 70
     0
102
RTVSPost2010Prop52
140
1.0
102
RTVSPost2010PropOp52
 70
     0
102
RTVSPost2010Prop53
 90
        2
102
RTVSPost2010PropOp53
 70
     1
102
RTVSPost2010Prop54
  1
strokes_ogs.tif
102
RTVSPost2010PropOp54
 70
     1
102
RTVSPost2010Prop55
280
     0
102
RTVSPost2010PropOp55
 70
     1
102
RTVSPost2010Prop56
140
1.0
102
RTVSPost2010PropOp56
 70
     1
102
RTVSPost2010Prop57
140
1.0
102
RTVSPost2010PropOp57
 70
     1
102
RTVSPropertyOp0
 70
     1
102
RTVSPropertyOp1
 70
     1
102
RTVSPropertyOp2
 70
     1
102
RTVSPropertyOp3
 70
     1
102
RTVSPropertyOp4
 70
     1
102
RTVSPropertyOp5
 70
     1
102
RTVSPropertyOp6
 70
     1
102
RTVSPropertyOp7
 70
     1
102
RTVSPropertyOp8
 70
     1
102
RTVSPropertyOp9
 70
     1
102
RTVSPropertyOp10
 70
     1
102
RTVSPropertyOp11
 70
     1
102
RTVSPropertyOp12
 70
     1
102
RTVSPropertyOp13
 70
     1
102
RTVSPropertyOp14
 70
     1
102
RTVSPropertyOp15
 70
     1
102
RTVSPropertyOp16
 70
     1
102
RTVSPropertyOp17
 70
     1
102
RTVSPropertyOp18
 70
     1
102
RTVSPropertyOp19
 70
     1
102
RTVSPropertyOp20
 70
     1
102
RTVSPropertyOp21
 70
     1
102
RTVSPropertyOp22
 70
     1
102
RTVSPropertyOp23
 70
     1
102
RTVSPropertyOp24
 70
     1
102
RTVSPropertyOp25
 70
     1
102
RTVSPropertyOp26
 70
     1
102
RTVSPropertyOp27
 70
     1
102
RTVSPropertyOp28
 70
     1
102
RTVSPropertyOp29
 70
     1
102
RTVSPropertyOp30
 70
     1
102
RTVSPropertyOp31
 70
     1
102
RTVSPropertyOp32
 70
     1
102
RTVSPropertyOp33
 70
     1
102
RTVSPropertyOp34
 70
     1
102
RTVSPropertyOp35
 70
     1
102
RTVSPropertyOp36
 70
     1
102
RTVSPropertyOp37
 70
     1
102
RTVSPropertyOp38
 70
     1
102
RTVSPropertyOp39
 70
     1
102
RTVSPropertyOp40
 70
     1
102
RTVSPropertyOp41
 70
     1
102
RTVSPropertyOp42
 70
     1
102
RTVSPropertyOp43
 70
     1
102
RTVSPropertyOp44
 70
     1
102
RTVSPropertyOp45
 70
     1
102
RTVSPropertyOp46
 70
     1
102
RTVSPropertyOp47
 70
     1
102
RTVSPropertyOp48
 70
     1
102
RTVSPropertyOp49
 70
     1
102
RTVSPropertyOp50
 70
     1
102
RTVSPropertyOp51
 70
     0
102
RTVSPropertyOp52
 70
     0
102
RTVSPropertyOp53
 70
     1
102
RTVSPropertyOp54
 70
     1
102
RTVSPropertyOp55
 70
     1
102
RTVSPropertyOp56
 70
     1
102
RTVSPropertyOp57
 70
     1
102
RTVSPropertyOp58
 70
     1
102
RTVSPropertyOp59
 70
     1
102
RTVSPropertyOp60
 70
     1
102
RTVSPropertyOp61
 70
     1
102
RTVSPropertyOp62
 70
     1
  0
XRECORD
  5
966D
102
{ACAD_REACTORS
330
966C
102
}
330
966C
100
AcDbXrecord
280
     1
102
RTVSPost2010Prop28
280
     0
102
RTVSPost2010PropOp28
 70
     1
102
RTVSPost2010Prop29
280
     1
102
RTVSPost2010PropOp29
 70
     1
102
RTVSPost2010Prop30
280
     1
102
RTVSPost2010PropOp30
 70
     1
102
RTVSPost2010Prop31
280
     0
102
RTVSPost2010PropOp31
 70
     1
102
RTVSPost2010Prop32
280
     0
102
RTVSPost2010PropOp32
 70
     1
102
RTVSPost2010Prop33
280
     0
102
RTVSPost2010PropOp33
 70
     1
102
RTVSPost2010Prop34
280
     0
102
RTVSPost2010PropOp34
 70
     1
102
RTVSPost2010Prop35
280
     0
102
RTVSPost2010PropOp35
 70
     1
102
RTVSPost2010Prop36
280
     0
102
RTVSPost2010PropOp36
 70
     1
102
RTVSPost2010Prop37
 90
       50
102
RTVSPost2010PropOp37
 70
     1
102
RTVSPost2010Prop38
140
0.0
102
RTVSPost2010PropOp38
 70
     1
102
RTVSPost2010Prop39
140
1.0
102
RTVSPost2010PropOp39
 70
     1
102
RTVSPost2010Prop40
 90
        0
102
RTVSPost2010PropOp40
 70
     1
102
RTVSPost2010Prop41ColorIndex
 90
       18
102
RTVSPost2010Prop41ColorRGB
 90
        0
102
RTVSPost2010PropOp41
 70
     1
102
RTVSPost2010Prop42
 90
       50
102
RTVSPost2010PropOp42
 70
     1
102
RTVSPost2010Prop43
 90
        3
102
RTVSPost2010PropOp43
 70
     1
102
RTVSPost2010Prop44ColorIndex
 90
        5
102
RTVSPost2010Prop44ColorRGB
 90
      255
102
RTVSPost2010PropOp44
 70
     1
102
RTVSPost2010Prop45
280
     0
102
RTVSPost2010PropOp45
 70
     1
102
RTVSPost2010Prop46
 90
       50
102
RTVSPost2010PropOp46
 70
     1
102
RTVSPost2010Prop47
 90
       50
102
RTVSPost2010PropOp47
 70
     1
102
RTVSPost2010Prop48
 90
       50
102
RTVSPost2010PropOp48
 70
     1
102
RTVSPost2010Prop49
280
     0
102
RTVSPost2010PropOp49
 70
     1
102
RTVSPost2010Prop50
 90
       50
102
RTVSPost2010PropOp50
 70
     1
102
RTVSPost2010Prop51ColorIndex
 90
      256
102
RTVSPost2010Prop51ColorRGB
 90
-16777216
102
RTVSPost2010PropOp51
 70
     0
102
RTVSPost2010Prop52
140
1.0
102
RTVSPost2010PropOp52
 70
     0
102
RTVSPost2010Prop53
 90
        2
102
RTVSPost2010PropOp53
 70
     1
102
RTVSPost2010Prop54
  1
strokes_ogs.tif
102
RTVSPost2010PropOp54
 70
     1
102
RTVSPost2010Prop55
280
     0
102
RTVSPost2010PropOp55
 70
     1
102
RTVSPost2010Prop56
140
1.0
102
RTVSPost2010PropOp56
 70
     1
102
RTVSPost2010Prop57
140
1.0
102
RTVSPost2010PropOp57
 70
     1
102
RTVSPropertyOp0
 70
     1
102
RTVSPropertyOp1
 70
     1
102
RTVSPropertyOp2
 70
     1
102
RTVSPropertyOp3
 70
     1
102
RTVSPropertyOp4
 70
     1
102
RTVSPropertyOp5
 70
     1
102
RTVSPropertyOp6
 70
     1
102
RTVSPropertyOp7
 70
     1
102
RTVSPropertyOp8
 70
     1
102
RTVSPropertyOp9
 70
     1
102
RTVSPropertyOp10
 70
     1
102
RTVSPropertyOp11
 70
     1
102
RTVSPropertyOp12
 70
     1
102
RTVSPropertyOp13
 70
     1
102
RTVSPropertyOp14
 70
     1
102
RTVSPropertyOp15
 70
     1
102
RTVSPropertyOp16
 70
     1
102
RTVSPropertyOp17
 70
     1
102
RTVSPropertyOp18
 70
     1
102
RTVSPropertyOp19
 70
     1
102
RTVSPropertyOp20
 70
     1
102
RTVSPropertyOp21
 70
     1
102
RTVSPropertyOp22
 70
     1
102
RTVSPropertyOp23
 70
     1
102
RTVSPropertyOp24
 70
     1
102
RTVSPropertyOp25
 70
     1
102
RTVSPropertyOp26
 70
     1
102
RTVSPropertyOp27
 70
     1
102
RTVSPropertyOp28
 70
     1
102
RTVSPropertyOp29
 70
     1
102
RTVSPropertyOp30
 70
     1
102
RTVSPropertyOp31
 70
     1
102
RTVSPropertyOp32
 70
     1
102
RTVSPropertyOp33
 70
     1
102
RTVSPropertyOp34
 70
     1
102
RTVSPropertyOp35
 70
     1
102
RTVSPropertyOp36
 70
     1
102
RTVSPropertyOp37
 70
     1
102
RTVSPropertyOp38
 70
     1
102
RTVSPropertyOp39
 70
     1
102
RTVSPropertyOp40
 70
     1
102
RTVSPropertyOp41
 70
     1
102
RTVSPropertyOp42
 70
     1
102
RTVSPropertyOp43
 70
     1
102
RTVSPropertyOp44
 70
     1
102
RTVSPropertyOp45
 70
     1
102
RTVSPropertyOp46
 70
     1
102
RTVSPropertyOp47
 70
     1
102
RTVSPropertyOp48
 70
     1
102
RTVSPropertyOp49
 70
     1
102
RTVSPropertyOp50
 70
     1
102
RTVSPropertyOp51
 70
     0
102
RTVSPropertyOp52
 70
     0
102
RTVSPropertyOp53
 70
     1
102
RTVSPropertyOp54
 70
     1
102
RTVSPropertyOp55
 70
     1
102
RTVSPropertyOp56
 70
     1
102
RTVSPropertyOp57
 70
     1
102
RTVSPropertyOp58
 70
     1
102
RTVSPropertyOp59
 70
     1
102
RTVSPropertyOp60
 70
     1
102
RTVSPropertyOp61
 70
     1
102
RTVSPropertyOp62
 70
     1
  0
XRECORD
  5
966F
102
{ACAD_REACTORS
330
966E
102
}
330
966E
100
AcDbXrecord
280
     1
102
RTVSPost2010Prop28
280
     0
102
RTVSPost2010PropOp28
 70
     1
102
RTVSPost2010Prop29
280
     1
102
RTVSPost2010PropOp29
 70
     1
102
RTVSPost2010Prop30
280
     1
102
RTVSPost2010PropOp30
 70
     1
102
RTVSPost2010Prop31
280
     0
102
RTVSPost2010PropOp31
 70
     1
102
RTVSPost2010Prop32
280
     0
102
RTVSPost2010PropOp32
 70
     1
102
RTVSPost2010Prop33
280
     0
102
RTVSPost2010PropOp33
 70
     1
102
RTVSPost2010Prop34
280
     0
102
RTVSPost2010PropOp34
 70
     1
102
RTVSPost2010Prop35
280
     0
102
RTVSPost2010PropOp35
 70
     1
102
RTVSPost2010Prop36
280
     0
102
RTVSPost2010PropOp36
 70
     1
102
RTVSPost2010Prop37
 90
       50
102
RTVSPost2010PropOp37
 70
     1
102
RTVSPost2010Prop38
140
0.0
102
RTVSPost2010PropOp38
 70
     1
102
RTVSPost2010Prop39
140
1.0
102
RTVSPost2010PropOp39
 70
     1
102
RTVSPost2010Prop40
 90
        0
102
RTVSPost2010PropOp40
 70
     1
102
RTVSPost2010Prop41ColorIndex
 90
       18
102
RTVSPost2010Prop41ColorRGB
 90
        0
102
RTVSPost2010PropOp41
 70
     1
102
RTVSPost2010Prop42
 90
       50
102
RTVSPost2010PropOp42
 70
     1
102
RTVSPost2010Prop43
 90
        3
102
RTVSPost2010PropOp43
 70
     1
102
RTVSPost2010Prop44ColorIndex
 90
        5
102
RTVSPost2010Prop44ColorRGB
 90
      255
102
RTVSPost2010PropOp44
 70
     1
102
RTVSPost2010Prop45
280
     0
102
RTVSPost2010PropOp45
 70
     1
102
RTVSPost2010Prop46
 90
       50
102
RTVSPost2010PropOp46
 70
     1
102
RTVSPost2010Prop47
 90
       50
102
RTVSPost2010PropOp47
 70
     1
102
RTVSPost2010Prop48
 90
       50
102
RTVSPost2010PropOp48
 70
     1
102
RTVSPost2010Prop49
280
     0
102
RTVSPost2010PropOp49
 70
     1
102
RTVSPost2010Prop50
 90
       50
102
RTVSPost2010PropOp50
 70
     1
102
RTVSPost2010Prop51ColorIndex
 90
      256
102
RTVSPost2010Prop51ColorRGB
 90
-16777216
102
RTVSPost2010PropOp51
 70
     0
102
RTVSPost2010Prop52
140
1.0
102
RTVSPost2010PropOp52
 70
     0
102
RTVSPost2010Prop53
 90
        2
102
RTVSPost2010PropOp53
 70
     1
102
RTVSPost2010Prop54
  1
strokes_ogs.tif
102
RTVSPost2010PropOp54
 70
     1
102
RTVSPost2010Prop55
280
     0
102
RTVSPost2010PropOp55
 70
     1
102
RTVSPost2010Prop56
140
1.0
102
RTVSPost2010PropOp56
 70
     1
102
RTVSPost2010Prop57
140
1.0
102
RTVSPost2010PropOp57
 70
     1
102
RTVSPropertyOp0
 70
     1
102
RTVSPropertyOp1
 70
     1
102
RTVSPropertyOp2
 70
     1
102
RTVSPropertyOp3
 70
     1
102
RTVSPropertyOp4
 70
     1
102
RTVSPropertyOp5
 70
     1
102
RTVSPropertyOp6
 70
     1
102
RTVSPropertyOp7
 70
     1
102
RTVSPropertyOp8
 70
     1
102
RTVSPropertyOp9
 70
     1
102
RTVSPropertyOp10
 70
     1
102
RTVSPropertyOp11
 70
     1
102
RTVSPropertyOp12
 70
     1
102
RTVSPropertyOp13
 70
     1
102
RTVSPropertyOp14
 70
     1
102
RTVSPropertyOp15
 70
     1
102
RTVSPropertyOp16
 70
     1
102
RTVSPropertyOp17
 70
     1
102
RTVSPropertyOp18
 70
     1
102
RTVSPropertyOp19
 70
     1
102
RTVSPropertyOp20
 70
     1
102
RTVSPropertyOp21
 70
     1
102
RTVSPropertyOp22
 70
     1
102
RTVSPropertyOp23
 70
     1
102
RTVSPropertyOp24
 70
     1
102
RTVSPropertyOp25
 70
     1
102
RTVSPropertyOp26
 70
     1
102
RTVSPropertyOp27
 70
     1
102
RTVSPropertyOp28
 70
     1
102
RTVSPropertyOp29
 70
     1
102
RTVSPropertyOp30
 70
     1
102
RTVSPropertyOp31
 70
     1
102
RTVSPropertyOp32
 70
     1
102
RTVSPropertyOp33
 70
     1
102
RTVSPropertyOp34
 70
     1
102
RTVSPropertyOp35
 70
     1
102
RTVSPropertyOp36
 70
     1
102
RTVSPropertyOp37
 70
     1
102
RTVSPropertyOp38
 70
     1
102
RTVSPropertyOp39
 70
     1
102
RTVSPropertyOp40
 70
     1
102
RTVSPropertyOp41
 70
     1
102
RTVSPropertyOp42
 70
     1
102
RTVSPropertyOp43
 70
     1
102
RTVSPropertyOp44
 70
     1
102
RTVSPropertyOp45
 70
     1
102
RTVSPropertyOp46
 70
     1
102
RTVSPropertyOp47
 70
     1
102
RTVSPropertyOp48
 70
     1
102
RTVSPropertyOp49
 70
     1
102
RTVSPropertyOp50
 70
     1
102
RTVSPropertyOp51
 70
     0
102
RTVSPropertyOp52
 70
     0
102
RTVSPropertyOp53
 70
     1
102
RTVSPropertyOp54
 70
     1
102
RTVSPropertyOp55
 70
     1
102
RTVSPropertyOp56
 70
     1
102
RTVSPropertyOp57
 70
     1
102
RTVSPropertyOp58
 70
     1
102
RTVSPropertyOp59
 70
     1
102
RTVSPropertyOp60
 70
     1
102
RTVSPropertyOp61
 70
     1
102
RTVSPropertyOp62
 70
     1
  0
XRECORD
  5
9671
102
{ACAD_REACTORS
330
9670
102
}
330
9670
100
AcDbXrecord
280
     1
102
RTVSPost2010Prop28
280
     0
102
RTVSPost2010PropOp28
 70
     1
102
RTVSPost2010Prop29
280
     1
102
RTVSPost2010PropOp29
 70
     1
102
RTVSPost2010Prop30
280
     1
102
RTVSPost2010PropOp30
 70
     1
102
RTVSPost2010Prop31
280
     0
102
RTVSPost2010PropOp31
 70
     1
102
RTVSPost2010Prop32
280
     0
102
RTVSPost2010PropOp32
 70
     1
102
RTVSPost2010Prop33
280
     0
102
RTVSPost2010PropOp33
 70
     1
102
RTVSPost2010Prop34
280
     0
102
RTVSPost2010PropOp34
 70
     1
102
RTVSPost2010Prop35
280
     0
102
RTVSPost2010PropOp35
 70
     1
102
RTVSPost2010Prop36
280
     0
102
RTVSPost2010PropOp36
 70
     1
102
RTVSPost2010Prop37
 90
       50
102
RTVSPost2010PropOp37
 70
     1
102
RTVSPost2010Prop38
140
0.0
102
RTVSPost2010PropOp38
 70
     1
102
RTVSPost2010Prop39
140
1.0
102
RTVSPost2010PropOp39
 70
     1
102
RTVSPost2010Prop40
 90
        0
102
RTVSPost2010PropOp40
 70
     1
102
RTVSPost2010Prop41ColorIndex
 90
       18
102
RTVSPost2010Prop41ColorRGB
 90
        0
102
RTVSPost2010PropOp41
 70
     1
102
RTVSPost2010Prop42
 90
       50
102
RTVSPost2010PropOp42
 70
     1
102
RTVSPost2010Prop43
 90
        3
102
RTVSPost2010PropOp43
 70
     1
102
RTVSPost2010Prop44ColorIndex
 90
        5
102
RTVSPost2010Prop44ColorRGB
 90
      255
102
RTVSPost2010PropOp44
 70
     1
102
RTVSPost2010Prop45
280
     0
102
RTVSPost2010PropOp45
 70
     1
102
RTVSPost2010Prop46
 90
       50
102
RTVSPost2010PropOp46
 70
     1
102
RTVSPost2010Prop47
 90
       50
102
RTVSPost2010PropOp47
 70
     1
102
RTVSPost2010Prop48
 90
       50
102
RTVSPost2010PropOp48
 70
     1
102
RTVSPost2010Prop49
280
     0
102
RTVSPost2010PropOp49
 70
     1
102
RTVSPost2010Prop50
 90
       50
102
RTVSPost2010PropOp50
 70
     1
102
RTVSPost2010Prop51ColorIndex
 90
      256
102
RTVSPost2010Prop51ColorRGB
 90
-16777216
102
RTVSPost2010PropOp51
 70
     0
102
RTVSPost2010Prop52
140
1.0
102
RTVSPost2010PropOp52
 70
     0
102
RTVSPost2010Prop53
 90
        2
102
RTVSPost2010PropOp53
 70
     1
102
RTVSPost2010Prop54
  1
strokes_ogs.tif
102
RTVSPost2010PropOp54
 70
     1
102
RTVSPost2010Prop55
280
     0
102
RTVSPost2010PropOp55
 70
     1
102
RTVSPost2010Prop56
140
1.0
102
RTVSPost2010PropOp56
 70
     1
102
RTVSPost2010Prop57
140
1.0
102
RTVSPost2010PropOp57
 70
     1
102
RTVSPropertyOp0
 70
     1
102
RTVSPropertyOp1
 70
     1
102
RTVSPropertyOp2
 70
     1
102
RTVSPropertyOp3
 70
     1
102
RTVSPropertyOp4
 70
     1
102
RTVSPropertyOp5
 70
     1
102
RTVSPropertyOp6
 70
     1
102
RTVSPropertyOp7
 70
     1
102
RTVSPropertyOp8
 70
     1
102
RTVSPropertyOp9
 70
     1
102
RTVSPropertyOp10
 70
     1
102
RTVSPropertyOp11
 70
     1
102
RTVSPropertyOp12
 70
     1
102
RTVSPropertyOp13
 70
     1
102
RTVSPropertyOp14
 70
     1
102
RTVSPropertyOp15
 70
     1
102
RTVSPropertyOp16
 70
     1
102
RTVSPropertyOp17
 70
     1
102
RTVSPropertyOp18
 70
     1
102
RTVSPropertyOp19
 70
     1
102
RTVSPropertyOp20
 70
     1
102
RTVSPropertyOp21
 70
     1
102
RTVSPropertyOp22
 70
     1
102
RTVSPropertyOp23
 70
     1
102
RTVSPropertyOp24
 70
     1
102
RTVSPropertyOp25
 70
     1
102
RTVSPropertyOp26
 70
     1
102
RTVSPropertyOp27
 70
     1
102
RTVSPropertyOp28
 70
     1
102
RTVSPropertyOp29
 70
     1
102
RTVSPropertyOp30
 70
     1
102
RTVSPropertyOp31
 70
     1
102
RTVSPropertyOp32
 70
     1
102
RTVSPropertyOp33
 70
     1
102
RTVSPropertyOp34
 70
     1
102
RTVSPropertyOp35
 70
     1
102
RTVSPropertyOp36
 70
     1
102
RTVSPropertyOp37
 70
     1
102
RTVSPropertyOp38
 70
     1
102
RTVSPropertyOp39
 70
     1
102
RTVSPropertyOp40
 70
     1
102
RTVSPropertyOp41
 70
     1
102
RTVSPropertyOp42
 70
     1
102
RTVSPropertyOp43
 70
     1
102
RTVSPropertyOp44
 70
     1
102
RTVSPropertyOp45
 70
     1
102
RTVSPropertyOp46
 70
     1
102
RTVSPropertyOp47
 70
     1
102
RTVSPropertyOp48
 70
     1
102
RTVSPropertyOp49
 70
     1
102
RTVSPropertyOp50
 70
     1
102
RTVSPropertyOp51
 70
     0
102
RTVSPropertyOp52
 70
     0
102
RTVSPropertyOp53
 70
     1
102
RTVSPropertyOp54
 70
     1
102
RTVSPropertyOp55
 70
     1
102
RTVSPropertyOp56
 70
     1
102
RTVSPropertyOp57
 70
     1
102
RTVSPropertyOp58
 70
     1
102
RTVSPropertyOp59
 70
     1
102
RTVSPropertyOp60
 70
     1
102
RTVSPropertyOp61
 70
     1
102
RTVSPropertyOp62
 70
     1
  0
XRECORD
  5
9673
102
{ACAD_REACTORS
330
9672
102
}
330
9672
100
AcDbXrecord
280
     1
102
RTVSPost2010Prop28
280
     0
102
RTVSPost2010PropOp28
 70
     1
102
RTVSPost2010Prop29
280
     1
102
RTVSPost2010PropOp29
 70
     1
102
RTVSPost2010Prop30
280
     1
102
RTVSPost2010PropOp30
 70
     1
102
RTVSPost2010Prop31
280
     0
102
RTVSPost2010PropOp31
 70
     1
102
RTVSPost2010Prop32
280
     0
102
RTVSPost2010PropOp32
 70
     1
102
RTVSPost2010Prop33
280
     0
102
RTVSPost2010PropOp33
 70
     1
102
RTVSPost2010Prop34
280
     0
102
RTVSPost2010PropOp34
 70
     1
102
RTVSPost2010Prop35
280
     0
102
RTVSPost2010PropOp35
 70
     1
102
RTVSPost2010Prop36
280
     0
102
RTVSPost2010PropOp36
 70
     1
102
RTVSPost2010Prop37
 90
       50
102
RTVSPost2010PropOp37
 70
     1
102
RTVSPost2010Prop38
140
0.0
102
RTVSPost2010PropOp38
 70
     1
102
RTVSPost2010Prop39
140
1.0
102
RTVSPost2010PropOp39
 70
     1
102
RTVSPost2010Prop40
 90
        0
102
RTVSPost2010PropOp40
 70
     1
102
RTVSPost2010Prop41ColorIndex
 90
       18
102
RTVSPost2010Prop41ColorRGB
 90
        0
102
RTVSPost2010PropOp41
 70
     1
102
RTVSPost2010Prop42
 90
       50
102
RTVSPost2010PropOp42
 70
     1
102
RTVSPost2010Prop43
 90
        3
102
RTVSPost2010PropOp43
 70
     1
102
RTVSPost2010Prop44ColorIndex
 90
        5
102
RTVSPost2010Prop44ColorRGB
 90
      255
102
RTVSPost2010PropOp44
 70
     1
102
RTVSPost2010Prop45
280
     0
102
RTVSPost2010PropOp45
 70
     1
102
RTVSPost2010Prop46
 90
       50
102
RTVSPost2010PropOp46
 70
     1
102
RTVSPost2010Prop47
 90
       50
102
RTVSPost2010PropOp47
 70
     1
102
RTVSPost2010Prop48
 90
       50
102
RTVSPost2010PropOp48
 70
     1
102
RTVSPost2010Prop49
280
     0
102
RTVSPost2010PropOp49
 70
     1
102
RTVSPost2010Prop50
 90
       50
102
RTVSPost2010PropOp50
 70
     1
102
RTVSPost2010Prop51ColorIndex
 90
      256
102
RTVSPost2010Prop51ColorRGB
 90
-16777216
102
RTVSPost2010PropOp51
 70
     0
102
RTVSPost2010Prop52
140
1.0
102
RTVSPost2010PropOp52
 70
     0
102
RTVSPost2010Prop53
 90
        2
102
RTVSPost2010PropOp53
 70
     1
102
RTVSPost2010Prop54
  1
strokes_ogs.tif
102
RTVSPost2010PropOp54
 70
     1
102
RTVSPost2010Prop55
280
     0
102
RTVSPost2010PropOp55
 70
     1
102
RTVSPost2010Prop56
140
1.0
102
RTVSPost2010PropOp56
 70
     1
102
RTVSPost2010Prop57
140
1.0
102
RTVSPost2010PropOp57
 70
     1
102
RTVSPropertyOp0
 70
     1
102
RTVSPropertyOp1
 70
     1
102
RTVSPropertyOp2
 70
     1
102
RTVSPropertyOp3
 70
     1
102
RTVSPropertyOp4
 70
     1
102
RTVSPropertyOp5
 70
     1
102
RTVSPropertyOp6
 70
     1
102
RTVSPropertyOp7
 70
     1
102
RTVSPropertyOp8
 70
     1
102
RTVSPropertyOp9
 70
     1
102
RTVSPropertyOp10
 70
     1
102
RTVSPropertyOp11
 70
     1
102
RTVSPropertyOp12
 70
     1
102
RTVSPropertyOp13
 70
     1
102
RTVSPropertyOp14
 70
     1
102
RTVSPropertyOp15
 70
     1
102
RTVSPropertyOp16
 70
     1
102
RTVSPropertyOp17
 70
     1
102
RTVSPropertyOp18
 70
     1
102
RTVSPropertyOp19
 70
     1
102
RTVSPropertyOp20
 70
     1
102
RTVSPropertyOp21
 70
     1
102
RTVSPropertyOp22
 70
     1
102
RTVSPropertyOp23
 70
     1
102
RTVSPropertyOp24
 70
     1
102
RTVSPropertyOp25
 70
     1
102
RTVSPropertyOp26
 70
     1
102
RTVSPropertyOp27
 70
     1
102
RTVSPropertyOp28
 70
     1
102
RTVSPropertyOp29
 70
     1
102
RTVSPropertyOp30
 70
     1
102
RTVSPropertyOp31
 70
     1
102
RTVSPropertyOp32
 70
     1
102
RTVSPropertyOp33
 70
     1
102
RTVSPropertyOp34
 70
     1
102
RTVSPropertyOp35
 70
     1
102
RTVSPropertyOp36
 70
     1
102
RTVSPropertyOp37
 70
     1
102
RTVSPropertyOp38
 70
     1
102
RTVSPropertyOp39
 70
     1
102
RTVSPropertyOp40
 70
     1
102
RTVSPropertyOp41
 70
     1
102
RTVSPropertyOp42
 70
     1
102
RTVSPropertyOp43
 70
     1
102
RTVSPropertyOp44
 70
     1
102
RTVSPropertyOp45
 70
     1
102
RTVSPropertyOp46
 70
     1
102
RTVSPropertyOp47
 70
     1
102
RTVSPropertyOp48
 70
     1
102
RTVSPropertyOp49
 70
     1
102
RTVSPropertyOp50
 70
     1
102
RTVSPropertyOp51
 70
     0
102
RTVSPropertyOp52
 70
     0
102
RTVSPropertyOp53
 70
     1
102
RTVSPropertyOp54
 70
     1
102
RTVSPropertyOp55
 70
     1
102
RTVSPropertyOp56
 70
     1
102
RTVSPropertyOp57
 70
     1
102
RTVSPropertyOp58
 70
     1
102
RTVSPropertyOp59
 70
     1
102
RTVSPropertyOp60
 70
     1
102
RTVSPropertyOp61
 70
     1
102
RTVSPropertyOp62
 70
     1
  0
XRECORD
  5
967B
102
{ACAD_REACTORS
330
967A
102
}
330
967A
100
AcDbXrecord
280
     1
102
RTVSPost2010Prop28
280
     0
102
RTVSPost2010PropOp28
 70
     1
102
RTVSPost2010Prop29
280
     1
102
RTVSPost2010PropOp29
 70
     1
102
RTVSPost2010Prop30
280
     1
102
RTVSPost2010PropOp30
 70
     1
102
RTVSPost2010Prop31
280
     0
102
RTVSPost2010PropOp31
 70
     1
102
RTVSPost2010Prop32
280
     0
102
RTVSPost2010PropOp32
 70
     1
102
RTVSPost2010Prop33
280
     0
102
RTVSPost2010PropOp33
 70
     1
102
RTVSPost2010Prop34
280
     0
102
RTVSPost2010PropOp34
 70
     1
102
RTVSPost2010Prop35
280
     0
102
RTVSPost2010PropOp35
 70
     1
102
RTVSPost2010Prop36
280
     0
102
RTVSPost2010PropOp36
 70
     1
102
RTVSPost2010Prop37
 90
       50
102
RTVSPost2010PropOp37
 70
     1
102
RTVSPost2010Prop38
140
0.0
102
RTVSPost2010PropOp38
 70
     1
102
RTVSPost2010Prop39
140
1.0
102
RTVSPost2010PropOp39
 70
     1
102
RTVSPost2010Prop40
 90
        0
102
RTVSPost2010PropOp40
 70
     1
102
RTVSPost2010Prop41ColorIndex
 90
       18
102
RTVSPost2010Prop41ColorRGB
 90
        0
102
RTVSPost2010PropOp41
 70
     1
102
RTVSPost2010Prop42
 90
       50
102
RTVSPost2010PropOp42
 70
     1
102
RTVSPost2010Prop43
 90
        3
102
RTVSPost2010PropOp43
 70
     1
102
RTVSPost2010Prop44ColorIndex
 90
        5
102
RTVSPost2010Prop44ColorRGB
 90
      255
102
RTVSPost2010PropOp44
 70
     1
102
RTVSPost2010Prop45
280
     0
102
RTVSPost2010PropOp45
 70
     1
102
RTVSPost2010Prop46
 90
       50
102
RTVSPost2010PropOp46
 70
     1
102
RTVSPost2010Prop47
 90
       50
102
RTVSPost2010PropOp47
 70
     1
102
RTVSPost2010Prop48
 90
       50
102
RTVSPost2010PropOp48
 70
     1
102
RTVSPost2010Prop49
280
     0
102
RTVSPost2010PropOp49
 70
     1
102
RTVSPost2010Prop50
 90
       50
102
RTVSPost2010PropOp50
 70
     1
102
RTVSPost2010Prop51ColorIndex
 90
      256
102
RTVSPost2010Prop51ColorRGB
 90
-16777216
102
RTVSPost2010PropOp51
 70
     0
102
RTVSPost2010Prop52
140
1.0
102
RTVSPost2010PropOp52
 70
     0
102
RTVSPost2010Prop53
 90
        2
102
RTVSPost2010PropOp53
 70
     1
102
RTVSPost2010Prop54
  1
strokes_ogs.tif
102
RTVSPost2010PropOp54
 70
     1
102
RTVSPost2010Prop55
280
     0
102
RTVSPost2010PropOp55
 70
     1
102
RTVSPost2010Prop56
140
1.0
102
RTVSPost2010PropOp56
 70
     1
102
RTVSPost2010Prop57
140
1.0
102
RTVSPost2010PropOp57
 70
     1
102
RTVSPropertyOp0
 70
     1
102
RTVSPropertyOp1
 70
     1
102
RTVSPropertyOp2
 70
     1
102
RTVSPropertyOp3
 70
     1
102
RTVSPropertyOp4
 70
     1
102
RTVSPropertyOp5
 70
     1
102
RTVSPropertyOp6
 70
     1
102
RTVSPropertyOp7
 70
     1
102
RTVSPropertyOp8
 70
     1
102
RTVSPropertyOp9
 70
     1
102
RTVSPropertyOp10
 70
     1
102
RTVSPropertyOp11
 70
     1
102
RTVSPropertyOp12
 70
     1
102
RTVSPropertyOp13
 70
     1
102
RTVSPropertyOp14
 70
     1
102
RTVSPropertyOp15
 70
     1
102
RTVSPropertyOp16
 70
     1
102
RTVSPropertyOp17
 70
     1
102
RTVSPropertyOp18
 70
     1
102
RTVSPropertyOp19
 70
     1
102
RTVSPropertyOp20
 70
     1
102
RTVSPropertyOp21
 70
     1
102
RTVSPropertyOp22
 70
     1
102
RTVSPropertyOp23
 70
     1
102
RTVSPropertyOp24
 70
     1
102
RTVSPropertyOp25
 70
     1
102
RTVSPropertyOp26
 70
     1
102
RTVSPropertyOp27
 70
     1
102
RTVSPropertyOp28
 70
     1
102
RTVSPropertyOp29
 70
     1
102
RTVSPropertyOp30
 70
     1
102
RTVSPropertyOp31
 70
     1
102
RTVSPropertyOp32
 70
     1
102
RTVSPropertyOp33
 70
     1
102
RTVSPropertyOp34
 70
     1
102
RTVSPropertyOp35
 70
     1
102
RTVSPropertyOp36
 70
     1
102
RTVSPropertyOp37
 70
     1
102
RTVSPropertyOp38
 70
     1
102
RTVSPropertyOp39
 70
     1
102
RTVSPropertyOp40
 70
     1
102
RTVSPropertyOp41
 70
     1
102
RTVSPropertyOp42
 70
     1
102
RTVSPropertyOp43
 70
     1
102
RTVSPropertyOp44
 70
     1
102
RTVSPropertyOp45
 70
     1
102
RTVSPropertyOp46
 70
     1
102
RTVSPropertyOp47
 70
     1
102
RTVSPropertyOp48
 70
     1
102
RTVSPropertyOp49
 70
     1
102
RTVSPropertyOp50
 70
     1
102
RTVSPropertyOp51
 70
     0
102
RTVSPropertyOp52
 70
     0
102
RTVSPropertyOp53
 70
     1
102
RTVSPropertyOp54
 70
     1
102
RTVSPropertyOp55
 70
     1
102
RTVSPropertyOp56
 70
     1
102
RTVSPropertyOp57
 70
     1
102
RTVSPropertyOp58
 70
     1
102
RTVSPropertyOp59
 70
     1
102
RTVSPropertyOp60
 70
     1
102
RTVSPropertyOp61
 70
     1
102
RTVSPropertyOp62
 70
     1
  0
XRECORD
  5
9697
102
{ACAD_REACTORS
330
9696
102
}
330
9696
100
AcDbXrecord
280
     1
102
RTVSPost2010Prop28
280
     0
102
RTVSPost2010PropOp28
 70
     1
102
RTVSPost2010Prop29
280
     1
102
RTVSPost2010PropOp29
 70
     1
102
RTVSPost2010Prop30
280
     1
102
RTVSPost2010PropOp30
 70
     1
102
RTVSPost2010Prop31
280
     0
102
RTVSPost2010PropOp31
 70
     1
102
RTVSPost2010Prop32
280
     0
102
RTVSPost2010PropOp32
 70
     1
102
RTVSPost2010Prop33
280
     0
102
RTVSPost2010PropOp33
 70
     1
102
RTVSPost2010Prop34
280
     0
102
RTVSPost2010PropOp34
 70
     1
102
RTVSPost2010Prop35
280
     0
102
RTVSPost2010PropOp35
 70
     1
102
RTVSPost2010Prop36
280
     0
102
RTVSPost2010PropOp36
 70
     1
102
RTVSPost2010Prop37
 90
       50
102
RTVSPost2010PropOp37
 70
     0
102
RTVSPost2010Prop38
140
0.0
102
RTVSPost2010PropOp38
 70
     0
102
RTVSPost2010Prop39
140
1.0
102
RTVSPost2010PropOp39
 70
     0
102
RTVSPost2010Prop40
 90
        0
102
RTVSPost2010PropOp40
 70
     0
102
RTVSPost2010Prop41ColorIndex
 90
       18
102
RTVSPost2010Prop41ColorRGB
 90
        0
102
RTVSPost2010PropOp41
 70
     0
102
RTVSPost2010Prop42
 90
       50
102
RTVSPost2010PropOp42
 70
     0
102
RTVSPost2010Prop43
 90
        3
102
RTVSPost2010PropOp43
 70
     0
102
RTVSPost2010Prop44ColorIndex
 90
        5
102
RTVSPost2010Prop44ColorRGB
 90
      255
102
RTVSPost2010PropOp44
 70
     0
102
RTVSPost2010Prop45
280
     0
102
RTVSPost2010PropOp45
 70
     1
102
RTVSPost2010Prop46
 90
       50
102
RTVSPost2010PropOp46
 70
     0
102
RTVSPost2010Prop47
 90
       50
102
RTVSPost2010PropOp47
 70
     0
102
RTVSPost2010Prop48
 90
       50
102
RTVSPost2010PropOp48
 70
     0
102
RTVSPost2010Prop49
280
     0
102
RTVSPost2010PropOp49
 70
     1
102
RTVSPost2010Prop50
 90
       50
102
RTVSPost2010PropOp50
 70
     0
102
RTVSPost2010Prop51ColorIndex
 90
      256
102
RTVSPost2010Prop51ColorRGB
 90
-16777216
102
RTVSPost2010PropOp51
 70
     0
102
RTVSPost2010Prop52
140
1.0
102
RTVSPost2010PropOp52
 70
     0
102
RTVSPost2010Prop53
 90
        2
102
RTVSPost2010PropOp53
 70
     0
102
RTVSPost2010Prop54
  1
strokes_ogs.tif
102
RTVSPost2010PropOp54
 70
     0
102
RTVSPost2010Prop55
280
     0
102
RTVSPost2010PropOp55
 70
     1
102
RTVSPost2010Prop56
140
1.0
102
RTVSPost2010PropOp56
 70
     0
102
RTVSPost2010Prop57
140
1.0
102
RTVSPost2010PropOp57
 70
     0
102
RTVSPropertyOp0
 70
     0
102
RTVSPropertyOp1
 70
     0
102
RTVSPropertyOp2
 70
     0
102
RTVSPropertyOp3
 70
     0
102
RTVSPropertyOp4
 70
     0
102
RTVSPropertyOp5
 70
     0
102
RTVSPropertyOp6
 70
     0
102
RTVSPropertyOp7
 70
     0
102
RTVSPropertyOp8
 70
     0
102
RTVSPropertyOp9
 70
     0
102
RTVSPropertyOp10
 70
     0
102
RTVSPropertyOp11
 70
     0
102
RTVSPropertyOp12
 70
     0
102
RTVSPropertyOp13
 70
     0
102
RTVSPropertyOp14
 70
     2
102
RTVSPropertyOp15
 70
     0
102
RTVSPropertyOp16
 70
     0
102
RTVSPropertyOp17
 70
     0
102
RTVSPropertyOp18
 70
     0
102
RTVSPropertyOp19
 70
     0
102
RTVSPropertyOp20
 70
     0
102
RTVSPropertyOp21
 70
     0
102
RTVSPropertyOp22
 70
     0
102
RTVSPropertyOp23
 70
     0
102
RTVSPropertyOp24
 70
     0
102
RTVSPropertyOp25
 70
     0
102
RTVSPropertyOp26
 70
     0
102
RTVSPropertyOp27
 70
     0
102
RTVSPropertyOp28
 70
     1
102
RTVSPropertyOp29
 70
     1
102
RTVSPropertyOp30
 70
     1
102
RTVSPropertyOp31
 70
     1
102
RTVSPropertyOp32
 70
     1
102
RTVSPropertyOp33
 70
     1
102
RTVSPropertyOp34
 70
     1
102
RTVSPropertyOp35
 70
     1
102
RTVSPropertyOp36
 70
     1
102
RTVSPropertyOp37
 70
     0
102
RTVSPropertyOp38
 70
     0
102
RTVSPropertyOp39
 70
     0
102
RTVSPropertyOp40
 70
     0
102
RTVSPropertyOp41
 70
     0
102
RTVSPropertyOp42
 70
     0
102
RTVSPropertyOp43
 70
     0
102
RTVSPropertyOp44
 70
     0
102
RTVSPropertyOp45
 70
     1
102
RTVSPropertyOp46
 70
     0
102
RTVSPropertyOp47
 70
     0
102
RTVSPropertyOp48
 70
     0
102
RTVSPropertyOp49
 70
     1
102
RTVSPropertyOp50
 70
     0
102
RTVSPropertyOp51
 70
     0
102
RTVSPropertyOp52
 70
     0
102
RTVSPropertyOp53
 70
     0
102
RTVSPropertyOp54
 70
     0
102
RTVSPropertyOp55
 70
     1
102
RTVSPropertyOp56
 70
     0
102
RTVSPropertyOp57
 70
     0
102
RTVSPropertyOp58
 70
     0
102
RTVSPropertyOp59
 70
     0
102
RTVSPropertyOp60
 70
     0
102
RTVSPropertyOp61
 70
     0
102
RTVSPropertyOp62
 70
     0
  0
XRECORD
  5
9687
102
{ACAD_REACTORS
330
9686
102
}
330
9686
100
AcDbXrecord
280
     1
102
RTVSPost2010Prop28
280
     0
102
RTVSPost2010PropOp28
 70
     1
102
RTVSPost2010Prop29
280
     1
102
RTVSPost2010PropOp29
 70
     1
102
RTVSPost2010Prop30
280
     1
102
RTVSPost2010PropOp30
 70
     1
102
RTVSPost2010Prop31
280
     0
102
RTVSPost2010PropOp31
 70
     1
102
RTVSPost2010Prop32
280
     0
102
RTVSPost2010PropOp32
 70
     1
102
RTVSPost2010Prop33
280
     0
102
RTVSPost2010PropOp33
 70
     1
102
RTVSPost2010Prop34
280
     0
102
RTVSPost2010PropOp34
 70
     1
102
RTVSPost2010Prop35
280
     0
102
RTVSPost2010PropOp35
 70
     1
102
RTVSPost2010Prop36
280
     0
102
RTVSPost2010PropOp36
 70
     1
102
RTVSPost2010Prop37
 90
       50
102
RTVSPost2010PropOp37
 70
     1
102
RTVSPost2010Prop38
140
0.0
102
RTVSPost2010PropOp38
 70
     1
102
RTVSPost2010Prop39
140
1.0
102
RTVSPost2010PropOp39
 70
     1
102
RTVSPost2010Prop40
 90
        0
102
RTVSPost2010PropOp40
 70
     1
102
RTVSPost2010Prop41ColorIndex
 90
       18
102
RTVSPost2010Prop41ColorRGB
 90
        0
102
RTVSPost2010PropOp41
 70
     1
102
RTVSPost2010Prop42
 90
       50
102
RTVSPost2010PropOp42
 70
     1
102
RTVSPost2010Prop43
 90
        3
102
RTVSPost2010PropOp43
 70
     1
102
RTVSPost2010Prop44ColorIndex
 90
        5
102
RTVSPost2010Prop44ColorRGB
 90
      255
102
RTVSPost2010PropOp44
 70
     1
102
RTVSPost2010Prop45
280
     0
102
RTVSPost2010PropOp45
 70
     1
102
RTVSPost2010Prop46
 90
       50
102
RTVSPost2010PropOp46
 70
     1
102
RTVSPost2010Prop47
 90
       50
102
RTVSPost2010PropOp47
 70
     1
102
RTVSPost2010Prop48
 90
       50
102
RTVSPost2010PropOp48
 70
     1
102
RTVSPost2010Prop49
280
     0
102
RTVSPost2010PropOp49
 70
     1
102
RTVSPost2010Prop50
 90
       50
102
RTVSPost2010PropOp50
 70
     1
102
RTVSPost2010Prop51ColorIndex
 90
      256
102
RTVSPost2010Prop51ColorRGB
 90
-16777216
102
RTVSPost2010PropOp51
 70
     0
102
RTVSPost2010Prop52
140
1.0
102
RTVSPost2010PropOp52
 70
     0
102
RTVSPost2010Prop53
 90
        2
102
RTVSPost2010PropOp53
 70
     1
102
RTVSPost2010Prop54
  1
strokes_ogs.tif
102
RTVSPost2010PropOp54
 70
     1
102
RTVSPost2010Prop55
280
     0
102
RTVSPost2010PropOp55
 70
     1
102
RTVSPost2010Prop56
140
1.0
102
RTVSPost2010PropOp56
 70
     1
102
RTVSPost2010Prop57
140
1.0
102
RTVSPost2010PropOp57
 70
     1
102
RTVSPropertyOp0
 70
     1
102
RTVSPropertyOp1
 70
     1
102
RTVSPropertyOp2
 70
     1
102
RTVSPropertyOp3
 70
     1
102
RTVSPropertyOp4
 70
     1
102
RTVSPropertyOp5
 70
     1
102
RTVSPropertyOp6
 70
     1
102
RTVSPropertyOp7
 70
     1
102
RTVSPropertyOp8
 70
     1
102
RTVSPropertyOp9
 70
     1
102
RTVSPropertyOp10
 70
     1
102
RTVSPropertyOp11
 70
     1
102
RTVSPropertyOp12
 70
     1
102
RTVSPropertyOp13
 70
     1
102
RTVSPropertyOp14
 70
     1
102
RTVSPropertyOp15
 70
     1
102
RTVSPropertyOp16
 70
     1
102
RTVSPropertyOp17
 70
     1
102
RTVSPropertyOp18
 70
     1
102
RTVSPropertyOp19
 70
     1
102
RTVSPropertyOp20
 70
     1
102
RTVSPropertyOp21
 70
     1
102
RTVSPropertyOp22
 70
     1
102
RTVSPropertyOp23
 70
     1
102
RTVSPropertyOp24
 70
     1
102
RTVSPropertyOp25
 70
     1
102
RTVSPropertyOp26
 70
     1
102
RTVSPropertyOp27
 70
     1
102
RTVSPropertyOp28
 70
     1
102
RTVSPropertyOp29
 70
     1
102
RTVSPropertyOp30
 70
     1
102
RTVSPropertyOp31
 70
     1
102
RTVSPropertyOp32
 70
     1
102
RTVSPropertyOp33
 70
     1
102
RTVSPropertyOp34
 70
     1
102
RTVSPropertyOp35
 70
     1
102
RTVSPropertyOp36
 70
     1
102
RTVSPropertyOp37
 70
     1
102
RTVSPropertyOp38
 70
     1
102
RTVSPropertyOp39
 70
     1
102
RTVSPropertyOp40
 70
     1
102
RTVSPropertyOp41
 70
     1
102
RTVSPropertyOp42
 70
     1
102
RTVSPropertyOp43
 70
     1
102
RTVSPropertyOp44
 70
     1
102
RTVSPropertyOp45
 70
     1
102
RTVSPropertyOp46
 70
     1
102
RTVSPropertyOp47
 70
     1
102
RTVSPropertyOp48
 70
     1
102
RTVSPropertyOp49
 70
     1
102
RTVSPropertyOp50
 70
     1
102
RTVSPropertyOp51
 70
     0
102
RTVSPropertyOp52
 70
     0
102
RTVSPropertyOp53
 70
     1
102
RTVSPropertyOp54
 70
     1
102
RTVSPropertyOp55
 70
     1
102
RTVSPropertyOp56
 70
     1
102
RTVSPropertyOp57
 70
     1
102
RTVSPropertyOp58
 70
     1
102
RTVSPropertyOp59
 70
     1
102
RTVSPropertyOp60
 70
     1
102
RTVSPropertyOp61
 70
     1
102
RTVSPropertyOp62
 70
     1
  0
XRECORD
  5
9699
102
{ACAD_REACTORS
330
9698
102
}
330
9698
100
AcDbXrecord
280
     1
102
RTVSPost2010Prop28
280
     0
102
RTVSPost2010PropOp28
 70
     1
102
RTVSPost2010Prop29
280
     1
102
RTVSPost2010PropOp29
 70
     1
102
RTVSPost2010Prop30
280
     1
102
RTVSPost2010PropOp30
 70
     1
102
RTVSPost2010Prop31
280
     0
102
RTVSPost2010PropOp31
 70
     1
102
RTVSPost2010Prop32
280
     0
102
RTVSPost2010PropOp32
 70
     1
102
RTVSPost2010Prop33
280
     0
102
RTVSPost2010PropOp33
 70
     1
102
RTVSPost2010Prop34
280
     0
102
RTVSPost2010PropOp34
 70
     1
102
RTVSPost2010Prop35
280
     0
102
RTVSPost2010PropOp35
 70
     1
102
RTVSPost2010Prop36
280
     0
102
RTVSPost2010PropOp36
 70
     1
102
RTVSPost2010Prop37
 90
       50
102
RTVSPost2010PropOp37
 70
     0
102
RTVSPost2010Prop38
140
0.0
102
RTVSPost2010PropOp38
 70
     0
102
RTVSPost2010Prop39
140
1.0
102
RTVSPost2010PropOp39
 70
     0
102
RTVSPost2010Prop40
 90
        0
102
RTVSPost2010PropOp40
 70
     0
102
RTVSPost2010Prop41ColorIndex
 90
       18
102
RTVSPost2010Prop41ColorRGB
 90
        0
102
RTVSPost2010PropOp41
 70
     0
102
RTVSPost2010Prop42
 90
       50
102
RTVSPost2010PropOp42
 70
     0
102
RTVSPost2010Prop43
 90
        3
102
RTVSPost2010PropOp43
 70
     0
102
RTVSPost2010Prop44ColorIndex
 90
        5
102
RTVSPost2010Prop44ColorRGB
 90
      255
102
RTVSPost2010PropOp44
 70
     0
102
RTVSPost2010Prop45
280
     0
102
RTVSPost2010PropOp45
 70
     1
102
RTVSPost2010Prop46
 90
       50
102
RTVSPost2010PropOp46
 70
     0
102
RTVSPost2010Prop47
 90
       50
102
RTVSPost2010PropOp47
 70
     0
102
RTVSPost2010Prop48
 90
       50
102
RTVSPost2010PropOp48
 70
     0
102
RTVSPost2010Prop49
280
     0
102
RTVSPost2010PropOp49
 70
     1
102
RTVSPost2010Prop50
 90
       50
102
RTVSPost2010PropOp50
 70
     0
102
RTVSPost2010Prop51ColorIndex
 90
      256
102
RTVSPost2010Prop51ColorRGB
 90
-16777216
102
RTVSPost2010PropOp51
 70
     0
102
RTVSPost2010Prop52
140
1.0
102
RTVSPost2010PropOp52
 70
     0
102
RTVSPost2010Prop53
 90
        2
102
RTVSPost2010PropOp53
 70
     0
102
RTVSPost2010Prop54
  1
strokes_ogs.tif
102
RTVSPost2010PropOp54
 70
     0
102
RTVSPost2010Prop55
280
     0
102
RTVSPost2010PropOp55
 70
     1
102
RTVSPost2010Prop56
140
1.0
102
RTVSPost2010PropOp56
 70
     0
102
RTVSPost2010Prop57
140
1.0
102
RTVSPost2010PropOp57
 70
     0
102
RTVSPropertyOp0
 70
     0
102
RTVSPropertyOp1
 70
     0
102
RTVSPropertyOp2
 70
     0
102
RTVSPropertyOp3
 70
     0
102
RTVSPropertyOp4
 70
     0
102
RTVSPropertyOp5
 70
     0
102
RTVSPropertyOp6
 70
     0
102
RTVSPropertyOp7
 70
     0
102
RTVSPropertyOp8
 70
     0
102
RTVSPropertyOp9
 70
     0
102
RTVSPropertyOp10
 70
     0
102
RTVSPropertyOp11
 70
     0
102
RTVSPropertyOp12
 70
     0
102
RTVSPropertyOp13
 70
     0
102
RTVSPropertyOp14
 70
     2
102
RTVSPropertyOp15
 70
     0
102
RTVSPropertyOp16
 70
     0
102
RTVSPropertyOp17
 70
     0
102
RTVSPropertyOp18
 70
     0
102
RTVSPropertyOp19
 70
     0
102
RTVSPropertyOp20
 70
     0
102
RTVSPropertyOp21
 70
     0
102
RTVSPropertyOp22
 70
     0
102
RTVSPropertyOp23
 70
     0
102
RTVSPropertyOp24
 70
     0
102
RTVSPropertyOp25
 70
     0
102
RTVSPropertyOp26
 70
     0
102
RTVSPropertyOp27
 70
     0
102
RTVSPropertyOp28
 70
     1
102
RTVSPropertyOp29
 70
     1
102
RTVSPropertyOp30
 70
     1
102
RTVSPropertyOp31
 70
     1
102
RTVSPropertyOp32
 70
     1
102
RTVSPropertyOp33
 70
     1
102
RTVSPropertyOp34
 70
     1
102
RTVSPropertyOp35
 70
     1
102
RTVSPropertyOp36
 70
     1
102
RTVSPropertyOp37
 70
     0
102
RTVSPropertyOp38
 70
     0
102
RTVSPropertyOp39
 70
     0
102
RTVSPropertyOp40
 70
     0
102
RTVSPropertyOp41
 70
     0
102
RTVSPropertyOp42
 70
     0
102
RTVSPropertyOp43
 70
     0
102
RTVSPropertyOp44
 70
     0
102
RTVSPropertyOp45
 70
     1
102
RTVSPropertyOp46
 70
     0
102
RTVSPropertyOp47
 70
     0
102
RTVSPropertyOp48
 70
     0
102
RTVSPropertyOp49
 70
     1
102
RTVSPropertyOp50
 70
     0
102
RTVSPropertyOp51
 70
     0
102
RTVSPropertyOp52
 70
     0
102
RTVSPropertyOp53
 70
     0
102
RTVSPropertyOp54
 70
     0
102
RTVSPropertyOp55
 70
     1
102
RTVSPropertyOp56
 70
     0
102
RTVSPropertyOp57
 70
     0
102
RTVSPropertyOp58
 70
     0
102
RTVSPropertyOp59
 70
     0
102
RTVSPropertyOp60
 70
     0
102
RTVSPropertyOp61
 70
     0
102
RTVSPropertyOp62
 70
     0
  0
XRECORD
  5
967F
102
{ACAD_REACTORS
330
967E
102
}
330
967E
100
AcDbXrecord
280
     1
102
RTVSPost2010Prop28
280
     0
102
RTVSPost2010PropOp28
 70
     1
102
RTVSPost2010Prop29
280
     1
102
RTVSPost2010PropOp29
 70
     1
102
RTVSPost2010Prop30
280
     1
102
RTVSPost2010PropOp30
 70
     1
102
RTVSPost2010Prop31
280
     0
102
RTVSPost2010PropOp31
 70
     1
102
RTVSPost2010Prop32
280
     0
102
RTVSPost2010PropOp32
 70
     1
102
RTVSPost2010Prop33
280
     0
102
RTVSPost2010PropOp33
 70
     1
102
RTVSPost2010Prop34
280
     0
102
RTVSPost2010PropOp34
 70
     1
102
RTVSPost2010Prop35
280
     0
102
RTVSPost2010PropOp35
 70
     1
102
RTVSPost2010Prop36
280
     0
102
RTVSPost2010PropOp36
 70
     1
102
RTVSPost2010Prop37
 90
       50
102
RTVSPost2010PropOp37
 70
     1
102
RTVSPost2010Prop38
140
0.0
102
RTVSPost2010PropOp38
 70
     1
102
RTVSPost2010Prop39
140
1.0
102
RTVSPost2010PropOp39
 70
     1
102
RTVSPost2010Prop40
 90
        0
102
RTVSPost2010PropOp40
 70
     1
102
RTVSPost2010Prop41ColorIndex
 90
       18
102
RTVSPost2010Prop41ColorRGB
 90
        0
102
RTVSPost2010PropOp41
 70
     1
102
RTVSPost2010Prop42
 90
       50
102
RTVSPost2010PropOp42
 70
     1
102
RTVSPost2010Prop43
 90
        3
102
RTVSPost2010PropOp43
 70
     1
102
RTVSPost2010Prop44ColorIndex
 90
        5
102
RTVSPost2010Prop44ColorRGB
 90
      255
102
RTVSPost2010PropOp44
 70
     1
102
RTVSPost2010Prop45
280
     0
102
RTVSPost2010PropOp45
 70
     1
102
RTVSPost2010Prop46
 90
       50
102
RTVSPost2010PropOp46
 70
     1
102
RTVSPost2010Prop47
 90
       50
102
RTVSPost2010PropOp47
 70
     1
102
RTVSPost2010Prop48
 90
       50
102
RTVSPost2010PropOp48
 70
     1
102
RTVSPost2010Prop49
280
     0
102
RTVSPost2010PropOp49
 70
     1
102
RTVSPost2010Prop50
 90
       50
102
RTVSPost2010PropOp50
 70
     1
102
RTVSPost2010Prop51ColorIndex
 90
      256
102
RTVSPost2010Prop51ColorRGB
 90
-16777216
102
RTVSPost2010PropOp51
 70
     0
102
RTVSPost2010Prop52
140
1.0
102
RTVSPost2010PropOp52
 70
     0
102
RTVSPost2010Prop53
 90
        2
102
RTVSPost2010PropOp53
 70
     1
102
RTVSPost2010Prop54
  1
strokes_ogs.tif
102
RTVSPost2010PropOp54
 70
     1
102
RTVSPost2010Prop55
280
     0
102
RTVSPost2010PropOp55
 70
     1
102
RTVSPost2010Prop56
140
1.0
102
RTVSPost2010PropOp56
 70
     1
102
RTVSPost2010Prop57
140
1.0
102
RTVSPost2010PropOp57
 70
     1
102
RTVSPropertyOp0
 70
     1
102
RTVSPropertyOp1
 70
     1
102
RTVSPropertyOp2
 70
     1
102
RTVSPropertyOp3
 70
     1
102
RTVSPropertyOp4
 70
     1
102
RTVSPropertyOp5
 70
     1
102
RTVSPropertyOp6
 70
     1
102
RTVSPropertyOp7
 70
     1
102
RTVSPropertyOp8
 70
     1
102
RTVSPropertyOp9
 70
     1
102
RTVSPropertyOp10
 70
     1
102
RTVSPropertyOp11
 70
     1
102
RTVSPropertyOp12
 70
     1
102
RTVSPropertyOp13
 70
     1
102
RTVSPropertyOp14
 70
     1
102
RTVSPropertyOp15
 70
     1
102
RTVSPropertyOp16
 70
     1
102
RTVSPropertyOp17
 70
     1
102
RTVSPropertyOp18
 70
     1
102
RTVSPropertyOp19
 70
     1
102
RTVSPropertyOp20
 70
     1
102
RTVSPropertyOp21
 70
     1
102
RTVSPropertyOp22
 70
     1
102
RTVSPropertyOp23
 70
     1
102
RTVSPropertyOp24
 70
     1
102
RTVSPropertyOp25
 70
     1
102
RTVSPropertyOp26
 70
     1
102
RTVSPropertyOp27
 70
     1
102
RTVSPropertyOp28
 70
     1
102
RTVSPropertyOp29
 70
     1
102
RTVSPropertyOp30
 70
     1
102
RTVSPropertyOp31
 70
     1
102
RTVSPropertyOp32
 70
     1
102
RTVSPropertyOp33
 70
     1
102
RTVSPropertyOp34
 70
     1
102
RTVSPropertyOp35
 70
     1
102
RTVSPropertyOp36
 70
     1
102
RTVSPropertyOp37
 70
     1
102
RTVSPropertyOp38
 70
     1
102
RTVSPropertyOp39
 70
     1
102
RTVSPropertyOp40
 70
     1
102
RTVSPropertyOp41
 70
     1
102
RTVSPropertyOp42
 70
     1
102
RTVSPropertyOp43
 70
     1
102
RTVSPropertyOp44
 70
     1
102
RTVSPropertyOp45
 70
     1
102
RTVSPropertyOp46
 70
     1
102
RTVSPropertyOp47
 70
     1
102
RTVSPropertyOp48
 70
     1
102
RTVSPropertyOp49
 70
     1
102
RTVSPropertyOp50
 70
     1
102
RTVSPropertyOp51
 70
     0
102
RTVSPropertyOp52
 70
     0
102
RTVSPropertyOp53
 70
     1
102
RTVSPropertyOp54
 70
     1
102
RTVSPropertyOp55
 70
     1
102
RTVSPropertyOp56
 70
     1
102
RTVSPropertyOp57
 70
     1
102
RTVSPropertyOp58
 70
     1
102
RTVSPropertyOp59
 70
     1
102
RTVSPropertyOp60
 70
     1
102
RTVSPropertyOp61
 70
     1
102
RTVSPropertyOp62
 70
     1
  0
XRECORD
  5
9695
102
{ACAD_REACTORS
330
9694
102
}
330
9694
100
AcDbXrecord
280
     1
102
RTVSPost2010Prop28
280
     0
102
RTVSPost2010PropOp28
 70
     1
102
RTVSPost2010Prop29
280
     1
102
RTVSPost2010PropOp29
 70
     1
102
RTVSPost2010Prop30
280
     1
102
RTVSPost2010PropOp30
 70
     1
102
RTVSPost2010Prop31
280
     0
102
RTVSPost2010PropOp31
 70
     1
102
RTVSPost2010Prop32
280
     0
102
RTVSPost2010PropOp32
 70
     1
102
RTVSPost2010Prop33
280
     0
102
RTVSPost2010PropOp33
 70
     1
102
RTVSPost2010Prop34
280
     0
102
RTVSPost2010PropOp34
 70
     1
102
RTVSPost2010Prop35
280
     0
102
RTVSPost2010PropOp35
 70
     1
102
RTVSPost2010Prop36
280
     0
102
RTVSPost2010PropOp36
 70
     1
102
RTVSPost2010Prop37
 90
       50
102
RTVSPost2010PropOp37
 70
     1
102
RTVSPost2010Prop38
140
0.0
102
RTVSPost2010PropOp38
 70
     1
102
RTVSPost2010Prop39
140
1.0
102
RTVSPost2010PropOp39
 70
     1
102
RTVSPost2010Prop40
 90
        0
102
RTVSPost2010PropOp40
 70
     1
102
RTVSPost2010Prop41ColorIndex
 90
       18
102
RTVSPost2010Prop41ColorRGB
 90
        0
102
RTVSPost2010PropOp41
 70
     1
102
RTVSPost2010Prop42
 90
       50
102
RTVSPost2010PropOp42
 70
     1
102
RTVSPost2010Prop43
 90
        3
102
RTVSPost2010PropOp43
 70
     1
102
RTVSPost2010Prop44ColorIndex
 90
        5
102
RTVSPost2010Prop44ColorRGB
 90
      255
102
RTVSPost2010PropOp44
 70
     1
102
RTVSPost2010Prop45
280
     0
102
RTVSPost2010PropOp45
 70
     1
102
RTVSPost2010Prop46
 90
       50
102
RTVSPost2010PropOp46
 70
     1
102
RTVSPost2010Prop47
 90
       50
102
RTVSPost2010PropOp47
 70
     1
102
RTVSPost2010Prop48
 90
       50
102
RTVSPost2010PropOp48
 70
     1
102
RTVSPost2010Prop49
280
     0
102
RTVSPost2010PropOp49
 70
     1
102
RTVSPost2010Prop50
 90
       50
102
RTVSPost2010PropOp50
 70
     1
102
RTVSPost2010Prop51ColorIndex
 90
      256
102
RTVSPost2010Prop51ColorRGB
 90
-16777216
102
RTVSPost2010PropOp51
 70
     0
102
RTVSPost2010Prop52
140
1.0
102
RTVSPost2010PropOp52
 70
     0
102
RTVSPost2010Prop53
 90
        2
102
RTVSPost2010PropOp53
 70
     1
102
RTVSPost2010Prop54
  1
strokes_ogs.tif
102
RTVSPost2010PropOp54
 70
     1
102
RTVSPost2010Prop55
280
     0
102
RTVSPost2010PropOp55
 70
     1
102
RTVSPost2010Prop56
140
1.0
102
RTVSPost2010PropOp56
 70
     1
102
RTVSPost2010Prop57
140
1.0
102
RTVSPost2010PropOp57
 70
     1
102
RTVSPropertyOp0
 70
     1
102
RTVSPropertyOp1
 70
     1
102
RTVSPropertyOp2
 70
     1
102
RTVSPropertyOp3
 70
     1
102
RTVSPropertyOp4
 70
     1
102
RTVSPropertyOp5
 70
     1
102
RTVSPropertyOp6
 70
     1
102
RTVSPropertyOp7
 70
     1
102
RTVSPropertyOp8
 70
     1
102
RTVSPropertyOp9
 70
     1
102
RTVSPropertyOp10
 70
     1
102
RTVSPropertyOp11
 70
     1
102
RTVSPropertyOp12
 70
     1
102
RTVSPropertyOp13
 70
     1
102
RTVSPropertyOp14
 70
     1
102
RTVSPropertyOp15
 70
     1
102
RTVSPropertyOp16
 70
     1
102
RTVSPropertyOp17
 70
     1
102
RTVSPropertyOp18
 70
     1
102
RTVSPropertyOp19
 70
     1
102
RTVSPropertyOp20
 70
     1
102
RTVSPropertyOp21
 70
     1
102
RTVSPropertyOp22
 70
     1
102
RTVSPropertyOp23
 70
     1
102
RTVSPropertyOp24
 70
     1
102
RTVSPropertyOp25
 70
     1
102
RTVSPropertyOp26
 70
     1
102
RTVSPropertyOp27
 70
     1
102
RTVSPropertyOp28
 70
     1
102
RTVSPropertyOp29
 70
     1
102
RTVSPropertyOp30
 70
     1
102
RTVSPropertyOp31
 70
     1
102
RTVSPropertyOp32
 70
     1
102
RTVSPropertyOp33
 70
     1
102
RTVSPropertyOp34
 70
     1
102
RTVSPropertyOp35
 70
     1
102
RTVSPropertyOp36
 70
     1
102
RTVSPropertyOp37
 70
     1
102
RTVSPropertyOp38
 70
     1
102
RTVSPropertyOp39
 70
     1
102
RTVSPropertyOp40
 70
     1
102
RTVSPropertyOp41
 70
     1
102
RTVSPropertyOp42
 70
     1
102
RTVSPropertyOp43
 70
     1
102
RTVSPropertyOp44
 70
     1
102
RTVSPropertyOp45
 70
     1
102
RTVSPropertyOp46
 70
     1
102
RTVSPropertyOp47
 70
     1
102
RTVSPropertyOp48
 70
     1
102
RTVSPropertyOp49
 70
     1
102
RTVSPropertyOp50
 70
     1
102
RTVSPropertyOp51
 70
     0
102
RTVSPropertyOp52
 70
     0
102
RTVSPropertyOp53
 70
     1
102
RTVSPropertyOp54
 70
     1
102
RTVSPropertyOp55
 70
     1
102
RTVSPropertyOp56
 70
     1
102
RTVSPropertyOp57
 70
     1
102
RTVSPropertyOp58
 70
     1
102
RTVSPropertyOp59
 70
     1
102
RTVSPropertyOp60
 70
     1
102
RTVSPropertyOp61
 70
     1
102
RTVSPropertyOp62
 70
     1
  0
XRECORD
  5
9693
102
{ACAD_REACTORS
330
9692
102
}
330
9692
100
AcDbXrecord
280
     1
102
RTVSPost2010Prop28
280
     0
102
RTVSPost2010PropOp28
 70
     1
102
RTVSPost2010Prop29
280
     1
102
RTVSPost2010PropOp29
 70
     1
102
RTVSPost2010Prop30
280
     1
102
RTVSPost2010PropOp30
 70
     1
102
RTVSPost2010Prop31
280
     0
102
RTVSPost2010PropOp31
 70
     1
102
RTVSPost2010Prop32
280
     0
102
RTVSPost2010PropOp32
 70
     1
102
RTVSPost2010Prop33
280
     0
102
RTVSPost2010PropOp33
 70
     1
102
RTVSPost2010Prop34
280
     0
102
RTVSPost2010PropOp34
 70
     1
102
RTVSPost2010Prop35
280
     0
102
RTVSPost2010PropOp35
 70
     1
102
RTVSPost2010Prop36
280
     0
102
RTVSPost2010PropOp36
 70
     1
102
RTVSPost2010Prop37
 90
       50
102
RTVSPost2010PropOp37
 70
     1
102
RTVSPost2010Prop38
140
0.0
102
RTVSPost2010PropOp38
 70
     1
102
RTVSPost2010Prop39
140
1.0
102
RTVSPost2010PropOp39
 70
     1
102
RTVSPost2010Prop40
 90
        0
102
RTVSPost2010PropOp40
 70
     1
102
RTVSPost2010Prop41ColorIndex
 90
       18
102
RTVSPost2010Prop41ColorRGB
 90
        0
102
RTVSPost2010PropOp41
 70
     1
102
RTVSPost2010Prop42
 90
       50
102
RTVSPost2010PropOp42
 70
     1
102
RTVSPost2010Prop43
 90
        3
102
RTVSPost2010PropOp43
 70
     1
102
RTVSPost2010Prop44ColorIndex
 90
        5
102
RTVSPost2010Prop44ColorRGB
 90
      255
102
RTVSPost2010PropOp44
 70
     1
102
RTVSPost2010Prop45
280
     0
102
RTVSPost2010PropOp45
 70
     1
102
RTVSPost2010Prop46
 90
       50
102
RTVSPost2010PropOp46
 70
     1
102
RTVSPost2010Prop47
 90
       50
102
RTVSPost2010PropOp47
 70
     1
102
RTVSPost2010Prop48
 90
       50
102
RTVSPost2010PropOp48
 70
     1
102
RTVSPost2010Prop49
280
     0
102
RTVSPost2010PropOp49
 70
     1
102
RTVSPost2010Prop50
 90
       50
102
RTVSPost2010PropOp50
 70
     1
102
RTVSPost2010Prop51ColorIndex
 90
      256
102
RTVSPost2010Prop51ColorRGB
 90
-16777216
102
RTVSPost2010PropOp51
 70
     0
102
RTVSPost2010Prop52
140
1.0
102
RTVSPost2010PropOp52
 70
     0
102
RTVSPost2010Prop53
 90
        2
102
RTVSPost2010PropOp53
 70
     1
102
RTVSPost2010Prop54
  1
strokes_ogs.tif
102
RTVSPost2010PropOp54
 70
     1
102
RTVSPost2010Prop55
280
     0
102
RTVSPost2010PropOp55
 70
     1
102
RTVSPost2010Prop56
140
1.0
102
RTVSPost2010PropOp56
 70
     1
102
RTVSPost2010Prop57
140
1.0
102
RTVSPost2010PropOp57
 70
     1
102
RTVSPropertyOp0
 70
     1
102
RTVSPropertyOp1
 70
     1
102
RTVSPropertyOp2
 70
     1
102
RTVSPropertyOp3
 70
     1
102
RTVSPropertyOp4
 70
     1
102
RTVSPropertyOp5
 70
     1
102
RTVSPropertyOp6
 70
     1
102
RTVSPropertyOp7
 70
     1
102
RTVSPropertyOp8
 70
     1
102
RTVSPropertyOp9
 70
     1
102
RTVSPropertyOp10
 70
     1
102
RTVSPropertyOp11
 70
     1
102
RTVSPropertyOp12
 70
     1
102
RTVSPropertyOp13
 70
     1
102
RTVSPropertyOp14
 70
     1
102
RTVSPropertyOp15
 70
     1
102
RTVSPropertyOp16
 70
     1
102
RTVSPropertyOp17
 70
     1
102
RTVSPropertyOp18
 70
     1
102
RTVSPropertyOp19
 70
     1
102
RTVSPropertyOp20
 70
     1
102
RTVSPropertyOp21
 70
     1
102
RTVSPropertyOp22
 70
     1
102
RTVSPropertyOp23
 70
     1
102
RTVSPropertyOp24
 70
     1
102
RTVSPropertyOp25
 70
     1
102
RTVSPropertyOp26
 70
     1
102
RTVSPropertyOp27
 70
     1
102
RTVSPropertyOp28
 70
     1
102
RTVSPropertyOp29
 70
     1
102
RTVSPropertyOp30
 70
     1
102
RTVSPropertyOp31
 70
     1
102
RTVSPropertyOp32
 70
     1
102
RTVSPropertyOp33
 70
     1
102
RTVSPropertyOp34
 70
     1
102
RTVSPropertyOp35
 70
     1
102
RTVSPropertyOp36
 70
     1
102
RTVSPropertyOp37
 70
     1
102
RTVSPropertyOp38
 70
     1
102
RTVSPropertyOp39
 70
     1
102
RTVSPropertyOp40
 70
     1
102
RTVSPropertyOp41
 70
     1
102
RTVSPropertyOp42
 70
     1
102
RTVSPropertyOp43
 70
     1
102
RTVSPropertyOp44
 70
     1
102
RTVSPropertyOp45
 70
     1
102
RTVSPropertyOp46
 70
     1
102
RTVSPropertyOp47
 70
     1
102
RTVSPropertyOp48
 70
     1
102
RTVSPropertyOp49
 70
     1
102
RTVSPropertyOp50
 70
     1
102
RTVSPropertyOp51
 70
     0
102
RTVSPropertyOp52
 70
     0
102
RTVSPropertyOp53
 70
     1
102
RTVSPropertyOp54
 70
     1
102
RTVSPropertyOp55
 70
     1
102
RTVSPropertyOp56
 70
     1
102
RTVSPropertyOp57
 70
     1
102
RTVSPropertyOp58
 70
     1
102
RTVSPropertyOp59
 70
     1
102
RTVSPropertyOp60
 70
     1
102
RTVSPropertyOp61
 70
     1
102
RTVSPropertyOp62
 70
     1
  0
XRECORD
  5
968D
102
{ACAD_REACTORS
330
968C
102
}
330
968C
100
AcDbXrecord
280
     1
102
RTVSPost2010Prop28
280
     0
102
RTVSPost2010PropOp28
 70
     1
102
RTVSPost2010Prop29
280
     1
102
RTVSPost2010PropOp29
 70
     1
102
RTVSPost2010Prop30
280
     1
102
RTVSPost2010PropOp30
 70
     1
102
RTVSPost2010Prop31
280
     0
102
RTVSPost2010PropOp31
 70
     1
102
RTVSPost2010Prop32
280
     0
102
RTVSPost2010PropOp32
 70
     1
102
RTVSPost2010Prop33
280
     0
102
RTVSPost2010PropOp33
 70
     1
102
RTVSPost2010Prop34
280
     0
102
RTVSPost2010PropOp34
 70
     1
102
RTVSPost2010Prop35
280
     0
102
RTVSPost2010PropOp35
 70
     1
102
RTVSPost2010Prop36
280
     0
102
RTVSPost2010PropOp36
 70
     1
102
RTVSPost2010Prop37
 90
       50
102
RTVSPost2010PropOp37
 70
     1
102
RTVSPost2010Prop38
140
0.0
102
RTVSPost2010PropOp38
 70
     1
102
RTVSPost2010Prop39
140
1.0
102
RTVSPost2010PropOp39
 70
     1
102
RTVSPost2010Prop40
 90
        0
102
RTVSPost2010PropOp40
 70
     1
102
RTVSPost2010Prop41ColorIndex
 90
       18
102
RTVSPost2010Prop41ColorRGB
 90
        0
102
RTVSPost2010PropOp41
 70
     1
102
RTVSPost2010Prop42
 90
       50
102
RTVSPost2010PropOp42
 70
     1
102
RTVSPost2010Prop43
 90
        3
102
RTVSPost2010PropOp43
 70
     1
102
RTVSPost2010Prop44ColorIndex
 90
        5
102
RTVSPost2010Prop44ColorRGB
 90
      255
102
RTVSPost2010PropOp44
 70
     1
102
RTVSPost2010Prop45
280
     0
102
RTVSPost2010PropOp45
 70
     1
102
RTVSPost2010Prop46
 90
       50
102
RTVSPost2010PropOp46
 70
     1
102
RTVSPost2010Prop47
 90
       50
102
RTVSPost2010PropOp47
 70
     1
102
RTVSPost2010Prop48
 90
       50
102
RTVSPost2010PropOp48
 70
     1
102
RTVSPost2010Prop49
280
     0
102
RTVSPost2010PropOp49
 70
     1
102
RTVSPost2010Prop50
 90
       50
102
RTVSPost2010PropOp50
 70
     1
102
RTVSPost2010Prop51ColorIndex
 90
      256
102
RTVSPost2010Prop51ColorRGB
 90
-16777216
102
RTVSPost2010PropOp51
 70
     0
102
RTVSPost2010Prop52
140
1.0
102
RTVSPost2010PropOp52
 70
     0
102
RTVSPost2010Prop53
 90
        2
102
RTVSPost2010PropOp53
 70
     1
102
RTVSPost2010Prop54
  1
strokes_ogs.tif
102
RTVSPost2010PropOp54
 70
     1
102
RTVSPost2010Prop55
280
     0
102
RTVSPost2010PropOp55
 70
     1
102
RTVSPost2010Prop56
140
1.0
102
RTVSPost2010PropOp56
 70
     1
102
RTVSPost2010Prop57
140
1.0
102
RTVSPost2010PropOp57
 70
     1
102
RTVSPropertyOp0
 70
     1
102
RTVSPropertyOp1
 70
     1
102
RTVSPropertyOp2
 70
     1
102
RTVSPropertyOp3
 70
     1
102
RTVSPropertyOp4
 70
     1
102
RTVSPropertyOp5
 70
     1
102
RTVSPropertyOp6
 70
     1
102
RTVSPropertyOp7
 70
     1
102
RTVSPropertyOp8
 70
     1
102
RTVSPropertyOp9
 70
     1
102
RTVSPropertyOp10
 70
     1
102
RTVSPropertyOp11
 70
     1
102
RTVSPropertyOp12
 70
     1
102
RTVSPropertyOp13
 70
     1
102
RTVSPropertyOp14
 70
     1
102
RTVSPropertyOp15
 70
     1
102
RTVSPropertyOp16
 70
     1
102
RTVSPropertyOp17
 70
     1
102
RTVSPropertyOp18
 70
     1
102
RTVSPropertyOp19
 70
     1
102
RTVSPropertyOp20
 70
     1
102
RTVSPropertyOp21
 70
     1
102
RTVSPropertyOp22
 70
     1
102
RTVSPropertyOp23
 70
     1
102
RTVSPropertyOp24
 70
     1
102
RTVSPropertyOp25
 70
     1
102
RTVSPropertyOp26
 70
     1
102
RTVSPropertyOp27
 70
     1
102
RTVSPropertyOp28
 70
     1
102
RTVSPropertyOp29
 70
     1
102
RTVSPropertyOp30
 70
     1
102
RTVSPropertyOp31
 70
     1
102
RTVSPropertyOp32
 70
     1
102
RTVSPropertyOp33
 70
     1
102
RTVSPropertyOp34
 70
     1
102
RTVSPropertyOp35
 70
     1
102
RTVSPropertyOp36
 70
     1
102
RTVSPropertyOp37
 70
     1
102
RTVSPropertyOp38
 70
     1
102
RTVSPropertyOp39
 70
     1
102
RTVSPropertyOp40
 70
     1
102
RTVSPropertyOp41
 70
     1
102
RTVSPropertyOp42
 70
     1
102
RTVSPropertyOp43
 70
     1
102
RTVSPropertyOp44
 70
     1
102
RTVSPropertyOp45
 70
     1
102
RTVSPropertyOp46
 70
     1
102
RTVSPropertyOp47
 70
     1
102
RTVSPropertyOp48
 70
     1
102
RTVSPropertyOp49
 70
     1
102
RTVSPropertyOp50
 70
     1
102
RTVSPropertyOp51
 70
     0
102
RTVSPropertyOp52
 70
     0
102
RTVSPropertyOp53
 70
     1
102
RTVSPropertyOp54
 70
     1
102
RTVSPropertyOp55
 70
     1
102
RTVSPropertyOp56
 70
     1
102
RTVSPropertyOp57
 70
     1
102
RTVSPropertyOp58
 70
     1
102
RTVSPropertyOp59
 70
     1
102
RTVSPropertyOp60
 70
     1
102
RTVSPropertyOp61
 70
     1
102
RTVSPropertyOp62
 70
     1
  0
XRECORD
  5
968F
102
{ACAD_REACTORS
330
968E
102
}
330
968E
100
AcDbXrecord
280
     1
102
RTVSPost2010Prop28
280
     0
102
RTVSPost2010PropOp28
 70
     1
102
RTVSPost2010Prop29
280
     1
102
RTVSPost2010PropOp29
 70
     1
102
RTVSPost2010Prop30
280
     1
102
RTVSPost2010PropOp30
 70
     1
102
RTVSPost2010Prop31
280
     0
102
RTVSPost2010PropOp31
 70
     1
102
RTVSPost2010Prop32
280
     0
102
RTVSPost2010PropOp32
 70
     1
102
RTVSPost2010Prop33
280
     0
102
RTVSPost2010PropOp33
 70
     1
102
RTVSPost2010Prop34
280
     0
102
RTVSPost2010PropOp34
 70
     1
102
RTVSPost2010Prop35
280
     0
102
RTVSPost2010PropOp35
 70
     1
102
RTVSPost2010Prop36
280
     0
102
RTVSPost2010PropOp36
 70
     1
102
RTVSPost2010Prop37
 90
       50
102
RTVSPost2010PropOp37
 70
     1
102
RTVSPost2010Prop38
140
0.0
102
RTVSPost2010PropOp38
 70
     1
102
RTVSPost2010Prop39
140
1.0
102
RTVSPost2010PropOp39
 70
     1
102
RTVSPost2010Prop40
 90
        0
102
RTVSPost2010PropOp40
 70
     1
102
RTVSPost2010Prop41ColorIndex
 90
       18
102
RTVSPost2010Prop41ColorRGB
 90
        0
102
RTVSPost2010PropOp41
 70
     1
102
RTVSPost2010Prop42
 90
       50
102
RTVSPost2010PropOp42
 70
     1
102
RTVSPost2010Prop43
 90
        3
102
RTVSPost2010PropOp43
 70
     1
102
RTVSPost2010Prop44ColorIndex
 90
        5
102
RTVSPost2010Prop44ColorRGB
 90
      255
102
RTVSPost2010PropOp44
 70
     1
102
RTVSPost2010Prop45
280
     0
102
RTVSPost2010PropOp45
 70
     1
102
RTVSPost2010Prop46
 90
       50
102
RTVSPost2010PropOp46
 70
     1
102
RTVSPost2010Prop47
 90
       50
102
RTVSPost2010PropOp47
 70
     1
102
RTVSPost2010Prop48
 90
       50
102
RTVSPost2010PropOp48
 70
     1
102
RTVSPost2010Prop49
280
     0
102
RTVSPost2010PropOp49
 70
     1
102
RTVSPost2010Prop50
 90
       50
102
RTVSPost2010PropOp50
 70
     1
102
RTVSPost2010Prop51ColorIndex
 90
      256
102
RTVSPost2010Prop51ColorRGB
 90
-16777216
102
RTVSPost2010PropOp51
 70
     0
102
RTVSPost2010Prop52
140
1.0
102
RTVSPost2010PropOp52
 70
     0
102
RTVSPost2010Prop53
 90
        2
102
RTVSPost2010PropOp53
 70
     1
102
RTVSPost2010Prop54
  1
strokes_ogs.tif
102
RTVSPost2010PropOp54
 70
     1
102
RTVSPost2010Prop55
280
     0
102
RTVSPost2010PropOp55
 70
     1
102
RTVSPost2010Prop56
140
1.0
102
RTVSPost2010PropOp56
 70
     1
102
RTVSPost2010Prop57
140
1.0
102
RTVSPost2010PropOp57
 70
     1
102
RTVSPropertyOp0
 70
     1
102
RTVSPropertyOp1
 70
     1
102
RTVSPropertyOp2
 70
     1
102
RTVSPropertyOp3
 70
     1
102
RTVSPropertyOp4
 70
     1
102
RTVSPropertyOp5
 70
     1
102
RTVSPropertyOp6
 70
     1
102
RTVSPropertyOp7
 70
     1
102
RTVSPropertyOp8
 70
     1
102
RTVSPropertyOp9
 70
     1
102
RTVSPropertyOp10
 70
     1
102
RTVSPropertyOp11
 70
     1
102
RTVSPropertyOp12
 70
     1
102
RTVSPropertyOp13
 70
     1
102
RTVSPropertyOp14
 70
     1
102
RTVSPropertyOp15
 70
     1
102
RTVSPropertyOp16
 70
     1
102
RTVSPropertyOp17
 70
     1
102
RTVSPropertyOp18
 70
     1
102
RTVSPropertyOp19
 70
     1
102
RTVSPropertyOp20
 70
     1
102
RTVSPropertyOp21
 70
     1
102
RTVSPropertyOp22
 70
     1
102
RTVSPropertyOp23
 70
     1
102
RTVSPropertyOp24
 70
     1
102
RTVSPropertyOp25
 70
     1
102
RTVSPropertyOp26
 70
     1
102
RTVSPropertyOp27
 70
     1
102
RTVSPropertyOp28
 70
     1
102
RTVSPropertyOp29
 70
     1
102
RTVSPropertyOp30
 70
     1
102
RTVSPropertyOp31
 70
     1
102
RTVSPropertyOp32
 70
     1
102
RTVSPropertyOp33
 70
     1
102
RTVSPropertyOp34
 70
     1
102
RTVSPropertyOp35
 70
     1
102
RTVSPropertyOp36
 70
     1
102
RTVSPropertyOp37
 70
     1
102
RTVSPropertyOp38
 70
     1
102
RTVSPropertyOp39
 70
     1
102
RTVSPropertyOp40
 70
     1
102
RTVSPropertyOp41
 70
     1
102
RTVSPropertyOp42
 70
     1
102
RTVSPropertyOp43
 70
     1
102
RTVSPropertyOp44
 70
     1
102
RTVSPropertyOp45
 70
     1
102
RTVSPropertyOp46
 70
     1
102
RTVSPropertyOp47
 70
     1
102
RTVSPropertyOp48
 70
     1
102
RTVSPropertyOp49
 70
     1
102
RTVSPropertyOp50
 70
     1
102
RTVSPropertyOp51
 70
     0
102
RTVSPropertyOp52
 70
     0
102
RTVSPropertyOp53
 70
     1
102
RTVSPropertyOp54
 70
     1
102
RTVSPropertyOp55
 70
     1
102
RTVSPropertyOp56
 70
     1
102
RTVSPropertyOp57
 70
     1
102
RTVSPropertyOp58
 70
     1
102
RTVSPropertyOp59
 70
     1
102
RTVSPropertyOp60
 70
     1
102
RTVSPropertyOp61
 70
     1
102
RTVSPropertyOp62
 70
     1
  0
XRECORD
  5
9685
102
{ACAD_REACTORS
330
9684
102
}
330
9684
100
AcDbXrecord
280
     1
102
RTVSPost2010Prop28
280
     0
102
RTVSPost2010PropOp28
 70
     1
102
RTVSPost2010Prop29
280
     1
102
RTVSPost2010PropOp29
 70
     1
102
RTVSPost2010Prop30
280
     1
102
RTVSPost2010PropOp30
 70
     1
102
RTVSPost2010Prop31
280
     0
102
RTVSPost2010PropOp31
 70
     1
102
RTVSPost2010Prop32
280
     0
102
RTVSPost2010PropOp32
 70
     1
102
RTVSPost2010Prop33
280
     0
102
RTVSPost2010PropOp33
 70
     1
102
RTVSPost2010Prop34
280
     0
102
RTVSPost2010PropOp34
 70
     1
102
RTVSPost2010Prop35
280
     0
102
RTVSPost2010PropOp35
 70
     1
102
RTVSPost2010Prop36
280
     0
102
RTVSPost2010PropOp36
 70
     1
102
RTVSPost2010Prop37
 90
       50
102
RTVSPost2010PropOp37
 70
     1
102
RTVSPost2010Prop38
140
0.0
102
RTVSPost2010PropOp38
 70
     1
102
RTVSPost2010Prop39
140
1.0
102
RTVSPost2010PropOp39
 70
     1
102
RTVSPost2010Prop40
 90
        0
102
RTVSPost2010PropOp40
 70
     1
102
RTVSPost2010Prop41ColorIndex
 90
       18
102
RTVSPost2010Prop41ColorRGB
 90
        0
102
RTVSPost2010PropOp41
 70
     1
102
RTVSPost2010Prop42
 90
       50
102
RTVSPost2010PropOp42
 70
     1
102
RTVSPost2010Prop43
 90
        3
102
RTVSPost2010PropOp43
 70
     1
102
RTVSPost2010Prop44ColorIndex
 90
        5
102
RTVSPost2010Prop44ColorRGB
 90
      255
102
RTVSPost2010PropOp44
 70
     1
102
RTVSPost2010Prop45
280
     0
102
RTVSPost2010PropOp45
 70
     1
102
RTVSPost2010Prop46
 90
       50
102
RTVSPost2010PropOp46
 70
     1
102
RTVSPost2010Prop47
 90
       50
102
RTVSPost2010PropOp47
 70
     1
102
RTVSPost2010Prop48
 90
       50
102
RTVSPost2010PropOp48
 70
     1
102
RTVSPost2010Prop49
280
     0
102
RTVSPost2010PropOp49
 70
     1
102
RTVSPost2010Prop50
 90
       50
102
RTVSPost2010PropOp50
 70
     1
102
RTVSPost2010Prop51ColorIndex
 90
      256
102
RTVSPost2010Prop51ColorRGB
 90
-16777216
102
RTVSPost2010PropOp51
 70
     0
102
RTVSPost2010Prop52
140
1.0
102
RTVSPost2010PropOp52
 70
     0
102
RTVSPost2010Prop53
 90
        2
102
RTVSPost2010PropOp53
 70
     1
102
RTVSPost2010Prop54
  1
strokes_ogs.tif
102
RTVSPost2010PropOp54
 70
     1
102
RTVSPost2010Prop55
280
     0
102
RTVSPost2010PropOp55
 70
     1
102
RTVSPost2010Prop56
140
1.0
102
RTVSPost2010PropOp56
 70
     1
102
RTVSPost2010Prop57
140
1.0
102
RTVSPost2010PropOp57
 70
     1
102
RTVSPropertyOp0
 70
     1
102
RTVSPropertyOp1
 70
     1
102
RTVSPropertyOp2
 70
     1
102
RTVSPropertyOp3
 70
     1
102
RTVSPropertyOp4
 70
     1
102
RTVSPropertyOp5
 70
     1
102
RTVSPropertyOp6
 70
     1
102
RTVSPropertyOp7
 70
     1
102
RTVSPropertyOp8
 70
     1
102
RTVSPropertyOp9
 70
     1
102
RTVSPropertyOp10
 70
     1
102
RTVSPropertyOp11
 70
     1
102
RTVSPropertyOp12
 70
     1
102
RTVSPropertyOp13
 70
     1
102
RTVSPropertyOp14
 70
     1
102
RTVSPropertyOp15
 70
     1
102
RTVSPropertyOp16
 70
     1
102
RTVSPropertyOp17
 70
     1
102
RTVSPropertyOp18
 70
     1
102
RTVSPropertyOp19
 70
     1
102
RTVSPropertyOp20
 70
     1
102
RTVSPropertyOp21
 70
     1
102
RTVSPropertyOp22
 70
     1
102
RTVSPropertyOp23
 70
     1
102
RTVSPropertyOp24
 70
     1
102
RTVSPropertyOp25
 70
     1
102
RTVSPropertyOp26
 70
     1
102
RTVSPropertyOp27
 70
     1
102
RTVSPropertyOp28
 70
     1
102
RTVSPropertyOp29
 70
     1
102
RTVSPropertyOp30
 70
     1
102
RTVSPropertyOp31
 70
     1
102
RTVSPropertyOp32
 70
     1
102
RTVSPropertyOp33
 70
     1
102
RTVSPropertyOp34
 70
     1
102
RTVSPropertyOp35
 70
     1
102
RTVSPropertyOp36
 70
     1
102
RTVSPropertyOp37
 70
     1
102
RTVSPropertyOp38
 70
     1
102
RTVSPropertyOp39
 70
     1
102
RTVSPropertyOp40
 70
     1
102
RTVSPropertyOp41
 70
     1
102
RTVSPropertyOp42
 70
     1
102
RTVSPropertyOp43
 70
     1
102
RTVSPropertyOp44
 70
     1
102
RTVSPropertyOp45
 70
     1
102
RTVSPropertyOp46
 70
     1
102
RTVSPropertyOp47
 70
     1
102
RTVSPropertyOp48
 70
     1
102
RTVSPropertyOp49
 70
     1
102
RTVSPropertyOp50
 70
     1
102
RTVSPropertyOp51
 70
     0
102
RTVSPropertyOp52
 70
     0
102
RTVSPropertyOp53
 70
     1
102
RTVSPropertyOp54
 70
     1
102
RTVSPropertyOp55
 70
     1
102
RTVSPropertyOp56
 70
     1
102
RTVSPropertyOp57
 70
     1
102
RTVSPropertyOp58
 70
     1
102
RTVSPropertyOp59
 70
     1
102
RTVSPropertyOp60
 70
     1
102
RTVSPropertyOp61
 70
     1
102
RTVSPropertyOp62
 70
     1
  0
XRECORD
  5
9679
102
{ACAD_REACTORS
330
9678
102
}
330
9678
100
AcDbXrecord
280
     1
102
RTVSPost2010Prop28
280
     0
102
RTVSPost2010PropOp28
 70
     1
102
RTVSPost2010Prop29
280
     1
102
RTVSPost2010PropOp29
 70
     1
102
RTVSPost2010Prop30
280
     1
102
RTVSPost2010PropOp30
 70
     1
102
RTVSPost2010Prop31
280
     0
102
RTVSPost2010PropOp31
 70
     1
102
RTVSPost2010Prop32
280
     0
102
RTVSPost2010PropOp32
 70
     1
102
RTVSPost2010Prop33
280
     0
102
RTVSPost2010PropOp33
 70
     1
102
RTVSPost2010Prop34
280
     0
102
RTVSPost2010PropOp34
 70
     1
102
RTVSPost2010Prop35
280
     0
102
RTVSPost2010PropOp35
 70
     1
102
RTVSPost2010Prop36
280
     0
102
RTVSPost2010PropOp36
 70
     1
102
RTVSPost2010Prop37
 90
       50
102
RTVSPost2010PropOp37
 70
     1
102
RTVSPost2010Prop38
140
0.0
102
RTVSPost2010PropOp38
 70
     1
102
RTVSPost2010Prop39
140
1.0
102
RTVSPost2010PropOp39
 70
     1
102
RTVSPost2010Prop40
 90
        0
102
RTVSPost2010PropOp40
 70
     1
102
RTVSPost2010Prop41ColorIndex
 90
       18
102
RTVSPost2010Prop41ColorRGB
 90
        0
102
RTVSPost2010PropOp41
 70
     1
102
RTVSPost2010Prop42
 90
       50
102
RTVSPost2010PropOp42
 70
     1
102
RTVSPost2010Prop43
 90
        3
102
RTVSPost2010PropOp43
 70
     1
102
RTVSPost2010Prop44ColorIndex
 90
        5
102
RTVSPost2010Prop44ColorRGB
 90
      255
102
RTVSPost2010PropOp44
 70
     1
102
RTVSPost2010Prop45
280
     0
102
RTVSPost2010PropOp45
 70
     1
102
RTVSPost2010Prop46
 90
       50
102
RTVSPost2010PropOp46
 70
     1
102
RTVSPost2010Prop47
 90
       50
102
RTVSPost2010PropOp47
 70
     1
102
RTVSPost2010Prop48
 90
       50
102
RTVSPost2010PropOp48
 70
     1
102
RTVSPost2010Prop49
280
     0
102
RTVSPost2010PropOp49
 70
     1
102
RTVSPost2010Prop50
 90
       50
102
RTVSPost2010PropOp50
 70
     1
102
RTVSPost2010Prop51ColorIndex
 90
      256
102
RTVSPost2010Prop51ColorRGB
 90
-16777216
102
RTVSPost2010PropOp51
 70
     0
102
RTVSPost2010Prop52
140
1.0
102
RTVSPost2010PropOp52
 70
     0
102
RTVSPost2010Prop53
 90
        2
102
RTVSPost2010PropOp53
 70
     1
102
RTVSPost2010Prop54
  1
strokes_ogs.tif
102
RTVSPost2010PropOp54
 70
     1
102
RTVSPost2010Prop55
280
     0
102
RTVSPost2010PropOp55
 70
     1
102
RTVSPost2010Prop56
140
1.0
102
RTVSPost2010PropOp56
 70
     1
102
RTVSPost2010Prop57
140
1.0
102
RTVSPost2010PropOp57
 70
     1
102
RTVSPropertyOp0
 70
     1
102
RTVSPropertyOp1
 70
     1
102
RTVSPropertyOp2
 70
     1
102
RTVSPropertyOp3
 70
     1
102
RTVSPropertyOp4
 70
     1
102
RTVSPropertyOp5
 70
     1
102
RTVSPropertyOp6
 70
     1
102
RTVSPropertyOp7
 70
     1
102
RTVSPropertyOp8
 70
     1
102
RTVSPropertyOp9
 70
     1
102
RTVSPropertyOp10
 70
     1
102
RTVSPropertyOp11
 70
     1
102
RTVSPropertyOp12
 70
     1
102
RTVSPropertyOp13
 70
     1
102
RTVSPropertyOp14
 70
     1
102
RTVSPropertyOp15
 70
     1
102
RTVSPropertyOp16
 70
     1
102
RTVSPropertyOp17
 70
     1
102
RTVSPropertyOp18
 70
     1
102
RTVSPropertyOp19
 70
     1
102
RTVSPropertyOp20
 70
     1
102
RTVSPropertyOp21
 70
     1
102
RTVSPropertyOp22
 70
     1
102
RTVSPropertyOp23
 70
     1
102
RTVSPropertyOp24
 70
     1
102
RTVSPropertyOp25
 70
     1
102
RTVSPropertyOp26
 70
     1
102
RTVSPropertyOp27
 70
     1
102
RTVSPropertyOp28
 70
     1
102
RTVSPropertyOp29
 70
     1
102
RTVSPropertyOp30
 70
     1
102
RTVSPropertyOp31
 70
     1
102
RTVSPropertyOp32
 70
     1
102
RTVSPropertyOp33
 70
     1
102
RTVSPropertyOp34
 70
     1
102
RTVSPropertyOp35
 70
     1
102
RTVSPropertyOp36
 70
     1
102
RTVSPropertyOp37
 70
     1
102
RTVSPropertyOp38
 70
     1
102
RTVSPropertyOp39
 70
     1
102
RTVSPropertyOp40
 70
     1
102
RTVSPropertyOp41
 70
     1
102
RTVSPropertyOp42
 70
     1
102
RTVSPropertyOp43
 70
     1
102
RTVSPropertyOp44
 70
     1
102
RTVSPropertyOp45
 70
     1
102
RTVSPropertyOp46
 70
     1
102
RTVSPropertyOp47
 70
     1
102
RTVSPropertyOp48
 70
     1
102
RTVSPropertyOp49
 70
     1
102
RTVSPropertyOp50
 70
     1
102
RTVSPropertyOp51
 70
     0
102
RTVSPropertyOp52
 70
     0
102
RTVSPropertyOp53
 70
     1
102
RTVSPropertyOp54
 70
     1
102
RTVSPropertyOp55
 70
     1
102
RTVSPropertyOp56
 70
     1
102
RTVSPropertyOp57
 70
     1
102
RTVSPropertyOp58
 70
     1
102
RTVSPropertyOp59
 70
     1
102
RTVSPropertyOp60
 70
     1
102
RTVSPropertyOp61
 70
     1
102
RTVSPropertyOp62
 70
     1
  0
XRECORD
  5
9691
102
{ACAD_REACTORS
330
9690
102
}
330
9690
100
AcDbXrecord
280
     1
102
RTVSPost2010Prop28
280
     0
102
RTVSPost2010PropOp28
 70
     1
102
RTVSPost2010Prop29
280
     1
102
RTVSPost2010PropOp29
 70
     1
102
RTVSPost2010Prop30
280
     1
102
RTVSPost2010PropOp30
 70
     1
102
RTVSPost2010Prop31
280
     0
102
RTVSPost2010PropOp31
 70
     1
102
RTVSPost2010Prop32
280
     0
102
RTVSPost2010PropOp32
 70
     1
102
RTVSPost2010Prop33
280
     0
102
RTVSPost2010PropOp33
 70
     1
102
RTVSPost2010Prop34
280
     0
102
RTVSPost2010PropOp34
 70
     1
102
RTVSPost2010Prop35
280
     0
102
RTVSPost2010PropOp35
 70
     1
102
RTVSPost2010Prop36
280
     0
102
RTVSPost2010PropOp36
 70
     1
102
RTVSPost2010Prop37
 90
       50
102
RTVSPost2010PropOp37
 70
     1
102
RTVSPost2010Prop38
140
0.0
102
RTVSPost2010PropOp38
 70
     1
102
RTVSPost2010Prop39
140
1.0
102
RTVSPost2010PropOp39
 70
     1
102
RTVSPost2010Prop40
 90
        0
102
RTVSPost2010PropOp40
 70
     1
102
RTVSPost2010Prop41ColorIndex
 90
       18
102
RTVSPost2010Prop41ColorRGB
 90
        0
102
RTVSPost2010PropOp41
 70
     1
102
RTVSPost2010Prop42
 90
       50
102
RTVSPost2010PropOp42
 70
     1
102
RTVSPost2010Prop43
 90
        3
102
RTVSPost2010PropOp43
 70
     1
102
RTVSPost2010Prop44ColorIndex
 90
        5
102
RTVSPost2010Prop44ColorRGB
 90
      255
102
RTVSPost2010PropOp44
 70
     1
102
RTVSPost2010Prop45
280
     0
102
RTVSPost2010PropOp45
 70
     1
102
RTVSPost2010Prop46
 90
       50
102
RTVSPost2010PropOp46
 70
     1
102
RTVSPost2010Prop47
 90
       50
102
RTVSPost2010PropOp47
 70
     1
102
RTVSPost2010Prop48
 90
       50
102
RTVSPost2010PropOp48
 70
     1
102
RTVSPost2010Prop49
280
     0
102
RTVSPost2010PropOp49
 70
     1
102
RTVSPost2010Prop50
 90
       50
102
RTVSPost2010PropOp50
 70
     1
102
RTVSPost2010Prop51ColorIndex
 90
      256
102
RTVSPost2010Prop51ColorRGB
 90
-16777216
102
RTVSPost2010PropOp51
 70
     0
102
RTVSPost2010Prop52
140
1.0
102
RTVSPost2010PropOp52
 70
     0
102
RTVSPost2010Prop53
 90
        2
102
RTVSPost2010PropOp53
 70
     1
102
RTVSPost2010Prop54
  1
strokes_ogs.tif
102
RTVSPost2010PropOp54
 70
     1
102
RTVSPost2010Prop55
280
     0
102
RTVSPost2010PropOp55
 70
     1
102
RTVSPost2010Prop56
140
1.0
102
RTVSPost2010PropOp56
 70
     1
102
RTVSPost2010Prop57
140
1.0
102
RTVSPost2010PropOp57
 70
     1
102
RTVSPropertyOp0
 70
     1
102
RTVSPropertyOp1
 70
     1
102
RTVSPropertyOp2
 70
     1
102
RTVSPropertyOp3
 70
     1
102
RTVSPropertyOp4
 70
     1
102
RTVSPropertyOp5
 70
     1
102
RTVSPropertyOp6
 70
     1
102
RTVSPropertyOp7
 70
     1
102
RTVSPropertyOp8
 70
     1
102
RTVSPropertyOp9
 70
     1
102
RTVSPropertyOp10
 70
     1
102
RTVSPropertyOp11
 70
     1
102
RTVSPropertyOp12
 70
     1
102
RTVSPropertyOp13
 70
     1
102
RTVSPropertyOp14
 70
     1
102
RTVSPropertyOp15
 70
     1
102
RTVSPropertyOp16
 70
     1
102
RTVSPropertyOp17
 70
     1
102
RTVSPropertyOp18
 70
     1
102
RTVSPropertyOp19
 70
     1
102
RTVSPropertyOp20
 70
     1
102
RTVSPropertyOp21
 70
     1
102
RTVSPropertyOp22
 70
     1
102
RTVSPropertyOp23
 70
     1
102
RTVSPropertyOp24
 70
     1
102
RTVSPropertyOp25
 70
     1
102
RTVSPropertyOp26
 70
     1
102
RTVSPropertyOp27
 70
     1
102
RTVSPropertyOp28
 70
     1
102
RTVSPropertyOp29
 70
     1
102
RTVSPropertyOp30
 70
     1
102
RTVSPropertyOp31
 70
     1
102
RTVSPropertyOp32
 70
     1
102
RTVSPropertyOp33
 70
     1
102
RTVSPropertyOp34
 70
     1
102
RTVSPropertyOp35
 70
     1
102
RTVSPropertyOp36
 70
     1
102
RTVSPropertyOp37
 70
     1
102
RTVSPropertyOp38
 70
     1
102
RTVSPropertyOp39
 70
     1
102
RTVSPropertyOp40
 70
     1
102
RTVSPropertyOp41
 70
     1
102
RTVSPropertyOp42
 70
     1
102
RTVSPropertyOp43
 70
     1
102
RTVSPropertyOp44
 70
     1
102
RTVSPropertyOp45
 70
     1
102
RTVSPropertyOp46
 70
     1
102
RTVSPropertyOp47
 70
     1
102
RTVSPropertyOp48
 70
     1
102
RTVSPropertyOp49
 70
     1
102
RTVSPropertyOp50
 70
     1
102
RTVSPropertyOp51
 70
     0
102
RTVSPropertyOp52
 70
     0
102
RTVSPropertyOp53
 70
     1
102
RTVSPropertyOp54
 70
     1
102
RTVSPropertyOp55
 70
     1
102
RTVSPropertyOp56
 70
     1
102
RTVSPropertyOp57
 70
     1
102
RTVSPropertyOp58
 70
     1
102
RTVSPropertyOp59
 70
     1
102
RTVSPropertyOp60
 70
     1
102
RTVSPropertyOp61
 70
     1
102
RTVSPropertyOp62
 70
     1
  0
ENDSEC
  0
EOF
