  0
SECTION
  2
HEADER
  9
$ACADVER
  1
AC1015
  9
$DWGCODEPAGE
  3
ANSI_932
  9
$LTSCALE
 40
20.0
  9
$FILLMODE
 70
     1
  9
$CLAYER
  8
0
  9
$PDMODE
 70
     0
  9
$SPLFRAME
 70
     0
  9
$SPLINETYPE
 70
     6
  9
$SPLINESEGS
 70
     8
  9
$DIMASZ
 40
2.000000
  9
$DIMEXE
 40
1.500000
  9
$DIMEXO
 40
0.800000
  9
$DIMTAD
 70
     1
  9
$DIMTIH
 70
     0
  9
$DIMTOH
 70
     0
  9
$DIMTVP
 40
0.500000
  9
$DIMTXT
 40
3.100000
  9
$EXTMIN
 10
0.000000
 20
0.000000
 30
0.000000
  9
$EXTMAX
 10
297.000000
 20
420.000000
 30
0.000000
  9
$MEASUREMENT
 70
  1
  9
$LIMMIN
 10
0.000000
 20
0.000000
  9
$LIMMAX
 10
297.000000
 20
420.000000
  9
$HANDSEED
  5
FC
  9
$LWDISPLAY
290
     0
  9
$DIMBLK
  1
_OPEN
  9
$DIMDEC
 70
     2
  9
$DIMADEC
 70
     2
  9
$DIMAUNIT
 70
     0
  9
$DIMZIN
 70
     8
  9
$DIMAZIN
 70
     2
  9
$DIMTOFL
 70
     1
  0
ENDSEC
  0
SECTION
  2
CLASSES
  0
ENDSEC
  0
SECTION
  2
TABLES
  0
TABLE
  2
VPORT
  5
CC
100
AcDbSymbolTable
 70
     1
  0
VPORT
  5
CD
100
AcDbSymbolTableRecord
100
AcDbViewportTableRecord
  2
*ACTIVE
 70
     0
 12
89.698090
 22
88.114500
 40
156.229000
 41
1.059341
  0
ENDTAB
  0
TABLE
  2
LTYPE
  5
CE
100
AcDbSymbolTable
 70
     2
  0
LTYPE
  5
CF
100
AcDbSymbolTableRecord
100
AcDbLinetypeTableRecord
  2
BYBLOCK
 70
     0
  3

 72
    65
 73
     0
 40
0.0
  0
LTYPE
  5
D0
100
AcDbSymbolTableRecord
100
AcDbLinetypeTableRecord
  2
BYLAYER
 70
     0
  3

 72
    65
 73
     0
 40
0.0
  0
LTYPE
  5
D1
100
AcDbSymbolTableRecord
100
AcDbLinetypeTableRecord
  2
CONTINUOUS
 70
     0
  3
Solid line (NEC CAE2D for Win R15.2 : 2020.06.12)
 72
    65
 73
     0
 40
0.0
  0
LTYPE
  5
D2
100
AcDbSymbolTableRecord
100
AcDbLinetypeTableRecord
  2
CENTER
 70
     0
  3
____ _ ____ _ ____ _ ____ _ ____ _ ____
 72
    65
 73
     4
 40
2.0
 49
1.25
 74
     0
 49
-0.25
 74
     0
 49
0.25
 74
     0
 49
-0.25
 74
     0
  0
ENDTAB
  0
TABLE
  2
LAYER
  5
D3
100
AcDbSymbolTable
 70
    10
  0
LAYER
  5
D4
100
AcDbSymbolTableRecord
100
AcDbLayerTableRecord
  2
0
 70
     0
 62
     7
  6
CONTINUOUS
370
    -3
390

  0
LAYER
  5
D5
100
AcDbSymbolTableRecord
100
AcDbLayerTableRecord
  2
DXF0
 70
     0
 62
     7
  6
CONTINUOUS
370
    -3
390

  0
LAYER
  5
D6
100
AcDbSymbolTableRecord
100
AcDbLayerTableRecord
  2
4
 70
     0
 62
     1
  6
CONTINUOUS
370
    -3
390

  0
LAYER
  5
D7
100
AcDbSymbolTableRecord
100
AcDbLayerTableRecord
  2
5
 70
     0
 62
     6
  6
CONTINUOUS
370
    -3
390

  0
LAYER
  5
D8
100
AcDbSymbolTableRecord
100
AcDbLayerTableRecord
  2
1
 70
     0
 62
     7
  6
CONTINUOUS
370
    -3
390

  0
LAYER
  5
D9
100
AcDbSymbolTableRecord
100
AcDbLayerTableRecord
  2
2
 70
     0
 62
     4
  6
CONTINUOUS
370
    -3
390

  0
LAYER
  5
DA
100
AcDbSymbolTableRecord
100
AcDbLayerTableRecord
  2
3
 70
     0
 62
     2
  6
CONTINUOUS
370
    -3
390

  0
LAYER
  5
DB
100
AcDbSymbolTableRecord
100
AcDbLayerTableRecord
  2
6
 70
     0
 62
     5
  6
CONTINUOUS
370
    -3
390

  0
LAYER
  5
DC
100
AcDbSymbolTableRecord
100
AcDbLayerTableRecord
  2
7
 70
     0
 62
     7
  6
CONTINUOUS
370
    -3
390

  0
LAYER
  5
DD
100
AcDbSymbolTableRecord
100
AcDbLayerTableRecord
  2
DXF1023
 70
     0
 62
    16
  6
CONTINUOUS
370
    -3
390

  0
ENDTAB
  0
TABLE
  2
STYLE
  5
DE
100
AcDbSymbolTable
 70
     4
  0
STYLE
  5
DF
100
AcDbSymbolTableRecord
100
AcDbTextStyleTableRecord
  2
STANDARD
 70
    64
 40
0.0
 41
1.0
 50
0.0
 71
     0
 42
3.000000000000000
  3
TXT
  4

  0
STYLE
  5
E0
100
AcDbSymbolTableRecord
100
AcDbTextStyleTableRecord
  2
ANKTATE
 70
    68
 40
0.0
 41
1.0
 50
0.0
 71
     0
 42
3.000000000000000
  3
TXT
  4

  0
STYLE
  5
E1
100
AcDbSymbolTableRecord
100
AcDbTextStyleTableRecord
  2
KNJYOKO
 70
    64
 40
0.0
 41
1.0
 50
0.0
 71
     0
 42
3.000000000000000
  3
TXT
  4
BIGFONT
  0
STYLE
  5
E2
100
AcDbSymbolTableRecord
100
AcDbTextStyleTableRecord
  2
KNJTATE
 70
    68
 40
0.0
 41
1.0
 50
0.0
 71
     0
 42
3.000000000000000
  3
TXT
  4
BIGFONT
  0
ENDTAB
  0
TABLE
  2
VIEW
  5
E3
100
AcDbSymbolTable
 70
     0
  0
ENDTAB
  0
TABLE
  2
UCS
  5
E4
100
AcDbSymbolTable
 70
     0
  0
ENDTAB
  0
TABLE
  2
APPID
  5
E5
100
AcDbSymbolTable
 70
     1
  0
APPID
  5
E6
100
AcDbSymbolTableRecord
100
AcDbRegAppTableRecord
  2
ACAD
 70
     0
  0
ENDTAB
  0
TABLE
  2
DIMSTYLE
  5
E7
100
AcDbSymbolTable
 70
     2
100
AcDbDimStyleTable
  0
DIMSTYLE
105
E8
100
AcDbSymbolTableRecord
100
AcDbDimStyleTableRecord
  2
STANDARD
 70
     0
 41
2.000000
 44
1.500000
 42
0.800000
145
0.661290
140
3.100000
144
1.000000
146
0.645161
340
DF
  0
DIMSTYLE
105
E9
100
AcDbSymbolTableRecord
100
AcDbDimStyleTableRecord
  2
DXF001
 70
     0
 41
2.000000
 44
1.500000
 42
0.800000
145
0.661290
140
3.100000
144
1.000000
146
0.645161
 77
     1
 73
     0
 74
     0
271
     2
179
     2
275
     0
 78
     8
 79
     2
172
     1
340
DF
  0
ENDTAB
  0
TABLE
  2
BLOCK_RECORD
  5
EA
100
AcDbSymbolTable
 70
    12
  0
BLOCK_RECORD
  5
EB
100
AcDbSymbolTableRecord
100
AcDbBlockTableRecord
  2
*MODEL_SPACE
  0
BLOCK_RECORD
  5
EC
100
AcDbSymbolTableRecord
100
AcDbBlockTableRecord
  2
*PAPER_SPACE
  0
BLOCK_RECORD
  5
ED
100
AcDbSymbolTableRecord
100
AcDbBlockTableRecord
  2
*PAPER_SPACE0
  0
BLOCK_RECORD
  5
1
100
AcDbSymbolTableRecord
100
AcDbBlockTableRecord
  2
_NONE
  0
BLOCK_RECORD
  5
4
100
AcDbSymbolTableRecord
100
AcDbBlockTableRecord
  2
_CLOSED
  0
BLOCK_RECORD
  5
B
100
AcDbSymbolTableRecord
100
AcDbBlockTableRecord
  2
_DOT
  0
BLOCK_RECORD
  5
13
100
AcDbSymbolTableRecord
100
AcDbBlockTableRecord
  2
_OPEN
  0
BLOCK_RECORD
  5
19
100
AcDbSymbolTableRecord
100
AcDbBlockTableRecord
  2
_ORIGIN
  0
BLOCK_RECORD
  5
1E
100
AcDbSymbolTableRecord
100
AcDbBlockTableRecord
  2
_OPEN30
  0
BLOCK_RECORD
  5
24
100
AcDbSymbolTableRecord
100
AcDbBlockTableRecord
  2
_BOXFILLED
  0
BLOCK_RECORD
  5
29
100
AcDbSymbolTableRecord
100
AcDbBlockTableRecord
  2
_BOXBLANK
  0
BLOCK_RECORD
  5
31
100
AcDbSymbolTableRecord
100
AcDbBlockTableRecord
  2
_OBLIQUE
  0
BLOCK_RECORD
  5
35
100
AcDbSymbolTableRecord
100
AcDbBlockTableRecord
  2
_OPEN90
  0
BLOCK_RECORD
  5
3B
100
AcDbSymbolTableRecord
100
AcDbBlockTableRecord
  2
_CLOSEDBLANK
  0
BLOCK_RECORD
  5
41
100
AcDbSymbolTableRecord
100
AcDbBlockTableRecord
  2
_DOTBLANK
  0
ENDTAB
  0
ENDSEC
  0
SECTION
  2
BLOCKS
  0
BLOCK
  5
EE
100
AcDbEntity
  8
0
100
AcDbBlockBegin
  2
*MODEL_SPACE
 70
     0
 10
0.0
 20
0.0
 30
0.0
  3
*MODEL_SPACE
  1

  0
ENDBLK
  5
EF
100
AcDbEntity
  8
0
100
AcDbBlockEnd
  0
BLOCK
  5
F0
100
AcDbEntity
  8
0
100
AcDbBlockBegin
  2
*PAPER_SPACE
 70
     0
 10
0.0
 20
0.0
 30
0.0
  3
*PAPER_SPACE
  1

  0
ENDBLK
  5
F1
100
AcDbEntity
  8
0
100
AcDbBlockEnd
  0
BLOCK
  5
F2
100
AcDbEntity
  8
0
100
AcDbBlockBegin
  2
*PAPER_SPACE0
 70
     0
 10
0.0
 20
0.0
 30
0.0
  3
*PAPER_SPACE0
  1

  0
ENDBLK
  5
F3
100
AcDbEntity
  8
0
100
AcDbBlockEnd
  0
BLOCK
  5
2
330
1
100
AcDbEntity
  8
0
100
AcDbBlockBegin
  2
_NONE
 70
     0
 10
0.0
 20
0.0
 30
0.0
  3
_NONE
  1

  0
ENDBLK
  5
3
330
1
100
AcDbEntity
  8
0
100
AcDbBlockEnd
  0
BLOCK
  5
5
330
4
100
AcDbEntity
  8
0
100
AcDbBlockBegin
  2
_CLOSED
 70
     0
 10
0.0
 20
0.0
 30
0.0
  3
_CLOSED
  1

  0
LINE
  5
6
330
4
100
AcDbEntity
  8
0
  6
BYBLOCK
 62
     0
370
    -2
100
AcDbLine
 10
-1.0
 20
0.166667
 30
0.0
 11
0.0
 21
0.0
 31
0.0
  0
LINE
  5
7
330
4
100
AcDbEntity
  8
0
  6
BYBLOCK
 62
     0
370
    -2
100
AcDbLine
 10
0.0
 20
0.0
 30
0.0
 11
-1.0
 21
-0.166667
 31
0.0
  0
LINE
  5
8
330
4
100
AcDbEntity
  8
0
  6
BYBLOCK
 62
     0
370
    -2
100
AcDbLine
 10
-1.0
 20
0.166667
 30
0.0
 11
-1.0
 21
-0.166667
 31
0.0
  0
LINE
  5
9
330
4
100
AcDbEntity
  8
0
  6
BYBLOCK
 62
     0
370
    -2
100
AcDbLine
 10
0.0
 20
0.0
 30
0.0
 11
-1.0
 21
0.0
 31
0.0
  0
ENDBLK
  5
A
330
4
100
AcDbEntity
  8
0
100
AcDbBlockEnd
  0
BLOCK
  5
C
330
B
100
AcDbEntity
  8
0
100
AcDbBlockBegin
  2
_DOT
 70
     0
 10
0.0
 20
0.0
 30
0.0
  3
_DOT
  1

  0
POLYLINE
  5
D
330
B
100
AcDbEntity
  8
0
  6
BYBLOCK
 62
     0
370
    -2
100
AcDb2dPolyline
 66
     1
 10
0.0
 20
0.0
 30
0.0
 70
     1
 40
0.5
 41
0.5
  0
VERTEX
  5
E
330
B
100
AcDbEntity
  8
0
  6
BYBLOCK
 62
     0
370
    -2
100
AcDbVertex
100
AcDb2dVertex
 10
-0.25
 20
0.0
 30
0.0
 42
1.0
  0
VERTEX
  5
F
330
B
100
AcDbEntity
  8
0
  6
BYBLOCK
 62
     0
370
    -2
100
AcDbVertex
100
AcDb2dVertex
 10
0.25
 20
0.0
 30
0.0
 42
1.0
  0
SEQEND
  5
10
330
B
100
AcDbEntity
  8
0
  6
BYBLOCK
 62
     0
370
    -2
  0
LINE
  5
11
330
B
100
AcDbEntity
  8
0
  6
BYBLOCK
 62
     0
370
    -2
100
AcDbLine
 10
-0.5
 20
0.0
 30
0.0
 11
-1.0
 21
0.0
 31
0.0
  0
ENDBLK
  5
12
330
B
100
AcDbEntity
  8
0
100
AcDbBlockEnd
  0
BLOCK
  5
14
330
13
100
AcDbEntity
  8
0
100
AcDbBlockBegin
  2
_OPEN
 70
     0
 10
0.0
 20
0.0
 30
0.0
  3
_OPEN
  1

  0
LINE
  5
15
330
13
100
AcDbEntity
  8
0
  6
BYBLOCK
 62
     0
370
    -2
100
AcDbLine
 10
-1.0
 20
0.166667
 30
0.0
 11
0.0
 21
0.0
 31
0.0
  0
LINE
  5
16
330
13
100
AcDbEntity
  8
0
  6
BYBLOCK
 62
     0
370
    -2
100
AcDbLine
 10
0.0
 20
0.0
 30
0.0
 11
-1.0
 21
-0.166667
 31
0.0
  0
LINE
  5
17
330
13
100
AcDbEntity
  8
0
  6
BYBLOCK
 62
     0
370
    -2
100
AcDbLine
 10
0.0
 20
0.0
 30
0.0
 11
-1.0
 21
0.0
 31
0.0
  0
ENDBLK
  5
18
330
13
100
AcDbEntity
  8
0
100
AcDbBlockEnd
  0
BLOCK
  5
1A
330
19
100
AcDbEntity
  8
0
100
AcDbBlockBegin
  2
_ORIGIN
 70
     0
 10
0.0
 20
0.0
 30
0.0
  3
_ORIGIN
  1

  0
CIRCLE
  5
1B
330
19
100
AcDbEntity
  8
0
  6
BYBLOCK
 62
     0
370
    -2
100
AcDbCircle
 10
0.0
 20
0.0
 30
0.0
 40
0.5
  0
LINE
  5
1C
330
19
100
AcDbEntity
  8
0
  6
BYBLOCK
 62
     0
370
    -2
100
AcDbLine
 10
0.0
 20
0.0
 30
0.0
 11
-1.0
 21
0.0
 31
0.0
  0
ENDBLK
  5
1D
330
19
100
AcDbEntity
  8
0
100
AcDbBlockEnd
  0
BLOCK
  5
1F
330
1E
100
AcDbEntity
  8
0
100
AcDbBlockBegin
  2
_OPEN30
 70
     0
 10
0.0
 20
0.0
 30
0.0
  3
_OPEN30
  1

  0
LINE
  5
20
330
1E
100
AcDbEntity
  8
0
  6
BYBLOCK
 62
     0
370
    -2
100
AcDbLine
 10
-1.0
 20
0.267949
 30
0.0
 11
0.0
 21
0.0
 31
0.0
  0
LINE
  5
21
330
1E
100
AcDbEntity
  8
0
  6
BYBLOCK
 62
     0
370
    -2
100
AcDbLine
 10
0.0
 20
0.0
 30
0.0
 11
-1.0
 21
-0.267949
 31
0.0
  0
LINE
  5
22
330
1E
100
AcDbEntity
  8
0
  6
BYBLOCK
 62
     0
370
    -2
100
AcDbLine
 10
0.0
 20
0.0
 30
0.0
 11
-1.0
 21
0.0
 31
0.0
  0
ENDBLK
  5
23
330
1E
100
AcDbEntity
  8
0
100
AcDbBlockEnd
  0
BLOCK
  5
25
330
24
100
AcDbEntity
  8
0
100
AcDbBlockBegin
  2
_BOXFILLED
 70
     0
 10
0.0
 20
0.0
 30
0.0
  3
_BOXFILLED
  1

  0
SOLID
  5
26
330
24
100
AcDbEntity
  8
0
  6
BYBLOCK
 62
     0
370
    -2
100
AcDbTrace
 10
-0.5
 20
0.5
 30
0.0
 11
0.5
 21
0.5
 31
0.0
 12
-0.5
 22
-0.5
 32
0.0
 13
0.5
 23
-0.5
 33
0.0
  0
LINE
  5
27
330
24
100
AcDbEntity
  8
0
  6
BYBLOCK
 62
     0
370
    -2
100
AcDbLine
 10
-0.5
 20
0.0
 30
0.0
 11
-1.0
 21
0.0
 31
0.0
  0
ENDBLK
  5
28
330
24
100
AcDbEntity
  8
0
100
AcDbBlockEnd
  0
BLOCK
  5
2A
330
29
100
AcDbEntity
  8
0
100
AcDbBlockBegin
  2
_BOXBLANK
 70
     0
 10
0.0
 20
0.0
 30
0.0
  3
_BOXBLANK
  1

  0
LINE
  5
2B
330
29
100
AcDbEntity
  8
0
  6
BYBLOCK
 62
     0
370
    -2
100
AcDbLine
 10
-0.5
 20
-0.5
 30
0.0
 11
0.5
 21
-0.5
 31
0.0
  0
LINE
  5
2C
330
29
100
AcDbEntity
  8
0
  6
BYBLOCK
 62
     0
370
    -2
100
AcDbLine
 10
0.5
 20
-0.5
 30
0.0
 11
0.5
 21
0.5
 31
0.0
  0
LINE
  5
2D
330
29
100
AcDbEntity
  8
0
  6
BYBLOCK
 62
     0
370
    -2
100
AcDbLine
 10
0.5
 20
0.5
 30
0.0
 11
-0.5
 21
0.5
 31
0.0
  0
LINE
  5
2E
330
29
100
AcDbEntity
  8
0
  6
BYBLOCK
 62
     0
370
    -2
100
AcDbLine
 10
-0.5
 20
0.5
 30
0.0
 11
-0.5
 21
-0.5
 31
0.0
  0
LINE
  5
2F
330
29
100
AcDbEntity
  8
0
  6
BYBLOCK
 62
     0
370
    -2
100
AcDbLine
 10
-0.5
 20
0.0
 30
0.0
 11
-1.0
 21
0.0
 31
0.0
  0
ENDBLK
  5
30
330
29
100
AcDbEntity
  8
0
100
AcDbBlockEnd
  0
BLOCK
  5
32
330
31
100
AcDbEntity
  8
0
100
AcDbBlockBegin
  2
_OBLIQUE
 70
     0
 10
0.0
 20
0.0
 30
0.0
  3
_OBLIQUE
  1

  0
LINE
  5
33
330
31
100
AcDbEntity
  8
0
  6
BYBLOCK
 62
     0
370
    -2
100
AcDbLine
 10
-0.5
 20
-0.5
 30
0.0
 11
0.5
 21
0.5
 31
0.0
  0
ENDBLK
  5
34
330
31
100
AcDbEntity
  8
0
100
AcDbBlockEnd
  0
BLOCK
  5
36
330
35
100
AcDbEntity
  8
0
100
AcDbBlockBegin
  2
_OPEN90
 70
     0
 10
0.0
 20
0.0
 30
0.0
  3
_OPEN90
  1

  0
LINE
  5
37
330
35
100
AcDbEntity
  8
0
  6
BYBLOCK
 62
     0
370
    -2
100
AcDbLine
 10
-0.5
 20
0.5
 30
0.0
 11
0.0
 21
0.0
 31
0.0
  0
LINE
  5
38
330
35
100
AcDbEntity
  8
0
  6
BYBLOCK
 62
     0
370
    -2
100
AcDbLine
 10
0.0
 20
0.0
 30
0.0
 11
-0.5
 21
-0.5
 31
0.0
  0
LINE
  5
39
330
35
100
AcDbEntity
  8
0
  6
BYBLOCK
 62
     0
370
    -2
100
AcDbLine
 10
0.0
 20
0.0
 30
0.0
 11
-1.0
 21
0.0
 31
0.0
  0
ENDBLK
  5
3A
330
35
100
AcDbEntity
  8
0
100
AcDbBlockEnd
  0
BLOCK
  5
3C
330
3B
100
AcDbEntity
  8
0
100
AcDbBlockBegin
  2
_CLOSEDBLANK
 70
     0
 10
0.0
 20
0.0
 30
0.0
  3
_CLOSEDBLANK
  1

  0
LINE
  5
3D
330
3B
100
AcDbEntity
  8
0
  6
BYBLOCK
 62
     0
370
    -2
100
AcDbLine
 10
-1.0
 20
0.1666666666666666
 30
0.0
 11
0.0
 21
0.0
 31
0.0
  0
LINE
  5
3E
330
3B
100
AcDbEntity
  8
0
  6
BYBLOCK
 62
     0
370
    -2
100
AcDbLine
 10
0.0
 20
0.0
 30
0.0
 11
-1.0
 21
-0.1666666666666666
 31
0.0
  0
LINE
  5
3F
330
3B
100
AcDbEntity
  8
0
  6
BYBLOCK
 62
     0
370
    -2
100
AcDbLine
 10
-1.0
 20
0.1666666666666666
 30
0.0
 11
-1.0
 21
-0.1666666666666666
 31
0.0
  0
ENDBLK
  5
40
330
3B
100
AcDbEntity
  8
0
100
AcDbBlockEnd
  0
BLOCK
  5
42
330
41
100
AcDbEntity
  8
0
100
AcDbBlockBegin
  2
_DOTBLANK
 70
     0
 10
0.0
 20
0.0
 30
0.0
  3
_DOTBLANK
  1

  0
CIRCLE
  5
43
330
41
100
AcDbEntity
  8
0
  6
BYBLOCK
 62
     0
370
    -2
100
AcDbCircle
 10
0.0
 20
0.0
 30
0.0
 40
0.5
  0
LINE
  5
44
330
41
100
AcDbEntity
  8
0
  6
BYBLOCK
 62
     0
370
    -2
100
AcDbLine
 10
-0.5
 20
0.0
 30
0.0
 11
-1.0
 21
0.0
 31
0.0
  0
ENDBLK
  5
45
330
41
100
AcDbEntity
  8
0
100
AcDbBlockEnd
  0
ENDSEC
  0
SECTION
  2
ENTITIES
  0
MTEXT
  5
46
100
AcDbEntity
  8
7
  6
CONTINUOUS
 62
7
100
AcDbMText
 10
10.00000000000000
 20
18.00000000000000
 30
0.0000000000000000
 40
3.000000000000000
 41
0.0000000000000000
 44
0.6739999771118164
 71
     7
 72
     1
  1
{\H0.93x;{TYPE No.THA-189S}}
 11
1.000000000000000
 21
0.0000000000000000
 31
0.0000000000000000
  7
STANDARD
  0
LINE
  5
47
100
AcDbEntity
  8
1
  6
CONTINUOUS
 62
7
100
AcDbLine
 10
11.90560000000000
 20
118.7289999999999
 30
0.0000000000000000
 11
119.9910000000000
 21
118.7289999999999
 31
0.0000000000000000
  0
LINE
  5
48
100
AcDbEntity
  8
1
  6
CONTINUOUS
 62
7
100
AcDbLine
 10
9.948180000000001
 20
95.72869999999999
 30
0.0000000000000000
 11
19.94819999999998
 21
95.72869999999999
 31
0.0000000000000000
  0
LINE
  5
49
100
AcDbEntity
  8
1
  6
CONTINUOUS
 62
7
100
AcDbLine
 10
23.32209999999999
 20
114.2290000000000
 30
0.0000000000000000
 11
108.5739999999999
 21
114.2290000000000
 31
0.0000000000000000
  0
LINE
  5
4A
100
AcDbEntity
  8
4
  6
CENTER
 62
1
100
AcDbLine
 10
65.94820000000000
 20
121.7289999999999
 30
0.0000000000000000
 11
65.94820000000000
 21
111.2290000000000
 31
0.0000000000000000
  0
LINE
  5
4B
100
AcDbEntity
  8
1
  6
CONTINUOUS
 62
7
100
AcDbLine
 10
120.9899999999999
 20
117.7720000000000
 30
0.0000000000000000
 11
121.9479999999998
 21
95.72869999999999
 31
0.0000000000000000
  0
LINE
  5
4C
100
AcDbEntity
  8
1
  6
CONTINUOUS
 62
7
100
AcDbLine
 10
10.90659999999999
 20
117.7720000000000
 30
0.0000000000000000
 11
9.948180000000001
 21
95.72869999999999
 31
0.0000000000000000
  0
LINE
  5
4D
100
AcDbEntity
  8
1
  6
CONTINUOUS
 62
7
100
AcDbLine
 10
109.5650000000000
 20
113.3629999999999
 30
0.0000000000000000
 11
111.9480000000000
 21
95.72870000000002
 31
0.0000000000000000
  0
LINE
  5
4E
100
AcDbEntity
  8
1
  6
CONTINUOUS
 62
7
100
AcDbLine
 10
22.33109999999998
 20
113.3629999999999
 30
0.0000000000000000
 11
19.94819999999998
 21
95.72869999999998
 31
0.0000000000000000
  0
LINE
  5
4F
100
AcDbEntity
  8
1
  6
CONTINUOUS
 62
7
100
AcDbLine
 10
111.9480000000000
 20
95.72869999999999
 30
0.0000000000000000
 11
121.9479999999998
 21
95.72869999999999
 31
0.0000000000000000
  0
LINE
  5
50
100
AcDbEntity
  8
4
  6
CENTER
 62
1
100
AcDbLine
 10
116.9479999999998
 20
98.72870000000000
 30
0.0000000000000000
 11
116.9479999999998
 21
92.72870000000000
 31
0.0000000000000000
  0
LINE
  5
51
100
AcDbEntity
  8
4
  6
CENTER
 62
1
100
AcDbLine
 10
14.94819999999998
 20
98.72870000000000
 30
0.0000000000000000
 11
14.94819999999998
 21
92.72870000000000
 31
0.0000000000000000
  0
LINE
  5
52
100
AcDbEntity
  8
1
  6
CONTINUOUS
 62
7
100
AcDbLine
 10
162.9269999999999
 20
118.7289999999999
 30
0.0000000000000000
 11
170.9689999999999
 21
118.7289999999999
 31
0.0000000000000000
  0
LINE
  5
53
100
AcDbEntity
  8
1
  6
CONTINUOUS
 62
7
100
AcDbLine
 10
161.4479999999998
 20
95.72869999999999
 30
0.0000000000000000
 11
172.4479999999998
 21
95.72869999999999
 31
0.0000000000000000
  0
LINE
  5
54
100
AcDbEntity
  8
4
  6
CENTER
 62
1
100
AcDbLine
 10
166.9479999999998
 20
121.7289999999999
 30
0.0000000000000000
 11
166.9479999999998
 21
92.72870000000000
 31
0.0000000000000000
  0
LINE
  5
55
100
AcDbEntity
  8
1
  6
CONTINUOUS
 62
7
100
AcDbLine
 10
161.4479999999998
 20
95.72869999999998
 30
0.0000000000000000
 11
162.4269999999999
 21
118.2500000000000
 31
0.0000000000000000
  0
LINE
  5
56
100
AcDbEntity
  8
1
  6
CONTINUOUS
 62
7
100
AcDbLine
 10
171.4690000000000
 20
118.2500000000000
 30
0.0000000000000000
 11
172.4479999999998
 21
95.72870000000000
 31
0.0000000000000000
  0
LINE
  5
57
100
AcDbEntity
  8
4
  6
CENTER
 62
1
100
AcDbLine
 10
6.948179999999998
 20
158.7289999999998
 30
0.0000000000000000
 11
124.9479999999998
 21
158.7289999999998
 31
0.0000000000000000
  0
LINE
  5
58
100
AcDbEntity
  8
1
  6
CONTINUOUS
 62
7
100
AcDbLine
 10
10.44820000000000
 20
153.2289999999998
 30
0.0000000000000000
 11
19.17709999999998
 21
153.2289999999998
 31
0.0000000000000000
  0
LINE
  5
59
100
AcDbEntity
  8
1
  6
CONTINUOUS
 62
7
100
AcDbLine
 10
10.44820000000000
 20
164.2290000000000
 30
0.0000000000000000
 11
19.17709999999998
 21
164.2290000000000
 31
0.0000000000000000
  0
LINE
  5
5A
100
AcDbEntity
  8
1
  6
CONTINUOUS
 62
7
100
AcDbLine
 10
9.948180000000001
 20
163.7289999999999
 30
0.0000000000000000
 11
9.948180000000001
 21
153.7289999999998
 31
0.0000000000000000
  0
LINE
  5
5B
100
AcDbEntity
  8
1
  6
CONTINUOUS
 62
7
100
AcDbLine
 10
11.44819999999998
 20
163.2289999999999
 30
0.0000000000000000
 11
120.4479999999998
 21
163.2289999999999
 31
0.0000000000000000
  0
LINE
  5
5C
100
AcDbEntity
  8
1
  6
CONTINUOUS
 62
7
100
AcDbLine
 10
11.44819999999998
 20
154.2289999999999
 30
0.0000000000000000
 11
120.4479999999998
 21
154.2289999999999
 31
0.0000000000000000
  0
LINE
  5
5D
100
AcDbEntity
  8
1
  6
CONTINUOUS
 62
7
100
AcDbLine
 10
19.17709999999998
 20
153.2289999999998
 30
0.0000000000000000
 11
21.93540000000002
 21
154.2289999999999
 31
0.0000000000000000
  0
LINE
  5
5E
100
AcDbEntity
  8
1
  6
CONTINUOUS
 62
7
100
AcDbLine
 10
21.93540000000000
 20
163.2289999999999
 30
0.0000000000000000
 11
19.17709999999999
 21
164.2290000000000
 31
0.0000000000000000
  0
LINE
  5
5F
100
AcDbEntity
  8
4
  6
CENTER
 62
1
100
AcDbLine
 10
65.94820000000000
 20
166.2290000000000
 30
0.0000000000000000
 11
65.94820000000000
 21
151.2289999999999
 31
0.0000000000000000
  0
LINE
  5
60
100
AcDbEntity
  8
1
  6
CONTINUOUS
 62
7
100
AcDbLine
 10
121.4480000000000
 20
153.2289999999998
 30
0.0000000000000000
 11
112.7189999999998
 21
153.2289999999998
 31
0.0000000000000000
  0
LINE
  5
61
100
AcDbEntity
  8
1
  6
CONTINUOUS
 62
7
100
AcDbLine
 10
121.4480000000000
 20
164.2290000000000
 30
0.0000000000000000
 11
112.7189999999998
 21
164.2290000000000
 31
0.0000000000000000
  0
LINE
  5
62
100
AcDbEntity
  8
1
  6
CONTINUOUS
 62
7
100
AcDbLine
 10
121.9479999999998
 20
163.7289999999999
 30
0.0000000000000000
 11
121.9479999999998
 21
153.7289999999998
 31
0.0000000000000000
  0
LINE
  5
63
100
AcDbEntity
  8
1
  6
CONTINUOUS
 62
7
100
AcDbLine
 10
109.9609999999999
 20
163.2289999999999
 30
0.0000000000000000
 11
112.7189999999998
 21
164.2290000000000
 31
0.0000000000000000
  0
LINE
  5
64
100
AcDbEntity
  8
1
  6
CONTINUOUS
 62
7
100
AcDbLine
 10
112.7189999999998
 20
153.2289999999998
 30
0.0000000000000000
 11
109.9609999999999
 21
154.2289999999999
 31
0.0000000000000000
  0
LINE
  5
65
100
AcDbEntity
  8
4
  6
CENTER
 62
1
100
AcDbLine
 10
6.948179999999998
 20
48.72870000000000
 30
0.0000000000000000
 11
124.9479999999998
 21
48.72870000000000
 31
0.0000000000000000
  0
LINE
  5
66
100
AcDbEntity
  8
1
  6
CONTINUOUS
 62
7
100
AcDbLine
 10
10.44820000000000
 20
43.22870000000000
 30
0.0000000000000000
 11
18.79629999999998
 21
43.22870000000000
 31
0.0000000000000000
  0
LINE
  5
67
100
AcDbEntity
  8
1
  6
CONTINUOUS
 62
7
100
AcDbLine
 10
10.44820000000000
 20
54.22870000000000
 30
0.0000000000000000
 11
18.79629999999998
 21
54.22870000000000
 31
0.0000000000000000
  0
LINE
  5
68
100
AcDbEntity
  8
1
  6
CONTINUOUS
 62
7
100
AcDbLine
 10
9.948180000000001
 20
53.72870000000000
 30
0.0000000000000000
 11
9.948180000000001
 21
43.72870000000000
 31
0.0000000000000000
  0
LINE
  5
69
100
AcDbEntity
  8
1
  6
CONTINUOUS
 62
7
100
AcDbLine
 10
21.93540000000000
 20
53.22870000000000
 30
0.0000000000000000
 11
109.9609999999999
 21
53.22870000000000
 31
0.0000000000000000
  0
LINE
  5
6A
100
AcDbEntity
  8
1
  6
CONTINUOUS
 62
7
100
AcDbLine
 10
21.93540000000000
 20
44.22870000000000
 30
0.0000000000000000
 11
109.9609999999999
 21
44.22870000000000
 31
0.0000000000000000
  0
LINE
  5
6B
100
AcDbEntity
  8
4
  6
CENTER
 62
1
100
AcDbLine
 10
65.94820000000000
 20
56.22870000000000
 30
0.0000000000000000
 11
65.94820000000000
 21
41.22870000000000
 31
0.0000000000000000
  0
LINE
  5
6C
100
AcDbEntity
  8
1
  6
CONTINUOUS
 62
7
100
AcDbLine
 10
121.4480000000000
 20
43.22870000000000
 30
0.0000000000000000
 11
113.1000000000000
 21
43.22870000000000
 31
0.0000000000000000
  0
LINE
  5
6D
100
AcDbEntity
  8
1
  6
CONTINUOUS
 62
7
100
AcDbLine
 10
121.4480000000000
 20
54.22870000000000
 30
0.0000000000000000
 11
113.1000000000000
 21
54.22870000000000
 31
0.0000000000000000
  0
LINE
  5
6E
100
AcDbEntity
  8
1
  6
CONTINUOUS
 62
7
100
AcDbLine
 10
121.9479999999998
 20
53.72870000000000
 30
0.0000000000000000
 11
121.9479999999998
 21
43.72870000000000
 31
0.0000000000000000
  0
LINE
  5
6F
100
AcDbEntity
  8
4
  6
CENTER
 62
1
100
AcDbLine
 10
14.94819999999998
 20
54.22870000000000
 30
0.0000000000000000
 11
14.94819999999998
 21
43.22870000000000
 31
0.0000000000000000
  0
LINE
  5
70
100
AcDbEntity
  8
4
  6
CENTER
 62
1
100
AcDbLine
 10
116.9479999999998
 20
54.22870000000000
 30
0.0000000000000000
 11
116.9479999999998
 21
43.22870000000000
 31
0.0000000000000000
  0
LINE
  5
71
100
AcDbEntity
  8
1
  6
CONTINUOUS
 62
7
100
AcDbLine
 10
19.17820000000000
 20
95.72869999999999
 30
0.0000000000000000
 11
21.56820000000000
 21
113.4650000000000
 31
0.0000000000000000
  0
LINE
  5
72
100
AcDbEntity
  8
1
  6
CONTINUOUS
 62
7
100
AcDbLine
 10
23.32209999999999
 20
114.9990000000000
 30
0.0000000000000000
 11
108.5669999999999
 21
114.9990000000000
 31
0.0000000000000000
  0
LINE
  5
73
100
AcDbEntity
  8
1
  6
CONTINUOUS
 62
7
100
AcDbLine
 10
110.3210000000000
 20
113.4660000000000
 30
0.0000000000000000
 11
112.7179999999998
 21
95.72870000000000
 31
0.0000000000000000
  0
LINE
  5
74
100
AcDbEntity
  8
1
  6
CONTINUOUS
 62
7
100
AcDbLine
 10
10.94820000000000
 20
162.7289999999999
 30
0.0000000000000000
 11
10.94820000000000
 21
154.7289999999998
 31
0.0000000000000000
  0
LINE
  5
75
100
AcDbEntity
  8
1
  6
CONTINUOUS
 62
7
100
AcDbLine
 10
120.9479999999998
 20
162.7289999999999
 30
0.0000000000000000
 11
120.9479999999998
 21
154.7289999999998
 31
0.0000000000000000
  0
LINE
  5
76
100
AcDbEntity
  8
1
  6
CONTINUOUS
 62
7
100
AcDbLine
 10
64.28160000000000
 20
46.65550000000000
 30
0.0000000000000000
 11
64.28160000000000
 21
47.92889999999998
 31
0.0000000000000000
  0
LINE
  5
77
100
AcDbEntity
  8
1
  6
CONTINUOUS
 62
7
100
AcDbLine
 10
62.28139999999999
 20
47.49860000000000
 30
0.0000000000000000
 11
62.28139999999999
 21
49.95750000000001
 31
0.0000000000000000
  0
LINE
  5
78
100
AcDbEntity
  8
1
  6
CONTINUOUS
 62
7
100
AcDbLine
 10
62.94859999999999
 20
50.37300000000000
 30
0.0000000000000000
 11
62.94859999999999
 21
47.08450000000000
 31
0.0000000000000000
  0
LINE
  5
79
100
AcDbEntity
  8
1
  6
CONTINUOUS
 62
7
100
AcDbLine
 10
63.61440000000000
 20
50.45960000000000
 30
0.0000000000000000
 11
63.61440000000000
 21
46.99650000000000
 31
0.0000000000000000
  0
LINE
  5
7A
100
AcDbEntity
  8
1
  6
CONTINUOUS
 62
7
100
AcDbLine
 10
61.61430000000000
 20
50.55699999999998
 30
0.0000000000000000
 11
61.61430000000000
 21
47.68260000000000
 31
0.0000000000000000
  0
LINE
  5
7B
100
AcDbEntity
  8
1
  6
CONTINUOUS
 62
7
100
AcDbLine
 10
64.28160000000000
 20
49.52850000000000
 30
0.0000000000000000
 11
64.28160000000000
 21
50.80060000000000
 31
0.0000000000000000
  0
LINE
  5
7C
100
AcDbEntity
  8
1
  6
CONTINUOUS
 62
7
100
AcDbLine
 10
67.61480000000000
 20
46.84630000000000
 30
0.0000000000000000
 11
67.61480000000000
 21
48.72870000000000
 31
0.0000000000000000
  0
LINE
  5
7D
100
AcDbEntity
  8
1
  6
CONTINUOUS
 62
7
100
AcDbLine
 10
69.28070000000000
 20
48.72870000000000
 30
0.0000000000000000
 11
69.28070000000000
 21
47.12909999999999
 31
0.0000000000000000
  0
LINE
  5
7E
100
AcDbEntity
  8
1
  6
CONTINUOUS
 62
7
100
AcDbLine
 10
65.61460000000000
 20
48.72870000000000
 30
0.0000000000000000
 11
64.94740000000000
 21
48.72870000000000
 31
0.0000000000000000
  0
LINE
  5
7F
100
AcDbEntity
  8
1
  6
CONTINUOUS
 62
7
100
AcDbLine
 10
67.61480000000000
 20
48.72870000000000
 30
0.0000000000000000
 11
67.28050000000000
 21
48.72870000000000
 31
0.0000000000000000
  0
LINE
  5
80
100
AcDbEntity
  8
1
  6
CONTINUOUS
 62
7
100
AcDbLine
 10
71.66520000000000
 20
48.72870000000000
 30
0.0000000000000000
 11
70.28749999999999
 21
48.72870000000000
 31
0.0000000000000000
  0
LINE
  5
81
100
AcDbEntity
  8
1
  6
CONTINUOUS
 62
7
100
AcDbLine
 10
69.95329999999998
 20
47.48099999999997
 30
0.0000000000000000
 11
70.70710000000000
 21
50.29039999999999
 31
0.0000000000000000
  0
LINE
  5
82
100
AcDbEntity
  8
1
  6
CONTINUOUS
 62
7
100
AcDbLine
 10
64.94740000000000
 20
50.99820000000000
 30
0.0000000000000000
 11
64.94740000000000
 21
46.45790000000000
 31
0.0000000000000000
  0
LINE
  5
83
100
AcDbEntity
  8
1
  6
CONTINUOUS
 62
7
100
AcDbLine
 10
65.61460000000000
 20
51.05370000000000
 30
0.0000000000000000
 11
65.61460000000000
 21
46.40240000000000
 31
0.0000000000000000
  0
LINE
  5
84
100
AcDbEntity
  8
1
  6
CONTINUOUS
 62
7
100
AcDbLine
 10
66.28180000000000
 20
51.05370000000000
 30
0.0000000000000000
 11
66.28180000000000
 21
46.40240000000000
 31
0.0000000000000000
  0
LINE
  5
85
100
AcDbEntity
  8
1
  6
CONTINUOUS
 62
7
100
AcDbLine
 10
66.94759999999999
 20
50.92240000000000
 30
0.0000000000000000
 11
66.94759999999999
 21
46.53370000000000
 31
0.0000000000000000
  0
LINE
  5
86
100
AcDbEntity
  8
1
  6
CONTINUOUS
 62
7
100
AcDbLine
 10
68.28060000000001
 20
50.91969999999999
 30
0.0000000000000000
 11
68.28060000000001
 21
46.74610000000000
 31
0.0000000000000000
  0
LINE
  5
87
100
AcDbEntity
  8
1
  6
CONTINUOUS
 62
7
100
AcDbLine
 10
67.61480000000000
 20
49.52850000000000
 30
0.0000000000000000
 11
67.61480000000000
 21
50.60980000000000
 31
0.0000000000000000
  0
LINE
  5
88
100
AcDbEntity
  8
1
  6
CONTINUOUS
 62
7
100
AcDbLine
 10
68.94780000000000
 20
50.60580000000000
 30
0.0000000000000000
 11
68.94780000000000
 21
49.06159999999999
 31
0.0000000000000000
  0
LINE
  5
89
100
AcDbEntity
  8
1
  6
CONTINUOUS
 62
7
100
AcDbLine
 10
69.61360000000001
 20
49.06159999999999
 30
0.0000000000000000
 11
69.61360000000001
 21
50.48530000000000
 31
0.0000000000000000
  0
LINE
  5
8A
100
AcDbEntity
  8
4
  6
CENTER
 62
1
100
AcDbLine
 10
116.9479999999998
 20
166.2290000000000
 30
0.0000000000000000
 11
116.9479999999998
 21
151.2289999999999
 31
0.0000000000000000
  0
LINE
  5
8B
100
AcDbEntity
  8
4
  6
CENTER
 62
1
100
AcDbLine
 10
14.94819999999998
 20
166.2290000000000
 30
0.0000000000000000
 11
14.94819999999998
 21
151.2289999999999
 31
0.0000000000000000
  0
LINE
  5
8C
100
AcDbEntity
  8
1
  6
CONTINUOUS
 62
7
100
AcDbLine
 10
21.93540000000000
 20
53.22870000000000
 30
0.0000000000000000
 11
18.95159999999998
 21
54.20399999999999
 31
0.0000000000000000
  0
LINE
  5
8D
100
AcDbEntity
  8
1
  6
CONTINUOUS
 62
7
100
AcDbLine
 10
21.93540000000000
 20
44.22870000000000
 30
0.0000000000000000
 11
18.95159999999998
 21
43.25350000000000
 31
0.0000000000000000
  0
LINE
  5
8E
100
AcDbEntity
  8
1
  6
CONTINUOUS
 62
7
100
AcDbLine
 10
109.9609999999999
 20
53.22870000000000
 30
0.0000000000000000
 11
112.9450000000000
 21
54.20400000000001
 31
0.0000000000000000
  0
LINE
  5
8F
100
AcDbEntity
  8
1
  6
CONTINUOUS
 62
7
100
AcDbLine
 10
109.9609999999999
 20
44.22870000000000
 30
0.0000000000000000
 11
112.9450000000000
 21
43.25350000000000
 31
0.0000000000000000
  0
ARC
  5
90
100
AcDbEntity
  8
1
  6
CONTINUOUS
 62
7
100
AcDbCircle
 10
108.5739999999999
 20
113.2290000000000
 30
0.0000000000000000
 40
1.000000000000000
100
AcDbArc
 50
7.696049999999999
 51
90.00000000000000
  0
ARC
  5
91
100
AcDbEntity
  8
1
  6
CONTINUOUS
 62
7
100
AcDbCircle
 10
119.9910000000000
 20
117.7289999999999
 30
0.0000000000000000
 40
1.000000000000000
100
AcDbArc
 50
2.489549999999999
 51
90.00000000000000
  0
ARC
  5
92
100
AcDbEntity
  8
1
  6
CONTINUOUS
 62
7
100
AcDbCircle
 10
23.32209999999999
 20
113.2290000000000
 30
0.0000000000000000
 40
1.000000000000000
100
AcDbArc
 50
90.00000000000000
 51
172.3040000000000
  0
ARC
  5
93
100
AcDbEntity
  8
1
  6
CONTINUOUS
 62
7
100
AcDbCircle
 10
11.90560000000000
 20
117.7289999999999
 30
0.0000000000000000
 40
1.000000000000000
100
AcDbArc
 50
90.00000000000000
 51
177.5099999999999
  0
ARC
  5
94
100
AcDbEntity
  8
1
  6
CONTINUOUS
 62
7
100
AcDbCircle
 10
-0.05182000000000000
 20
48.72870000000000
 30
0.0000000000000000
 40
20.00000000000000
100
AcDbArc
 50
345.1429999999999
 51
374.8572000000000
  0
ARC
  5
95
100
AcDbEntity
  8
1
  6
CONTINUOUS
 62
7
100
AcDbCircle
 10
2.448179999999998
 20
48.72870000000000
 30
0.0000000000000000
 40
20.00000000000000
100
AcDbArc
 50
346.9969999999999
 51
373.0029000000000
  0
ARC
  5
96
100
AcDbEntity
  8
1
  6
CONTINUOUS
 62
7
100
AcDbCircle
 10
131.9479999999997
 20
48.72870000000000
 30
0.0000000000000000
 40
20.00000000000000
100
AcDbArc
 50
165.1429999999998
 51
194.8570000000000
  0
ARC
  5
97
100
AcDbEntity
  8
1
  6
CONTINUOUS
 62
7
100
AcDbCircle
 10
129.4479999999998
 20
48.72870000000000
 30
0.0000000000000000
 40
20.00000000000000
100
AcDbArc
 50
166.9970000000000
 51
193.0030000000000
  0
CIRCLE
  5
98
100
AcDbEntity
  8
1
  6
CONTINUOUS
 62
7
100
AcDbCircle
 10
116.9479999999998
 20
48.72870000000000
 30
0.0000000000000000
 40
2.066999999999997
  0
CIRCLE
  5
99
100
AcDbEntity
  8
1
  6
CONTINUOUS
 62
7
100
AcDbCircle
 10
14.94819999999998
 20
48.72870000000000
 30
0.0000000000000000
 40
2.066999999999997
  0
CIRCLE
  5
9A
100
AcDbEntity
  8
2
  6
CONTINUOUS
 62
4
100
AcDbCircle
 10
14.94819999999998
 20
48.72870000000000
 30
0.0000000000000000
 40
2.500000000000000
  0
CIRCLE
  5
9B
100
AcDbEntity
  8
2
  6
CONTINUOUS
 62
4
100
AcDbCircle
 10
116.9479999999998
 20
48.72870000000000
 30
0.0000000000000000
 40
2.500000000000000
  0
ARC
  5
9C
100
AcDbEntity
  8
1
  6
CONTINUOUS
 62
7
100
AcDbCircle
 10
23.32240000000000
 20
113.2290000000000
 30
0.0000000000000000
 40
1.770000000000000
100
AcDbArc
 50
90.00000000000000
 51
172.3249999999999
  0
ARC
  5
9D
100
AcDbEntity
  8
1
  6
CONTINUOUS
 62
7
100
AcDbCircle
 10
108.5669999999999
 20
113.2290000000000
 30
0.0000000000000000
 40
1.770000000000000
100
AcDbArc
 50
7.696100000000000
 51
90.00000000000000
  0
CIRCLE
  5
9E
100
AcDbEntity
  8
1
  6
CONTINUOUS
 62
7
100
AcDbCircle
 10
14.94819999999998
 20
48.72870000000000
 30
0.0000000000000000
 40
3.000000000000000
  0
CIRCLE
  5
9F
100
AcDbEntity
  8
1
  6
CONTINUOUS
 62
7
100
AcDbCircle
 10
116.9479999999998
 20
48.72870000000000
 30
0.0000000000000000
 40
3.000000000000000
  0
ARC
  5
A0
100
AcDbEntity
  8
1
  6
CONTINUOUS
 62
7
100
AcDbCircle
 10
65.94750000000001
 20
43.12879999999998
 30
0.0000000000000000
 40
7.932639999999997
100
AcDbArc
 50
102.7290000000000
 51
103.2680000000000
  0
ARC
  5
A1
100
AcDbEntity
  8
1
  6
CONTINUOUS
 62
7
100
AcDbCircle
 10
65.94750000000001
 20
43.12879999999998
 30
0.0000000000000000
 40
7.932639999999997
100
AcDbArc
 50
103.2680000000000
 51
105.2580000000000
  0
ARC
  5
A2
100
AcDbEntity
  8
1
  6
CONTINUOUS
 62
7
100
AcDbCircle
 10
63.94870000000000
 20
50.45960000000000
 30
0.0000000000000000
 40
0.3334530000000000
100
AcDbArc
 50
105.2580000000000
 51
180.0000000000000
  0
ARC
  5
A3
100
AcDbEntity
  8
1
  6
CONTINUOUS
 62
7
100
AcDbCircle
 10
63.94870000000000
 20
46.99650000000000
 30
0.0000000000000000
 40
0.3334530000000000
100
AcDbArc
 50
180.0000000000000
 51
254.7419999999999
  0
ARC
  5
A4
100
AcDbEntity
  8
1
  6
CONTINUOUS
 62
7
100
AcDbCircle
 10
65.94750000000001
 20
54.32730000000000
 30
0.0000000000000000
 40
7.932639999999997
100
AcDbArc
 50
254.7419999999999
 51
254.7940000000000
  0
ARC
  5
A5
100
AcDbEntity
  8
1
  6
CONTINUOUS
 62
7
100
AcDbCircle
 10
65.94750000000001
 20
54.32730000000000
 30
0.0000000000000000
 40
7.932639999999997
100
AcDbArc
 50
254.7940000000000
 51
257.2709999999998
  0
ARC
  5
A6
100
AcDbEntity
  8
1
  6
CONTINUOUS
 62
7
100
AcDbCircle
 10
61.94850000000000
 20
48.72870000000000
 30
0.0000000000000000
 40
1.717879999999999
100
AcDbArc
 50
125.5310000000000
 51
234.4619999999999
  0
ARC
  5
A7
100
AcDbEntity
  8
1
  6
CONTINUOUS
 62
7
100
AcDbCircle
 10
62.61430000000000
 20
47.49860000000000
 30
0.0000000000000000
 40
0.3334530000000000
100
AcDbArc
 50
180.0000000000000
 51
243.9859999999999
  0
ARC
  5
A8
100
AcDbEntity
  8
1
  6
CONTINUOUS
 62
7
100
AcDbCircle
 10
62.88090000000000
 20
47.08450000000000
 30
0.0000000000000000
 40
0.06671800000000000
100
AcDbArc
 50
247.0559999999999
 51
360.0000000000000
  0
ARC
  5
A9
100
AcDbEntity
  8
1
  6
CONTINUOUS
 62
7
100
AcDbCircle
 10
65.94750000000001
 20
54.32730000000000
 30
0.0000000000000000
 40
7.932639999999997
100
AcDbArc
 50
243.9859999999999
 51
247.0559999999999
  0
ARC
  5
AA
100
AcDbEntity
  8
1
  6
CONTINUOUS
 62
7
100
AcDbCircle
 10
65.94750000000001
 20
54.32730000000000
 30
0.0000000000000000
 40
7.932639999999997
100
AcDbArc
 50
243.9859999999999
 51
244.7720000000000
  0
ARC
  5
AB
100
AcDbEntity
  8
1
  6
CONTINUOUS
 62
7
100
AcDbCircle
 10
62.61430000000000
 20
49.95750000000001
 30
0.0000000000000000
 40
0.3334530000000000
100
AcDbArc
 50
116.0139999999999
 51
180.0000000000000
  0
ARC
  5
AC
100
AcDbEntity
  8
1
  6
CONTINUOUS
 62
7
100
AcDbCircle
 10
62.88090000000000
 20
50.37300000000000
 30
0.0000000000000000
 40
0.06671800000000000
100
AcDbArc
 50
0.0000000000000000
 51
112.9439999999999
  0
ARC
  5
AD
100
AcDbEntity
  8
1
  6
CONTINUOUS
 62
7
100
AcDbCircle
 10
65.94750000000001
 20
43.12879999999998
 30
0.0000000000000000
 40
7.932639999999997
100
AcDbArc
 50
112.9439999999999
 51
116.0139999999999
  0
ARC
  5
AE
100
AcDbEntity
  8
1
  6
CONTINUOUS
 62
7
100
AcDbCircle
 10
67.28050000000000
 20
50.60980000000000
 30
0.0000000000000000
 40
0.3334530000000000
100
AcDbArc
 50
0.0000000000000000
 51
79.89600000000000
  0
ARC
  5
AF
100
AcDbEntity
  8
1
  6
CONTINUOUS
 62
7
100
AcDbCircle
 10
65.94750000000001
 20
43.12879999999998
 30
0.0000000000000000
 40
7.932639999999997
100
AcDbArc
 50
79.89600000000000
 51
82.20700000000001
  0
ARC
  5
B0
100
AcDbEntity
  8
1
  6
CONTINUOUS
 62
7
100
AcDbCircle
 10
67.01390000000001
 20
50.92240000000000
 30
0.0000000000000000
 40
0.06671800000000000
100
AcDbArc
 50
82.20700000000001
 51
180.0000000000000
  0
ARC
  5
B1
100
AcDbEntity
  8
1
  6
CONTINUOUS
 62
7
100
AcDbCircle
 10
67.28050000000000
 20
46.84630000000000
 30
0.0000000000000000
 40
0.3334530000000000
100
AcDbArc
 50
280.1040000000000
 51
360.0000000000000
  0
ARC
  5
B2
100
AcDbEntity
  8
1
  6
CONTINUOUS
 62
7
100
AcDbCircle
 10
67.01390000000001
 20
46.53370000000000
 30
0.0000000000000000
 40
0.06671800000000000
100
AcDbArc
 50
180.0000000000000
 51
277.7930000000001
  0
ARC
  5
B3
100
AcDbEntity
  8
1
  6
CONTINUOUS
 62
7
100
AcDbCircle
 10
65.94750000000001
 20
54.32730000000000
 30
0.0000000000000000
 40
7.932639999999997
100
AcDbArc
 50
277.7930000000001
 51
280.1040000000000
  0
ARC
  5
B4
100
AcDbEntity
  8
1
  6
CONTINUOUS
 62
7
100
AcDbCircle
 10
69.28070000000000
 20
49.06159999999999
 30
0.0000000000000000
 40
0.3334530000000000
100
AcDbArc
 50
180.0000000000000
 51
360.0000000000000
  0
ARC
  5
B5
100
AcDbEntity
  8
1
  6
CONTINUOUS
 62
7
100
AcDbCircle
 10
69.94790000000000
 20
48.72870000000000
 30
0.0000000000000000
 40
1.718009999999997
100
AcDbArc
 50
305.5470000000001
 51
414.4620000000000
  0
ARC
  5
B6
100
AcDbEntity
  8
1
  6
CONTINUOUS
 62
7
100
AcDbCircle
 10
65.94750000000001
 20
54.32730000000000
 30
0.0000000000000000
 40
8.599269999999999
100
AcDbArc
 50
234.4619999999999
 51
305.5379999999999
  0
ARC
  5
B7
100
AcDbEntity
  8
1
  6
CONTINUOUS
 62
7
100
AcDbCircle
 10
64.21390000000000
 20
46.65550000000000
 30
0.0000000000000000
 40
0.06671800000000000
100
AcDbArc
 50
257.2709999999998
 51
360.0000000000000
  0
ARC
  5
B8
100
AcDbEntity
  8
1
  6
CONTINUOUS
 62
7
100
AcDbCircle
 10
64.21390000000000
 20
50.80060000000000
 30
0.0000000000000000
 40
0.06671800000000000
100
AcDbArc
 50
0.0000000000000000
 51
102.7290000000000
  0
ARC
  5
B9
100
AcDbEntity
  8
1
  6
CONTINUOUS
 62
7
100
AcDbCircle
 10
65.94750000000001
 20
43.12879999999998
 30
0.0000000000000000
 40
8.599269999999999
100
AcDbArc
 50
54.46200000000001
 51
125.5380000000000
  0
ARC
  5
BA
100
AcDbEntity
  8
1
  6
CONTINUOUS
 62
7
100
AcDbCircle
 10
10.44820000000000
 20
163.7289999999999
 30
0.0000000000000000
 40
0.5000000000000000
100
AcDbArc
 50
90.00000000000000
 51
180.0000000000000
  0
ARC
  5
BB
100
AcDbEntity
  8
1
  6
CONTINUOUS
 62
7
100
AcDbCircle
 10
10.44820000000000
 20
153.7289999999998
 30
0.0000000000000000
 40
0.5000000000000000
100
AcDbArc
 50
180.0000000000000
 51
270.0000000000000
  0
ARC
  5
BC
100
AcDbEntity
  8
1
  6
CONTINUOUS
 62
7
100
AcDbCircle
 10
11.44819999999998
 20
162.7289999999999
 30
0.0000000000000000
 40
0.5000000000000000
100
AcDbArc
 50
90.00000000000000
 51
180.0000000000000
  0
ARC
  5
BD
100
AcDbEntity
  8
1
  6
CONTINUOUS
 62
7
100
AcDbCircle
 10
11.44819999999998
 20
154.7289999999998
 30
0.0000000000000000
 40
0.5000000000000000
100
AcDbArc
 50
180.0000000000000
 51
270.0000000000000
  0
ARC
  5
BE
100
AcDbEntity
  8
1
  6
CONTINUOUS
 62
7
100
AcDbCircle
 10
121.4480000000000
 20
163.7289999999999
 30
0.0000000000000000
 40
0.5000000000000000
100
AcDbArc
 50
0.0000000000000000
 51
90.00000000000000
  0
ARC
  5
BF
100
AcDbEntity
  8
1
  6
CONTINUOUS
 62
7
100
AcDbCircle
 10
121.4480000000000
 20
153.7289999999998
 30
0.0000000000000000
 40
0.5000000000000000
100
AcDbArc
 50
270.0000000000000
 51
360.0000000000000
  0
ARC
  5
C0
100
AcDbEntity
  8
1
  6
CONTINUOUS
 62
7
100
AcDbCircle
 10
120.4479999999998
 20
154.7289999999998
 30
0.0000000000000000
 40
0.5000000000000000
100
AcDbArc
 50
270.0000000000000
 51
360.0000000000000
  0
ARC
  5
C1
100
AcDbEntity
  8
1
  6
CONTINUOUS
 62
7
100
AcDbCircle
 10
120.4479999999998
 20
162.7289999999999
 30
0.0000000000000000
 40
0.5000000000000000
100
AcDbArc
 50
0.0000000000000000
 51
90.00000000000000
  0
ARC
  5
C2
100
AcDbEntity
  8
1
  6
CONTINUOUS
 62
7
100
AcDbCircle
 10
162.9269999999999
 20
118.2290000000000
 30
0.0000000000000000
 40
0.5000000000000000
100
AcDbArc
 50
90.00000000000000
 51
177.5099999999999
  0
ARC
  5
C3
100
AcDbEntity
  8
1
  6
CONTINUOUS
 62
7
100
AcDbCircle
 10
170.9689999999999
 20
118.2290000000000
 30
0.0000000000000000
 40
0.5000000000000000
100
AcDbArc
 50
2.489549999999999
 51
90.00000000000000
  0
ARC
  5
C4
100
AcDbEntity
  8
1
  6
CONTINUOUS
 62
7
100
AcDbCircle
 10
10.44820000000000
 20
53.72870000000000
 30
0.0000000000000000
 40
0.5000000000000000
100
AcDbArc
 50
90.00000000000000
 51
180.0000000000000
  0
ARC
  5
C5
100
AcDbEntity
  8
1
  6
CONTINUOUS
 62
7
100
AcDbCircle
 10
10.44820000000000
 20
43.72870000000000
 30
0.0000000000000000
 40
0.5000000000000000
100
AcDbArc
 50
180.0000000000000
 51
270.0000000000000
  0
ARC
  5
C6
100
AcDbEntity
  8
1
  6
CONTINUOUS
 62
7
100
AcDbCircle
 10
121.4480000000000
 20
53.72870000000000
 30
0.0000000000000000
 40
0.5000000000000000
100
AcDbArc
 50
0.0000000000000000
 51
90.00000000000000
  0
ARC
  5
C7
100
AcDbEntity
  8
1
  6
CONTINUOUS
 62
7
100
AcDbCircle
 10
121.4480000000000
 20
43.72870000000000
 30
0.0000000000000000
 40
0.5000000000000000
100
AcDbArc
 50
270.0000000000000
 51
360.0000000000000
  0
ARC
  5
C8
100
AcDbEntity
  8
1
  6
CONTINUOUS
 62
7
100
AcDbCircle
 10
18.79629999999998
 20
53.72870000000000
 30
0.0000000000000000
 40
0.5000000000000000
100
AcDbArc
 50
14.85720000000000
 51
90.00000000000000
  0
ARC
  5
C9
100
AcDbEntity
  8
1
  6
CONTINUOUS
 62
7
100
AcDbCircle
 10
18.79629999999998
 20
43.72870000000000
 30
0.0000000000000000
 40
0.5000000000000000
100
AcDbArc
 50
270.0000000000000
 51
345.1429999999999
  0
ARC
  5
CA
100
AcDbEntity
  8
1
  6
CONTINUOUS
 62
7
100
AcDbCircle
 10
113.1000000000000
 20
53.72870000000000
 30
0.0000000000000000
 40
0.5000000000000000
100
AcDbArc
 50
90.00000000000000
 51
165.1429999999998
  0
ARC
  5
CB
100
AcDbEntity
  8
1
  6
CONTINUOUS
 62
7
100
AcDbCircle
 10
113.1000000000000
 20
43.72870000000000
 30
0.0000000000000000
 40
0.5000000000000000
100
AcDbArc
 50
194.8570000000000
 51
270.0000000000000
  0
ENDSEC
  0
SECTION
  2
OBJECTS
  0
DICTIONARY
  5
F4
100
AcDbDictionary
  3
ACAD_GROUP
350
F5
  3
ACAD_LAYOUT
350
F6
  3
ACAD_MLINESTYLE
350
F7
  0
DICTIONARY
  5
F5
102
{ACAD_REACTORS
330
F4
102
}
330
F4
100
AcDbDictionary
  0
DICTIONARY
  5
F6
102
{ACAD_REACTORS
330
F4
102
}
330
F4
100
AcDbDictionary
  3
Model
350
F8
  3
ﾚｲｱｳﾄ1
350
F9
  3
ﾚｲｱｳﾄ2
350
FA
  0
DICTIONARY
  5
F7
102
{ACAD_REACTORS
330
F4
102
}
330
F4
100
AcDbDictionary
  3
STANDARD
350
FB
  0
LAYOUT
  5
F8
102
{ACAD_REACTORS
330
F6
102
}
330
F6
100
AcDbPlotSettings
 70
11952
  4
A3
 44
297.000000
 45
420.000000
 73
  1
 72
  1
100
AcDbLayout
  1
Model
 71
0
330
EB
  0
LAYOUT
  5
F9
102
{ACAD_REACTORS
330
F6
102
}
330
F6
100
AcDbPlotSettings
100
AcDbLayout
  1
ﾚｲｱｳﾄ1
 71
1
330
EC
  0
LAYOUT
  5
FA
102
{ACAD_REACTORS
330
F6
102
}
330
F6
100
AcDbPlotSettings
100
AcDbLayout
  1
ﾚｲｱｳﾄ2
 71
2
330
ED
  0
MLINESTYLE
  5
FB
102
{ACAD_REACTORS
330
F7
102
}
330
F7
100
AcDbMlineStyle
  2
STANDARD
 70
     0
  3

 62
   256
 51
90.00
 52
90.00
 71
     2
 49
0.50
 62
   256
  6
BYLAYER
 49
-0.50
 62
   256
  6
BYLAYER
  0
ENDSEC
  0
EOF
