  0
SECTION
  2
HEADER
  9
$ACADVER
  1
AC1015
  9
$ACADMAINTVER
 70
    20
  9
$DWGCODEPAGE
  3
ANSI_932
  9
$INSBASE
 10
0.0
 20
0.0
 30
0.0
  9
$EXTMIN
 10
10.0
 20
9.999999999999998
 30
0.0
  9
$EXTMAX
 10
279.782593
 20
225.830124
 30
0.0
  9
$LIMMIN
 10
0.0
 20
0.0
  9
$LIMMAX
 10
396.0
 20
273.0
  9
$ORTHOMODE
 70
     1
  9
$REGENMODE
 70
     1
  9
$FILLMODE
 70
     1
  9
$QTEXTMODE
 70
     0
  9
$MIRRTEXT
 70
     1
  9
$LTSCALE
 40
20.0
  9
$ATTMODE
 70
     1
  9
$TEXTSIZE
 40
5.0
  9
$TRACEWID
 40
1.0
  9
$TEXTSTYLE
  7
STANDARD
  9
$CLAYER
  8
0
  9
$CELTYPE
  6
BYLAYER
  9
$CECOLOR
 62
   256
  9
$CELTSCALE
 40
1.0
  9
$DISPSILH
 70
     0
  9
$DIMSCALE
 40
1.0
  9
$DIMASZ
 40
3.0
  9
$DIMEXO
 40
1.0
  9
$DIMDLI
 40
10.0
  9
$DIMRND
 40
0.0
  9
$DIMDLE
 40
0.0
  9
$DIMEXE
 40
1.0
  9
$DIMTP
 40
0.0
  9
$DIMTM
 40
0.0
  9
$DIMTXT
 40
3.2
  9
$DIMCEN
 40
0.0
  9
$DIMTSZ
 40
0.0
  9
$DIMTOL
 70
     0
  9
$DIMLIM
 70
     0
  9
$DIMTIH
 70
     0
  9
$DIMTOH
 70
     0
  9
$DIMSE1
 70
     0
  9
$DIMSE2
 70
     0
  9
$DIMTAD
 70
     3
  9
$DIMZIN
 70
     8
  9
$DIMBLK
  1

  9
$DIMASO
 70
     1
  9
$DIMSHO
 70
     1
  9
$DIMPOST
  1

  9
$DIMAPOST
  1

  9
$DIMALT
 70
     0
  9
$DIMALTD
 70
     2
  9
$DIMALTF
 40
25.4
  9
$DIMLFAC
 40
1.0
  9
$DIMTOFL
 70
     1
  9
$DIMTVP
 40
0.0
  9
$DIMTIX
 70
     0
  9
$DIMSOXD
 70
     0
  9
$DIMSAH
 70
     1
  9
$DIMBLK1
  1

  9
$DIMBLK2
  1

  9
$DIMSTYLE
  2
STANDARD
  9
$DIMCLRD
 70
     0
  9
$DIMCLRE
 70
     0
  9
$DIMCLRT
 70
     0
  9
$DIMTFAC
 40
1.0
  9
$DIMGAP
 40
1.0
  9
$DIMJUST
 70
     0
  9
$DIMSD1
 70
     0
  9
$DIMSD2
 70
     0
  9
$DIMTOLJ
 70
     1
  9
$DIMTZIN
 70
     0
  9
$DIMALTZ
 70
     0
  9
$DIMALTTZ
 70
     0
  9
$DIMUPT
 70
     0
  9
$DIMDEC
 70
     4
  9
$DIMTDEC
 70
     4
  9
$DIMALTU
 70
     2
  9
$DIMALTTD
 70
     2
  9
$DIMTXSTY
  7
STANDARD
  9
$DIMAUNIT
 70
     0
  9
$DIMADEC
 70
     0
  9
$DIMALTRND
 40
0.0
  9
$DIMAZIN
 70
     0
  9
$DIMDSEP
 70
    46
  9
$DIMATFIT
 70
     3
  9
$DIMFRAC
 70
     0
  9
$DIMLDRBLK
  1

  9
$DIMLUNIT
 70
     2
  9
$DIMLWD
 70
    -2
  9
$DIMLWE
 70
    -2
  9
$DIMTMOVE
 70
     0
  9
$LUNITS
 70
     2
  9
$LUPREC
 70
     4
  9
$SKETCHINC
 40
1.0
  9
$FILLETRAD
 40
1.5
  9
$AUNITS
 70
     0
  9
$AUPREC
 70
     2
  9
$MENU
  1
.
  9
$ELEVATION
 40
0.0
  9
$PELEVATION
 40
0.0
  9
$THICKNESS
 40
0.0
  9
$LIMCHECK
 70
     0
  9
$CHAMFERA
 40
10.0
  9
$CHAMFERB
 40
10.0
  9
$CHAMFERC
 40
0.0
  9
$CHAMFERD
 40
0.0
  9
$SKPOLY
 70
     0
  9
$TDCREATE
 40
2450737.631179051
  9
$TDUCREATE
 40
2450737.256179051
  9
$TDUPDATE
 40
2457192.638959398
  9
$TDUUPDATE
 40
2457192.263959398
  9
$TDINDWG
 40
0.0000140394
  9
$TDUSRTIMER
 40
0.0000135417
  9
$USRTIMER
 70
     1
  9
$ANGBASE
 50
0.0
  9
$ANGDIR
 70
     0
  9
$PDMODE
 70
     0
  9
$PDSIZE
 40
0.0
  9
$PLINEWID
 40
0.0
  9
$SPLFRAME
 70
     0
  9
$SPLINETYPE
 70
     6
  9
$SPLINESEGS
 70
     8
  9
$HANDSEED
  5
9967
  9
$SURFTAB1
 70
     6
  9
$SURFTAB2
 70
     6
  9
$SURFTYPE
 70
     6
  9
$SURFU
 70
     6
  9
$SURFV
 70
     6
  9
$UCSBASE
  2

  9
$UCSNAME
  2

  9
$UCSORG
 10
0.0
 20
0.0
 30
0.0
  9
$UCSXDIR
 10
1.0
 20
0.0
 30
0.0
  9
$UCSYDIR
 10
0.0
 20
1.0
 30
0.0
  9
$UCSORTHOREF
  2

  9
$UCSORTHOVIEW
 70
     0
  9
$UCSORGTOP
 10
0.0
 20
0.0
 30
0.0
  9
$UCSORGBOTTOM
 10
0.0
 20
0.0
 30
0.0
  9
$UCSORGLEFT
 10
0.0
 20
0.0
 30
0.0
  9
$UCSORGRIGHT
 10
0.0
 20
0.0
 30
0.0
  9
$UCSORGFRONT
 10
0.0
 20
0.0
 30
0.0
  9
$UCSORGBACK
 10
0.0
 20
0.0
 30
0.0
  9
$PUCSBASE
  2

  9
$PUCSNAME
  2

  9
$PUCSORG
 10
0.0
 20
0.0
 30
0.0
  9
$PUCSXDIR
 10
1.0
 20
0.0
 30
0.0
  9
$PUCSYDIR
 10
0.0
 20
1.0
 30
0.0
  9
$PUCSORTHOREF
  2

  9
$PUCSORTHOVIEW
 70
     0
  9
$PUCSORGTOP
 10
0.0
 20
0.0
 30
0.0
  9
$PUCSORGBOTTOM
 10
0.0
 20
0.0
 30
0.0
  9
$PUCSORGLEFT
 10
0.0
 20
0.0
 30
0.0
  9
$PUCSORGRIGHT
 10
0.0
 20
0.0
 30
0.0
  9
$PUCSORGFRONT
 10
0.0
 20
0.0
 30
0.0
  9
$PUCSORGBACK
 10
0.0
 20
0.0
 30
0.0
  9
$USERI1
 70
     0
  9
$USERI2
 70
     0
  9
$USERI3
 70
     0
  9
$USERI4
 70
     0
  9
$USERI5
 70
     0
  9
$USERR1
 40
0.0
  9
$USERR2
 40
0.0
  9
$USERR3
 40
0.0
  9
$USERR4
 40
0.0
  9
$USERR5
 40
0.0
  9
$WORLDVIEW
 70
     1
  9
$SHADEDGE
 70
     3
  9
$SHADEDIF
 70
    70
  9
$TILEMODE
 70
     1
  9
$MAXACTVP
 70
    16
  9
$PINSBASE
 10
0.0
 20
0.0
 30
0.0
  9
$PLIMCHECK
 70
     0
  9
$PEXTMIN
 10
1.000000000000000E+20
 20
1.000000000000000E+20
 30
1.000000000000000E+20
  9
$PEXTMAX
 10
-1.000000000000000E+20
 20
-1.000000000000000E+20
 30
-1.000000000000000E+20
  9
$PLIMMIN
 10
0.0
 20
0.0
  9
$PLIMMAX
 10
420.0
 20
297.0
  9
$UNITMODE
 70
     0
  9
$VISRETAIN
 70
     0
  9
$PLINEGEN
 70
     0
  9
$PSLTSCALE
 70
     0
  9
$TREEDEPTH
 70
  3020
  9
$CMLSTYLE
  2
STANDARD
  9
$CMLJUST
 70
     0
  9
$CMLSCALE
 40
1.0
  9
$PROXYGRAPHICS
 70
     1
  9
$MEASUREMENT
 70
     0
  9
$CELWEIGHT
370
    -1
  9
$ENDCAPS
280
     0
  9
$JOINSTYLE
280
     0
  9
$LWDISPLAY
290
     0
  9
$INSUNITS
 70
     0
  9
$HYPERLINKBASE
  1

  9
$STYLESHEET
  1

  9
$XEDIT
290
     1
  9
$CEPSNTYPE
380
     0
  9
$PSTYLEMODE
290
     1
  9
$FINGERPRINTGUID
  2
{F95244AE-DCF9-43E9-9B34-A523E1D1E095}
  9
$VERSIONGUID
  2
{9B4CC7D7-BC62-4657-9647-2412A23ABE9E}
  9
$EXTNAMES
290
     1
  9
$PSVPSCALE
 40
0.0
  9
$OLESTARTUP
290
     0
  0
ENDSEC
  0
SECTION
  2
CLASSES
  0
CLASS
  1
ACDBDICTIONARYWDFLT
  2
AcDbDictionaryWithDefault
  3
ObjectDBX Classes
 90
        0
280
     0
281
     0
  0
CLASS
  1
ACDBPLACEHOLDER
  2
AcDbPlaceHolder
  3
ObjectDBX Classes
 90
        0
280
     0
281
     0
  0
CLASS
  1
LAYOUT
  2
AcDbLayout
  3
ObjectDBX Classes
 90
        0
280
     0
281
     0
  0
CLASS
  1
DICTIONARYVAR
  2
AcDbDictionaryVar
  3
ObjectDBX Classes
 90
        0
280
     0
281
     0
  0
CLASS
  1
MATERIAL
  2
AcDbMaterial
  3
ObjectDBX Classes
 90
     1153
280
     0
281
     0
  0
CLASS
  1
VISUALSTYLE
  2
AcDbVisualStyle
  3
ObjectDBX Classes
 90
     4095
280
     0
281
     0
  0
CLASS
  1
TABLESTYLE
  2
AcDbTableStyle
  3
ObjectDBX Classes
 90
     4095
280
     0
281
     0
  0
CLASS
  1
SCALE
  2
AcDbScale
  3
ObjectDBX Classes
 90
     1153
280
     0
281
     0
  0
CLASS
  1
MLEADERSTYLE
  2
AcDbMLeaderStyle
  3
ACDB_MLEADERSTYLE_CLASS
 90
     4095
280
     0
281
     0
  0
CLASS
  1
ACDBSECTIONVIEWSTYLE
  2
AcDbSectionViewStyle
  3
ObjectDBX Classes
 90
     1025
280
     0
281
     0
  0
CLASS
  1
ACDBDETAILVIEWSTYLE
  2
AcDbDetailViewStyle
  3
ObjectDBX Classes
 90
     1025
280
     0
281
     0
  0
CLASS
  1
CELLSTYLEMAP
  2
AcDbCellStyleMap
  3
ObjectDBX Classes
 90
     1152
280
     0
281
     0
  0
ENDSEC
  0
SECTION
  2
TABLES
  0
TABLE
  2
VPORT
  5
96DC
330
0
100
AcDbSymbolTable
 70
     1
  0
VPORT
  5
98B0
330
96DC
100
AcDbSymbolTableRecord
100
AcDbViewportTableRecord
  2
*ACTIVE
 70
     0
 10
0.0
 20
0.0
 11
1.0
 21
1.0
 12
210.2615851799182
 22
117.910790103733
 13
0.0
 23
0.0
 14
10.0
 24
10.0
 15
10.0
 25
10.0
 16
0.0
 26
0.0
 36
1.0
 17
0.0
 27
0.0
 37
0.0
 40
218.2572039791052
 41
1.899603698811096
 42
50.0
 43
0.0
 44
0.0
 50
0.0
 51
0.0
 71
     0
 72
   100
 73
     1
 74
     0
 75
     0
 76
     0
 77
     0
 78
     0
281
     0
 65
     1
110
0.0
120
0.0
130
0.0
111
1.0
121
0.0
131
0.0
112
0.0
122
1.0
132
0.0
 79
     0
146
0.0
1001
ACAD_NAV_VCDISPLAY
1070
     3
  0
ENDTAB
  0
TABLE
  2
LTYPE
  5
96D9
330
0
100
AcDbSymbolTable
 70
     4
  0
LTYPE
  5
96E7
330
96D9
100
AcDbSymbolTableRecord
100
AcDbLinetypeTableRecord
  2
BYBLOCK
 70
     0
  3

 72
    65
 73
     0
 40
0.0
  0
LTYPE
  5
96E8
330
96D9
100
AcDbSymbolTableRecord
100
AcDbLinetypeTableRecord
  2
BYLAYER
 70
     0
  3

 72
    65
 73
     0
 40
0.0
  0
LTYPE
  5
96E9
330
96D9
100
AcDbSymbolTableRecord
100
AcDbLinetypeTableRecord
  2
CONTINUOUS
 70
     0
  3
Solid line
 72
    65
 73
     0
 40
0.0
  0
LTYPE
  5
96F7
330
96D9
100
AcDbSymbolTableRecord
100
AcDbLinetypeTableRecord
  2
DASHED
 70
     0
  3
__ __ __ __ __ __ __ __ __ __ __ __ __ __ __ __
 72
    65
 73
     2
 40
0.75
 49
0.5
 74
     0
 49
-0.25
 74
     0
  0
LTYPE
  5
96F8
330
96D9
100
AcDbSymbolTableRecord
100
AcDbLinetypeTableRecord
  2
CENTER
 70
     0
  3
____ _ ____ _ ____ _ ____ _ ____ _ ____ _ ____ 
 72
    65
 73
     4
 40
2.0
 49
1.25
 74
     0
 49
-0.25
 74
     0
 49
0.25
 74
     0
 49
-0.25
 74
     0
  0
LTYPE
  5
96F9
330
96D9
100
AcDbSymbolTableRecord
100
AcDbLinetypeTableRecord
  2
PHANTOM
 70
     0
  3
______  __  __  ______  __  __  ______  __  __ 
 72
    65
 73
     6
 40
2.5
 49
1.25
 74
     0
 49
-0.25
 74
     0
 49
0.25
 74
     0
 49
-0.25
 74
     0
 49
0.25
 74
     0
 49
-0.25
 74
     0
  0
ENDTAB
  0
TABLE
  2
LAYER
  5
96D6
330
0
100
AcDbSymbolTable
 70
     8
  0
LAYER
  5
96E4
102
{ACAD_XDICTIONARY
360
990B
102
}
330
96D6
100
AcDbSymbolTableRecord
100
AcDbLayerTableRecord
  2
0
 70
     0
 62
     7
  6
CONTINUOUS
370
    -3
390
98B9
  0
LAYER
  5
96FA
102
{ACAD_XDICTIONARY
360
990D
102
}
330
96D6
100
AcDbSymbolTableRecord
100
AcDbLayerTableRecord
  2
4
 70
     0
 62
     1
  6
CENTER
370
    -3
390
98B9
  0
LAYER
  5
96FB
102
{ACAD_XDICTIONARY
360
990F
102
}
330
96D6
100
AcDbSymbolTableRecord
100
AcDbLayerTableRecord
  2
5
 70
     0
 62
     6
  6
PHANTOM
370
    -3
390
98B9
  0
LAYER
  5
96FC
102
{ACAD_XDICTIONARY
360
9911
102
}
330
96D6
100
AcDbSymbolTableRecord
100
AcDbLayerTableRecord
  2
1
 70
     0
 62
     7
  6
CONTINUOUS
370
    -3
390
98B9
  0
LAYER
  5
96FD
102
{ACAD_XDICTIONARY
360
9913
102
}
330
96D6
100
AcDbSymbolTableRecord
100
AcDbLayerTableRecord
  2
2
 70
     0
 62
     4
  6
CONTINUOUS
370
    -3
390
98B9
  0
LAYER
  5
96FE
102
{ACAD_XDICTIONARY
360
9915
102
}
330
96D6
100
AcDbSymbolTableRecord
100
AcDbLayerTableRecord
  2
3
 70
     0
 62
     2
  6
DASHED
370
    -3
390
98B9
  0
LAYER
  5
96FF
102
{ACAD_XDICTIONARY
360
9917
102
}
330
96D6
100
AcDbSymbolTableRecord
100
AcDbLayerTableRecord
  2
6
 70
     0
 62
     5
  6
CONTINUOUS
370
    -3
390
98B9
  0
LAYER
  5
9700
102
{ACAD_XDICTIONARY
360
9919
102
}
330
96D6
100
AcDbSymbolTableRecord
100
AcDbLayerTableRecord
  2
7
 70
     0
 62
     3
  6
CONTINUOUS
370
    -3
390
98B9
  0
ENDTAB
  0
TABLE
  2
STYLE
  5
96D7
330
0
100
AcDbSymbolTable
 70
     1
  0
STYLE
  5
96E5
330
96D7
100
AcDbSymbolTableRecord
100
AcDbTextStyleTableRecord
  2
STANDARD
 70
     0
 40
0.0
 41
1.0
 50
0.0
 71
     0
 42
5.0
  3
txt
  4

  0
ENDTAB
  0
TABLE
  2
VIEW
  5
96DA
330
0
100
AcDbSymbolTable
 70
     0
  0
ENDTAB
  0
TABLE
  2
UCS
  5
96DB
330
0
100
AcDbSymbolTable
 70
     0
  0
ENDTAB
  0
TABLE
  2
APPID
  5
96DD
330
0
100
AcDbSymbolTable
 70
     3
  0
APPID
  5
96E6
330
96DD
100
AcDbSymbolTableRecord
100
AcDbRegAppTableRecord
  2
ACAD
 70
     0
  0
APPID
  5
9925
330
96DD
100
AcDbSymbolTableRecord
100
AcDbRegAppTableRecord
  2
ACAD_NAV_VCDISPLAY
 70
     0
  0
APPID
  5
995E
330
96DD
100
AcDbSymbolTableRecord
100
AcDbRegAppTableRecord
  2
ACAD_MLEADERVER
 70
     0
  0
ENDTAB
  0
TABLE
  2
DIMSTYLE
  5
96DE
330
0
100
AcDbSymbolTable
 70
     1
100
AcDbDimStyleTable
 71
     0
  0
DIMSTYLE
105
9702
330
96DE
100
AcDbSymbolTableRecord
100
AcDbDimStyleTableRecord
  2
STANDARD
 70
     0
 41
3.0
 42
1.0
 43
10.0
 44
1.0
 73
     0
 74
     0
 77
     3
 78
     8
140
3.2
141
0.0
147
1.0
172
     1
173
     1
284
     8
285
     8
286
     8
340
96E5
  0
ENDTAB
  0
TABLE
  2
BLOCK_RECORD
  5
96D5
330
0
100
AcDbSymbolTable
 70
     0
  0
BLOCK_RECORD
  5
96F2
102
{ACAD_XDICTIONARY
360
98B3
102
}
330
96D5
100
AcDbSymbolTableRecord
100
AcDbBlockTableRecord
  2
*MODEL_SPACE
340
9907
  0
BLOCK_RECORD
  5
96EE
102
{ACAD_XDICTIONARY
360
98B1
102
}
330
96D5
100
AcDbSymbolTableRecord
100
AcDbBlockTableRecord
  2
*PAPER_SPACE
340
9908
  0
ENDTAB
  0
ENDSEC
  0
SECTION
  2
BLOCKS
  0
BLOCK
  5
96F3
330
96F2
100
AcDbEntity
  8
0
100
AcDbBlockBegin
  2
*MODEL_SPACE
 70
     0
 10
0.0
 20
0.0
 30
0.0
  3
*MODEL_SPACE
  1

  0
ENDBLK
  5
96F4
330
96F2
100
AcDbEntity
  8
0
100
AcDbBlockEnd
  0
BLOCK
  5
96EF
330
96EE
100
AcDbEntity
 67
     1
  8
0
100
AcDbBlockBegin
  2
*PAPER_SPACE
 70
     0
 10
0.0
 20
0.0
 30
0.0
  3
*PAPER_SPACE
  1

  0
ENDBLK
  5
96F0
330
96EE
100
AcDbEntity
 67
     1
  8
0
100
AcDbBlockEnd
  0
ENDSEC
  0
SECTION
  2
ENTITIES
  0
TEXT
  5
970A
330
96F2
100
AcDbEntity
  8
7
  6
Continuous
100
AcDbText
 10
10.0
 20
18.0
 30
0.0
 40
3.0
  1
TYPE No.THA-234-1
100
AcDbText
  0
TEXT
  5
970B
330
96F2
100
AcDbEntity
  8
7
  6
Continuous
100
AcDbText
 10
10.0
 20
26.0
 30
0.0
 40
3.0
  1
CODE No.3126
100
AcDbText
  0
TEXT
  5
970C
330
96F2
100
AcDbEntity
  8
1
  6
Continuous
100
AcDbText
 10
10.0
 20
10.0
 30
0.0
 40
1.399999999999999
  1
LAYER
100
AcDbText
  0
TEXT
  5
970D
330
96F2
100
AcDbEntity
  8
1
  6
Continuous
100
AcDbText
 10
17.97951099999998
 20
10.04873699999998
 30
0.0
 40
1.399999999999999
  1
1
100
AcDbText
  0
TEXT
  5
970E
330
96F2
100
AcDbEntity
  8
7
  6
Continuous
100
AcDbText
 10
29.97951099999999
 20
10.04873699999998
 30
0.0
 40
1.399999999999999
  1
7
100
AcDbText
  0
TEXT
  5
970F
330
96F2
100
AcDbEntity
  8
4
  6
CENTER
100
AcDbText
 10
23.97951099999999
 20
10.04873699999998
 30
0.0
 40
1.399999999999999
  1
4
100
AcDbText
  0
TEXT
  5
9710
330
96F2
100
AcDbEntity
  8
3
  6
DASHED
100
AcDbText
 10
21.979511
 20
10.04873699999998
 30
0.0
 40
1.399999999999999
  1
3
100
AcDbText
  0
TEXT
  5
9711
330
96F2
100
AcDbEntity
  8
2
  6
Continuous
100
AcDbText
 10
19.97951099999999
 20
10.04873699999998
 30
0.0
 40
1.399999999999999
  1
2
100
AcDbText
  0
TEXT
  5
9712
330
96F2
100
AcDbEntity
  8
6
  6
Continuous
100
AcDbText
 10
27.979511
 20
10.04873699999998
 30
0.0
 40
1.399999999999999
  1
6
100
AcDbText
  0
TEXT
  5
9713
330
96F2
100
AcDbEntity
  8
5
  6
PHANTOM
100
AcDbText
 10
25.97951099999999
 20
10.04873699999998
 30
0.0
 40
1.399999999999999
  1
5
100
AcDbText
  0
LINE
  5
9714
330
96F2
100
AcDbEntity
  8
4
  6
CENTER
100
AcDbLine
 10
60.27251999999999
 20
210.065062
 30
0.0
 11
18.20731999999999
 21
210.065062
 31
0.0
  0
LINE
  5
9715
330
96F2
100
AcDbEntity
  8
1
  6
Continuous
100
AcDbLine
 10
57.51371999999999
 20
211.065062
 30
0.0
 11
57.51371999999999
 21
209.065062
 31
0.0
  0
LINE
  5
9716
330
96F2
100
AcDbEntity
  8
1
  6
Continuous
100
AcDbLine
 10
21.51371999999999
 20
214.565062
 30
0.0
 11
21.51371999999999
 21
205.565062
 31
0.0
  0
LINE
  5
9717
330
96F2
100
AcDbEntity
  8
1
  6
Continuous
100
AcDbLine
 10
56.01371999999999
 20
213.565062
 30
0.0
 11
56.01371999999999
 21
211.065062
 31
0.0
  0
LINE
  5
9718
330
96F2
100
AcDbEntity
  8
1
  6
Continuous
100
AcDbLine
 10
47.51362
 20
214.065062
 30
0.0
 11
25.63462
 21
218.009062
 31
0.0
  0
LINE
  5
9719
330
96F2
100
AcDbEntity
  8
1
  6
Continuous
100
AcDbLine
 10
54.01371999999999
 20
208.065062
 30
0.0
 11
50.01371999999999
 21
208.065062
 31
0.0
  0
LINE
  5
971A
330
96F2
100
AcDbEntity
  8
1
  6
Continuous
100
AcDbLine
 10
50.01362
 20
208.065062
 30
0.0
 11
47.51362
 21
206.065062
 31
0.0
  0
LINE
  5
971B
330
96F2
100
AcDbEntity
  8
1
  6
Continuous
100
AcDbLine
 10
50.01371999999999
 20
212.565062
 30
0.0
 11
47.51362
 21
214.065062
 31
0.0
  0
LINE
  5
971C
330
96F2
100
AcDbEntity
  8
1
  6
Continuous
100
AcDbLine
 10
54.01371999999999
 20
212.565062
 30
0.0
 11
50.01371999999999
 21
212.565062
 31
0.0
  0
LINE
  5
971D
330
96F2
100
AcDbEntity
  8
1
  6
Continuous
100
AcDbLine
 10
54.01371999999999
 20
214.565062
 30
0.0
 11
54.01371999999999
 21
212.565062
 31
0.0
  0
LINE
  5
971E
330
96F2
100
AcDbEntity
  8
1
  6
Continuous
100
AcDbLine
 10
57.51371999999999
 20
211.065062
 30
0.0
 11
56.01371999999999
 21
211.065062
 31
0.0
  0
LINE
  5
971F
330
96F2
100
AcDbEntity
  8
1
  6
Continuous
100
AcDbLine
 10
57.51371999999999
 20
209.065062
 30
0.0
 11
54.01371999999999
 21
209.065062
 31
0.0
  0
LINE
  5
9720
330
96F2
100
AcDbEntity
  8
1
  6
Continuous
100
AcDbLine
 10
54.01371999999999
 20
209.065062
 30
0.0
 11
54.01371999999999
 21
208.065062
 31
0.0
  0
LINE
  5
9721
330
96F2
100
AcDbEntity
  8
1
  6
Continuous
100
AcDbLine
 10
57.51371999999999
 20
215.565062
 30
0.0
 11
55.01371999999999
 21
215.565062
 31
0.0
  0
LINE
  5
9722
330
96F2
100
AcDbEntity
  8
1
  6
Continuous
100
AcDbLine
 10
57.51371999999999
 20
213.565062
 30
0.0
 11
56.01371999999999
 21
213.565062
 31
0.0
  0
LINE
  5
9723
330
96F2
100
AcDbEntity
  8
1
  6
Continuous
100
AcDbLine
 10
57.51371999999999
 20
215.565062
 30
0.0
 11
57.51371999999999
 21
213.565062
 31
0.0
  0
LINE
  5
9724
330
96F2
100
AcDbEntity
  8
1
  6
Continuous
100
AcDbLine
 10
20.26605599999999
 20
150.3469619999999
 30
0.0
 11
48.266356
 21
150.3469619999999
 31
0.0
  0
LINE
  5
9725
330
96F2
100
AcDbEntity
  8
1
  6
Continuous
100
AcDbLine
 10
20.26605599999999
 20
50.34696199999999
 30
0.0
 11
48.266356
 21
50.34696199999999
 31
0.0
  0
LINE
  5
9726
330
96F2
100
AcDbEntity
  8
1
  6
Continuous
100
AcDbLine
 10
20.26605599999999
 20
150.3469619999999
 30
0.0
 11
20.26605599999999
 21
50.34696199999999
 31
0.0
  0
LINE
  5
9727
330
96F2
100
AcDbEntity
  8
1
  6
Continuous
100
AcDbLine
 10
48.266356
 20
150.3469619999999
 30
0.0
 11
48.266356
 21
50.34696199999999
 31
0.0
  0
LINE
  5
9728
330
96F2
100
AcDbEntity
  8
1
  6
Continuous
100
AcDbLine
 10
137.248393
 20
147.3469619999999
 30
0.0
 11
137.248393
 21
53.34696199999999
 31
0.0
  0
LINE
  5
9729
330
96F2
100
AcDbEntity
  8
1
  6
Continuous
100
AcDbLine
 10
148.7483929999999
 20
147.846962
 30
0.0
 11
148.7483929999999
 21
128.346972
 31
0.0
  0
LINE
  5
972A
330
96F2
100
AcDbEntity
  8
1
  6
Continuous
100
AcDbLine
 10
138.7483929999999
 20
50.34696199999999
 30
0.0
 11
139.7483929999999
 21
50.34696199999999
 31
0.0
  0
LINE
  5
972B
330
96F2
100
AcDbEntity
  8
1
  6
Continuous
100
AcDbLine
 10
138.7483929999999
 20
150.3469619999999
 30
0.0
 11
139.7483929999999
 21
150.3469619999999
 31
0.0
  0
LINE
  5
972C
330
96F2
100
AcDbEntity
  8
4
  6
CENTER
100
AcDbLine
 10
34.266356
 20
158.648062
 30
0.0
 11
34.266356
 21
41.179462
 31
0.0
  0
LINE
  5
972D
330
96F2
100
AcDbEntity
  8
1
  6
Continuous
100
AcDbLine
 10
23.26635599999999
 20
147.3469619999999
 30
0.0
 11
23.26635599999999
 21
53.34696199999999
 31
0.0
  0
LINE
  5
972E
330
96F2
100
AcDbEntity
  8
1
  6
Continuous
100
AcDbLine
 10
45.266356
 20
147.3469619999999
 30
0.0
 11
45.266356
 21
53.34696199999999
 31
0.0
  0
LINE
  5
972F
330
96F2
100
AcDbEntity
  8
1
  6
Continuous
100
AcDbLine
 10
43.766356
 20
142.3469719999999
 30
0.0
 11
43.766356
 21
80.346962
 31
0.0
  0
LINE
  5
9730
330
96F2
100
AcDbEntity
  8
1
  6
Continuous
100
AcDbLine
 10
24.76635599999999
 20
142.3469719999999
 30
0.0
 11
24.76635599999999
 21
80.346962
 31
0.0
  0
LINE
  5
9731
330
96F2
100
AcDbEntity
  8
1
  6
Continuous
100
AcDbLine
 10
23.26635599999999
 20
147.3469619999999
 30
0.0
 11
45.266356
 21
147.3469619999999
 31
0.0
  0
LINE
  5
9732
330
96F2
100
AcDbEntity
  8
1
  6
Continuous
100
AcDbLine
 10
23.26635599999999
 20
53.34696199999999
 30
0.0
 11
45.266356
 21
53.34696199999999
 31
0.0
  0
LINE
  5
9733
330
96F2
100
AcDbEntity
  8
1
  6
Continuous
100
AcDbLine
 10
23.26635599999999
 20
147.3469619999999
 30
0.0
 11
20.26605599999999
 21
150.3469619999999
 31
0.0
  0
LINE
  5
9734
330
96F2
100
AcDbEntity
  8
1
  6
Continuous
100
AcDbLine
 10
48.266356
 20
150.3469619999999
 30
0.0
 11
45.266356
 21
147.3469619999999
 31
0.0
  0
LINE
  5
9735
330
96F2
100
AcDbEntity
  8
1
  6
Continuous
100
AcDbLine
 10
23.26635599999999
 20
53.34696199999999
 30
0.0
 11
20.26605599999999
 21
50.34696199999999
 31
0.0
  0
LINE
  5
9736
330
96F2
100
AcDbEntity
  8
1
  6
Continuous
100
AcDbLine
 10
45.266356
 20
53.34696199999999
 30
0.0
 11
48.266356
 21
50.34696199999999
 31
0.0
  0
LINE
  5
9737
330
96F2
100
AcDbEntity
  8
1
  6
Continuous
100
AcDbLine
 10
24.76635599999999
 20
142.3469719999999
 30
0.0
 11
43.766356
 21
142.3469719999999
 31
0.0
  0
LINE
  5
9738
330
96F2
100
AcDbEntity
  8
1
  6
Continuous
100
AcDbLine
 10
24.76635599999999
 20
80.346962
 30
0.0
 11
43.766356
 21
80.346962
 31
0.0
  0
LINE
  5
9739
330
96F2
100
AcDbEntity
  8
1
  6
Continuous
100
AcDbLine
 10
24.76635599999999
 20
78.346962
 30
0.0
 11
24.76635599999999
 21
59.346962
 31
0.0
  0
LINE
  5
973A
330
96F2
100
AcDbEntity
  8
1
  6
Continuous
100
AcDbLine
 10
43.766356
 20
78.346962
 30
0.0
 11
43.766356
 21
59.346962
 31
0.0
  0
LINE
  5
973B
330
96F2
100
AcDbEntity
  8
1
  6
Continuous
100
AcDbLine
 10
24.76635599999999
 20
78.346962
 30
0.0
 11
43.766356
 21
78.346962
 31
0.0
  0
LINE
  5
973C
330
96F2
100
AcDbEntity
  8
1
  6
Continuous
100
AcDbLine
 10
24.76635599999999
 20
59.346962
 30
0.0
 11
43.766356
 21
59.346962
 31
0.0
  0
LINE
  5
973D
330
96F2
100
AcDbEntity
  8
1
  6
Continuous
100
AcDbLine
 10
138.7483929999999
 20
150.3469619999999
 30
0.0
 11
138.7483929999999
 21
50.34696199999999
 31
0.0
  0
LINE
  5
973E
330
96F2
100
AcDbEntity
  8
1
  6
Continuous
100
AcDbLine
 10
139.7483929999999
 20
150.3469619999999
 30
0.0
 11
139.7483929999999
 21
50.34696199999999
 31
0.0
  0
LINE
  5
973F
330
96F2
100
AcDbEntity
  8
1
  6
Continuous
100
AcDbLine
 10
137.248393
 20
53.34696199999999
 30
0.0
 11
138.7483929999999
 21
50.34696199999999
 31
0.0
  0
LINE
  5
9740
330
96F2
100
AcDbEntity
  8
1
  6
Continuous
100
AcDbLine
 10
138.7483929999999
 20
150.3469619999999
 30
0.0
 11
137.248393
 21
147.3469619999999
 31
0.0
  0
LINE
  5
9741
330
96F2
100
AcDbEntity
  8
1
  6
Continuous
100
AcDbLine
 10
276.846593
 20
150.3469619999999
 30
0.0
 11
272.0346999999998
 21
150.3469619999999
 31
0.0
  0
LINE
  5
9742
330
96F2
100
AcDbEntity
  8
1
  6
Continuous
100
AcDbLine
 10
276.846593
 20
50.34696199999999
 30
0.0
 11
248.846593
 21
50.34696199999999
 31
0.0
  0
LINE
  5
9743
330
96F2
100
AcDbEntity
  8
1
  6
Continuous
100
AcDbLine
 10
276.846593
 20
150.3469619999999
 30
0.0
 11
276.846593
 21
50.34696199999999
 31
0.0
  0
LINE
  5
9744
330
96F2
100
AcDbEntity
  8
1
  6
Continuous
100
AcDbLine
 10
248.846593
 20
150.3469619999999
 30
0.0
 11
248.846593
 21
50.34696199999999
 31
0.0
  0
LINE
  5
9745
330
96F2
100
AcDbEntity
  8
4
  6
CENTER
100
AcDbLine
 10
262.8465929999999
 20
164.368862
 30
0.0
 11
262.8465929999999
 21
41.179462
 31
0.0
  0
LINE
  5
9746
330
96F2
100
AcDbEntity
  8
1
  6
Continuous
100
AcDbLine
 10
274.3465929999999
 20
147.846962
 30
0.0
 11
272.048899
 21
147.846962
 31
0.0
  0
LINE
  5
9747
330
96F2
100
AcDbEntity
  8
1
  6
Continuous
100
AcDbLine
 10
148.7483929999999
 20
147.846962
 30
0.0
 11
139.7483929999999
 21
147.846962
 31
0.0
  0
LINE
  5
9748
330
96F2
100
AcDbEntity
  8
1
  6
Continuous
100
AcDbLine
 10
151.748393
 20
52.84696199999999
 30
0.0
 11
139.7483929999999
 21
52.84696199999999
 31
0.0
  0
LINE
  5
9749
330
96F2
100
AcDbEntity
  8
1
  6
Continuous
100
AcDbLine
 10
151.748393
 20
83.34696200000001
 30
0.0
 11
151.748393
 21
52.84696199999999
 31
0.0
  0
LINE
  5
974A
330
96F2
100
AcDbEntity
  8
4
  6
CENTER
100
AcDbLine
 10
279.782593
 20
135.8469719999999
 30
0.0
 11
245.087593
 21
135.8469719999999
 31
0.0
  0
LINE
  5
974B
330
96F2
100
AcDbEntity
  8
4
  6
CENTER
100
AcDbLine
 10
142.748393
 20
138.3469719999999
 30
0.0
 11
142.748393
 21
133.3469719999999
 31
0.0
  0
LINE
  5
974C
330
96F2
100
AcDbEntity
  8
1
  6
Continuous
100
AcDbLine
 10
274.3465929999999
 20
147.846962
 30
0.0
 11
274.3465929999999
 21
125.8469719999998
 31
0.0
  0
LINE
  5
974D
330
96F2
100
AcDbEntity
  8
1
  6
Continuous
100
AcDbLine
 10
251.346593
 20
147.846962
 30
0.0
 11
251.346593
 21
125.8469719999998
 31
0.0
  0
LINE
  5
974E
330
96F2
100
AcDbEntity
  8
1
  6
Continuous
100
AcDbLine
 10
274.3465929999999
 20
52.84696199999999
 30
0.0
 11
251.346593
 21
52.84696199999999
 31
0.0
  0
LINE
  5
974F
330
96F2
100
AcDbEntity
  8
1
  6
Continuous
100
AcDbLine
 10
153.748393
 20
128.346972
 30
0.0
 11
148.7483929999999
 21
128.346972
 31
0.0
  0
LINE
  5
9750
330
96F2
100
AcDbEntity
  8
1
  6
Continuous
100
AcDbLine
 10
153.748393
 20
128.346972
 30
0.0
 11
153.748393
 21
83.34696200000001
 31
0.0
  0
LINE
  5
9751
330
96F2
100
AcDbEntity
  8
1
  6
Continuous
100
AcDbLine
 10
153.748393
 20
83.34696200000001
 30
0.0
 11
151.748393
 21
83.34696200000001
 31
0.0
  0
LINE
  5
9752
330
96F2
100
AcDbEntity
  8
1
  6
Continuous
100
AcDbLine
 10
251.346593
 20
128.346972
 30
0.0
 11
274.3465929999999
 21
128.346972
 31
0.0
  0
LINE
  5
9753
330
96F2
100
AcDbEntity
  8
4
  6
CENTER
100
AcDbLine
 10
259.3465929999999
 20
105.846962
 30
0.0
 11
266.346593
 21
105.846962
 31
0.0
  0
LINE
  5
9754
330
96F2
100
AcDbEntity
  8
1
  6
Continuous
100
AcDbLine
 10
272.3465929999999
 20
145.8469619999999
 30
0.0
 11
272.0602579999999
 21
145.8469619999999
 31
0.0
  0
LINE
  5
9755
330
96F2
100
AcDbEntity
  8
1
  6
Continuous
100
AcDbLine
 10
272.3465929999999
 20
145.8469619999999
 30
0.0
 11
272.3465929999999
 21
128.346972
 31
0.0
  0
LINE
  5
9756
330
96F2
100
AcDbEntity
  8
1
  6
Continuous
100
AcDbLine
 10
253.346593
 20
145.8469619999999
 30
0.0
 11
253.346593
 21
128.346972
 31
0.0
  0
LINE
  5
9757
330
96F2
100
AcDbEntity
  8
1
  6
Continuous
100
AcDbLine
 10
24.866356
 20
141.846972
 30
0.0
 11
43.666356
 21
141.846972
 31
0.0
  0
LINE
  5
9758
330
96F2
100
AcDbEntity
  8
1
  6
Continuous
100
AcDbLine
 10
26.36635599999999
 20
80.84696200000001
 30
0.0
 11
42.166356
 21
80.84696200000001
 31
0.0
  0
LINE
  5
9759
330
96F2
100
AcDbEntity
  8
1
  6
Continuous
100
AcDbLine
 10
24.866356
 20
142.3469719999999
 30
0.0
 11
24.866356
 21
82.346962
 31
0.0
  0
LINE
  5
975A
330
96F2
100
AcDbEntity
  8
1
  6
Continuous
100
AcDbLine
 10
43.666356
 20
142.3469719999999
 30
0.0
 11
43.666356
 21
82.346962
 31
0.0
  0
LINE
  5
975B
330
96F2
100
AcDbEntity
  8
5
  6
PHANTOM
100
AcDbLine
 10
137.248393
 20
140.067272
 30
0.0
 11
89.64789300000004
 21
127.3127419999999
 31
0.0
  0
LINE
  5
975C
330
96F2
100
AcDbEntity
  8
5
  6
PHANTOM
100
AcDbLine
 10
98.44519300000001
 20
123.4583619999999
 30
0.0
 11
100.127593
 21
117.179862
 31
0.0
  0
LINE
  5
975D
330
96F2
100
AcDbEntity
  8
5
  6
PHANTOM
100
AcDbLine
 10
129.5616629999998
 20
133.866508
 30
0.0
 11
99.85939300000001
 21
125.9078219999999
 31
0.0
  0
LINE
  5
975E
330
96F2
100
AcDbEntity
  8
5
  6
PHANTOM
100
AcDbLine
 10
129.5616629999998
 20
133.866508
 30
0.0
 11
130.208703
 21
131.4516919999997
 31
0.0
  0
LINE
  5
975F
330
96F2
100
AcDbEntity
  8
5
  6
PHANTOM
100
AcDbLine
 10
137.248393
 20
129.1968719999998
 30
0.0
 11
135.1076929999998
 21
128.623262
 31
0.0
  0
LINE
  5
9760
330
96F2
100
AcDbEntity
  8
1
  6
Continuous
100
AcDbLine
 10
248.896593
 20
85.84696200000001
 30
0.0
 11
276.7965929999999
 21
85.84696200000001
 31
0.0
  0
LINE
  5
9761
330
96F2
100
AcDbEntity
  8
1
  6
Continuous
100
AcDbLine
 10
248.896593
 20
125.8469719999998
 30
0.0
 11
276.7965929999999
 21
125.8469719999998
 31
0.0
  0
LINE
  5
9762
330
96F2
100
AcDbEntity
  8
1
  6
Continuous
100
AcDbLine
 10
248.896593
 20
125.8469719999998
 30
0.0
 11
248.896593
 21
85.84696200000001
 31
0.0
  0
LINE
  5
9763
330
96F2
100
AcDbEntity
  8
1
  6
Continuous
100
AcDbLine
 10
276.7965929999999
 20
125.8469719999998
 30
0.0
 11
276.7965929999999
 21
85.84696200000001
 31
0.0
  0
LINE
  5
9764
330
96F2
100
AcDbEntity
  8
1
  6
Continuous
100
AcDbLine
 10
251.346593
 20
85.84696200000001
 30
0.0
 11
251.346593
 21
52.84696199999999
 31
0.0
  0
LINE
  5
9765
330
96F2
100
AcDbEntity
  8
1
  6
Continuous
100
AcDbLine
 10
274.3465929999999
 20
85.84696200000001
 30
0.0
 11
274.3465929999999
 21
52.84696199999999
 31
0.0
  0
LINE
  5
9766
330
96F2
100
AcDbEntity
  8
1
  6
Continuous
100
AcDbLine
 10
182.6520929999998
 20
85.84696200000001
 30
0.0
 11
199.9520929999999
 21
85.84696200000001
 31
0.0
  0
LINE
  5
9767
330
96F2
100
AcDbEntity
  8
1
  6
Continuous
100
AcDbLine
 10
182.6520929999998
 20
125.8469719999998
 30
0.0
 11
199.9520929999999
 21
125.8469719999998
 31
0.0
  0
LINE
  5
9768
330
96F2
100
AcDbEntity
  8
1
  6
Continuous
100
AcDbLine
 10
182.6520929999998
 20
125.8469719999998
 30
0.0
 11
182.6520929999998
 21
85.84696200000001
 31
0.0
  0
LINE
  5
9769
330
96F2
100
AcDbEntity
  8
1
  6
Continuous
100
AcDbLine
 10
199.9520929999999
 20
125.8469719999998
 30
0.0
 11
199.9520929999999
 21
85.84696200000001
 31
0.0
  0
LINE
  5
976A
330
96F2
100
AcDbEntity
  8
4
  6
CENTER
100
AcDbLine
 10
150.1406929999999
 20
105.846962
 30
0.0
 11
157.329193
 21
105.846962
 31
0.0
  0
LINE
  5
976B
330
96F2
100
AcDbEntity
  8
4
  6
CENTER
100
AcDbLine
 10
179.625293
 20
105.846962
 30
0.0
 11
203.8391929999999
 21
105.846962
 31
0.0
  0
LINE
  5
976C
330
96F2
100
AcDbEntity
  8
1
  6
Continuous
100
AcDbLine
 10
200.9520929999999
 20
108.346962
 30
0.0
 11
200.9520929999999
 21
103.3469619999999
 31
0.0
  0
LINE
  5
976D
330
96F2
100
AcDbEntity
  8
1
  6
Continuous
100
AcDbLine
 10
150.512993
 20
135.8469719999999
 30
0.0
 11
151.478903
 21
139.45183
 31
0.0
  0
LINE
  5
976E
330
96F2
100
AcDbEntity
  8
1
  6
Continuous
100
AcDbLine
 10
150.512993
 20
135.8469719999999
 30
0.0
 11
148.7483929999999
 21
135.8469719999999
 31
0.0
  0
LINE
  5
976F
330
96F2
100
AcDbEntity
  8
1
  6
Continuous
100
AcDbLine
 10
24.76635599999999
 20
76.346962
 30
0.0
 11
43.766356
 21
76.346962
 31
0.0
  0
LINE
  5
9770
330
96F2
100
AcDbEntity
  8
1
  6
Continuous
100
AcDbLine
 10
24.866356
 20
76.346962
 30
0.0
 11
24.866356
 21
59.346962
 31
0.0
  0
LINE
  5
9771
330
96F2
100
AcDbEntity
  8
1
  6
Continuous
100
AcDbLine
 10
43.666356
 20
76.346962
 30
0.0
 11
43.666356
 21
59.346962
 31
0.0
  0
LINE
  5
9772
330
96F2
100
AcDbEntity
  8
4
  6
CENTER
100
AcDbLine
 10
26.275656
 20
70.346962
 30
0.0
 11
42.337856
 21
70.346962
 31
0.0
  0
LINE
  5
9773
330
96F2
100
AcDbEntity
  8
1
  6
Continuous
100
AcDbLine
 10
28.233156
 20
69.446962
 30
0.0
 11
31.29995599999999
 21
69.446962
 31
0.0
  0
LINE
  5
9774
330
96F2
100
AcDbEntity
  8
1
  6
Continuous
100
AcDbLine
 10
28.233156
 20
71.24696199999998
 30
0.0
 11
31.29995599999999
 21
71.24696199999998
 31
0.0
  0
LINE
  5
9775
330
96F2
100
AcDbEntity
  8
1
  6
Continuous
100
AcDbLine
 10
37.232856
 20
71.24696199999998
 30
0.0
 11
40.29965599999999
 21
71.24696199999998
 31
0.0
  0
LINE
  5
9776
330
96F2
100
AcDbEntity
  8
1
  6
Continuous
100
AcDbLine
 10
37.232856
 20
69.446962
 30
0.0
 11
40.29965599999999
 21
69.446962
 31
0.0
  0
LINE
  5
9777
330
96F2
100
AcDbEntity
  8
1
  6
Continuous
100
AcDbLine
 10
26.766356
 20
65.346962
 30
0.0
 11
41.766356
 21
65.346962
 31
0.0
  0
LINE
  5
9778
330
96F2
100
AcDbEntity
  8
1
  6
Continuous
100
AcDbLine
 10
272.246593
 20
143.3469719999999
 30
0.0
 11
272.0744569999999
 21
143.3469719999999
 31
0.0
  0
LINE
  5
9779
330
96F2
100
AcDbEntity
  8
1
  6
Continuous
100
AcDbLine
 10
253.446593
 20
143.3469719999999
 30
0.0
 11
253.446593
 21
128.346972
 31
0.0
  0
LINE
  5
977A
330
96F2
100
AcDbEntity
  8
1
  6
Continuous
100
AcDbLine
 10
272.246593
 20
143.3469719999999
 30
0.0
 11
272.246593
 21
128.346972
 31
0.0
  0
LINE
  5
977B
330
96F2
100
AcDbEntity
  8
1
  6
Continuous
100
AcDbLine
 10
258.996593
 20
143.3469719999999
 30
0.0
 11
258.996593
 21
128.346972
 31
0.0
  0
LINE
  5
977C
330
96F2
100
AcDbEntity
  8
1
  6
Continuous
100
AcDbLine
 10
266.6965929999999
 20
143.3469719999999
 30
0.0
 11
266.6965929999999
 21
128.346972
 31
0.0
  0
LINE
  5
977D
330
96F2
100
AcDbEntity
  8
1
  6
Continuous
100
AcDbLine
 10
264.346593
 20
143.3469719999999
 30
0.0
 11
264.346593
 21
128.346972
 31
0.0
  0
LINE
  5
977E
330
96F2
100
AcDbEntity
  8
1
  6
Continuous
100
AcDbLine
 10
261.3465929999999
 20
143.3469719999999
 30
0.0
 11
261.3465929999999
 21
128.346972
 31
0.0
  0
LINE
  5
977F
330
96F2
100
AcDbEntity
  8
1
  6
Continuous
100
AcDbLine
 10
258.996593
 20
135.8469719999999
 30
0.0
 11
261.3465929999999
 21
135.8469719999999
 31
0.0
  0
LINE
  5
9780
330
96F2
100
AcDbEntity
  8
1
  6
Continuous
100
AcDbLine
 10
264.346593
 20
135.8469719999999
 30
0.0
 11
266.6965929999999
 21
135.8469719999999
 31
0.0
  0
LINE
  5
9781
330
96F2
100
AcDbEntity
  8
1
  6
Continuous
100
AcDbLine
 10
253.346593
 20
137.3469719999999
 30
0.0
 11
255.127593
 21
137.3469719999999
 31
0.0
  0
LINE
  5
9782
330
96F2
100
AcDbEntity
  8
1
  6
Continuous
100
AcDbLine
 10
253.346593
 20
134.3469709999999
 30
0.0
 11
254.7525929999999
 21
134.3469709999999
 31
0.0
  0
LINE
  5
9783
330
96F2
100
AcDbEntity
  8
1
  6
Continuous
100
AcDbLine
 10
266.6965929999999
 20
134.3469709999999
 30
0.0
 11
267.3275929999999
 21
134.3469709999999
 31
0.0
  0
LINE
  5
9784
330
96F2
100
AcDbEntity
  8
1
  6
Continuous
100
AcDbLine
 10
266.6965929999999
 20
137.3469719999999
 30
0.0
 11
266.9525929999999
 21
137.3469719999999
 31
0.0
  0
LINE
  5
9785
330
96F2
100
AcDbEntity
  8
5
  6
PHANTOM
100
AcDbLine
 10
99.06689300000001
 20
115.342662
 30
0.0
 11
93.27129300000001
 21
113.789762
 31
0.0
  0
LINE
  5
9786
330
96F2
100
AcDbEntity
  8
5
  6
PHANTOM
100
AcDbLine
 10
93.94379300000002
 20
117.075762
 30
0.0
 11
88.777293
 21
125.048102
 31
0.0
  0
LINE
  5
9787
330
96F2
100
AcDbEntity
  8
5
  6
PHANTOM
100
AcDbLine
 10
93.94379300000002
 20
117.075762
 30
0.0
 11
91.04599300000002
 21
116.299362
 31
0.0
  0
LINE
  5
9788
330
96F2
100
AcDbEntity
  8
5
  6
PHANTOM
100
AcDbLine
 10
91.04599300000002
 20
116.299362
 30
0.0
 11
91.43419299999999
 21
114.8504619999999
 31
0.0
  0
LINE
  5
9789
330
96F2
100
AcDbEntity
  8
1
  6
Continuous
100
AcDbLine
 10
251.346593
 20
83.34696200000001
 30
0.0
 11
274.3465929999999
 21
83.34696200000001
 31
0.0
  0
LINE
  5
978A
330
96F2
100
AcDbEntity
  8
1
  6
Continuous
100
AcDbLine
 10
251.346593
 20
55.84696199999999
 30
0.0
 11
274.3465929999999
 21
55.84696199999999
 31
0.0
  0
LINE
  5
978B
330
96F2
100
AcDbEntity
  8
4
  6
CENTER
100
AcDbLine
 10
260.8465929999999
 20
70.346962
 30
0.0
 11
264.8465929999999
 21
70.346962
 31
0.0
  0
LINE
  5
978C
330
96F2
100
AcDbEntity
  8
1
  6
Continuous
100
AcDbLine
 10
268.3105929999999
 20
62.882962
 30
0.0
 11
268.8245929999999
 21
63.111662
 31
0.0
  0
LINE
  5
978D
330
96F2
100
AcDbEntity
  8
1
  6
Continuous
100
AcDbLine
 10
268.8245929999999
 20
63.111662
 30
0.0
 11
269.126593
 21
63.116962
 31
0.0
  0
LINE
  5
978E
330
96F2
100
AcDbEntity
  8
1
  6
Continuous
100
AcDbLine
 10
268.3105929999999
 20
63.81096199999999
 30
0.0
 11
268.8245929999999
 21
63.582262
 31
0.0
  0
LINE
  5
978F
330
96F2
100
AcDbEntity
  8
1
  6
Continuous
100
AcDbLine
 10
268.8245929999999
 20
63.582262
 30
0.0
 11
269.126593
 21
63.576962
 31
0.0
  0
LINE
  5
9790
330
96F2
100
AcDbEntity
  8
1
  6
Continuous
100
AcDbLine
 10
267.611593
 20
64.32476199999999
 30
0.0
 11
267.616593
 21
64.626462
 31
0.0
  0
LINE
  5
9791
330
96F2
100
AcDbEntity
  8
1
  6
Continuous
100
AcDbLine
 10
267.382593
 20
63.81096199999999
 30
0.0
 11
267.611593
 21
64.32476199999999
 31
0.0
  0
LINE
  5
9792
330
96F2
100
AcDbEntity
  8
1
  6
Continuous
100
AcDbLine
 10
268.0825929999999
 20
64.32476199999999
 30
0.0
 11
268.076593
 21
64.626462
 31
0.0
  0
LINE
  5
9793
330
96F2
100
AcDbEntity
  8
1
  6
Continuous
100
AcDbLine
 10
268.3105929999999
 20
63.81096199999999
 30
0.0
 11
268.0825929999999
 21
64.32476199999999
 31
0.0
  0
LINE
  5
9794
330
96F2
100
AcDbEntity
  8
1
  6
Continuous
100
AcDbLine
 10
266.8685929999999
 20
63.111662
 30
0.0
 11
266.5675929999999
 21
63.116962
 31
0.0
  0
LINE
  5
9795
330
96F2
100
AcDbEntity
  8
1
  6
Continuous
100
AcDbLine
 10
267.382593
 20
62.882962
 30
0.0
 11
266.8685929999999
 21
63.111662
 31
0.0
  0
LINE
  5
9796
330
96F2
100
AcDbEntity
  8
1
  6
Continuous
100
AcDbLine
 10
266.8685929999999
 20
63.582262
 30
0.0
 11
266.5675929999999
 21
63.576962
 31
0.0
  0
LINE
  5
9797
330
96F2
100
AcDbEntity
  8
1
  6
Continuous
100
AcDbLine
 10
267.382593
 20
63.81096199999999
 30
0.0
 11
266.8685929999999
 21
63.582262
 31
0.0
  0
LINE
  5
9798
330
96F2
100
AcDbEntity
  8
1
  6
Continuous
100
AcDbLine
 10
268.0825929999999
 20
62.369162
 30
0.0
 11
268.076593
 21
62.067462
 31
0.0
  0
LINE
  5
9799
330
96F2
100
AcDbEntity
  8
1
  6
Continuous
100
AcDbLine
 10
268.3105929999999
 20
62.882962
 30
0.0
 11
268.0825929999999
 21
62.369162
 31
0.0
  0
LINE
  5
979A
330
96F2
100
AcDbEntity
  8
1
  6
Continuous
100
AcDbLine
 10
267.611593
 20
62.369162
 30
0.0
 11
267.616593
 21
62.067462
 31
0.0
  0
LINE
  5
979B
330
96F2
100
AcDbEntity
  8
1
  6
Continuous
100
AcDbLine
 10
267.382593
 20
62.882962
 30
0.0
 11
267.611593
 21
62.369162
 31
0.0
  0
LINE
  5
979C
330
96F2
100
AcDbEntity
  8
1
  6
Continuous
100
AcDbLine
 10
258.3105929999999
 20
62.882962
 30
0.0
 11
258.8245929999998
 21
63.111662
 31
0.0
  0
LINE
  5
979D
330
96F2
100
AcDbEntity
  8
1
  6
Continuous
100
AcDbLine
 10
258.8245929999998
 20
63.111662
 30
0.0
 11
259.126593
 21
63.116962
 31
0.0
  0
LINE
  5
979E
330
96F2
100
AcDbEntity
  8
1
  6
Continuous
100
AcDbLine
 10
258.3105929999999
 20
63.81096199999999
 30
0.0
 11
258.8245929999998
 21
63.582262
 31
0.0
  0
LINE
  5
979F
330
96F2
100
AcDbEntity
  8
1
  6
Continuous
100
AcDbLine
 10
258.8245929999998
 20
63.582262
 30
0.0
 11
259.126593
 21
63.576962
 31
0.0
  0
LINE
  5
97A0
330
96F2
100
AcDbEntity
  8
1
  6
Continuous
100
AcDbLine
 10
257.611593
 20
64.32476199999999
 30
0.0
 11
257.616593
 21
64.626462
 31
0.0
  0
LINE
  5
97A1
330
96F2
100
AcDbEntity
  8
1
  6
Continuous
100
AcDbLine
 10
257.3825929999999
 20
63.81096199999999
 30
0.0
 11
257.611593
 21
64.32476199999999
 31
0.0
  0
LINE
  5
97A2
330
96F2
100
AcDbEntity
  8
1
  6
Continuous
100
AcDbLine
 10
258.0825929999999
 20
64.32476199999999
 30
0.0
 11
258.076593
 21
64.626462
 31
0.0
  0
LINE
  5
97A3
330
96F2
100
AcDbEntity
  8
1
  6
Continuous
100
AcDbLine
 10
258.3105929999999
 20
63.81096199999999
 30
0.0
 11
258.0825929999999
 21
64.32476199999999
 31
0.0
  0
LINE
  5
97A4
330
96F2
100
AcDbEntity
  8
1
  6
Continuous
100
AcDbLine
 10
256.868593
 20
63.111662
 30
0.0
 11
256.5675929999999
 21
63.116962
 31
0.0
  0
LINE
  5
97A5
330
96F2
100
AcDbEntity
  8
1
  6
Continuous
100
AcDbLine
 10
257.3825929999999
 20
62.882962
 30
0.0
 11
256.868593
 21
63.111662
 31
0.0
  0
LINE
  5
97A6
330
96F2
100
AcDbEntity
  8
1
  6
Continuous
100
AcDbLine
 10
256.868593
 20
63.582262
 30
0.0
 11
256.5675929999999
 21
63.576962
 31
0.0
  0
LINE
  5
97A7
330
96F2
100
AcDbEntity
  8
1
  6
Continuous
100
AcDbLine
 10
257.3825929999999
 20
63.81096199999999
 30
0.0
 11
256.868593
 21
63.582262
 31
0.0
  0
LINE
  5
97A8
330
96F2
100
AcDbEntity
  8
1
  6
Continuous
100
AcDbLine
 10
258.0825929999999
 20
62.369162
 30
0.0
 11
258.076593
 21
62.067462
 31
0.0
  0
LINE
  5
97A9
330
96F2
100
AcDbEntity
  8
1
  6
Continuous
100
AcDbLine
 10
258.3105929999999
 20
62.882962
 30
0.0
 11
258.0825929999999
 21
62.369162
 31
0.0
  0
LINE
  5
97AA
330
96F2
100
AcDbEntity
  8
1
  6
Continuous
100
AcDbLine
 10
257.611593
 20
62.369162
 30
0.0
 11
257.616593
 21
62.067462
 31
0.0
  0
LINE
  5
97AB
330
96F2
100
AcDbEntity
  8
1
  6
Continuous
100
AcDbLine
 10
257.3825929999999
 20
62.882962
 30
0.0
 11
257.611593
 21
62.369162
 31
0.0
  0
LINE
  5
97AC
330
96F2
100
AcDbEntity
  8
1
  6
Continuous
100
AcDbLine
 10
258.3105929999999
 20
76.882962
 30
0.0
 11
258.8245929999998
 21
77.11166199999998
 31
0.0
  0
LINE
  5
97AD
330
96F2
100
AcDbEntity
  8
1
  6
Continuous
100
AcDbLine
 10
258.8245929999998
 20
77.11166199999998
 30
0.0
 11
259.126593
 21
77.116962
 31
0.0
  0
LINE
  5
97AE
330
96F2
100
AcDbEntity
  8
1
  6
Continuous
100
AcDbLine
 10
258.3105929999999
 20
77.810962
 30
0.0
 11
258.8245929999998
 21
77.582262
 31
0.0
  0
LINE
  5
97AF
330
96F2
100
AcDbEntity
  8
1
  6
Continuous
100
AcDbLine
 10
258.8245929999998
 20
77.582262
 30
0.0
 11
259.126593
 21
77.57696199999998
 31
0.0
  0
LINE
  5
97B0
330
96F2
100
AcDbEntity
  8
1
  6
Continuous
100
AcDbLine
 10
257.611593
 20
78.32476199999998
 30
0.0
 11
257.616593
 21
78.626462
 31
0.0
  0
LINE
  5
97B1
330
96F2
100
AcDbEntity
  8
1
  6
Continuous
100
AcDbLine
 10
257.3825929999999
 20
77.810962
 30
0.0
 11
257.611593
 21
78.32476199999998
 31
0.0
  0
LINE
  5
97B2
330
96F2
100
AcDbEntity
  8
1
  6
Continuous
100
AcDbLine
 10
258.0825929999999
 20
78.32476199999998
 30
0.0
 11
258.076593
 21
78.626462
 31
0.0
  0
LINE
  5
97B3
330
96F2
100
AcDbEntity
  8
1
  6
Continuous
100
AcDbLine
 10
258.3105929999999
 20
77.810962
 30
0.0
 11
258.0825929999999
 21
78.32476199999998
 31
0.0
  0
LINE
  5
97B4
330
96F2
100
AcDbEntity
  8
1
  6
Continuous
100
AcDbLine
 10
256.868593
 20
77.11166199999998
 30
0.0
 11
256.5675929999999
 21
77.116962
 31
0.0
  0
LINE
  5
97B5
330
96F2
100
AcDbEntity
  8
1
  6
Continuous
100
AcDbLine
 10
257.3825929999999
 20
76.882962
 30
0.0
 11
256.868593
 21
77.11166199999998
 31
0.0
  0
LINE
  5
97B6
330
96F2
100
AcDbEntity
  8
1
  6
Continuous
100
AcDbLine
 10
256.868593
 20
77.582262
 30
0.0
 11
256.5675929999999
 21
77.57696199999998
 31
0.0
  0
LINE
  5
97B7
330
96F2
100
AcDbEntity
  8
1
  6
Continuous
100
AcDbLine
 10
257.3825929999999
 20
77.810962
 30
0.0
 11
256.868593
 21
77.582262
 31
0.0
  0
LINE
  5
97B8
330
96F2
100
AcDbEntity
  8
1
  6
Continuous
100
AcDbLine
 10
258.0825929999999
 20
76.369162
 30
0.0
 11
258.076593
 21
76.067462
 31
0.0
  0
LINE
  5
97B9
330
96F2
100
AcDbEntity
  8
1
  6
Continuous
100
AcDbLine
 10
258.3105929999999
 20
76.882962
 30
0.0
 11
258.0825929999999
 21
76.369162
 31
0.0
  0
LINE
  5
97BA
330
96F2
100
AcDbEntity
  8
1
  6
Continuous
100
AcDbLine
 10
257.611593
 20
76.369162
 30
0.0
 11
257.616593
 21
76.067462
 31
0.0
  0
LINE
  5
97BB
330
96F2
100
AcDbEntity
  8
1
  6
Continuous
100
AcDbLine
 10
257.3825929999999
 20
76.882962
 30
0.0
 11
257.611593
 21
76.369162
 31
0.0
  0
LINE
  5
97BC
330
96F2
100
AcDbEntity
  8
1
  6
Continuous
100
AcDbLine
 10
268.3105929999999
 20
76.882962
 30
0.0
 11
268.8245929999999
 21
77.11166199999998
 31
0.0
  0
LINE
  5
97BD
330
96F2
100
AcDbEntity
  8
1
  6
Continuous
100
AcDbLine
 10
268.8245929999999
 20
77.11166199999998
 30
0.0
 11
269.126593
 21
77.116962
 31
0.0
  0
LINE
  5
97BE
330
96F2
100
AcDbEntity
  8
1
  6
Continuous
100
AcDbLine
 10
268.3105929999999
 20
77.810962
 30
0.0
 11
268.8245929999999
 21
77.582262
 31
0.0
  0
LINE
  5
97BF
330
96F2
100
AcDbEntity
  8
1
  6
Continuous
100
AcDbLine
 10
268.8245929999999
 20
77.582262
 30
0.0
 11
269.126593
 21
77.57696199999998
 31
0.0
  0
LINE
  5
97C0
330
96F2
100
AcDbEntity
  8
1
  6
Continuous
100
AcDbLine
 10
267.611593
 20
78.32476199999998
 30
0.0
 11
267.616593
 21
78.626462
 31
0.0
  0
LINE
  5
97C1
330
96F2
100
AcDbEntity
  8
1
  6
Continuous
100
AcDbLine
 10
267.382593
 20
77.810962
 30
0.0
 11
267.611593
 21
78.32476199999998
 31
0.0
  0
LINE
  5
97C2
330
96F2
100
AcDbEntity
  8
1
  6
Continuous
100
AcDbLine
 10
268.0825929999999
 20
78.32476199999998
 30
0.0
 11
268.076593
 21
78.626462
 31
0.0
  0
LINE
  5
97C3
330
96F2
100
AcDbEntity
  8
1
  6
Continuous
100
AcDbLine
 10
268.3105929999999
 20
77.810962
 30
0.0
 11
268.0825929999999
 21
78.32476199999998
 31
0.0
  0
LINE
  5
97C4
330
96F2
100
AcDbEntity
  8
1
  6
Continuous
100
AcDbLine
 10
266.8685929999999
 20
77.11166199999998
 30
0.0
 11
266.5675929999999
 21
77.116962
 31
0.0
  0
LINE
  5
97C5
330
96F2
100
AcDbEntity
  8
1
  6
Continuous
100
AcDbLine
 10
267.382593
 20
76.882962
 30
0.0
 11
266.8685929999999
 21
77.11166199999998
 31
0.0
  0
LINE
  5
97C6
330
96F2
100
AcDbEntity
  8
1
  6
Continuous
100
AcDbLine
 10
266.8685929999999
 20
77.582262
 30
0.0
 11
266.5675929999999
 21
77.57696199999998
 31
0.0
  0
LINE
  5
97C7
330
96F2
100
AcDbEntity
  8
1
  6
Continuous
100
AcDbLine
 10
267.382593
 20
77.810962
 30
0.0
 11
266.8685929999999
 21
77.582262
 31
0.0
  0
LINE
  5
97C8
330
96F2
100
AcDbEntity
  8
1
  6
Continuous
100
AcDbLine
 10
268.0825929999999
 20
76.369162
 30
0.0
 11
268.076593
 21
76.067462
 31
0.0
  0
LINE
  5
97C9
330
96F2
100
AcDbEntity
  8
1
  6
Continuous
100
AcDbLine
 10
268.3105929999999
 20
76.882962
 30
0.0
 11
268.0825929999999
 21
76.369162
 31
0.0
  0
LINE
  5
97CA
330
96F2
100
AcDbEntity
  8
1
  6
Continuous
100
AcDbLine
 10
267.611593
 20
76.369162
 30
0.0
 11
267.616593
 21
76.067462
 31
0.0
  0
LINE
  5
97CB
330
96F2
100
AcDbEntity
  8
1
  6
Continuous
100
AcDbLine
 10
267.382593
 20
76.882962
 30
0.0
 11
267.611593
 21
76.369162
 31
0.0
  0
LINE
  5
97CC
330
96F2
100
AcDbEntity
  8
4
  6
CENTER
100
AcDbLine
 10
267.8465929999999
 20
66.596962
 30
0.0
 11
267.8465929999999
 21
60.096962
 31
0.0
  0
LINE
  5
97CD
330
96F2
100
AcDbEntity
  8
4
  6
CENTER
100
AcDbLine
 10
264.596593
 20
63.34696199999999
 30
0.0
 11
271.0965929999999
 21
63.34696199999999
 31
0.0
  0
LINE
  5
97CE
330
96F2
100
AcDbEntity
  8
4
  6
CENTER
100
AcDbLine
 10
257.8465929999999
 20
66.596962
 30
0.0
 11
257.8465929999999
 21
60.096962
 31
0.0
  0
LINE
  5
97CF
330
96F2
100
AcDbEntity
  8
4
  6
CENTER
100
AcDbLine
 10
254.596593
 20
63.34696199999999
 30
0.0
 11
261.0965929999999
 21
63.34696199999999
 31
0.0
  0
LINE
  5
97D0
330
96F2
100
AcDbEntity
  8
4
  6
CENTER
100
AcDbLine
 10
257.8465929999999
 20
80.59696200000002
 30
0.0
 11
257.8465929999999
 21
74.096962
 31
0.0
  0
LINE
  5
97D1
330
96F2
100
AcDbEntity
  8
4
  6
CENTER
100
AcDbLine
 10
254.596593
 20
77.34696200000001
 30
0.0
 11
261.0965929999999
 21
77.34696200000001
 31
0.0
  0
LINE
  5
97D2
330
96F2
100
AcDbEntity
  8
4
  6
CENTER
100
AcDbLine
 10
267.8465929999999
 20
80.59696200000002
 30
0.0
 11
267.8465929999999
 21
74.096962
 31
0.0
  0
LINE
  5
97D3
330
96F2
100
AcDbEntity
  8
4
  6
CENTER
100
AcDbLine
 10
264.596593
 20
77.34696200000001
 30
0.0
 11
271.0965929999999
 21
77.34696200000001
 31
0.0
  0
LINE
  5
97D4
330
96F2
100
AcDbEntity
  8
1
  6
Continuous
100
AcDbLine
 10
151.748393
 20
55.84696199999999
 30
0.0
 11
153.748393
 21
55.84696199999999
 31
0.0
  0
LINE
  5
97D5
330
96F2
100
AcDbEntity
  8
1
  6
Continuous
100
AcDbLine
 10
153.748393
 20
83.34696200000001
 30
0.0
 11
153.748393
 21
55.84696199999999
 31
0.0
  0
LINE
  5
97D6
330
96F2
100
AcDbEntity
  8
1
  6
Continuous
100
AcDbLine
 10
264.346593
 20
133.3469719999999
 30
0.0
 11
261.3465929999999
 21
133.3469719999999
 31
0.0
  0
LINE
  5
97D7
330
96F2
100
AcDbEntity
  8
1
  6
Continuous
100
AcDbLine
 10
264.346593
 20
138.3469719999999
 30
0.0
 11
261.3465929999999
 21
138.3469719999999
 31
0.0
  0
LINE
  5
97D8
330
96F2
100
AcDbEntity
  8
1
  6
Continuous
100
AcDbLine
 10
262.346593
 20
138.3469719999999
 30
0.0
 11
262.346593
 21
128.346972
 31
0.0
  0
LINE
  5
97D9
330
96F2
100
AcDbEntity
  8
1
  6
Continuous
100
AcDbLine
 10
263.3465929999999
 20
138.3469719999999
 30
0.0
 11
263.3465929999999
 21
128.346972
 31
0.0
  0
LINE
  5
97DA
330
96F2
100
AcDbEntity
  8
1
  6
Continuous
100
AcDbLine
 10
257.203593
 20
139.5569419999999
 30
0.0
 11
256.2905929999998
 21
132.137002
 31
0.0
  0
LINE
  5
97DB
330
96F2
100
AcDbEntity
  8
1
  6
Continuous
100
AcDbLine
 10
258.996593
 20
139.3909419999999
 30
0.0
 11
258.089593
 21
132.1353419999998
 31
0.0
  0
LINE
  5
97DC
330
96F2
100
AcDbEntity
  8
1
  6
Continuous
100
AcDbLine
 10
266.703593
 20
139.3353419999999
 30
0.0
 11
267.6035929999998
 21
132.1353419999998
 31
0.0
  0
LINE
  5
97DD
330
96F2
100
AcDbEntity
  8
1
  6
Continuous
100
AcDbLine
 10
268.489593
 20
139.558602
 30
0.0
 11
269.437593
 21
131.9807219999999
 31
0.0
  0
LINE
  5
97DE
330
96F2
100
AcDbEntity
  8
1
  6
Continuous
100
AcDbLine
 10
270.337593
 20
139.180722
 30
0.0
 11
271.189593
 21
132.358602
 31
0.0
  0
LINE
  5
97DF
330
96F2
100
AcDbEntity
  8
1
  6
Continuous
100
AcDbLine
 10
268.3965929999998
 20
131.346972
 30
0.0
 11
268.3965929999998
 21
129.2469719999998
 31
0.0
  0
LINE
  5
97E0
330
96F2
100
AcDbEntity
  8
1
  6
Continuous
100
AcDbLine
 10
257.196593
 20
131.346972
 30
0.0
 11
257.196593
 21
129.2469719999998
 31
0.0
  0
LINE
  5
97E1
330
96F2
100
AcDbEntity
  8
1
  6
Continuous
100
AcDbLine
 10
255.3565929999999
 20
139.1807119999998
 30
0.0
 11
254.503593
 21
132.358602
 31
0.0
  0
LINE
  5
97E2
330
96F2
100
AcDbEntity
  8
1
  6
Continuous
100
AcDbLine
 10
253.6187289999999
 20
143.3469719999999
 30
0.0
 11
253.446593
 21
143.3469719999999
 31
0.0
  0
LINE
  5
97E3
330
96F2
100
AcDbEntity
  8
1
  6
Continuous
100
AcDbLine
 10
253.6329279999999
 20
145.8469619999999
 30
0.0
 11
253.346593
 21
145.8469619999999
 31
0.0
  0
LINE
  5
97E4
330
96F2
100
AcDbEntity
  8
1
  6
Continuous
100
AcDbLine
 10
253.644287
 20
147.846962
 30
0.0
 11
251.346593
 21
147.846962
 31
0.0
  0
LINE
  5
97E5
330
96F2
100
AcDbEntity
  8
1
  6
Continuous
100
AcDbLine
 10
253.6584869999999
 20
150.3469619999999
 30
0.0
 11
248.846593
 21
150.3469619999999
 31
0.0
  0
LINE
  5
97E6
330
96F2
100
AcDbEntity
  8
1
  6
Continuous
100
AcDbLine
 10
270.234671
 20
150.3469619999999
 30
0.0
 11
255.458516
 21
150.3469619999999
 31
0.0
  0
LINE
  5
97E7
330
96F2
100
AcDbEntity
  8
1
  6
Continuous
100
AcDbLine
 10
270.2488699999999
 20
147.846962
 30
0.0
 11
255.4443169999999
 21
147.846962
 31
0.0
  0
LINE
  5
97E8
330
96F2
100
AcDbEntity
  8
1
  6
Continuous
100
AcDbLine
 10
270.2602289999999
 20
145.8469619999999
 30
0.0
 11
255.4329569999999
 21
145.8469619999999
 31
0.0
  0
LINE
  5
97E9
330
96F2
100
AcDbEntity
  8
1
  6
Continuous
100
AcDbLine
 10
270.274428
 20
143.3469719999999
 30
0.0
 11
255.418758
 21
143.3469719999999
 31
0.0
  0
LINE
  5
97EA
330
96F2
100
AcDbEntity
  8
1
  6
Continuous
100
AcDbLine
 10
258.741593
 20
137.3469719999999
 30
0.0
 11
258.996593
 21
137.3469719999999
 31
0.0
  0
LINE
  5
97EB
330
96F2
100
AcDbEntity
  8
1
  6
Continuous
100
AcDbLine
 10
258.366593
 20
134.3469709999999
 30
0.0
 11
258.996593
 21
134.3469709999999
 31
0.0
  0
LINE
  5
97EC
330
96F2
100
AcDbEntity
  8
1
  6
Continuous
100
AcDbLine
 10
270.566593
 20
137.3469719999999
 30
0.0
 11
272.3465929999999
 21
137.3469719999999
 31
0.0
  0
LINE
  5
97ED
330
96F2
100
AcDbEntity
  8
1
  6
Continuous
100
AcDbLine
 10
270.941593
 20
134.3469709999999
 30
0.0
 11
272.3465929999999
 21
134.3469709999999
 31
0.0
  0
LINE
  5
97EE
330
96F2
100
AcDbEntity
  8
4
  6
CENTER
100
AcDbLine
 10
140.1213929999999
 20
135.8469719999999
 30
0.0
 11
145.5171929999998
 21
135.8469719999999
 31
0.0
  0
LINE
  5
97EF
330
96F2
100
AcDbEntity
  8
1
  6
Continuous
100
AcDbLine
 10
260.246593
 20
53.846962
 30
0.0
 11
265.446593
 21
53.846962
 31
0.0
  0
LINE
  5
97F0
330
96F2
100
AcDbEntity
  8
1
  6
Continuous
100
AcDbLine
 10
265.446593
 20
55.84696199999999
 30
0.0
 11
265.446593
 21
53.846962
 31
0.0
  0
LINE
  5
97F1
330
96F2
100
AcDbEntity
  8
1
  6
Continuous
100
AcDbLine
 10
260.246593
 20
55.84696199999999
 30
0.0
 11
260.246593
 21
53.846962
 31
0.0
  0
LINE
  5
97F2
330
96F2
100
AcDbEntity
  8
1
  6
Continuous
100
AcDbLine
 10
137.248393
 20
221.065062
 30
0.0
 11
137.248393
 21
199.065062
 31
0.0
  0
LINE
  5
97F3
330
96F2
100
AcDbEntity
  8
1
  6
Continuous
100
AcDbLine
 10
139.7483929999999
 20
224.065062
 30
0.0
 11
139.7483929999999
 21
196.065062
 31
0.0
  0
LINE
  5
97F4
330
96F2
100
AcDbEntity
  8
1
  6
Continuous
100
AcDbLine
 10
138.7483929999999
 20
224.065062
 30
0.0
 11
138.7483929999999
 21
196.065062
 31
0.0
  0
LINE
  5
97F5
330
96F2
100
AcDbEntity
  8
1
  6
Continuous
100
AcDbLine
 10
148.7483929999999
 20
221.565062
 30
0.0
 11
148.7483929999999
 21
198.565062
 31
0.0
  0
LINE
  5
97F6
330
96F2
100
AcDbEntity
  8
4
  6
CENTER
100
AcDbLine
 10
132.784673
 20
210.065062
 30
0.0
 11
158.0956929999999
 21
210.065062
 31
0.0
  0
LINE
  5
97F7
330
96F2
100
AcDbEntity
  8
1
  6
Continuous
100
AcDbLine
 10
138.7483929999999
 20
224.065062
 30
0.0
 11
139.7483929999999
 21
224.065062
 31
0.0
  0
LINE
  5
97F8
330
96F2
100
AcDbEntity
  8
1
  6
Continuous
100
AcDbLine
 10
138.7483929999999
 20
196.065062
 30
0.0
 11
139.7483929999999
 21
196.065062
 31
0.0
  0
LINE
  5
97F9
330
96F2
100
AcDbEntity
  8
1
  6
Continuous
100
AcDbLine
 10
137.248393
 20
199.065062
 30
0.0
 11
138.7483929999999
 21
196.065062
 31
0.0
  0
LINE
  5
97FA
330
96F2
100
AcDbEntity
  8
1
  6
Continuous
100
AcDbLine
 10
138.7483929999999
 20
224.065062
 30
0.0
 11
137.248393
 21
221.065062
 31
0.0
  0
LINE
  5
97FB
330
96F2
100
AcDbEntity
  8
1
  6
Continuous
100
AcDbLine
 10
139.7483929999999
 20
198.565062
 30
0.0
 11
153.748393
 21
198.565062
 31
0.0
  0
LINE
  5
97FC
330
96F2
100
AcDbEntity
  8
1
  6
Continuous
100
AcDbLine
 10
139.7483929999999
 20
221.565062
 30
0.0
 11
153.748393
 21
221.565062
 31
0.0
  0
LINE
  5
97FD
330
96F2
100
AcDbEntity
  8
1
  6
Continuous
100
AcDbLine
 10
148.7483929999999
 20
211.565062
 30
0.0
 11
151.2483929999999
 21
211.565062
 31
0.0
  0
LINE
  5
97FE
330
96F2
100
AcDbEntity
  8
1
  6
Continuous
100
AcDbLine
 10
148.7483929999999
 20
208.565062
 30
0.0
 11
151.2483929999999
 21
208.565062
 31
0.0
  0
LINE
  5
97FF
330
96F2
100
AcDbEntity
  8
1
  6
Continuous
100
AcDbLine
 10
148.7483929999999
 20
213.915062
 30
0.0
 11
151.2483929999999
 21
213.915062
 31
0.0
  0
LINE
  5
9800
330
96F2
100
AcDbEntity
  8
1
  6
Continuous
100
AcDbLine
 10
148.7483929999999
 20
206.2150619999999
 30
0.0
 11
151.2483929999999
 21
206.2150619999999
 31
0.0
  0
LINE
  5
9801
330
96F2
100
AcDbEntity
  8
1
  6
Continuous
100
AcDbLine
 10
153.748393
 20
221.565062
 30
0.0
 11
153.748393
 21
198.565062
 31
0.0
  0
LINE
  5
9802
330
96F2
100
AcDbEntity
  8
1
  6
Continuous
100
AcDbLine
 10
182.6520929999998
 20
224.015062
 30
0.0
 11
182.6520929999998
 21
221.7150619999999
 31
0.0
  0
LINE
  5
9803
330
96F2
100
AcDbEntity
  8
1
  6
Continuous
100
AcDbLine
 10
199.9520929999999
 20
221.7150619999999
 30
0.0
 11
199.9520929999999
 21
198.415062
 31
0.0
  0
LINE
  5
9804
330
96F2
100
AcDbEntity
  8
1
  6
Continuous
100
AcDbLine
 10
197.6520929999999
 20
221.7150619999999
 30
0.0
 11
197.6520929999999
 21
198.415062
 31
0.0
  0
LINE
  5
9805
330
96F2
100
AcDbEntity
  8
1
  6
Continuous
100
AcDbLine
 10
182.6520929999998
 20
221.7150619999999
 30
0.0
 11
197.6520929999999
 21
221.7150619999999
 31
0.0
  0
LINE
  5
9806
330
96F2
100
AcDbEntity
  8
1
  6
Continuous
100
AcDbLine
 10
182.6520929999998
 20
198.415062
 30
0.0
 11
197.6520929999999
 21
198.415062
 31
0.0
  0
LINE
  5
9807
330
96F2
100
AcDbEntity
  8
1
  6
Continuous
100
AcDbLine
 10
182.6520929999998
 20
196.1150619999999
 30
0.0
 11
197.6520929999999
 21
196.1150619999999
 31
0.0
  0
LINE
  5
9808
330
96F2
100
AcDbEntity
  8
1
  6
Continuous
100
AcDbLine
 10
182.6520929999998
 20
224.015062
 30
0.0
 11
197.6520929999999
 21
224.015062
 31
0.0
  0
LINE
  5
9809
330
96F2
100
AcDbEntity
  8
1
  6
Continuous
100
AcDbLine
 10
182.6520929999998
 20
198.415062
 30
0.0
 11
182.6520929999998
 21
196.1150619999999
 31
0.0
  0
LINE
  5
980A
330
96F2
100
AcDbEntity
  8
1
  6
Continuous
100
AcDbLine
 10
200.9520929999999
 20
212.565062
 30
0.0
 11
200.9520929999999
 21
207.565062
 31
0.0
  0
LINE
  5
980B
330
96F2
100
AcDbEntity
  8
4
  6
CENTER
100
AcDbLine
 10
179.625293
 20
210.065062
 30
0.0
 11
203.8391929999999
 21
210.065062
 31
0.0
  0
LINE
  5
980C
330
96F2
100
AcDbEntity
  8
4
  6
CENTER
100
AcDbLine
 10
14.664056
 20
135.8469719999999
 30
0.0
 11
54.62075600000001
 21
135.8469719999999
 31
0.0
  0
LINE
  5
980D
330
96F2
100
AcDbEntity
  8
1
  6
Continuous
100
AcDbLine
 10
151.2483929999999
 20
143.3469719999999
 30
0.0
 11
148.7483929999999
 21
143.3469719999999
 31
0.0
  0
ARC
  5
980E
330
96F2
100
AcDbEntity
  8
1
  6
Continuous
100
AcDbCircle
 10
25.01371999999999
 20
214.565062
 30
0.0
 40
3.5
100
AcDbArc
 50
79.78
 51
180.0
  0
ARC
  5
980F
330
96F2
100
AcDbEntity
  8
1
  6
Continuous
100
AcDbCircle
 10
25.01371999999999
 20
205.565062
 30
0.0
 40
3.5
100
AcDbArc
 50
180.0
 51
281.165776
  0
ARC
  5
9810
330
96F2
100
AcDbEntity
  8
1
  6
Continuous
100
AcDbCircle
 10
55.01371999999999
 20
214.565062
 30
0.0
 40
1.0
100
AcDbArc
 50
90.0
 51
180.0
  0
CIRCLE
  5
9811
330
96F2
100
AcDbEntity
  8
1
  6
Continuous
100
AcDbCircle
 10
142.748393
 20
135.8469719999999
 30
0.0
 40
1.5
  0
ARC
  5
9812
330
96F2
100
AcDbEntity
  8
1
  6
Continuous
100
AcDbCircle
 10
26.36635599999999
 20
82.346962
 30
0.0
 40
1.5
100
AcDbArc
 50
180.0
 51
270.0
  0
ARC
  5
9813
330
96F2
100
AcDbEntity
  8
1
  6
Continuous
100
AcDbCircle
 10
42.166356
 20
82.346962
 30
0.0
 40
1.5
100
AcDbArc
 50
270.0
 51
0.0
  0
ARC
  5
9814
330
96F2
100
AcDbEntity
  8
5
  6
PHANTOM
100
AcDbCircle
 10
98.67869300000002
 20
116.791562
 30
0.0
 40
1.5
100
AcDbArc
 50
285.0
 51
15.0
  0
ARC
  5
9815
330
96F2
100
AcDbEntity
  8
5
  6
PHANTOM
100
AcDbCircle
 10
90.03609299999999
 20
125.8638519999999
 30
0.0
 40
1.5
100
AcDbArc
 50
105.0
 51
212.945
  0
ARC
  5
9816
330
96F2
100
AcDbEntity
  8
5
  6
PHANTOM
100
AcDbCircle
 10
100.3770929999999
 20
123.975962
 30
0.0
 40
2.0
100
AcDbArc
 50
105.0
 51
195.0
  0
ARC
  5
9817
330
96F2
100
AcDbEntity
  8
5
  6
PHANTOM
100
AcDbCircle
 10
134.072393
 20
132.486972
 30
0.0
 40
4.0
100
AcDbArc
 50
195.0
 51
285.0
  0
CIRCLE
  5
9818
330
96F2
100
AcDbEntity
  8
5
  6
PHANTOM
100
AcDbCircle
 10
134.0761929999999
 20
132.4879819999999
 30
0.0
 40
2.7
  0
CIRCLE
  5
9819
330
96F2
100
AcDbEntity
  8
2
  6
Continuous
100
AcDbCircle
 10
262.8465929999999
 20
105.846962
 30
0.0
 40
2.0
  0
CIRCLE
  5
981A
330
96F2
100
AcDbEntity
  8
1
  6
Continuous
100
AcDbCircle
 10
262.8465929999999
 20
105.846962
 30
0.0
 40
1.620999999999999
  0
ARC
  5
981B
330
96F2
100
AcDbEntity
  8
1
  6
Continuous
100
AcDbCircle
 10
200.9520929999999
 20
109.5969619999999
 30
0.0
 40
1.25
100
AcDbArc
 50
216.87
 51
270.0
  0
ARC
  5
981C
330
96F2
100
AcDbEntity
  8
1
  6
Continuous
100
AcDbCircle
 10
200.9520929999999
 20
102.096962
 30
0.0
 40
1.25
100
AcDbArc
 50
90.0
 51
143.13
  0
ARC
  5
981D
330
96F2
100
AcDbEntity
  8
5
  6
PHANTOM
100
AcDbCircle
 10
92.88309299999999
 20
115.238662
 30
0.0
 40
1.5
100
AcDbArc
 50
195.0
 51
285.0
  0
CIRCLE
  5
981E
330
96F2
100
AcDbEntity
  8
1
  6
Continuous
100
AcDbCircle
 10
262.8465929999999
 20
70.346962
 30
0.0
 40
1.1
  0
ARC
  5
981F
330
96F2
100
AcDbEntity
  8
1
  6
Continuous
100
AcDbCircle
 10
267.8465929999999
 20
63.34696199999999
 30
0.0
 40
1.3
100
AcDbArc
 50
349.809
 51
10.1906
  0
ARC
  5
9820
330
96F2
100
AcDbEntity
  8
1
  6
Continuous
100
AcDbCircle
 10
267.8465929999999
 20
63.34696199999999
 30
0.0
 40
1.3
100
AcDbArc
 50
79.80940000000003
 51
100.191
  0
ARC
  5
9821
330
96F2
100
AcDbEntity
  8
1
  6
Continuous
100
AcDbCircle
 10
267.8465929999999
 20
63.34696199999999
 30
0.0
 40
1.3
100
AcDbArc
 50
169.809
 51
190.1909999999998
  0
ARC
  5
9822
330
96F2
100
AcDbEntity
  8
1
  6
Continuous
100
AcDbCircle
 10
267.8465929999999
 20
63.34696199999999
 30
0.0
 40
1.3
100
AcDbArc
 50
259.809
 51
280.1909999999999
  0
CIRCLE
  5
9823
330
96F2
100
AcDbEntity
  8
1
  6
Continuous
100
AcDbCircle
 10
267.8465929999999
 20
63.34696199999999
 30
0.0
 40
2.6
  0
ARC
  5
9824
330
96F2
100
AcDbEntity
  8
1
  6
Continuous
100
AcDbCircle
 10
257.8465929999999
 20
63.34696199999999
 30
0.0
 40
1.3
100
AcDbArc
 50
349.809
 51
10.1906
  0
ARC
  5
9825
330
96F2
100
AcDbEntity
  8
1
  6
Continuous
100
AcDbCircle
 10
257.8465929999999
 20
63.34696199999999
 30
0.0
 40
1.3
100
AcDbArc
 50
79.80940000000003
 51
100.191
  0
ARC
  5
9826
330
96F2
100
AcDbEntity
  8
1
  6
Continuous
100
AcDbCircle
 10
257.8465929999999
 20
63.34696199999999
 30
0.0
 40
1.3
100
AcDbArc
 50
169.809
 51
190.1909999999998
  0
ARC
  5
9827
330
96F2
100
AcDbEntity
  8
1
  6
Continuous
100
AcDbCircle
 10
257.8465929999999
 20
63.34696199999999
 30
0.0
 40
1.3
100
AcDbArc
 50
259.809
 51
280.1909999999999
  0
CIRCLE
  5
9828
330
96F2
100
AcDbEntity
  8
1
  6
Continuous
100
AcDbCircle
 10
257.8465929999999
 20
63.34696199999999
 30
0.0
 40
2.6
  0
ARC
  5
9829
330
96F2
100
AcDbEntity
  8
1
  6
Continuous
100
AcDbCircle
 10
257.8465929999999
 20
77.34696200000001
 30
0.0
 40
1.3
100
AcDbArc
 50
349.809
 51
10.1906
  0
ARC
  5
982A
330
96F2
100
AcDbEntity
  8
1
  6
Continuous
100
AcDbCircle
 10
257.8465929999999
 20
77.34696200000001
 30
0.0
 40
1.3
100
AcDbArc
 50
79.80940000000003
 51
100.191
  0
ARC
  5
982B
330
96F2
100
AcDbEntity
  8
1
  6
Continuous
100
AcDbCircle
 10
257.8465929999999
 20
77.34696200000001
 30
0.0
 40
1.3
100
AcDbArc
 50
169.809
 51
190.1909999999998
  0
ARC
  5
982C
330
96F2
100
AcDbEntity
  8
1
  6
Continuous
100
AcDbCircle
 10
257.8465929999999
 20
77.34696200000001
 30
0.0
 40
1.3
100
AcDbArc
 50
259.809
 51
280.1909999999999
  0
CIRCLE
  5
982D
330
96F2
100
AcDbEntity
  8
1
  6
Continuous
100
AcDbCircle
 10
257.8465929999999
 20
77.34696200000001
 30
0.0
 40
2.6
  0
ARC
  5
982E
330
96F2
100
AcDbEntity
  8
1
  6
Continuous
100
AcDbCircle
 10
267.8465929999999
 20
77.34696200000001
 30
0.0
 40
1.3
100
AcDbArc
 50
349.809
 51
10.1906
  0
ARC
  5
982F
330
96F2
100
AcDbEntity
  8
1
  6
Continuous
100
AcDbCircle
 10
267.8465929999999
 20
77.34696200000001
 30
0.0
 40
1.3
100
AcDbArc
 50
79.80940000000003
 51
100.191
  0
ARC
  5
9830
330
96F2
100
AcDbEntity
  8
1
  6
Continuous
100
AcDbCircle
 10
267.8465929999999
 20
77.34696200000001
 30
0.0
 40
1.3
100
AcDbArc
 50
169.809
 51
190.1909999999998
  0
ARC
  5
9831
330
96F2
100
AcDbEntity
  8
1
  6
Continuous
100
AcDbCircle
 10
267.8465929999999
 20
77.34696200000001
 30
0.0
 40
1.3
100
AcDbArc
 50
259.809
 51
280.1909999999999
  0
CIRCLE
  5
9832
330
96F2
100
AcDbEntity
  8
1
  6
Continuous
100
AcDbCircle
 10
267.8465929999999
 20
77.34696200000001
 30
0.0
 40
2.6
  0
ARC
  5
9833
330
96F2
100
AcDbEntity
  8
1
  6
Continuous
100
AcDbCircle
 10
256.2965929999999
 20
139.4469719999999
 30
0.0
 40
0.9
100
AcDbArc
 50
2.91339
 51
180.0
  0
ARC
  5
9834
330
96F2
100
AcDbEntity
  8
1
  6
Continuous
100
AcDbCircle
 10
258.096593
 20
139.4469719999999
 30
0.0
 40
0.9
100
AcDbArc
 50
0.0
 51
172.982
  0
ARC
  5
9835
330
96F2
100
AcDbEntity
  8
1
  6
Continuous
100
AcDbCircle
 10
267.5965929999999
 20
139.4469719999999
 30
0.0
 40
0.9
100
AcDbArc
 50
7.125019999999999
 51
180.0
  0
ARC
  5
9836
330
96F2
100
AcDbEntity
  8
1
  6
Continuous
100
AcDbCircle
 10
269.396608
 20
139.446956
 30
0.0
 40
0.9000160000000001
100
AcDbArc
 50
359.6640100000001
 51
177.0410469999999
  0
ARC
  5
9837
330
96F2
100
AcDbEntity
  8
1
  6
Continuous
100
AcDbCircle
 10
255.396593
 20
132.2469719999998
 30
0.0
 40
0.9
100
AcDbArc
 50
172.8749999999998
 51
352.9809999999998
  0
ARC
  5
9838
330
96F2
100
AcDbEntity
  8
1
  6
Continuous
100
AcDbCircle
 10
257.196593
 20
132.2469719999998
 30
0.0
 40
0.9
100
AcDbArc
 50
182.9129999999999
 51
352.875
  0
ARC
  5
9839
330
96F2
100
AcDbEntity
  8
1
  6
Continuous
100
AcDbCircle
 10
268.496593
 20
132.2469719999998
 30
0.0
 40
0.9
100
AcDbArc
 50
187.125
 51
7.125019999999999
  0
ARC
  5
983A
330
96F2
100
AcDbEntity
  8
1
  6
Continuous
100
AcDbCircle
 10
270.2965929999999
 20
132.2469719999998
 30
0.0
 40
0.9
100
AcDbArc
 50
197.208
 51
7.125019999999999
  0
ARC
  5
983B
330
96F2
100
AcDbEntity
  8
1
  6
Continuous
100
AcDbCircle
 10
260.496593
 20
129.2469719999998
 30
0.0
 40
3.299999999999998
100
AcDbArc
 50
180.0
 51
195.8269999999999
  0
ARC
  5
983C
330
96F2
100
AcDbEntity
  8
1
  6
Continuous
100
AcDbCircle
 10
265.0965929999999
 20
129.2469719999998
 30
0.0
 40
3.299999999999998
100
AcDbArc
 50
344.173
 51
0.0
  0
ARC
  5
983D
330
96F2
100
AcDbEntity
  8
1
  6
Continuous
100
AcDbCircle
 10
197.6520929999999
 20
221.7150619999999
 30
0.0
 40
2.299999999999998
100
AcDbArc
 50
0.0
 51
90.0
  0
ARC
  5
983E
330
96F2
100
AcDbEntity
  8
1
  6
Continuous
100
AcDbCircle
 10
197.6520929999999
 20
198.415062
 30
0.0
 40
2.299999999999998
100
AcDbArc
 50
270.0
 51
0.0
  0
ARC
  5
983F
330
96F2
100
AcDbEntity
  8
1
  6
Continuous
100
AcDbCircle
 10
200.9520929999999
 20
213.815062
 30
0.0
 40
1.25
100
AcDbArc
 50
216.87
 51
270.0
  0
ARC
  5
9840
330
96F2
100
AcDbEntity
  8
1
  6
Continuous
100
AcDbCircle
 10
200.9520929999999
 20
206.315062
 30
0.0
 40
1.25
100
AcDbArc
 50
90.0
 51
143.13
  0
ARC
  5
9841
330
96F2
100
AcDbEntity
  8
1
  6
Continuous
100
AcDbCircle
 10
34.266356
 20
70.346962
 30
0.0
 40
6.099999999999997
100
AcDbArc
 50
351.5159999999998
 51
8.484429999999997
  0
ARC
  5
9842
330
96F2
100
AcDbEntity
  8
1
  6
Continuous
100
AcDbCircle
 10
34.266356
 20
70.346962
 30
0.0
 40
3.1
100
AcDbArc
 50
16.87719999999999
 51
163.1229999999999
  0
ARC
  5
9843
330
96F2
100
AcDbEntity
  8
1
  6
Continuous
100
AcDbCircle
 10
34.266356
 20
70.346962
 30
0.0
 40
3.1
100
AcDbArc
 50
196.877
 51
343.1229999999999
  0
ARC
  5
9844
330
96F2
100
AcDbEntity
  8
1
  6
Continuous
100
AcDbCircle
 10
34.266356
 20
70.346962
 30
0.0
 40
6.099999999999997
100
AcDbArc
 50
171.516
 51
188.484
  0
ARC
  5
9845
330
96F2
100
AcDbEntity
  8
1
  6
Continuous
100
AcDbCircle
 10
35.516076
 20
216.303504
 30
0.0
 40
9.531404999999999
100
AcDbArc
 50
234.4619999999999
 51
305.5379999999999
  0
ARC
  5
9846
330
96F2
100
AcDbEntity
  8
1
  6
Continuous
100
AcDbCircle
 10
35.516076
 20
203.891004
 30
0.0
 40
9.531404999999999
100
AcDbArc
 50
54.46200000000001
 51
125.5376999999999
  0
ARC
  5
9847
330
96F2
100
AcDbEntity
  8
1
  6
Continuous
100
AcDbCircle
 10
33.59457600000001
 20
212.394504
 30
0.0
 40
0.073905
100
AcDbArc
 50
0.0
 51
102.7288999999999
  0
ARC
  5
9848
330
96F2
100
AcDbEntity
  8
1
  6
Continuous
100
AcDbCircle
 10
35.516076
 20
203.891004
 30
0.0
 40
8.79255
100
AcDbArc
 50
102.7288999999999
 51
103.2680999999999
  0
ARC
  5
9849
330
96F2
100
AcDbEntity
  8
1
  6
Continuous
100
AcDbCircle
 10
35.516076
 20
203.891004
 30
0.0
 40
8.79255
100
AcDbArc
 50
103.2680999999999
 51
105.2575
  0
ARC
  5
984A
330
96F2
100
AcDbEntity
  8
1
  6
Continuous
100
AcDbCircle
 10
33.30057599999999
 20
212.0165039999998
 30
0.0
 40
0.369525
100
AcDbArc
 50
105.2575
 51
180.0
  0
ARC
  5
984B
330
96F2
100
AcDbEntity
  8
1
  6
Continuous
100
AcDbCircle
 10
32.11707599999999
 20
211.9205039999999
 30
0.0
 40
0.073905
100
AcDbArc
 50
0.0
 51
112.9439999999999
  0
LINE
  5
984C
330
96F2
100
AcDbEntity
  8
1
  6
Continuous
100
AcDbLine
 10
33.669576
 20
207.800004
 30
0.0
 11
33.669576
 21
209.2115039999999
 31
0.0
  0
ARC
  5
984D
330
96F2
100
AcDbEntity
  8
1
  6
Continuous
100
AcDbCircle
 10
31.083576
 20
210.098004
 30
0.0
 40
1.904175
100
AcDbArc
 50
180.0
 51
234.4619999999999
  0
ARC
  5
984E
330
96F2
100
AcDbEntity
  8
1
  6
Continuous
100
AcDbCircle
 10
31.821576
 20
208.7345039999999
 30
0.0
 40
0.369525
100
AcDbArc
 50
180.0
 51
243.9859999999999
  0
ARC
  5
984F
330
96F2
100
AcDbEntity
  8
1
  6
Continuous
100
AcDbCircle
 10
32.11707599999999
 20
208.275504
 30
0.0
 40
0.073905
100
AcDbArc
 50
247.0559999999999
 51
0.0
  0
ARC
  5
9850
330
96F2
100
AcDbEntity
  8
1
  6
Continuous
100
AcDbCircle
 10
35.516076
 20
216.303504
 30
0.0
 40
8.79255
100
AcDbArc
 50
243.9859999999999
 51
247.0559999999999
  0
ARC
  5
9851
330
96F2
100
AcDbEntity
  8
1
  6
Continuous
100
AcDbCircle
 10
35.516076
 20
216.303504
 30
0.0
 40
8.79255
100
AcDbArc
 50
243.9859999999999
 51
244.772
  0
ARC
  5
9852
330
96F2
100
AcDbEntity
  8
1
  6
Continuous
100
AcDbCircle
 10
33.30057599999999
 20
208.1780039999999
 30
0.0
 40
0.369525
100
AcDbArc
 50
180.0
 51
254.742
  0
ARC
  5
9853
330
96F2
100
AcDbEntity
  8
1
  6
Continuous
100
AcDbCircle
 10
35.516076
 20
216.303504
 30
0.0
 40
8.79255
100
AcDbArc
 50
254.742
 51
254.794
  0
ARC
  5
9854
330
96F2
100
AcDbEntity
  8
1
  6
Continuous
100
AcDbCircle
 10
35.516076
 20
216.303504
 30
0.0
 40
8.79255
100
AcDbArc
 50
254.794
 51
257.2709999999998
  0
ARC
  5
9855
330
96F2
100
AcDbEntity
  8
1
  6
Continuous
100
AcDbCircle
 10
33.59457600000001
 20
207.800004
 30
0.0
 40
0.073905
100
AcDbArc
 50
257.2709999999998
 51
0.0
  0
LINE
  5
9856
330
96F2
100
AcDbEntity
  8
1
  6
Continuous
100
AcDbLine
 10
31.452576
 20
208.7345039999999
 30
0.0
 11
31.452576
 21
211.460004
 31
0.0
  0
LINE
  5
9857
330
96F2
100
AcDbEntity
  8
1
  6
Continuous
100
AcDbLine
 10
35.14707599999999
 20
210.098004
 30
0.0
 11
34.40757599999999
 21
210.098004
 31
0.0
  0
ARC
  5
9858
330
96F2
100
AcDbEntity
  8
1
  6
Continuous
100
AcDbCircle
 10
31.083576
 20
210.098004
 30
0.0
 40
1.904175
100
AcDbArc
 50
125.5376999999999
 51
166.5373999999999
  0
LINE
  5
9859
330
96F2
100
AcDbEntity
  8
1
  6
Continuous
100
AcDbLine
 10
32.192076
 20
211.9205039999999
 30
0.0
 11
32.192076
 21
208.275504
 31
0.0
  0
LINE
  5
985A
330
96F2
100
AcDbEntity
  8
1
  6
Continuous
100
AcDbLine
 10
32.930076
 20
212.0165039999998
 30
0.0
 11
32.930076
 21
208.1780039999999
 31
0.0
  0
LINE
  5
985B
330
96F2
100
AcDbEntity
  8
1
  6
Continuous
100
AcDbLine
 10
34.40757599999999
 20
212.613504
 30
0.0
 11
34.40757599999999
 21
207.5810039999999
 31
0.0
  0
LINE
  5
985C
330
96F2
100
AcDbEntity
  8
1
  6
Continuous
100
AcDbLine
 10
35.14707599999999
 20
212.675004
 30
0.0
 11
35.14707599999999
 21
207.519504
 31
0.0
  0
ARC
  5
985D
330
96F2
100
AcDbEntity
  8
1
  6
Continuous
100
AcDbCircle
 10
31.821576
 20
211.460004
 30
0.0
 40
0.369525
100
AcDbArc
 50
116.0144
 51
180.0
  0
ARC
  5
985E
330
96F2
100
AcDbEntity
  8
1
  6
Continuous
100
AcDbCircle
 10
35.516076
 20
203.891004
 30
0.0
 40
8.79255
100
AcDbArc
 50
112.9439999999999
 51
116.0144
  0
LINE
  5
985F
330
96F2
100
AcDbEntity
  8
1
  6
Continuous
100
AcDbLine
 10
30.713076
 20
212.124504
 30
0.0
 11
30.713076
 21
208.9385039999999
 31
0.0
  0
LINE
  5
9860
330
96F2
100
AcDbEntity
  8
1
  6
Continuous
100
AcDbLine
 10
33.669576
 20
210.9845039999999
 30
0.0
 11
33.669576
 21
212.394504
 31
0.0
  0
ARC
  5
9861
330
96F2
100
AcDbEntity
  8
1
  6
Continuous
100
AcDbCircle
 10
36.99357599999999
 20
212.183004
 30
0.0
 40
0.369525
100
AcDbArc
 50
0.0
 51
79.896
  0
ARC
  5
9862
330
96F2
100
AcDbEntity
  8
1
  6
Continuous
100
AcDbCircle
 10
35.516076
 20
203.891004
 30
0.0
 40
8.79255
100
AcDbArc
 50
79.896
 51
82.20699999999999
  0
ARC
  5
9863
330
96F2
100
AcDbEntity
  8
1
  6
Continuous
100
AcDbCircle
 10
36.698076
 20
212.529504
 30
0.0
 40
0.073905
100
AcDbArc
 50
82.20699999999999
 51
180.0
  0
LINE
  5
9864
330
96F2
100
AcDbEntity
  8
1
  6
Continuous
100
AcDbLine
 10
37.36407599999999
 20
208.0115039999999
 30
0.0
 11
37.36407599999999
 21
210.098004
 31
0.0
  0
LINE
  5
9865
330
96F2
100
AcDbEntity
  8
1
  6
Continuous
100
AcDbLine
 10
39.21057600000001
 20
210.098004
 30
0.0
 11
39.21057600000001
 21
208.325004
 31
0.0
  0
ARC
  5
9866
330
96F2
100
AcDbEntity
  8
1
  6
Continuous
100
AcDbCircle
 10
39.950076
 20
210.098004
 30
0.0
 40
1.904175
100
AcDbArc
 50
305.5379999999999
 51
315.699
  0
ARC
  5
9867
330
96F2
100
AcDbEntity
  8
1
  6
Continuous
100
AcDbCircle
 10
36.99357599999999
 20
208.0115039999999
 30
0.0
 40
0.369525
100
AcDbArc
 50
280.104
 51
0.0
  0
ARC
  5
9868
330
96F2
100
AcDbEntity
  8
1
  6
Continuous
100
AcDbCircle
 10
36.698076
 20
207.665004
 30
0.0
 40
0.073905
100
AcDbArc
 50
180.0
 51
277.793
  0
ARC
  5
9869
330
96F2
100
AcDbEntity
  8
1
  6
Continuous
100
AcDbCircle
 10
35.516076
 20
216.303504
 30
0.0
 40
8.79255
100
AcDbArc
 50
277.793
 51
280.104
  0
LINE
  5
986A
330
96F2
100
AcDbEntity
  8
1
  6
Continuous
100
AcDbLine
 10
37.36407599999999
 20
210.098004
 30
0.0
 11
36.99357599999999
 21
210.098004
 31
0.0
  0
LINE
  5
986B
330
96F2
100
AcDbEntity
  8
1
  6
Continuous
100
AcDbLine
 10
41.85357599999998
 20
210.098004
 30
0.0
 11
40.326576
 21
210.098004
 31
0.0
  0
ARC
  5
986C
330
96F2
100
AcDbEntity
  8
1
  6
Continuous
100
AcDbCircle
 10
39.21057600000001
 20
210.467004
 30
0.0
 40
0.369525
100
AcDbArc
 50
180.0
 51
0.0
  0
ARC
  5
986D
330
96F2
100
AcDbEntity
  8
1
  6
Continuous
100
AcDbCircle
 10
39.950076
 20
210.098004
 30
0.0
 40
1.904175
100
AcDbArc
 50
332.25
 51
54.46200000000001
  0
LINE
  5
986E
330
96F2
100
AcDbEntity
  8
1
  6
Continuous
100
AcDbLine
 10
35.88657599999999
 20
212.675004
 30
0.0
 11
35.88657599999999
 21
207.519504
 31
0.0
  0
LINE
  5
986F
330
96F2
100
AcDbEntity
  8
1
  6
Continuous
100
AcDbLine
 10
36.62457599999999
 20
212.529504
 30
0.0
 11
36.62457599999999
 21
207.665004
 31
0.0
  0
LINE
  5
9870
330
96F2
100
AcDbEntity
  8
1
  6
Continuous
100
AcDbLine
 10
38.102076
 20
212.5265039999999
 30
0.0
 11
38.102076
 21
207.900504
 31
0.0
  0
LINE
  5
9871
330
96F2
100
AcDbEntity
  8
1
  6
Continuous
100
AcDbLine
 10
39.95607600000001
 20
208.715004
 30
0.0
 11
40.791576
 21
211.829004
 31
0.0
  0
LINE
  5
9872
330
96F2
100
AcDbEntity
  8
1
  6
Continuous
100
AcDbLine
 10
37.36407599999999
 20
210.9845039999999
 30
0.0
 11
37.36407599999999
 21
212.183004
 31
0.0
  0
LINE
  5
9873
330
96F2
100
AcDbEntity
  8
1
  6
Continuous
100
AcDbLine
 10
38.841576
 20
212.178504
 30
0.0
 11
38.841576
 21
210.467004
 31
0.0
  0
LINE
  5
9874
330
96F2
100
AcDbEntity
  8
1
  6
Continuous
100
AcDbLine
 10
39.579576
 20
210.467004
 30
0.0
 11
39.579576
 21
212.045004
 31
0.0
  0
CIRCLE
  5
9875
330
96F2
100
AcDbEntity
  8
1
  6
Continuous
100
AcDbCircle
 10
25.01371999999999
 20
205.565062
 30
0.0
 40
1.5
  0
LINE
  5
9876
330
96F2
100
AcDbEntity
  8
1
  6
Continuous
100
AcDbLine
 10
47.51362
 20
206.065062
 30
0.0
 11
25.63462
 21
202.121062
 31
0.0
  0
ARC
  5
9877
330
96F2
100
AcDbEntity
  8
1
  6
Continuous
100
AcDbCircle
 10
26.766356
 20
64.84696200000001
 30
0.0
 40
0.5
100
AcDbArc
 50
90.0
 51
255.1911749999999
  0
ARC
  5
9878
330
96F2
100
AcDbEntity
  8
1
  6
Continuous
100
AcDbCircle
 10
41.766356
 20
64.84696200000001
 30
0.0
 40
0.5
100
AcDbArc
 50
284.8088249999999
 51
90.0
  0
LINE
  5
9879
330
96F2
100
AcDbEntity
  8
1
  6
Continuous
100
AcDbLine
 10
41.894153
 20
64.36357
 30
0.0
 11
34.266356
 21
62.346962
 31
0.0
  0
LINE
  5
987A
330
96F2
100
AcDbEntity
  8
1
  6
Continuous
100
AcDbLine
 10
34.266356
 20
62.346962
 30
0.0
 11
26.638558
 21
64.36357
 31
0.0
  0
LINE
  5
987B
330
96F2
100
AcDbEntity
  8
1
  6
Continuous
100
AcDbLine
 10
148.7483929999999
 20
214.065062
 30
0.0
 11
150.748393
 21
214.065062
 31
0.0
  0
LINE
  5
987C
330
96F2
100
AcDbEntity
  8
1
  6
Continuous
100
AcDbLine
 10
148.7483929999999
 20
206.065062
 30
0.0
 11
150.748393
 21
206.065062
 31
0.0
  0
LINE
  5
987D
330
96F2
100
AcDbEntity
  8
1
  6
Continuous
100
AcDbLine
 10
148.7483929999999
 20
219.565062
 30
0.0
 11
149.748393
 21
219.565062
 31
0.0
  0
LINE
  5
987E
330
96F2
100
AcDbEntity
  8
1
  6
Continuous
100
AcDbLine
 10
148.7483929999999
 20
200.5650619999999
 30
0.0
 11
149.748393
 21
200.5650619999999
 31
0.0
  0
ARC
  5
987F
330
96F2
100
AcDbEntity
  8
1
  6
Continuous
100
AcDbCircle
 10
149.748393
 20
217.565062
 30
0.0
 40
2.0
100
AcDbArc
 50
61.03285
 51
90.0
  0
ARC
  5
9880
330
96F2
100
AcDbEntity
  8
1
  6
Continuous
100
AcDbCircle
 10
150.748393
 20
205.065062
 30
0.0
 40
1.0
100
AcDbArc
 50
60.0
 51
90.0
  0
ARC
  5
9881
330
96F2
100
AcDbEntity
  8
1
  6
Continuous
100
AcDbCircle
 10
150.748393
 20
215.0650619999999
 30
0.0
 40
1.0
100
AcDbArc
 50
270.0
 51
300.0
  0
ARC
  5
9882
330
96F2
100
AcDbEntity
  8
1
  6
Continuous
100
AcDbCircle
 10
149.748393
 20
202.5650619999999
 30
0.0
 40
2.0
100
AcDbArc
 50
270.0
 51
298.96715
  0
ARC
  5
9883
330
96F2
100
AcDbEntity
  8
1
  6
Continuous
100
AcDbCircle
 10
271.196593
 20
139.4469719999999
 30
0.0
 40
0.9
100
AcDbArc
 50
180.2741689999999
 51
0.325415
  0
LINE
  5
9884
330
96F2
100
AcDbEntity
  8
4
  6
CENTER
100
AcDbLine
 10
142.748393
 20
193.6809639999999
 30
0.0
 11
142.748393
 21
225.830124
 31
0.0
  0
LINE
  5
9885
330
96F2
100
AcDbEntity
  8
1
  6
Continuous
100
AcDbLine
 10
153.048393
 20
159.446972
 30
0.0
 11
153.048393
 21
142.261694
 31
0.0
  0
LINE
  5
9886
330
96F2
100
AcDbEntity
  8
1
  6
Continuous
100
AcDbLine
 10
151.2483929999999
 20
159.446972
 30
0.0
 11
151.2483929999999
 21
142.346595
 31
0.0
  0
ARC
  5
9887
330
96F2
100
AcDbEntity
  8
1
  6
Continuous
100
AcDbCircle
 10
152.148393
 20
159.446972
 30
0.0
 40
0.9
100
AcDbArc
 50
0.0
 51
180.0
  0
LINE
  5
9888
330
96F2
100
AcDbEntity
  8
1
  6
Continuous
100
AcDbLine
 10
256.996593
 20
160.3469719999999
 30
0.0
 11
268.6965929999999
 21
160.3469719999999
 31
0.0
  0
ARC
  5
9889
330
96F2
100
AcDbEntity
  8
1
  6
Continuous
100
AcDbCircle
 10
256.996593
 20
157.046972
 30
0.0
 40
3.299999999999998
100
AcDbArc
 50
90.0
 51
180.0
  0
ARC
  5
988A
330
96F2
100
AcDbEntity
  8
1
  6
Continuous
100
AcDbCircle
 10
268.6965929999999
 20
157.046972
 30
0.0
 40
3.299999999999998
100
AcDbArc
 50
0.0
 51
90.0
  0
LINE
  5
988B
330
96F2
100
AcDbEntity
  8
1
  6
Continuous
100
AcDbLine
 10
271.9965399999999
 20
157.0657149999999
 30
0.0
 11
272.096579
 21
139.452084
 31
0.0
  0
LINE
  5
988C
330
96F2
100
AcDbEntity
  8
1
  6
Continuous
100
AcDbLine
 10
270.196569
 20
157.055491
 30
0.0
 11
270.2966079999999
 21
139.4418609999999
 31
0.0
  0
ARC
  5
988D
330
96F2
100
AcDbEntity
  8
1
  6
Continuous
100
AcDbCircle
 10
268.6965929999999
 20
157.046972
 30
0.0
 40
1.5
100
AcDbArc
 50
0.0
 51
90.0
  0
LINE
  5
988E
330
96F2
100
AcDbEntity
  8
1
  6
Continuous
100
AcDbLine
 10
256.996593
 20
158.546972
 30
0.0
 11
268.6965929999999
 21
158.546972
 31
0.0
  0
ARC
  5
988F
330
96F2
100
AcDbEntity
  8
1
  6
Continuous
100
AcDbCircle
 10
256.996593
 20
157.046972
 30
0.0
 40
1.5
100
AcDbArc
 50
90.0
 51
180.0
  0
ARC
  5
9890
330
96F2
100
AcDbEntity
  8
1
  6
Continuous
100
AcDbCircle
 10
254.496593
 20
139.4469719999999
 30
0.0
 40
0.9
100
AcDbArc
 50
179.674585
 51
359.725831
  0
LINE
  5
9891
330
96F2
100
AcDbEntity
  8
1
  6
Continuous
100
AcDbLine
 10
255.4966169999999
 20
157.055491
 30
0.0
 11
255.3965789999999
 21
139.4418609999999
 31
0.0
  0
LINE
  5
9892
330
96F2
100
AcDbEntity
  8
1
  6
Continuous
100
AcDbLine
 10
253.6966459999999
 20
157.0657149999999
 30
0.0
 11
253.596608
 21
139.452084
 31
0.0
  0
LINE
  5
9893
330
96F2
100
AcDbEntity
  8
1
  6
Continuous
100
AcDbLine
 10
153.048393
 20
201.7152669999999
 30
0.0
 11
153.048393
 21
218.414857
 31
0.0
  0
LINE
  5
9894
330
96F2
100
AcDbEntity
  8
1
  6
Continuous
100
AcDbLine
 10
151.2483929999999
 20
201.7152669999999
 30
0.0
 11
151.2483929999999
 21
218.414857
 31
0.0
  0
ARC
  5
9895
330
96F2
100
AcDbEntity
  8
1
  6
Continuous
100
AcDbCircle
 10
152.148393
 20
218.414857
 30
0.0
 40
0.9
100
AcDbArc
 50
0.0
 51
180.0
  0
ARC
  5
9896
330
96F2
100
AcDbEntity
  8
1
  6
Continuous
100
AcDbCircle
 10
152.148393
 20
201.7152669999999
 30
0.0
 40
0.9
100
AcDbArc
 50
180.0
 51
0.0
  0
LINE
  5
9897
330
96F2
100
AcDbEntity
  8
1
  6
Continuous
100
AcDbLine
 10
152.148393
 20
219.3148569999999
 30
0.0
 11
148.7483929999999
 21
219.3148569999999
 31
0.0
  0
LINE
  5
9898
330
96F2
100
AcDbEntity
  8
1
  6
Continuous
100
AcDbLine
 10
152.148393
 20
200.815267
 30
0.0
 11
148.7483929999999
 21
200.815267
 31
0.0
  0
LINE
  5
9899
330
96F2
100
AcDbEntity
  8
1
  6
Continuous
100
AcDbLine
 10
151.2483929999999
 20
202.615267
 30
0.0
 11
148.7483929999999
 21
202.615267
 31
0.0
  0
LINE
  5
989A
330
96F2
100
AcDbEntity
  8
1
  6
Continuous
100
AcDbLine
 10
151.2483929999999
 20
217.5148569999998
 30
0.0
 11
148.7483929999999
 21
217.5148569999998
 31
0.0
  0
LINE
  5
989B
330
96F2
100
AcDbEntity
  8
1
  6
Continuous
100
AcDbLine
 10
149.8521209999998
 20
140.850186
 30
0.0
 11
148.7483929999999
 21
140.773678
 31
0.0
  0
LINE
  5
989C
330
96F2
100
AcDbEntity
  8
1
  6
Continuous
100
AcDbLine
 10
149.938864
 20
138.967196
 30
0.0
 11
148.7483929999999
 21
138.898369
 31
0.0
  0
ARC
  5
989D
330
96F2
100
AcDbEntity
  8
1
  6
Continuous
100
AcDbCircle
 10
149.748393
 20
142.261694
 30
0.0
 40
3.299999999999998
100
AcDbArc
 50
273.308855
 51
0.0
  0
ARC
  5
989E
330
96F2
100
AcDbEntity
  8
1
  6
Continuous
100
AcDbCircle
 10
149.748393
 20
142.346595
 30
0.0
 40
1.5
100
AcDbArc
 50
273.9652779999999
 51
0.0
  0
ARC
  5
989F
330
96F2
100
AcDbEntity
  8
5
  6
PHANTOM
100
AcDbCircle
 10
168.140128
 20
135.585537
 30
0.0
 40
0.9
100
AcDbArc
 50
290.0
 51
110.0
  0
LINE
  5
98A0
330
96F2
100
AcDbEntity
  8
5
  6
PHANTOM
100
AcDbLine
 10
167.83231
 20
136.43126
 30
0.0
 11
151.763212
 21
130.5825869999999
 31
0.0
  0
LINE
  5
98A1
330
96F2
100
AcDbEntity
  8
5
  6
PHANTOM
100
AcDbLine
 10
168.447947
 20
134.7398139999999
 30
0.0
 11
152.299068
 21
128.8621019999999
 31
0.0
  0
ARC
  5
98A2
330
96F2
100
AcDbEntity
  8
5
  6
PHANTOM
100
AcDbCircle
 10
151.2501819999999
 20
131.992126
 30
0.0
 40
1.5
100
AcDbArc
 50
203.9652779999999
 51
290.0
  0
ARC
  5
98A3
330
96F2
100
AcDbEntity
  8
5
  6
PHANTOM
100
AcDbCircle
 10
151.170401
 20
131.963088
 30
0.0
 40
3.299999999999998
100
AcDbArc
 50
222.7821229999999
 51
290.0
  0
LINE
  5
98A4
330
96F2
100
AcDbEntity
  8
5
  6
PHANTOM
100
AcDbLine
 10
149.8794939999999
 20
131.382851
 30
0.0
 11
148.7483929999999
 21
133.9274939999999
 31
0.0
  0
ENDSEC
  0
SECTION
  2
OBJECTS
  0
DICTIONARY
  5
96E0
330
0
100
AcDbDictionary
281
     1
  3
ACAD_CIP_PREVIOUS_PRODUCT_INFO
350
990A
  3
ACAD_COLOR
350
98EC
  3
ACAD_DETAILVIEWSTYLE
350
9905
  3
ACAD_GROUP
350
96E1
  3
ACAD_LAYOUT
350
96ED
  3
ACAD_MATERIAL
350
98BA
  3
ACAD_MLEADERSTYLE
350
9901
  3
ACAD_MLINESTYLE
350
96EA
  3
ACAD_PLOTSETTINGS
350
96EC
  3
ACAD_PLOTSTYLENAME
350
98B8
  3
ACAD_SCALELIST
350
98EF
  3
ACAD_SECTIONVIEWSTYLE
350
9903
  3
ACAD_TABLESTYLE
350
98ED
  3
ACAD_VISUALSTYLE
350
98D3
  3
ACDB_RECOMPOSE_DATA
350
9928
  3
AcDbVariableDictionary
350
991B
  3
DWGPROPS
350
9929
  0
DICTIONARY
  5
990B
330
96E4
100
AcDbDictionary
280
     1
281
     1
  3
ADSK_XREC_LAYER_RECONCILED
360
990C
  0
DICTIONARY
  5
990D
330
96FA
100
AcDbDictionary
280
     1
281
     1
  3
ADSK_XREC_LAYER_RECONCILED
360
990E
  0
DICTIONARY
  5
990F
330
96FB
100
AcDbDictionary
280
     1
281
     1
  3
ADSK_XREC_LAYER_RECONCILED
360
9910
  0
DICTIONARY
  5
9911
330
96FC
100
AcDbDictionary
280
     1
281
     1
  3
ADSK_XREC_LAYER_RECONCILED
360
9912
  0
DICTIONARY
  5
9913
330
96FD
100
AcDbDictionary
280
     1
281
     1
  3
ADSK_XREC_LAYER_RECONCILED
360
9914
  0
DICTIONARY
  5
9915
330
96FE
100
AcDbDictionary
280
     1
281
     1
  3
ADSK_XREC_LAYER_RECONCILED
360
9916
  0
DICTIONARY
  5
9917
330
96FF
100
AcDbDictionary
280
     1
281
     1
  3
ADSK_XREC_LAYER_RECONCILED
360
9918
  0
DICTIONARY
  5
9919
330
9700
100
AcDbDictionary
280
     1
281
     1
  3
ADSK_XREC_LAYER_RECONCILED
360
991A
  0
DICTIONARY
  5
98B3
330
96F2
100
AcDbDictionary
281
     1
  3
ACAD_LAYOUTSELFREF
350
98B4
  0
DICTIONARY
  5
98B1
330
96EE
100
AcDbDictionary
281
     1
  3
ACAD_LAYOUTSELFREF
350
98B2
  0
XRECORD
  5
990A
102
{ACAD_REACTORS
330
96E0
102
}
330
96E0
100
AcDbXrecord
280
     1
300
ACDLT
300
2014
300
ACDLT_F_S
  0
DICTIONARY
  5
98EC
102
{ACAD_REACTORS
330
96E0
102
}
330
96E0
100
AcDbDictionary
281
     1
  0
DICTIONARY
  5
9905
102
{ACAD_REACTORS
330
96E0
102
}
330
96E0
100
AcDbDictionary
281
     1
  3
Imperial24
350
9906
  0
DICTIONARY
  5
96E1
102
{ACAD_REACTORS
330
96E0
102
}
330
96E0
100
AcDbDictionary
281
     1
  0
DICTIONARY
  5
96ED
102
{ACAD_REACTORS
330
96E0
102
}
330
96E0
100
AcDbDictionary
281
     1
  3
Model
350
9907
  3
レイアウト1
350
9908
  0
DICTIONARY
  5
98BA
102
{ACAD_REACTORS
330
96E0
102
}
330
96E0
100
AcDbDictionary
281
     1
  3
ByBlock
350
98C3
  3
ByLayer
350
98BB
  3
Global
350
98CB
  0
DICTIONARY
  5
9901
102
{ACAD_REACTORS
330
96E0
102
}
330
96E0
100
AcDbDictionary
281
     1
  3
Standard
350
9902
  0
DICTIONARY
  5
96EA
102
{ACAD_REACTORS
330
96E0
102
}
330
96E0
100
AcDbDictionary
281
     1
  3
STANDARD
350
96EB
  0
DICTIONARY
  5
96EC
102
{ACAD_REACTORS
330
96E0
102
}
330
96E0
100
AcDbDictionary
281
     1
  0
ACDBDICTIONARYWDFLT
  5
98B8
102
{ACAD_REACTORS
330
96E0
102
}
330
96E0
100
AcDbDictionary
281
     1
  3
Normal
350
98B9
100
AcDbDictionaryWithDefault
340
98B9
  0
DICTIONARY
  5
98EF
102
{ACAD_REACTORS
330
96E0
102
}
330
96E0
100
AcDbDictionary
281
     1
  3
A0
350
98F0
  3
A1
350
98F1
  3
A2
350
98F2
  3
A3
350
98F3
  3
A4
350
98F4
  3
A5
350
98F5
  3
A6
350
98F6
  3
A7
350
98F7
  3
A8
350
98F8
  3
A9
350
98F9
  3
B0
350
98FA
  3
B1
350
98FB
  3
B2
350
98FC
  3
B3
350
98FD
  3
B4
350
98FE
  3
B5
350
98FF
  3
B6
350
9900
  0
DICTIONARY
  5
9903
102
{ACAD_REACTORS
330
96E0
102
}
330
96E0
100
AcDbDictionary
281
     1
  3
Imperial24
350
9904
  0
DICTIONARY
  5
98ED
102
{ACAD_REACTORS
330
96E0
102
}
330
96E0
100
AcDbDictionary
281
     1
  3
Standard
350
98EE
  0
DICTIONARY
  5
98D3
102
{ACAD_REACTORS
330
96E0
102
}
330
96E0
100
AcDbDictionary
281
     1
  3
2dWireframe
350
98D9
  3
Basic
350
98D8
  3
Brighten
350
98DF
  3
ColorChange
350
98E3
  3
Conceptual
350
98DC
  3
Dim
350
98DE
  3
EdgeColorOff
350
98EB
  3
Facepattern
350
98E2
  3
Flat
350
98D4
  3
FlatWithEdges
350
98D5
  3
Gouraud
350
98D6
  3
GouraudWithEdges
350
98D7
  3
Hidden
350
98DB
  3
JitterOff
350
98E9
  3
Linepattern
350
98E1
  3
OverhangOff
350
98EA
  3
Realistic
350
98DD
  3
Shaded
350
98E8
  3
Shaded with edges
350
98E7
  3
Shades of Gray
350
98E4
  3
Sketchy
350
98E5
  3
Thicken
350
98E0
  3
Wireframe
350
98DA
  3
X-Ray
350
98E6
  0
XRECORD
  5
9928
102
{ACAD_REACTORS
330
96E0
102
}
330
96E0
100
AcDbXrecord
280
     1
 90
        1
330
98EE
  0
DICTIONARY
  5
991B
102
{ACAD_REACTORS
330
96E0
102
}
330
96E0
100
AcDbDictionary
281
     1
  3
CANNOSCALE
350
9920
  3
CMLEADERSTYLE
350
991D
  3
CTABLESTYLE
350
991C
  3
CVIEWDETAILSTYLE
350
991E
  3
CVIEWSECTIONSTYLE
350
991F
  3
DIMASSOC
350
9923
  3
INDEXCTL
350
9922
  3
SORTENTS
350
9921
  3
XCLIPFRAME
350
9924
  0
XRECORD
  5
9929
102
{ACAD_REACTORS
330
96E0
102
}
330
96E0
100
AcDbXrecord
280
     1
  1
DWGPROPS COOKIE
  2

  3

  4

  6

  7

  8
Yoshitsune
  9

300
=
301
=
302
=
303
=
304
=
305
=
306
=
307
=
308
=
309
=
 40
0.0000133680555556
 41
2450737.631179051
 42
2457192.638959398
  1

 90
        0
  0
XRECORD
  5
990C
102
{ACAD_REACTORS
330
990B
102
}
330
990B
100
AcDbXrecord
280
     1
290
     1
  0
XRECORD
  5
990E
102
{ACAD_REACTORS
330
990D
102
}
330
990D
100
AcDbXrecord
280
     1
290
     1
  0
XRECORD
  5
9910
102
{ACAD_REACTORS
330
990F
102
}
330
990F
100
AcDbXrecord
280
     1
290
     1
  0
XRECORD
  5
9912
102
{ACAD_REACTORS
330
9911
102
}
330
9911
100
AcDbXrecord
280
     1
290
     1
  0
XRECORD
  5
9914
102
{ACAD_REACTORS
330
9913
102
}
330
9913
100
AcDbXrecord
280
     1
290
     1
  0
XRECORD
  5
9916
102
{ACAD_REACTORS
330
9915
102
}
330
9915
100
AcDbXrecord
280
     1
290
     1
  0
XRECORD
  5
9918
102
{ACAD_REACTORS
330
9917
102
}
330
9917
100
AcDbXrecord
280
     1
290
     1
  0
XRECORD
  5
991A
102
{ACAD_REACTORS
330
9919
102
}
330
9919
100
AcDbXrecord
280
     1
290
     1
  0
XRECORD
  5
98B4
102
{ACAD_REACTORS
330
98B3
102
}
330
98B3
100
AcDbXrecord
280
     1
340
96F2
  0
XRECORD
  5
98B2
102
{ACAD_REACTORS
330
98B1
102
}
330
98B1
100
AcDbXrecord
280
     1
340
96EE
  0
ACDBDETAILVIEWSTYLE
  5
9906
102
{ACAD_XDICTIONARY
360
9961
102
}
102
{ACAD_REACTORS
330
9905
102
}
330
9905
100
AcDbModelDocViewStyle
 70
     0
  3
Imperial24
290
     0
100
AcDbDetailViewStyle
 70
     0
 71
     0
 90
        3
 71
     1
340
96E5
 40
0.24
340
0
 40
0.24
300

 40
0.36
280
     3
 71
     2
340
96E9
 90
       25
 71
     3
340
96E5
 40
0.24
 90
        1
 40
0.75
 90
        1
300
%<\AcVar ViewType \f "%tc1">% %<\AcVar ViewDetailId>%\PSCALE %<\AcVar ViewScale \f "%sn">%
 71
     4
340
96E9
 90
       25
340
96E9
 90
       25
280
     0
  0
LAYOUT
  5
9907
102
{ACAD_XDICTIONARY
360
9963
102
}
102
{ACAD_REACTORS
330
96ED
102
}
330
96ED
100
AcDbPlotSettings
  1

  2
Canon LBP9100C
  4

  6

 40
0.0
 41
0.0
 42
0.0
 43
0.0
 44
0.0
 45
0.0
 46
0.0
 47
0.0
 48
0.0
 49
0.0
140
0.0
141
0.0
142
1.0
143
1.0
 70
  1712
 72
     0
 73
     0
 74
     0
  7

 75
     0
147
1.0
148
0.0
149
0.0
100
AcDbLayout
  1
Model
 70
     1
 71
     0
 10
0.0
 20
0.0
 11
12.0
 21
9.0
 12
0.0
 22
0.0
 32
0.0
 14
0.0
 24
0.0
 34
0.0
 15
0.0
 25
0.0
 35
0.0
146
0.0
 13
0.0
 23
0.0
 33
0.0
 16
1.0
 26
0.0
 36
0.0
 17
0.0
 27
1.0
 37
0.0
 76
     0
330
96F2
331
98B0
  0
LAYOUT
  5
9908
102
{ACAD_XDICTIONARY
360
9965
102
}
102
{ACAD_REACTORS
330
96ED
102
}
330
96ED
100
AcDbPlotSettings
  1

  2
Canon LBP9100C
  4

  6

 40
0.0
 41
0.0
 42
0.0
 43
0.0
 44
0.0
 45
0.0
 46
0.0
 47
0.0
 48
0.0
 49
0.0
140
0.0
141
0.0
142
1.0
143
1.0
 70
   688
 72
     0
 73
     0
 74
     5
  7

 75
    16
147
1.0
148
0.0
149
0.0
100
AcDbLayout
  1
レイアウト1
 70
     0
 71
     1
 10
0.0
 20
0.0
 11
420.0
 21
297.0
 12
0.0
 22
0.0
 32
0.0
 14
1.000000000000000E+20
 24
1.000000000000000E+20
 34
1.000000000000000E+20
 15
-1.000000000000000E+20
 25
-1.000000000000000E+20
 35
-1.000000000000000E+20
146
0.0
 13
0.0
 23
0.0
 33
0.0
 16
1.0
 26
0.0
 36
0.0
 17
0.0
 27
1.0
 37
0.0
 76
     0
330
96EE
  0
MATERIAL
  5
98C3
102
{ACAD_XDICTIONARY
360
98C4
102
}
102
{ACAD_REACTORS
330
98BA
102
}
330
98BA
100
AcDbMaterial
  1
ByBlock
 72
     0
 43
0.0208333333333333
 43
0.0
 43
0.0
 43
0.0
 43
0.0
 43
0.0208333333333333
 43
0.0
 43
0.0
 43
0.0
 43
0.0
 43
1.0
 43
0.0
 43
0.0
 43
0.0
 43
0.0
 43
1.0
 77
     0
 47
0.0208333333333333
 47
0.0
 47
0.0
 47
0.0
 47
0.0
 47
0.0208333333333333
 47
0.0
 47
0.0
 47
0.0
 47
0.0
 47
1.0
 47
0.0
 47
0.0
 47
0.0
 47
0.0
 47
1.0
171
     0
 49
0.0208333333333333
 49
0.0
 49
0.0
 49
0.0
 49
0.0
 49
0.0208333333333333
 49
0.0
 49
0.0
 49
0.0
 49
0.0
 49
1.0
 49
0.0
 49
0.0
 49
0.0
 49
0.0
 49
1.0
175
     0
142
0.0208333333333333
142
0.0
142
0.0
142
0.0
142
0.0
142
0.0208333333333333
142
0.0
142
0.0
142
0.0
142
0.0
142
1.0
142
0.0
142
0.0
142
0.0
142
0.0
142
1.0
179
     0
144
0.0208333333333333
144
0.0
144
0.0
144
0.0
144
0.0
144
0.0208333333333333
144
0.0
144
0.0
144
0.0
144
0.0
144
1.0
144
0.0
144
0.0
144
0.0
144
0.0
144
1.0
147
0.0208333333333333
147
0.0
147
0.0
147
0.0
147
0.0
147
0.0208333333333333
147
0.0
147
0.0
147
0.0
147
0.0
147
1.0
147
0.0
147
0.0
147
0.0
147
0.0
147
1.0
  0
MATERIAL
  5
98BB
102
{ACAD_XDICTIONARY
360
98BC
102
}
102
{ACAD_REACTORS
330
98BA
102
}
330
98BA
100
AcDbMaterial
  1
ByLayer
 72
     0
 43
0.0208333333333333
 43
0.0
 43
0.0
 43
0.0
 43
0.0
 43
0.0208333333333333
 43
0.0
 43
0.0
 43
0.0
 43
0.0
 43
1.0
 43
0.0
 43
0.0
 43
0.0
 43
0.0
 43
1.0
 77
     0
 47
0.0208333333333333
 47
0.0
 47
0.0
 47
0.0
 47
0.0
 47
0.0208333333333333
 47
0.0
 47
0.0
 47
0.0
 47
0.0
 47
1.0
 47
0.0
 47
0.0
 47
0.0
 47
0.0
 47
1.0
171
     0
 49
0.0208333333333333
 49
0.0
 49
0.0
 49
0.0
 49
0.0
 49
0.0208333333333333
 49
0.0
 49
0.0
 49
0.0
 49
0.0
 49
1.0
 49
0.0
 49
0.0
 49
0.0
 49
0.0
 49
1.0
175
     0
142
0.0208333333333333
142
0.0
142
0.0
142
0.0
142
0.0
142
0.0208333333333333
142
0.0
142
0.0
142
0.0
142
0.0
142
1.0
142
0.0
142
0.0
142
0.0
142
0.0
142
1.0
179
     0
144
0.0208333333333333
144
0.0
144
0.0
144
0.0
144
0.0
144
0.0208333333333333
144
0.0
144
0.0
144
0.0
144
0.0
144
1.0
144
0.0
144
0.0
144
0.0
144
0.0
144
1.0
147
0.0208333333333333
147
0.0
147
0.0
147
0.0
147
0.0
147
0.0208333333333333
147
0.0
147
0.0
147
0.0
147
0.0
147
1.0
147
0.0
147
0.0
147
0.0
147
0.0
147
1.0
  0
MATERIAL
  5
98CB
102
{ACAD_XDICTIONARY
360
98CC
102
}
102
{ACAD_REACTORS
330
98BA
102
}
330
98BA
100
AcDbMaterial
  1
Global
 72
     0
 43
0.0208333333333333
 43
0.0
 43
0.0
 43
0.0
 43
0.0
 43
0.0208333333333333
 43
0.0
 43
0.0
 43
0.0
 43
0.0
 43
1.0
 43
0.0
 43
0.0
 43
0.0
 43
0.0
 43
1.0
 77
     0
 47
0.0208333333333333
 47
0.0
 47
0.0
 47
0.0
 47
0.0
 47
0.0208333333333333
 47
0.0
 47
0.0
 47
0.0
 47
0.0
 47
1.0
 47
0.0
 47
0.0
 47
0.0
 47
0.0
 47
1.0
171
     0
 49
0.0208333333333333
 49
0.0
 49
0.0
 49
0.0
 49
0.0
 49
0.0208333333333333
 49
0.0
 49
0.0
 49
0.0
 49
0.0
 49
1.0
 49
0.0
 49
0.0
 49
0.0
 49
0.0
 49
1.0
175
     0
142
0.0208333333333333
142
0.0
142
0.0
142
0.0
142
0.0
142
0.0208333333333333
142
0.0
142
0.0
142
0.0
142
0.0
142
1.0
142
0.0
142
0.0
142
0.0
142
0.0
142
1.0
179
     0
144
0.0208333333333333
144
0.0
144
0.0
144
0.0
144
0.0
144
0.0208333333333333
144
0.0
144
0.0
144
0.0
144
0.0
144
1.0
144
0.0
144
0.0
144
0.0
144
0.0
144
1.0
147
0.0208333333333333
147
0.0
147
0.0
147
0.0
147
0.0
147
0.0208333333333333
147
0.0
147
0.0
147
0.0
147
0.0
147
1.0
147
0.0
147
0.0
147
0.0
147
0.0
147
1.0
  0
MLEADERSTYLE
  5
9902
102
{ACAD_REACTORS
330
9901
102
}
330
9901
100
AcDbMLeaderStyle
170
     2
171
     1
172
     0
 90
        2
 40
0.0
 41
0.0
173
     1
 91
-1056964608
340
96E7
 92
       -2
290
     1
 42
0.09
291
     1
 43
0.36
  3
Standard
 44
0.18
300

342
96E5
174
     1
178
     6
175
     1
176
     0
 93
-1056964608
 45
0.18
292
     0
297
     0
 46
0.18
 94
-1056964608
 47
1.0
 49
1.0
140
1.0
293
     1
141
0.0
294
     1
177
     0
142
1.0
295
     0
296
     0
143
0.125
1001
ACAD_MLEADERVER
1070
     2
  0
MLINESTYLE
  5
96EB
102
{ACAD_REACTORS
330
96EA
102
}
330
96EA
100
AcDbMlineStyle
  2
STANDARD
 70
     0
  3

 62
   256
 51
90.0
 52
90.0
 71
     2
 49
0.5
 62
   256
  6
BYLAYER
 49
-0.5
 62
   256
  6
BYLAYER
  0
ACDBPLACEHOLDER
  5
98B9
102
{ACAD_REACTORS
330
98B8
102
}
330
98B8
  0
SCALE
  5
98F0
102
{ACAD_REACTORS
330
98EF
102
}
330
98EF
100
AcDbScale
 70
     0
300
1:1
140
1.0
141
1.0
290
     1
  0
SCALE
  5
98F1
102
{ACAD_REACTORS
330
98EF
102
}
330
98EF
100
AcDbScale
 70
     0
300
1/128" = 1'-0"
140
0.0078125
141
12.0
290
     0
  0
SCALE
  5
98F2
102
{ACAD_REACTORS
330
98EF
102
}
330
98EF
100
AcDbScale
 70
     0
300
1/64" = 1'-0"
140
0.015625
141
12.0
290
     0
  0
SCALE
  5
98F3
102
{ACAD_REACTORS
330
98EF
102
}
330
98EF
100
AcDbScale
 70
     0
300
1/32" = 1'-0"
140
0.03125
141
12.0
290
     0
  0
SCALE
  5
98F4
102
{ACAD_REACTORS
330
98EF
102
}
330
98EF
100
AcDbScale
 70
     0
300
1/16" = 1'-0"
140
0.0625
141
12.0
290
     0
  0
SCALE
  5
98F5
102
{ACAD_REACTORS
330
98EF
102
}
330
98EF
100
AcDbScale
 70
     0
300
3/32" = 1'-0"
140
0.09375
141
12.0
290
     0
  0
SCALE
  5
98F6
102
{ACAD_REACTORS
330
98EF
102
}
330
98EF
100
AcDbScale
 70
     0
300
1/8" = 1'-0"
140
0.125
141
12.0
290
     0
  0
SCALE
  5
98F7
102
{ACAD_REACTORS
330
98EF
102
}
330
98EF
100
AcDbScale
 70
     0
300
3/16" = 1'-0"
140
0.1875
141
12.0
290
     0
  0
SCALE
  5
98F8
102
{ACAD_REACTORS
330
98EF
102
}
330
98EF
100
AcDbScale
 70
     0
300
1/4" = 1'-0"
140
0.25
141
12.0
290
     0
  0
SCALE
  5
98F9
102
{ACAD_REACTORS
330
98EF
102
}
330
98EF
100
AcDbScale
 70
     0
300
3/8" = 1'-0"
140
0.375
141
12.0
290
     0
  0
SCALE
  5
98FA
102
{ACAD_REACTORS
330
98EF
102
}
330
98EF
100
AcDbScale
 70
     0
300
1/2" = 1'-0"
140
0.5
141
12.0
290
     0
  0
SCALE
  5
98FB
102
{ACAD_REACTORS
330
98EF
102
}
330
98EF
100
AcDbScale
 70
     0
300
3/4" = 1'-0"
140
0.75
141
12.0
290
     0
  0
SCALE
  5
98FC
102
{ACAD_REACTORS
330
98EF
102
}
330
98EF
100
AcDbScale
 70
     0
300
1" = 1'-0"
140
1.0
141
12.0
290
     0
  0
SCALE
  5
98FD
102
{ACAD_REACTORS
330
98EF
102
}
330
98EF
100
AcDbScale
 70
     0
300
1-1/2" = 1'-0"
140
1.5
141
12.0
290
     0
  0
SCALE
  5
98FE
102
{ACAD_REACTORS
330
98EF
102
}
330
98EF
100
AcDbScale
 70
     0
300
3" = 1'-0"
140
3.0
141
12.0
290
     0
  0
SCALE
  5
98FF
102
{ACAD_REACTORS
330
98EF
102
}
330
98EF
100
AcDbScale
 70
     0
300
6" = 1'-0"
140
6.0
141
12.0
290
     0
  0
SCALE
  5
9900
102
{ACAD_REACTORS
330
98EF
102
}
330
98EF
100
AcDbScale
 70
     0
300
1'-0" = 1'-0"
140
12.0
141
12.0
290
     0
  0
ACDBSECTIONVIEWSTYLE
  5
9904
102
{ACAD_XDICTIONARY
360
995F
102
}
102
{ACAD_REACTORS
330
9903
102
}
330
9903
100
AcDbModelDocViewStyle
 70
     0
  3
Imperial24
290
     0
100
AcDbSectionViewStyle
 70
     0
 71
     0
 90
       78
 71
     1
340
96E5
 40
0.24
340
0
340
0
 40
0.24
300
I, O, Q, S, X, Z
 40
0.48
 90
        3
 40
0.18
 90
        1
 71
     2
340
96E9
 90
       25
340
96E9
 90
       50
 40
0.24
 40
0.0
 40
0.24
 71
     3
340
96E5
 40
0.24
 90
        1
 40
0.75
 90
        1
300
%<\AcVar ViewType \f "%tc1">% %<\AcVar ViewSectionStartId>%-%<\AcVar ViewSectionEndId>%\PSCALE %<\AcVar ViewScale \f "%sn">%
 71
     4
300
ANSI31
 40
1.0
 90
        0
290
     0
290
     0
 90
        6
 40
0.0
 40
1.570796326794896
 40
0.2617993877991494
 40
1.308996938995747
 40
-0.2617993877991494
 40
1.832595714594046
  0
TABLESTYLE
  5
98EE
102
{ACAD_XDICTIONARY
360
9926
102
}
102
{ACAD_REACTORS
330
98ED
102
}
330
98ED
100
AcDbTableStyle
  3
Standard
 70
     0
 71
     0
 40
0.06
 41
0.06
280
     0
281
     0
  7
STANDARD
140
0.18
170
     2
 62
     0
 63
     7
283
     0
274
    -2
284
     1
 64
     0
275
    -2
285
     1
 65
     0
276
    -2
286
     1
 66
     0
277
    -2
287
     1
 67
     0
278
    -2
288
     1
 68
     0
279
    -2
289
     1
 69
     0
  7
STANDARD
140
0.25
170
     5
 62
     0
 63
     7
283
     0
274
    -2
284
     1
 64
     0
275
    -2
285
     1
 65
     0
276
    -2
286
     1
 66
     0
277
    -2
287
     1
 67
     0
278
    -2
288
     1
 68
     0
279
    -2
289
     1
 69
     0
  7
STANDARD
140
0.18
170
     5
 62
     0
 63
     7
283
     0
274
    -2
284
     1
 64
     0
275
    -2
285
     1
 65
     0
276
    -2
286
     1
 66
     0
277
    -2
287
     1
 67
     0
278
    -2
288
     1
 68
     0
279
    -2
289
     1
 69
     0
  0
VISUALSTYLE
  5
98D9
102
{ACAD_XDICTIONARY
360
9937
102
}
102
{ACAD_REACTORS
330
98D3
102
}
330
98D3
100
AcDbVisualStyle
  2
2dWireframe
 70
     4
 71
     0
 72
     2
 73
     0
 90
        0
 40
-0.6
 41
-30.0
 62
     5
 63
     7
 74
     1
 91
        4
 64
     7
 65
   257
 75
     1
175
     1
 42
1.0
 92
        0
 66
   257
 43
1.0
 76
     1
 77
     6
 78
     2
 67
     7
 79
     5
170
     0
171
     0
290
     0
174
     0
 93
        1
 44
0.0
173
     0
291
     0
 45
0.0
1001
ACAD
1000
AcDbSavedByObjectVersion
1070
     0
  0
VISUALSTYLE
  5
98D8
102
{ACAD_XDICTIONARY
360
9935
102
}
102
{ACAD_REACTORS
330
98D3
102
}
330
98D3
100
AcDbVisualStyle
  2
Basic
 70
     7
 71
     1
 72
     0
 73
     1
 90
        0
 40
-0.6
 41
-30.0
 62
     5
 63
     7
 74
     0
 91
        4
 64
     7
 65
   257
 75
     1
175
     1
 42
1.0
 92
        8
 66
     7
 43
1.0
 76
     1
 77
     6
 78
     2
 67
     7
 79
     5
170
     0
171
     0
290
     0
174
     0
 93
        1
 44
0.0
173
     0
291
     1
 45
0.0
1001
ACAD
1000
AcDbSavedByObjectVersion
1070
     0
  0
VISUALSTYLE
  5
98DF
102
{ACAD_XDICTIONARY
360
9943
102
}
102
{ACAD_REACTORS
330
98D3
102
}
330
98D3
100
AcDbVisualStyle
  2
Brighten
 70
    12
 71
     2
 72
     2
 73
     0
 90
        0
 40
-0.6
 41
-30.0
 62
     5
 63
     7
 74
     1
 91
        4
 64
     7
 65
   257
 75
     1
175
     1
 42
1.0
 92
        8
 66
     7
 43
1.0
 76
     1
 77
     6
 78
     2
 67
     7
 79
     5
170
     0
171
     0
290
     0
174
     0
 93
        1
 44
50.0
173
     0
291
     1
 45
0.0
1001
ACAD
1000
AcDbSavedByObjectVersion
1070
     0
  0
VISUALSTYLE
  5
98E3
102
{ACAD_XDICTIONARY
360
994B
102
}
102
{ACAD_REACTORS
330
98D3
102
}
330
98D3
100
AcDbVisualStyle
  2
ColorChange
 70
    16
 71
     2
 72
     2
 73
     3
 90
        0
 40
-0.6
 41
-30.0
 62
     5
 63
     8
 74
     1
 91
        4
 64
     7
 65
   257
 75
     1
175
     1
 42
1.0
 92
        8
 66
     8
 43
1.0
 76
     1
 77
     6
 78
     2
 67
     7
 79
     5
170
     0
171
     0
290
     0
174
     0
 93
        1
 44
0.0
173
     0
291
     1
 45
0.0
1001
ACAD
1000
AcDbSavedByObjectVersion
1070
     0
  0
VISUALSTYLE
  5
98DC
102
{ACAD_XDICTIONARY
360
993D
102
}
102
{ACAD_REACTORS
330
98D3
102
}
330
98D3
100
AcDbVisualStyle
  2
Conceptual
 70
     9
 71
     3
 72
     2
 73
     0
 90
        0
 40
-0.6
 41
-30.0
 62
     5
 63
     7
 74
     2
 91
        2
 64
     7
 65
   257
 75
     1
175
     1
 42
179.0
 92
        8
 66
     7
 43
1.0
 76
     1
 77
     6
 78
     2
 67
     7
 79
     3
170
     0
171
     0
290
     0
174
     0
 93
        1
 44
0.0
173
     0
291
     0
 45
0.0
1001
ACAD
1000
AcDbSavedByObjectVersion
1070
     0
  0
VISUALSTYLE
  5
98DE
102
{ACAD_XDICTIONARY
360
9941
102
}
102
{ACAD_REACTORS
330
98D3
102
}
330
98D3
100
AcDbVisualStyle
  2
Dim
 70
    11
 71
     2
 72
     2
 73
     0
 90
        0
 40
-0.6
 41
-30.0
 62
     5
 63
     7
 74
     1
 91
        4
 64
     7
 65
   257
 75
     1
175
     1
 42
1.0
 92
        8
 66
     7
 43
1.0
 76
     1
 77
     6
 78
     2
 67
     7
 79
     5
170
     0
171
     0
290
     0
174
     0
 93
        1
 44
-50.0
173
     0
291
     1
 45
0.0
1001
ACAD
1000
AcDbSavedByObjectVersion
1070
     0
  0
VISUALSTYLE
  5
98EB
102
{ACAD_XDICTIONARY
360
995B
102
}
102
{ACAD_REACTORS
330
98D3
102
}
330
98D3
100
AcDbVisualStyle
  2
EdgeColorOff
 70
    22
 71
     2
 72
     2
 73
     0
 90
        0
 40
-0.6
 41
-30.0
 62
     5
 63
     7
 74
     1
 91
        4
 64
     7
 65
   257
 75
     1
175
     1
 42
1.0
 92
        8
 66
     7
 43
1.0
 76
     1
 77
     6
 78
     2
 67
     7
 79
     5
170
     0
171
     0
290
     0
174
     0
 93
        1
 44
0.0
173
     0
291
     1
 45
0.0
1001
ACAD
1000
AcDbSavedByObjectVersion
1070
     0
  0
VISUALSTYLE
  5
98E2
102
{ACAD_XDICTIONARY
360
9949
102
}
102
{ACAD_REACTORS
330
98D3
102
}
330
98D3
100
AcDbVisualStyle
  2
Facepattern
 70
    15
 71
     2
 72
     2
 73
     0
 90
        0
 40
-0.6
 41
-30.0
 62
     5
 63
     7
 74
     1
 91
        4
 64
     7
 65
   257
 75
     1
175
     1
 42
1.0
 92
        8
 66
     7
 43
1.0
 76
     1
 77
     6
 78
     2
 67
     7
 79
     5
170
     0
171
     0
290
     0
174
     0
 93
        1
 44
0.0
173
     0
291
     1
 45
0.0
1001
ACAD
1000
AcDbSavedByObjectVersion
1070
     0
  0
VISUALSTYLE
  5
98D4
102
{ACAD_XDICTIONARY
360
992D
102
}
102
{ACAD_REACTORS
330
98D3
102
}
330
98D3
100
AcDbVisualStyle
  2
Flat
 70
     0
 71
     2
 72
     1
 73
     1
 90
        2
 40
-0.6
 41
30.0
 62
     5
 63
     7
 74
     0
 91
        0
 64
     7
 65
   257
 75
     1
175
     1
 42
1.0
 92
        8
 66
     7
 43
1.0
 76
     1
 77
     6
 78
     2
 67
     7
 79
     5
170
     0
171
     0
290
     0
174
     0
 93
       13
 44
0.0
173
     0
291
     1
 45
0.0
1001
ACAD
1000
AcDbSavedByObjectVersion
1070
     0
  0
VISUALSTYLE
  5
98D5
102
{ACAD_XDICTIONARY
360
992F
102
}
102
{ACAD_REACTORS
330
98D3
102
}
330
98D3
100
AcDbVisualStyle
  2
FlatWithEdges
 70
     1
 71
     2
 72
     1
 73
     1
 90
        2
 40
-0.6
 41
30.0
 62
     5
 63
     7
 74
     1
 91
        0
 64
     7
 65
   257
 75
     1
175
     1
 42
1.0
 92
        0
 66
   257
 43
1.0
 76
     1
 77
     6
 78
     2
 67
     7
 79
     5
170
     0
171
     0
290
     0
174
     0
 93
       13
 44
0.0
173
     0
291
     1
 45
0.0
1001
ACAD
1000
AcDbSavedByObjectVersion
1070
     0
  0
VISUALSTYLE
  5
98D6
102
{ACAD_XDICTIONARY
360
9931
102
}
102
{ACAD_REACTORS
330
98D3
102
}
330
98D3
100
AcDbVisualStyle
  2
Gouraud
 70
     2
 71
     2
 72
     2
 73
     1
 90
        2
 40
-0.6
 41
30.0
 62
     5
 63
     7
 74
     0
 91
        0
 64
     7
 65
   257
 75
     1
175
     1
 42
1.0
 92
        0
 66
     7
 43
1.0
 76
     1
 77
     6
 78
     2
 67
     7
 79
     5
170
     0
171
     0
290
     0
174
     0
 93
       13
 44
0.0
173
     0
291
     1
 45
0.0
1001
ACAD
1000
AcDbSavedByObjectVersion
1070
     0
  0
VISUALSTYLE
  5
98D7
102
{ACAD_XDICTIONARY
360
9933
102
}
102
{ACAD_REACTORS
330
98D3
102
}
330
98D3
100
AcDbVisualStyle
  2
GouraudWithEdges
 70
     3
 71
     2
 72
     2
 73
     1
 90
        2
 40
-0.6
 41
30.0
 62
     5
 63
     7
 74
     1
 91
        0
 64
     7
 65
   257
 75
     1
175
     1
 42
1.0
 92
        0
 66
   257
 43
1.0
 76
     1
 77
     6
 78
     2
 67
     7
 79
     5
170
     0
171
     0
290
     0
174
     0
 93
       13
 44
0.0
173
     0
291
     1
 45
0.0
1001
ACAD
1000
AcDbSavedByObjectVersion
1070
     0
  0
VISUALSTYLE
  5
98DB
102
{ACAD_XDICTIONARY
360
993B
102
}
102
{ACAD_REACTORS
330
98D3
102
}
330
98D3
100
AcDbVisualStyle
  2
Hidden
 70
     6
 71
     1
 72
     2
 73
     2
 90
        0
 40
-0.6
 41
-30.0
 62
     5
 63
     7
 74
     2
 91
        2
 64
     7
 65
   257
 75
     2
175
     1
 42
40.0
 92
        0
 66
   257
 43
1.0
 76
     1
 77
     6
 78
     2
 67
     7
 79
     3
170
     0
171
     0
290
     0
174
     0
 93
        1
 44
0.0
173
     0
291
     0
 45
0.0
1001
ACAD
1000
AcDbSavedByObjectVersion
1070
     0
  0
VISUALSTYLE
  5
98E9
102
{ACAD_XDICTIONARY
360
9957
102
}
102
{ACAD_REACTORS
330
98D3
102
}
330
98D3
100
AcDbVisualStyle
  2
JitterOff
 70
    20
 71
     2
 72
     2
 73
     0
 90
        0
 40
-0.6
 41
-30.0
 62
     5
 63
     7
 74
     1
 91
        4
 64
     7
 65
   257
 75
     1
175
     1
 42
1.0
 92
       10
 66
     7
 43
1.0
 76
     1
 77
     6
 78
     2
 67
     7
 79
     5
170
     0
171
     0
290
     0
174
     0
 93
        1
 44
0.0
173
     0
291
     1
 45
0.0
1001
ACAD
1000
AcDbSavedByObjectVersion
1070
     0
  0
VISUALSTYLE
  5
98E1
102
{ACAD_XDICTIONARY
360
9947
102
}
102
{ACAD_REACTORS
330
98D3
102
}
330
98D3
100
AcDbVisualStyle
  2
Linepattern
 70
    14
 71
     2
 72
     2
 73
     0
 90
        0
 40
-0.6
 41
-30.0
 62
     5
 63
     7
 74
     1
 91
        4
 64
     7
 65
   257
 75
     7
175
     7
 42
1.0
 92
        8
 66
     7
 43
1.0
 76
     1
 77
     6
 78
     2
 67
     7
 79
     5
170
     0
171
     0
290
     0
174
     0
 93
        1
 44
0.0
173
     0
291
     1
 45
0.0
1001
ACAD
1000
AcDbSavedByObjectVersion
1070
     0
  0
VISUALSTYLE
  5
98EA
102
{ACAD_XDICTIONARY
360
9959
102
}
102
{ACAD_REACTORS
330
98D3
102
}
330
98D3
100
AcDbVisualStyle
  2
OverhangOff
 70
    21
 71
     2
 72
     2
 73
     0
 90
        0
 40
-0.6
 41
-30.0
 62
     5
 63
     7
 74
     1
 91
        4
 64
     7
 65
   257
 75
     1
175
     1
 42
1.0
 92
        9
 66
     7
 43
1.0
 76
     1
 77
     6
 78
     2
 67
     7
 79
     5
170
     0
171
     0
290
     0
174
     0
 93
        1
 44
0.0
173
     0
291
     1
 45
0.0
1001
ACAD
1000
AcDbSavedByObjectVersion
1070
     0
  0
VISUALSTYLE
  5
98DD
102
{ACAD_XDICTIONARY
360
993F
102
}
102
{ACAD_REACTORS
330
98D3
102
}
330
98D3
100
AcDbVisualStyle
  2
Realistic
 70
     8
 71
     2
 72
     3
 73
     0
 90
        2
 40
-0.6
 41
30.0
 62
     5
 63
     7
 74
     0
 91
        0
 64
     7
 65
   257
 75
     1
175
     1
 42
1.0
 92
        8
 66
   257
 43
1.0
 76
     1
 77
     6
 78
     2
 67
     7
 79
     3
170
     0
171
     0
290
     0
174
     0
 93
       13
 44
0.0
173
     0
291
     0
 45
0.0
1001
ACAD
1000
AcDbSavedByObjectVersion
1070
     0
  0
VISUALSTYLE
  5
98E8
102
{ACAD_XDICTIONARY
360
9955
102
}
102
{ACAD_REACTORS
330
98D3
102
}
330
98D3
100
AcDbVisualStyle
  2
Shaded
 70
    27
 71
     2
 72
     2
 73
     1
 90
        2
 40
-0.6
 41
30.0
 62
     5
 63
     7
 74
     0
 91
        4
 64
     7
 65
   257
 75
     1
175
     1
 42
1.0
 92
        8
 66
   257
 43
1.0
 76
     1
 77
     6
 78
     2
 67
     8
 79
     3
170
     0
171
     0
290
     0
174
     0
 93
        5
 44
0.0
173
     0
291
     0
 45
0.0
1001
ACAD
1000
AcDbSavedByObjectVersion
1070
     0
  0
VISUALSTYLE
  5
98E7
102
{ACAD_XDICTIONARY
360
9953
102
}
102
{ACAD_REACTORS
330
98D3
102
}
330
98D3
100
AcDbVisualStyle
  2
Shaded with edges
 70
    26
 71
     2
 72
     2
 73
     1
 90
        2
 40
-0.6
 41
30.0
 62
     5
 63
     7
 74
     1
 91
       10
 64
     7
 65
   257
 75
     2
175
     1
 42
1.0
 92
        8
 66
   257
 43
1.0
 76
     1
 77
     6
 78
     2
 67
     7
 79
     3
170
     0
171
     0
290
     0
174
     0
 93
        5
 44
0.0
173
     0
291
     0
 45
0.0
1001
ACAD
1000
AcDbSavedByObjectVersion
1070
     0
  0
VISUALSTYLE
  5
98E4
102
{ACAD_XDICTIONARY
360
994D
102
}
102
{ACAD_REACTORS
330
98D3
102
}
330
98D3
100
AcDbVisualStyle
  2
Shades of Gray
 70
    23
 71
     2
 72
     2
 73
     3
 90
        0
 40
-0.6
 41
-30.0
 62
     5
 63
     7
 74
     2
 91
        2
 64
     7
 65
     7
 75
     1
175
     1
 42
40.0
 92
        8
 66
     7
 43
1.0
 76
     1
 77
     6
 78
     2
 67
     7
 79
     3
170
     0
171
     0
290
     0
174
     0
 93
        1
 44
0.0
173
     0
291
     0
 45
0.0
1001
ACAD
1000
AcDbSavedByObjectVersion
1070
     0
  0
VISUALSTYLE
  5
98E5
102
{ACAD_XDICTIONARY
360
994F
102
}
102
{ACAD_REACTORS
330
98D3
102
}
330
98D3
100
AcDbVisualStyle
  2
Sketchy
 70
    24
 71
     1
 72
     2
 73
     2
 90
        0
 40
-0.6
 41
-30.0
 62
     5
 63
     7
 74
     2
 91
        2
 64
     7
 65
     7
 75
     1
175
     1
 42
40.0
 92
       11
 66
     7
 43
1.0
 76
     1
 77
     6
 78
     2
 67
     7
 79
     6
170
     0
171
     0
290
     0
174
     0
 93
        1
 44
0.0
173
     0
291
     0
 45
0.0
1001
ACAD
1000
AcDbSavedByObjectVersion
1070
     0
  0
VISUALSTYLE
  5
98E0
102
{ACAD_XDICTIONARY
360
9945
102
}
102
{ACAD_REACTORS
330
98D3
102
}
330
98D3
100
AcDbVisualStyle
  2
Thicken
 70
    13
 71
     2
 72
     2
 73
     0
 90
        0
 40
-0.6
 41
-30.0
 62
     5
 63
     7
 74
     1
 91
        4
 64
     7
 65
   257
 75
     1
175
     1
 42
1.0
 92
       12
 66
     7
 43
1.0
 76
     1
 77
     6
 78
     2
 67
     7
 79
     5
170
     0
171
     0
290
     0
174
     0
 93
        1
 44
0.0
173
     0
291
     1
 45
0.0
1001
ACAD
1000
AcDbSavedByObjectVersion
1070
     0
  0
VISUALSTYLE
  5
98DA
102
{ACAD_XDICTIONARY
360
9939
102
}
102
{ACAD_REACTORS
330
98D3
102
}
330
98D3
100
AcDbVisualStyle
  2
Wireframe
 70
     5
 71
     0
 72
     2
 73
     0
 90
        0
 40
-0.6
 41
-30.0
 62
     5
 63
     7
 74
     1
 91
        4
 64
     7
 65
   257
 75
     1
175
     1
 42
1.0
 92
        0
 66
   257
 43
1.0
 76
     1
 77
     6
 78
     2
 67
     7
 79
     3
170
     0
171
     0
290
     0
174
     0
 93
        1
 44
0.0
173
     0
291
     0
 45
0.0
1001
ACAD
1000
AcDbSavedByObjectVersion
1070
     0
  0
VISUALSTYLE
  5
98E6
102
{ACAD_XDICTIONARY
360
9951
102
}
102
{ACAD_REACTORS
330
98D3
102
}
330
98D3
100
AcDbVisualStyle
  2
X-Ray
 70
    25
 71
     2
 72
     2
 73
     1
 90
        1
 40
0.5
 41
-30.0
 62
     5
 63
     7
 74
     1
 91
        0
 64
     7
 65
   257
 75
     1
175
     1
 42
1.0
 92
        8
 66
     7
 43
1.0
 76
     1
 77
     6
 78
     2
 67
     7
 79
     3
170
     0
171
     0
290
     0
174
     0
 93
       13
 44
0.0
173
     0
291
     0
 45
0.0
1001
ACAD
1000
AcDbSavedByObjectVersion
1070
     0
  0
DICTIONARYVAR
  5
9920
102
{ACAD_REACTORS
330
991B
102
}
330
991B
100
DictionaryVariables
280
     0
  1
1:1
  0
DICTIONARYVAR
  5
991D
102
{ACAD_REACTORS
330
991B
102
}
330
991B
100
DictionaryVariables
280
     0
  1
STANDARD
  0
DICTIONARYVAR
  5
991C
102
{ACAD_REACTORS
330
991B
102
}
330
991B
100
DictionaryVariables
280
     0
  1
STANDARD
  0
DICTIONARYVAR
  5
991E
102
{ACAD_REACTORS
330
991B
102
}
330
991B
100
DictionaryVariables
280
     0
  1
Imperial24
  0
DICTIONARYVAR
  5
991F
102
{ACAD_REACTORS
330
991B
102
}
330
991B
100
DictionaryVariables
280
     0
  1
Imperial24
  0
DICTIONARYVAR
  5
9923
102
{ACAD_REACTORS
330
991B
102
}
330
991B
100
DictionaryVariables
280
     0
  1
1
  0
DICTIONARYVAR
  5
9922
102
{ACAD_REACTORS
330
991B
102
}
330
991B
100
DictionaryVariables
280
     0
  1
0
  0
DICTIONARYVAR
  5
9921
102
{ACAD_REACTORS
330
991B
102
}
330
991B
100
DictionaryVariables
280
     0
  1
127
  0
DICTIONARYVAR
  5
9924
102
{ACAD_REACTORS
330
991B
102
}
330
991B
100
DictionaryVariables
280
     0
  1
2
  0
DICTIONARY
  5
9961
330
9906
100
AcDbDictionary
280
     1
281
     1
  3
ACAD_XREC_ROUNDTRIP
360
9962
  0
DICTIONARY
  5
9963
330
9907
100
AcDbDictionary
280
     1
281
     1
  3
ACAD_XREC_ROUNDTRIP
360
9964
  0
DICTIONARY
  5
9965
330
9908
100
AcDbDictionary
280
     1
281
     1
  3
ACAD_XREC_ROUNDTRIP
360
9966
  0
DICTIONARY
  5
98C4
330
98C3
100
AcDbDictionary
280
     1
281
     1
  3
ACAD_XREC_ROUNDTRIP
360
992B
  3
BUMPTILE
360
98C6
  3
DIFFUSETILE
360
98C5
  3
OPACITYTILE
360
98C9
  3
REFLECTIONTILE
360
98C8
  3
REFRACTIONTILE
360
98CA
  3
SPECULARTILE
360
98C7
  0
DICTIONARY
  5
98BC
330
98BB
100
AcDbDictionary
280
     1
281
     1
  3
ACAD_XREC_ROUNDTRIP
360
992A
  3
BUMPTILE
360
98BE
  3
DIFFUSETILE
360
98BD
  3
OPACITYTILE
360
98C1
  3
REFLECTIONTILE
360
98C0
  3
REFRACTIONTILE
360
98C2
  3
SPECULARTILE
360
98BF
  0
DICTIONARY
  5
98CC
330
98CB
100
AcDbDictionary
280
     1
281
     1
  3
ACAD_XREC_ROUNDTRIP
360
992C
  3
BUMPTILE
360
98CE
  3
DIFFUSETILE
360
98CD
  3
OPACITYTILE
360
98D1
  3
REFLECTIONTILE
360
98D0
  3
REFRACTIONTILE
360
98D2
  3
SPECULARTILE
360
98CF
  0
DICTIONARY
  5
995F
330
9904
100
AcDbDictionary
280
     1
281
     1
  3
ACAD_XREC_ROUNDTRIP
360
9960
  0
DICTIONARY
  5
9926
330
98EE
100
AcDbDictionary
280
     1
281
     1
  3
ACAD_ROUNDTRIP_2008_TABLESTYLE_CELLSTYLEMAP
360
9927
  3
ACAD_XREC_ROUNDTRIP
360
995D
  0
DICTIONARY
  5
9937
330
98D9
100
AcDbDictionary
280
     1
281
     1
  3
ACAD_XREC_ROUNDTRIP
360
9938
  0
DICTIONARY
  5
9935
330
98D8
100
AcDbDictionary
280
     1
281
     1
  3
ACAD_XREC_ROUNDTRIP
360
9936
  0
DICTIONARY
  5
9943
330
98DF
100
AcDbDictionary
280
     1
281
     1
  3
ACAD_XREC_ROUNDTRIP
360
9944
  0
DICTIONARY
  5
994B
330
98E3
100
AcDbDictionary
280
     1
281
     1
  3
ACAD_XREC_ROUNDTRIP
360
994C
  0
DICTIONARY
  5
993D
330
98DC
100
AcDbDictionary
280
     1
281
     1
  3
ACAD_XREC_ROUNDTRIP
360
993E
  0
DICTIONARY
  5
9941
330
98DE
100
AcDbDictionary
280
     1
281
     1
  3
ACAD_XREC_ROUNDTRIP
360
9942
  0
DICTIONARY
  5
995B
330
98EB
100
AcDbDictionary
280
     1
281
     1
  3
ACAD_XREC_ROUNDTRIP
360
995C
  0
DICTIONARY
  5
9949
330
98E2
100
AcDbDictionary
280
     1
281
     1
  3
ACAD_XREC_ROUNDTRIP
360
994A
  0
DICTIONARY
  5
992D
330
98D4
100
AcDbDictionary
280
     1
281
     1
  3
ACAD_XREC_ROUNDTRIP
360
992E
  0
DICTIONARY
  5
992F
330
98D5
100
AcDbDictionary
280
     1
281
     1
  3
ACAD_XREC_ROUNDTRIP
360
9930
  0
DICTIONARY
  5
9931
330
98D6
100
AcDbDictionary
280
     1
281
     1
  3
ACAD_XREC_ROUNDTRIP
360
9932
  0
DICTIONARY
  5
9933
330
98D7
100
AcDbDictionary
280
     1
281
     1
  3
ACAD_XREC_ROUNDTRIP
360
9934
  0
DICTIONARY
  5
993B
330
98DB
100
AcDbDictionary
280
     1
281
     1
  3
ACAD_XREC_ROUNDTRIP
360
993C
  0
DICTIONARY
  5
9957
330
98E9
100
AcDbDictionary
280
     1
281
     1
  3
ACAD_XREC_ROUNDTRIP
360
9958
  0
DICTIONARY
  5
9947
330
98E1
100
AcDbDictionary
280
     1
281
     1
  3
ACAD_XREC_ROUNDTRIP
360
9948
  0
DICTIONARY
  5
9959
330
98EA
100
AcDbDictionary
280
     1
281
     1
  3
ACAD_XREC_ROUNDTRIP
360
995A
  0
DICTIONARY
  5
993F
330
98DD
100
AcDbDictionary
280
     1
281
     1
  3
ACAD_XREC_ROUNDTRIP
360
9940
  0
DICTIONARY
  5
9955
330
98E8
100
AcDbDictionary
280
     1
281
     1
  3
ACAD_XREC_ROUNDTRIP
360
9956
  0
DICTIONARY
  5
9953
330
98E7
100
AcDbDictionary
280
     1
281
     1
  3
ACAD_XREC_ROUNDTRIP
360
9954
  0
DICTIONARY
  5
994D
330
98E4
100
AcDbDictionary
280
     1
281
     1
  3
ACAD_XREC_ROUNDTRIP
360
994E
  0
DICTIONARY
  5
994F
330
98E5
100
AcDbDictionary
280
     1
281
     1
  3
ACAD_XREC_ROUNDTRIP
360
9950
  0
DICTIONARY
  5
9945
330
98E0
100
AcDbDictionary
280
     1
281
     1
  3
ACAD_XREC_ROUNDTRIP
360
9946
  0
DICTIONARY
  5
9939
330
98DA
100
AcDbDictionary
280
     1
281
     1
  3
ACAD_XREC_ROUNDTRIP
360
993A
  0
DICTIONARY
  5
9951
330
98E6
100
AcDbDictionary
280
     1
281
     1
  3
ACAD_XREC_ROUNDTRIP
360
9952
  0
XRECORD
  5
9962
102
{ACAD_REACTORS
330
9961
102
}
330
9961
100
AcDbXrecord
280
     1
102
DISPLAYNAME
  1
Imperial24
102
FLAGS
 90
        0
  0
XRECORD
  5
9964
102
{ACAD_REACTORS
330
9963
102
}
330
9963
100
AcDbXrecord
280
     1
102
SHADEPLOT
 70
     0
102
SHADEPLOTRESLEVEL
 70
     2
102
SHADEPLOTCUSTOMDPI
 70
   300
  0
XRECORD
  5
9966
102
{ACAD_REACTORS
330
9965
102
}
330
9965
100
AcDbXrecord
280
     1
102
SHADEPLOT
 70
     0
102
SHADEPLOTRESLEVEL
 70
     2
102
SHADEPLOTCUSTOMDPI
 70
   300
  0
XRECORD
  5
992B
102
{ACAD_REACTORS
330
98C4
102
}
330
98C4
100
AcDbXrecord
280
     1
102
MATERIAL
148
0.0
149
0.0
149
0.0
 93
        0
 94
      127
282
     0
 72
     0
 77
     0
171
     0
175
     0
179
     0
273
     0
  0
XRECORD
  5
98C6
102
{ACAD_REACTORS
330
98C4
102
}
330
98C4
100
AcDbXrecord
280
     1
270
     1
271
     1
  0
XRECORD
  5
98C5
102
{ACAD_REACTORS
330
98C4
102
}
330
98C4
100
AcDbXrecord
280
     1
270
     1
271
     1
  0
XRECORD
  5
98C9
102
{ACAD_REACTORS
330
98C4
102
}
330
98C4
100
AcDbXrecord
280
     1
270
     1
271
     1
  0
XRECORD
  5
98C8
102
{ACAD_REACTORS
330
98C4
102
}
330
98C4
100
AcDbXrecord
280
     1
270
     1
271
     1
  0
XRECORD
  5
98CA
102
{ACAD_REACTORS
330
98C4
102
}
330
98C4
100
AcDbXrecord
280
     1
270
     1
271
     1
  0
XRECORD
  5
98C7
102
{ACAD_REACTORS
330
98C4
102
}
330
98C4
100
AcDbXrecord
280
     1
270
     1
271
     1
  0
XRECORD
  5
992A
102
{ACAD_REACTORS
330
98BC
102
}
330
98BC
100
AcDbXrecord
280
     1
102
MATERIAL
148
0.0
149
0.0
149
0.0
 93
        0
 94
      127
282
     0
 72
     0
 77
     0
171
     0
175
     0
179
     0
273
     0
  0
XRECORD
  5
98BE
102
{ACAD_REACTORS
330
98BC
102
}
330
98BC
100
AcDbXrecord
280
     1
270
     1
271
     1
  0
XRECORD
  5
98BD
102
{ACAD_REACTORS
330
98BC
102
}
330
98BC
100
AcDbXrecord
280
     1
270
     1
271
     1
  0
XRECORD
  5
98C1
102
{ACAD_REACTORS
330
98BC
102
}
330
98BC
100
AcDbXrecord
280
     1
270
     1
271
     1
  0
XRECORD
  5
98C0
102
{ACAD_REACTORS
330
98BC
102
}
330
98BC
100
AcDbXrecord
280
     1
270
     1
271
     1
  0
XRECORD
  5
98C2
102
{ACAD_REACTORS
330
98BC
102
}
330
98BC
100
AcDbXrecord
280
     1
270
     1
271
     1
  0
XRECORD
  5
98BF
102
{ACAD_REACTORS
330
98BC
102
}
330
98BC
100
AcDbXrecord
280
     1
270
     1
271
     1
  0
XRECORD
  5
992C
102
{ACAD_REACTORS
330
98CC
102
}
330
98CC
100
AcDbXrecord
280
     1
102
MATERIAL
148
0.0
149
0.0
149
0.0
 93
        0
 94
      127
282
     0
 72
     0
 77
     0
171
     0
175
     0
179
     0
273
     0
  0
XRECORD
  5
98CE
102
{ACAD_REACTORS
330
98CC
102
}
330
98CC
100
AcDbXrecord
280
     1
270
     1
271
     1
  0
XRECORD
  5
98CD
102
{ACAD_REACTORS
330
98CC
102
}
330
98CC
100
AcDbXrecord
280
     1
270
     1
271
     1
  0
XRECORD
  5
98D1
102
{ACAD_REACTORS
330
98CC
102
}
330
98CC
100
AcDbXrecord
280
     1
270
     1
271
     1
  0
XRECORD
  5
98D0
102
{ACAD_REACTORS
330
98CC
102
}
330
98CC
100
AcDbXrecord
280
     1
270
     1
271
     1
  0
XRECORD
  5
98D2
102
{ACAD_REACTORS
330
98CC
102
}
330
98CC
100
AcDbXrecord
280
     1
270
     1
271
     1
  0
XRECORD
  5
98CF
102
{ACAD_REACTORS
330
98CC
102
}
330
98CC
100
AcDbXrecord
280
     1
270
     1
271
     1
  0
XRECORD
  5
9960
102
{ACAD_REACTORS
330
995F
102
}
330
995F
100
AcDbXrecord
280
     1
102
DISPLAYNAME
  1
Imperial24
102
FLAGS
 90
        0
  0
CELLSTYLEMAP
  5
9927
102
{ACAD_REACTORS
330
9926
102
}
330
9926
100
AcDbCellStyleMap
 90
        3
300
CELLSTYLE
  1
TABLEFORMAT_BEGIN
 90
        5
170
     1
 91
        0
 92
    32768
 62
   257
 93
        1
300
CONTENTFORMAT
  1
CONTENTFORMAT_BEGIN
 90
        0
 91
        0
 92
      512
 93
        0
300

 40
0.0
140
1.0
 94
        5
 62
     0
340
96E5
144
0.25
309
CONTENTFORMAT_END
171
     0
 94
        0
309
TABLEFORMAT_END
  1
CELLSTYLE_BEGIN
 90
        1
 91
        1
300
_TITLE
309
CELLSTYLE_END
300
CELLSTYLE
  1
TABLEFORMAT_BEGIN
 90
        5
170
     1
 91
        0
 92
        0
 62
   257
 93
        1
300
CONTENTFORMAT
  1
CONTENTFORMAT_BEGIN
 90
        0
 91
        0
 92
      512
 93
        0
300

 40
0.0
140
1.0
 94
        5
 62
     0
340
96E5
144
0.18
309
CONTENTFORMAT_END
171
     0
 94
        0
309
TABLEFORMAT_END
  1
CELLSTYLE_BEGIN
 90
        2
 91
        1
300
_HEADER
309
CELLSTYLE_END
300
CELLSTYLE
  1
TABLEFORMAT_BEGIN
 90
        5
170
     1
 91
        0
 92
        0
 62
   257
 93
        1
300
CONTENTFORMAT
  1
CONTENTFORMAT_BEGIN
 90
        0
 91
        0
 92
      512
 93
        0
300

 40
0.0
140
1.0
 94
        2
 62
     0
340
96E5
144
0.18
309
CONTENTFORMAT_END
171
     0
 94
        0
309
TABLEFORMAT_END
  1
CELLSTYLE_BEGIN
 90
        3
 91
        2
300
_DATA
309
CELLSTYLE_END
  0
XRECORD
  5
995D
102
{ACAD_REACTORS
330
9926
102
}
330
9926
100
AcDbXrecord
280
     1
102
ACAD_ROUNDTRIP_PRE2007_TABLESTYLE
 90
      512
 91
        0
  1

 92
      512
 93
        0
  2

 94
      512
 95
        0
  3

  0
XRECORD
  5
9938
102
{ACAD_REACTORS
330
9937
102
}
330
9937
100
AcDbXrecord
280
     1
102
RTVSPost2010Prop28
280
     1
102
RTVSPost2010PropOp28
 70
     1
102
RTVSPost2010Prop29
280
     1
102
RTVSPost2010PropOp29
 70
     1
102
RTVSPost2010Prop30
280
     0
102
RTVSPost2010PropOp30
 70
     1
102
RTVSPost2010Prop31
280
     0
102
RTVSPost2010PropOp31
 70
     1
102
RTVSPost2010Prop32
280
     0
102
RTVSPost2010PropOp32
 70
     1
102
RTVSPost2010Prop33
280
     0
102
RTVSPost2010PropOp33
 70
     1
102
RTVSPost2010Prop34
280
     0
102
RTVSPost2010PropOp34
 70
     1
102
RTVSPost2010Prop35
280
     0
102
RTVSPost2010PropOp35
 70
     1
102
RTVSPost2010Prop36
280
     0
102
RTVSPost2010PropOp36
 70
     1
102
RTVSPost2010Prop37
 90
       50
102
RTVSPost2010PropOp37
 70
     1
102
RTVSPost2010Prop38
140
0.0
102
RTVSPost2010PropOp38
 70
     1
102
RTVSPost2010Prop39
140
1.0
102
RTVSPost2010PropOp39
 70
     1
102
RTVSPost2010Prop40
 90
        0
102
RTVSPost2010PropOp40
 70
     1
102
RTVSPost2010Prop41ColorIndex
 90
       18
102
RTVSPost2010Prop41ColorRGB
 90
        0
102
RTVSPost2010PropOp41
 70
     1
102
RTVSPost2010Prop42
 90
       50
102
RTVSPost2010PropOp42
 70
     1
102
RTVSPost2010Prop43
 90
        3
102
RTVSPost2010PropOp43
 70
     1
102
RTVSPost2010Prop44ColorIndex
 90
        5
102
RTVSPost2010Prop44ColorRGB
 90
      255
102
RTVSPost2010PropOp44
 70
     1
102
RTVSPost2010Prop45
280
     0
102
RTVSPost2010PropOp45
 70
     1
102
RTVSPost2010Prop46
 90
       50
102
RTVSPost2010PropOp46
 70
     1
102
RTVSPost2010Prop47
 90
       50
102
RTVSPost2010PropOp47
 70
     1
102
RTVSPost2010Prop48
 90
       50
102
RTVSPost2010PropOp48
 70
     1
102
RTVSPost2010Prop49
280
     0
102
RTVSPost2010PropOp49
 70
     1
102
RTVSPost2010Prop50
 90
       50
102
RTVSPost2010PropOp50
 70
     1
102
RTVSPost2010Prop51ColorIndex
 90
      256
102
RTVSPost2010Prop51ColorRGB
 90
-16777216
102
RTVSPost2010PropOp51
 70
     0
102
RTVSPost2010Prop52
140
1.0
102
RTVSPost2010PropOp52
 70
     0
102
RTVSPost2010Prop53
 90
        2
102
RTVSPost2010PropOp53
 70
     1
102
RTVSPost2010Prop54
  1
strokes_ogs.tif
102
RTVSPost2010PropOp54
 70
     1
102
RTVSPost2010Prop55
280
     0
102
RTVSPost2010PropOp55
 70
     1
102
RTVSPost2010Prop56
140
1.0
102
RTVSPost2010PropOp56
 70
     1
102
RTVSPost2010Prop57
140
1.0
102
RTVSPost2010PropOp57
 70
     1
102
RTVSPropertyOp0
 70
     1
102
RTVSPropertyOp1
 70
     1
102
RTVSPropertyOp2
 70
     1
102
RTVSPropertyOp3
 70
     1
102
RTVSPropertyOp4
 70
     1
102
RTVSPropertyOp5
 70
     1
102
RTVSPropertyOp6
 70
     1
102
RTVSPropertyOp7
 70
     1
102
RTVSPropertyOp8
 70
     1
102
RTVSPropertyOp9
 70
     1
102
RTVSPropertyOp10
 70
     1
102
RTVSPropertyOp11
 70
     1
102
RTVSPropertyOp12
 70
     1
102
RTVSPropertyOp13
 70
     1
102
RTVSPropertyOp14
 70
     1
102
RTVSPropertyOp15
 70
     1
102
RTVSPropertyOp16
 70
     1
102
RTVSPropertyOp17
 70
     1
102
RTVSPropertyOp18
 70
     1
102
RTVSPropertyOp19
 70
     1
102
RTVSPropertyOp20
 70
     1
102
RTVSPropertyOp21
 70
     1
102
RTVSPropertyOp22
 70
     1
102
RTVSPropertyOp23
 70
     1
102
RTVSPropertyOp24
 70
     1
102
RTVSPropertyOp25
 70
     1
102
RTVSPropertyOp26
 70
     1
102
RTVSPropertyOp27
 70
     1
102
RTVSPropertyOp28
 70
     1
102
RTVSPropertyOp29
 70
     1
102
RTVSPropertyOp30
 70
     1
102
RTVSPropertyOp31
 70
     1
102
RTVSPropertyOp32
 70
     1
102
RTVSPropertyOp33
 70
     1
102
RTVSPropertyOp34
 70
     1
102
RTVSPropertyOp35
 70
     1
102
RTVSPropertyOp36
 70
     1
102
RTVSPropertyOp37
 70
     1
102
RTVSPropertyOp38
 70
     1
102
RTVSPropertyOp39
 70
     1
102
RTVSPropertyOp40
 70
     1
102
RTVSPropertyOp41
 70
     1
102
RTVSPropertyOp42
 70
     1
102
RTVSPropertyOp43
 70
     1
102
RTVSPropertyOp44
 70
     1
102
RTVSPropertyOp45
 70
     1
102
RTVSPropertyOp46
 70
     1
102
RTVSPropertyOp47
 70
     1
102
RTVSPropertyOp48
 70
     1
102
RTVSPropertyOp49
 70
     1
102
RTVSPropertyOp50
 70
     1
102
RTVSPropertyOp51
 70
     0
102
RTVSPropertyOp52
 70
     0
102
RTVSPropertyOp53
 70
     1
102
RTVSPropertyOp54
 70
     1
102
RTVSPropertyOp55
 70
     1
102
RTVSPropertyOp56
 70
     1
102
RTVSPropertyOp57
 70
     1
102
RTVSPropertyOp58
 70
     1
102
RTVSPropertyOp59
 70
     1
102
RTVSPropertyOp60
 70
     1
102
RTVSPropertyOp61
 70
     1
102
RTVSPropertyOp62
 70
     1
  0
XRECORD
  5
9936
102
{ACAD_REACTORS
330
9935
102
}
330
9935
100
AcDbXrecord
280
     1
102
RTVSPost2010Prop28
280
     0
102
RTVSPost2010PropOp28
 70
     1
102
RTVSPost2010Prop29
280
     1
102
RTVSPost2010PropOp29
 70
     1
102
RTVSPost2010Prop30
280
     1
102
RTVSPost2010PropOp30
 70
     1
102
RTVSPost2010Prop31
280
     0
102
RTVSPost2010PropOp31
 70
     1
102
RTVSPost2010Prop32
280
     0
102
RTVSPost2010PropOp32
 70
     1
102
RTVSPost2010Prop33
280
     0
102
RTVSPost2010PropOp33
 70
     1
102
RTVSPost2010Prop34
280
     0
102
RTVSPost2010PropOp34
 70
     1
102
RTVSPost2010Prop35
280
     0
102
RTVSPost2010PropOp35
 70
     1
102
RTVSPost2010Prop36
280
     0
102
RTVSPost2010PropOp36
 70
     1
102
RTVSPost2010Prop37
 90
       50
102
RTVSPost2010PropOp37
 70
     1
102
RTVSPost2010Prop38
140
0.0
102
RTVSPost2010PropOp38
 70
     1
102
RTVSPost2010Prop39
140
1.0
102
RTVSPost2010PropOp39
 70
     1
102
RTVSPost2010Prop40
 90
        0
102
RTVSPost2010PropOp40
 70
     1
102
RTVSPost2010Prop41ColorIndex
 90
       18
102
RTVSPost2010Prop41ColorRGB
 90
        0
102
RTVSPost2010PropOp41
 70
     1
102
RTVSPost2010Prop42
 90
       50
102
RTVSPost2010PropOp42
 70
     1
102
RTVSPost2010Prop43
 90
        3
102
RTVSPost2010PropOp43
 70
     1
102
RTVSPost2010Prop44ColorIndex
 90
        5
102
RTVSPost2010Prop44ColorRGB
 90
      255
102
RTVSPost2010PropOp44
 70
     1
102
RTVSPost2010Prop45
280
     0
102
RTVSPost2010PropOp45
 70
     1
102
RTVSPost2010Prop46
 90
       50
102
RTVSPost2010PropOp46
 70
     1
102
RTVSPost2010Prop47
 90
       50
102
RTVSPost2010PropOp47
 70
     1
102
RTVSPost2010Prop48
 90
       50
102
RTVSPost2010PropOp48
 70
     1
102
RTVSPost2010Prop49
280
     0
102
RTVSPost2010PropOp49
 70
     1
102
RTVSPost2010Prop50
 90
       50
102
RTVSPost2010PropOp50
 70
     1
102
RTVSPost2010Prop51ColorIndex
 90
      256
102
RTVSPost2010Prop51ColorRGB
 90
-16777216
102
RTVSPost2010PropOp51
 70
     0
102
RTVSPost2010Prop52
140
1.0
102
RTVSPost2010PropOp52
 70
     0
102
RTVSPost2010Prop53
 90
        2
102
RTVSPost2010PropOp53
 70
     1
102
RTVSPost2010Prop54
  1
strokes_ogs.tif
102
RTVSPost2010PropOp54
 70
     1
102
RTVSPost2010Prop55
280
     0
102
RTVSPost2010PropOp55
 70
     1
102
RTVSPost2010Prop56
140
1.0
102
RTVSPost2010PropOp56
 70
     1
102
RTVSPost2010Prop57
140
1.0
102
RTVSPost2010PropOp57
 70
     1
102
RTVSPropertyOp0
 70
     1
102
RTVSPropertyOp1
 70
     1
102
RTVSPropertyOp2
 70
     1
102
RTVSPropertyOp3
 70
     1
102
RTVSPropertyOp4
 70
     1
102
RTVSPropertyOp5
 70
     1
102
RTVSPropertyOp6
 70
     1
102
RTVSPropertyOp7
 70
     1
102
RTVSPropertyOp8
 70
     1
102
RTVSPropertyOp9
 70
     1
102
RTVSPropertyOp10
 70
     1
102
RTVSPropertyOp11
 70
     1
102
RTVSPropertyOp12
 70
     1
102
RTVSPropertyOp13
 70
     1
102
RTVSPropertyOp14
 70
     1
102
RTVSPropertyOp15
 70
     1
102
RTVSPropertyOp16
 70
     1
102
RTVSPropertyOp17
 70
     1
102
RTVSPropertyOp18
 70
     1
102
RTVSPropertyOp19
 70
     1
102
RTVSPropertyOp20
 70
     1
102
RTVSPropertyOp21
 70
     1
102
RTVSPropertyOp22
 70
     1
102
RTVSPropertyOp23
 70
     1
102
RTVSPropertyOp24
 70
     1
102
RTVSPropertyOp25
 70
     1
102
RTVSPropertyOp26
 70
     1
102
RTVSPropertyOp27
 70
     1
102
RTVSPropertyOp28
 70
     1
102
RTVSPropertyOp29
 70
     1
102
RTVSPropertyOp30
 70
     1
102
RTVSPropertyOp31
 70
     1
102
RTVSPropertyOp32
 70
     1
102
RTVSPropertyOp33
 70
     1
102
RTVSPropertyOp34
 70
     1
102
RTVSPropertyOp35
 70
     1
102
RTVSPropertyOp36
 70
     1
102
RTVSPropertyOp37
 70
     1
102
RTVSPropertyOp38
 70
     1
102
RTVSPropertyOp39
 70
     1
102
RTVSPropertyOp40
 70
     1
102
RTVSPropertyOp41
 70
     1
102
RTVSPropertyOp42
 70
     1
102
RTVSPropertyOp43
 70
     1
102
RTVSPropertyOp44
 70
     1
102
RTVSPropertyOp45
 70
     1
102
RTVSPropertyOp46
 70
     1
102
RTVSPropertyOp47
 70
     1
102
RTVSPropertyOp48
 70
     1
102
RTVSPropertyOp49
 70
     1
102
RTVSPropertyOp50
 70
     1
102
RTVSPropertyOp51
 70
     0
102
RTVSPropertyOp52
 70
     0
102
RTVSPropertyOp53
 70
     1
102
RTVSPropertyOp54
 70
     1
102
RTVSPropertyOp55
 70
     1
102
RTVSPropertyOp56
 70
     1
102
RTVSPropertyOp57
 70
     1
102
RTVSPropertyOp58
 70
     1
102
RTVSPropertyOp59
 70
     1
102
RTVSPropertyOp60
 70
     1
102
RTVSPropertyOp61
 70
     1
102
RTVSPropertyOp62
 70
     1
  0
XRECORD
  5
9944
102
{ACAD_REACTORS
330
9943
102
}
330
9943
100
AcDbXrecord
280
     1
102
RTVSPost2010Prop28
280
     0
102
RTVSPost2010PropOp28
 70
     1
102
RTVSPost2010Prop29
280
     1
102
RTVSPost2010PropOp29
 70
     1
102
RTVSPost2010Prop30
280
     1
102
RTVSPost2010PropOp30
 70
     1
102
RTVSPost2010Prop31
280
     0
102
RTVSPost2010PropOp31
 70
     1
102
RTVSPost2010Prop32
280
     0
102
RTVSPost2010PropOp32
 70
     1
102
RTVSPost2010Prop33
280
     0
102
RTVSPost2010PropOp33
 70
     1
102
RTVSPost2010Prop34
280
     0
102
RTVSPost2010PropOp34
 70
     1
102
RTVSPost2010Prop35
280
     0
102
RTVSPost2010PropOp35
 70
     1
102
RTVSPost2010Prop36
280
     0
102
RTVSPost2010PropOp36
 70
     1
102
RTVSPost2010Prop37
 90
       50
102
RTVSPost2010PropOp37
 70
     1
102
RTVSPost2010Prop38
140
0.0
102
RTVSPost2010PropOp38
 70
     1
102
RTVSPost2010Prop39
140
1.0
102
RTVSPost2010PropOp39
 70
     1
102
RTVSPost2010Prop40
 90
        0
102
RTVSPost2010PropOp40
 70
     1
102
RTVSPost2010Prop41ColorIndex
 90
       18
102
RTVSPost2010Prop41ColorRGB
 90
        0
102
RTVSPost2010PropOp41
 70
     1
102
RTVSPost2010Prop42
 90
       50
102
RTVSPost2010PropOp42
 70
     1
102
RTVSPost2010Prop43
 90
        3
102
RTVSPost2010PropOp43
 70
     1
102
RTVSPost2010Prop44ColorIndex
 90
        5
102
RTVSPost2010Prop44ColorRGB
 90
      255
102
RTVSPost2010PropOp44
 70
     1
102
RTVSPost2010Prop45
280
     0
102
RTVSPost2010PropOp45
 70
     1
102
RTVSPost2010Prop46
 90
       50
102
RTVSPost2010PropOp46
 70
     1
102
RTVSPost2010Prop47
 90
       50
102
RTVSPost2010PropOp47
 70
     1
102
RTVSPost2010Prop48
 90
       50
102
RTVSPost2010PropOp48
 70
     1
102
RTVSPost2010Prop49
280
     0
102
RTVSPost2010PropOp49
 70
     1
102
RTVSPost2010Prop50
 90
       50
102
RTVSPost2010PropOp50
 70
     1
102
RTVSPost2010Prop51ColorIndex
 90
      256
102
RTVSPost2010Prop51ColorRGB
 90
-16777216
102
RTVSPost2010PropOp51
 70
     0
102
RTVSPost2010Prop52
140
1.0
102
RTVSPost2010PropOp52
 70
     0
102
RTVSPost2010Prop53
 90
        2
102
RTVSPost2010PropOp53
 70
     1
102
RTVSPost2010Prop54
  1
strokes_ogs.tif
102
RTVSPost2010PropOp54
 70
     1
102
RTVSPost2010Prop55
280
     0
102
RTVSPost2010PropOp55
 70
     1
102
RTVSPost2010Prop56
140
1.0
102
RTVSPost2010PropOp56
 70
     1
102
RTVSPost2010Prop57
140
1.0
102
RTVSPost2010PropOp57
 70
     1
102
RTVSPropertyOp0
 70
     1
102
RTVSPropertyOp1
 70
     1
102
RTVSPropertyOp2
 70
     1
102
RTVSPropertyOp3
 70
     1
102
RTVSPropertyOp4
 70
     1
102
RTVSPropertyOp5
 70
     1
102
RTVSPropertyOp6
 70
     1
102
RTVSPropertyOp7
 70
     1
102
RTVSPropertyOp8
 70
     1
102
RTVSPropertyOp9
 70
     1
102
RTVSPropertyOp10
 70
     1
102
RTVSPropertyOp11
 70
     1
102
RTVSPropertyOp12
 70
     1
102
RTVSPropertyOp13
 70
     1
102
RTVSPropertyOp14
 70
     1
102
RTVSPropertyOp15
 70
     1
102
RTVSPropertyOp16
 70
     1
102
RTVSPropertyOp17
 70
     1
102
RTVSPropertyOp18
 70
     1
102
RTVSPropertyOp19
 70
     1
102
RTVSPropertyOp20
 70
     1
102
RTVSPropertyOp21
 70
     1
102
RTVSPropertyOp22
 70
     1
102
RTVSPropertyOp23
 70
     1
102
RTVSPropertyOp24
 70
     1
102
RTVSPropertyOp25
 70
     1
102
RTVSPropertyOp26
 70
     1
102
RTVSPropertyOp27
 70
     1
102
RTVSPropertyOp28
 70
     1
102
RTVSPropertyOp29
 70
     1
102
RTVSPropertyOp30
 70
     1
102
RTVSPropertyOp31
 70
     1
102
RTVSPropertyOp32
 70
     1
102
RTVSPropertyOp33
 70
     1
102
RTVSPropertyOp34
 70
     1
102
RTVSPropertyOp35
 70
     1
102
RTVSPropertyOp36
 70
     1
102
RTVSPropertyOp37
 70
     1
102
RTVSPropertyOp38
 70
     1
102
RTVSPropertyOp39
 70
     1
102
RTVSPropertyOp40
 70
     1
102
RTVSPropertyOp41
 70
     1
102
RTVSPropertyOp42
 70
     1
102
RTVSPropertyOp43
 70
     1
102
RTVSPropertyOp44
 70
     1
102
RTVSPropertyOp45
 70
     1
102
RTVSPropertyOp46
 70
     1
102
RTVSPropertyOp47
 70
     1
102
RTVSPropertyOp48
 70
     1
102
RTVSPropertyOp49
 70
     1
102
RTVSPropertyOp50
 70
     1
102
RTVSPropertyOp51
 70
     0
102
RTVSPropertyOp52
 70
     0
102
RTVSPropertyOp53
 70
     1
102
RTVSPropertyOp54
 70
     1
102
RTVSPropertyOp55
 70
     1
102
RTVSPropertyOp56
 70
     1
102
RTVSPropertyOp57
 70
     1
102
RTVSPropertyOp58
 70
     1
102
RTVSPropertyOp59
 70
     1
102
RTVSPropertyOp60
 70
     1
102
RTVSPropertyOp61
 70
     1
102
RTVSPropertyOp62
 70
     1
  0
XRECORD
  5
994C
102
{ACAD_REACTORS
330
994B
102
}
330
994B
100
AcDbXrecord
280
     1
102
RTVSPost2010Prop28
280
     0
102
RTVSPost2010PropOp28
 70
     1
102
RTVSPost2010Prop29
280
     1
102
RTVSPost2010PropOp29
 70
     1
102
RTVSPost2010Prop30
280
     1
102
RTVSPost2010PropOp30
 70
     1
102
RTVSPost2010Prop31
280
     0
102
RTVSPost2010PropOp31
 70
     1
102
RTVSPost2010Prop32
280
     0
102
RTVSPost2010PropOp32
 70
     1
102
RTVSPost2010Prop33
280
     0
102
RTVSPost2010PropOp33
 70
     1
102
RTVSPost2010Prop34
280
     0
102
RTVSPost2010PropOp34
 70
     1
102
RTVSPost2010Prop35
280
     0
102
RTVSPost2010PropOp35
 70
     1
102
RTVSPost2010Prop36
280
     0
102
RTVSPost2010PropOp36
 70
     1
102
RTVSPost2010Prop37
 90
       50
102
RTVSPost2010PropOp37
 70
     1
102
RTVSPost2010Prop38
140
0.0
102
RTVSPost2010PropOp38
 70
     1
102
RTVSPost2010Prop39
140
1.0
102
RTVSPost2010PropOp39
 70
     1
102
RTVSPost2010Prop40
 90
        0
102
RTVSPost2010PropOp40
 70
     1
102
RTVSPost2010Prop41ColorIndex
 90
       18
102
RTVSPost2010Prop41ColorRGB
 90
        0
102
RTVSPost2010PropOp41
 70
     1
102
RTVSPost2010Prop42
 90
       50
102
RTVSPost2010PropOp42
 70
     1
102
RTVSPost2010Prop43
 90
        3
102
RTVSPost2010PropOp43
 70
     1
102
RTVSPost2010Prop44ColorIndex
 90
        5
102
RTVSPost2010Prop44ColorRGB
 90
      255
102
RTVSPost2010PropOp44
 70
     1
102
RTVSPost2010Prop45
280
     0
102
RTVSPost2010PropOp45
 70
     1
102
RTVSPost2010Prop46
 90
       50
102
RTVSPost2010PropOp46
 70
     1
102
RTVSPost2010Prop47
 90
       50
102
RTVSPost2010PropOp47
 70
     1
102
RTVSPost2010Prop48
 90
       50
102
RTVSPost2010PropOp48
 70
     1
102
RTVSPost2010Prop49
280
     0
102
RTVSPost2010PropOp49
 70
     1
102
RTVSPost2010Prop50
 90
       50
102
RTVSPost2010PropOp50
 70
     1
102
RTVSPost2010Prop51ColorIndex
 90
      256
102
RTVSPost2010Prop51ColorRGB
 90
-16777216
102
RTVSPost2010PropOp51
 70
     0
102
RTVSPost2010Prop52
140
1.0
102
RTVSPost2010PropOp52
 70
     0
102
RTVSPost2010Prop53
 90
        2
102
RTVSPost2010PropOp53
 70
     1
102
RTVSPost2010Prop54
  1
strokes_ogs.tif
102
RTVSPost2010PropOp54
 70
     1
102
RTVSPost2010Prop55
280
     0
102
RTVSPost2010PropOp55
 70
     1
102
RTVSPost2010Prop56
140
1.0
102
RTVSPost2010PropOp56
 70
     1
102
RTVSPost2010Prop57
140
1.0
102
RTVSPost2010PropOp57
 70
     1
102
RTVSPropertyOp0
 70
     1
102
RTVSPropertyOp1
 70
     1
102
RTVSPropertyOp2
 70
     1
102
RTVSPropertyOp3
 70
     1
102
RTVSPropertyOp4
 70
     1
102
RTVSPropertyOp5
 70
     1
102
RTVSPropertyOp6
 70
     1
102
RTVSPropertyOp7
 70
     1
102
RTVSPropertyOp8
 70
     1
102
RTVSPropertyOp9
 70
     1
102
RTVSPropertyOp10
 70
     1
102
RTVSPropertyOp11
 70
     1
102
RTVSPropertyOp12
 70
     1
102
RTVSPropertyOp13
 70
     1
102
RTVSPropertyOp14
 70
     1
102
RTVSPropertyOp15
 70
     1
102
RTVSPropertyOp16
 70
     1
102
RTVSPropertyOp17
 70
     1
102
RTVSPropertyOp18
 70
     1
102
RTVSPropertyOp19
 70
     1
102
RTVSPropertyOp20
 70
     1
102
RTVSPropertyOp21
 70
     1
102
RTVSPropertyOp22
 70
     1
102
RTVSPropertyOp23
 70
     1
102
RTVSPropertyOp24
 70
     1
102
RTVSPropertyOp25
 70
     1
102
RTVSPropertyOp26
 70
     1
102
RTVSPropertyOp27
 70
     1
102
RTVSPropertyOp28
 70
     1
102
RTVSPropertyOp29
 70
     1
102
RTVSPropertyOp30
 70
     1
102
RTVSPropertyOp31
 70
     1
102
RTVSPropertyOp32
 70
     1
102
RTVSPropertyOp33
 70
     1
102
RTVSPropertyOp34
 70
     1
102
RTVSPropertyOp35
 70
     1
102
RTVSPropertyOp36
 70
     1
102
RTVSPropertyOp37
 70
     1
102
RTVSPropertyOp38
 70
     1
102
RTVSPropertyOp39
 70
     1
102
RTVSPropertyOp40
 70
     1
102
RTVSPropertyOp41
 70
     1
102
RTVSPropertyOp42
 70
     1
102
RTVSPropertyOp43
 70
     1
102
RTVSPropertyOp44
 70
     1
102
RTVSPropertyOp45
 70
     1
102
RTVSPropertyOp46
 70
     1
102
RTVSPropertyOp47
 70
     1
102
RTVSPropertyOp48
 70
     1
102
RTVSPropertyOp49
 70
     1
102
RTVSPropertyOp50
 70
     1
102
RTVSPropertyOp51
 70
     0
102
RTVSPropertyOp52
 70
     0
102
RTVSPropertyOp53
 70
     1
102
RTVSPropertyOp54
 70
     1
102
RTVSPropertyOp55
 70
     1
102
RTVSPropertyOp56
 70
     1
102
RTVSPropertyOp57
 70
     1
102
RTVSPropertyOp58
 70
     1
102
RTVSPropertyOp59
 70
     1
102
RTVSPropertyOp60
 70
     1
102
RTVSPropertyOp61
 70
     1
102
RTVSPropertyOp62
 70
     1
  0
XRECORD
  5
993E
102
{ACAD_REACTORS
330
993D
102
}
330
993D
100
AcDbXrecord
280
     1
102
RTVSPost2010Prop28
280
     0
102
RTVSPost2010PropOp28
 70
     1
102
RTVSPost2010Prop29
280
     1
102
RTVSPost2010PropOp29
 70
     1
102
RTVSPost2010Prop30
280
     1
102
RTVSPost2010PropOp30
 70
     1
102
RTVSPost2010Prop31
280
     0
102
RTVSPost2010PropOp31
 70
     1
102
RTVSPost2010Prop32
280
     0
102
RTVSPost2010PropOp32
 70
     1
102
RTVSPost2010Prop33
280
     0
102
RTVSPost2010PropOp33
 70
     1
102
RTVSPost2010Prop34
280
     0
102
RTVSPost2010PropOp34
 70
     1
102
RTVSPost2010Prop35
280
     0
102
RTVSPost2010PropOp35
 70
     1
102
RTVSPost2010Prop36
280
     0
102
RTVSPost2010PropOp36
 70
     1
102
RTVSPost2010Prop37
 90
       50
102
RTVSPost2010PropOp37
 70
     1
102
RTVSPost2010Prop38
140
0.0
102
RTVSPost2010PropOp38
 70
     1
102
RTVSPost2010Prop39
140
1.0
102
RTVSPost2010PropOp39
 70
     1
102
RTVSPost2010Prop40
 90
        0
102
RTVSPost2010PropOp40
 70
     1
102
RTVSPost2010Prop41ColorIndex
 90
       18
102
RTVSPost2010Prop41ColorRGB
 90
        0
102
RTVSPost2010PropOp41
 70
     1
102
RTVSPost2010Prop42
 90
       50
102
RTVSPost2010PropOp42
 70
     1
102
RTVSPost2010Prop43
 90
        3
102
RTVSPost2010PropOp43
 70
     1
102
RTVSPost2010Prop44ColorIndex
 90
        5
102
RTVSPost2010Prop44ColorRGB
 90
      255
102
RTVSPost2010PropOp44
 70
     1
102
RTVSPost2010Prop45
280
     0
102
RTVSPost2010PropOp45
 70
     1
102
RTVSPost2010Prop46
 90
       50
102
RTVSPost2010PropOp46
 70
     1
102
RTVSPost2010Prop47
 90
       50
102
RTVSPost2010PropOp47
 70
     1
102
RTVSPost2010Prop48
 90
       50
102
RTVSPost2010PropOp48
 70
     1
102
RTVSPost2010Prop49
280
     0
102
RTVSPost2010PropOp49
 70
     1
102
RTVSPost2010Prop50
 90
       50
102
RTVSPost2010PropOp50
 70
     1
102
RTVSPost2010Prop51ColorIndex
 90
      256
102
RTVSPost2010Prop51ColorRGB
 90
-16777216
102
RTVSPost2010PropOp51
 70
     0
102
RTVSPost2010Prop52
140
1.0
102
RTVSPost2010PropOp52
 70
     0
102
RTVSPost2010Prop53
 90
        2
102
RTVSPost2010PropOp53
 70
     1
102
RTVSPost2010Prop54
  1
strokes_ogs.tif
102
RTVSPost2010PropOp54
 70
     1
102
RTVSPost2010Prop55
280
     0
102
RTVSPost2010PropOp55
 70
     1
102
RTVSPost2010Prop56
140
1.0
102
RTVSPost2010PropOp56
 70
     1
102
RTVSPost2010Prop57
140
1.0
102
RTVSPost2010PropOp57
 70
     1
102
RTVSPropertyOp0
 70
     1
102
RTVSPropertyOp1
 70
     1
102
RTVSPropertyOp2
 70
     1
102
RTVSPropertyOp3
 70
     1
102
RTVSPropertyOp4
 70
     1
102
RTVSPropertyOp5
 70
     1
102
RTVSPropertyOp6
 70
     1
102
RTVSPropertyOp7
 70
     1
102
RTVSPropertyOp8
 70
     1
102
RTVSPropertyOp9
 70
     1
102
RTVSPropertyOp10
 70
     1
102
RTVSPropertyOp11
 70
     1
102
RTVSPropertyOp12
 70
     1
102
RTVSPropertyOp13
 70
     1
102
RTVSPropertyOp14
 70
     1
102
RTVSPropertyOp15
 70
     1
102
RTVSPropertyOp16
 70
     1
102
RTVSPropertyOp17
 70
     1
102
RTVSPropertyOp18
 70
     1
102
RTVSPropertyOp19
 70
     1
102
RTVSPropertyOp20
 70
     1
102
RTVSPropertyOp21
 70
     1
102
RTVSPropertyOp22
 70
     1
102
RTVSPropertyOp23
 70
     1
102
RTVSPropertyOp24
 70
     1
102
RTVSPropertyOp25
 70
     1
102
RTVSPropertyOp26
 70
     1
102
RTVSPropertyOp27
 70
     1
102
RTVSPropertyOp28
 70
     1
102
RTVSPropertyOp29
 70
     1
102
RTVSPropertyOp30
 70
     1
102
RTVSPropertyOp31
 70
     1
102
RTVSPropertyOp32
 70
     1
102
RTVSPropertyOp33
 70
     1
102
RTVSPropertyOp34
 70
     1
102
RTVSPropertyOp35
 70
     1
102
RTVSPropertyOp36
 70
     1
102
RTVSPropertyOp37
 70
     1
102
RTVSPropertyOp38
 70
     1
102
RTVSPropertyOp39
 70
     1
102
RTVSPropertyOp40
 70
     1
102
RTVSPropertyOp41
 70
     1
102
RTVSPropertyOp42
 70
     1
102
RTVSPropertyOp43
 70
     1
102
RTVSPropertyOp44
 70
     1
102
RTVSPropertyOp45
 70
     1
102
RTVSPropertyOp46
 70
     1
102
RTVSPropertyOp47
 70
     1
102
RTVSPropertyOp48
 70
     1
102
RTVSPropertyOp49
 70
     1
102
RTVSPropertyOp50
 70
     1
102
RTVSPropertyOp51
 70
     0
102
RTVSPropertyOp52
 70
     0
102
RTVSPropertyOp53
 70
     1
102
RTVSPropertyOp54
 70
     1
102
RTVSPropertyOp55
 70
     1
102
RTVSPropertyOp56
 70
     1
102
RTVSPropertyOp57
 70
     1
102
RTVSPropertyOp58
 70
     1
102
RTVSPropertyOp59
 70
     1
102
RTVSPropertyOp60
 70
     1
102
RTVSPropertyOp61
 70
     1
102
RTVSPropertyOp62
 70
     1
  0
XRECORD
  5
9942
102
{ACAD_REACTORS
330
9941
102
}
330
9941
100
AcDbXrecord
280
     1
102
RTVSPost2010Prop28
280
     0
102
RTVSPost2010PropOp28
 70
     1
102
RTVSPost2010Prop29
280
     1
102
RTVSPost2010PropOp29
 70
     1
102
RTVSPost2010Prop30
280
     1
102
RTVSPost2010PropOp30
 70
     1
102
RTVSPost2010Prop31
280
     0
102
RTVSPost2010PropOp31
 70
     1
102
RTVSPost2010Prop32
280
     0
102
RTVSPost2010PropOp32
 70
     1
102
RTVSPost2010Prop33
280
     0
102
RTVSPost2010PropOp33
 70
     1
102
RTVSPost2010Prop34
280
     0
102
RTVSPost2010PropOp34
 70
     1
102
RTVSPost2010Prop35
280
     0
102
RTVSPost2010PropOp35
 70
     1
102
RTVSPost2010Prop36
280
     0
102
RTVSPost2010PropOp36
 70
     1
102
RTVSPost2010Prop37
 90
       50
102
RTVSPost2010PropOp37
 70
     1
102
RTVSPost2010Prop38
140
0.0
102
RTVSPost2010PropOp38
 70
     1
102
RTVSPost2010Prop39
140
1.0
102
RTVSPost2010PropOp39
 70
     1
102
RTVSPost2010Prop40
 90
        0
102
RTVSPost2010PropOp40
 70
     1
102
RTVSPost2010Prop41ColorIndex
 90
       18
102
RTVSPost2010Prop41ColorRGB
 90
        0
102
RTVSPost2010PropOp41
 70
     1
102
RTVSPost2010Prop42
 90
       50
102
RTVSPost2010PropOp42
 70
     1
102
RTVSPost2010Prop43
 90
        3
102
RTVSPost2010PropOp43
 70
     1
102
RTVSPost2010Prop44ColorIndex
 90
        5
102
RTVSPost2010Prop44ColorRGB
 90
      255
102
RTVSPost2010PropOp44
 70
     1
102
RTVSPost2010Prop45
280
     0
102
RTVSPost2010PropOp45
 70
     1
102
RTVSPost2010Prop46
 90
       50
102
RTVSPost2010PropOp46
 70
     1
102
RTVSPost2010Prop47
 90
       50
102
RTVSPost2010PropOp47
 70
     1
102
RTVSPost2010Prop48
 90
       50
102
RTVSPost2010PropOp48
 70
     1
102
RTVSPost2010Prop49
280
     0
102
RTVSPost2010PropOp49
 70
     1
102
RTVSPost2010Prop50
 90
       50
102
RTVSPost2010PropOp50
 70
     1
102
RTVSPost2010Prop51ColorIndex
 90
      256
102
RTVSPost2010Prop51ColorRGB
 90
-16777216
102
RTVSPost2010PropOp51
 70
     0
102
RTVSPost2010Prop52
140
1.0
102
RTVSPost2010PropOp52
 70
     0
102
RTVSPost2010Prop53
 90
        2
102
RTVSPost2010PropOp53
 70
     1
102
RTVSPost2010Prop54
  1
strokes_ogs.tif
102
RTVSPost2010PropOp54
 70
     1
102
RTVSPost2010Prop55
280
     0
102
RTVSPost2010PropOp55
 70
     1
102
RTVSPost2010Prop56
140
1.0
102
RTVSPost2010PropOp56
 70
     1
102
RTVSPost2010Prop57
140
1.0
102
RTVSPost2010PropOp57
 70
     1
102
RTVSPropertyOp0
 70
     1
102
RTVSPropertyOp1
 70
     1
102
RTVSPropertyOp2
 70
     1
102
RTVSPropertyOp3
 70
     1
102
RTVSPropertyOp4
 70
     1
102
RTVSPropertyOp5
 70
     1
102
RTVSPropertyOp6
 70
     1
102
RTVSPropertyOp7
 70
     1
102
RTVSPropertyOp8
 70
     1
102
RTVSPropertyOp9
 70
     1
102
RTVSPropertyOp10
 70
     1
102
RTVSPropertyOp11
 70
     1
102
RTVSPropertyOp12
 70
     1
102
RTVSPropertyOp13
 70
     1
102
RTVSPropertyOp14
 70
     1
102
RTVSPropertyOp15
 70
     1
102
RTVSPropertyOp16
 70
     1
102
RTVSPropertyOp17
 70
     1
102
RTVSPropertyOp18
 70
     1
102
RTVSPropertyOp19
 70
     1
102
RTVSPropertyOp20
 70
     1
102
RTVSPropertyOp21
 70
     1
102
RTVSPropertyOp22
 70
     1
102
RTVSPropertyOp23
 70
     1
102
RTVSPropertyOp24
 70
     1
102
RTVSPropertyOp25
 70
     1
102
RTVSPropertyOp26
 70
     1
102
RTVSPropertyOp27
 70
     1
102
RTVSPropertyOp28
 70
     1
102
RTVSPropertyOp29
 70
     1
102
RTVSPropertyOp30
 70
     1
102
RTVSPropertyOp31
 70
     1
102
RTVSPropertyOp32
 70
     1
102
RTVSPropertyOp33
 70
     1
102
RTVSPropertyOp34
 70
     1
102
RTVSPropertyOp35
 70
     1
102
RTVSPropertyOp36
 70
     1
102
RTVSPropertyOp37
 70
     1
102
RTVSPropertyOp38
 70
     1
102
RTVSPropertyOp39
 70
     1
102
RTVSPropertyOp40
 70
     1
102
RTVSPropertyOp41
 70
     1
102
RTVSPropertyOp42
 70
     1
102
RTVSPropertyOp43
 70
     1
102
RTVSPropertyOp44
 70
     1
102
RTVSPropertyOp45
 70
     1
102
RTVSPropertyOp46
 70
     1
102
RTVSPropertyOp47
 70
     1
102
RTVSPropertyOp48
 70
     1
102
RTVSPropertyOp49
 70
     1
102
RTVSPropertyOp50
 70
     1
102
RTVSPropertyOp51
 70
     0
102
RTVSPropertyOp52
 70
     0
102
RTVSPropertyOp53
 70
     1
102
RTVSPropertyOp54
 70
     1
102
RTVSPropertyOp55
 70
     1
102
RTVSPropertyOp56
 70
     1
102
RTVSPropertyOp57
 70
     1
102
RTVSPropertyOp58
 70
     1
102
RTVSPropertyOp59
 70
     1
102
RTVSPropertyOp60
 70
     1
102
RTVSPropertyOp61
 70
     1
102
RTVSPropertyOp62
 70
     1
  0
XRECORD
  5
995C
102
{ACAD_REACTORS
330
995B
102
}
330
995B
100
AcDbXrecord
280
     1
102
RTVSPost2010Prop28
280
     0
102
RTVSPost2010PropOp28
 70
     1
102
RTVSPost2010Prop29
280
     1
102
RTVSPost2010PropOp29
 70
     1
102
RTVSPost2010Prop30
280
     1
102
RTVSPost2010PropOp30
 70
     1
102
RTVSPost2010Prop31
280
     0
102
RTVSPost2010PropOp31
 70
     1
102
RTVSPost2010Prop32
280
     0
102
RTVSPost2010PropOp32
 70
     1
102
RTVSPost2010Prop33
280
     0
102
RTVSPost2010PropOp33
 70
     1
102
RTVSPost2010Prop34
280
     0
102
RTVSPost2010PropOp34
 70
     1
102
RTVSPost2010Prop35
280
     0
102
RTVSPost2010PropOp35
 70
     1
102
RTVSPost2010Prop36
280
     0
102
RTVSPost2010PropOp36
 70
     1
102
RTVSPost2010Prop37
 90
       50
102
RTVSPost2010PropOp37
 70
     0
102
RTVSPost2010Prop38
140
0.0
102
RTVSPost2010PropOp38
 70
     0
102
RTVSPost2010Prop39
140
1.0
102
RTVSPost2010PropOp39
 70
     0
102
RTVSPost2010Prop40
 90
        0
102
RTVSPost2010PropOp40
 70
     0
102
RTVSPost2010Prop41ColorIndex
 90
       18
102
RTVSPost2010Prop41ColorRGB
 90
        0
102
RTVSPost2010PropOp41
 70
     0
102
RTVSPost2010Prop42
 90
       50
102
RTVSPost2010PropOp42
 70
     0
102
RTVSPost2010Prop43
 90
        3
102
RTVSPost2010PropOp43
 70
     0
102
RTVSPost2010Prop44ColorIndex
 90
        5
102
RTVSPost2010Prop44ColorRGB
 90
      255
102
RTVSPost2010PropOp44
 70
     0
102
RTVSPost2010Prop45
280
     0
102
RTVSPost2010PropOp45
 70
     1
102
RTVSPost2010Prop46
 90
       50
102
RTVSPost2010PropOp46
 70
     0
102
RTVSPost2010Prop47
 90
       50
102
RTVSPost2010PropOp47
 70
     0
102
RTVSPost2010Prop48
 90
       50
102
RTVSPost2010PropOp48
 70
     0
102
RTVSPost2010Prop49
280
     0
102
RTVSPost2010PropOp49
 70
     1
102
RTVSPost2010Prop50
 90
       50
102
RTVSPost2010PropOp50
 70
     0
102
RTVSPost2010Prop51ColorIndex
 90
      256
102
RTVSPost2010Prop51ColorRGB
 90
-16777216
102
RTVSPost2010PropOp51
 70
     0
102
RTVSPost2010Prop52
140
1.0
102
RTVSPost2010PropOp52
 70
     0
102
RTVSPost2010Prop53
 90
        2
102
RTVSPost2010PropOp53
 70
     0
102
RTVSPost2010Prop54
  1
strokes_ogs.tif
102
RTVSPost2010PropOp54
 70
     0
102
RTVSPost2010Prop55
280
     0
102
RTVSPost2010PropOp55
 70
     1
102
RTVSPost2010Prop56
140
1.0
102
RTVSPost2010PropOp56
 70
     0
102
RTVSPost2010Prop57
140
1.0
102
RTVSPost2010PropOp57
 70
     0
102
RTVSPropertyOp0
 70
     0
102
RTVSPropertyOp1
 70
     0
102
RTVSPropertyOp2
 70
     0
102
RTVSPropertyOp3
 70
     0
102
RTVSPropertyOp4
 70
     0
102
RTVSPropertyOp5
 70
     0
102
RTVSPropertyOp6
 70
     0
102
RTVSPropertyOp7
 70
     0
102
RTVSPropertyOp8
 70
     0
102
RTVSPropertyOp9
 70
     0
102
RTVSPropertyOp10
 70
     0
102
RTVSPropertyOp11
 70
     0
102
RTVSPropertyOp12
 70
     0
102
RTVSPropertyOp13
 70
     0
102
RTVSPropertyOp14
 70
     2
102
RTVSPropertyOp15
 70
     0
102
RTVSPropertyOp16
 70
     0
102
RTVSPropertyOp17
 70
     0
102
RTVSPropertyOp18
 70
     0
102
RTVSPropertyOp19
 70
     0
102
RTVSPropertyOp20
 70
     0
102
RTVSPropertyOp21
 70
     0
102
RTVSPropertyOp22
 70
     0
102
RTVSPropertyOp23
 70
     0
102
RTVSPropertyOp24
 70
     0
102
RTVSPropertyOp25
 70
     0
102
RTVSPropertyOp26
 70
     0
102
RTVSPropertyOp27
 70
     0
102
RTVSPropertyOp28
 70
     1
102
RTVSPropertyOp29
 70
     1
102
RTVSPropertyOp30
 70
     1
102
RTVSPropertyOp31
 70
     1
102
RTVSPropertyOp32
 70
     1
102
RTVSPropertyOp33
 70
     1
102
RTVSPropertyOp34
 70
     1
102
RTVSPropertyOp35
 70
     1
102
RTVSPropertyOp36
 70
     1
102
RTVSPropertyOp37
 70
     0
102
RTVSPropertyOp38
 70
     0
102
RTVSPropertyOp39
 70
     0
102
RTVSPropertyOp40
 70
     0
102
RTVSPropertyOp41
 70
     0
102
RTVSPropertyOp42
 70
     0
102
RTVSPropertyOp43
 70
     0
102
RTVSPropertyOp44
 70
     0
102
RTVSPropertyOp45
 70
     1
102
RTVSPropertyOp46
 70
     0
102
RTVSPropertyOp47
 70
     0
102
RTVSPropertyOp48
 70
     0
102
RTVSPropertyOp49
 70
     1
102
RTVSPropertyOp50
 70
     0
102
RTVSPropertyOp51
 70
     0
102
RTVSPropertyOp52
 70
     0
102
RTVSPropertyOp53
 70
     0
102
RTVSPropertyOp54
 70
     0
102
RTVSPropertyOp55
 70
     1
102
RTVSPropertyOp56
 70
     0
102
RTVSPropertyOp57
 70
     0
102
RTVSPropertyOp58
 70
     0
102
RTVSPropertyOp59
 70
     0
102
RTVSPropertyOp60
 70
     0
102
RTVSPropertyOp61
 70
     0
102
RTVSPropertyOp62
 70
     0
  0
XRECORD
  5
994A
102
{ACAD_REACTORS
330
9949
102
}
330
9949
100
AcDbXrecord
280
     1
102
RTVSPost2010Prop28
280
     0
102
RTVSPost2010PropOp28
 70
     1
102
RTVSPost2010Prop29
280
     1
102
RTVSPost2010PropOp29
 70
     1
102
RTVSPost2010Prop30
280
     1
102
RTVSPost2010PropOp30
 70
     1
102
RTVSPost2010Prop31
280
     0
102
RTVSPost2010PropOp31
 70
     1
102
RTVSPost2010Prop32
280
     0
102
RTVSPost2010PropOp32
 70
     1
102
RTVSPost2010Prop33
280
     0
102
RTVSPost2010PropOp33
 70
     1
102
RTVSPost2010Prop34
280
     0
102
RTVSPost2010PropOp34
 70
     1
102
RTVSPost2010Prop35
280
     0
102
RTVSPost2010PropOp35
 70
     1
102
RTVSPost2010Prop36
280
     0
102
RTVSPost2010PropOp36
 70
     1
102
RTVSPost2010Prop37
 90
       50
102
RTVSPost2010PropOp37
 70
     1
102
RTVSPost2010Prop38
140
0.0
102
RTVSPost2010PropOp38
 70
     1
102
RTVSPost2010Prop39
140
1.0
102
RTVSPost2010PropOp39
 70
     1
102
RTVSPost2010Prop40
 90
        0
102
RTVSPost2010PropOp40
 70
     1
102
RTVSPost2010Prop41ColorIndex
 90
       18
102
RTVSPost2010Prop41ColorRGB
 90
        0
102
RTVSPost2010PropOp41
 70
     1
102
RTVSPost2010Prop42
 90
       50
102
RTVSPost2010PropOp42
 70
     1
102
RTVSPost2010Prop43
 90
        3
102
RTVSPost2010PropOp43
 70
     1
102
RTVSPost2010Prop44ColorIndex
 90
        5
102
RTVSPost2010Prop44ColorRGB
 90
      255
102
RTVSPost2010PropOp44
 70
     1
102
RTVSPost2010Prop45
280
     0
102
RTVSPost2010PropOp45
 70
     1
102
RTVSPost2010Prop46
 90
       50
102
RTVSPost2010PropOp46
 70
     1
102
RTVSPost2010Prop47
 90
       50
102
RTVSPost2010PropOp47
 70
     1
102
RTVSPost2010Prop48
 90
       50
102
RTVSPost2010PropOp48
 70
     1
102
RTVSPost2010Prop49
280
     0
102
RTVSPost2010PropOp49
 70
     1
102
RTVSPost2010Prop50
 90
       50
102
RTVSPost2010PropOp50
 70
     1
102
RTVSPost2010Prop51ColorIndex
 90
      256
102
RTVSPost2010Prop51ColorRGB
 90
-16777216
102
RTVSPost2010PropOp51
 70
     0
102
RTVSPost2010Prop52
140
1.0
102
RTVSPost2010PropOp52
 70
     0
102
RTVSPost2010Prop53
 90
        2
102
RTVSPost2010PropOp53
 70
     1
102
RTVSPost2010Prop54
  1
strokes_ogs.tif
102
RTVSPost2010PropOp54
 70
     1
102
RTVSPost2010Prop55
280
     0
102
RTVSPost2010PropOp55
 70
     1
102
RTVSPost2010Prop56
140
1.0
102
RTVSPost2010PropOp56
 70
     1
102
RTVSPost2010Prop57
140
1.0
102
RTVSPost2010PropOp57
 70
     1
102
RTVSPropertyOp0
 70
     1
102
RTVSPropertyOp1
 70
     1
102
RTVSPropertyOp2
 70
     1
102
RTVSPropertyOp3
 70
     1
102
RTVSPropertyOp4
 70
     1
102
RTVSPropertyOp5
 70
     1
102
RTVSPropertyOp6
 70
     1
102
RTVSPropertyOp7
 70
     1
102
RTVSPropertyOp8
 70
     1
102
RTVSPropertyOp9
 70
     1
102
RTVSPropertyOp10
 70
     1
102
RTVSPropertyOp11
 70
     1
102
RTVSPropertyOp12
 70
     1
102
RTVSPropertyOp13
 70
     1
102
RTVSPropertyOp14
 70
     1
102
RTVSPropertyOp15
 70
     1
102
RTVSPropertyOp16
 70
     1
102
RTVSPropertyOp17
 70
     1
102
RTVSPropertyOp18
 70
     1
102
RTVSPropertyOp19
 70
     1
102
RTVSPropertyOp20
 70
     1
102
RTVSPropertyOp21
 70
     1
102
RTVSPropertyOp22
 70
     1
102
RTVSPropertyOp23
 70
     1
102
RTVSPropertyOp24
 70
     1
102
RTVSPropertyOp25
 70
     1
102
RTVSPropertyOp26
 70
     1
102
RTVSPropertyOp27
 70
     1
102
RTVSPropertyOp28
 70
     1
102
RTVSPropertyOp29
 70
     1
102
RTVSPropertyOp30
 70
     1
102
RTVSPropertyOp31
 70
     1
102
RTVSPropertyOp32
 70
     1
102
RTVSPropertyOp33
 70
     1
102
RTVSPropertyOp34
 70
     1
102
RTVSPropertyOp35
 70
     1
102
RTVSPropertyOp36
 70
     1
102
RTVSPropertyOp37
 70
     1
102
RTVSPropertyOp38
 70
     1
102
RTVSPropertyOp39
 70
     1
102
RTVSPropertyOp40
 70
     1
102
RTVSPropertyOp41
 70
     1
102
RTVSPropertyOp42
 70
     1
102
RTVSPropertyOp43
 70
     1
102
RTVSPropertyOp44
 70
     1
102
RTVSPropertyOp45
 70
     1
102
RTVSPropertyOp46
 70
     1
102
RTVSPropertyOp47
 70
     1
102
RTVSPropertyOp48
 70
     1
102
RTVSPropertyOp49
 70
     1
102
RTVSPropertyOp50
 70
     1
102
RTVSPropertyOp51
 70
     0
102
RTVSPropertyOp52
 70
     0
102
RTVSPropertyOp53
 70
     1
102
RTVSPropertyOp54
 70
     1
102
RTVSPropertyOp55
 70
     1
102
RTVSPropertyOp56
 70
     1
102
RTVSPropertyOp57
 70
     1
102
RTVSPropertyOp58
 70
     1
102
RTVSPropertyOp59
 70
     1
102
RTVSPropertyOp60
 70
     1
102
RTVSPropertyOp61
 70
     1
102
RTVSPropertyOp62
 70
     1
  0
XRECORD
  5
992E
102
{ACAD_REACTORS
330
992D
102
}
330
992D
100
AcDbXrecord
280
     1
102
RTVSPost2010Prop28
280
     0
102
RTVSPost2010PropOp28
 70
     1
102
RTVSPost2010Prop29
280
     1
102
RTVSPost2010PropOp29
 70
     1
102
RTVSPost2010Prop30
280
     1
102
RTVSPost2010PropOp30
 70
     1
102
RTVSPost2010Prop31
280
     0
102
RTVSPost2010PropOp31
 70
     1
102
RTVSPost2010Prop32
280
     0
102
RTVSPost2010PropOp32
 70
     1
102
RTVSPost2010Prop33
280
     0
102
RTVSPost2010PropOp33
 70
     1
102
RTVSPost2010Prop34
280
     0
102
RTVSPost2010PropOp34
 70
     1
102
RTVSPost2010Prop35
280
     0
102
RTVSPost2010PropOp35
 70
     1
102
RTVSPost2010Prop36
280
     0
102
RTVSPost2010PropOp36
 70
     1
102
RTVSPost2010Prop37
 90
       50
102
RTVSPost2010PropOp37
 70
     1
102
RTVSPost2010Prop38
140
0.0
102
RTVSPost2010PropOp38
 70
     1
102
RTVSPost2010Prop39
140
1.0
102
RTVSPost2010PropOp39
 70
     1
102
RTVSPost2010Prop40
 90
        0
102
RTVSPost2010PropOp40
 70
     1
102
RTVSPost2010Prop41ColorIndex
 90
       18
102
RTVSPost2010Prop41ColorRGB
 90
        0
102
RTVSPost2010PropOp41
 70
     1
102
RTVSPost2010Prop42
 90
       50
102
RTVSPost2010PropOp42
 70
     1
102
RTVSPost2010Prop43
 90
        3
102
RTVSPost2010PropOp43
 70
     1
102
RTVSPost2010Prop44ColorIndex
 90
        5
102
RTVSPost2010Prop44ColorRGB
 90
      255
102
RTVSPost2010PropOp44
 70
     1
102
RTVSPost2010Prop45
280
     0
102
RTVSPost2010PropOp45
 70
     1
102
RTVSPost2010Prop46
 90
       50
102
RTVSPost2010PropOp46
 70
     1
102
RTVSPost2010Prop47
 90
       50
102
RTVSPost2010PropOp47
 70
     1
102
RTVSPost2010Prop48
 90
       50
102
RTVSPost2010PropOp48
 70
     1
102
RTVSPost2010Prop49
280
     0
102
RTVSPost2010PropOp49
 70
     1
102
RTVSPost2010Prop50
 90
       50
102
RTVSPost2010PropOp50
 70
     1
102
RTVSPost2010Prop51ColorIndex
 90
      256
102
RTVSPost2010Prop51ColorRGB
 90
-16777216
102
RTVSPost2010PropOp51
 70
     0
102
RTVSPost2010Prop52
140
1.0
102
RTVSPost2010PropOp52
 70
     0
102
RTVSPost2010Prop53
 90
        2
102
RTVSPost2010PropOp53
 70
     1
102
RTVSPost2010Prop54
  1
strokes_ogs.tif
102
RTVSPost2010PropOp54
 70
     1
102
RTVSPost2010Prop55
280
     0
102
RTVSPost2010PropOp55
 70
     1
102
RTVSPost2010Prop56
140
1.0
102
RTVSPost2010PropOp56
 70
     1
102
RTVSPost2010Prop57
140
1.0
102
RTVSPost2010PropOp57
 70
     1
102
RTVSPropertyOp0
 70
     1
102
RTVSPropertyOp1
 70
     1
102
RTVSPropertyOp2
 70
     1
102
RTVSPropertyOp3
 70
     1
102
RTVSPropertyOp4
 70
     1
102
RTVSPropertyOp5
 70
     1
102
RTVSPropertyOp6
 70
     1
102
RTVSPropertyOp7
 70
     1
102
RTVSPropertyOp8
 70
     1
102
RTVSPropertyOp9
 70
     1
102
RTVSPropertyOp10
 70
     1
102
RTVSPropertyOp11
 70
     1
102
RTVSPropertyOp12
 70
     1
102
RTVSPropertyOp13
 70
     1
102
RTVSPropertyOp14
 70
     1
102
RTVSPropertyOp15
 70
     1
102
RTVSPropertyOp16
 70
     1
102
RTVSPropertyOp17
 70
     1
102
RTVSPropertyOp18
 70
     1
102
RTVSPropertyOp19
 70
     1
102
RTVSPropertyOp20
 70
     1
102
RTVSPropertyOp21
 70
     1
102
RTVSPropertyOp22
 70
     1
102
RTVSPropertyOp23
 70
     1
102
RTVSPropertyOp24
 70
     1
102
RTVSPropertyOp25
 70
     1
102
RTVSPropertyOp26
 70
     1
102
RTVSPropertyOp27
 70
     1
102
RTVSPropertyOp28
 70
     1
102
RTVSPropertyOp29
 70
     1
102
RTVSPropertyOp30
 70
     1
102
RTVSPropertyOp31
 70
     1
102
RTVSPropertyOp32
 70
     1
102
RTVSPropertyOp33
 70
     1
102
RTVSPropertyOp34
 70
     1
102
RTVSPropertyOp35
 70
     1
102
RTVSPropertyOp36
 70
     1
102
RTVSPropertyOp37
 70
     1
102
RTVSPropertyOp38
 70
     1
102
RTVSPropertyOp39
 70
     1
102
RTVSPropertyOp40
 70
     1
102
RTVSPropertyOp41
 70
     1
102
RTVSPropertyOp42
 70
     1
102
RTVSPropertyOp43
 70
     1
102
RTVSPropertyOp44
 70
     1
102
RTVSPropertyOp45
 70
     1
102
RTVSPropertyOp46
 70
     1
102
RTVSPropertyOp47
 70
     1
102
RTVSPropertyOp48
 70
     1
102
RTVSPropertyOp49
 70
     1
102
RTVSPropertyOp50
 70
     1
102
RTVSPropertyOp51
 70
     0
102
RTVSPropertyOp52
 70
     0
102
RTVSPropertyOp53
 70
     1
102
RTVSPropertyOp54
 70
     1
102
RTVSPropertyOp55
 70
     1
102
RTVSPropertyOp56
 70
     1
102
RTVSPropertyOp57
 70
     1
102
RTVSPropertyOp58
 70
     1
102
RTVSPropertyOp59
 70
     1
102
RTVSPropertyOp60
 70
     1
102
RTVSPropertyOp61
 70
     1
102
RTVSPropertyOp62
 70
     1
  0
XRECORD
  5
9930
102
{ACAD_REACTORS
330
992F
102
}
330
992F
100
AcDbXrecord
280
     1
102
RTVSPost2010Prop28
280
     0
102
RTVSPost2010PropOp28
 70
     1
102
RTVSPost2010Prop29
280
     1
102
RTVSPost2010PropOp29
 70
     1
102
RTVSPost2010Prop30
280
     1
102
RTVSPost2010PropOp30
 70
     1
102
RTVSPost2010Prop31
280
     0
102
RTVSPost2010PropOp31
 70
     1
102
RTVSPost2010Prop32
280
     0
102
RTVSPost2010PropOp32
 70
     1
102
RTVSPost2010Prop33
280
     0
102
RTVSPost2010PropOp33
 70
     1
102
RTVSPost2010Prop34
280
     0
102
RTVSPost2010PropOp34
 70
     1
102
RTVSPost2010Prop35
280
     0
102
RTVSPost2010PropOp35
 70
     1
102
RTVSPost2010Prop36
280
     0
102
RTVSPost2010PropOp36
 70
     1
102
RTVSPost2010Prop37
 90
       50
102
RTVSPost2010PropOp37
 70
     1
102
RTVSPost2010Prop38
140
0.0
102
RTVSPost2010PropOp38
 70
     1
102
RTVSPost2010Prop39
140
1.0
102
RTVSPost2010PropOp39
 70
     1
102
RTVSPost2010Prop40
 90
        0
102
RTVSPost2010PropOp40
 70
     1
102
RTVSPost2010Prop41ColorIndex
 90
       18
102
RTVSPost2010Prop41ColorRGB
 90
        0
102
RTVSPost2010PropOp41
 70
     1
102
RTVSPost2010Prop42
 90
       50
102
RTVSPost2010PropOp42
 70
     1
102
RTVSPost2010Prop43
 90
        3
102
RTVSPost2010PropOp43
 70
     1
102
RTVSPost2010Prop44ColorIndex
 90
        5
102
RTVSPost2010Prop44ColorRGB
 90
      255
102
RTVSPost2010PropOp44
 70
     1
102
RTVSPost2010Prop45
280
     0
102
RTVSPost2010PropOp45
 70
     1
102
RTVSPost2010Prop46
 90
       50
102
RTVSPost2010PropOp46
 70
     1
102
RTVSPost2010Prop47
 90
       50
102
RTVSPost2010PropOp47
 70
     1
102
RTVSPost2010Prop48
 90
       50
102
RTVSPost2010PropOp48
 70
     1
102
RTVSPost2010Prop49
280
     0
102
RTVSPost2010PropOp49
 70
     1
102
RTVSPost2010Prop50
 90
       50
102
RTVSPost2010PropOp50
 70
     1
102
RTVSPost2010Prop51ColorIndex
 90
      256
102
RTVSPost2010Prop51ColorRGB
 90
-16777216
102
RTVSPost2010PropOp51
 70
     0
102
RTVSPost2010Prop52
140
1.0
102
RTVSPost2010PropOp52
 70
     0
102
RTVSPost2010Prop53
 90
        2
102
RTVSPost2010PropOp53
 70
     1
102
RTVSPost2010Prop54
  1
strokes_ogs.tif
102
RTVSPost2010PropOp54
 70
     1
102
RTVSPost2010Prop55
280
     0
102
RTVSPost2010PropOp55
 70
     1
102
RTVSPost2010Prop56
140
1.0
102
RTVSPost2010PropOp56
 70
     1
102
RTVSPost2010Prop57
140
1.0
102
RTVSPost2010PropOp57
 70
     1
102
RTVSPropertyOp0
 70
     1
102
RTVSPropertyOp1
 70
     1
102
RTVSPropertyOp2
 70
     1
102
RTVSPropertyOp3
 70
     1
102
RTVSPropertyOp4
 70
     1
102
RTVSPropertyOp5
 70
     1
102
RTVSPropertyOp6
 70
     1
102
RTVSPropertyOp7
 70
     1
102
RTVSPropertyOp8
 70
     1
102
RTVSPropertyOp9
 70
     1
102
RTVSPropertyOp10
 70
     1
102
RTVSPropertyOp11
 70
     1
102
RTVSPropertyOp12
 70
     1
102
RTVSPropertyOp13
 70
     1
102
RTVSPropertyOp14
 70
     1
102
RTVSPropertyOp15
 70
     1
102
RTVSPropertyOp16
 70
     1
102
RTVSPropertyOp17
 70
     1
102
RTVSPropertyOp18
 70
     1
102
RTVSPropertyOp19
 70
     1
102
RTVSPropertyOp20
 70
     1
102
RTVSPropertyOp21
 70
     1
102
RTVSPropertyOp22
 70
     1
102
RTVSPropertyOp23
 70
     1
102
RTVSPropertyOp24
 70
     1
102
RTVSPropertyOp25
 70
     1
102
RTVSPropertyOp26
 70
     1
102
RTVSPropertyOp27
 70
     1
102
RTVSPropertyOp28
 70
     1
102
RTVSPropertyOp29
 70
     1
102
RTVSPropertyOp30
 70
     1
102
RTVSPropertyOp31
 70
     1
102
RTVSPropertyOp32
 70
     1
102
RTVSPropertyOp33
 70
     1
102
RTVSPropertyOp34
 70
     1
102
RTVSPropertyOp35
 70
     1
102
RTVSPropertyOp36
 70
     1
102
RTVSPropertyOp37
 70
     1
102
RTVSPropertyOp38
 70
     1
102
RTVSPropertyOp39
 70
     1
102
RTVSPropertyOp40
 70
     1
102
RTVSPropertyOp41
 70
     1
102
RTVSPropertyOp42
 70
     1
102
RTVSPropertyOp43
 70
     1
102
RTVSPropertyOp44
 70
     1
102
RTVSPropertyOp45
 70
     1
102
RTVSPropertyOp46
 70
     1
102
RTVSPropertyOp47
 70
     1
102
RTVSPropertyOp48
 70
     1
102
RTVSPropertyOp49
 70
     1
102
RTVSPropertyOp50
 70
     1
102
RTVSPropertyOp51
 70
     0
102
RTVSPropertyOp52
 70
     0
102
RTVSPropertyOp53
 70
     1
102
RTVSPropertyOp54
 70
     1
102
RTVSPropertyOp55
 70
     1
102
RTVSPropertyOp56
 70
     1
102
RTVSPropertyOp57
 70
     1
102
RTVSPropertyOp58
 70
     1
102
RTVSPropertyOp59
 70
     1
102
RTVSPropertyOp60
 70
     1
102
RTVSPropertyOp61
 70
     1
102
RTVSPropertyOp62
 70
     1
  0
XRECORD
  5
9932
102
{ACAD_REACTORS
330
9931
102
}
330
9931
100
AcDbXrecord
280
     1
102
RTVSPost2010Prop28
280
     0
102
RTVSPost2010PropOp28
 70
     1
102
RTVSPost2010Prop29
280
     1
102
RTVSPost2010PropOp29
 70
     1
102
RTVSPost2010Prop30
280
     1
102
RTVSPost2010PropOp30
 70
     1
102
RTVSPost2010Prop31
280
     0
102
RTVSPost2010PropOp31
 70
     1
102
RTVSPost2010Prop32
280
     0
102
RTVSPost2010PropOp32
 70
     1
102
RTVSPost2010Prop33
280
     0
102
RTVSPost2010PropOp33
 70
     1
102
RTVSPost2010Prop34
280
     0
102
RTVSPost2010PropOp34
 70
     1
102
RTVSPost2010Prop35
280
     0
102
RTVSPost2010PropOp35
 70
     1
102
RTVSPost2010Prop36
280
     0
102
RTVSPost2010PropOp36
 70
     1
102
RTVSPost2010Prop37
 90
       50
102
RTVSPost2010PropOp37
 70
     1
102
RTVSPost2010Prop38
140
0.0
102
RTVSPost2010PropOp38
 70
     1
102
RTVSPost2010Prop39
140
1.0
102
RTVSPost2010PropOp39
 70
     1
102
RTVSPost2010Prop40
 90
        0
102
RTVSPost2010PropOp40
 70
     1
102
RTVSPost2010Prop41ColorIndex
 90
       18
102
RTVSPost2010Prop41ColorRGB
 90
        0
102
RTVSPost2010PropOp41
 70
     1
102
RTVSPost2010Prop42
 90
       50
102
RTVSPost2010PropOp42
 70
     1
102
RTVSPost2010Prop43
 90
        3
102
RTVSPost2010PropOp43
 70
     1
102
RTVSPost2010Prop44ColorIndex
 90
        5
102
RTVSPost2010Prop44ColorRGB
 90
      255
102
RTVSPost2010PropOp44
 70
     1
102
RTVSPost2010Prop45
280
     0
102
RTVSPost2010PropOp45
 70
     1
102
RTVSPost2010Prop46
 90
       50
102
RTVSPost2010PropOp46
 70
     1
102
RTVSPost2010Prop47
 90
       50
102
RTVSPost2010PropOp47
 70
     1
102
RTVSPost2010Prop48
 90
       50
102
RTVSPost2010PropOp48
 70
     1
102
RTVSPost2010Prop49
280
     0
102
RTVSPost2010PropOp49
 70
     1
102
RTVSPost2010Prop50
 90
       50
102
RTVSPost2010PropOp50
 70
     1
102
RTVSPost2010Prop51ColorIndex
 90
      256
102
RTVSPost2010Prop51ColorRGB
 90
-16777216
102
RTVSPost2010PropOp51
 70
     0
102
RTVSPost2010Prop52
140
1.0
102
RTVSPost2010PropOp52
 70
     0
102
RTVSPost2010Prop53
 90
        2
102
RTVSPost2010PropOp53
 70
     1
102
RTVSPost2010Prop54
  1
strokes_ogs.tif
102
RTVSPost2010PropOp54
 70
     1
102
RTVSPost2010Prop55
280
     0
102
RTVSPost2010PropOp55
 70
     1
102
RTVSPost2010Prop56
140
1.0
102
RTVSPost2010PropOp56
 70
     1
102
RTVSPost2010Prop57
140
1.0
102
RTVSPost2010PropOp57
 70
     1
102
RTVSPropertyOp0
 70
     1
102
RTVSPropertyOp1
 70
     1
102
RTVSPropertyOp2
 70
     1
102
RTVSPropertyOp3
 70
     1
102
RTVSPropertyOp4
 70
     1
102
RTVSPropertyOp5
 70
     1
102
RTVSPropertyOp6
 70
     1
102
RTVSPropertyOp7
 70
     1
102
RTVSPropertyOp8
 70
     1
102
RTVSPropertyOp9
 70
     1
102
RTVSPropertyOp10
 70
     1
102
RTVSPropertyOp11
 70
     1
102
RTVSPropertyOp12
 70
     1
102
RTVSPropertyOp13
 70
     1
102
RTVSPropertyOp14
 70
     1
102
RTVSPropertyOp15
 70
     1
102
RTVSPropertyOp16
 70
     1
102
RTVSPropertyOp17
 70
     1
102
RTVSPropertyOp18
 70
     1
102
RTVSPropertyOp19
 70
     1
102
RTVSPropertyOp20
 70
     1
102
RTVSPropertyOp21
 70
     1
102
RTVSPropertyOp22
 70
     1
102
RTVSPropertyOp23
 70
     1
102
RTVSPropertyOp24
 70
     1
102
RTVSPropertyOp25
 70
     1
102
RTVSPropertyOp26
 70
     1
102
RTVSPropertyOp27
 70
     1
102
RTVSPropertyOp28
 70
     1
102
RTVSPropertyOp29
 70
     1
102
RTVSPropertyOp30
 70
     1
102
RTVSPropertyOp31
 70
     1
102
RTVSPropertyOp32
 70
     1
102
RTVSPropertyOp33
 70
     1
102
RTVSPropertyOp34
 70
     1
102
RTVSPropertyOp35
 70
     1
102
RTVSPropertyOp36
 70
     1
102
RTVSPropertyOp37
 70
     1
102
RTVSPropertyOp38
 70
     1
102
RTVSPropertyOp39
 70
     1
102
RTVSPropertyOp40
 70
     1
102
RTVSPropertyOp41
 70
     1
102
RTVSPropertyOp42
 70
     1
102
RTVSPropertyOp43
 70
     1
102
RTVSPropertyOp44
 70
     1
102
RTVSPropertyOp45
 70
     1
102
RTVSPropertyOp46
 70
     1
102
RTVSPropertyOp47
 70
     1
102
RTVSPropertyOp48
 70
     1
102
RTVSPropertyOp49
 70
     1
102
RTVSPropertyOp50
 70
     1
102
RTVSPropertyOp51
 70
     0
102
RTVSPropertyOp52
 70
     0
102
RTVSPropertyOp53
 70
     1
102
RTVSPropertyOp54
 70
     1
102
RTVSPropertyOp55
 70
     1
102
RTVSPropertyOp56
 70
     1
102
RTVSPropertyOp57
 70
     1
102
RTVSPropertyOp58
 70
     1
102
RTVSPropertyOp59
 70
     1
102
RTVSPropertyOp60
 70
     1
102
RTVSPropertyOp61
 70
     1
102
RTVSPropertyOp62
 70
     1
  0
XRECORD
  5
9934
102
{ACAD_REACTORS
330
9933
102
}
330
9933
100
AcDbXrecord
280
     1
102
RTVSPost2010Prop28
280
     0
102
RTVSPost2010PropOp28
 70
     1
102
RTVSPost2010Prop29
280
     1
102
RTVSPost2010PropOp29
 70
     1
102
RTVSPost2010Prop30
280
     1
102
RTVSPost2010PropOp30
 70
     1
102
RTVSPost2010Prop31
280
     0
102
RTVSPost2010PropOp31
 70
     1
102
RTVSPost2010Prop32
280
     0
102
RTVSPost2010PropOp32
 70
     1
102
RTVSPost2010Prop33
280
     0
102
RTVSPost2010PropOp33
 70
     1
102
RTVSPost2010Prop34
280
     0
102
RTVSPost2010PropOp34
 70
     1
102
RTVSPost2010Prop35
280
     0
102
RTVSPost2010PropOp35
 70
     1
102
RTVSPost2010Prop36
280
     0
102
RTVSPost2010PropOp36
 70
     1
102
RTVSPost2010Prop37
 90
       50
102
RTVSPost2010PropOp37
 70
     1
102
RTVSPost2010Prop38
140
0.0
102
RTVSPost2010PropOp38
 70
     1
102
RTVSPost2010Prop39
140
1.0
102
RTVSPost2010PropOp39
 70
     1
102
RTVSPost2010Prop40
 90
        0
102
RTVSPost2010PropOp40
 70
     1
102
RTVSPost2010Prop41ColorIndex
 90
       18
102
RTVSPost2010Prop41ColorRGB
 90
        0
102
RTVSPost2010PropOp41
 70
     1
102
RTVSPost2010Prop42
 90
       50
102
RTVSPost2010PropOp42
 70
     1
102
RTVSPost2010Prop43
 90
        3
102
RTVSPost2010PropOp43
 70
     1
102
RTVSPost2010Prop44ColorIndex
 90
        5
102
RTVSPost2010Prop44ColorRGB
 90
      255
102
RTVSPost2010PropOp44
 70
     1
102
RTVSPost2010Prop45
280
     0
102
RTVSPost2010PropOp45
 70
     1
102
RTVSPost2010Prop46
 90
       50
102
RTVSPost2010PropOp46
 70
     1
102
RTVSPost2010Prop47
 90
       50
102
RTVSPost2010PropOp47
 70
     1
102
RTVSPost2010Prop48
 90
       50
102
RTVSPost2010PropOp48
 70
     1
102
RTVSPost2010Prop49
280
     0
102
RTVSPost2010PropOp49
 70
     1
102
RTVSPost2010Prop50
 90
       50
102
RTVSPost2010PropOp50
 70
     1
102
RTVSPost2010Prop51ColorIndex
 90
      256
102
RTVSPost2010Prop51ColorRGB
 90
-16777216
102
RTVSPost2010PropOp51
 70
     0
102
RTVSPost2010Prop52
140
1.0
102
RTVSPost2010PropOp52
 70
     0
102
RTVSPost2010Prop53
 90
        2
102
RTVSPost2010PropOp53
 70
     1
102
RTVSPost2010Prop54
  1
strokes_ogs.tif
102
RTVSPost2010PropOp54
 70
     1
102
RTVSPost2010Prop55
280
     0
102
RTVSPost2010PropOp55
 70
     1
102
RTVSPost2010Prop56
140
1.0
102
RTVSPost2010PropOp56
 70
     1
102
RTVSPost2010Prop57
140
1.0
102
RTVSPost2010PropOp57
 70
     1
102
RTVSPropertyOp0
 70
     1
102
RTVSPropertyOp1
 70
     1
102
RTVSPropertyOp2
 70
     1
102
RTVSPropertyOp3
 70
     1
102
RTVSPropertyOp4
 70
     1
102
RTVSPropertyOp5
 70
     1
102
RTVSPropertyOp6
 70
     1
102
RTVSPropertyOp7
 70
     1
102
RTVSPropertyOp8
 70
     1
102
RTVSPropertyOp9
 70
     1
102
RTVSPropertyOp10
 70
     1
102
RTVSPropertyOp11
 70
     1
102
RTVSPropertyOp12
 70
     1
102
RTVSPropertyOp13
 70
     1
102
RTVSPropertyOp14
 70
     1
102
RTVSPropertyOp15
 70
     1
102
RTVSPropertyOp16
 70
     1
102
RTVSPropertyOp17
 70
     1
102
RTVSPropertyOp18
 70
     1
102
RTVSPropertyOp19
 70
     1
102
RTVSPropertyOp20
 70
     1
102
RTVSPropertyOp21
 70
     1
102
RTVSPropertyOp22
 70
     1
102
RTVSPropertyOp23
 70
     1
102
RTVSPropertyOp24
 70
     1
102
RTVSPropertyOp25
 70
     1
102
RTVSPropertyOp26
 70
     1
102
RTVSPropertyOp27
 70
     1
102
RTVSPropertyOp28
 70
     1
102
RTVSPropertyOp29
 70
     1
102
RTVSPropertyOp30
 70
     1
102
RTVSPropertyOp31
 70
     1
102
RTVSPropertyOp32
 70
     1
102
RTVSPropertyOp33
 70
     1
102
RTVSPropertyOp34
 70
     1
102
RTVSPropertyOp35
 70
     1
102
RTVSPropertyOp36
 70
     1
102
RTVSPropertyOp37
 70
     1
102
RTVSPropertyOp38
 70
     1
102
RTVSPropertyOp39
 70
     1
102
RTVSPropertyOp40
 70
     1
102
RTVSPropertyOp41
 70
     1
102
RTVSPropertyOp42
 70
     1
102
RTVSPropertyOp43
 70
     1
102
RTVSPropertyOp44
 70
     1
102
RTVSPropertyOp45
 70
     1
102
RTVSPropertyOp46
 70
     1
102
RTVSPropertyOp47
 70
     1
102
RTVSPropertyOp48
 70
     1
102
RTVSPropertyOp49
 70
     1
102
RTVSPropertyOp50
 70
     1
102
RTVSPropertyOp51
 70
     0
102
RTVSPropertyOp52
 70
     0
102
RTVSPropertyOp53
 70
     1
102
RTVSPropertyOp54
 70
     1
102
RTVSPropertyOp55
 70
     1
102
RTVSPropertyOp56
 70
     1
102
RTVSPropertyOp57
 70
     1
102
RTVSPropertyOp58
 70
     1
102
RTVSPropertyOp59
 70
     1
102
RTVSPropertyOp60
 70
     1
102
RTVSPropertyOp61
 70
     1
102
RTVSPropertyOp62
 70
     1
  0
XRECORD
  5
993C
102
{ACAD_REACTORS
330
993B
102
}
330
993B
100
AcDbXrecord
280
     1
102
RTVSPost2010Prop28
280
     0
102
RTVSPost2010PropOp28
 70
     1
102
RTVSPost2010Prop29
280
     1
102
RTVSPost2010PropOp29
 70
     1
102
RTVSPost2010Prop30
280
     1
102
RTVSPost2010PropOp30
 70
     1
102
RTVSPost2010Prop31
280
     0
102
RTVSPost2010PropOp31
 70
     1
102
RTVSPost2010Prop32
280
     0
102
RTVSPost2010PropOp32
 70
     1
102
RTVSPost2010Prop33
280
     0
102
RTVSPost2010PropOp33
 70
     1
102
RTVSPost2010Prop34
280
     0
102
RTVSPost2010PropOp34
 70
     1
102
RTVSPost2010Prop35
280
     0
102
RTVSPost2010PropOp35
 70
     1
102
RTVSPost2010Prop36
280
     0
102
RTVSPost2010PropOp36
 70
     1
102
RTVSPost2010Prop37
 90
       50
102
RTVSPost2010PropOp37
 70
     1
102
RTVSPost2010Prop38
140
0.0
102
RTVSPost2010PropOp38
 70
     1
102
RTVSPost2010Prop39
140
1.0
102
RTVSPost2010PropOp39
 70
     1
102
RTVSPost2010Prop40
 90
        0
102
RTVSPost2010PropOp40
 70
     1
102
RTVSPost2010Prop41ColorIndex
 90
       18
102
RTVSPost2010Prop41ColorRGB
 90
        0
102
RTVSPost2010PropOp41
 70
     1
102
RTVSPost2010Prop42
 90
       50
102
RTVSPost2010PropOp42
 70
     1
102
RTVSPost2010Prop43
 90
        3
102
RTVSPost2010PropOp43
 70
     1
102
RTVSPost2010Prop44ColorIndex
 90
        5
102
RTVSPost2010Prop44ColorRGB
 90
      255
102
RTVSPost2010PropOp44
 70
     1
102
RTVSPost2010Prop45
280
     0
102
RTVSPost2010PropOp45
 70
     1
102
RTVSPost2010Prop46
 90
       50
102
RTVSPost2010PropOp46
 70
     1
102
RTVSPost2010Prop47
 90
       50
102
RTVSPost2010PropOp47
 70
     1
102
RTVSPost2010Prop48
 90
       50
102
RTVSPost2010PropOp48
 70
     1
102
RTVSPost2010Prop49
280
     0
102
RTVSPost2010PropOp49
 70
     1
102
RTVSPost2010Prop50
 90
       50
102
RTVSPost2010PropOp50
 70
     1
102
RTVSPost2010Prop51ColorIndex
 90
      256
102
RTVSPost2010Prop51ColorRGB
 90
-16777216
102
RTVSPost2010PropOp51
 70
     0
102
RTVSPost2010Prop52
140
1.0
102
RTVSPost2010PropOp52
 70
     0
102
RTVSPost2010Prop53
 90
        2
102
RTVSPost2010PropOp53
 70
     1
102
RTVSPost2010Prop54
  1
strokes_ogs.tif
102
RTVSPost2010PropOp54
 70
     1
102
RTVSPost2010Prop55
280
     0
102
RTVSPost2010PropOp55
 70
     1
102
RTVSPost2010Prop56
140
1.0
102
RTVSPost2010PropOp56
 70
     1
102
RTVSPost2010Prop57
140
1.0
102
RTVSPost2010PropOp57
 70
     1
102
RTVSPropertyOp0
 70
     1
102
RTVSPropertyOp1
 70
     1
102
RTVSPropertyOp2
 70
     1
102
RTVSPropertyOp3
 70
     1
102
RTVSPropertyOp4
 70
     1
102
RTVSPropertyOp5
 70
     1
102
RTVSPropertyOp6
 70
     1
102
RTVSPropertyOp7
 70
     1
102
RTVSPropertyOp8
 70
     1
102
RTVSPropertyOp9
 70
     1
102
RTVSPropertyOp10
 70
     1
102
RTVSPropertyOp11
 70
     1
102
RTVSPropertyOp12
 70
     1
102
RTVSPropertyOp13
 70
     1
102
RTVSPropertyOp14
 70
     1
102
RTVSPropertyOp15
 70
     1
102
RTVSPropertyOp16
 70
     1
102
RTVSPropertyOp17
 70
     1
102
RTVSPropertyOp18
 70
     1
102
RTVSPropertyOp19
 70
     1
102
RTVSPropertyOp20
 70
     1
102
RTVSPropertyOp21
 70
     1
102
RTVSPropertyOp22
 70
     1
102
RTVSPropertyOp23
 70
     1
102
RTVSPropertyOp24
 70
     1
102
RTVSPropertyOp25
 70
     1
102
RTVSPropertyOp26
 70
     1
102
RTVSPropertyOp27
 70
     1
102
RTVSPropertyOp28
 70
     1
102
RTVSPropertyOp29
 70
     1
102
RTVSPropertyOp30
 70
     1
102
RTVSPropertyOp31
 70
     1
102
RTVSPropertyOp32
 70
     1
102
RTVSPropertyOp33
 70
     1
102
RTVSPropertyOp34
 70
     1
102
RTVSPropertyOp35
 70
     1
102
RTVSPropertyOp36
 70
     1
102
RTVSPropertyOp37
 70
     1
102
RTVSPropertyOp38
 70
     1
102
RTVSPropertyOp39
 70
     1
102
RTVSPropertyOp40
 70
     1
102
RTVSPropertyOp41
 70
     1
102
RTVSPropertyOp42
 70
     1
102
RTVSPropertyOp43
 70
     1
102
RTVSPropertyOp44
 70
     1
102
RTVSPropertyOp45
 70
     1
102
RTVSPropertyOp46
 70
     1
102
RTVSPropertyOp47
 70
     1
102
RTVSPropertyOp48
 70
     1
102
RTVSPropertyOp49
 70
     1
102
RTVSPropertyOp50
 70
     1
102
RTVSPropertyOp51
 70
     0
102
RTVSPropertyOp52
 70
     0
102
RTVSPropertyOp53
 70
     1
102
RTVSPropertyOp54
 70
     1
102
RTVSPropertyOp55
 70
     1
102
RTVSPropertyOp56
 70
     1
102
RTVSPropertyOp57
 70
     1
102
RTVSPropertyOp58
 70
     1
102
RTVSPropertyOp59
 70
     1
102
RTVSPropertyOp60
 70
     1
102
RTVSPropertyOp61
 70
     1
102
RTVSPropertyOp62
 70
     1
  0
XRECORD
  5
9958
102
{ACAD_REACTORS
330
9957
102
}
330
9957
100
AcDbXrecord
280
     1
102
RTVSPost2010Prop28
280
     0
102
RTVSPost2010PropOp28
 70
     1
102
RTVSPost2010Prop29
280
     1
102
RTVSPost2010PropOp29
 70
     1
102
RTVSPost2010Prop30
280
     1
102
RTVSPost2010PropOp30
 70
     1
102
RTVSPost2010Prop31
280
     0
102
RTVSPost2010PropOp31
 70
     1
102
RTVSPost2010Prop32
280
     0
102
RTVSPost2010PropOp32
 70
     1
102
RTVSPost2010Prop33
280
     0
102
RTVSPost2010PropOp33
 70
     1
102
RTVSPost2010Prop34
280
     0
102
RTVSPost2010PropOp34
 70
     1
102
RTVSPost2010Prop35
280
     0
102
RTVSPost2010PropOp35
 70
     1
102
RTVSPost2010Prop36
280
     0
102
RTVSPost2010PropOp36
 70
     1
102
RTVSPost2010Prop37
 90
       50
102
RTVSPost2010PropOp37
 70
     0
102
RTVSPost2010Prop38
140
0.0
102
RTVSPost2010PropOp38
 70
     0
102
RTVSPost2010Prop39
140
1.0
102
RTVSPost2010PropOp39
 70
     0
102
RTVSPost2010Prop40
 90
        0
102
RTVSPost2010PropOp40
 70
     0
102
RTVSPost2010Prop41ColorIndex
 90
       18
102
RTVSPost2010Prop41ColorRGB
 90
        0
102
RTVSPost2010PropOp41
 70
     0
102
RTVSPost2010Prop42
 90
       50
102
RTVSPost2010PropOp42
 70
     0
102
RTVSPost2010Prop43
 90
        3
102
RTVSPost2010PropOp43
 70
     0
102
RTVSPost2010Prop44ColorIndex
 90
        5
102
RTVSPost2010Prop44ColorRGB
 90
      255
102
RTVSPost2010PropOp44
 70
     0
102
RTVSPost2010Prop45
280
     0
102
RTVSPost2010PropOp45
 70
     1
102
RTVSPost2010Prop46
 90
       50
102
RTVSPost2010PropOp46
 70
     0
102
RTVSPost2010Prop47
 90
       50
102
RTVSPost2010PropOp47
 70
     0
102
RTVSPost2010Prop48
 90
       50
102
RTVSPost2010PropOp48
 70
     0
102
RTVSPost2010Prop49
280
     0
102
RTVSPost2010PropOp49
 70
     1
102
RTVSPost2010Prop50
 90
       50
102
RTVSPost2010PropOp50
 70
     0
102
RTVSPost2010Prop51ColorIndex
 90
      256
102
RTVSPost2010Prop51ColorRGB
 90
-16777216
102
RTVSPost2010PropOp51
 70
     0
102
RTVSPost2010Prop52
140
1.0
102
RTVSPost2010PropOp52
 70
     0
102
RTVSPost2010Prop53
 90
        2
102
RTVSPost2010PropOp53
 70
     0
102
RTVSPost2010Prop54
  1
strokes_ogs.tif
102
RTVSPost2010PropOp54
 70
     0
102
RTVSPost2010Prop55
280
     0
102
RTVSPost2010PropOp55
 70
     1
102
RTVSPost2010Prop56
140
1.0
102
RTVSPost2010PropOp56
 70
     0
102
RTVSPost2010Prop57
140
1.0
102
RTVSPost2010PropOp57
 70
     0
102
RTVSPropertyOp0
 70
     0
102
RTVSPropertyOp1
 70
     0
102
RTVSPropertyOp2
 70
     0
102
RTVSPropertyOp3
 70
     0
102
RTVSPropertyOp4
 70
     0
102
RTVSPropertyOp5
 70
     0
102
RTVSPropertyOp6
 70
     0
102
RTVSPropertyOp7
 70
     0
102
RTVSPropertyOp8
 70
     0
102
RTVSPropertyOp9
 70
     0
102
RTVSPropertyOp10
 70
     0
102
RTVSPropertyOp11
 70
     0
102
RTVSPropertyOp12
 70
     0
102
RTVSPropertyOp13
 70
     0
102
RTVSPropertyOp14
 70
     2
102
RTVSPropertyOp15
 70
     0
102
RTVSPropertyOp16
 70
     0
102
RTVSPropertyOp17
 70
     0
102
RTVSPropertyOp18
 70
     0
102
RTVSPropertyOp19
 70
     0
102
RTVSPropertyOp20
 70
     0
102
RTVSPropertyOp21
 70
     0
102
RTVSPropertyOp22
 70
     0
102
RTVSPropertyOp23
 70
     0
102
RTVSPropertyOp24
 70
     0
102
RTVSPropertyOp25
 70
     0
102
RTVSPropertyOp26
 70
     0
102
RTVSPropertyOp27
 70
     0
102
RTVSPropertyOp28
 70
     1
102
RTVSPropertyOp29
 70
     1
102
RTVSPropertyOp30
 70
     1
102
RTVSPropertyOp31
 70
     1
102
RTVSPropertyOp32
 70
     1
102
RTVSPropertyOp33
 70
     1
102
RTVSPropertyOp34
 70
     1
102
RTVSPropertyOp35
 70
     1
102
RTVSPropertyOp36
 70
     1
102
RTVSPropertyOp37
 70
     0
102
RTVSPropertyOp38
 70
     0
102
RTVSPropertyOp39
 70
     0
102
RTVSPropertyOp40
 70
     0
102
RTVSPropertyOp41
 70
     0
102
RTVSPropertyOp42
 70
     0
102
RTVSPropertyOp43
 70
     0
102
RTVSPropertyOp44
 70
     0
102
RTVSPropertyOp45
 70
     1
102
RTVSPropertyOp46
 70
     0
102
RTVSPropertyOp47
 70
     0
102
RTVSPropertyOp48
 70
     0
102
RTVSPropertyOp49
 70
     1
102
RTVSPropertyOp50
 70
     0
102
RTVSPropertyOp51
 70
     0
102
RTVSPropertyOp52
 70
     0
102
RTVSPropertyOp53
 70
     0
102
RTVSPropertyOp54
 70
     0
102
RTVSPropertyOp55
 70
     1
102
RTVSPropertyOp56
 70
     0
102
RTVSPropertyOp57
 70
     0
102
RTVSPropertyOp58
 70
     0
102
RTVSPropertyOp59
 70
     0
102
RTVSPropertyOp60
 70
     0
102
RTVSPropertyOp61
 70
     0
102
RTVSPropertyOp62
 70
     0
  0
XRECORD
  5
9948
102
{ACAD_REACTORS
330
9947
102
}
330
9947
100
AcDbXrecord
280
     1
102
RTVSPost2010Prop28
280
     0
102
RTVSPost2010PropOp28
 70
     1
102
RTVSPost2010Prop29
280
     1
102
RTVSPost2010PropOp29
 70
     1
102
RTVSPost2010Prop30
280
     1
102
RTVSPost2010PropOp30
 70
     1
102
RTVSPost2010Prop31
280
     0
102
RTVSPost2010PropOp31
 70
     1
102
RTVSPost2010Prop32
280
     0
102
RTVSPost2010PropOp32
 70
     1
102
RTVSPost2010Prop33
280
     0
102
RTVSPost2010PropOp33
 70
     1
102
RTVSPost2010Prop34
280
     0
102
RTVSPost2010PropOp34
 70
     1
102
RTVSPost2010Prop35
280
     0
102
RTVSPost2010PropOp35
 70
     1
102
RTVSPost2010Prop36
280
     0
102
RTVSPost2010PropOp36
 70
     1
102
RTVSPost2010Prop37
 90
       50
102
RTVSPost2010PropOp37
 70
     1
102
RTVSPost2010Prop38
140
0.0
102
RTVSPost2010PropOp38
 70
     1
102
RTVSPost2010Prop39
140
1.0
102
RTVSPost2010PropOp39
 70
     1
102
RTVSPost2010Prop40
 90
        0
102
RTVSPost2010PropOp40
 70
     1
102
RTVSPost2010Prop41ColorIndex
 90
       18
102
RTVSPost2010Prop41ColorRGB
 90
        0
102
RTVSPost2010PropOp41
 70
     1
102
RTVSPost2010Prop42
 90
       50
102
RTVSPost2010PropOp42
 70
     1
102
RTVSPost2010Prop43
 90
        3
102
RTVSPost2010PropOp43
 70
     1
102
RTVSPost2010Prop44ColorIndex
 90
        5
102
RTVSPost2010Prop44ColorRGB
 90
      255
102
RTVSPost2010PropOp44
 70
     1
102
RTVSPost2010Prop45
280
     0
102
RTVSPost2010PropOp45
 70
     1
102
RTVSPost2010Prop46
 90
       50
102
RTVSPost2010PropOp46
 70
     1
102
RTVSPost2010Prop47
 90
       50
102
RTVSPost2010PropOp47
 70
     1
102
RTVSPost2010Prop48
 90
       50
102
RTVSPost2010PropOp48
 70
     1
102
RTVSPost2010Prop49
280
     0
102
RTVSPost2010PropOp49
 70
     1
102
RTVSPost2010Prop50
 90
       50
102
RTVSPost2010PropOp50
 70
     1
102
RTVSPost2010Prop51ColorIndex
 90
      256
102
RTVSPost2010Prop51ColorRGB
 90
-16777216
102
RTVSPost2010PropOp51
 70
     0
102
RTVSPost2010Prop52
140
1.0
102
RTVSPost2010PropOp52
 70
     0
102
RTVSPost2010Prop53
 90
        2
102
RTVSPost2010PropOp53
 70
     1
102
RTVSPost2010Prop54
  1
strokes_ogs.tif
102
RTVSPost2010PropOp54
 70
     1
102
RTVSPost2010Prop55
280
     0
102
RTVSPost2010PropOp55
 70
     1
102
RTVSPost2010Prop56
140
1.0
102
RTVSPost2010PropOp56
 70
     1
102
RTVSPost2010Prop57
140
1.0
102
RTVSPost2010PropOp57
 70
     1
102
RTVSPropertyOp0
 70
     1
102
RTVSPropertyOp1
 70
     1
102
RTVSPropertyOp2
 70
     1
102
RTVSPropertyOp3
 70
     1
102
RTVSPropertyOp4
 70
     1
102
RTVSPropertyOp5
 70
     1
102
RTVSPropertyOp6
 70
     1
102
RTVSPropertyOp7
 70
     1
102
RTVSPropertyOp8
 70
     1
102
RTVSPropertyOp9
 70
     1
102
RTVSPropertyOp10
 70
     1
102
RTVSPropertyOp11
 70
     1
102
RTVSPropertyOp12
 70
     1
102
RTVSPropertyOp13
 70
     1
102
RTVSPropertyOp14
 70
     1
102
RTVSPropertyOp15
 70
     1
102
RTVSPropertyOp16
 70
     1
102
RTVSPropertyOp17
 70
     1
102
RTVSPropertyOp18
 70
     1
102
RTVSPropertyOp19
 70
     1
102
RTVSPropertyOp20
 70
     1
102
RTVSPropertyOp21
 70
     1
102
RTVSPropertyOp22
 70
     1
102
RTVSPropertyOp23
 70
     1
102
RTVSPropertyOp24
 70
     1
102
RTVSPropertyOp25
 70
     1
102
RTVSPropertyOp26
 70
     1
102
RTVSPropertyOp27
 70
     1
102
RTVSPropertyOp28
 70
     1
102
RTVSPropertyOp29
 70
     1
102
RTVSPropertyOp30
 70
     1
102
RTVSPropertyOp31
 70
     1
102
RTVSPropertyOp32
 70
     1
102
RTVSPropertyOp33
 70
     1
102
RTVSPropertyOp34
 70
     1
102
RTVSPropertyOp35
 70
     1
102
RTVSPropertyOp36
 70
     1
102
RTVSPropertyOp37
 70
     1
102
RTVSPropertyOp38
 70
     1
102
RTVSPropertyOp39
 70
     1
102
RTVSPropertyOp40
 70
     1
102
RTVSPropertyOp41
 70
     1
102
RTVSPropertyOp42
 70
     1
102
RTVSPropertyOp43
 70
     1
102
RTVSPropertyOp44
 70
     1
102
RTVSPropertyOp45
 70
     1
102
RTVSPropertyOp46
 70
     1
102
RTVSPropertyOp47
 70
     1
102
RTVSPropertyOp48
 70
     1
102
RTVSPropertyOp49
 70
     1
102
RTVSPropertyOp50
 70
     1
102
RTVSPropertyOp51
 70
     0
102
RTVSPropertyOp52
 70
     0
102
RTVSPropertyOp53
 70
     1
102
RTVSPropertyOp54
 70
     1
102
RTVSPropertyOp55
 70
     1
102
RTVSPropertyOp56
 70
     1
102
RTVSPropertyOp57
 70
     1
102
RTVSPropertyOp58
 70
     1
102
RTVSPropertyOp59
 70
     1
102
RTVSPropertyOp60
 70
     1
102
RTVSPropertyOp61
 70
     1
102
RTVSPropertyOp62
 70
     1
  0
XRECORD
  5
995A
102
{ACAD_REACTORS
330
9959
102
}
330
9959
100
AcDbXrecord
280
     1
102
RTVSPost2010Prop28
280
     0
102
RTVSPost2010PropOp28
 70
     1
102
RTVSPost2010Prop29
280
     1
102
RTVSPost2010PropOp29
 70
     1
102
RTVSPost2010Prop30
280
     1
102
RTVSPost2010PropOp30
 70
     1
102
RTVSPost2010Prop31
280
     0
102
RTVSPost2010PropOp31
 70
     1
102
RTVSPost2010Prop32
280
     0
102
RTVSPost2010PropOp32
 70
     1
102
RTVSPost2010Prop33
280
     0
102
RTVSPost2010PropOp33
 70
     1
102
RTVSPost2010Prop34
280
     0
102
RTVSPost2010PropOp34
 70
     1
102
RTVSPost2010Prop35
280
     0
102
RTVSPost2010PropOp35
 70
     1
102
RTVSPost2010Prop36
280
     0
102
RTVSPost2010PropOp36
 70
     1
102
RTVSPost2010Prop37
 90
       50
102
RTVSPost2010PropOp37
 70
     0
102
RTVSPost2010Prop38
140
0.0
102
RTVSPost2010PropOp38
 70
     0
102
RTVSPost2010Prop39
140
1.0
102
RTVSPost2010PropOp39
 70
     0
102
RTVSPost2010Prop40
 90
        0
102
RTVSPost2010PropOp40
 70
     0
102
RTVSPost2010Prop41ColorIndex
 90
       18
102
RTVSPost2010Prop41ColorRGB
 90
        0
102
RTVSPost2010PropOp41
 70
     0
102
RTVSPost2010Prop42
 90
       50
102
RTVSPost2010PropOp42
 70
     0
102
RTVSPost2010Prop43
 90
        3
102
RTVSPost2010PropOp43
 70
     0
102
RTVSPost2010Prop44ColorIndex
 90
        5
102
RTVSPost2010Prop44ColorRGB
 90
      255
102
RTVSPost2010PropOp44
 70
     0
102
RTVSPost2010Prop45
280
     0
102
RTVSPost2010PropOp45
 70
     1
102
RTVSPost2010Prop46
 90
       50
102
RTVSPost2010PropOp46
 70
     0
102
RTVSPost2010Prop47
 90
       50
102
RTVSPost2010PropOp47
 70
     0
102
RTVSPost2010Prop48
 90
       50
102
RTVSPost2010PropOp48
 70
     0
102
RTVSPost2010Prop49
280
     0
102
RTVSPost2010PropOp49
 70
     1
102
RTVSPost2010Prop50
 90
       50
102
RTVSPost2010PropOp50
 70
     0
102
RTVSPost2010Prop51ColorIndex
 90
      256
102
RTVSPost2010Prop51ColorRGB
 90
-16777216
102
RTVSPost2010PropOp51
 70
     0
102
RTVSPost2010Prop52
140
1.0
102
RTVSPost2010PropOp52
 70
     0
102
RTVSPost2010Prop53
 90
        2
102
RTVSPost2010PropOp53
 70
     0
102
RTVSPost2010Prop54
  1
strokes_ogs.tif
102
RTVSPost2010PropOp54
 70
     0
102
RTVSPost2010Prop55
280
     0
102
RTVSPost2010PropOp55
 70
     1
102
RTVSPost2010Prop56
140
1.0
102
RTVSPost2010PropOp56
 70
     0
102
RTVSPost2010Prop57
140
1.0
102
RTVSPost2010PropOp57
 70
     0
102
RTVSPropertyOp0
 70
     0
102
RTVSPropertyOp1
 70
     0
102
RTVSPropertyOp2
 70
     0
102
RTVSPropertyOp3
 70
     0
102
RTVSPropertyOp4
 70
     0
102
RTVSPropertyOp5
 70
     0
102
RTVSPropertyOp6
 70
     0
102
RTVSPropertyOp7
 70
     0
102
RTVSPropertyOp8
 70
     0
102
RTVSPropertyOp9
 70
     0
102
RTVSPropertyOp10
 70
     0
102
RTVSPropertyOp11
 70
     0
102
RTVSPropertyOp12
 70
     0
102
RTVSPropertyOp13
 70
     0
102
RTVSPropertyOp14
 70
     2
102
RTVSPropertyOp15
 70
     0
102
RTVSPropertyOp16
 70
     0
102
RTVSPropertyOp17
 70
     0
102
RTVSPropertyOp18
 70
     0
102
RTVSPropertyOp19
 70
     0
102
RTVSPropertyOp20
 70
     0
102
RTVSPropertyOp21
 70
     0
102
RTVSPropertyOp22
 70
     0
102
RTVSPropertyOp23
 70
     0
102
RTVSPropertyOp24
 70
     0
102
RTVSPropertyOp25
 70
     0
102
RTVSPropertyOp26
 70
     0
102
RTVSPropertyOp27
 70
     0
102
RTVSPropertyOp28
 70
     1
102
RTVSPropertyOp29
 70
     1
102
RTVSPropertyOp30
 70
     1
102
RTVSPropertyOp31
 70
     1
102
RTVSPropertyOp32
 70
     1
102
RTVSPropertyOp33
 70
     1
102
RTVSPropertyOp34
 70
     1
102
RTVSPropertyOp35
 70
     1
102
RTVSPropertyOp36
 70
     1
102
RTVSPropertyOp37
 70
     0
102
RTVSPropertyOp38
 70
     0
102
RTVSPropertyOp39
 70
     0
102
RTVSPropertyOp40
 70
     0
102
RTVSPropertyOp41
 70
     0
102
RTVSPropertyOp42
 70
     0
102
RTVSPropertyOp43
 70
     0
102
RTVSPropertyOp44
 70
     0
102
RTVSPropertyOp45
 70
     1
102
RTVSPropertyOp46
 70
     0
102
RTVSPropertyOp47
 70
     0
102
RTVSPropertyOp48
 70
     0
102
RTVSPropertyOp49
 70
     1
102
RTVSPropertyOp50
 70
     0
102
RTVSPropertyOp51
 70
     0
102
RTVSPropertyOp52
 70
     0
102
RTVSPropertyOp53
 70
     0
102
RTVSPropertyOp54
 70
     0
102
RTVSPropertyOp55
 70
     1
102
RTVSPropertyOp56
 70
     0
102
RTVSPropertyOp57
 70
     0
102
RTVSPropertyOp58
 70
     0
102
RTVSPropertyOp59
 70
     0
102
RTVSPropertyOp60
 70
     0
102
RTVSPropertyOp61
 70
     0
102
RTVSPropertyOp62
 70
     0
  0
XRECORD
  5
9940
102
{ACAD_REACTORS
330
993F
102
}
330
993F
100
AcDbXrecord
280
     1
102
RTVSPost2010Prop28
280
     0
102
RTVSPost2010PropOp28
 70
     1
102
RTVSPost2010Prop29
280
     1
102
RTVSPost2010PropOp29
 70
     1
102
RTVSPost2010Prop30
280
     1
102
RTVSPost2010PropOp30
 70
     1
102
RTVSPost2010Prop31
280
     0
102
RTVSPost2010PropOp31
 70
     1
102
RTVSPost2010Prop32
280
     0
102
RTVSPost2010PropOp32
 70
     1
102
RTVSPost2010Prop33
280
     0
102
RTVSPost2010PropOp33
 70
     1
102
RTVSPost2010Prop34
280
     0
102
RTVSPost2010PropOp34
 70
     1
102
RTVSPost2010Prop35
280
     0
102
RTVSPost2010PropOp35
 70
     1
102
RTVSPost2010Prop36
280
     0
102
RTVSPost2010PropOp36
 70
     1
102
RTVSPost2010Prop37
 90
       50
102
RTVSPost2010PropOp37
 70
     1
102
RTVSPost2010Prop38
140
0.0
102
RTVSPost2010PropOp38
 70
     1
102
RTVSPost2010Prop39
140
1.0
102
RTVSPost2010PropOp39
 70
     1
102
RTVSPost2010Prop40
 90
        0
102
RTVSPost2010PropOp40
 70
     1
102
RTVSPost2010Prop41ColorIndex
 90
       18
102
RTVSPost2010Prop41ColorRGB
 90
        0
102
RTVSPost2010PropOp41
 70
     1
102
RTVSPost2010Prop42
 90
       50
102
RTVSPost2010PropOp42
 70
     1
102
RTVSPost2010Prop43
 90
        3
102
RTVSPost2010PropOp43
 70
     1
102
RTVSPost2010Prop44ColorIndex
 90
        5
102
RTVSPost2010Prop44ColorRGB
 90
      255
102
RTVSPost2010PropOp44
 70
     1
102
RTVSPost2010Prop45
280
     0
102
RTVSPost2010PropOp45
 70
     1
102
RTVSPost2010Prop46
 90
       50
102
RTVSPost2010PropOp46
 70
     1
102
RTVSPost2010Prop47
 90
       50
102
RTVSPost2010PropOp47
 70
     1
102
RTVSPost2010Prop48
 90
       50
102
RTVSPost2010PropOp48
 70
     1
102
RTVSPost2010Prop49
280
     0
102
RTVSPost2010PropOp49
 70
     1
102
RTVSPost2010Prop50
 90
       50
102
RTVSPost2010PropOp50
 70
     1
102
RTVSPost2010Prop51ColorIndex
 90
      256
102
RTVSPost2010Prop51ColorRGB
 90
-16777216
102
RTVSPost2010PropOp51
 70
     0
102
RTVSPost2010Prop52
140
1.0
102
RTVSPost2010PropOp52
 70
     0
102
RTVSPost2010Prop53
 90
        2
102
RTVSPost2010PropOp53
 70
     1
102
RTVSPost2010Prop54
  1
strokes_ogs.tif
102
RTVSPost2010PropOp54
 70
     1
102
RTVSPost2010Prop55
280
     0
102
RTVSPost2010PropOp55
 70
     1
102
RTVSPost2010Prop56
140
1.0
102
RTVSPost2010PropOp56
 70
     1
102
RTVSPost2010Prop57
140
1.0
102
RTVSPost2010PropOp57
 70
     1
102
RTVSPropertyOp0
 70
     1
102
RTVSPropertyOp1
 70
     1
102
RTVSPropertyOp2
 70
     1
102
RTVSPropertyOp3
 70
     1
102
RTVSPropertyOp4
 70
     1
102
RTVSPropertyOp5
 70
     1
102
RTVSPropertyOp6
 70
     1
102
RTVSPropertyOp7
 70
     1
102
RTVSPropertyOp8
 70
     1
102
RTVSPropertyOp9
 70
     1
102
RTVSPropertyOp10
 70
     1
102
RTVSPropertyOp11
 70
     1
102
RTVSPropertyOp12
 70
     1
102
RTVSPropertyOp13
 70
     1
102
RTVSPropertyOp14
 70
     1
102
RTVSPropertyOp15
 70
     1
102
RTVSPropertyOp16
 70
     1
102
RTVSPropertyOp17
 70
     1
102
RTVSPropertyOp18
 70
     1
102
RTVSPropertyOp19
 70
     1
102
RTVSPropertyOp20
 70
     1
102
RTVSPropertyOp21
 70
     1
102
RTVSPropertyOp22
 70
     1
102
RTVSPropertyOp23
 70
     1
102
RTVSPropertyOp24
 70
     1
102
RTVSPropertyOp25
 70
     1
102
RTVSPropertyOp26
 70
     1
102
RTVSPropertyOp27
 70
     1
102
RTVSPropertyOp28
 70
     1
102
RTVSPropertyOp29
 70
     1
102
RTVSPropertyOp30
 70
     1
102
RTVSPropertyOp31
 70
     1
102
RTVSPropertyOp32
 70
     1
102
RTVSPropertyOp33
 70
     1
102
RTVSPropertyOp34
 70
     1
102
RTVSPropertyOp35
 70
     1
102
RTVSPropertyOp36
 70
     1
102
RTVSPropertyOp37
 70
     1
102
RTVSPropertyOp38
 70
     1
102
RTVSPropertyOp39
 70
     1
102
RTVSPropertyOp40
 70
     1
102
RTVSPropertyOp41
 70
     1
102
RTVSPropertyOp42
 70
     1
102
RTVSPropertyOp43
 70
     1
102
RTVSPropertyOp44
 70
     1
102
RTVSPropertyOp45
 70
     1
102
RTVSPropertyOp46
 70
     1
102
RTVSPropertyOp47
 70
     1
102
RTVSPropertyOp48
 70
     1
102
RTVSPropertyOp49
 70
     1
102
RTVSPropertyOp50
 70
     1
102
RTVSPropertyOp51
 70
     0
102
RTVSPropertyOp52
 70
     0
102
RTVSPropertyOp53
 70
     1
102
RTVSPropertyOp54
 70
     1
102
RTVSPropertyOp55
 70
     1
102
RTVSPropertyOp56
 70
     1
102
RTVSPropertyOp57
 70
     1
102
RTVSPropertyOp58
 70
     1
102
RTVSPropertyOp59
 70
     1
102
RTVSPropertyOp60
 70
     1
102
RTVSPropertyOp61
 70
     1
102
RTVSPropertyOp62
 70
     1
  0
XRECORD
  5
9956
102
{ACAD_REACTORS
330
9955
102
}
330
9955
100
AcDbXrecord
280
     1
102
RTVSPost2010Prop28
280
     0
102
RTVSPost2010PropOp28
 70
     1
102
RTVSPost2010Prop29
280
     1
102
RTVSPost2010PropOp29
 70
     1
102
RTVSPost2010Prop30
280
     1
102
RTVSPost2010PropOp30
 70
     1
102
RTVSPost2010Prop31
280
     0
102
RTVSPost2010PropOp31
 70
     1
102
RTVSPost2010Prop32
280
     0
102
RTVSPost2010PropOp32
 70
     1
102
RTVSPost2010Prop33
280
     0
102
RTVSPost2010PropOp33
 70
     1
102
RTVSPost2010Prop34
280
     0
102
RTVSPost2010PropOp34
 70
     1
102
RTVSPost2010Prop35
280
     0
102
RTVSPost2010PropOp35
 70
     1
102
RTVSPost2010Prop36
280
     0
102
RTVSPost2010PropOp36
 70
     1
102
RTVSPost2010Prop37
 90
       50
102
RTVSPost2010PropOp37
 70
     1
102
RTVSPost2010Prop38
140
0.0
102
RTVSPost2010PropOp38
 70
     1
102
RTVSPost2010Prop39
140
1.0
102
RTVSPost2010PropOp39
 70
     1
102
RTVSPost2010Prop40
 90
        0
102
RTVSPost2010PropOp40
 70
     1
102
RTVSPost2010Prop41ColorIndex
 90
       18
102
RTVSPost2010Prop41ColorRGB
 90
        0
102
RTVSPost2010PropOp41
 70
     1
102
RTVSPost2010Prop42
 90
       50
102
RTVSPost2010PropOp42
 70
     1
102
RTVSPost2010Prop43
 90
        3
102
RTVSPost2010PropOp43
 70
     1
102
RTVSPost2010Prop44ColorIndex
 90
        5
102
RTVSPost2010Prop44ColorRGB
 90
      255
102
RTVSPost2010PropOp44
 70
     1
102
RTVSPost2010Prop45
280
     0
102
RTVSPost2010PropOp45
 70
     1
102
RTVSPost2010Prop46
 90
       50
102
RTVSPost2010PropOp46
 70
     1
102
RTVSPost2010Prop47
 90
       50
102
RTVSPost2010PropOp47
 70
     1
102
RTVSPost2010Prop48
 90
       50
102
RTVSPost2010PropOp48
 70
     1
102
RTVSPost2010Prop49
280
     0
102
RTVSPost2010PropOp49
 70
     1
102
RTVSPost2010Prop50
 90
       50
102
RTVSPost2010PropOp50
 70
     1
102
RTVSPost2010Prop51ColorIndex
 90
      256
102
RTVSPost2010Prop51ColorRGB
 90
-16777216
102
RTVSPost2010PropOp51
 70
     0
102
RTVSPost2010Prop52
140
1.0
102
RTVSPost2010PropOp52
 70
     0
102
RTVSPost2010Prop53
 90
        2
102
RTVSPost2010PropOp53
 70
     1
102
RTVSPost2010Prop54
  1
strokes_ogs.tif
102
RTVSPost2010PropOp54
 70
     1
102
RTVSPost2010Prop55
280
     0
102
RTVSPost2010PropOp55
 70
     1
102
RTVSPost2010Prop56
140
1.0
102
RTVSPost2010PropOp56
 70
     1
102
RTVSPost2010Prop57
140
1.0
102
RTVSPost2010PropOp57
 70
     1
102
RTVSPropertyOp0
 70
     1
102
RTVSPropertyOp1
 70
     1
102
RTVSPropertyOp2
 70
     1
102
RTVSPropertyOp3
 70
     1
102
RTVSPropertyOp4
 70
     1
102
RTVSPropertyOp5
 70
     1
102
RTVSPropertyOp6
 70
     1
102
RTVSPropertyOp7
 70
     1
102
RTVSPropertyOp8
 70
     1
102
RTVSPropertyOp9
 70
     1
102
RTVSPropertyOp10
 70
     1
102
RTVSPropertyOp11
 70
     1
102
RTVSPropertyOp12
 70
     1
102
RTVSPropertyOp13
 70
     1
102
RTVSPropertyOp14
 70
     1
102
RTVSPropertyOp15
 70
     1
102
RTVSPropertyOp16
 70
     1
102
RTVSPropertyOp17
 70
     1
102
RTVSPropertyOp18
 70
     1
102
RTVSPropertyOp19
 70
     1
102
RTVSPropertyOp20
 70
     1
102
RTVSPropertyOp21
 70
     1
102
RTVSPropertyOp22
 70
     1
102
RTVSPropertyOp23
 70
     1
102
RTVSPropertyOp24
 70
     1
102
RTVSPropertyOp25
 70
     1
102
RTVSPropertyOp26
 70
     1
102
RTVSPropertyOp27
 70
     1
102
RTVSPropertyOp28
 70
     1
102
RTVSPropertyOp29
 70
     1
102
RTVSPropertyOp30
 70
     1
102
RTVSPropertyOp31
 70
     1
102
RTVSPropertyOp32
 70
     1
102
RTVSPropertyOp33
 70
     1
102
RTVSPropertyOp34
 70
     1
102
RTVSPropertyOp35
 70
     1
102
RTVSPropertyOp36
 70
     1
102
RTVSPropertyOp37
 70
     1
102
RTVSPropertyOp38
 70
     1
102
RTVSPropertyOp39
 70
     1
102
RTVSPropertyOp40
 70
     1
102
RTVSPropertyOp41
 70
     1
102
RTVSPropertyOp42
 70
     1
102
RTVSPropertyOp43
 70
     1
102
RTVSPropertyOp44
 70
     1
102
RTVSPropertyOp45
 70
     1
102
RTVSPropertyOp46
 70
     1
102
RTVSPropertyOp47
 70
     1
102
RTVSPropertyOp48
 70
     1
102
RTVSPropertyOp49
 70
     1
102
RTVSPropertyOp50
 70
     1
102
RTVSPropertyOp51
 70
     0
102
RTVSPropertyOp52
 70
     0
102
RTVSPropertyOp53
 70
     1
102
RTVSPropertyOp54
 70
     1
102
RTVSPropertyOp55
 70
     1
102
RTVSPropertyOp56
 70
     1
102
RTVSPropertyOp57
 70
     1
102
RTVSPropertyOp58
 70
     1
102
RTVSPropertyOp59
 70
     1
102
RTVSPropertyOp60
 70
     1
102
RTVSPropertyOp61
 70
     1
102
RTVSPropertyOp62
 70
     1
  0
XRECORD
  5
9954
102
{ACAD_REACTORS
330
9953
102
}
330
9953
100
AcDbXrecord
280
     1
102
RTVSPost2010Prop28
280
     0
102
RTVSPost2010PropOp28
 70
     1
102
RTVSPost2010Prop29
280
     1
102
RTVSPost2010PropOp29
 70
     1
102
RTVSPost2010Prop30
280
     1
102
RTVSPost2010PropOp30
 70
     1
102
RTVSPost2010Prop31
280
     0
102
RTVSPost2010PropOp31
 70
     1
102
RTVSPost2010Prop32
280
     0
102
RTVSPost2010PropOp32
 70
     1
102
RTVSPost2010Prop33
280
     0
102
RTVSPost2010PropOp33
 70
     1
102
RTVSPost2010Prop34
280
     0
102
RTVSPost2010PropOp34
 70
     1
102
RTVSPost2010Prop35
280
     0
102
RTVSPost2010PropOp35
 70
     1
102
RTVSPost2010Prop36
280
     0
102
RTVSPost2010PropOp36
 70
     1
102
RTVSPost2010Prop37
 90
       50
102
RTVSPost2010PropOp37
 70
     1
102
RTVSPost2010Prop38
140
0.0
102
RTVSPost2010PropOp38
 70
     1
102
RTVSPost2010Prop39
140
1.0
102
RTVSPost2010PropOp39
 70
     1
102
RTVSPost2010Prop40
 90
        0
102
RTVSPost2010PropOp40
 70
     1
102
RTVSPost2010Prop41ColorIndex
 90
       18
102
RTVSPost2010Prop41ColorRGB
 90
        0
102
RTVSPost2010PropOp41
 70
     1
102
RTVSPost2010Prop42
 90
       50
102
RTVSPost2010PropOp42
 70
     1
102
RTVSPost2010Prop43
 90
        3
102
RTVSPost2010PropOp43
 70
     1
102
RTVSPost2010Prop44ColorIndex
 90
        5
102
RTVSPost2010Prop44ColorRGB
 90
      255
102
RTVSPost2010PropOp44
 70
     1
102
RTVSPost2010Prop45
280
     0
102
RTVSPost2010PropOp45
 70
     1
102
RTVSPost2010Prop46
 90
       50
102
RTVSPost2010PropOp46
 70
     1
102
RTVSPost2010Prop47
 90
       50
102
RTVSPost2010PropOp47
 70
     1
102
RTVSPost2010Prop48
 90
       50
102
RTVSPost2010PropOp48
 70
     1
102
RTVSPost2010Prop49
280
     0
102
RTVSPost2010PropOp49
 70
     1
102
RTVSPost2010Prop50
 90
       50
102
RTVSPost2010PropOp50
 70
     1
102
RTVSPost2010Prop51ColorIndex
 90
      256
102
RTVSPost2010Prop51ColorRGB
 90
-16777216
102
RTVSPost2010PropOp51
 70
     0
102
RTVSPost2010Prop52
140
1.0
102
RTVSPost2010PropOp52
 70
     0
102
RTVSPost2010Prop53
 90
        2
102
RTVSPost2010PropOp53
 70
     1
102
RTVSPost2010Prop54
  1
strokes_ogs.tif
102
RTVSPost2010PropOp54
 70
     1
102
RTVSPost2010Prop55
280
     0
102
RTVSPost2010PropOp55
 70
     1
102
RTVSPost2010Prop56
140
1.0
102
RTVSPost2010PropOp56
 70
     1
102
RTVSPost2010Prop57
140
1.0
102
RTVSPost2010PropOp57
 70
     1
102
RTVSPropertyOp0
 70
     1
102
RTVSPropertyOp1
 70
     1
102
RTVSPropertyOp2
 70
     1
102
RTVSPropertyOp3
 70
     1
102
RTVSPropertyOp4
 70
     1
102
RTVSPropertyOp5
 70
     1
102
RTVSPropertyOp6
 70
     1
102
RTVSPropertyOp7
 70
     1
102
RTVSPropertyOp8
 70
     1
102
RTVSPropertyOp9
 70
     1
102
RTVSPropertyOp10
 70
     1
102
RTVSPropertyOp11
 70
     1
102
RTVSPropertyOp12
 70
     1
102
RTVSPropertyOp13
 70
     1
102
RTVSPropertyOp14
 70
     1
102
RTVSPropertyOp15
 70
     1
102
RTVSPropertyOp16
 70
     1
102
RTVSPropertyOp17
 70
     1
102
RTVSPropertyOp18
 70
     1
102
RTVSPropertyOp19
 70
     1
102
RTVSPropertyOp20
 70
     1
102
RTVSPropertyOp21
 70
     1
102
RTVSPropertyOp22
 70
     1
102
RTVSPropertyOp23
 70
     1
102
RTVSPropertyOp24
 70
     1
102
RTVSPropertyOp25
 70
     1
102
RTVSPropertyOp26
 70
     1
102
RTVSPropertyOp27
 70
     1
102
RTVSPropertyOp28
 70
     1
102
RTVSPropertyOp29
 70
     1
102
RTVSPropertyOp30
 70
     1
102
RTVSPropertyOp31
 70
     1
102
RTVSPropertyOp32
 70
     1
102
RTVSPropertyOp33
 70
     1
102
RTVSPropertyOp34
 70
     1
102
RTVSPropertyOp35
 70
     1
102
RTVSPropertyOp36
 70
     1
102
RTVSPropertyOp37
 70
     1
102
RTVSPropertyOp38
 70
     1
102
RTVSPropertyOp39
 70
     1
102
RTVSPropertyOp40
 70
     1
102
RTVSPropertyOp41
 70
     1
102
RTVSPropertyOp42
 70
     1
102
RTVSPropertyOp43
 70
     1
102
RTVSPropertyOp44
 70
     1
102
RTVSPropertyOp45
 70
     1
102
RTVSPropertyOp46
 70
     1
102
RTVSPropertyOp47
 70
     1
102
RTVSPropertyOp48
 70
     1
102
RTVSPropertyOp49
 70
     1
102
RTVSPropertyOp50
 70
     1
102
RTVSPropertyOp51
 70
     0
102
RTVSPropertyOp52
 70
     0
102
RTVSPropertyOp53
 70
     1
102
RTVSPropertyOp54
 70
     1
102
RTVSPropertyOp55
 70
     1
102
RTVSPropertyOp56
 70
     1
102
RTVSPropertyOp57
 70
     1
102
RTVSPropertyOp58
 70
     1
102
RTVSPropertyOp59
 70
     1
102
RTVSPropertyOp60
 70
     1
102
RTVSPropertyOp61
 70
     1
102
RTVSPropertyOp62
 70
     1
  0
XRECORD
  5
994E
102
{ACAD_REACTORS
330
994D
102
}
330
994D
100
AcDbXrecord
280
     1
102
RTVSPost2010Prop28
280
     0
102
RTVSPost2010PropOp28
 70
     1
102
RTVSPost2010Prop29
280
     1
102
RTVSPost2010PropOp29
 70
     1
102
RTVSPost2010Prop30
280
     1
102
RTVSPost2010PropOp30
 70
     1
102
RTVSPost2010Prop31
280
     0
102
RTVSPost2010PropOp31
 70
     1
102
RTVSPost2010Prop32
280
     0
102
RTVSPost2010PropOp32
 70
     1
102
RTVSPost2010Prop33
280
     0
102
RTVSPost2010PropOp33
 70
     1
102
RTVSPost2010Prop34
280
     0
102
RTVSPost2010PropOp34
 70
     1
102
RTVSPost2010Prop35
280
     0
102
RTVSPost2010PropOp35
 70
     1
102
RTVSPost2010Prop36
280
     0
102
RTVSPost2010PropOp36
 70
     1
102
RTVSPost2010Prop37
 90
       50
102
RTVSPost2010PropOp37
 70
     1
102
RTVSPost2010Prop38
140
0.0
102
RTVSPost2010PropOp38
 70
     1
102
RTVSPost2010Prop39
140
1.0
102
RTVSPost2010PropOp39
 70
     1
102
RTVSPost2010Prop40
 90
        0
102
RTVSPost2010PropOp40
 70
     1
102
RTVSPost2010Prop41ColorIndex
 90
       18
102
RTVSPost2010Prop41ColorRGB
 90
        0
102
RTVSPost2010PropOp41
 70
     1
102
RTVSPost2010Prop42
 90
       50
102
RTVSPost2010PropOp42
 70
     1
102
RTVSPost2010Prop43
 90
        3
102
RTVSPost2010PropOp43
 70
     1
102
RTVSPost2010Prop44ColorIndex
 90
        5
102
RTVSPost2010Prop44ColorRGB
 90
      255
102
RTVSPost2010PropOp44
 70
     1
102
RTVSPost2010Prop45
280
     0
102
RTVSPost2010PropOp45
 70
     1
102
RTVSPost2010Prop46
 90
       50
102
RTVSPost2010PropOp46
 70
     1
102
RTVSPost2010Prop47
 90
       50
102
RTVSPost2010PropOp47
 70
     1
102
RTVSPost2010Prop48
 90
       50
102
RTVSPost2010PropOp48
 70
     1
102
RTVSPost2010Prop49
280
     0
102
RTVSPost2010PropOp49
 70
     1
102
RTVSPost2010Prop50
 90
       50
102
RTVSPost2010PropOp50
 70
     1
102
RTVSPost2010Prop51ColorIndex
 90
      256
102
RTVSPost2010Prop51ColorRGB
 90
-16777216
102
RTVSPost2010PropOp51
 70
     0
102
RTVSPost2010Prop52
140
1.0
102
RTVSPost2010PropOp52
 70
     0
102
RTVSPost2010Prop53
 90
        2
102
RTVSPost2010PropOp53
 70
     1
102
RTVSPost2010Prop54
  1
strokes_ogs.tif
102
RTVSPost2010PropOp54
 70
     1
102
RTVSPost2010Prop55
280
     0
102
RTVSPost2010PropOp55
 70
     1
102
RTVSPost2010Prop56
140
1.0
102
RTVSPost2010PropOp56
 70
     1
102
RTVSPost2010Prop57
140
1.0
102
RTVSPost2010PropOp57
 70
     1
102
RTVSPropertyOp0
 70
     1
102
RTVSPropertyOp1
 70
     1
102
RTVSPropertyOp2
 70
     1
102
RTVSPropertyOp3
 70
     1
102
RTVSPropertyOp4
 70
     1
102
RTVSPropertyOp5
 70
     1
102
RTVSPropertyOp6
 70
     1
102
RTVSPropertyOp7
 70
     1
102
RTVSPropertyOp8
 70
     1
102
RTVSPropertyOp9
 70
     1
102
RTVSPropertyOp10
 70
     1
102
RTVSPropertyOp11
 70
     1
102
RTVSPropertyOp12
 70
     1
102
RTVSPropertyOp13
 70
     1
102
RTVSPropertyOp14
 70
     1
102
RTVSPropertyOp15
 70
     1
102
RTVSPropertyOp16
 70
     1
102
RTVSPropertyOp17
 70
     1
102
RTVSPropertyOp18
 70
     1
102
RTVSPropertyOp19
 70
     1
102
RTVSPropertyOp20
 70
     1
102
RTVSPropertyOp21
 70
     1
102
RTVSPropertyOp22
 70
     1
102
RTVSPropertyOp23
 70
     1
102
RTVSPropertyOp24
 70
     1
102
RTVSPropertyOp25
 70
     1
102
RTVSPropertyOp26
 70
     1
102
RTVSPropertyOp27
 70
     1
102
RTVSPropertyOp28
 70
     1
102
RTVSPropertyOp29
 70
     1
102
RTVSPropertyOp30
 70
     1
102
RTVSPropertyOp31
 70
     1
102
RTVSPropertyOp32
 70
     1
102
RTVSPropertyOp33
 70
     1
102
RTVSPropertyOp34
 70
     1
102
RTVSPropertyOp35
 70
     1
102
RTVSPropertyOp36
 70
     1
102
RTVSPropertyOp37
 70
     1
102
RTVSPropertyOp38
 70
     1
102
RTVSPropertyOp39
 70
     1
102
RTVSPropertyOp40
 70
     1
102
RTVSPropertyOp41
 70
     1
102
RTVSPropertyOp42
 70
     1
102
RTVSPropertyOp43
 70
     1
102
RTVSPropertyOp44
 70
     1
102
RTVSPropertyOp45
 70
     1
102
RTVSPropertyOp46
 70
     1
102
RTVSPropertyOp47
 70
     1
102
RTVSPropertyOp48
 70
     1
102
RTVSPropertyOp49
 70
     1
102
RTVSPropertyOp50
 70
     1
102
RTVSPropertyOp51
 70
     0
102
RTVSPropertyOp52
 70
     0
102
RTVSPropertyOp53
 70
     1
102
RTVSPropertyOp54
 70
     1
102
RTVSPropertyOp55
 70
     1
102
RTVSPropertyOp56
 70
     1
102
RTVSPropertyOp57
 70
     1
102
RTVSPropertyOp58
 70
     1
102
RTVSPropertyOp59
 70
     1
102
RTVSPropertyOp60
 70
     1
102
RTVSPropertyOp61
 70
     1
102
RTVSPropertyOp62
 70
     1
  0
XRECORD
  5
9950
102
{ACAD_REACTORS
330
994F
102
}
330
994F
100
AcDbXrecord
280
     1
102
RTVSPost2010Prop28
280
     0
102
RTVSPost2010PropOp28
 70
     1
102
RTVSPost2010Prop29
280
     1
102
RTVSPost2010PropOp29
 70
     1
102
RTVSPost2010Prop30
280
     1
102
RTVSPost2010PropOp30
 70
     1
102
RTVSPost2010Prop31
280
     0
102
RTVSPost2010PropOp31
 70
     1
102
RTVSPost2010Prop32
280
     0
102
RTVSPost2010PropOp32
 70
     1
102
RTVSPost2010Prop33
280
     0
102
RTVSPost2010PropOp33
 70
     1
102
RTVSPost2010Prop34
280
     0
102
RTVSPost2010PropOp34
 70
     1
102
RTVSPost2010Prop35
280
     0
102
RTVSPost2010PropOp35
 70
     1
102
RTVSPost2010Prop36
280
     0
102
RTVSPost2010PropOp36
 70
     1
102
RTVSPost2010Prop37
 90
       50
102
RTVSPost2010PropOp37
 70
     1
102
RTVSPost2010Prop38
140
0.0
102
RTVSPost2010PropOp38
 70
     1
102
RTVSPost2010Prop39
140
1.0
102
RTVSPost2010PropOp39
 70
     1
102
RTVSPost2010Prop40
 90
        0
102
RTVSPost2010PropOp40
 70
     1
102
RTVSPost2010Prop41ColorIndex
 90
       18
102
RTVSPost2010Prop41ColorRGB
 90
        0
102
RTVSPost2010PropOp41
 70
     1
102
RTVSPost2010Prop42
 90
       50
102
RTVSPost2010PropOp42
 70
     1
102
RTVSPost2010Prop43
 90
        3
102
RTVSPost2010PropOp43
 70
     1
102
RTVSPost2010Prop44ColorIndex
 90
        5
102
RTVSPost2010Prop44ColorRGB
 90
      255
102
RTVSPost2010PropOp44
 70
     1
102
RTVSPost2010Prop45
280
     0
102
RTVSPost2010PropOp45
 70
     1
102
RTVSPost2010Prop46
 90
       50
102
RTVSPost2010PropOp46
 70
     1
102
RTVSPost2010Prop47
 90
       50
102
RTVSPost2010PropOp47
 70
     1
102
RTVSPost2010Prop48
 90
       50
102
RTVSPost2010PropOp48
 70
     1
102
RTVSPost2010Prop49
280
     0
102
RTVSPost2010PropOp49
 70
     1
102
RTVSPost2010Prop50
 90
       50
102
RTVSPost2010PropOp50
 70
     1
102
RTVSPost2010Prop51ColorIndex
 90
      256
102
RTVSPost2010Prop51ColorRGB
 90
-16777216
102
RTVSPost2010PropOp51
 70
     0
102
RTVSPost2010Prop52
140
1.0
102
RTVSPost2010PropOp52
 70
     0
102
RTVSPost2010Prop53
 90
        2
102
RTVSPost2010PropOp53
 70
     1
102
RTVSPost2010Prop54
  1
strokes_ogs.tif
102
RTVSPost2010PropOp54
 70
     1
102
RTVSPost2010Prop55
280
     0
102
RTVSPost2010PropOp55
 70
     1
102
RTVSPost2010Prop56
140
1.0
102
RTVSPost2010PropOp56
 70
     1
102
RTVSPost2010Prop57
140
1.0
102
RTVSPost2010PropOp57
 70
     1
102
RTVSPropertyOp0
 70
     1
102
RTVSPropertyOp1
 70
     1
102
RTVSPropertyOp2
 70
     1
102
RTVSPropertyOp3
 70
     1
102
RTVSPropertyOp4
 70
     1
102
RTVSPropertyOp5
 70
     1
102
RTVSPropertyOp6
 70
     1
102
RTVSPropertyOp7
 70
     1
102
RTVSPropertyOp8
 70
     1
102
RTVSPropertyOp9
 70
     1
102
RTVSPropertyOp10
 70
     1
102
RTVSPropertyOp11
 70
     1
102
RTVSPropertyOp12
 70
     1
102
RTVSPropertyOp13
 70
     1
102
RTVSPropertyOp14
 70
     1
102
RTVSPropertyOp15
 70
     1
102
RTVSPropertyOp16
 70
     1
102
RTVSPropertyOp17
 70
     1
102
RTVSPropertyOp18
 70
     1
102
RTVSPropertyOp19
 70
     1
102
RTVSPropertyOp20
 70
     1
102
RTVSPropertyOp21
 70
     1
102
RTVSPropertyOp22
 70
     1
102
RTVSPropertyOp23
 70
     1
102
RTVSPropertyOp24
 70
     1
102
RTVSPropertyOp25
 70
     1
102
RTVSPropertyOp26
 70
     1
102
RTVSPropertyOp27
 70
     1
102
RTVSPropertyOp28
 70
     1
102
RTVSPropertyOp29
 70
     1
102
RTVSPropertyOp30
 70
     1
102
RTVSPropertyOp31
 70
     1
102
RTVSPropertyOp32
 70
     1
102
RTVSPropertyOp33
 70
     1
102
RTVSPropertyOp34
 70
     1
102
RTVSPropertyOp35
 70
     1
102
RTVSPropertyOp36
 70
     1
102
RTVSPropertyOp37
 70
     1
102
RTVSPropertyOp38
 70
     1
102
RTVSPropertyOp39
 70
     1
102
RTVSPropertyOp40
 70
     1
102
RTVSPropertyOp41
 70
     1
102
RTVSPropertyOp42
 70
     1
102
RTVSPropertyOp43
 70
     1
102
RTVSPropertyOp44
 70
     1
102
RTVSPropertyOp45
 70
     1
102
RTVSPropertyOp46
 70
     1
102
RTVSPropertyOp47
 70
     1
102
RTVSPropertyOp48
 70
     1
102
RTVSPropertyOp49
 70
     1
102
RTVSPropertyOp50
 70
     1
102
RTVSPropertyOp51
 70
     0
102
RTVSPropertyOp52
 70
     0
102
RTVSPropertyOp53
 70
     1
102
RTVSPropertyOp54
 70
     1
102
RTVSPropertyOp55
 70
     1
102
RTVSPropertyOp56
 70
     1
102
RTVSPropertyOp57
 70
     1
102
RTVSPropertyOp58
 70
     1
102
RTVSPropertyOp59
 70
     1
102
RTVSPropertyOp60
 70
     1
102
RTVSPropertyOp61
 70
     1
102
RTVSPropertyOp62
 70
     1
  0
XRECORD
  5
9946
102
{ACAD_REACTORS
330
9945
102
}
330
9945
100
AcDbXrecord
280
     1
102
RTVSPost2010Prop28
280
     0
102
RTVSPost2010PropOp28
 70
     1
102
RTVSPost2010Prop29
280
     1
102
RTVSPost2010PropOp29
 70
     1
102
RTVSPost2010Prop30
280
     1
102
RTVSPost2010PropOp30
 70
     1
102
RTVSPost2010Prop31
280
     0
102
RTVSPost2010PropOp31
 70
     1
102
RTVSPost2010Prop32
280
     0
102
RTVSPost2010PropOp32
 70
     1
102
RTVSPost2010Prop33
280
     0
102
RTVSPost2010PropOp33
 70
     1
102
RTVSPost2010Prop34
280
     0
102
RTVSPost2010PropOp34
 70
     1
102
RTVSPost2010Prop35
280
     0
102
RTVSPost2010PropOp35
 70
     1
102
RTVSPost2010Prop36
280
     0
102
RTVSPost2010PropOp36
 70
     1
102
RTVSPost2010Prop37
 90
       50
102
RTVSPost2010PropOp37
 70
     1
102
RTVSPost2010Prop38
140
0.0
102
RTVSPost2010PropOp38
 70
     1
102
RTVSPost2010Prop39
140
1.0
102
RTVSPost2010PropOp39
 70
     1
102
RTVSPost2010Prop40
 90
        0
102
RTVSPost2010PropOp40
 70
     1
102
RTVSPost2010Prop41ColorIndex
 90
       18
102
RTVSPost2010Prop41ColorRGB
 90
        0
102
RTVSPost2010PropOp41
 70
     1
102
RTVSPost2010Prop42
 90
       50
102
RTVSPost2010PropOp42
 70
     1
102
RTVSPost2010Prop43
 90
        3
102
RTVSPost2010PropOp43
 70
     1
102
RTVSPost2010Prop44ColorIndex
 90
        5
102
RTVSPost2010Prop44ColorRGB
 90
      255
102
RTVSPost2010PropOp44
 70
     1
102
RTVSPost2010Prop45
280
     0
102
RTVSPost2010PropOp45
 70
     1
102
RTVSPost2010Prop46
 90
       50
102
RTVSPost2010PropOp46
 70
     1
102
RTVSPost2010Prop47
 90
       50
102
RTVSPost2010PropOp47
 70
     1
102
RTVSPost2010Prop48
 90
       50
102
RTVSPost2010PropOp48
 70
     1
102
RTVSPost2010Prop49
280
     0
102
RTVSPost2010PropOp49
 70
     1
102
RTVSPost2010Prop50
 90
       50
102
RTVSPost2010PropOp50
 70
     1
102
RTVSPost2010Prop51ColorIndex
 90
      256
102
RTVSPost2010Prop51ColorRGB
 90
-16777216
102
RTVSPost2010PropOp51
 70
     0
102
RTVSPost2010Prop52
140
1.0
102
RTVSPost2010PropOp52
 70
     0
102
RTVSPost2010Prop53
 90
        2
102
RTVSPost2010PropOp53
 70
     1
102
RTVSPost2010Prop54
  1
strokes_ogs.tif
102
RTVSPost2010PropOp54
 70
     1
102
RTVSPost2010Prop55
280
     0
102
RTVSPost2010PropOp55
 70
     1
102
RTVSPost2010Prop56
140
1.0
102
RTVSPost2010PropOp56
 70
     1
102
RTVSPost2010Prop57
140
1.0
102
RTVSPost2010PropOp57
 70
     1
102
RTVSPropertyOp0
 70
     1
102
RTVSPropertyOp1
 70
     1
102
RTVSPropertyOp2
 70
     1
102
RTVSPropertyOp3
 70
     1
102
RTVSPropertyOp4
 70
     1
102
RTVSPropertyOp5
 70
     1
102
RTVSPropertyOp6
 70
     1
102
RTVSPropertyOp7
 70
     1
102
RTVSPropertyOp8
 70
     1
102
RTVSPropertyOp9
 70
     1
102
RTVSPropertyOp10
 70
     1
102
RTVSPropertyOp11
 70
     1
102
RTVSPropertyOp12
 70
     1
102
RTVSPropertyOp13
 70
     1
102
RTVSPropertyOp14
 70
     1
102
RTVSPropertyOp15
 70
     1
102
RTVSPropertyOp16
 70
     1
102
RTVSPropertyOp17
 70
     1
102
RTVSPropertyOp18
 70
     1
102
RTVSPropertyOp19
 70
     1
102
RTVSPropertyOp20
 70
     1
102
RTVSPropertyOp21
 70
     1
102
RTVSPropertyOp22
 70
     1
102
RTVSPropertyOp23
 70
     1
102
RTVSPropertyOp24
 70
     1
102
RTVSPropertyOp25
 70
     1
102
RTVSPropertyOp26
 70
     1
102
RTVSPropertyOp27
 70
     1
102
RTVSPropertyOp28
 70
     1
102
RTVSPropertyOp29
 70
     1
102
RTVSPropertyOp30
 70
     1
102
RTVSPropertyOp31
 70
     1
102
RTVSPropertyOp32
 70
     1
102
RTVSPropertyOp33
 70
     1
102
RTVSPropertyOp34
 70
     1
102
RTVSPropertyOp35
 70
     1
102
RTVSPropertyOp36
 70
     1
102
RTVSPropertyOp37
 70
     1
102
RTVSPropertyOp38
 70
     1
102
RTVSPropertyOp39
 70
     1
102
RTVSPropertyOp40
 70
     1
102
RTVSPropertyOp41
 70
     1
102
RTVSPropertyOp42
 70
     1
102
RTVSPropertyOp43
 70
     1
102
RTVSPropertyOp44
 70
     1
102
RTVSPropertyOp45
 70
     1
102
RTVSPropertyOp46
 70
     1
102
RTVSPropertyOp47
 70
     1
102
RTVSPropertyOp48
 70
     1
102
RTVSPropertyOp49
 70
     1
102
RTVSPropertyOp50
 70
     1
102
RTVSPropertyOp51
 70
     0
102
RTVSPropertyOp52
 70
     0
102
RTVSPropertyOp53
 70
     1
102
RTVSPropertyOp54
 70
     1
102
RTVSPropertyOp55
 70
     1
102
RTVSPropertyOp56
 70
     1
102
RTVSPropertyOp57
 70
     1
102
RTVSPropertyOp58
 70
     1
102
RTVSPropertyOp59
 70
     1
102
RTVSPropertyOp60
 70
     1
102
RTVSPropertyOp61
 70
     1
102
RTVSPropertyOp62
 70
     1
  0
XRECORD
  5
993A
102
{ACAD_REACTORS
330
9939
102
}
330
9939
100
AcDbXrecord
280
     1
102
RTVSPost2010Prop28
280
     0
102
RTVSPost2010PropOp28
 70
     1
102
RTVSPost2010Prop29
280
     1
102
RTVSPost2010PropOp29
 70
     1
102
RTVSPost2010Prop30
280
     1
102
RTVSPost2010PropOp30
 70
     1
102
RTVSPost2010Prop31
280
     0
102
RTVSPost2010PropOp31
 70
     1
102
RTVSPost2010Prop32
280
     0
102
RTVSPost2010PropOp32
 70
     1
102
RTVSPost2010Prop33
280
     0
102
RTVSPost2010PropOp33
 70
     1
102
RTVSPost2010Prop34
280
     0
102
RTVSPost2010PropOp34
 70
     1
102
RTVSPost2010Prop35
280
     0
102
RTVSPost2010PropOp35
 70
     1
102
RTVSPost2010Prop36
280
     0
102
RTVSPost2010PropOp36
 70
     1
102
RTVSPost2010Prop37
 90
       50
102
RTVSPost2010PropOp37
 70
     1
102
RTVSPost2010Prop38
140
0.0
102
RTVSPost2010PropOp38
 70
     1
102
RTVSPost2010Prop39
140
1.0
102
RTVSPost2010PropOp39
 70
     1
102
RTVSPost2010Prop40
 90
        0
102
RTVSPost2010PropOp40
 70
     1
102
RTVSPost2010Prop41ColorIndex
 90
       18
102
RTVSPost2010Prop41ColorRGB
 90
        0
102
RTVSPost2010PropOp41
 70
     1
102
RTVSPost2010Prop42
 90
       50
102
RTVSPost2010PropOp42
 70
     1
102
RTVSPost2010Prop43
 90
        3
102
RTVSPost2010PropOp43
 70
     1
102
RTVSPost2010Prop44ColorIndex
 90
        5
102
RTVSPost2010Prop44ColorRGB
 90
      255
102
RTVSPost2010PropOp44
 70
     1
102
RTVSPost2010Prop45
280
     0
102
RTVSPost2010PropOp45
 70
     1
102
RTVSPost2010Prop46
 90
       50
102
RTVSPost2010PropOp46
 70
     1
102
RTVSPost2010Prop47
 90
       50
102
RTVSPost2010PropOp47
 70
     1
102
RTVSPost2010Prop48
 90
       50
102
RTVSPost2010PropOp48
 70
     1
102
RTVSPost2010Prop49
280
     0
102
RTVSPost2010PropOp49
 70
     1
102
RTVSPost2010Prop50
 90
       50
102
RTVSPost2010PropOp50
 70
     1
102
RTVSPost2010Prop51ColorIndex
 90
      256
102
RTVSPost2010Prop51ColorRGB
 90
-16777216
102
RTVSPost2010PropOp51
 70
     0
102
RTVSPost2010Prop52
140
1.0
102
RTVSPost2010PropOp52
 70
     0
102
RTVSPost2010Prop53
 90
        2
102
RTVSPost2010PropOp53
 70
     1
102
RTVSPost2010Prop54
  1
strokes_ogs.tif
102
RTVSPost2010PropOp54
 70
     1
102
RTVSPost2010Prop55
280
     0
102
RTVSPost2010PropOp55
 70
     1
102
RTVSPost2010Prop56
140
1.0
102
RTVSPost2010PropOp56
 70
     1
102
RTVSPost2010Prop57
140
1.0
102
RTVSPost2010PropOp57
 70
     1
102
RTVSPropertyOp0
 70
     1
102
RTVSPropertyOp1
 70
     1
102
RTVSPropertyOp2
 70
     1
102
RTVSPropertyOp3
 70
     1
102
RTVSPropertyOp4
 70
     1
102
RTVSPropertyOp5
 70
     1
102
RTVSPropertyOp6
 70
     1
102
RTVSPropertyOp7
 70
     1
102
RTVSPropertyOp8
 70
     1
102
RTVSPropertyOp9
 70
     1
102
RTVSPropertyOp10
 70
     1
102
RTVSPropertyOp11
 70
     1
102
RTVSPropertyOp12
 70
     1
102
RTVSPropertyOp13
 70
     1
102
RTVSPropertyOp14
 70
     1
102
RTVSPropertyOp15
 70
     1
102
RTVSPropertyOp16
 70
     1
102
RTVSPropertyOp17
 70
     1
102
RTVSPropertyOp18
 70
     1
102
RTVSPropertyOp19
 70
     1
102
RTVSPropertyOp20
 70
     1
102
RTVSPropertyOp21
 70
     1
102
RTVSPropertyOp22
 70
     1
102
RTVSPropertyOp23
 70
     1
102
RTVSPropertyOp24
 70
     1
102
RTVSPropertyOp25
 70
     1
102
RTVSPropertyOp26
 70
     1
102
RTVSPropertyOp27
 70
     1
102
RTVSPropertyOp28
 70
     1
102
RTVSPropertyOp29
 70
     1
102
RTVSPropertyOp30
 70
     1
102
RTVSPropertyOp31
 70
     1
102
RTVSPropertyOp32
 70
     1
102
RTVSPropertyOp33
 70
     1
102
RTVSPropertyOp34
 70
     1
102
RTVSPropertyOp35
 70
     1
102
RTVSPropertyOp36
 70
     1
102
RTVSPropertyOp37
 70
     1
102
RTVSPropertyOp38
 70
     1
102
RTVSPropertyOp39
 70
     1
102
RTVSPropertyOp40
 70
     1
102
RTVSPropertyOp41
 70
     1
102
RTVSPropertyOp42
 70
     1
102
RTVSPropertyOp43
 70
     1
102
RTVSPropertyOp44
 70
     1
102
RTVSPropertyOp45
 70
     1
102
RTVSPropertyOp46
 70
     1
102
RTVSPropertyOp47
 70
     1
102
RTVSPropertyOp48
 70
     1
102
RTVSPropertyOp49
 70
     1
102
RTVSPropertyOp50
 70
     1
102
RTVSPropertyOp51
 70
     0
102
RTVSPropertyOp52
 70
     0
102
RTVSPropertyOp53
 70
     1
102
RTVSPropertyOp54
 70
     1
102
RTVSPropertyOp55
 70
     1
102
RTVSPropertyOp56
 70
     1
102
RTVSPropertyOp57
 70
     1
102
RTVSPropertyOp58
 70
     1
102
RTVSPropertyOp59
 70
     1
102
RTVSPropertyOp60
 70
     1
102
RTVSPropertyOp61
 70
     1
102
RTVSPropertyOp62
 70
     1
  0
XRECORD
  5
9952
102
{ACAD_REACTORS
330
9951
102
}
330
9951
100
AcDbXrecord
280
     1
102
RTVSPost2010Prop28
280
     0
102
RTVSPost2010PropOp28
 70
     1
102
RTVSPost2010Prop29
280
     1
102
RTVSPost2010PropOp29
 70
     1
102
RTVSPost2010Prop30
280
     1
102
RTVSPost2010PropOp30
 70
     1
102
RTVSPost2010Prop31
280
     0
102
RTVSPost2010PropOp31
 70
     1
102
RTVSPost2010Prop32
280
     0
102
RTVSPost2010PropOp32
 70
     1
102
RTVSPost2010Prop33
280
     0
102
RTVSPost2010PropOp33
 70
     1
102
RTVSPost2010Prop34
280
     0
102
RTVSPost2010PropOp34
 70
     1
102
RTVSPost2010Prop35
280
     0
102
RTVSPost2010PropOp35
 70
     1
102
RTVSPost2010Prop36
280
     0
102
RTVSPost2010PropOp36
 70
     1
102
RTVSPost2010Prop37
 90
       50
102
RTVSPost2010PropOp37
 70
     1
102
RTVSPost2010Prop38
140
0.0
102
RTVSPost2010PropOp38
 70
     1
102
RTVSPost2010Prop39
140
1.0
102
RTVSPost2010PropOp39
 70
     1
102
RTVSPost2010Prop40
 90
        0
102
RTVSPost2010PropOp40
 70
     1
102
RTVSPost2010Prop41ColorIndex
 90
       18
102
RTVSPost2010Prop41ColorRGB
 90
        0
102
RTVSPost2010PropOp41
 70
     1
102
RTVSPost2010Prop42
 90
       50
102
RTVSPost2010PropOp42
 70
     1
102
RTVSPost2010Prop43
 90
        3
102
RTVSPost2010PropOp43
 70
     1
102
RTVSPost2010Prop44ColorIndex
 90
        5
102
RTVSPost2010Prop44ColorRGB
 90
      255
102
RTVSPost2010PropOp44
 70
     1
102
RTVSPost2010Prop45
280
     0
102
RTVSPost2010PropOp45
 70
     1
102
RTVSPost2010Prop46
 90
       50
102
RTVSPost2010PropOp46
 70
     1
102
RTVSPost2010Prop47
 90
       50
102
RTVSPost2010PropOp47
 70
     1
102
RTVSPost2010Prop48
 90
       50
102
RTVSPost2010PropOp48
 70
     1
102
RTVSPost2010Prop49
280
     0
102
RTVSPost2010PropOp49
 70
     1
102
RTVSPost2010Prop50
 90
       50
102
RTVSPost2010PropOp50
 70
     1
102
RTVSPost2010Prop51ColorIndex
 90
      256
102
RTVSPost2010Prop51ColorRGB
 90
-16777216
102
RTVSPost2010PropOp51
 70
     0
102
RTVSPost2010Prop52
140
1.0
102
RTVSPost2010PropOp52
 70
     0
102
RTVSPost2010Prop53
 90
        2
102
RTVSPost2010PropOp53
 70
     1
102
RTVSPost2010Prop54
  1
strokes_ogs.tif
102
RTVSPost2010PropOp54
 70
     1
102
RTVSPost2010Prop55
280
     0
102
RTVSPost2010PropOp55
 70
     1
102
RTVSPost2010Prop56
140
1.0
102
RTVSPost2010PropOp56
 70
     1
102
RTVSPost2010Prop57
140
1.0
102
RTVSPost2010PropOp57
 70
     1
102
RTVSPropertyOp0
 70
     1
102
RTVSPropertyOp1
 70
     1
102
RTVSPropertyOp2
 70
     1
102
RTVSPropertyOp3
 70
     1
102
RTVSPropertyOp4
 70
     1
102
RTVSPropertyOp5
 70
     1
102
RTVSPropertyOp6
 70
     1
102
RTVSPropertyOp7
 70
     1
102
RTVSPropertyOp8
 70
     1
102
RTVSPropertyOp9
 70
     1
102
RTVSPropertyOp10
 70
     1
102
RTVSPropertyOp11
 70
     1
102
RTVSPropertyOp12
 70
     1
102
RTVSPropertyOp13
 70
     1
102
RTVSPropertyOp14
 70
     1
102
RTVSPropertyOp15
 70
     1
102
RTVSPropertyOp16
 70
     1
102
RTVSPropertyOp17
 70
     1
102
RTVSPropertyOp18
 70
     1
102
RTVSPropertyOp19
 70
     1
102
RTVSPropertyOp20
 70
     1
102
RTVSPropertyOp21
 70
     1
102
RTVSPropertyOp22
 70
     1
102
RTVSPropertyOp23
 70
     1
102
RTVSPropertyOp24
 70
     1
102
RTVSPropertyOp25
 70
     1
102
RTVSPropertyOp26
 70
     1
102
RTVSPropertyOp27
 70
     1
102
RTVSPropertyOp28
 70
     1
102
RTVSPropertyOp29
 70
     1
102
RTVSPropertyOp30
 70
     1
102
RTVSPropertyOp31
 70
     1
102
RTVSPropertyOp32
 70
     1
102
RTVSPropertyOp33
 70
     1
102
RTVSPropertyOp34
 70
     1
102
RTVSPropertyOp35
 70
     1
102
RTVSPropertyOp36
 70
     1
102
RTVSPropertyOp37
 70
     1
102
RTVSPropertyOp38
 70
     1
102
RTVSPropertyOp39
 70
     1
102
RTVSPropertyOp40
 70
     1
102
RTVSPropertyOp41
 70
     1
102
RTVSPropertyOp42
 70
     1
102
RTVSPropertyOp43
 70
     1
102
RTVSPropertyOp44
 70
     1
102
RTVSPropertyOp45
 70
     1
102
RTVSPropertyOp46
 70
     1
102
RTVSPropertyOp47
 70
     1
102
RTVSPropertyOp48
 70
     1
102
RTVSPropertyOp49
 70
     1
102
RTVSPropertyOp50
 70
     1
102
RTVSPropertyOp51
 70
     0
102
RTVSPropertyOp52
 70
     0
102
RTVSPropertyOp53
 70
     1
102
RTVSPropertyOp54
 70
     1
102
RTVSPropertyOp55
 70
     1
102
RTVSPropertyOp56
 70
     1
102
RTVSPropertyOp57
 70
     1
102
RTVSPropertyOp58
 70
     1
102
RTVSPropertyOp59
 70
     1
102
RTVSPropertyOp60
 70
     1
102
RTVSPropertyOp61
 70
     1
102
RTVSPropertyOp62
 70
     1
  0
ENDSEC
  0
EOF
