  0
SECTION
  2
HEADER
  9
$ACADVER
  1
AC1015
  9
$ACADMAINTVER
 70
    20
  9
$DWGCODEPAGE
  3
ANSI_932
  9
$INSBASE
 10
0.0
 20
0.0
 30
0.0
  9
$EXTMIN
 10
10.0
 20
9.999999999999998
 30
0.0
  9
$EXTMAX
 10
493.4459999999998
 20
306.721
 30
0.0
  9
$LIMMIN
 10
0.0
 20
0.0
  9
$LIMMAX
 10
495.0
 20
341.25
  9
$ORTHOMODE
 70
     1
  9
$REGENMODE
 70
     1
  9
$FILLMODE
 70
     1
  9
$QTEXTMODE
 70
     0
  9
$MIRRTEXT
 70
     1
  9
$LTSCALE
 40
20.0
  9
$ATTMODE
 70
     1
  9
$TEXTSIZE
 40
5.0
  9
$TRACEWID
 40
1.0
  9
$TEXTSTYLE
  7
STANDARD
  9
$CLAYER
  8
0
  9
$CELTYPE
  6
BYLAYER
  9
$CECOLOR
 62
   256
  9
$CELTSCALE
 40
1.0
  9
$DISPSILH
 70
     0
  9
$DIMSCALE
 40
1.0
  9
$DIMASZ
 40
3.0
  9
$DIMEXO
 40
1.0
  9
$DIMDLI
 40
10.0
  9
$DIMRND
 40
0.0
  9
$DIMDLE
 40
0.0
  9
$DIMEXE
 40
1.0
  9
$DIMTP
 40
0.0
  9
$DIMTM
 40
0.0
  9
$DIMTXT
 40
3.2
  9
$DIMCEN
 40
0.0
  9
$DIMTSZ
 40
0.0
  9
$DIMTOL
 70
     0
  9
$DIMLIM
 70
     0
  9
$DIMTIH
 70
     0
  9
$DIMTOH
 70
     0
  9
$DIMSE1
 70
     0
  9
$DIMSE2
 70
     0
  9
$DIMTAD
 70
     3
  9
$DIMZIN
 70
     8
  9
$DIMBLK
  1

  9
$DIMASO
 70
     1
  9
$DIMSHO
 70
     1
  9
$DIMPOST
  1

  9
$DIMAPOST
  1

  9
$DIMALT
 70
     0
  9
$DIMALTD
 70
     2
  9
$DIMALTF
 40
25.4
  9
$DIMLFAC
 40
1.0
  9
$DIMTOFL
 70
     1
  9
$DIMTVP
 40
0.0
  9
$DIMTIX
 70
     0
  9
$DIMSOXD
 70
     0
  9
$DIMSAH
 70
     1
  9
$DIMBLK1
  1

  9
$DIMBLK2
  1

  9
$DIMSTYLE
  2
STANDARD
  9
$DIMCLRD
 70
     0
  9
$DIMCLRE
 70
     0
  9
$DIMCLRT
 70
     0
  9
$DIMTFAC
 40
1.0
  9
$DIMGAP
 40
1.0
  9
$DIMJUST
 70
     0
  9
$DIMSD1
 70
     0
  9
$DIMSD2
 70
     0
  9
$DIMTOLJ
 70
     1
  9
$DIMTZIN
 70
     0
  9
$DIMALTZ
 70
     0
  9
$DIMALTTZ
 70
     0
  9
$DIMUPT
 70
     0
  9
$DIMDEC
 70
     4
  9
$DIMTDEC
 70
     4
  9
$DIMALTU
 70
     2
  9
$DIMALTTD
 70
     2
  9
$DIMTXSTY
  7
STANDARD
  9
$DIMAUNIT
 70
     0
  9
$DIMADEC
 70
     0
  9
$DIMALTRND
 40
0.0
  9
$DIMAZIN
 70
     0
  9
$DIMDSEP
 70
    46
  9
$DIMATFIT
 70
     3
  9
$DIMFRAC
 70
     0
  9
$DIMLDRBLK
  1

  9
$DIMLUNIT
 70
     2
  9
$DIMLWD
 70
    -2
  9
$DIMLWE
 70
    -2
  9
$DIMTMOVE
 70
     0
  9
$LUNITS
 70
     2
  9
$LUPREC
 70
     4
  9
$SKETCHINC
 40
1.0
  9
$FILLETRAD
 40
2.5
  9
$AUNITS
 70
     0
  9
$AUPREC
 70
     2
  9
$MENU
  1
.
  9
$ELEVATION
 40
0.0
  9
$PELEVATION
 40
0.0
  9
$THICKNESS
 40
0.0
  9
$LIMCHECK
 70
     0
  9
$CHAMFERA
 40
10.0
  9
$CHAMFERB
 40
10.0
  9
$CHAMFERC
 40
0.0
  9
$CHAMFERD
 40
0.0
  9
$SKPOLY
 70
     0
  9
$TDCREATE
 40
2450737.665743287
  9
$TDUCREATE
 40
2450737.290743287
  9
$TDUPDATE
 40
2457192.640198507
  9
$TDUUPDATE
 40
2457192.265198507
  9
$TDINDWG
 40
0.0000152546
  9
$TDUSRTIMER
 40
0.0000147454
  9
$USRTIMER
 70
     1
  9
$ANGBASE
 50
0.0
  9
$ANGDIR
 70
     0
  9
$PDMODE
 70
     0
  9
$PDSIZE
 40
0.0
  9
$PLINEWID
 40
0.0
  9
$SPLFRAME
 70
     0
  9
$SPLINETYPE
 70
     6
  9
$SPLINESEGS
 70
     8
  9
$HANDSEED
  5
9A48
  9
$SURFTAB1
 70
     6
  9
$SURFTAB2
 70
     6
  9
$SURFTYPE
 70
     6
  9
$SURFU
 70
     6
  9
$SURFV
 70
     6
  9
$UCSBASE
  2

  9
$UCSNAME
  2

  9
$UCSORG
 10
0.0
 20
0.0
 30
0.0
  9
$UCSXDIR
 10
1.0
 20
0.0
 30
0.0
  9
$UCSYDIR
 10
0.0
 20
1.0
 30
0.0
  9
$UCSORTHOREF
  2

  9
$UCSORTHOVIEW
 70
     0
  9
$UCSORGTOP
 10
0.0
 20
0.0
 30
0.0
  9
$UCSORGBOTTOM
 10
0.0
 20
0.0
 30
0.0
  9
$UCSORGLEFT
 10
0.0
 20
0.0
 30
0.0
  9
$UCSORGRIGHT
 10
0.0
 20
0.0
 30
0.0
  9
$UCSORGFRONT
 10
0.0
 20
0.0
 30
0.0
  9
$UCSORGBACK
 10
0.0
 20
0.0
 30
0.0
  9
$PUCSBASE
  2

  9
$PUCSNAME
  2

  9
$PUCSORG
 10
0.0
 20
0.0
 30
0.0
  9
$PUCSXDIR
 10
1.0
 20
0.0
 30
0.0
  9
$PUCSYDIR
 10
0.0
 20
1.0
 30
0.0
  9
$PUCSORTHOREF
  2

  9
$PUCSORTHOVIEW
 70
     0
  9
$PUCSORGTOP
 10
0.0
 20
0.0
 30
0.0
  9
$PUCSORGBOTTOM
 10
0.0
 20
0.0
 30
0.0
  9
$PUCSORGLEFT
 10
0.0
 20
0.0
 30
0.0
  9
$PUCSORGRIGHT
 10
0.0
 20
0.0
 30
0.0
  9
$PUCSORGFRONT
 10
0.0
 20
0.0
 30
0.0
  9
$PUCSORGBACK
 10
0.0
 20
0.0
 30
0.0
  9
$USERI1
 70
     0
  9
$USERI2
 70
     0
  9
$USERI3
 70
     0
  9
$USERI4
 70
     0
  9
$USERI5
 70
     0
  9
$USERR1
 40
0.0
  9
$USERR2
 40
0.0
  9
$USERR3
 40
0.0
  9
$USERR4
 40
0.0
  9
$USERR5
 40
0.0
  9
$WORLDVIEW
 70
     1
  9
$SHADEDGE
 70
     3
  9
$SHADEDIF
 70
    70
  9
$TILEMODE
 70
     1
  9
$MAXACTVP
 70
    16
  9
$PINSBASE
 10
0.0
 20
0.0
 30
0.0
  9
$PLIMCHECK
 70
     0
  9
$PEXTMIN
 10
1.000000000000000E+20
 20
1.000000000000000E+20
 30
1.000000000000000E+20
  9
$PEXTMAX
 10
-1.000000000000000E+20
 20
-1.000000000000000E+20
 30
-1.000000000000000E+20
  9
$PLIMMIN
 10
0.0
 20
0.0
  9
$PLIMMAX
 10
420.0
 20
297.0
  9
$UNITMODE
 70
     0
  9
$VISRETAIN
 70
     0
  9
$PLINEGEN
 70
     0
  9
$PSLTSCALE
 70
     0
  9
$TREEDEPTH
 70
  3020
  9
$CMLSTYLE
  2
STANDARD
  9
$CMLJUST
 70
     0
  9
$CMLSCALE
 40
1.0
  9
$PROXYGRAPHICS
 70
     1
  9
$MEASUREMENT
 70
     0
  9
$CELWEIGHT
370
    -1
  9
$ENDCAPS
280
     0
  9
$JOINSTYLE
280
     0
  9
$LWDISPLAY
290
     0
  9
$INSUNITS
 70
     0
  9
$HYPERLINKBASE
  1

  9
$STYLESHEET
  1

  9
$XEDIT
290
     1
  9
$CEPSNTYPE
380
     0
  9
$PSTYLEMODE
290
     1
  9
$FINGERPRINTGUID
  2
{DABE664B-07BE-4E81-AF08-26F94B38B7A7}
  9
$VERSIONGUID
  2
{0A1FEF44-6535-40D3-877D-8B8DAF7FB5FA}
  9
$EXTNAMES
290
     1
  9
$PSVPSCALE
 40
0.0
  9
$OLESTARTUP
290
     0
  0
ENDSEC
  0
SECTION
  2
CLASSES
  0
CLASS
  1
ACDBDICTIONARYWDFLT
  2
AcDbDictionaryWithDefault
  3
ObjectDBX Classes
 90
        0
280
     0
281
     0
  0
CLASS
  1
ACDBPLACEHOLDER
  2
AcDbPlaceHolder
  3
ObjectDBX Classes
 90
        0
280
     0
281
     0
  0
CLASS
  1
LAYOUT
  2
AcDbLayout
  3
ObjectDBX Classes
 90
        0
280
     0
281
     0
  0
CLASS
  1
DICTIONARYVAR
  2
AcDbDictionaryVar
  3
ObjectDBX Classes
 90
        0
280
     0
281
     0
  0
CLASS
  1
MATERIAL
  2
AcDbMaterial
  3
ObjectDBX Classes
 90
     1153
280
     0
281
     0
  0
CLASS
  1
VISUALSTYLE
  2
AcDbVisualStyle
  3
ObjectDBX Classes
 90
     4095
280
     0
281
     0
  0
CLASS
  1
TABLESTYLE
  2
AcDbTableStyle
  3
ObjectDBX Classes
 90
     4095
280
     0
281
     0
  0
CLASS
  1
SCALE
  2
AcDbScale
  3
ObjectDBX Classes
 90
     1153
280
     0
281
     0
  0
CLASS
  1
MLEADERSTYLE
  2
AcDbMLeaderStyle
  3
ACDB_MLEADERSTYLE_CLASS
 90
     4095
280
     0
281
     0
  0
CLASS
  1
ACDBSECTIONVIEWSTYLE
  2
AcDbSectionViewStyle
  3
ObjectDBX Classes
 90
     1025
280
     0
281
     0
  0
CLASS
  1
ACDBDETAILVIEWSTYLE
  2
AcDbDetailViewStyle
  3
ObjectDBX Classes
 90
     1025
280
     0
281
     0
  0
CLASS
  1
CELLSTYLEMAP
  2
AcDbCellStyleMap
  3
ObjectDBX Classes
 90
     1152
280
     0
281
     0
  0
ENDSEC
  0
SECTION
  2
TABLES
  0
TABLE
  2
VPORT
  5
9779
330
0
100
AcDbSymbolTable
 70
     1
  0
VPORT
  5
9991
330
9779
100
AcDbSymbolTableRecord
100
AcDbViewportTableRecord
  2
*ACTIVE
 70
     0
 10
0.0
 20
0.0
 11
1.0
 21
1.0
 12
341.610094189816
 22
158.3623703176124
 13
0.0
 23
0.0
 14
10.0
 24
10.0
 15
10.0
 25
10.0
 16
0.0
 26
0.0
 36
1.0
 17
0.0
 27
0.0
 37
0.0
 40
300.0694310632123
 41
1.899603698811096
 42
50.0
 43
0.0
 44
0.0
 50
0.0
 51
0.0
 71
     0
 72
   100
 73
     1
 74
     0
 75
     0
 76
     0
 77
     0
 78
     0
281
     0
 65
     1
110
0.0
120
0.0
130
0.0
111
1.0
121
0.0
131
0.0
112
0.0
122
1.0
132
0.0
 79
     0
146
0.0
1001
ACAD_NAV_VCDISPLAY
1070
     3
  0
ENDTAB
  0
TABLE
  2
LTYPE
  5
9776
330
0
100
AcDbSymbolTable
 70
     4
  0
LTYPE
  5
9784
330
9776
100
AcDbSymbolTableRecord
100
AcDbLinetypeTableRecord
  2
BYBLOCK
 70
     0
  3

 72
    65
 73
     0
 40
0.0
  0
LTYPE
  5
9785
330
9776
100
AcDbSymbolTableRecord
100
AcDbLinetypeTableRecord
  2
BYLAYER
 70
     0
  3

 72
    65
 73
     0
 40
0.0
  0
LTYPE
  5
9786
330
9776
100
AcDbSymbolTableRecord
100
AcDbLinetypeTableRecord
  2
CONTINUOUS
 70
     0
  3
Solid line
 72
    65
 73
     0
 40
0.0
  0
LTYPE
  5
9793
330
9776
100
AcDbSymbolTableRecord
100
AcDbLinetypeTableRecord
  2
CENTER
 70
     0
  3
____ _ ____ _ ____ _ ____ _ ____ _ ____ _ ____ 
 72
    65
 73
     4
 40
2.0
 49
1.25
 74
     0
 49
-0.25
 74
     0
 49
0.25
 74
     0
 49
-0.25
 74
     0
  0
LTYPE
  5
9795
330
9776
100
AcDbSymbolTableRecord
100
AcDbLinetypeTableRecord
  2
DASHED
 70
     0
  3
__ __ __ __ __ __ __ __ __ __ __ __ __ __ __ __
 72
    65
 73
     2
 40
0.75
 49
0.5
 74
     0
 49
-0.25
 74
     0
  0
LTYPE
  5
9796
330
9776
100
AcDbSymbolTableRecord
100
AcDbLinetypeTableRecord
  2
PHANTOM
 70
     0
  3
______  __  __  ______  __  __  ______  __  __ 
 72
    65
 73
     6
 40
2.5
 49
1.25
 74
     0
 49
-0.25
 74
     0
 49
0.25
 74
     0
 49
-0.25
 74
     0
 49
0.25
 74
     0
 49
-0.25
 74
     0
  0
ENDTAB
  0
TABLE
  2
LAYER
  5
9773
330
0
100
AcDbSymbolTable
 70
     8
  0
LAYER
  5
9781
102
{ACAD_XDICTIONARY
360
99EC
102
}
330
9773
100
AcDbSymbolTableRecord
100
AcDbLayerTableRecord
  2
0
 70
     0
 62
     7
  6
CONTINUOUS
370
    -3
390
999A
  0
LAYER
  5
9797
102
{ACAD_XDICTIONARY
360
99EE
102
}
330
9773
100
AcDbSymbolTableRecord
100
AcDbLayerTableRecord
  2
4
 70
     0
 62
     1
  6
CENTER
370
    -3
390
999A
  0
LAYER
  5
9798
102
{ACAD_XDICTIONARY
360
99F0
102
}
330
9773
100
AcDbSymbolTableRecord
100
AcDbLayerTableRecord
  2
5
 70
     0
 62
     6
  6
PHANTOM
370
    -3
390
999A
  0
LAYER
  5
9799
102
{ACAD_XDICTIONARY
360
99F2
102
}
330
9773
100
AcDbSymbolTableRecord
100
AcDbLayerTableRecord
  2
1
 70
     0
 62
     7
  6
CONTINUOUS
370
    -3
390
999A
  0
LAYER
  5
979A
102
{ACAD_XDICTIONARY
360
99F4
102
}
330
9773
100
AcDbSymbolTableRecord
100
AcDbLayerTableRecord
  2
2
 70
     0
 62
     4
  6
CONTINUOUS
370
    -3
390
999A
  0
LAYER
  5
979B
102
{ACAD_XDICTIONARY
360
99F6
102
}
330
9773
100
AcDbSymbolTableRecord
100
AcDbLayerTableRecord
  2
3
 70
     0
 62
     2
  6
DASHED
370
    -3
390
999A
  0
LAYER
  5
979C
102
{ACAD_XDICTIONARY
360
99F8
102
}
330
9773
100
AcDbSymbolTableRecord
100
AcDbLayerTableRecord
  2
6
 70
     0
 62
     5
  6
CONTINUOUS
370
    -3
390
999A
  0
LAYER
  5
979D
102
{ACAD_XDICTIONARY
360
99FA
102
}
330
9773
100
AcDbSymbolTableRecord
100
AcDbLayerTableRecord
  2
7
 70
     0
 62
     3
  6
CONTINUOUS
370
    -3
390
999A
  0
ENDTAB
  0
TABLE
  2
STYLE
  5
9774
330
0
100
AcDbSymbolTable
 70
     1
  0
STYLE
  5
9782
330
9774
100
AcDbSymbolTableRecord
100
AcDbTextStyleTableRecord
  2
STANDARD
 70
     0
 40
0.0
 41
1.0
 50
0.0
 71
     0
 42
5.0
  3
txt
  4

  0
ENDTAB
  0
TABLE
  2
VIEW
  5
9777
330
0
100
AcDbSymbolTable
 70
     0
  0
ENDTAB
  0
TABLE
  2
UCS
  5
9778
330
0
100
AcDbSymbolTable
 70
     0
  0
ENDTAB
  0
TABLE
  2
APPID
  5
977A
330
0
100
AcDbSymbolTable
 70
     3
  0
APPID
  5
9783
330
977A
100
AcDbSymbolTableRecord
100
AcDbRegAppTableRecord
  2
ACAD
 70
     0
  0
APPID
  5
9A06
330
977A
100
AcDbSymbolTableRecord
100
AcDbRegAppTableRecord
  2
ACAD_NAV_VCDISPLAY
 70
     0
  0
APPID
  5
9A3F
330
977A
100
AcDbSymbolTableRecord
100
AcDbRegAppTableRecord
  2
ACAD_MLEADERVER
 70
     0
  0
ENDTAB
  0
TABLE
  2
DIMSTYLE
  5
977B
330
0
100
AcDbSymbolTable
 70
     1
100
AcDbDimStyleTable
 71
     0
  0
DIMSTYLE
105
979F
330
977B
100
AcDbSymbolTableRecord
100
AcDbDimStyleTableRecord
  2
STANDARD
 70
     0
 41
3.0
 42
1.0
 43
10.0
 44
1.0
 73
     0
 74
     0
 77
     3
 78
     8
140
3.2
141
0.0
147
1.0
172
     1
173
     1
284
     8
285
     8
286
     8
340
9782
  0
ENDTAB
  0
TABLE
  2
BLOCK_RECORD
  5
9772
330
0
100
AcDbSymbolTable
 70
     0
  0
BLOCK_RECORD
  5
978F
102
{ACAD_XDICTIONARY
360
9994
102
}
330
9772
100
AcDbSymbolTableRecord
100
AcDbBlockTableRecord
  2
*MODEL_SPACE
340
99E8
  0
BLOCK_RECORD
  5
978B
102
{ACAD_XDICTIONARY
360
9992
102
}
330
9772
100
AcDbSymbolTableRecord
100
AcDbBlockTableRecord
  2
*PAPER_SPACE
340
99E9
  0
ENDTAB
  0
ENDSEC
  0
SECTION
  2
BLOCKS
  0
BLOCK
  5
9790
330
978F
100
AcDbEntity
  8
0
100
AcDbBlockBegin
  2
*MODEL_SPACE
 70
     0
 10
0.0
 20
0.0
 30
0.0
  3
*MODEL_SPACE
  1

  0
ENDBLK
  5
9791
330
978F
100
AcDbEntity
  8
0
100
AcDbBlockEnd
  0
BLOCK
  5
978C
330
978B
100
AcDbEntity
 67
     1
  8
0
100
AcDbBlockBegin
  2
*PAPER_SPACE
 70
     0
 10
0.0
 20
0.0
 30
0.0
  3
*PAPER_SPACE
  1

  0
ENDBLK
  5
978D
330
978B
100
AcDbEntity
 67
     1
  8
0
100
AcDbBlockEnd
  0
ENDSEC
  0
SECTION
  2
ENTITIES
  0
TEXT
  5
97A7
330
978F
100
AcDbEntity
  8
7
  6
Continuous
100
AcDbText
 10
10.0
 20
18.0
 30
0.0
 40
3.0
  1
TYPE No.THA-282-4
100
AcDbText
  0
TEXT
  5
97A8
330
978F
100
AcDbEntity
  8
7
  6
Continuous
100
AcDbText
 10
10.0
 20
26.0
 30
0.0
 40
3.0
  1
CODE No.3227
100
AcDbText
  0
TEXT
  5
97A9
330
978F
100
AcDbEntity
  8
1
  6
Continuous
100
AcDbText
 10
10.0
 20
10.0
 30
0.0
 40
1.399999999999999
  1
LAYER
100
AcDbText
  0
TEXT
  5
97AA
330
978F
100
AcDbEntity
  8
1
  6
Continuous
100
AcDbText
 10
17.97951099999998
 20
10.04873699999998
 30
0.0
 40
1.399999999999999
  1
1
100
AcDbText
  0
TEXT
  5
97AB
330
978F
100
AcDbEntity
  8
7
  6
Continuous
100
AcDbText
 10
29.97951099999999
 20
10.04873699999998
 30
0.0
 40
1.399999999999999
  1
7
100
AcDbText
  0
TEXT
  5
97AC
330
978F
100
AcDbEntity
  8
4
  6
CENTER
100
AcDbText
 10
23.97951099999999
 20
10.04873699999998
 30
0.0
 40
1.399999999999999
  1
4
100
AcDbText
  0
TEXT
  5
97AD
330
978F
100
AcDbEntity
  8
3
  6
DASHED
100
AcDbText
 10
21.979511
 20
10.04873699999998
 30
0.0
 40
1.399999999999999
  1
3
100
AcDbText
  0
TEXT
  5
97AE
330
978F
100
AcDbEntity
  8
2
  6
Continuous
100
AcDbText
 10
19.97951099999999
 20
10.04873699999998
 30
0.0
 40
1.399999999999999
  1
2
100
AcDbText
  0
TEXT
  5
97AF
330
978F
100
AcDbEntity
  8
6
  6
Continuous
100
AcDbText
 10
27.979511
 20
10.04873699999998
 30
0.0
 40
1.399999999999999
  1
6
100
AcDbText
  0
TEXT
  5
97B0
330
978F
100
AcDbEntity
  8
5
  6
PHANTOM
100
AcDbText
 10
25.97951099999999
 20
10.04873699999998
 30
0.0
 40
1.399999999999999
  1
5
100
AcDbText
  0
LINE
  5
97B1
330
978F
100
AcDbEntity
  8
1
  6
Continuous
100
AcDbLine
 10
377.3009999999999
 20
74.6855
 30
0.0
 11
377.3009999999999
 21
160.685
 31
0.0
  0
LINE
  5
97B2
330
978F
100
AcDbEntity
  8
1
  6
Continuous
100
AcDbLine
 10
377.3009999999999
 20
74.6855
 30
0.0
 11
315.9139999999998
 21
74.6855
 31
0.0
  0
LINE
  5
97B3
330
978F
100
AcDbEntity
  8
1
  6
Continuous
100
AcDbLine
 10
377.3009999999999
 20
160.685
 30
0.0
 11
315.9139999999998
 21
160.685
 31
0.0
  0
LINE
  5
97B4
330
978F
100
AcDbEntity
  8
1
  6
Continuous
100
AcDbLine
 10
376.8009999999999
 20
160.1849999999998
 30
0.0
 11
376.8009999999999
 21
75.18550000000002
 31
0.0
  0
LINE
  5
97B5
330
978F
100
AcDbEntity
  8
1
  6
Continuous
100
AcDbLine
 10
376.8009999999999
 20
160.1849999999998
 30
0.0
 11
349.8009999999999
 21
160.1849999999998
 31
0.0
  0
LINE
  5
97B6
330
978F
100
AcDbEntity
  8
1
  6
Continuous
100
AcDbLine
 10
376.8009999999999
 20
75.18550000000002
 30
0.0
 11
317.3799999999999
 21
75.18550000000002
 31
0.0
  0
LINE
  5
97B7
330
978F
100
AcDbEntity
  8
1
  6
Continuous
100
AcDbLine
 10
346.801
 20
157.1849999999998
 30
0.0
 11
346.801
 21
138.7249999999999
 31
0.0
  0
LINE
  5
97B8
330
978F
100
AcDbEntity
  8
1
  6
Continuous
100
AcDbLine
 10
377.3009999999999
 20
122.185
 30
0.0
 11
376.8009999999999
 21
122.185
 31
0.0
  0
LINE
  5
97B9
330
978F
100
AcDbEntity
  8
1
  6
Continuous
100
AcDbLine
 10
377.3009999999999
 20
113.185
 30
0.0
 11
376.8009999999999
 21
113.185
 31
0.0
  0
LINE
  5
97BA
330
978F
100
AcDbEntity
  8
1
  6
Continuous
100
AcDbLine
 10
371.801
 20
160.1849999999998
 30
0.0
 11
371.801
 21
160.685
 31
0.0
  0
LINE
  5
97BB
330
978F
100
AcDbEntity
  8
1
  6
Continuous
100
AcDbLine
 10
371.801
 20
74.6855
 30
0.0
 11
371.801
 21
75.18550000000002
 31
0.0
  0
LINE
  5
97BC
330
978F
100
AcDbEntity
  8
1
  6
Continuous
100
AcDbLine
 10
367.801
 20
160.1849999999998
 30
0.0
 11
367.801
 21
160.685
 31
0.0
  0
LINE
  5
97BD
330
978F
100
AcDbEntity
  8
1
  6
Continuous
100
AcDbLine
 10
367.801
 20
74.6855
 30
0.0
 11
367.801
 21
75.18550000000002
 31
0.0
  0
LINE
  5
97BE
330
978F
100
AcDbEntity
  8
1
  6
Continuous
100
AcDbLine
 10
362.8009999999999
 20
160.1849999999998
 30
0.0
 11
362.8009999999999
 21
160.685
 31
0.0
  0
LINE
  5
97BF
330
978F
100
AcDbEntity
  8
1
  6
Continuous
100
AcDbLine
 10
362.8009999999999
 20
74.6855
 30
0.0
 11
362.8009999999999
 21
75.18550000000002
 31
0.0
  0
LINE
  5
97C0
330
978F
100
AcDbEntity
  8
1
  6
Continuous
100
AcDbLine
 10
385.801
 20
243.9329999999999
 30
0.0
 11
385.801
 21
246.482
 31
0.0
  0
LINE
  5
97C1
330
978F
100
AcDbEntity
  8
1
  6
Continuous
100
AcDbLine
 10
302.801
 20
244.226
 30
0.0
 11
302.801
 21
246.482
 31
0.0
  0
LINE
  5
97C2
330
978F
100
AcDbEntity
  8
1
  6
Continuous
100
AcDbLine
 10
385.801
 20
246.482
 30
0.0
 11
302.801
 21
246.482
 31
0.0
  0
LINE
  5
97C3
330
978F
100
AcDbEntity
  8
1
  6
Continuous
100
AcDbLine
 10
377.3009999999999
 20
246.482
 30
0.0
 11
377.3009999999999
 21
273.482
 31
0.0
  0
LINE
  5
97C4
330
978F
100
AcDbEntity
  8
1
  6
Continuous
100
AcDbLine
 10
400.8009999999998
 20
273.482
 30
0.0
 11
318.3009999999999
 21
273.482
 31
0.0
  0
LINE
  5
97C5
330
978F
100
AcDbEntity
  8
1
  6
Continuous
100
AcDbLine
 10
377.3009999999999
 20
263.2819999999999
 30
0.0
 11
326.3009999999998
 21
263.2819999999999
 31
0.0
  0
LINE
  5
97C6
330
978F
100
AcDbEntity
  8
1
  6
Continuous
100
AcDbLine
 10
309.301
 20
246.482
 30
0.0
 11
309.301
 21
264.482
 31
0.0
  0
LINE
  5
97C7
330
978F
100
AcDbEntity
  8
1
  6
Continuous
100
AcDbLine
 10
353.8009999999999
 20
265.482
 30
0.0
 11
353.8009999999999
 21
273.482
 31
0.0
  0
LINE
  5
97C8
330
978F
100
AcDbEntity
  8
1
  6
Continuous
100
AcDbLine
 10
367.301
 20
263.2819999999999
 30
0.0
 11
367.301
 21
273.482
 31
0.0
  0
LINE
  5
97C9
330
978F
100
AcDbEntity
  8
1
  6
Continuous
100
AcDbLine
 10
329.3009999999998
 20
263.2819999999999
 30
0.0
 11
329.3009999999998
 21
273.482
 31
0.0
  0
LINE
  5
97CA
330
978F
100
AcDbEntity
  8
1
  6
Continuous
100
AcDbLine
 10
319.301
 20
261.7739999999999
 30
0.0
 11
319.301
 21
273.482
 31
0.0
  0
LINE
  5
97CB
330
978F
100
AcDbEntity
  8
1
  6
Continuous
100
AcDbLine
 10
341.8009999999998
 20
263.2819999999999
 30
0.0
 11
341.8009999999998
 21
270.982
 31
0.0
  0
LINE
  5
97CC
330
978F
100
AcDbEntity
  8
1
  6
Continuous
100
AcDbLine
 10
331.801
 20
263.2819999999999
 30
0.0
 11
331.801
 21
270.982
 31
0.0
  0
LINE
  5
97CD
330
978F
100
AcDbEntity
  8
1
  6
Continuous
100
AcDbLine
 10
341.8009999999998
 20
270.982
 30
0.0
 11
331.801
 21
270.982
 31
0.0
  0
LINE
  5
97CE
330
978F
100
AcDbEntity
  8
1
  6
Continuous
100
AcDbLine
 10
339.8009999999998
 20
270.982
 30
0.0
 11
339.8009999999998
 21
273.482
 31
0.0
  0
LINE
  5
97CF
330
978F
100
AcDbEntity
  8
1
  6
Continuous
100
AcDbLine
 10
333.801
 20
270.982
 30
0.0
 11
333.801
 21
273.482
 31
0.0
  0
LINE
  5
97D0
330
978F
100
AcDbEntity
  8
1
  6
Continuous
100
AcDbLine
 10
324.3009999999998
 20
266.482
 30
0.0
 11
311.301
 21
266.482
 31
0.0
  0
LINE
  5
97D1
330
978F
100
AcDbEntity
  8
1
  6
Continuous
100
AcDbLine
 10
455.733
 20
66.6855
 30
0.0
 11
457.561
 21
66.6855
 31
0.0
  0
LINE
  5
97D2
330
978F
100
AcDbEntity
  8
1
  6
Continuous
100
AcDbLine
 10
455.733
 20
168.6849999999998
 30
0.0
 11
457.561
 21
168.6849999999998
 31
0.0
  0
LINE
  5
97D3
330
978F
100
AcDbEntity
  8
1
  6
Continuous
100
AcDbLine
 10
457.561
 20
66.6855
 30
0.0
 11
457.561
 21
168.6849999999998
 31
0.0
  0
LINE
  5
97D4
330
978F
100
AcDbEntity
  8
1
  6
Continuous
100
AcDbLine
 10
466.361
 20
163.185
 30
0.0
 11
457.561
 21
163.185
 31
0.0
  0
LINE
  5
97D5
330
978F
100
AcDbEntity
  8
1
  6
Continuous
100
AcDbLine
 10
466.361
 20
72.1855
 30
0.0
 11
457.561
 21
72.1855
 31
0.0
  0
LINE
  5
97D6
330
978F
100
AcDbEntity
  8
1
  6
Continuous
100
AcDbLine
 10
465.561
 20
160.685
 30
0.0
 11
457.561
 21
160.685
 31
0.0
  0
LINE
  5
97D7
330
978F
100
AcDbEntity
  8
1
  6
Continuous
100
AcDbLine
 10
465.561
 20
74.6855
 30
0.0
 11
457.561
 21
74.6855
 31
0.0
  0
LINE
  5
97D8
330
978F
100
AcDbEntity
  8
1
  6
Continuous
100
AcDbLine
 10
469.561
 20
121.6849999999999
 30
0.0
 11
457.561
 21
121.6849999999999
 31
0.0
  0
LINE
  5
97D9
330
978F
100
AcDbEntity
  8
1
  6
Continuous
100
AcDbLine
 10
469.561
 20
113.685
 30
0.0
 11
457.561
 21
113.685
 31
0.0
  0
LINE
  5
97DA
330
978F
100
AcDbEntity
  8
1
  6
Continuous
100
AcDbLine
 10
465.561
 20
121.6849999999999
 30
0.0
 11
465.561
 21
160.685
 31
0.0
  0
LINE
  5
97DB
330
978F
100
AcDbEntity
  8
1
  6
Continuous
100
AcDbLine
 10
465.561
 20
74.6855
 30
0.0
 11
465.561
 21
113.685
 31
0.0
  0
LINE
  5
97DC
330
978F
100
AcDbEntity
  8
1
  6
Continuous
100
AcDbLine
 10
402.801
 20
162.685
 30
0.0
 11
383.861
 21
162.685
 31
0.0
  0
LINE
  5
97DD
330
978F
100
AcDbEntity
  8
1
  6
Continuous
100
AcDbLine
 10
402.801
 20
72.68550000000002
 30
0.0
 11
383.774
 21
72.68550000000002
 31
0.0
  0
LINE
  5
97DE
330
978F
100
AcDbEntity
  8
1
  6
Continuous
100
AcDbLine
 10
399.8009999999999
 20
151.285
 30
0.0
 11
398.801
 21
151.285
 31
0.0
  0
LINE
  5
97DF
330
978F
100
AcDbEntity
  8
1
  6
Continuous
100
AcDbLine
 10
399.8009999999999
 20
144.085
 30
0.0
 11
398.801
 21
144.085
 31
0.0
  0
LINE
  5
97E0
330
978F
100
AcDbEntity
  8
1
  6
Continuous
100
AcDbLine
 10
398.801
 20
144.085
 30
0.0
 11
398.801
 21
151.285
 31
0.0
  0
LINE
  5
97E1
330
978F
100
AcDbEntity
  8
1
  6
Continuous
100
AcDbLine
 10
399.8009999999999
 20
91.28550000000002
 30
0.0
 11
398.801
 21
91.28550000000002
 31
0.0
  0
LINE
  5
97E2
330
978F
100
AcDbEntity
  8
1
  6
Continuous
100
AcDbLine
 10
399.8009999999999
 20
84.08549999999998
 30
0.0
 11
398.801
 21
84.08549999999998
 31
0.0
  0
LINE
  5
97E3
330
978F
100
AcDbEntity
  8
1
  6
Continuous
100
AcDbLine
 10
398.801
 20
84.08549999999998
 30
0.0
 11
398.801
 21
91.28550000000002
 31
0.0
  0
LINE
  5
97E4
330
978F
100
AcDbEntity
  8
1
  6
Continuous
100
AcDbLine
 10
402.801
 20
258.482
 30
0.0
 11
402.801
 21
273.482
 31
0.0
  0
LINE
  5
97E5
330
978F
100
AcDbEntity
  8
1
  6
Continuous
100
AcDbLine
 10
400.8009999999998
 20
275.482
 30
0.0
 11
318.3009999999999
 21
275.482
 31
0.0
  0
LINE
  5
97E6
330
978F
100
AcDbEntity
  8
1
  6
Continuous
100
AcDbLine
 10
400.8009999999998
 20
258.482
 30
0.0
 11
400.8009999999998
 21
273.482
 31
0.0
  0
LINE
  5
97E7
330
978F
100
AcDbEntity
  8
1
  6
Continuous
100
AcDbLine
 10
402.801
 20
258.482
 30
0.0
 11
400.8009999999998
 21
258.482
 31
0.0
  0
LINE
  5
97E8
330
978F
100
AcDbEntity
  8
1
  6
Continuous
100
AcDbLine
 10
318.3009999999999
 20
273.482
 30
0.0
 11
318.3009999999999
 21
275.482
 31
0.0
  0
LINE
  5
97E9
330
978F
100
AcDbEntity
  8
1
  6
Continuous
100
AcDbLine
 10
399.8009999999999
 20
269.0819999999998
 30
0.0
 11
398.801
 21
269.0819999999998
 31
0.0
  0
LINE
  5
97EA
330
978F
100
AcDbEntity
  8
1
  6
Continuous
100
AcDbLine
 10
399.8009999999999
 20
261.8819999999999
 30
0.0
 11
398.801
 21
261.8819999999999
 31
0.0
  0
LINE
  5
97EB
330
978F
100
AcDbEntity
  8
1
  6
Continuous
100
AcDbLine
 10
398.801
 20
261.8819999999999
 30
0.0
 11
398.801
 21
269.0819999999998
 31
0.0
  0
LINE
  5
97EC
330
978F
100
AcDbEntity
  8
1
  6
Continuous
100
AcDbLine
 10
412.8009999999998
 20
111.685
 30
0.0
 11
412.8009999999998
 21
123.685
 31
0.0
  0
LINE
  5
97ED
330
978F
100
AcDbEntity
  8
1
  6
Continuous
100
AcDbLine
 10
411.8009999999999
 20
263.482
 30
0.0
 11
402.801
 21
263.482
 31
0.0
  0
LINE
  5
97EE
330
978F
100
AcDbEntity
  8
1
  6
Continuous
100
AcDbLine
 10
404.2149999999998
 20
273.482
 30
0.0
 11
402.801
 21
273.482
 31
0.0
  0
LINE
  5
97EF
330
978F
100
AcDbEntity
  8
1
  6
Continuous
100
AcDbLine
 10
398.801
 20
263.482
 30
0.0
 11
377.3009999999999
 21
263.482
 31
0.0
  0
LINE
  5
97F0
330
978F
100
AcDbEntity
  8
1
  6
Continuous
100
AcDbLine
 10
486.561
 20
72.68550000000002
 30
0.0
 11
486.561
 21
162.685
 31
0.0
  0
LINE
  5
97F1
330
978F
100
AcDbEntity
  8
1
  6
Continuous
100
AcDbLine
 10
472.5609999999998
 20
72.68550000000002
 30
0.0
 11
486.561
 21
72.68550000000002
 31
0.0
  0
LINE
  5
97F2
330
978F
100
AcDbEntity
  8
1
  6
Continuous
100
AcDbLine
 10
472.5609999999998
 20
162.685
 30
0.0
 11
486.561
 21
162.685
 31
0.0
  0
LINE
  5
97F3
330
978F
100
AcDbEntity
  8
1
  6
Continuous
100
AcDbLine
 10
465.561
 20
157.685
 30
0.0
 11
458.5609999999999
 21
157.685
 31
0.0
  0
LINE
  5
97F4
330
978F
100
AcDbEntity
  8
1
  6
Continuous
100
AcDbLine
 10
465.561
 20
77.68550000000002
 30
0.0
 11
458.5609999999999
 21
77.68550000000002
 31
0.0
  0
LINE
  5
97F5
330
978F
100
AcDbEntity
  8
1
  6
Continuous
100
AcDbLine
 10
458.5609999999999
 20
158.685
 30
0.0
 11
458.5609999999999
 21
160.685
 31
0.0
  0
LINE
  5
97F6
330
978F
100
AcDbEntity
  8
1
  6
Continuous
100
AcDbLine
 10
458.5609999999999
 20
74.6855
 30
0.0
 11
458.5609999999999
 21
76.6855
 31
0.0
  0
LINE
  5
97F7
330
978F
100
AcDbEntity
  8
1
  6
Continuous
100
AcDbLine
 10
474.561
 20
124.685
 30
0.0
 11
474.561
 21
110.685
 31
0.0
  0
LINE
  5
97F8
330
978F
100
AcDbEntity
  8
1
  6
Continuous
100
AcDbLine
 10
484.5609999999998
 20
124.685
 30
0.0
 11
484.5609999999998
 21
110.685
 31
0.0
  0
LINE
  5
97F9
330
978F
100
AcDbEntity
  8
1
  6
Continuous
100
AcDbLine
 10
476.2679999999998
 20
122.737
 30
0.0
 11
476.2679999999998
 21
112.592
 31
0.0
  0
LINE
  5
97FA
330
978F
100
AcDbEntity
  8
1
  6
Continuous
100
AcDbLine
 10
474.561
 20
110.685
 30
0.0
 11
486.561
 21
110.685
 31
0.0
  0
LINE
  5
97FB
330
978F
100
AcDbEntity
  8
1
  6
Continuous
100
AcDbLine
 10
474.561
 20
124.685
 30
0.0
 11
486.561
 21
124.685
 31
0.0
  0
LINE
  5
97FC
330
978F
100
AcDbEntity
  8
4
  6
CENTER
100
AcDbLine
 10
472.5609999999998
 20
147.6849999999998
 30
0.0
 11
480.5609999999998
 21
147.6849999999998
 31
0.0
  0
LINE
  5
97FD
330
978F
100
AcDbEntity
  8
4
  6
CENTER
100
AcDbLine
 10
476.5609999999998
 20
143.6849999999998
 30
0.0
 11
476.5609999999998
 21
151.6849999999998
 31
0.0
  0
LINE
  5
97FE
330
978F
100
AcDbEntity
  8
4
  6
CENTER
100
AcDbLine
 10
472.5609999999998
 20
87.68550000000002
 30
0.0
 11
480.5609999999998
 21
87.68550000000002
 31
0.0
  0
LINE
  5
97FF
330
978F
100
AcDbEntity
  8
4
  6
CENTER
100
AcDbLine
 10
476.5609999999998
 20
83.6855
 30
0.0
 11
476.5609999999998
 21
91.68550000000001
 31
0.0
  0
LINE
  5
9800
330
978F
100
AcDbEntity
  8
4
  6
CENTER
100
AcDbLine
 10
394.8179999999999
 20
147.6849999999998
 30
0.0
 11
406.381
 21
147.6849999999998
 31
0.0
  0
LINE
  5
9801
330
978F
100
AcDbEntity
  8
4
  6
CENTER
100
AcDbLine
 10
394.6219999999998
 20
87.68550000000002
 30
0.0
 11
405.989
 21
87.68550000000002
 31
0.0
  0
LINE
  5
9802
330
978F
100
AcDbEntity
  8
4
  6
CENTER
100
AcDbLine
 10
361.301
 20
252.482
 30
0.0
 11
372.3009999999999
 21
252.482
 31
0.0
  0
LINE
  5
9803
330
978F
100
AcDbEntity
  8
4
  6
CENTER
100
AcDbLine
 10
366.8009999999999
 20
246.9819999999999
 30
0.0
 11
366.8009999999999
 21
257.982
 31
0.0
  0
LINE
  5
9804
330
978F
100
AcDbEntity
  8
1
  6
Continuous
100
AcDbLine
 10
319.343
 20
297.4409999999998
 30
0.0
 11
308.343
 21
297.4409999999998
 31
0.0
  0
LINE
  5
9805
330
978F
100
AcDbEntity
  8
1
  6
Continuous
100
AcDbLine
 10
308.3439999999999
 20
297.4409999999998
 30
0.0
 11
308.3439999999999
 21
279.9409999999999
 31
0.0
  0
LINE
  5
9806
330
978F
100
AcDbEntity
  8
1
  6
Continuous
100
AcDbLine
 10
306.343
 20
277.943
 30
0.0
 11
298.843
 21
277.943
 31
0.0
  0
LINE
  5
9807
330
978F
100
AcDbEntity
  8
1
  6
Continuous
100
AcDbLine
 10
306.343
 20
279.9399999999999
 30
0.0
 11
298.843
 21
279.9399999999999
 31
0.0
  0
LINE
  5
9808
330
978F
100
AcDbEntity
  8
1
  6
Continuous
100
AcDbLine
 10
306.3439999999999
 20
297.4409999999998
 30
0.0
 11
306.3439999999999
 21
279.9409999999999
 31
0.0
  0
LINE
  5
9809
330
978F
100
AcDbEntity
  8
1
  6
Continuous
100
AcDbLine
 10
319.343
 20
299.4409999999998
 30
0.0
 11
308.343
 21
299.4409999999998
 31
0.0
  0
LINE
  5
980A
330
978F
100
AcDbEntity
  8
1
  6
Continuous
100
AcDbLine
 10
298.843
 20
277.9409999999999
 30
0.0
 11
298.843
 21
279.9409999999999
 31
0.0
  0
LINE
  5
980B
330
978F
100
AcDbEntity
  8
1
  6
Continuous
100
AcDbLine
 10
319.343
 20
297.4409999999998
 30
0.0
 11
319.343
 21
299.4409999999998
 31
0.0
  0
LINE
  5
980C
330
978F
100
AcDbEntity
  8
4
  6
CENTER
100
AcDbLine
 10
493.4459999999998
 20
117.6849999999999
 30
0.0
 11
447.9739999999998
 21
117.6849999999999
 31
0.0
  0
LINE
  5
980D
330
978F
100
AcDbEntity
  8
4
  6
CENTER
100
AcDbLine
 10
421.164
 20
117.6849999999999
 30
0.0
 11
291.543
 21
117.6849999999999
 31
0.0
  0
LINE
  5
980E
330
978F
100
AcDbEntity
  8
1
  6
Continuous
100
AcDbLine
 10
297.005
 20
155.685
 30
0.0
 11
297.005
 21
79.6855
 31
0.0
  0
LINE
  5
980F
330
978F
100
AcDbEntity
  8
1
  6
Continuous
100
AcDbLine
 10
299.005
 20
157.685
 30
0.0
 11
304.377
 21
157.685
 31
0.0
  0
LINE
  5
9810
330
978F
100
AcDbEntity
  8
1
  6
Continuous
100
AcDbLine
 10
299.005
 20
77.68550000000002
 30
0.0
 11
304.377
 21
77.68550000000002
 31
0.0
  0
LINE
  5
9811
330
978F
100
AcDbEntity
  8
4
  6
CENTER
100
AcDbLine
 10
324.3009999999998
 20
270.163
 30
0.0
 11
324.3009999999998
 21
277.084
 31
0.0
  0
LINE
  5
9812
330
978F
100
AcDbEntity
  8
4
  6
CENTER
100
AcDbLine
 10
372.3009999999999
 20
270.163
 30
0.0
 11
372.3009999999999
 21
277.084
 31
0.0
  0
LINE
  5
9813
330
978F
100
AcDbEntity
  8
1
  6
Continuous
100
AcDbLine
 10
400.8009999999998
 20
162.685
 30
0.0
 11
400.8009999999998
 21
72.68550000000002
 31
0.0
  0
LINE
  5
9814
330
978F
100
AcDbEntity
  8
1
  6
Continuous
100
AcDbLine
 10
402.801
 20
162.685
 30
0.0
 11
402.801
 21
72.68550000000002
 31
0.0
  0
LINE
  5
9815
330
978F
100
AcDbEntity
  8
1
  6
Continuous
100
AcDbLine
 10
411.8009999999999
 20
110.685
 30
0.0
 11
402.801
 21
110.685
 31
0.0
  0
LINE
  5
9816
330
978F
100
AcDbEntity
  8
1
  6
Continuous
100
AcDbLine
 10
400.8009999999998
 20
110.685
 30
0.0
 11
385.753
 21
110.685
 31
0.0
  0
LINE
  5
9817
330
978F
100
AcDbEntity
  8
1
  6
Continuous
100
AcDbLine
 10
411.8009999999999
 20
124.685
 30
0.0
 11
402.801
 21
124.685
 31
0.0
  0
LINE
  5
9818
330
978F
100
AcDbEntity
  8
1
  6
Continuous
100
AcDbLine
 10
400.8009999999998
 20
124.685
 30
0.0
 11
385.753
 21
124.685
 31
0.0
  0
LINE
  5
9819
330
978F
100
AcDbEntity
  8
1
  6
Continuous
100
AcDbLine
 10
469.561
 20
159.685
 30
0.0
 11
469.561
 21
75.6855
 31
0.0
  0
LINE
  5
981A
330
978F
100
AcDbEntity
  8
5
  6
PHANTOM
100
AcDbLine
 10
380.129
 20
250.909
 30
0.0
 11
377.3009999999999
 21
254.9329999999999
 31
0.0
  0
LINE
  5
981B
330
978F
100
AcDbEntity
  8
5
  6
PHANTOM
100
AcDbLine
 10
378.4330000000001
 20
253.3229999999999
 30
0.0
 11
377.3009999999999
 21
252.5279999999999
 31
0.0
  0
LINE
  5
981C
330
978F
100
AcDbEntity
  8
5
  6
PHANTOM
100
AcDbLine
 10
362.517
 20
242.138
 30
0.0
 11
330.709
 21
219.7849999999998
 31
0.0
  0
LINE
  5
981D
330
978F
100
AcDbEntity
  8
1
  6
Continuous
100
AcDbLine
 10
254.869
 20
66.6855
 30
0.0
 11
253.0409999999999
 21
66.6855
 31
0.0
  0
LINE
  5
981E
330
978F
100
AcDbEntity
  8
1
  6
Continuous
100
AcDbLine
 10
254.869
 20
168.6849999999998
 30
0.0
 11
253.0409999999999
 21
168.6849999999998
 31
0.0
  0
LINE
  5
981F
330
978F
100
AcDbEntity
  8
1
  6
Continuous
100
AcDbLine
 10
253.0409999999999
 20
66.6855
 30
0.0
 11
253.0409999999999
 21
168.6849999999998
 31
0.0
  0
LINE
  5
9820
330
978F
100
AcDbEntity
  8
1
  6
Continuous
100
AcDbLine
 10
244.2409999999999
 20
163.185
 30
0.0
 11
253.0409999999999
 21
163.185
 31
0.0
  0
LINE
  5
9821
330
978F
100
AcDbEntity
  8
1
  6
Continuous
100
AcDbLine
 10
244.2409999999999
 20
72.1855
 30
0.0
 11
253.0409999999999
 21
72.1855
 31
0.0
  0
LINE
  5
9822
330
978F
100
AcDbEntity
  8
1
  6
Continuous
100
AcDbLine
 10
224.041
 20
72.68550000000002
 30
0.0
 11
224.041
 21
162.685
 31
0.0
  0
LINE
  5
9823
330
978F
100
AcDbEntity
  8
1
  6
Continuous
100
AcDbLine
 10
238.0409999999999
 20
72.68550000000002
 30
0.0
 11
224.041
 21
72.68550000000002
 31
0.0
  0
LINE
  5
9824
330
978F
100
AcDbEntity
  8
1
  6
Continuous
100
AcDbLine
 10
238.0409999999999
 20
162.685
 30
0.0
 11
224.041
 21
162.685
 31
0.0
  0
LINE
  5
9825
330
978F
100
AcDbEntity
  8
4
  6
CENTER
100
AcDbLine
 10
217.1559999999999
 20
117.6849999999999
 30
0.0
 11
262.6279999999998
 21
117.6849999999999
 31
0.0
  0
LINE
  5
9826
330
978F
100
AcDbEntity
  8
1
  6
Continuous
100
AcDbLine
 10
236.241
 20
80.18550000000002
 30
0.0
 11
236.241
 21
87.68550000000002
 31
0.0
  0
LINE
  5
9827
330
978F
100
AcDbEntity
  8
1
  6
Continuous
100
AcDbLine
 10
226.0409999999999
 20
108.0849999999998
 30
0.0
 11
233.041
 21
108.0849999999998
 31
0.0
  0
LINE
  5
9828
330
978F
100
AcDbEntity
  8
1
  6
Continuous
100
AcDbLine
 10
226.0409999999999
 20
127.285
 30
0.0
 11
233.041
 21
127.285
 31
0.0
  0
LINE
  5
9829
330
978F
100
AcDbEntity
  8
4
  6
CENTER
100
AcDbLine
 10
221.1149999999999
 20
147.6849999999998
 30
0.0
 11
234.0409999999998
 21
147.6849999999998
 31
0.0
  0
LINE
  5
982A
330
978F
100
AcDbEntity
  8
4
  6
CENTER
100
AcDbLine
 10
220.8159999999999
 20
87.68550000000002
 30
0.0
 11
234.0409999999998
 21
87.68550000000002
 31
0.0
  0
LINE
  5
982B
330
978F
100
AcDbEntity
  8
1
  6
Continuous
100
AcDbLine
 10
226.0409999999999
 20
82.68550000000002
 30
0.0
 11
236.241
 21
82.68550000000002
 31
0.0
  0
LINE
  5
982C
330
978F
100
AcDbEntity
  8
1
  6
Continuous
100
AcDbLine
 10
226.0409999999999
 20
92.68550000000001
 30
0.0
 11
233.041
 21
92.68550000000001
 31
0.0
  0
LINE
  5
982D
330
978F
100
AcDbEntity
  8
1
  6
Continuous
100
AcDbLine
 10
226.0409999999999
 20
142.6849999999998
 30
0.0
 11
233.041
 21
142.6849999999998
 31
0.0
  0
LINE
  5
982E
330
978F
100
AcDbEntity
  8
1
  6
Continuous
100
AcDbLine
 10
226.0409999999999
 20
152.685
 30
0.0
 11
236.241
 21
152.685
 31
0.0
  0
LINE
  5
982F
330
978F
100
AcDbEntity
  8
4
  6
CENTER
100
AcDbLine
 10
219.903
 20
100.185
 30
0.0
 11
236.1349999999999
 21
100.185
 31
0.0
  0
LINE
  5
9830
330
978F
100
AcDbEntity
  8
4
  6
CENTER
100
AcDbLine
 10
220.9709999999998
 20
135.1849999999998
 30
0.0
 11
236.99
 21
135.1849999999998
 31
0.0
  0
LINE
  5
9831
330
978F
100
AcDbEntity
  8
1
  6
Continuous
100
AcDbLine
 10
233.041
 20
88.6855
 30
0.0
 11
233.041
 21
108.0849999999998
 31
0.0
  0
LINE
  5
9832
330
978F
100
AcDbEntity
  8
1
  6
Continuous
100
AcDbLine
 10
226.0409999999999
 20
72.68550000000002
 30
0.0
 11
226.0409999999999
 21
162.685
 31
0.0
  0
LINE
  5
9833
330
978F
100
AcDbEntity
  8
1
  6
Continuous
100
AcDbLine
 10
234.0409999999998
 20
137.685
 30
0.0
 11
253.0409999999999
 21
137.685
 31
0.0
  0
LINE
  5
9834
330
978F
100
AcDbEntity
  8
1
  6
Continuous
100
AcDbLine
 10
234.0409999999998
 20
97.68550000000001
 30
0.0
 11
253.0409999999999
 21
97.68550000000001
 31
0.0
  0
LINE
  5
9835
330
978F
100
AcDbEntity
  8
1
  6
Continuous
100
AcDbLine
 10
234.0409999999998
 20
87.68550000000002
 30
0.0
 11
253.0409999999999
 21
87.68550000000002
 31
0.0
  0
LINE
  5
9836
330
978F
100
AcDbEntity
  8
1
  6
Continuous
100
AcDbLine
 10
234.0409999999998
 20
147.6849999999998
 30
0.0
 11
253.0409999999999
 21
147.6849999999998
 31
0.0
  0
LINE
  5
9837
330
978F
100
AcDbEntity
  8
1
  6
Continuous
100
AcDbLine
 10
236.241
 20
147.6849999999998
 30
0.0
 11
236.241
 21
155.1849999999998
 31
0.0
  0
LINE
  5
9838
330
978F
100
AcDbEntity
  8
1
  6
Continuous
100
AcDbLine
 10
233.041
 20
127.285
 30
0.0
 11
233.041
 21
146.6849999999998
 31
0.0
  0
LINE
  5
9839
330
978F
100
AcDbEntity
  8
1
  6
Continuous
100
AcDbLine
 10
202.1329999999999
 20
157.685
 30
0.0
 11
202.1329999999999
 21
77.68550000000002
 31
0.0
  0
LINE
  5
983A
330
978F
100
AcDbEntity
  8
1
  6
Continuous
100
AcDbLine
 10
200.1329999999999
 20
157.685
 30
0.0
 11
200.1329999999999
 21
77.68550000000002
 31
0.0
  0
LINE
  5
983B
330
978F
100
AcDbEntity
  8
1
  6
Continuous
100
AcDbLine
 10
180.6329999999999
 20
157.685
 30
0.0
 11
180.6329999999999
 21
77.68550000000002
 31
0.0
  0
LINE
  5
983C
330
978F
100
AcDbEntity
  8
1
  6
Continuous
100
AcDbLine
 10
202.1329999999999
 20
157.685
 30
0.0
 11
180.6329999999999
 21
157.685
 31
0.0
  0
LINE
  5
983D
330
978F
100
AcDbEntity
  8
1
  6
Continuous
100
AcDbLine
 10
202.1329999999999
 20
77.68550000000002
 30
0.0
 11
180.6329999999999
 21
77.68550000000002
 31
0.0
  0
LINE
  5
983E
330
978F
100
AcDbEntity
  8
4
  6
CENTER
100
AcDbLine
 10
313.343
 20
261.329
 30
0.0
 11
313.343
 21
271.2269999999999
 31
0.0
  0
LINE
  5
983F
330
978F
100
AcDbEntity
  8
4
  6
CENTER
100
AcDbLine
 10
313.343
 20
293.5809999999999
 30
0.0
 11
313.343
 21
306.721
 31
0.0
  0
LINE
  5
9840
330
978F
100
AcDbEntity
  8
4
  6
CENTER
100
AcDbLine
 10
206.6289999999999
 20
117.6849999999999
 30
0.0
 11
175.06
 21
117.6849999999999
 31
0.0
  0
LINE
  5
9841
330
978F
100
AcDbEntity
  8
4
  6
CENTER
100
AcDbLine
 10
183.6329999999999
 20
142.6849999999998
 30
0.0
 11
173.233
 21
142.6849999999998
 31
0.0
  0
LINE
  5
9842
330
978F
100
AcDbEntity
  8
4
  6
CENTER
100
AcDbLine
 10
183.6329999999999
 20
92.68550000000001
 30
0.0
 11
173.233
 21
92.68550000000001
 31
0.0
  0
LINE
  5
9843
330
978F
100
AcDbEntity
  8
1
  6
Continuous
100
AcDbLine
 10
179.8329999999999
 20
87.68550000000002
 30
0.0
 11
179.8329999999999
 21
97.68550000000001
 31
0.0
  0
LINE
  5
9844
330
978F
100
AcDbEntity
  8
1
  6
Continuous
100
AcDbLine
 10
178.833
 20
88.88549999999998
 30
0.0
 11
178.833
 21
96.4855
 31
0.0
  0
LINE
  5
9845
330
978F
100
AcDbEntity
  8
1
  6
Continuous
100
AcDbLine
 10
178.833
 20
92.22410000000001
 30
0.0
 11
179.8329999999999
 21
93.06319999999999
 31
0.0
  0
LINE
  5
9846
330
978F
100
AcDbEntity
  8
1
  6
Continuous
100
AcDbLine
 10
178.833
 20
89.18550000000001
 30
0.0
 11
177.714
 21
89.2834
 31
0.0
  0
LINE
  5
9847
330
978F
100
AcDbEntity
  8
1
  6
Continuous
100
AcDbLine
 10
178.833
 20
96.1855
 30
0.0
 11
177.714
 21
96.0876
 31
0.0
  0
LINE
  5
9848
330
978F
100
AcDbEntity
  8
1
  6
Continuous
100
AcDbLine
 10
53.965
 20
72.1855
 30
0.0
 11
53.965
 21
72.68550000000002
 31
0.0
  0
LINE
  5
9849
330
978F
100
AcDbEntity
  8
1
  6
Continuous
100
AcDbLine
 10
28.465
 20
162.685
 30
0.0
 11
109.965
 21
162.685
 31
0.0
  0
LINE
  5
984A
330
978F
100
AcDbEntity
  8
1
  6
Continuous
100
AcDbLine
 10
28.465
 20
72.68550000000002
 30
0.0
 11
109.965
 21
72.68550000000002
 31
0.0
  0
LINE
  5
984B
330
978F
100
AcDbEntity
  8
1
  6
Continuous
100
AcDbLine
 10
18.46499999999998
 20
111.685
 30
0.0
 11
18.46499999999998
 21
123.685
 31
0.0
  0
LINE
  5
984C
330
978F
100
AcDbEntity
  8
4
  6
CENTER
100
AcDbLine
 10
34.03739999999999
 20
147.6849999999998
 30
0.0
 11
23.22529999999999
 21
147.6849999999998
 31
0.0
  0
LINE
  5
984D
330
978F
100
AcDbEntity
  8
4
  6
CENTER
100
AcDbLine
 10
33.7971
 20
87.68550000000002
 30
0.0
 11
23.4655
 21
87.68550000000002
 31
0.0
  0
LINE
  5
984E
330
978F
100
AcDbEntity
  8
4
  6
CENTER
100
AcDbLine
 10
10.1024
 20
117.6849999999999
 30
0.0
 11
139.7229999999999
 21
117.6849999999999
 31
0.0
  0
LINE
  5
984F
330
978F
100
AcDbEntity
  8
1
  6
Continuous
100
AcDbLine
 10
113.761
 20
79.6855
 30
0.0
 11
113.761
 21
105.685
 31
0.0
  0
LINE
  5
9850
330
978F
100
AcDbEntity
  8
1
  6
Continuous
100
AcDbLine
 10
115.761
 20
77.68550000000002
 30
0.0
 11
132.261
 21
77.68550000000002
 31
0.0
  0
LINE
  5
9851
330
978F
100
AcDbEntity
  8
1
  6
Continuous
100
AcDbLine
 10
115.761
 20
157.685
 30
0.0
 11
132.261
 21
157.685
 31
0.0
  0
LINE
  5
9852
330
978F
100
AcDbEntity
  8
1
  6
Continuous
100
AcDbLine
 10
28.465
 20
162.685
 30
0.0
 11
28.465
 21
124.685
 31
0.0
  0
LINE
  5
9853
330
978F
100
AcDbEntity
  8
1
  6
Continuous
100
AcDbLine
 10
19.465
 20
110.685
 30
0.0
 11
30.46499999999999
 21
110.685
 31
0.0
  0
LINE
  5
9854
330
978F
100
AcDbEntity
  8
1
  6
Continuous
100
AcDbLine
 10
19.465
 20
124.685
 30
0.0
 11
30.46499999999999
 21
124.685
 31
0.0
  0
LINE
  5
9855
330
978F
100
AcDbEntity
  8
1
  6
Continuous
100
AcDbLine
 10
134.261
 20
79.6855
 30
0.0
 11
134.261
 21
155.685
 31
0.0
  0
LINE
  5
9856
330
978F
100
AcDbEntity
  8
1
  6
Continuous
100
AcDbLine
 10
118.761
 20
107.685
 30
0.0
 11
115.761
 21
107.685
 31
0.0
  0
LINE
  5
9857
330
978F
100
AcDbEntity
  8
1
  6
Continuous
100
AcDbLine
 10
118.761
 20
127.685
 30
0.0
 11
115.761
 21
127.685
 31
0.0
  0
LINE
  5
9858
330
978F
100
AcDbEntity
  8
1
  6
Continuous
100
AcDbLine
 10
118.761
 20
107.685
 30
0.0
 11
118.761
 21
127.685
 31
0.0
  0
LINE
  5
9859
330
978F
100
AcDbEntity
  8
1
  6
Continuous
100
AcDbLine
 10
113.761
 20
129.685
 30
0.0
 11
113.761
 21
155.685
 31
0.0
  0
LINE
  5
985A
330
978F
100
AcDbEntity
  8
1
  6
Continuous
100
AcDbLine
 10
115.965
 20
163.185
 30
0.0
 11
53.965
 21
163.185
 31
0.0
  0
LINE
  5
985B
330
978F
100
AcDbEntity
  8
1
  6
Continuous
100
AcDbLine
 10
115.965
 20
72.1855
 30
0.0
 11
53.965
 21
72.1855
 31
0.0
  0
LINE
  5
985C
330
978F
100
AcDbEntity
  8
1
  6
Continuous
100
AcDbLine
 10
119.089
 20
143.357
 30
0.0
 11
118.5819999999999
 21
143.121
 31
0.0
  0
LINE
  5
985D
330
978F
100
AcDbEntity
  8
1
  6
Continuous
100
AcDbLine
 10
118.5819999999999
 20
143.121
 30
0.0
 11
117.703
 21
143.1049999999999
 31
0.0
  0
LINE
  5
985E
330
978F
100
AcDbEntity
  8
1
  6
Continuous
100
AcDbLine
 10
118.5819999999999
 20
142.25
 30
0.0
 11
117.703
 21
142.2649999999999
 31
0.0
  0
LINE
  5
985F
330
978F
100
AcDbEntity
  8
1
  6
Continuous
100
AcDbLine
 10
119.089
 20
142.014
 30
0.0
 11
118.5819999999999
 21
142.25
 31
0.0
  0
LINE
  5
9860
330
978F
100
AcDbEntity
  8
1
  6
Continuous
100
AcDbLine
 10
120.432
 20
142.014
 30
0.0
 11
120.1959999999999
 21
141.507
 31
0.0
  0
LINE
  5
9861
330
978F
100
AcDbEntity
  8
1
  6
Continuous
100
AcDbLine
 10
120.1959999999999
 20
141.507
 30
0.0
 11
120.181
 21
140.6279999999999
 31
0.0
  0
LINE
  5
9862
330
978F
100
AcDbEntity
  8
1
  6
Continuous
100
AcDbLine
 10
119.325
 20
141.507
 30
0.0
 11
119.3409999999999
 21
140.6279999999999
 31
0.0
  0
LINE
  5
9863
330
978F
100
AcDbEntity
  8
1
  6
Continuous
100
AcDbLine
 10
119.089
 20
142.014
 30
0.0
 11
119.325
 21
141.507
 31
0.0
  0
LINE
  5
9864
330
978F
100
AcDbEntity
  8
1
  6
Continuous
100
AcDbLine
 10
120.432
 20
143.357
 30
0.0
 11
120.9389999999998
 21
143.121
 31
0.0
  0
LINE
  5
9865
330
978F
100
AcDbEntity
  8
1
  6
Continuous
100
AcDbLine
 10
120.9389999999998
 20
143.121
 30
0.0
 11
121.818
 21
143.1049999999999
 31
0.0
  0
LINE
  5
9866
330
978F
100
AcDbEntity
  8
1
  6
Continuous
100
AcDbLine
 10
120.9389999999998
 20
142.25
 30
0.0
 11
121.818
 21
142.2649999999999
 31
0.0
  0
LINE
  5
9867
330
978F
100
AcDbEntity
  8
1
  6
Continuous
100
AcDbLine
 10
120.432
 20
142.014
 30
0.0
 11
120.9389999999998
 21
142.25
 31
0.0
  0
LINE
  5
9868
330
978F
100
AcDbEntity
  8
1
  6
Continuous
100
AcDbLine
 10
119.089
 20
143.357
 30
0.0
 11
119.325
 21
143.864
 31
0.0
  0
LINE
  5
9869
330
978F
100
AcDbEntity
  8
1
  6
Continuous
100
AcDbLine
 10
119.325
 20
143.864
 30
0.0
 11
119.3409999999999
 21
144.7429999999999
 31
0.0
  0
LINE
  5
986A
330
978F
100
AcDbEntity
  8
1
  6
Continuous
100
AcDbLine
 10
120.1959999999999
 20
143.864
 30
0.0
 11
120.181
 21
144.7429999999999
 31
0.0
  0
LINE
  5
986B
330
978F
100
AcDbEntity
  8
1
  6
Continuous
100
AcDbLine
 10
120.432
 20
143.357
 30
0.0
 11
120.1959999999999
 21
143.864
 31
0.0
  0
LINE
  5
986C
330
978F
100
AcDbEntity
  8
1
  6
Continuous
100
AcDbLine
 10
119.089
 20
93.3571
 30
0.0
 11
118.5819999999999
 21
93.12079999999999
 31
0.0
  0
LINE
  5
986D
330
978F
100
AcDbEntity
  8
1
  6
Continuous
100
AcDbLine
 10
118.5819999999999
 20
93.12079999999999
 30
0.0
 11
117.703
 21
93.1055
 31
0.0
  0
LINE
  5
986E
330
978F
100
AcDbEntity
  8
1
  6
Continuous
100
AcDbLine
 10
118.5819999999999
 20
92.25010000000001
 30
0.0
 11
117.703
 21
92.26550000000001
 31
0.0
  0
LINE
  5
986F
330
978F
100
AcDbEntity
  8
1
  6
Continuous
100
AcDbLine
 10
119.089
 20
92.0138
 30
0.0
 11
118.5819999999999
 21
92.25010000000001
 31
0.0
  0
LINE
  5
9870
330
978F
100
AcDbEntity
  8
1
  6
Continuous
100
AcDbLine
 10
120.432
 20
92.0138
 30
0.0
 11
120.1959999999999
 21
91.5071
 31
0.0
  0
LINE
  5
9871
330
978F
100
AcDbEntity
  8
1
  6
Continuous
100
AcDbLine
 10
120.1959999999999
 20
91.5071
 30
0.0
 11
120.181
 21
90.62789999999999
 31
0.0
  0
LINE
  5
9872
330
978F
100
AcDbEntity
  8
1
  6
Continuous
100
AcDbLine
 10
119.325
 20
91.5071
 30
0.0
 11
119.3409999999999
 21
90.62789999999999
 31
0.0
  0
LINE
  5
9873
330
978F
100
AcDbEntity
  8
1
  6
Continuous
100
AcDbLine
 10
119.089
 20
92.0138
 30
0.0
 11
119.325
 21
91.5071
 31
0.0
  0
LINE
  5
9874
330
978F
100
AcDbEntity
  8
1
  6
Continuous
100
AcDbLine
 10
120.432
 20
93.3571
 30
0.0
 11
120.9389999999998
 21
93.12079999999999
 31
0.0
  0
LINE
  5
9875
330
978F
100
AcDbEntity
  8
1
  6
Continuous
100
AcDbLine
 10
120.9389999999998
 20
93.12079999999999
 30
0.0
 11
121.818
 21
93.1055
 31
0.0
  0
LINE
  5
9876
330
978F
100
AcDbEntity
  8
1
  6
Continuous
100
AcDbLine
 10
120.9389999999998
 20
92.25010000000001
 30
0.0
 11
121.818
 21
92.26550000000001
 31
0.0
  0
LINE
  5
9877
330
978F
100
AcDbEntity
  8
1
  6
Continuous
100
AcDbLine
 10
120.432
 20
92.0138
 30
0.0
 11
120.9389999999998
 21
92.25010000000001
 31
0.0
  0
LINE
  5
9878
330
978F
100
AcDbEntity
  8
1
  6
Continuous
100
AcDbLine
 10
119.089
 20
93.3571
 30
0.0
 11
119.325
 21
93.8638
 31
0.0
  0
LINE
  5
9879
330
978F
100
AcDbEntity
  8
1
  6
Continuous
100
AcDbLine
 10
119.325
 20
93.8638
 30
0.0
 11
119.3409999999999
 21
94.74299999999999
 31
0.0
  0
LINE
  5
987A
330
978F
100
AcDbEntity
  8
1
  6
Continuous
100
AcDbLine
 10
120.1959999999999
 20
93.8638
 30
0.0
 11
120.181
 21
94.74299999999999
 31
0.0
  0
LINE
  5
987B
330
978F
100
AcDbEntity
  8
1
  6
Continuous
100
AcDbLine
 10
120.432
 20
93.3571
 30
0.0
 11
120.1959999999999
 21
93.8638
 31
0.0
  0
LINE
  5
987C
330
978F
100
AcDbEntity
  8
4
  6
CENTER
100
AcDbLine
 10
113.261
 20
142.6849999999998
 30
0.0
 11
126.261
 21
142.6849999999998
 31
0.0
  0
LINE
  5
987D
330
978F
100
AcDbEntity
  8
4
  6
CENTER
100
AcDbLine
 10
119.761
 20
136.185
 30
0.0
 11
119.761
 21
149.185
 31
0.0
  0
LINE
  5
987E
330
978F
100
AcDbEntity
  8
4
  6
CENTER
100
AcDbLine
 10
113.261
 20
92.68550000000001
 30
0.0
 11
126.261
 21
92.68550000000001
 31
0.0
  0
LINE
  5
987F
330
978F
100
AcDbEntity
  8
4
  6
CENTER
100
AcDbLine
 10
119.761
 20
86.1855
 30
0.0
 11
119.761
 21
99.18550000000001
 31
0.0
  0
LINE
  5
9880
330
978F
100
AcDbEntity
  8
1
  6
Continuous
100
AcDbLine
 10
28.465
 20
110.485
 30
0.0
 11
30.46499999999999
 21
110.485
 31
0.0
  0
LINE
  5
9881
330
978F
100
AcDbEntity
  8
1
  6
Continuous
100
AcDbLine
 10
28.465
 20
124.885
 30
0.0
 11
30.46499999999999
 21
124.885
 31
0.0
  0
LINE
  5
9882
330
978F
100
AcDbEntity
  8
1
  6
Continuous
100
AcDbLine
 10
30.46499999999999
 20
124.885
 30
0.0
 11
30.46499999999999
 21
110.485
 31
0.0
  0
LINE
  5
9883
330
978F
100
AcDbEntity
  8
1
  6
Continuous
100
AcDbLine
 10
112.965
 20
159.685
 30
0.0
 11
112.965
 21
75.6855
 31
0.0
  0
LINE
  5
9884
330
978F
100
AcDbEntity
  8
1
  6
Continuous
100
AcDbLine
 10
53.965
 20
162.685
 30
0.0
 11
53.965
 21
163.185
 31
0.0
  0
LINE
  5
9885
330
978F
100
AcDbEntity
  8
1
  6
Continuous
100
AcDbLine
 10
58.2719
 20
148.3789999999999
 30
0.0
 11
57.7226
 21
148.122
 31
0.0
  0
LINE
  5
9886
330
978F
100
AcDbEntity
  8
1
  6
Continuous
100
AcDbLine
 10
57.7226
 20
148.122
 30
0.0
 11
56.7545
 21
148.1049999999999
 31
0.0
  0
LINE
  5
9887
330
978F
100
AcDbEntity
  8
1
  6
Continuous
100
AcDbLine
 10
57.7226
 20
147.249
 30
0.0
 11
56.75460000000001
 21
147.2649999999999
 31
0.0
  0
LINE
  5
9888
330
978F
100
AcDbEntity
  8
1
  6
Continuous
100
AcDbLine
 10
58.2719
 20
146.9919999999999
 30
0.0
 11
57.7226
 21
147.249
 31
0.0
  0
LINE
  5
9889
330
978F
100
AcDbEntity
  8
1
  6
Continuous
100
AcDbLine
 10
59.658
 20
146.9919999999999
 30
0.0
 11
59.4019
 21
146.4429999999999
 31
0.0
  0
LINE
  5
988A
330
978F
100
AcDbEntity
  8
1
  6
Continuous
100
AcDbLine
 10
59.4019
 20
146.4429999999999
 30
0.0
 11
59.385
 21
145.4749999999999
 31
0.0
  0
LINE
  5
988B
330
978F
100
AcDbEntity
  8
1
  6
Continuous
100
AcDbLine
 10
58.5281
 20
146.4429999999999
 30
0.0
 11
58.545
 21
145.4749999999999
 31
0.0
  0
LINE
  5
988C
330
978F
100
AcDbEntity
  8
1
  6
Continuous
100
AcDbLine
 10
58.2719
 20
146.9919999999999
 30
0.0
 11
58.5281
 21
146.4429999999999
 31
0.0
  0
LINE
  5
988D
330
978F
100
AcDbEntity
  8
1
  6
Continuous
100
AcDbLine
 10
59.658
 20
148.3789999999999
 30
0.0
 11
60.20739999999999
 21
148.122
 31
0.0
  0
LINE
  5
988E
330
978F
100
AcDbEntity
  8
1
  6
Continuous
100
AcDbLine
 10
60.20739999999999
 20
148.122
 30
0.0
 11
61.1755
 21
148.1049999999999
 31
0.0
  0
LINE
  5
988F
330
978F
100
AcDbEntity
  8
1
  6
Continuous
100
AcDbLine
 10
60.20739999999999
 20
147.249
 30
0.0
 11
61.1754
 21
147.2649999999999
 31
0.0
  0
LINE
  5
9890
330
978F
100
AcDbEntity
  8
1
  6
Continuous
100
AcDbLine
 10
59.658
 20
146.9919999999999
 30
0.0
 11
60.2073
 21
147.249
 31
0.0
  0
LINE
  5
9891
330
978F
100
AcDbEntity
  8
1
  6
Continuous
100
AcDbLine
 10
58.2719
 20
148.3789999999999
 30
0.0
 11
58.5281
 21
148.9279999999999
 31
0.0
  0
LINE
  5
9892
330
978F
100
AcDbEntity
  8
1
  6
Continuous
100
AcDbLine
 10
58.5281
 20
148.9279999999999
 30
0.0
 11
58.545
 21
149.8959999999999
 31
0.0
  0
LINE
  5
9893
330
978F
100
AcDbEntity
  8
1
  6
Continuous
100
AcDbLine
 10
59.4019
 20
148.9279999999999
 30
0.0
 11
59.385
 21
149.8959999999999
 31
0.0
  0
LINE
  5
9894
330
978F
100
AcDbEntity
  8
1
  6
Continuous
100
AcDbLine
 10
59.658
 20
148.3789999999999
 30
0.0
 11
59.4019
 21
148.9279999999999
 31
0.0
  0
LINE
  5
9895
330
978F
100
AcDbEntity
  8
1
  6
Continuous
100
AcDbLine
 10
58.2719
 20
88.37850000000001
 30
0.0
 11
57.7226
 21
88.1224
 31
0.0
  0
LINE
  5
9896
330
978F
100
AcDbEntity
  8
1
  6
Continuous
100
AcDbLine
 10
57.7226
 20
88.1224
 30
0.0
 11
56.7545
 21
88.1055
 31
0.0
  0
LINE
  5
9897
330
978F
100
AcDbEntity
  8
1
  6
Continuous
100
AcDbLine
 10
57.7226
 20
87.24859999999997
 30
0.0
 11
56.7545
 21
87.26550000000001
 31
0.0
  0
LINE
  5
9898
330
978F
100
AcDbEntity
  8
1
  6
Continuous
100
AcDbLine
 10
58.2719
 20
86.99240000000001
 30
0.0
 11
57.7226
 21
87.24859999999997
 31
0.0
  0
LINE
  5
9899
330
978F
100
AcDbEntity
  8
1
  6
Continuous
100
AcDbLine
 10
59.658
 20
86.99240000000001
 30
0.0
 11
59.4019
 21
86.4431
 31
0.0
  0
LINE
  5
989A
330
978F
100
AcDbEntity
  8
1
  6
Continuous
100
AcDbLine
 10
59.4019
 20
86.4431
 30
0.0
 11
59.385
 21
85.47499999999997
 31
0.0
  0
LINE
  5
989B
330
978F
100
AcDbEntity
  8
1
  6
Continuous
100
AcDbLine
 10
58.5281
 20
86.4431
 30
0.0
 11
58.545
 21
85.47499999999997
 31
0.0
  0
LINE
  5
989C
330
978F
100
AcDbEntity
  8
1
  6
Continuous
100
AcDbLine
 10
58.2719
 20
86.99240000000001
 30
0.0
 11
58.5281
 21
86.4431
 31
0.0
  0
LINE
  5
989D
330
978F
100
AcDbEntity
  8
1
  6
Continuous
100
AcDbLine
 10
59.658
 20
88.37850000000001
 30
0.0
 11
60.2073
 21
88.1224
 31
0.0
  0
LINE
  5
989E
330
978F
100
AcDbEntity
  8
1
  6
Continuous
100
AcDbLine
 10
60.2073
 20
88.1224
 30
0.0
 11
61.1754
 21
88.1055
 31
0.0
  0
LINE
  5
989F
330
978F
100
AcDbEntity
  8
1
  6
Continuous
100
AcDbLine
 10
60.2073
 20
87.24859999999997
 30
0.0
 11
61.1754
 21
87.26550000000001
 31
0.0
  0
LINE
  5
98A0
330
978F
100
AcDbEntity
  8
1
  6
Continuous
100
AcDbLine
 10
59.658
 20
86.99240000000001
 30
0.0
 11
60.20739999999999
 21
87.24859999999997
 31
0.0
  0
LINE
  5
98A1
330
978F
100
AcDbEntity
  8
1
  6
Continuous
100
AcDbLine
 10
58.2719
 20
88.37850000000001
 30
0.0
 11
58.5281
 21
88.9278
 31
0.0
  0
LINE
  5
98A2
330
978F
100
AcDbEntity
  8
1
  6
Continuous
100
AcDbLine
 10
58.5281
 20
88.9278
 30
0.0
 11
58.545
 21
89.89589999999996
 31
0.0
  0
LINE
  5
98A3
330
978F
100
AcDbEntity
  8
1
  6
Continuous
100
AcDbLine
 10
59.4019
 20
88.9278
 30
0.0
 11
59.385
 21
89.89589999999996
 31
0.0
  0
LINE
  5
98A4
330
978F
100
AcDbEntity
  8
1
  6
Continuous
100
AcDbLine
 10
59.658
 20
88.37850000000001
 30
0.0
 11
59.4019
 21
88.9278
 31
0.0
  0
LINE
  5
98A5
330
978F
100
AcDbEntity
  8
1
  6
Continuous
100
AcDbLine
 10
106.272
 20
135.8789999999999
 30
0.0
 11
105.723
 21
135.622
 31
0.0
  0
LINE
  5
98A6
330
978F
100
AcDbEntity
  8
1
  6
Continuous
100
AcDbLine
 10
105.723
 20
135.622
 30
0.0
 11
104.7549999999999
 21
135.6049999999999
 31
0.0
  0
LINE
  5
98A7
330
978F
100
AcDbEntity
  8
1
  6
Continuous
100
AcDbLine
 10
105.723
 20
134.749
 30
0.0
 11
104.7549999999999
 21
134.7649999999999
 31
0.0
  0
LINE
  5
98A8
330
978F
100
AcDbEntity
  8
1
  6
Continuous
100
AcDbLine
 10
106.272
 20
134.4919999999999
 30
0.0
 11
105.723
 21
134.749
 31
0.0
  0
LINE
  5
98A9
330
978F
100
AcDbEntity
  8
1
  6
Continuous
100
AcDbLine
 10
107.6579999999998
 20
134.4919999999999
 30
0.0
 11
107.4019999999999
 21
133.9429999999999
 31
0.0
  0
LINE
  5
98AA
330
978F
100
AcDbEntity
  8
1
  6
Continuous
100
AcDbLine
 10
107.4019999999999
 20
133.9429999999999
 30
0.0
 11
107.3849999999999
 21
132.9749999999999
 31
0.0
  0
LINE
  5
98AB
330
978F
100
AcDbEntity
  8
1
  6
Continuous
100
AcDbLine
 10
106.528
 20
133.9429999999999
 30
0.0
 11
106.545
 21
132.9749999999999
 31
0.0
  0
LINE
  5
98AC
330
978F
100
AcDbEntity
  8
1
  6
Continuous
100
AcDbLine
 10
106.272
 20
134.4919999999999
 30
0.0
 11
106.528
 21
133.9429999999999
 31
0.0
  0
LINE
  5
98AD
330
978F
100
AcDbEntity
  8
1
  6
Continuous
100
AcDbLine
 10
107.6579999999998
 20
135.8789999999999
 30
0.0
 11
108.2069999999999
 21
135.622
 31
0.0
  0
LINE
  5
98AE
330
978F
100
AcDbEntity
  8
1
  6
Continuous
100
AcDbLine
 10
108.2069999999999
 20
135.622
 30
0.0
 11
109.175
 21
135.6049999999999
 31
0.0
  0
LINE
  5
98AF
330
978F
100
AcDbEntity
  8
1
  6
Continuous
100
AcDbLine
 10
108.2069999999999
 20
134.749
 30
0.0
 11
109.175
 21
134.7649999999999
 31
0.0
  0
LINE
  5
98B0
330
978F
100
AcDbEntity
  8
1
  6
Continuous
100
AcDbLine
 10
107.6579999999998
 20
134.4919999999999
 30
0.0
 11
108.2069999999999
 21
134.749
 31
0.0
  0
LINE
  5
98B1
330
978F
100
AcDbEntity
  8
1
  6
Continuous
100
AcDbLine
 10
106.272
 20
135.8789999999999
 30
0.0
 11
106.528
 21
136.4279999999999
 31
0.0
  0
LINE
  5
98B2
330
978F
100
AcDbEntity
  8
1
  6
Continuous
100
AcDbLine
 10
106.528
 20
136.4279999999999
 30
0.0
 11
106.545
 21
137.3959999999999
 31
0.0
  0
LINE
  5
98B3
330
978F
100
AcDbEntity
  8
1
  6
Continuous
100
AcDbLine
 10
107.4019999999999
 20
136.4279999999999
 30
0.0
 11
107.3849999999999
 21
137.3959999999999
 31
0.0
  0
LINE
  5
98B4
330
978F
100
AcDbEntity
  8
1
  6
Continuous
100
AcDbLine
 10
107.6579999999998
 20
135.8789999999999
 30
0.0
 11
107.4019999999999
 21
136.4279999999999
 31
0.0
  0
LINE
  5
98B5
330
978F
100
AcDbEntity
  8
1
  6
Continuous
100
AcDbLine
 10
106.272
 20
100.8789999999999
 30
0.0
 11
105.723
 21
100.622
 31
0.0
  0
LINE
  5
98B6
330
978F
100
AcDbEntity
  8
1
  6
Continuous
100
AcDbLine
 10
105.723
 20
100.622
 30
0.0
 11
104.7549999999999
 21
100.605
 31
0.0
  0
LINE
  5
98B7
330
978F
100
AcDbEntity
  8
1
  6
Continuous
100
AcDbLine
 10
105.723
 20
99.74859999999999
 30
0.0
 11
104.7549999999999
 21
99.76550000000001
 31
0.0
  0
LINE
  5
98B8
330
978F
100
AcDbEntity
  8
1
  6
Continuous
100
AcDbLine
 10
106.272
 20
99.49240000000001
 30
0.0
 11
105.723
 21
99.74859999999999
 31
0.0
  0
LINE
  5
98B9
330
978F
100
AcDbEntity
  8
1
  6
Continuous
100
AcDbLine
 10
107.6579999999998
 20
99.49240000000001
 30
0.0
 11
107.4019999999999
 21
98.9431
 31
0.0
  0
LINE
  5
98BA
330
978F
100
AcDbEntity
  8
1
  6
Continuous
100
AcDbLine
 10
107.4019999999999
 20
98.9431
 30
0.0
 11
107.3849999999999
 21
97.97499999999999
 31
0.0
  0
LINE
  5
98BB
330
978F
100
AcDbEntity
  8
1
  6
Continuous
100
AcDbLine
 10
106.528
 20
98.9431
 30
0.0
 11
106.545
 21
97.97499999999999
 31
0.0
  0
LINE
  5
98BC
330
978F
100
AcDbEntity
  8
1
  6
Continuous
100
AcDbLine
 10
106.272
 20
99.49240000000001
 30
0.0
 11
106.528
 21
98.9431
 31
0.0
  0
LINE
  5
98BD
330
978F
100
AcDbEntity
  8
1
  6
Continuous
100
AcDbLine
 10
107.6579999999998
 20
100.8789999999999
 30
0.0
 11
108.2069999999999
 21
100.622
 31
0.0
  0
LINE
  5
98BE
330
978F
100
AcDbEntity
  8
1
  6
Continuous
100
AcDbLine
 10
108.2069999999999
 20
100.622
 30
0.0
 11
109.175
 21
100.605
 31
0.0
  0
LINE
  5
98BF
330
978F
100
AcDbEntity
  8
1
  6
Continuous
100
AcDbLine
 10
108.2069999999999
 20
99.74859999999999
 30
0.0
 11
109.175
 21
99.76550000000001
 31
0.0
  0
LINE
  5
98C0
330
978F
100
AcDbEntity
  8
1
  6
Continuous
100
AcDbLine
 10
107.6579999999998
 20
99.49240000000001
 30
0.0
 11
108.2069999999999
 21
99.74859999999999
 31
0.0
  0
LINE
  5
98C1
330
978F
100
AcDbEntity
  8
1
  6
Continuous
100
AcDbLine
 10
106.272
 20
100.8789999999999
 30
0.0
 11
106.528
 21
101.428
 31
0.0
  0
LINE
  5
98C2
330
978F
100
AcDbEntity
  8
1
  6
Continuous
100
AcDbLine
 10
106.528
 20
101.428
 30
0.0
 11
106.545
 21
102.3959999999999
 31
0.0
  0
LINE
  5
98C3
330
978F
100
AcDbEntity
  8
1
  6
Continuous
100
AcDbLine
 10
107.4019999999999
 20
101.428
 30
0.0
 11
107.3849999999999
 21
102.3959999999999
 31
0.0
  0
LINE
  5
98C4
330
978F
100
AcDbEntity
  8
1
  6
Continuous
100
AcDbLine
 10
107.6579999999998
 20
100.8789999999999
 30
0.0
 11
107.4019999999999
 21
101.428
 31
0.0
  0
LINE
  5
98C5
330
978F
100
AcDbEntity
  8
4
  6
CENTER
100
AcDbLine
 10
90.965
 20
135.1849999999998
 30
0.0
 11
97.96500000000001
 21
135.1849999999998
 31
0.0
  0
LINE
  5
98C6
330
978F
100
AcDbEntity
  8
4
  6
CENTER
100
AcDbLine
 10
94.465
 20
131.685
 30
0.0
 11
94.465
 21
138.685
 31
0.0
  0
LINE
  5
98C7
330
978F
100
AcDbEntity
  8
4
  6
CENTER
100
AcDbLine
 10
90.965
 20
100.185
 30
0.0
 11
97.96500000000001
 21
100.185
 31
0.0
  0
LINE
  5
98C8
330
978F
100
AcDbEntity
  8
4
  6
CENTER
100
AcDbLine
 10
94.465
 20
96.68550000000001
 30
0.0
 11
94.465
 21
103.685
 31
0.0
  0
LINE
  5
98C9
330
978F
100
AcDbEntity
  8
4
  6
CENTER
100
AcDbLine
 10
101.465
 20
100.185
 30
0.0
 11
112.465
 21
100.185
 31
0.0
  0
LINE
  5
98CA
330
978F
100
AcDbEntity
  8
4
  6
CENTER
100
AcDbLine
 10
106.9649999999999
 20
94.6855
 30
0.0
 11
106.9649999999999
 21
105.685
 31
0.0
  0
LINE
  5
98CB
330
978F
100
AcDbEntity
  8
4
  6
CENTER
100
AcDbLine
 10
101.465
 20
135.1849999999998
 30
0.0
 11
112.465
 21
135.1849999999998
 31
0.0
  0
LINE
  5
98CC
330
978F
100
AcDbEntity
  8
4
  6
CENTER
100
AcDbLine
 10
106.9649999999999
 20
129.685
 30
0.0
 11
106.9649999999999
 21
140.685
 31
0.0
  0
LINE
  5
98CD
330
978F
100
AcDbEntity
  8
4
  6
CENTER
100
AcDbLine
 10
53.465
 20
147.6849999999998
 30
0.0
 11
64.465
 21
147.6849999999998
 31
0.0
  0
LINE
  5
98CE
330
978F
100
AcDbEntity
  8
4
  6
CENTER
100
AcDbLine
 10
58.965
 20
142.185
 30
0.0
 11
58.965
 21
153.185
 31
0.0
  0
LINE
  5
98CF
330
978F
100
AcDbEntity
  8
4
  6
CENTER
100
AcDbLine
 10
53.465
 20
87.68550000000002
 30
0.0
 11
64.465
 21
87.68550000000002
 31
0.0
  0
LINE
  5
98D0
330
978F
100
AcDbEntity
  8
4
  6
CENTER
100
AcDbLine
 10
58.965
 20
82.1855
 30
0.0
 11
58.965
 21
93.1855
 31
0.0
  0
LINE
  5
98D1
330
978F
100
AcDbEntity
  8
1
  6
Continuous
100
AcDbLine
 10
115.4649999999999
 20
127.7069999999999
 30
0.0
 11
115.4649999999999
 21
107.6629999999999
 31
0.0
  0
LINE
  5
98D2
330
978F
100
AcDbEntity
  8
1
  6
Continuous
100
AcDbLine
 10
112.965
 20
108.0849999999998
 30
0.0
 11
115.4649999999999
 21
108.0849999999998
 31
0.0
  0
LINE
  5
98D3
330
978F
100
AcDbEntity
  8
1
  6
Continuous
100
AcDbLine
 10
112.965
 20
127.285
 30
0.0
 11
115.4649999999999
 21
127.285
 31
0.0
  0
LINE
  5
98D4
330
978F
100
AcDbEntity
  8
1
  6
Continuous
100
AcDbLine
 10
112.965
 20
147.6849999999998
 30
0.0
 11
113.761
 21
147.6849999999998
 31
0.0
  0
LINE
  5
98D5
330
978F
100
AcDbEntity
  8
1
  6
Continuous
100
AcDbLine
 10
112.965
 20
87.68550000000002
 30
0.0
 11
113.761
 21
87.68550000000002
 31
0.0
  0
LINE
  5
98D6
330
978F
100
AcDbEntity
  8
1
  6
Continuous
100
AcDbLine
 10
353.8009999999999
 20
265.482
 30
0.0
 11
341.8009999999998
 21
265.482
 31
0.0
  0
LINE
  5
98D7
330
978F
100
AcDbEntity
  8
1
  6
Continuous
100
AcDbLine
 10
329.801
 20
265.482
 30
0.0
 11
329.801
 21
273.482
 31
0.0
  0
LINE
  5
98D8
330
978F
100
AcDbEntity
  8
1
  6
Continuous
100
AcDbLine
 10
331.902
 20
265.482
 30
0.0
 11
329.801
 21
265.482
 31
0.0
  0
LINE
  5
98D9
330
978F
100
AcDbEntity
  8
1
  6
Continuous
100
AcDbLine
 10
226.0409999999999
 20
130.1849999999998
 30
0.0
 11
233.041
 21
130.1849999999998
 31
0.0
  0
LINE
  5
98DA
330
978F
100
AcDbEntity
  8
1
  6
Continuous
100
AcDbLine
 10
226.0409999999999
 20
140.185
 30
0.0
 11
233.041
 21
140.185
 31
0.0
  0
LINE
  5
98DB
330
978F
100
AcDbEntity
  8
1
  6
Continuous
100
AcDbLine
 10
226.0409999999999
 20
95.18550000000001
 30
0.0
 11
233.041
 21
95.18550000000001
 31
0.0
  0
LINE
  5
98DC
330
978F
100
AcDbEntity
  8
1
  6
Continuous
100
AcDbLine
 10
226.0409999999999
 20
105.1849999999999
 30
0.0
 11
233.041
 21
105.1849999999999
 31
0.0
  0
LINE
  5
98DD
330
978F
100
AcDbEntity
  8
1
  6
Continuous
100
AcDbLine
 10
237.7499999999999
 20
97.68550000000001
 30
0.0
 11
237.7499999999999
 21
137.685
 31
0.0
  0
LINE
  5
98DE
330
978F
100
AcDbEntity
  8
4
  6
CENTER
100
AcDbLine
 10
233.041
 20
92.68550000000001
 30
0.0
 11
259.2649999999998
 21
92.68550000000001
 31
0.0
  0
LINE
  5
98DF
330
978F
100
AcDbEntity
  8
4
  6
CENTER
100
AcDbLine
 10
233.041
 20
142.6849999999998
 30
0.0
 11
258.6139999999999
 21
142.6849999999998
 31
0.0
  0
LINE
  5
98E0
330
978F
100
AcDbEntity
  8
4
  6
CENTER
100
AcDbLine
 10
472.6259999999999
 20
142.6849999999998
 30
0.0
 11
450.7769999999998
 21
142.6849999999998
 31
0.0
  0
LINE
  5
98E1
330
978F
100
AcDbEntity
  8
4
  6
CENTER
100
AcDbLine
 10
472.6259999999999
 20
92.68550000000001
 30
0.0
 11
450.7769999999998
 21
92.68550000000001
 31
0.0
  0
LINE
  5
98E2
330
978F
100
AcDbEntity
  8
1
  6
Continuous
100
AcDbLine
 10
179.8329999999999
 20
96.4855
 30
0.0
 11
178.833
 21
96.4855
 31
0.0
  0
LINE
  5
98E3
330
978F
100
AcDbEntity
  8
1
  6
Continuous
100
AcDbLine
 10
179.8329999999999
 20
88.88549999999998
 30
0.0
 11
178.833
 21
88.88549999999998
 31
0.0
  0
LINE
  5
98E4
330
978F
100
AcDbEntity
  8
1
  6
Continuous
100
AcDbLine
 10
180.6329999999999
 20
87.68550000000002
 30
0.0
 11
179.8329999999999
 21
87.68550000000002
 31
0.0
  0
LINE
  5
98E5
330
978F
100
AcDbEntity
  8
1
  6
Continuous
100
AcDbLine
 10
180.6329999999999
 20
97.68550000000001
 30
0.0
 11
179.8329999999999
 21
97.68550000000001
 31
0.0
  0
LINE
  5
98E6
330
978F
100
AcDbEntity
  8
1
  6
Continuous
100
AcDbLine
 10
308.343
 20
300.2409999999998
 30
0.0
 11
318.343
 21
300.2409999999998
 31
0.0
  0
LINE
  5
98E7
330
978F
100
AcDbEntity
  8
1
  6
Continuous
100
AcDbLine
 10
308.343
 20
299.4409999999998
 30
0.0
 11
308.343
 21
300.2409999999998
 31
0.0
  0
LINE
  5
98E8
330
978F
100
AcDbEntity
  8
1
  6
Continuous
100
AcDbLine
 10
309.543
 20
300.2409999999998
 30
0.0
 11
309.543
 21
301.241
 31
0.0
  0
LINE
  5
98E9
330
978F
100
AcDbEntity
  8
1
  6
Continuous
100
AcDbLine
 10
309.543
 20
301.241
 30
0.0
 11
317.1429999999999
 21
301.241
 31
0.0
  0
LINE
  5
98EA
330
978F
100
AcDbEntity
  8
1
  6
Continuous
100
AcDbLine
 10
309.843
 20
301.241
 30
0.0
 11
309.9409999999999
 21
302.361
 31
0.0
  0
LINE
  5
98EB
330
978F
100
AcDbEntity
  8
1
  6
Continuous
100
AcDbLine
 10
316.843
 20
301.241
 30
0.0
 11
316.745
 21
302.361
 31
0.0
  0
LINE
  5
98EC
330
978F
100
AcDbEntity
  8
1
  6
Continuous
100
AcDbLine
 10
317.1429999999999
 20
300.2409999999998
 30
0.0
 11
317.1429999999999
 21
301.241
 31
0.0
  0
LINE
  5
98ED
330
978F
100
AcDbEntity
  8
1
  6
Continuous
100
AcDbLine
 10
318.343
 20
299.4409999999998
 30
0.0
 11
318.343
 21
300.2409999999998
 31
0.0
  0
LINE
  5
98EE
330
978F
100
AcDbEntity
  8
1
  6
Continuous
100
AcDbLine
 10
312.882
 20
301.241
 30
0.0
 11
313.721
 21
300.2409999999998
 31
0.0
  0
LINE
  5
98EF
330
978F
100
AcDbEntity
  8
1
  6
Continuous
100
AcDbLine
 10
179.8329999999999
 20
137.685
 30
0.0
 11
179.8329999999999
 21
147.6849999999998
 31
0.0
  0
LINE
  5
98F0
330
978F
100
AcDbEntity
  8
1
  6
Continuous
100
AcDbLine
 10
178.833
 20
138.8849999999999
 30
0.0
 11
178.833
 21
146.485
 31
0.0
  0
LINE
  5
98F1
330
978F
100
AcDbEntity
  8
1
  6
Continuous
100
AcDbLine
 10
178.833
 20
142.2239999999999
 30
0.0
 11
179.8329999999999
 21
143.0629999999998
 31
0.0
  0
LINE
  5
98F2
330
978F
100
AcDbEntity
  8
1
  6
Continuous
100
AcDbLine
 10
178.833
 20
139.185
 30
0.0
 11
177.714
 21
139.2829999999999
 31
0.0
  0
LINE
  5
98F3
330
978F
100
AcDbEntity
  8
1
  6
Continuous
100
AcDbLine
 10
178.833
 20
146.185
 30
0.0
 11
177.714
 21
146.0879999999999
 31
0.0
  0
LINE
  5
98F4
330
978F
100
AcDbEntity
  8
1
  6
Continuous
100
AcDbLine
 10
179.8329999999999
 20
146.485
 30
0.0
 11
178.833
 21
146.485
 31
0.0
  0
LINE
  5
98F5
330
978F
100
AcDbEntity
  8
1
  6
Continuous
100
AcDbLine
 10
179.8329999999999
 20
138.8849999999999
 30
0.0
 11
178.833
 21
138.8849999999999
 31
0.0
  0
LINE
  5
98F6
330
978F
100
AcDbEntity
  8
1
  6
Continuous
100
AcDbLine
 10
180.6329999999999
 20
137.685
 30
0.0
 11
179.8329999999999
 21
137.685
 31
0.0
  0
LINE
  5
98F7
330
978F
100
AcDbEntity
  8
1
  6
Continuous
100
AcDbLine
 10
180.6329999999999
 20
147.6849999999998
 30
0.0
 11
179.8329999999999
 21
147.6849999999998
 31
0.0
  0
ARC
  5
98F8
330
978F
100
AcDbEntity
  8
1
  6
Continuous
100
AcDbCircle
 10
344.301
 20
566.6849999999998
 30
0.0
 40
500.0
100
AcDbArc
 50
266.1019999999999
 51
273.8979999999999
  0
ARC
  5
98F9
330
978F
100
AcDbEntity
  8
1
  6
Continuous
100
AcDbCircle
 10
344.301
 20
-331.315
 30
0.0
 40
500.0
100
AcDbArc
 50
86.102
 51
93.89799999999999
  0
ARC
  5
98FA
330
978F
100
AcDbEntity
  8
1
  6
Continuous
100
AcDbCircle
 10
811.301
 20
117.6849999999999
 30
0.0
 40
508.4999999999998
100
AcDbArc
 50
174.993
 51
185.007
  0
ARC
  5
98FB
330
978F
100
AcDbEntity
  8
1
  6
Continuous
100
AcDbCircle
 10
811.301
 20
117.6849999999999
 30
0.0
 40
500.0
100
AcDbArc
 50
175.3839999999999
 51
184.6159999999999
  0
ARC
  5
98FC
330
978F
100
AcDbEntity
  8
1
  6
Continuous
100
AcDbCircle
 10
377.884
 20
73.8283
 30
0.0
 40
6.0
100
AcDbArc
 50
273.8979999999999
 51
354.9929999999998
  0
ARC
  5
98FD
330
978F
100
AcDbEntity
  8
1
  6
Continuous
100
AcDbCircle
 10
310.719
 20
73.8283
 30
0.0
 40
6.0
100
AcDbArc
 50
185.007
 51
266.1019999999999
  0
ARC
  5
98FE
330
978F
100
AcDbEntity
  8
1
  6
Continuous
100
AcDbCircle
 10
310.719
 20
161.543
 30
0.0
 40
6.0
100
AcDbArc
 50
93.89799999999999
 51
174.993
  0
ARC
  5
98FF
330
978F
100
AcDbEntity
  8
1
  6
Continuous
100
AcDbCircle
 10
377.884
 20
161.543
 30
0.0
 40
6.0
100
AcDbArc
 50
5.006969999999999
 51
86.102
  0
ARC
  5
9900
330
978F
100
AcDbEntity
  8
1
  6
Continuous
100
AcDbCircle
 10
315.9139999999998
 20
77.68550000000002
 30
0.0
 40
3.0
100
AcDbArc
 50
184.6159999999999
 51
270.0
  0
ARC
  5
9901
330
978F
100
AcDbEntity
  8
1
  6
Continuous
100
AcDbCircle
 10
315.9139999999998
 20
157.685
 30
0.0
 40
3.0
100
AcDbArc
 50
90.0
 51
175.3839999999999
  0
ARC
  5
9902
330
978F
100
AcDbEntity
  8
1
  6
Continuous
100
AcDbCircle
 10
810.801
 20
117.6849999999999
 30
0.0
 40
498.0
100
AcDbArc
 50
183.819
 51
184.577
  0
ARC
  5
9903
330
978F
100
AcDbEntity
  8
1
  6
Continuous
100
AcDbCircle
 10
323.8849999999998
 20
85.18550000000002
 30
0.0
 40
10.0
100
AcDbArc
 50
116.8329999999999
 51
183.819
  0
ARC
  5
9904
330
978F
100
AcDbEntity
  8
1
  6
Continuous
100
AcDbCircle
 10
317.3799999999999
 20
78.1855
 30
0.0
 40
3.0
100
AcDbArc
 50
184.577
 51
270.0
  0
ARC
  5
9905
330
978F
100
AcDbEntity
  8
1
  6
Continuous
100
AcDbCircle
 10
296.8009999999998
 20
138.7249999999999
 30
0.0
 40
50.0
100
AcDbArc
 50
296.8329999999999
 51
0.000022
  0
ARC
  5
9906
330
978F
100
AcDbEntity
  8
1
  6
Continuous
100
AcDbCircle
 10
349.8009999999999
 20
157.1849999999998
 30
0.0
 40
3.0
100
AcDbArc
 50
90.0
 51
180.0
  0
CIRCLE
  5
9907
330
978F
100
AcDbEntity
  8
1
  6
Continuous
100
AcDbCircle
 10
366.8009999999999
 20
252.482
 30
0.0
 40
2.5
  0
CIRCLE
  5
9908
330
978F
100
AcDbEntity
  8
1
  6
Continuous
100
AcDbCircle
 10
366.8009999999999
 20
252.482
 30
0.0
 40
4.0
  0
ARC
  5
9909
330
978F
100
AcDbEntity
  8
1
  6
Continuous
100
AcDbCircle
 10
326.3009999999998
 20
246.282
 30
0.0
 40
17.0
100
AcDbArc
 50
90.0
 51
179.326
  0
ARC
  5
990A
330
978F
100
AcDbEntity
  8
1
  6
Continuous
100
AcDbCircle
 10
311.301
 20
264.482
 30
0.0
 40
2.0
100
AcDbArc
 50
90.0
 51
180.0
  0
ARC
  5
990B
330
978F
100
AcDbEntity
  8
1
  6
Continuous
100
AcDbCircle
 10
466.361
 20
155.1849999999998
 30
0.0
 40
8.0
100
AcDbArc
 50
57.9219
 51
90.0
  0
ARC
  5
990C
330
978F
100
AcDbEntity
  8
1
  6
Continuous
100
AcDbCircle
 10
466.361
 20
80.18550000000002
 30
0.0
 40
8.0
100
AcDbArc
 50
270.0
 51
302.0779999999998
  0
ARC
  5
990D
330
978F
100
AcDbEntity
  8
1
  6
Continuous
100
AcDbCircle
 10
399.8009999999999
 20
143.085
 30
0.0
 40
1.0
100
AcDbArc
 50
0.0
 51
90.0
  0
ARC
  5
990E
330
978F
100
AcDbEntity
  8
1
  6
Continuous
100
AcDbCircle
 10
399.8009999999999
 20
152.285
 30
0.0
 40
1.0
100
AcDbArc
 50
270.0
 51
0.0
  0
ARC
  5
990F
330
978F
100
AcDbEntity
  8
1
  6
Continuous
100
AcDbCircle
 10
399.8009999999999
 20
83.08549999999998
 30
0.0
 40
1.0
100
AcDbArc
 50
0.0
 51
90.0
  0
ARC
  5
9910
330
978F
100
AcDbEntity
  8
1
  6
Continuous
100
AcDbCircle
 10
399.8009999999999
 20
92.28550000000002
 30
0.0
 40
1.0
100
AcDbArc
 50
270.0
 51
0.0
  0
ARC
  5
9911
330
978F
100
AcDbEntity
  8
1
  6
Continuous
100
AcDbCircle
 10
400.8009999999998
 20
273.482
 30
0.0
 40
2.0
100
AcDbArc
 50
0.0
 51
90.0
  0
ARC
  5
9912
330
978F
100
AcDbEntity
  8
1
  6
Continuous
100
AcDbCircle
 10
399.8009999999999
 20
260.882
 30
0.0
 40
1.0
100
AcDbArc
 50
0.0
 51
90.0
  0
ARC
  5
9913
330
978F
100
AcDbEntity
  8
1
  6
Continuous
100
AcDbCircle
 10
399.8009999999999
 20
270.0819999999998
 30
0.0
 40
1.0
100
AcDbArc
 50
270.0
 51
0.0
  0
ARC
  5
9914
330
978F
100
AcDbEntity
  8
1
  6
Continuous
100
AcDbCircle
 10
411.8009999999999
 20
111.685
 30
0.0
 40
1.0
100
AcDbArc
 50
270.0
 51
0.0
  0
ARC
  5
9915
330
978F
100
AcDbEntity
  8
1
  6
Continuous
100
AcDbCircle
 10
411.8009999999999
 20
123.685
 30
0.0
 40
1.0
100
AcDbArc
 50
0.0
 51
90.0
  0
ARC
  5
9916
330
978F
100
AcDbEntity
  8
1
  6
Continuous
100
AcDbCircle
 10
411.8009999999999
 20
264.482
 30
0.0
 40
1.0
100
AcDbArc
 50
270.0
 51
31.0071
  0
ARC
  5
9917
330
978F
100
AcDbEntity
  8
1
  6
Continuous
100
AcDbCircle
 10
472.5609999999998
 20
159.685
 30
0.0
 40
3.0
100
AcDbArc
 50
90.0
 51
180.0
  0
ARC
  5
9918
330
978F
100
AcDbEntity
  8
1
  6
Continuous
100
AcDbCircle
 10
472.5609999999998
 20
75.6855
 30
0.0
 40
3.0
100
AcDbArc
 50
180.0
 51
270.0
  0
ARC
  5
9919
330
978F
100
AcDbEntity
  8
1
  6
Continuous
100
AcDbCircle
 10
459.5609999999998
 20
76.6855
 30
0.0
 40
1.0
100
AcDbArc
 50
90.0
 51
180.0
  0
ARC
  5
991A
330
978F
100
AcDbEntity
  8
1
  6
Continuous
100
AcDbCircle
 10
459.5609999999998
 20
158.685
 30
0.0
 40
1.0
100
AcDbArc
 50
180.0
 51
270.0
  0
ARC
  5
991B
330
978F
100
AcDbEntity
  8
1
  6
Continuous
100
AcDbCircle
 10
458.5609999999999
 20
158.685
 30
0.0
 40
1.0
100
AcDbArc
 50
180.0
 51
270.0
  0
ARC
  5
991C
330
978F
100
AcDbEntity
  8
1
  6
Continuous
100
AcDbCircle
 10
458.5609999999999
 20
76.6855
 30
0.0
 40
1.0
100
AcDbArc
 50
90.0
 51
180.0
  0
ARC
  5
991D
330
978F
100
AcDbEntity
  8
1
  6
Continuous
100
AcDbCircle
 10
475.5609999999999
 20
111.685
 30
0.0
 40
1.0
100
AcDbArc
 50
180.0
 51
270.0
  0
ARC
  5
991E
330
978F
100
AcDbEntity
  8
1
  6
Continuous
100
AcDbCircle
 10
475.5609999999999
 20
123.685
 30
0.0
 40
1.0
100
AcDbArc
 50
90.0
 51
180.0
  0
ARC
  5
991F
330
978F
100
AcDbEntity
  8
1
  6
Continuous
100
AcDbCircle
 10
483.5609999999999
 20
123.685
 30
0.0
 40
1.0
100
AcDbArc
 50
0.0
 51
90.0
  0
ARC
  5
9920
330
978F
100
AcDbEntity
  8
1
  6
Continuous
100
AcDbCircle
 10
483.5609999999999
 20
111.685
 30
0.0
 40
1.0
100
AcDbArc
 50
270.0
 51
0.0
  0
CIRCLE
  5
9921
330
978F
100
AcDbEntity
  8
2
  6
Continuous
100
AcDbCircle
 10
476.5609999999998
 20
147.6849999999998
 30
0.0
 40
2.5
  0
CIRCLE
  5
9922
330
978F
100
AcDbEntity
  8
2
  6
Continuous
100
AcDbCircle
 10
476.5609999999998
 20
87.68550000000002
 30
0.0
 40
2.5
  0
ARC
  5
9923
330
978F
100
AcDbEntity
  8
1
  6
Continuous
100
AcDbCircle
 10
308.343
 20
297.4409999999998
 30
0.0
 40
2.0
100
AcDbArc
 50
89.99989999999998
 51
180.0
  0
ARC
  5
9924
330
978F
100
AcDbEntity
  8
1
  6
Continuous
100
AcDbCircle
 10
306.343
 20
279.9409999999999
 30
0.0
 40
2.0
100
AcDbArc
 50
270.0
 51
0.0
  0
ARC
  5
9925
330
978F
100
AcDbEntity
  8
5
  6
PHANTOM
100
AcDbCircle
 10
401.801
 20
264.482
 30
0.0
 40
1.0
100
AcDbArc
 50
270.0
 51
31.0071
  0
ARC
  5
9926
330
978F
100
AcDbEntity
  8
1
  6
Continuous
100
AcDbCircle
 10
299.005
 20
155.685
 30
0.0
 40
2.0
100
AcDbArc
 50
90.0
 51
180.0
  0
ARC
  5
9927
330
978F
100
AcDbEntity
  8
1
  6
Continuous
100
AcDbCircle
 10
299.005
 20
79.6855
 30
0.0
 40
2.0
100
AcDbArc
 50
180.0
 51
270.0
  0
ARC
  5
9928
330
978F
100
AcDbEntity
  8
1
  6
Continuous
100
AcDbCircle
 10
347.0059999999999
 20
991.3719999999997
 30
0.0
 40
749.3939999999999
100
AcDbArc
 50
266.69
 51
272.8949999999999
  0
ARC
  5
9929
330
978F
100
AcDbEntity
  8
1
  6
Continuous
100
AcDbCircle
 10
303.8009999999998
 20
244.226
 30
0.0
 40
1.0
100
AcDbArc
 50
180.0
 51
266.69
  0
ARC
  5
992A
330
978F
100
AcDbEntity
  8
1
  6
Continuous
100
AcDbCircle
 10
384.801
 20
243.9329999999999
 30
0.0
 40
1.0
100
AcDbArc
 50
272.8949999999999
 51
0.0
  0
ARC
  5
992B
330
978F
100
AcDbEntity
  8
1
  6
Continuous
100
AcDbCircle
 10
455.733
 20
167.6849999999998
 30
0.0
 40
1.0
100
AcDbArc
 50
90.0
 51
176.169
  0
ARC
  5
992C
330
978F
100
AcDbEntity
  8
1
  6
Continuous
100
AcDbCircle
 10
1202.46
 20
117.6849999999999
 30
0.0
 40
749.3939999999999
100
AcDbArc
 50
176.169
 51
183.8309999999999
  0
ARC
  5
992D
330
978F
100
AcDbEntity
  8
1
  6
Continuous
100
AcDbCircle
 10
455.733
 20
67.68550000000001
 30
0.0
 40
1.0
100
AcDbArc
 50
183.8309999999999
 51
270.0
  0
ARC
  5
992E
330
978F
100
AcDbEntity
  8
5
  6
PHANTOM
100
AcDbCircle
 10
329.793
 20
217.459
 30
0.0
 40
2.5
100
AcDbArc
 50
68.517
 51
302.748
  0
ARC
  5
992F
330
978F
100
AcDbEntity
  8
5
  6
PHANTOM
100
AcDbCircle
 10
-74.23269999999998
 20
845.6419999999997
 30
0.0
 40
749.3939999999999
100
AcDbArc
 50
302.748
 51
306.3849999999998
  0
ARC
  5
9930
330
978F
100
AcDbEntity
  8
1
  6
Continuous
100
AcDbCircle
 10
391.231
 20
252.119
 30
0.0
 40
25.0
100
AcDbArc
 50
31.0071
 51
58.70879999999999
  0
ARC
  5
9931
330
978F
100
AcDbEntity
  8
5
  6
PHANTOM
100
AcDbCircle
 10
381.231
 20
252.119
 30
0.0
 40
25.0
100
AcDbArc
 50
31.0071
 51
58.70879999999999
  0
ARC
  5
9932
330
978F
100
AcDbEntity
  8
5
  6
PHANTOM
100
AcDbCircle
 10
-74.23269999999998
 20
845.6419999999997
 30
0.0
 40
749.3939999999999
100
AcDbArc
 50
307.051
 51
307.302
  0
ARC
  5
9933
330
978F
100
AcDbEntity
  8
5
  6
PHANTOM
100
AcDbCircle
 10
379.3109999999999
 20
250.334
 30
0.0
 40
1.0
100
AcDbArc
 50
307.302
 51
35.0974
  0
ARC
  5
9934
330
978F
100
AcDbEntity
  8
1
  6
Continuous
100
AcDbCircle
 10
244.2409999999999
 20
155.1849999999998
 30
0.0
 40
8.0
100
AcDbArc
 50
90.00010000000001
 51
180.0
  0
ARC
  5
9935
330
978F
100
AcDbEntity
  8
1
  6
Continuous
100
AcDbCircle
 10
244.2409999999999
 20
80.18550000000002
 30
0.0
 40
8.0
100
AcDbArc
 50
180.0
 51
270.0
  0
ARC
  5
9936
330
978F
100
AcDbEntity
  8
1
  6
Continuous
100
AcDbCircle
 10
238.0409999999999
 20
159.685
 30
0.0
 40
3.0
100
AcDbArc
 50
49.4233
 51
90.0
  0
ARC
  5
9937
330
978F
100
AcDbEntity
  8
1
  6
Continuous
100
AcDbCircle
 10
238.0409999999999
 20
75.6855
 30
0.0
 40
3.0
100
AcDbArc
 50
270.0
 51
310.577
  0
ARC
  5
9938
330
978F
100
AcDbEntity
  8
1
  6
Continuous
100
AcDbCircle
 10
254.869
 20
167.6849999999998
 30
0.0
 40
1.0
100
AcDbArc
 50
3.830839999999998
 51
90.00010000000001
  0
ARC
  5
9939
330
978F
100
AcDbEntity
  8
1
  6
Continuous
100
AcDbCircle
 10
-491.853
 20
117.6849999999999
 30
0.0
 40
749.3939999999999
100
AcDbArc
 50
356.169
 51
3.830839999999998
  0
ARC
  5
993A
330
978F
100
AcDbEntity
  8
1
  6
Continuous
100
AcDbCircle
 10
254.869
 20
67.68550000000001
 30
0.0
 40
1.0
100
AcDbArc
 50
270.0
 51
356.169
  0
ARC
  5
993B
330
978F
100
AcDbEntity
  8
1
  6
Continuous
100
AcDbCircle
 10
177.827
 20
90.5784
 30
0.0
 40
1.3
100
AcDbArc
 50
195.8809999999998
 51
265.0
  0
ARC
  5
993C
330
978F
100
AcDbEntity
  8
1
  6
Continuous
100
AcDbCircle
 10
185.233
 20
92.68539999999999
 30
0.0
 40
9.0
100
AcDbArc
 50
164.119
 51
195.8809999999998
  0
ARC
  5
993D
330
978F
100
AcDbEntity
  8
1
  6
Continuous
100
AcDbCircle
 10
177.827
 20
94.7925
 30
0.0
 40
1.3
100
AcDbArc
 50
95.0
 51
164.119
  0
ARC
  5
993E
330
978F
100
AcDbEntity
  8
1
  6
Continuous
100
AcDbCircle
 10
86.965
 20
566.6849999999998
 30
0.0
 40
500.0
100
AcDbArc
 50
266.1019999999999
 51
273.8979999999999
  0
ARC
  5
993F
330
978F
100
AcDbEntity
  8
1
  6
Continuous
100
AcDbCircle
 10
86.965
 20
-331.315
 30
0.0
 40
500.0
100
AcDbArc
 50
86.102
 51
93.89809999999998
  0
ARC
  5
9940
330
978F
100
AcDbEntity
  8
1
  6
Continuous
100
AcDbCircle
 10
-380.035
 20
117.6849999999999
 30
0.0
 40
508.4999999999998
100
AcDbArc
 50
354.9929999999998
 51
355.4880000000001
  0
ARC
  5
9941
330
978F
100
AcDbEntity
  8
1
  6
Continuous
100
AcDbCircle
 10
53.3825
 20
73.8283
 30
0.0
 40
6.0
100
AcDbArc
 50
190.9799999999999
 51
266.1019999999999
  0
ARC
  5
9942
330
978F
100
AcDbEntity
  8
1
  6
Continuous
100
AcDbCircle
 10
120.547
 20
73.8283
 30
0.0
 40
6.0
100
AcDbArc
 50
273.8979999999999
 51
354.9929999999998
  0
ARC
  5
9943
330
978F
100
AcDbEntity
  8
1
  6
Continuous
100
AcDbCircle
 10
120.547
 20
161.543
 30
0.0
 40
6.0
100
AcDbArc
 50
5.007039999999999
 51
86.102
  0
ARC
  5
9944
330
978F
100
AcDbEntity
  8
1
  6
Continuous
100
AcDbCircle
 10
53.3825
 20
161.543
 30
0.0
 40
6.0
100
AcDbArc
 50
93.89809999999998
 51
169.02
  0
ARC
  5
9945
330
978F
100
AcDbEntity
  8
1
  6
Continuous
100
AcDbCircle
 10
19.465
 20
111.685
 30
0.0
 40
1.0
100
AcDbArc
 50
180.0
 51
270.0
  0
ARC
  5
9946
330
978F
100
AcDbEntity
  8
1
  6
Continuous
100
AcDbCircle
 10
19.465
 20
123.685
 30
0.0
 40
1.0
100
AcDbArc
 50
90.0
 51
180.0
  0
ARC
  5
9947
330
978F
100
AcDbEntity
  8
1
  6
Continuous
100
AcDbCircle
 10
115.761
 20
79.6855
 30
0.0
 40
2.0
100
AcDbArc
 50
180.0
 51
270.0
  0
ARC
  5
9948
330
978F
100
AcDbEntity
  8
1
  6
Continuous
100
AcDbCircle
 10
115.761
 20
155.685
 30
0.0
 40
2.0
100
AcDbArc
 50
90.0
 51
180.0
  0
ARC
  5
9949
330
978F
100
AcDbEntity
  8
1
  6
Continuous
100
AcDbCircle
 10
132.261
 20
155.685
 30
0.0
 40
2.0
100
AcDbArc
 50
0.0
 51
90.0
  0
ARC
  5
994A
330
978F
100
AcDbEntity
  8
1
  6
Continuous
100
AcDbCircle
 10
132.261
 20
79.6855
 30
0.0
 40
2.0
100
AcDbArc
 50
270.0
 51
0.000005
  0
ARC
  5
994B
330
978F
100
AcDbEntity
  8
1
  6
Continuous
100
AcDbCircle
 10
115.761
 20
129.685
 30
0.0
 40
2.0
100
AcDbArc
 50
180.0
 51
270.0
  0
ARC
  5
994C
330
978F
100
AcDbEntity
  8
1
  6
Continuous
100
AcDbCircle
 10
115.761
 20
105.685
 30
0.0
 40
2.0
100
AcDbArc
 50
90.0
 51
180.0
  0
ARC
  5
994D
330
978F
100
AcDbEntity
  8
1
  6
Continuous
100
AcDbCircle
 10
-380.035
 20
117.6849999999999
 30
0.0
 40
508.4999999999998
100
AcDbArc
 50
4.5117
 51
5.007039999999999
  0
ARC
  5
994E
330
978F
100
AcDbEntity
  8
1
  6
Continuous
100
AcDbCircle
 10
115.965
 20
78.1855
 30
0.0
 40
6.0
100
AcDbArc
 50
270.0
 51
355.22
  0
ARC
  5
994F
330
978F
100
AcDbEntity
  8
1
  6
Continuous
100
AcDbCircle
 10
115.965
 20
157.1849999999998
 30
0.0
 40
6.0
100
AcDbArc
 50
4.780199999999998
 51
90.0
  0
ARC
  5
9950
330
978F
100
AcDbEntity
  8
1
  6
Continuous
100
AcDbCircle
 10
119.761
 20
142.6849999999998
 30
0.0
 40
2.1
100
AcDbArc
 50
168.463
 51
191.5369999999998
  0
ARC
  5
9951
330
978F
100
AcDbEntity
  8
1
  6
Continuous
100
AcDbCircle
 10
119.761
 20
142.6849999999998
 30
0.0
 40
2.1
100
AcDbArc
 50
258.4629999999999
 51
281.5369999999999
  0
ARC
  5
9952
330
978F
100
AcDbEntity
  8
1
  6
Continuous
100
AcDbCircle
 10
119.761
 20
142.6849999999998
 30
0.0
 40
2.1
100
AcDbArc
 50
348.463
 51
11.537
  0
ARC
  5
9953
330
978F
100
AcDbEntity
  8
1
  6
Continuous
100
AcDbCircle
 10
119.761
 20
142.6849999999998
 30
0.0
 40
2.1
100
AcDbArc
 50
78.46299999999998
 51
101.537
  0
CIRCLE
  5
9954
330
978F
100
AcDbEntity
  8
1
  6
Continuous
100
AcDbCircle
 10
119.761
 20
142.6849999999998
 30
0.0
 40
3.5
  0
ARC
  5
9955
330
978F
100
AcDbEntity
  8
1
  6
Continuous
100
AcDbCircle
 10
119.761
 20
92.68550000000001
 30
0.0
 40
2.1
100
AcDbArc
 50
168.463
 51
191.5369999999998
  0
ARC
  5
9956
330
978F
100
AcDbEntity
  8
1
  6
Continuous
100
AcDbCircle
 10
119.761
 20
92.68550000000001
 30
0.0
 40
2.1
100
AcDbArc
 50
258.4629999999999
 51
281.5369999999999
  0
ARC
  5
9957
330
978F
100
AcDbEntity
  8
1
  6
Continuous
100
AcDbCircle
 10
119.761
 20
92.68550000000001
 30
0.0
 40
2.1
100
AcDbArc
 50
348.463
 51
11.537
  0
ARC
  5
9958
330
978F
100
AcDbEntity
  8
1
  6
Continuous
100
AcDbCircle
 10
119.761
 20
92.68550000000001
 30
0.0
 40
2.1
100
AcDbArc
 50
78.46299999999998
 51
101.537
  0
CIRCLE
  5
9959
330
978F
100
AcDbEntity
  8
1
  6
Continuous
100
AcDbCircle
 10
119.761
 20
92.68550000000001
 30
0.0
 40
3.5
  0
CIRCLE
  5
995A
330
978F
100
AcDbEntity
  8
1
  6
Continuous
100
AcDbCircle
 10
119.761
 20
92.68550000000001
 30
0.0
 40
3.799999999999998
  0
CIRCLE
  5
995B
330
978F
100
AcDbEntity
  8
1
  6
Continuous
100
AcDbCircle
 10
119.761
 20
142.6849999999998
 30
0.0
 40
3.799999999999998
  0
CIRCLE
  5
995C
330
978F
100
AcDbEntity
  8
1
  6
Continuous
100
AcDbCircle
 10
119.761
 20
92.68550000000001
 30
0.0
 40
5.0
  0
CIRCLE
  5
995D
330
978F
100
AcDbEntity
  8
1
  6
Continuous
100
AcDbCircle
 10
119.761
 20
142.6849999999998
 30
0.0
 40
5.0
  0
ARC
  5
995E
330
978F
100
AcDbEntity
  8
1
  6
Continuous
100
AcDbCircle
 10
109.965
 20
159.685
 30
0.0
 40
3.0
100
AcDbArc
 50
0.0
 51
90.0
  0
ARC
  5
995F
330
978F
100
AcDbEntity
  8
1
  6
Continuous
100
AcDbCircle
 10
109.965
 20
75.6855
 30
0.0
 40
3.0
100
AcDbArc
 50
270.0
 51
0.000005
  0
ARC
  5
9960
330
978F
100
AcDbEntity
  8
1
  6
Continuous
100
AcDbCircle
 10
58.965
 20
147.6849999999998
 30
0.0
 40
2.25
100
AcDbArc
 50
169.242
 51
190.758
  0
ARC
  5
9961
330
978F
100
AcDbEntity
  8
1
  6
Continuous
100
AcDbCircle
 10
58.965
 20
147.6849999999998
 30
0.0
 40
2.25
100
AcDbArc
 50
259.242
 51
280.7579999999999
  0
ARC
  5
9962
330
978F
100
AcDbEntity
  8
1
  6
Continuous
100
AcDbCircle
 10
58.965
 20
147.6849999999998
 30
0.0
 40
2.25
100
AcDbArc
 50
349.2419999999999
 51
10.7583
  0
ARC
  5
9963
330
978F
100
AcDbEntity
  8
1
  6
Continuous
100
AcDbCircle
 10
58.965
 20
147.6849999999998
 30
0.0
 40
2.25
100
AcDbArc
 50
79.24169999999998
 51
100.7579999999999
  0
CIRCLE
  5
9964
330
978F
100
AcDbEntity
  8
1
  6
Continuous
100
AcDbCircle
 10
58.965
 20
147.6849999999998
 30
0.0
 40
4.0
  0
ARC
  5
9965
330
978F
100
AcDbEntity
  8
1
  6
Continuous
100
AcDbCircle
 10
58.965
 20
87.68550000000002
 30
0.0
 40
2.25
100
AcDbArc
 50
169.242
 51
190.758
  0
ARC
  5
9966
330
978F
100
AcDbEntity
  8
1
  6
Continuous
100
AcDbCircle
 10
58.965
 20
87.68550000000002
 30
0.0
 40
2.25
100
AcDbArc
 50
259.242
 51
280.7579999999999
  0
ARC
  5
9967
330
978F
100
AcDbEntity
  8
1
  6
Continuous
100
AcDbCircle
 10
58.965
 20
87.68550000000002
 30
0.0
 40
2.25
100
AcDbArc
 50
349.2419999999999
 51
10.7583
  0
ARC
  5
9968
330
978F
100
AcDbEntity
  8
1
  6
Continuous
100
AcDbCircle
 10
58.965
 20
87.68550000000002
 30
0.0
 40
2.25
100
AcDbArc
 50
79.24169999999998
 51
100.7579999999999
  0
CIRCLE
  5
9969
330
978F
100
AcDbEntity
  8
1
  6
Continuous
100
AcDbCircle
 10
58.965
 20
87.68550000000002
 30
0.0
 40
4.0
  0
CIRCLE
  5
996A
330
978F
100
AcDbEntity
  8
1
  6
Continuous
100
AcDbCircle
 10
94.465
 20
135.1849999999998
 30
0.0
 40
2.75
  0
CIRCLE
  5
996B
330
978F
100
AcDbEntity
  8
1
  6
Continuous
100
AcDbCircle
 10
94.465
 20
100.185
 30
0.0
 40
2.75
  0
ARC
  5
996C
330
978F
100
AcDbEntity
  8
1
  6
Continuous
100
AcDbCircle
 10
106.9649999999999
 20
135.1849999999998
 30
0.0
 40
2.25
100
AcDbArc
 50
169.242
 51
190.758
  0
ARC
  5
996D
330
978F
100
AcDbEntity
  8
1
  6
Continuous
100
AcDbCircle
 10
106.9649999999999
 20
135.1849999999998
 30
0.0
 40
2.25
100
AcDbArc
 50
259.242
 51
280.7579999999999
  0
ARC
  5
996E
330
978F
100
AcDbEntity
  8
1
  6
Continuous
100
AcDbCircle
 10
106.9649999999999
 20
135.1849999999998
 30
0.0
 40
2.25
100
AcDbArc
 50
349.2419999999999
 51
10.7583
  0
ARC
  5
996F
330
978F
100
AcDbEntity
  8
1
  6
Continuous
100
AcDbCircle
 10
106.9649999999999
 20
135.1849999999998
 30
0.0
 40
2.25
100
AcDbArc
 50
79.24169999999998
 51
100.7579999999999
  0
CIRCLE
  5
9970
330
978F
100
AcDbEntity
  8
1
  6
Continuous
100
AcDbCircle
 10
106.9649999999999
 20
135.1849999999998
 30
0.0
 40
4.0
  0
ARC
  5
9971
330
978F
100
AcDbEntity
  8
1
  6
Continuous
100
AcDbCircle
 10
106.9649999999999
 20
100.185
 30
0.0
 40
2.25
100
AcDbArc
 50
169.242
 51
190.758
  0
ARC
  5
9972
330
978F
100
AcDbEntity
  8
1
  6
Continuous
100
AcDbCircle
 10
106.9649999999999
 20
100.185
 30
0.0
 40
2.25
100
AcDbArc
 50
259.242
 51
280.7579999999999
  0
ARC
  5
9973
330
978F
100
AcDbEntity
  8
1
  6
Continuous
100
AcDbCircle
 10
106.9649999999999
 20
100.185
 30
0.0
 40
2.25
100
AcDbArc
 50
349.2419999999999
 51
10.7583
  0
ARC
  5
9974
330
978F
100
AcDbEntity
  8
1
  6
Continuous
100
AcDbCircle
 10
106.9649999999999
 20
100.185
 30
0.0
 40
2.25
100
AcDbArc
 50
79.24169999999998
 51
100.7579999999999
  0
CIRCLE
  5
9975
330
978F
100
AcDbEntity
  8
1
  6
Continuous
100
AcDbCircle
 10
106.9649999999999
 20
100.185
 30
0.0
 40
4.0
  0
ARC
  5
9976
330
978F
100
AcDbEntity
  8
1
  6
Continuous
100
AcDbCircle
 10
-122.6988
 20
117.6849999999999
 30
0.0
 40
508.4999999999998
100
AcDbArc
 50
354.9929999999998
 51
5.00698
  0
CIRCLE
  5
9977
330
978F
100
AcDbEntity
  8
1
  6
Continuous
100
AcDbCircle
 10
476.5609999999998
 20
147.6849999999998
 30
0.0
 40
2.066999999999997
  0
CIRCLE
  5
9978
330
978F
100
AcDbEntity
  8
1
  6
Continuous
100
AcDbCircle
 10
476.5609999999998
 20
87.68550000000002
 30
0.0
 40
2.066999999999997
  0
ARC
  5
9979
330
978F
100
AcDbEntity
  8
1
  6
Continuous
100
AcDbCircle
 10
234.0409999999998
 20
88.6855
 30
0.0
 40
1.0
100
AcDbArc
 50
180.0
 51
270.0
  0
ARC
  5
997A
330
978F
100
AcDbEntity
  8
1
  6
Continuous
100
AcDbCircle
 10
234.0409999999998
 20
146.6849999999998
 30
0.0
 40
1.0
100
AcDbArc
 50
90.0
 51
180.0
  0
ARC
  5
997B
330
978F
100
AcDbEntity
  8
1
  6
Continuous
100
AcDbCircle
 10
234.0409999999998
 20
138.685
 30
0.0
 40
1.0
100
AcDbArc
 50
180.0
 51
270.0
  0
ARC
  5
997C
330
978F
100
AcDbEntity
  8
1
  6
Continuous
100
AcDbCircle
 10
234.0409999999998
 20
96.68550000000001
 30
0.0
 40
1.0
100
AcDbArc
 50
90.0
 51
180.0
  0
ARC
  5
997D
330
978F
100
AcDbEntity
  8
1
  6
Continuous
100
AcDbCircle
 10
311.2359999999998
 20
302.247
 30
0.0
 40
1.3
100
AcDbArc
 50
105.881
 51
175.0
  0
ARC
  5
997E
330
978F
100
AcDbEntity
  8
1
  6
Continuous
100
AcDbCircle
 10
313.343
 20
294.8409999999999
 30
0.0
 40
9.0
100
AcDbArc
 50
74.1191
 51
105.881
  0
ARC
  5
997F
330
978F
100
AcDbEntity
  8
1
  6
Continuous
100
AcDbCircle
 10
315.45
 20
302.247
 30
0.0
 40
1.3
100
AcDbArc
 50
4.999979999999999
 51
74.1191
  0
ARC
  5
9980
330
978F
100
AcDbEntity
  8
1
  6
Continuous
100
AcDbCircle
 10
177.827
 20
140.578
 30
0.0
 40
1.3
100
AcDbArc
 50
195.8809999999998
 51
265.0
  0
ARC
  5
9981
330
978F
100
AcDbEntity
  8
1
  6
Continuous
100
AcDbCircle
 10
185.233
 20
142.6849999999998
 30
0.0
 40
9.0
100
AcDbArc
 50
164.119
 51
195.8809999999998
  0
ARC
  5
9982
330
978F
100
AcDbEntity
  8
1
  6
Continuous
100
AcDbCircle
 10
177.827
 20
144.792
 30
0.0
 40
1.3
100
AcDbArc
 50
95.0
 51
164.119
  0
LINE
  5
9983
330
978F
100
AcDbEntity
  8
1
  6
Continuous
100
AcDbLine
 10
28.465
 20
110.685
 30
0.0
 11
28.465
 21
72.68550000000002
 31
0.0
  0
LINE
  5
9984
330
978F
100
AcDbEntity
  8
1
  6
Continuous
100
AcDbLine
 10
27.065
 20
124.685
 30
0.0
 11
27.065
 21
110.685
 31
0.0
  0
LINE
  5
9985
330
978F
100
AcDbEntity
  8
4
  6
CENTER
100
AcDbLine
 10
395.01895
 20
265.482
 30
0.0
 11
405.969435
 21
265.482
 31
0.0
  0
ENDSEC
  0
SECTION
  2
OBJECTS
  0
DICTIONARY
  5
977D
330
0
100
AcDbDictionary
281
     1
  3
ACAD_CIP_PREVIOUS_PRODUCT_INFO
350
99EB
  3
ACAD_COLOR
350
99CD
  3
ACAD_DETAILVIEWSTYLE
350
99E6
  3
ACAD_GROUP
350
977E
  3
ACAD_LAYOUT
350
978A
  3
ACAD_MATERIAL
350
999B
  3
ACAD_MLEADERSTYLE
350
99E2
  3
ACAD_MLINESTYLE
350
9787
  3
ACAD_PLOTSETTINGS
350
9789
  3
ACAD_PLOTSTYLENAME
350
9999
  3
ACAD_SCALELIST
350
99D0
  3
ACAD_SECTIONVIEWSTYLE
350
99E4
  3
ACAD_TABLESTYLE
350
99CE
  3
ACAD_VISUALSTYLE
350
99B4
  3
ACDB_RECOMPOSE_DATA
350
9A09
  3
AcDbVariableDictionary
350
99FC
  3
DWGPROPS
350
9A0A
  0
DICTIONARY
  5
99EC
330
9781
100
AcDbDictionary
280
     1
281
     1
  3
ADSK_XREC_LAYER_RECONCILED
360
99ED
  0
DICTIONARY
  5
99EE
330
9797
100
AcDbDictionary
280
     1
281
     1
  3
ADSK_XREC_LAYER_RECONCILED
360
99EF
  0
DICTIONARY
  5
99F0
330
9798
100
AcDbDictionary
280
     1
281
     1
  3
ADSK_XREC_LAYER_RECONCILED
360
99F1
  0
DICTIONARY
  5
99F2
330
9799
100
AcDbDictionary
280
     1
281
     1
  3
ADSK_XREC_LAYER_RECONCILED
360
99F3
  0
DICTIONARY
  5
99F4
330
979A
100
AcDbDictionary
280
     1
281
     1
  3
ADSK_XREC_LAYER_RECONCILED
360
99F5
  0
DICTIONARY
  5
99F6
330
979B
100
AcDbDictionary
280
     1
281
     1
  3
ADSK_XREC_LAYER_RECONCILED
360
99F7
  0
DICTIONARY
  5
99F8
330
979C
100
AcDbDictionary
280
     1
281
     1
  3
ADSK_XREC_LAYER_RECONCILED
360
99F9
  0
DICTIONARY
  5
99FA
330
979D
100
AcDbDictionary
280
     1
281
     1
  3
ADSK_XREC_LAYER_RECONCILED
360
99FB
  0
DICTIONARY
  5
9994
330
978F
100
AcDbDictionary
281
     1
  3
ACAD_LAYOUTSELFREF
350
9995
  0
DICTIONARY
  5
9992
330
978B
100
AcDbDictionary
281
     1
  3
ACAD_LAYOUTSELFREF
350
9993
  0
XRECORD
  5
99EB
102
{ACAD_REACTORS
330
977D
102
}
330
977D
100
AcDbXrecord
280
     1
300
ACDLT
300
2014
300
ACDLT_F_S
  0
DICTIONARY
  5
99CD
102
{ACAD_REACTORS
330
977D
102
}
330
977D
100
AcDbDictionary
281
     1
  0
DICTIONARY
  5
99E6
102
{ACAD_REACTORS
330
977D
102
}
330
977D
100
AcDbDictionary
281
     1
  3
Imperial24
350
99E7
  0
DICTIONARY
  5
977E
102
{ACAD_REACTORS
330
977D
102
}
330
977D
100
AcDbDictionary
281
     1
  0
DICTIONARY
  5
978A
102
{ACAD_REACTORS
330
977D
102
}
330
977D
100
AcDbDictionary
281
     1
  3
Model
350
99E8
  3
レイアウト1
350
99E9
  0
DICTIONARY
  5
999B
102
{ACAD_REACTORS
330
977D
102
}
330
977D
100
AcDbDictionary
281
     1
  3
ByBlock
350
99A4
  3
ByLayer
350
999C
  3
Global
350
99AC
  0
DICTIONARY
  5
99E2
102
{ACAD_REACTORS
330
977D
102
}
330
977D
100
AcDbDictionary
281
     1
  3
Standard
350
99E3
  0
DICTIONARY
  5
9787
102
{ACAD_REACTORS
330
977D
102
}
330
977D
100
AcDbDictionary
281
     1
  3
STANDARD
350
9788
  0
DICTIONARY
  5
9789
102
{ACAD_REACTORS
330
977D
102
}
330
977D
100
AcDbDictionary
281
     1
  0
ACDBDICTIONARYWDFLT
  5
9999
102
{ACAD_REACTORS
330
977D
102
}
330
977D
100
AcDbDictionary
281
     1
  3
Normal
350
999A
100
AcDbDictionaryWithDefault
340
999A
  0
DICTIONARY
  5
99D0
102
{ACAD_REACTORS
330
977D
102
}
330
977D
100
AcDbDictionary
281
     1
  3
A0
350
99D1
  3
A1
350
99D2
  3
A2
350
99D3
  3
A3
350
99D4
  3
A4
350
99D5
  3
A5
350
99D6
  3
A6
350
99D7
  3
A7
350
99D8
  3
A8
350
99D9
  3
A9
350
99DA
  3
B0
350
99DB
  3
B1
350
99DC
  3
B2
350
99DD
  3
B3
350
99DE
  3
B4
350
99DF
  3
B5
350
99E0
  3
B6
350
99E1
  0
DICTIONARY
  5
99E4
102
{ACAD_REACTORS
330
977D
102
}
330
977D
100
AcDbDictionary
281
     1
  3
Imperial24
350
99E5
  0
DICTIONARY
  5
99CE
102
{ACAD_REACTORS
330
977D
102
}
330
977D
100
AcDbDictionary
281
     1
  3
Standard
350
99CF
  0
DICTIONARY
  5
99B4
102
{ACAD_REACTORS
330
977D
102
}
330
977D
100
AcDbDictionary
281
     1
  3
2dWireframe
350
99BA
  3
Basic
350
99B9
  3
Brighten
350
99C0
  3
ColorChange
350
99C4
  3
Conceptual
350
99BD
  3
Dim
350
99BF
  3
EdgeColorOff
350
99CC
  3
Facepattern
350
99C3
  3
Flat
350
99B5
  3
FlatWithEdges
350
99B6
  3
Gouraud
350
99B7
  3
GouraudWithEdges
350
99B8
  3
Hidden
350
99BC
  3
JitterOff
350
99CA
  3
Linepattern
350
99C2
  3
OverhangOff
350
99CB
  3
Realistic
350
99BE
  3
Shaded
350
99C9
  3
Shaded with edges
350
99C8
  3
Shades of Gray
350
99C5
  3
Sketchy
350
99C6
  3
Thicken
350
99C1
  3
Wireframe
350
99BB
  3
X-Ray
350
99C7
  0
XRECORD
  5
9A09
102
{ACAD_REACTORS
330
977D
102
}
330
977D
100
AcDbXrecord
280
     1
 90
        1
330
99CF
  0
DICTIONARY
  5
99FC
102
{ACAD_REACTORS
330
977D
102
}
330
977D
100
AcDbDictionary
281
     1
  3
CANNOSCALE
350
9A01
  3
CMLEADERSTYLE
350
99FE
  3
CTABLESTYLE
350
99FD
  3
CVIEWDETAILSTYLE
350
99FF
  3
CVIEWSECTIONSTYLE
350
9A00
  3
DIMASSOC
350
9A04
  3
INDEXCTL
350
9A03
  3
SORTENTS
350
9A02
  3
XCLIPFRAME
350
9A05
  0
XRECORD
  5
9A0A
102
{ACAD_REACTORS
330
977D
102
}
330
977D
100
AcDbXrecord
280
     1
  1
DWGPROPS COOKIE
  2

  3

  4

  6

  7

  8
Yoshitsune
  9

300
=
301
=
302
=
303
=
304
=
305
=
306
=
307
=
308
=
309
=
 40
0.000014537037037
 41
2450737.665743287
 42
2457192.640198507
  1

 90
        0
  0
XRECORD
  5
99ED
102
{ACAD_REACTORS
330
99EC
102
}
330
99EC
100
AcDbXrecord
280
     1
290
     1
  0
XRECORD
  5
99EF
102
{ACAD_REACTORS
330
99EE
102
}
330
99EE
100
AcDbXrecord
280
     1
290
     1
  0
XRECORD
  5
99F1
102
{ACAD_REACTORS
330
99F0
102
}
330
99F0
100
AcDbXrecord
280
     1
290
     1
  0
XRECORD
  5
99F3
102
{ACAD_REACTORS
330
99F2
102
}
330
99F2
100
AcDbXrecord
280
     1
290
     1
  0
XRECORD
  5
99F5
102
{ACAD_REACTORS
330
99F4
102
}
330
99F4
100
AcDbXrecord
280
     1
290
     1
  0
XRECORD
  5
99F7
102
{ACAD_REACTORS
330
99F6
102
}
330
99F6
100
AcDbXrecord
280
     1
290
     1
  0
XRECORD
  5
99F9
102
{ACAD_REACTORS
330
99F8
102
}
330
99F8
100
AcDbXrecord
280
     1
290
     1
  0
XRECORD
  5
99FB
102
{ACAD_REACTORS
330
99FA
102
}
330
99FA
100
AcDbXrecord
280
     1
290
     1
  0
XRECORD
  5
9995
102
{ACAD_REACTORS
330
9994
102
}
330
9994
100
AcDbXrecord
280
     1
340
978F
  0
XRECORD
  5
9993
102
{ACAD_REACTORS
330
9992
102
}
330
9992
100
AcDbXrecord
280
     1
340
978B
  0
ACDBDETAILVIEWSTYLE
  5
99E7
102
{ACAD_XDICTIONARY
360
9A42
102
}
102
{ACAD_REACTORS
330
99E6
102
}
330
99E6
100
AcDbModelDocViewStyle
 70
     0
  3
Imperial24
290
     0
100
AcDbDetailViewStyle
 70
     0
 71
     0
 90
        3
 71
     1
340
9782
 40
0.24
340
0
 40
0.24
300

 40
0.36
280
     3
 71
     2
340
9786
 90
       25
 71
     3
340
9782
 40
0.24
 90
        1
 40
0.75
 90
        1
300
%<\AcVar ViewType \f "%tc1">% %<\AcVar ViewDetailId>%\PSCALE %<\AcVar ViewScale \f "%sn">%
 71
     4
340
9786
 90
       25
340
9786
 90
       25
280
     0
  0
LAYOUT
  5
99E8
102
{ACAD_XDICTIONARY
360
9A44
102
}
102
{ACAD_REACTORS
330
978A
102
}
330
978A
100
AcDbPlotSettings
  1

  2
Canon LBP9100C
  4

  6

 40
0.0
 41
0.0
 42
0.0
 43
0.0
 44
0.0
 45
0.0
 46
0.0
 47
0.0
 48
0.0
 49
0.0
140
0.0
141
0.0
142
1.0
143
1.0
 70
  1712
 72
     0
 73
     0
 74
     0
  7

 75
     0
147
1.0
148
0.0
149
0.0
100
AcDbLayout
  1
Model
 70
     1
 71
     0
 10
0.0
 20
0.0
 11
12.0
 21
9.0
 12
0.0
 22
0.0
 32
0.0
 14
0.0
 24
0.0
 34
0.0
 15
0.0
 25
0.0
 35
0.0
146
0.0
 13
0.0
 23
0.0
 33
0.0
 16
1.0
 26
0.0
 36
0.0
 17
0.0
 27
1.0
 37
0.0
 76
     0
330
978F
331
9991
  0
LAYOUT
  5
99E9
102
{ACAD_XDICTIONARY
360
9A46
102
}
102
{ACAD_REACTORS
330
978A
102
}
330
978A
100
AcDbPlotSettings
  1

  2
Canon LBP9100C
  4

  6

 40
0.0
 41
0.0
 42
0.0
 43
0.0
 44
0.0
 45
0.0
 46
0.0
 47
0.0
 48
0.0
 49
0.0
140
0.0
141
0.0
142
1.0
143
1.0
 70
   688
 72
     0
 73
     0
 74
     5
  7

 75
    16
147
1.0
148
0.0
149
0.0
100
AcDbLayout
  1
レイアウト1
 70
     0
 71
     1
 10
0.0
 20
0.0
 11
420.0
 21
297.0
 12
0.0
 22
0.0
 32
0.0
 14
1.000000000000000E+20
 24
1.000000000000000E+20
 34
1.000000000000000E+20
 15
-1.000000000000000E+20
 25
-1.000000000000000E+20
 35
-1.000000000000000E+20
146
0.0
 13
0.0
 23
0.0
 33
0.0
 16
1.0
 26
0.0
 36
0.0
 17
0.0
 27
1.0
 37
0.0
 76
     0
330
978B
  0
MATERIAL
  5
99A4
102
{ACAD_XDICTIONARY
360
99A5
102
}
102
{ACAD_REACTORS
330
999B
102
}
330
999B
100
AcDbMaterial
  1
ByBlock
 72
     0
 43
0.0208333333333333
 43
0.0
 43
0.0
 43
0.0
 43
0.0
 43
0.0208333333333333
 43
0.0
 43
0.0
 43
0.0
 43
0.0
 43
1.0
 43
0.0
 43
0.0
 43
0.0
 43
0.0
 43
1.0
 77
     0
 47
0.0208333333333333
 47
0.0
 47
0.0
 47
0.0
 47
0.0
 47
0.0208333333333333
 47
0.0
 47
0.0
 47
0.0
 47
0.0
 47
1.0
 47
0.0
 47
0.0
 47
0.0
 47
0.0
 47
1.0
171
     0
 49
0.0208333333333333
 49
0.0
 49
0.0
 49
0.0
 49
0.0
 49
0.0208333333333333
 49
0.0
 49
0.0
 49
0.0
 49
0.0
 49
1.0
 49
0.0
 49
0.0
 49
0.0
 49
0.0
 49
1.0
175
     0
142
0.0208333333333333
142
0.0
142
0.0
142
0.0
142
0.0
142
0.0208333333333333
142
0.0
142
0.0
142
0.0
142
0.0
142
1.0
142
0.0
142
0.0
142
0.0
142
0.0
142
1.0
179
     0
144
0.0208333333333333
144
0.0
144
0.0
144
0.0
144
0.0
144
0.0208333333333333
144
0.0
144
0.0
144
0.0
144
0.0
144
1.0
144
0.0
144
0.0
144
0.0
144
0.0
144
1.0
147
0.0208333333333333
147
0.0
147
0.0
147
0.0
147
0.0
147
0.0208333333333333
147
0.0
147
0.0
147
0.0
147
0.0
147
1.0
147
0.0
147
0.0
147
0.0
147
0.0
147
1.0
  0
MATERIAL
  5
999C
102
{ACAD_XDICTIONARY
360
999D
102
}
102
{ACAD_REACTORS
330
999B
102
}
330
999B
100
AcDbMaterial
  1
ByLayer
 72
     0
 43
0.0208333333333333
 43
0.0
 43
0.0
 43
0.0
 43
0.0
 43
0.0208333333333333
 43
0.0
 43
0.0
 43
0.0
 43
0.0
 43
1.0
 43
0.0
 43
0.0
 43
0.0
 43
0.0
 43
1.0
 77
     0
 47
0.0208333333333333
 47
0.0
 47
0.0
 47
0.0
 47
0.0
 47
0.0208333333333333
 47
0.0
 47
0.0
 47
0.0
 47
0.0
 47
1.0
 47
0.0
 47
0.0
 47
0.0
 47
0.0
 47
1.0
171
     0
 49
0.0208333333333333
 49
0.0
 49
0.0
 49
0.0
 49
0.0
 49
0.0208333333333333
 49
0.0
 49
0.0
 49
0.0
 49
0.0
 49
1.0
 49
0.0
 49
0.0
 49
0.0
 49
0.0
 49
1.0
175
     0
142
0.0208333333333333
142
0.0
142
0.0
142
0.0
142
0.0
142
0.0208333333333333
142
0.0
142
0.0
142
0.0
142
0.0
142
1.0
142
0.0
142
0.0
142
0.0
142
0.0
142
1.0
179
     0
144
0.0208333333333333
144
0.0
144
0.0
144
0.0
144
0.0
144
0.0208333333333333
144
0.0
144
0.0
144
0.0
144
0.0
144
1.0
144
0.0
144
0.0
144
0.0
144
0.0
144
1.0
147
0.0208333333333333
147
0.0
147
0.0
147
0.0
147
0.0
147
0.0208333333333333
147
0.0
147
0.0
147
0.0
147
0.0
147
1.0
147
0.0
147
0.0
147
0.0
147
0.0
147
1.0
  0
MATERIAL
  5
99AC
102
{ACAD_XDICTIONARY
360
99AD
102
}
102
{ACAD_REACTORS
330
999B
102
}
330
999B
100
AcDbMaterial
  1
Global
 72
     0
 43
0.0208333333333333
 43
0.0
 43
0.0
 43
0.0
 43
0.0
 43
0.0208333333333333
 43
0.0
 43
0.0
 43
0.0
 43
0.0
 43
1.0
 43
0.0
 43
0.0
 43
0.0
 43
0.0
 43
1.0
 77
     0
 47
0.0208333333333333
 47
0.0
 47
0.0
 47
0.0
 47
0.0
 47
0.0208333333333333
 47
0.0
 47
0.0
 47
0.0
 47
0.0
 47
1.0
 47
0.0
 47
0.0
 47
0.0
 47
0.0
 47
1.0
171
     0
 49
0.0208333333333333
 49
0.0
 49
0.0
 49
0.0
 49
0.0
 49
0.0208333333333333
 49
0.0
 49
0.0
 49
0.0
 49
0.0
 49
1.0
 49
0.0
 49
0.0
 49
0.0
 49
0.0
 49
1.0
175
     0
142
0.0208333333333333
142
0.0
142
0.0
142
0.0
142
0.0
142
0.0208333333333333
142
0.0
142
0.0
142
0.0
142
0.0
142
1.0
142
0.0
142
0.0
142
0.0
142
0.0
142
1.0
179
     0
144
0.0208333333333333
144
0.0
144
0.0
144
0.0
144
0.0
144
0.0208333333333333
144
0.0
144
0.0
144
0.0
144
0.0
144
1.0
144
0.0
144
0.0
144
0.0
144
0.0
144
1.0
147
0.0208333333333333
147
0.0
147
0.0
147
0.0
147
0.0
147
0.0208333333333333
147
0.0
147
0.0
147
0.0
147
0.0
147
1.0
147
0.0
147
0.0
147
0.0
147
0.0
147
1.0
  0
MLEADERSTYLE
  5
99E3
102
{ACAD_REACTORS
330
99E2
102
}
330
99E2
100
AcDbMLeaderStyle
170
     2
171
     1
172
     0
 90
        2
 40
0.0
 41
0.0
173
     1
 91
-1056964608
340
9784
 92
       -2
290
     1
 42
0.09
291
     1
 43
0.36
  3
Standard
 44
0.18
300

342
9782
174
     1
178
     6
175
     1
176
     0
 93
-1056964608
 45
0.18
292
     0
297
     0
 46
0.18
 94
-1056964608
 47
1.0
 49
1.0
140
1.0
293
     1
141
0.0
294
     1
177
     0
142
1.0
295
     0
296
     0
143
0.125
1001
ACAD_MLEADERVER
1070
     2
  0
MLINESTYLE
  5
9788
102
{ACAD_REACTORS
330
9787
102
}
330
9787
100
AcDbMlineStyle
  2
STANDARD
 70
     0
  3

 62
   256
 51
90.0
 52
90.0
 71
     2
 49
0.5
 62
   256
  6
BYLAYER
 49
-0.5
 62
   256
  6
BYLAYER
  0
ACDBPLACEHOLDER
  5
999A
102
{ACAD_REACTORS
330
9999
102
}
330
9999
  0
SCALE
  5
99D1
102
{ACAD_REACTORS
330
99D0
102
}
330
99D0
100
AcDbScale
 70
     0
300
1:1
140
1.0
141
1.0
290
     1
  0
SCALE
  5
99D2
102
{ACAD_REACTORS
330
99D0
102
}
330
99D0
100
AcDbScale
 70
     0
300
1/128" = 1'-0"
140
0.0078125
141
12.0
290
     0
  0
SCALE
  5
99D3
102
{ACAD_REACTORS
330
99D0
102
}
330
99D0
100
AcDbScale
 70
     0
300
1/64" = 1'-0"
140
0.015625
141
12.0
290
     0
  0
SCALE
  5
99D4
102
{ACAD_REACTORS
330
99D0
102
}
330
99D0
100
AcDbScale
 70
     0
300
1/32" = 1'-0"
140
0.03125
141
12.0
290
     0
  0
SCALE
  5
99D5
102
{ACAD_REACTORS
330
99D0
102
}
330
99D0
100
AcDbScale
 70
     0
300
1/16" = 1'-0"
140
0.0625
141
12.0
290
     0
  0
SCALE
  5
99D6
102
{ACAD_REACTORS
330
99D0
102
}
330
99D0
100
AcDbScale
 70
     0
300
3/32" = 1'-0"
140
0.09375
141
12.0
290
     0
  0
SCALE
  5
99D7
102
{ACAD_REACTORS
330
99D0
102
}
330
99D0
100
AcDbScale
 70
     0
300
1/8" = 1'-0"
140
0.125
141
12.0
290
     0
  0
SCALE
  5
99D8
102
{ACAD_REACTORS
330
99D0
102
}
330
99D0
100
AcDbScale
 70
     0
300
3/16" = 1'-0"
140
0.1875
141
12.0
290
     0
  0
SCALE
  5
99D9
102
{ACAD_REACTORS
330
99D0
102
}
330
99D0
100
AcDbScale
 70
     0
300
1/4" = 1'-0"
140
0.25
141
12.0
290
     0
  0
SCALE
  5
99DA
102
{ACAD_REACTORS
330
99D0
102
}
330
99D0
100
AcDbScale
 70
     0
300
3/8" = 1'-0"
140
0.375
141
12.0
290
     0
  0
SCALE
  5
99DB
102
{ACAD_REACTORS
330
99D0
102
}
330
99D0
100
AcDbScale
 70
     0
300
1/2" = 1'-0"
140
0.5
141
12.0
290
     0
  0
SCALE
  5
99DC
102
{ACAD_REACTORS
330
99D0
102
}
330
99D0
100
AcDbScale
 70
     0
300
3/4" = 1'-0"
140
0.75
141
12.0
290
     0
  0
SCALE
  5
99DD
102
{ACAD_REACTORS
330
99D0
102
}
330
99D0
100
AcDbScale
 70
     0
300
1" = 1'-0"
140
1.0
141
12.0
290
     0
  0
SCALE
  5
99DE
102
{ACAD_REACTORS
330
99D0
102
}
330
99D0
100
AcDbScale
 70
     0
300
1-1/2" = 1'-0"
140
1.5
141
12.0
290
     0
  0
SCALE
  5
99DF
102
{ACAD_REACTORS
330
99D0
102
}
330
99D0
100
AcDbScale
 70
     0
300
3" = 1'-0"
140
3.0
141
12.0
290
     0
  0
SCALE
  5
99E0
102
{ACAD_REACTORS
330
99D0
102
}
330
99D0
100
AcDbScale
 70
     0
300
6" = 1'-0"
140
6.0
141
12.0
290
     0
  0
SCALE
  5
99E1
102
{ACAD_REACTORS
330
99D0
102
}
330
99D0
100
AcDbScale
 70
     0
300
1'-0" = 1'-0"
140
12.0
141
12.0
290
     0
  0
ACDBSECTIONVIEWSTYLE
  5
99E5
102
{ACAD_XDICTIONARY
360
9A40
102
}
102
{ACAD_REACTORS
330
99E4
102
}
330
99E4
100
AcDbModelDocViewStyle
 70
     0
  3
Imperial24
290
     0
100
AcDbSectionViewStyle
 70
     0
 71
     0
 90
       78
 71
     1
340
9782
 40
0.24
340
0
340
0
 40
0.24
300
I, O, Q, S, X, Z
 40
0.48
 90
        3
 40
0.18
 90
        1
 71
     2
340
9786
 90
       25
340
9786
 90
       50
 40
0.24
 40
0.0
 40
0.24
 71
     3
340
9782
 40
0.24
 90
        1
 40
0.75
 90
        1
300
%<\AcVar ViewType \f "%tc1">% %<\AcVar ViewSectionStartId>%-%<\AcVar ViewSectionEndId>%\PSCALE %<\AcVar ViewScale \f "%sn">%
 71
     4
300
ANSI31
 40
1.0
 90
        0
290
     0
290
     0
 90
        6
 40
0.0
 40
1.570796326794896
 40
0.2617993877991494
 40
1.308996938995747
 40
-0.2617993877991494
 40
1.832595714594046
  0
TABLESTYLE
  5
99CF
102
{ACAD_XDICTIONARY
360
9A07
102
}
102
{ACAD_REACTORS
330
99CE
102
}
330
99CE
100
AcDbTableStyle
  3
Standard
 70
     0
 71
     0
 40
0.06
 41
0.06
280
     0
281
     0
  7
STANDARD
140
0.18
170
     2
 62
     0
 63
     7
283
     0
274
    -2
284
     1
 64
     0
275
    -2
285
     1
 65
     0
276
    -2
286
     1
 66
     0
277
    -2
287
     1
 67
     0
278
    -2
288
     1
 68
     0
279
    -2
289
     1
 69
     0
  7
STANDARD
140
0.25
170
     5
 62
     0
 63
     7
283
     0
274
    -2
284
     1
 64
     0
275
    -2
285
     1
 65
     0
276
    -2
286
     1
 66
     0
277
    -2
287
     1
 67
     0
278
    -2
288
     1
 68
     0
279
    -2
289
     1
 69
     0
  7
STANDARD
140
0.18
170
     5
 62
     0
 63
     7
283
     0
274
    -2
284
     1
 64
     0
275
    -2
285
     1
 65
     0
276
    -2
286
     1
 66
     0
277
    -2
287
     1
 67
     0
278
    -2
288
     1
 68
     0
279
    -2
289
     1
 69
     0
  0
VISUALSTYLE
  5
99BA
102
{ACAD_XDICTIONARY
360
9A18
102
}
102
{ACAD_REACTORS
330
99B4
102
}
330
99B4
100
AcDbVisualStyle
  2
2dWireframe
 70
     4
 71
     0
 72
     2
 73
     0
 90
        0
 40
-0.6
 41
-30.0
 62
     5
 63
     7
 74
     1
 91
        4
 64
     7
 65
   257
 75
     1
175
     1
 42
1.0
 92
        0
 66
   257
 43
1.0
 76
     1
 77
     6
 78
     2
 67
     7
 79
     5
170
     0
171
     0
290
     0
174
     0
 93
        1
 44
0.0
173
     0
291
     0
 45
0.0
1001
ACAD
1000
AcDbSavedByObjectVersion
1070
     0
  0
VISUALSTYLE
  5
99B9
102
{ACAD_XDICTIONARY
360
9A16
102
}
102
{ACAD_REACTORS
330
99B4
102
}
330
99B4
100
AcDbVisualStyle
  2
Basic
 70
     7
 71
     1
 72
     0
 73
     1
 90
        0
 40
-0.6
 41
-30.0
 62
     5
 63
     7
 74
     0
 91
        4
 64
     7
 65
   257
 75
     1
175
     1
 42
1.0
 92
        8
 66
     7
 43
1.0
 76
     1
 77
     6
 78
     2
 67
     7
 79
     5
170
     0
171
     0
290
     0
174
     0
 93
        1
 44
0.0
173
     0
291
     1
 45
0.0
1001
ACAD
1000
AcDbSavedByObjectVersion
1070
     0
  0
VISUALSTYLE
  5
99C0
102
{ACAD_XDICTIONARY
360
9A24
102
}
102
{ACAD_REACTORS
330
99B4
102
}
330
99B4
100
AcDbVisualStyle
  2
Brighten
 70
    12
 71
     2
 72
     2
 73
     0
 90
        0
 40
-0.6
 41
-30.0
 62
     5
 63
     7
 74
     1
 91
        4
 64
     7
 65
   257
 75
     1
175
     1
 42
1.0
 92
        8
 66
     7
 43
1.0
 76
     1
 77
     6
 78
     2
 67
     7
 79
     5
170
     0
171
     0
290
     0
174
     0
 93
        1
 44
50.0
173
     0
291
     1
 45
0.0
1001
ACAD
1000
AcDbSavedByObjectVersion
1070
     0
  0
VISUALSTYLE
  5
99C4
102
{ACAD_XDICTIONARY
360
9A2C
102
}
102
{ACAD_REACTORS
330
99B4
102
}
330
99B4
100
AcDbVisualStyle
  2
ColorChange
 70
    16
 71
     2
 72
     2
 73
     3
 90
        0
 40
-0.6
 41
-30.0
 62
     5
 63
     8
 74
     1
 91
        4
 64
     7
 65
   257
 75
     1
175
     1
 42
1.0
 92
        8
 66
     8
 43
1.0
 76
     1
 77
     6
 78
     2
 67
     7
 79
     5
170
     0
171
     0
290
     0
174
     0
 93
        1
 44
0.0
173
     0
291
     1
 45
0.0
1001
ACAD
1000
AcDbSavedByObjectVersion
1070
     0
  0
VISUALSTYLE
  5
99BD
102
{ACAD_XDICTIONARY
360
9A1E
102
}
102
{ACAD_REACTORS
330
99B4
102
}
330
99B4
100
AcDbVisualStyle
  2
Conceptual
 70
     9
 71
     3
 72
     2
 73
     0
 90
        0
 40
-0.6
 41
-30.0
 62
     5
 63
     7
 74
     2
 91
        2
 64
     7
 65
   257
 75
     1
175
     1
 42
179.0
 92
        8
 66
     7
 43
1.0
 76
     1
 77
     6
 78
     2
 67
     7
 79
     3
170
     0
171
     0
290
     0
174
     0
 93
        1
 44
0.0
173
     0
291
     0
 45
0.0
1001
ACAD
1000
AcDbSavedByObjectVersion
1070
     0
  0
VISUALSTYLE
  5
99BF
102
{ACAD_XDICTIONARY
360
9A22
102
}
102
{ACAD_REACTORS
330
99B4
102
}
330
99B4
100
AcDbVisualStyle
  2
Dim
 70
    11
 71
     2
 72
     2
 73
     0
 90
        0
 40
-0.6
 41
-30.0
 62
     5
 63
     7
 74
     1
 91
        4
 64
     7
 65
   257
 75
     1
175
     1
 42
1.0
 92
        8
 66
     7
 43
1.0
 76
     1
 77
     6
 78
     2
 67
     7
 79
     5
170
     0
171
     0
290
     0
174
     0
 93
        1
 44
-50.0
173
     0
291
     1
 45
0.0
1001
ACAD
1000
AcDbSavedByObjectVersion
1070
     0
  0
VISUALSTYLE
  5
99CC
102
{ACAD_XDICTIONARY
360
9A3C
102
}
102
{ACAD_REACTORS
330
99B4
102
}
330
99B4
100
AcDbVisualStyle
  2
EdgeColorOff
 70
    22
 71
     2
 72
     2
 73
     0
 90
        0
 40
-0.6
 41
-30.0
 62
     5
 63
     7
 74
     1
 91
        4
 64
     7
 65
   257
 75
     1
175
     1
 42
1.0
 92
        8
 66
     7
 43
1.0
 76
     1
 77
     6
 78
     2
 67
     7
 79
     5
170
     0
171
     0
290
     0
174
     0
 93
        1
 44
0.0
173
     0
291
     1
 45
0.0
1001
ACAD
1000
AcDbSavedByObjectVersion
1070
     0
  0
VISUALSTYLE
  5
99C3
102
{ACAD_XDICTIONARY
360
9A2A
102
}
102
{ACAD_REACTORS
330
99B4
102
}
330
99B4
100
AcDbVisualStyle
  2
Facepattern
 70
    15
 71
     2
 72
     2
 73
     0
 90
        0
 40
-0.6
 41
-30.0
 62
     5
 63
     7
 74
     1
 91
        4
 64
     7
 65
   257
 75
     1
175
     1
 42
1.0
 92
        8
 66
     7
 43
1.0
 76
     1
 77
     6
 78
     2
 67
     7
 79
     5
170
     0
171
     0
290
     0
174
     0
 93
        1
 44
0.0
173
     0
291
     1
 45
0.0
1001
ACAD
1000
AcDbSavedByObjectVersion
1070
     0
  0
VISUALSTYLE
  5
99B5
102
{ACAD_XDICTIONARY
360
9A0E
102
}
102
{ACAD_REACTORS
330
99B4
102
}
330
99B4
100
AcDbVisualStyle
  2
Flat
 70
     0
 71
     2
 72
     1
 73
     1
 90
        2
 40
-0.6
 41
30.0
 62
     5
 63
     7
 74
     0
 91
        0
 64
     7
 65
   257
 75
     1
175
     1
 42
1.0
 92
        8
 66
     7
 43
1.0
 76
     1
 77
     6
 78
     2
 67
     7
 79
     5
170
     0
171
     0
290
     0
174
     0
 93
       13
 44
0.0
173
     0
291
     1
 45
0.0
1001
ACAD
1000
AcDbSavedByObjectVersion
1070
     0
  0
VISUALSTYLE
  5
99B6
102
{ACAD_XDICTIONARY
360
9A10
102
}
102
{ACAD_REACTORS
330
99B4
102
}
330
99B4
100
AcDbVisualStyle
  2
FlatWithEdges
 70
     1
 71
     2
 72
     1
 73
     1
 90
        2
 40
-0.6
 41
30.0
 62
     5
 63
     7
 74
     1
 91
        0
 64
     7
 65
   257
 75
     1
175
     1
 42
1.0
 92
        0
 66
   257
 43
1.0
 76
     1
 77
     6
 78
     2
 67
     7
 79
     5
170
     0
171
     0
290
     0
174
     0
 93
       13
 44
0.0
173
     0
291
     1
 45
0.0
1001
ACAD
1000
AcDbSavedByObjectVersion
1070
     0
  0
VISUALSTYLE
  5
99B7
102
{ACAD_XDICTIONARY
360
9A12
102
}
102
{ACAD_REACTORS
330
99B4
102
}
330
99B4
100
AcDbVisualStyle
  2
Gouraud
 70
     2
 71
     2
 72
     2
 73
     1
 90
        2
 40
-0.6
 41
30.0
 62
     5
 63
     7
 74
     0
 91
        0
 64
     7
 65
   257
 75
     1
175
     1
 42
1.0
 92
        0
 66
     7
 43
1.0
 76
     1
 77
     6
 78
     2
 67
     7
 79
     5
170
     0
171
     0
290
     0
174
     0
 93
       13
 44
0.0
173
     0
291
     1
 45
0.0
1001
ACAD
1000
AcDbSavedByObjectVersion
1070
     0
  0
VISUALSTYLE
  5
99B8
102
{ACAD_XDICTIONARY
360
9A14
102
}
102
{ACAD_REACTORS
330
99B4
102
}
330
99B4
100
AcDbVisualStyle
  2
GouraudWithEdges
 70
     3
 71
     2
 72
     2
 73
     1
 90
        2
 40
-0.6
 41
30.0
 62
     5
 63
     7
 74
     1
 91
        0
 64
     7
 65
   257
 75
     1
175
     1
 42
1.0
 92
        0
 66
   257
 43
1.0
 76
     1
 77
     6
 78
     2
 67
     7
 79
     5
170
     0
171
     0
290
     0
174
     0
 93
       13
 44
0.0
173
     0
291
     1
 45
0.0
1001
ACAD
1000
AcDbSavedByObjectVersion
1070
     0
  0
VISUALSTYLE
  5
99BC
102
{ACAD_XDICTIONARY
360
9A1C
102
}
102
{ACAD_REACTORS
330
99B4
102
}
330
99B4
100
AcDbVisualStyle
  2
Hidden
 70
     6
 71
     1
 72
     2
 73
     2
 90
        0
 40
-0.6
 41
-30.0
 62
     5
 63
     7
 74
     2
 91
        2
 64
     7
 65
   257
 75
     2
175
     1
 42
40.0
 92
        0
 66
   257
 43
1.0
 76
     1
 77
     6
 78
     2
 67
     7
 79
     3
170
     0
171
     0
290
     0
174
     0
 93
        1
 44
0.0
173
     0
291
     0
 45
0.0
1001
ACAD
1000
AcDbSavedByObjectVersion
1070
     0
  0
VISUALSTYLE
  5
99CA
102
{ACAD_XDICTIONARY
360
9A38
102
}
102
{ACAD_REACTORS
330
99B4
102
}
330
99B4
100
AcDbVisualStyle
  2
JitterOff
 70
    20
 71
     2
 72
     2
 73
     0
 90
        0
 40
-0.6
 41
-30.0
 62
     5
 63
     7
 74
     1
 91
        4
 64
     7
 65
   257
 75
     1
175
     1
 42
1.0
 92
       10
 66
     7
 43
1.0
 76
     1
 77
     6
 78
     2
 67
     7
 79
     5
170
     0
171
     0
290
     0
174
     0
 93
        1
 44
0.0
173
     0
291
     1
 45
0.0
1001
ACAD
1000
AcDbSavedByObjectVersion
1070
     0
  0
VISUALSTYLE
  5
99C2
102
{ACAD_XDICTIONARY
360
9A28
102
}
102
{ACAD_REACTORS
330
99B4
102
}
330
99B4
100
AcDbVisualStyle
  2
Linepattern
 70
    14
 71
     2
 72
     2
 73
     0
 90
        0
 40
-0.6
 41
-30.0
 62
     5
 63
     7
 74
     1
 91
        4
 64
     7
 65
   257
 75
     7
175
     7
 42
1.0
 92
        8
 66
     7
 43
1.0
 76
     1
 77
     6
 78
     2
 67
     7
 79
     5
170
     0
171
     0
290
     0
174
     0
 93
        1
 44
0.0
173
     0
291
     1
 45
0.0
1001
ACAD
1000
AcDbSavedByObjectVersion
1070
     0
  0
VISUALSTYLE
  5
99CB
102
{ACAD_XDICTIONARY
360
9A3A
102
}
102
{ACAD_REACTORS
330
99B4
102
}
330
99B4
100
AcDbVisualStyle
  2
OverhangOff
 70
    21
 71
     2
 72
     2
 73
     0
 90
        0
 40
-0.6
 41
-30.0
 62
     5
 63
     7
 74
     1
 91
        4
 64
     7
 65
   257
 75
     1
175
     1
 42
1.0
 92
        9
 66
     7
 43
1.0
 76
     1
 77
     6
 78
     2
 67
     7
 79
     5
170
     0
171
     0
290
     0
174
     0
 93
        1
 44
0.0
173
     0
291
     1
 45
0.0
1001
ACAD
1000
AcDbSavedByObjectVersion
1070
     0
  0
VISUALSTYLE
  5
99BE
102
{ACAD_XDICTIONARY
360
9A20
102
}
102
{ACAD_REACTORS
330
99B4
102
}
330
99B4
100
AcDbVisualStyle
  2
Realistic
 70
     8
 71
     2
 72
     3
 73
     0
 90
        2
 40
-0.6
 41
30.0
 62
     5
 63
     7
 74
     0
 91
        0
 64
     7
 65
   257
 75
     1
175
     1
 42
1.0
 92
        8
 66
   257
 43
1.0
 76
     1
 77
     6
 78
     2
 67
     7
 79
     3
170
     0
171
     0
290
     0
174
     0
 93
       13
 44
0.0
173
     0
291
     0
 45
0.0
1001
ACAD
1000
AcDbSavedByObjectVersion
1070
     0
  0
VISUALSTYLE
  5
99C9
102
{ACAD_XDICTIONARY
360
9A36
102
}
102
{ACAD_REACTORS
330
99B4
102
}
330
99B4
100
AcDbVisualStyle
  2
Shaded
 70
    27
 71
     2
 72
     2
 73
     1
 90
        2
 40
-0.6
 41
30.0
 62
     5
 63
     7
 74
     0
 91
        4
 64
     7
 65
   257
 75
     1
175
     1
 42
1.0
 92
        8
 66
   257
 43
1.0
 76
     1
 77
     6
 78
     2
 67
     8
 79
     3
170
     0
171
     0
290
     0
174
     0
 93
        5
 44
0.0
173
     0
291
     0
 45
0.0
1001
ACAD
1000
AcDbSavedByObjectVersion
1070
     0
  0
VISUALSTYLE
  5
99C8
102
{ACAD_XDICTIONARY
360
9A34
102
}
102
{ACAD_REACTORS
330
99B4
102
}
330
99B4
100
AcDbVisualStyle
  2
Shaded with edges
 70
    26
 71
     2
 72
     2
 73
     1
 90
        2
 40
-0.6
 41
30.0
 62
     5
 63
     7
 74
     1
 91
       10
 64
     7
 65
   257
 75
     2
175
     1
 42
1.0
 92
        8
 66
   257
 43
1.0
 76
     1
 77
     6
 78
     2
 67
     7
 79
     3
170
     0
171
     0
290
     0
174
     0
 93
        5
 44
0.0
173
     0
291
     0
 45
0.0
1001
ACAD
1000
AcDbSavedByObjectVersion
1070
     0
  0
VISUALSTYLE
  5
99C5
102
{ACAD_XDICTIONARY
360
9A2E
102
}
102
{ACAD_REACTORS
330
99B4
102
}
330
99B4
100
AcDbVisualStyle
  2
Shades of Gray
 70
    23
 71
     2
 72
     2
 73
     3
 90
        0
 40
-0.6
 41
-30.0
 62
     5
 63
     7
 74
     2
 91
        2
 64
     7
 65
     7
 75
     1
175
     1
 42
40.0
 92
        8
 66
     7
 43
1.0
 76
     1
 77
     6
 78
     2
 67
     7
 79
     3
170
     0
171
     0
290
     0
174
     0
 93
        1
 44
0.0
173
     0
291
     0
 45
0.0
1001
ACAD
1000
AcDbSavedByObjectVersion
1070
     0
  0
VISUALSTYLE
  5
99C6
102
{ACAD_XDICTIONARY
360
9A30
102
}
102
{ACAD_REACTORS
330
99B4
102
}
330
99B4
100
AcDbVisualStyle
  2
Sketchy
 70
    24
 71
     1
 72
     2
 73
     2
 90
        0
 40
-0.6
 41
-30.0
 62
     5
 63
     7
 74
     2
 91
        2
 64
     7
 65
     7
 75
     1
175
     1
 42
40.0
 92
       11
 66
     7
 43
1.0
 76
     1
 77
     6
 78
     2
 67
     7
 79
     6
170
     0
171
     0
290
     0
174
     0
 93
        1
 44
0.0
173
     0
291
     0
 45
0.0
1001
ACAD
1000
AcDbSavedByObjectVersion
1070
     0
  0
VISUALSTYLE
  5
99C1
102
{ACAD_XDICTIONARY
360
9A26
102
}
102
{ACAD_REACTORS
330
99B4
102
}
330
99B4
100
AcDbVisualStyle
  2
Thicken
 70
    13
 71
     2
 72
     2
 73
     0
 90
        0
 40
-0.6
 41
-30.0
 62
     5
 63
     7
 74
     1
 91
        4
 64
     7
 65
   257
 75
     1
175
     1
 42
1.0
 92
       12
 66
     7
 43
1.0
 76
     1
 77
     6
 78
     2
 67
     7
 79
     5
170
     0
171
     0
290
     0
174
     0
 93
        1
 44
0.0
173
     0
291
     1
 45
0.0
1001
ACAD
1000
AcDbSavedByObjectVersion
1070
     0
  0
VISUALSTYLE
  5
99BB
102
{ACAD_XDICTIONARY
360
9A1A
102
}
102
{ACAD_REACTORS
330
99B4
102
}
330
99B4
100
AcDbVisualStyle
  2
Wireframe
 70
     5
 71
     0
 72
     2
 73
     0
 90
        0
 40
-0.6
 41
-30.0
 62
     5
 63
     7
 74
     1
 91
        4
 64
     7
 65
   257
 75
     1
175
     1
 42
1.0
 92
        0
 66
   257
 43
1.0
 76
     1
 77
     6
 78
     2
 67
     7
 79
     3
170
     0
171
     0
290
     0
174
     0
 93
        1
 44
0.0
173
     0
291
     0
 45
0.0
1001
ACAD
1000
AcDbSavedByObjectVersion
1070
     0
  0
VISUALSTYLE
  5
99C7
102
{ACAD_XDICTIONARY
360
9A32
102
}
102
{ACAD_REACTORS
330
99B4
102
}
330
99B4
100
AcDbVisualStyle
  2
X-Ray
 70
    25
 71
     2
 72
     2
 73
     1
 90
        1
 40
0.5
 41
-30.0
 62
     5
 63
     7
 74
     1
 91
        0
 64
     7
 65
   257
 75
     1
175
     1
 42
1.0
 92
        8
 66
     7
 43
1.0
 76
     1
 77
     6
 78
     2
 67
     7
 79
     3
170
     0
171
     0
290
     0
174
     0
 93
       13
 44
0.0
173
     0
291
     0
 45
0.0
1001
ACAD
1000
AcDbSavedByObjectVersion
1070
     0
  0
DICTIONARYVAR
  5
9A01
102
{ACAD_REACTORS
330
99FC
102
}
330
99FC
100
DictionaryVariables
280
     0
  1
1:1
  0
DICTIONARYVAR
  5
99FE
102
{ACAD_REACTORS
330
99FC
102
}
330
99FC
100
DictionaryVariables
280
     0
  1
STANDARD
  0
DICTIONARYVAR
  5
99FD
102
{ACAD_REACTORS
330
99FC
102
}
330
99FC
100
DictionaryVariables
280
     0
  1
STANDARD
  0
DICTIONARYVAR
  5
99FF
102
{ACAD_REACTORS
330
99FC
102
}
330
99FC
100
DictionaryVariables
280
     0
  1
Imperial24
  0
DICTIONARYVAR
  5
9A00
102
{ACAD_REACTORS
330
99FC
102
}
330
99FC
100
DictionaryVariables
280
     0
  1
Imperial24
  0
DICTIONARYVAR
  5
9A04
102
{ACAD_REACTORS
330
99FC
102
}
330
99FC
100
DictionaryVariables
280
     0
  1
1
  0
DICTIONARYVAR
  5
9A03
102
{ACAD_REACTORS
330
99FC
102
}
330
99FC
100
DictionaryVariables
280
     0
  1
0
  0
DICTIONARYVAR
  5
9A02
102
{ACAD_REACTORS
330
99FC
102
}
330
99FC
100
DictionaryVariables
280
     0
  1
127
  0
DICTIONARYVAR
  5
9A05
102
{ACAD_REACTORS
330
99FC
102
}
330
99FC
100
DictionaryVariables
280
     0
  1
2
  0
DICTIONARY
  5
9A42
330
99E7
100
AcDbDictionary
280
     1
281
     1
  3
ACAD_XREC_ROUNDTRIP
360
9A43
  0
DICTIONARY
  5
9A44
330
99E8
100
AcDbDictionary
280
     1
281
     1
  3
ACAD_XREC_ROUNDTRIP
360
9A45
  0
DICTIONARY
  5
9A46
330
99E9
100
AcDbDictionary
280
     1
281
     1
  3
ACAD_XREC_ROUNDTRIP
360
9A47
  0
DICTIONARY
  5
99A5
330
99A4
100
AcDbDictionary
280
     1
281
     1
  3
ACAD_XREC_ROUNDTRIP
360
9A0C
  3
BUMPTILE
360
99A7
  3
DIFFUSETILE
360
99A6
  3
OPACITYTILE
360
99AA
  3
REFLECTIONTILE
360
99A9
  3
REFRACTIONTILE
360
99AB
  3
SPECULARTILE
360
99A8
  0
DICTIONARY
  5
999D
330
999C
100
AcDbDictionary
280
     1
281
     1
  3
ACAD_XREC_ROUNDTRIP
360
9A0B
  3
BUMPTILE
360
999F
  3
DIFFUSETILE
360
999E
  3
OPACITYTILE
360
99A2
  3
REFLECTIONTILE
360
99A1
  3
REFRACTIONTILE
360
99A3
  3
SPECULARTILE
360
99A0
  0
DICTIONARY
  5
99AD
330
99AC
100
AcDbDictionary
280
     1
281
     1
  3
ACAD_XREC_ROUNDTRIP
360
9A0D
  3
BUMPTILE
360
99AF
  3
DIFFUSETILE
360
99AE
  3
OPACITYTILE
360
99B2
  3
REFLECTIONTILE
360
99B1
  3
REFRACTIONTILE
360
99B3
  3
SPECULARTILE
360
99B0
  0
DICTIONARY
  5
9A40
330
99E5
100
AcDbDictionary
280
     1
281
     1
  3
ACAD_XREC_ROUNDTRIP
360
9A41
  0
DICTIONARY
  5
9A07
330
99CF
100
AcDbDictionary
280
     1
281
     1
  3
ACAD_ROUNDTRIP_2008_TABLESTYLE_CELLSTYLEMAP
360
9A08
  3
ACAD_XREC_ROUNDTRIP
360
9A3E
  0
DICTIONARY
  5
9A18
330
99BA
100
AcDbDictionary
280
     1
281
     1
  3
ACAD_XREC_ROUNDTRIP
360
9A19
  0
DICTIONARY
  5
9A16
330
99B9
100
AcDbDictionary
280
     1
281
     1
  3
ACAD_XREC_ROUNDTRIP
360
9A17
  0
DICTIONARY
  5
9A24
330
99C0
100
AcDbDictionary
280
     1
281
     1
  3
ACAD_XREC_ROUNDTRIP
360
9A25
  0
DICTIONARY
  5
9A2C
330
99C4
100
AcDbDictionary
280
     1
281
     1
  3
ACAD_XREC_ROUNDTRIP
360
9A2D
  0
DICTIONARY
  5
9A1E
330
99BD
100
AcDbDictionary
280
     1
281
     1
  3
ACAD_XREC_ROUNDTRIP
360
9A1F
  0
DICTIONARY
  5
9A22
330
99BF
100
AcDbDictionary
280
     1
281
     1
  3
ACAD_XREC_ROUNDTRIP
360
9A23
  0
DICTIONARY
  5
9A3C
330
99CC
100
AcDbDictionary
280
     1
281
     1
  3
ACAD_XREC_ROUNDTRIP
360
9A3D
  0
DICTIONARY
  5
9A2A
330
99C3
100
AcDbDictionary
280
     1
281
     1
  3
ACAD_XREC_ROUNDTRIP
360
9A2B
  0
DICTIONARY
  5
9A0E
330
99B5
100
AcDbDictionary
280
     1
281
     1
  3
ACAD_XREC_ROUNDTRIP
360
9A0F
  0
DICTIONARY
  5
9A10
330
99B6
100
AcDbDictionary
280
     1
281
     1
  3
ACAD_XREC_ROUNDTRIP
360
9A11
  0
DICTIONARY
  5
9A12
330
99B7
100
AcDbDictionary
280
     1
281
     1
  3
ACAD_XREC_ROUNDTRIP
360
9A13
  0
DICTIONARY
  5
9A14
330
99B8
100
AcDbDictionary
280
     1
281
     1
  3
ACAD_XREC_ROUNDTRIP
360
9A15
  0
DICTIONARY
  5
9A1C
330
99BC
100
AcDbDictionary
280
     1
281
     1
  3
ACAD_XREC_ROUNDTRIP
360
9A1D
  0
DICTIONARY
  5
9A38
330
99CA
100
AcDbDictionary
280
     1
281
     1
  3
ACAD_XREC_ROUNDTRIP
360
9A39
  0
DICTIONARY
  5
9A28
330
99C2
100
AcDbDictionary
280
     1
281
     1
  3
ACAD_XREC_ROUNDTRIP
360
9A29
  0
DICTIONARY
  5
9A3A
330
99CB
100
AcDbDictionary
280
     1
281
     1
  3
ACAD_XREC_ROUNDTRIP
360
9A3B
  0
DICTIONARY
  5
9A20
330
99BE
100
AcDbDictionary
280
     1
281
     1
  3
ACAD_XREC_ROUNDTRIP
360
9A21
  0
DICTIONARY
  5
9A36
330
99C9
100
AcDbDictionary
280
     1
281
     1
  3
ACAD_XREC_ROUNDTRIP
360
9A37
  0
DICTIONARY
  5
9A34
330
99C8
100
AcDbDictionary
280
     1
281
     1
  3
ACAD_XREC_ROUNDTRIP
360
9A35
  0
DICTIONARY
  5
9A2E
330
99C5
100
AcDbDictionary
280
     1
281
     1
  3
ACAD_XREC_ROUNDTRIP
360
9A2F
  0
DICTIONARY
  5
9A30
330
99C6
100
AcDbDictionary
280
     1
281
     1
  3
ACAD_XREC_ROUNDTRIP
360
9A31
  0
DICTIONARY
  5
9A26
330
99C1
100
AcDbDictionary
280
     1
281
     1
  3
ACAD_XREC_ROUNDTRIP
360
9A27
  0
DICTIONARY
  5
9A1A
330
99BB
100
AcDbDictionary
280
     1
281
     1
  3
ACAD_XREC_ROUNDTRIP
360
9A1B
  0
DICTIONARY
  5
9A32
330
99C7
100
AcDbDictionary
280
     1
281
     1
  3
ACAD_XREC_ROUNDTRIP
360
9A33
  0
XRECORD
  5
9A43
102
{ACAD_REACTORS
330
9A42
102
}
330
9A42
100
AcDbXrecord
280
     1
102
DISPLAYNAME
  1
Imperial24
102
FLAGS
 90
        0
  0
XRECORD
  5
9A45
102
{ACAD_REACTORS
330
9A44
102
}
330
9A44
100
AcDbXrecord
280
     1
102
SHADEPLOT
 70
     0
102
SHADEPLOTRESLEVEL
 70
     2
102
SHADEPLOTCUSTOMDPI
 70
   300
  0
XRECORD
  5
9A47
102
{ACAD_REACTORS
330
9A46
102
}
330
9A46
100
AcDbXrecord
280
     1
102
SHADEPLOT
 70
     0
102
SHADEPLOTRESLEVEL
 70
     2
102
SHADEPLOTCUSTOMDPI
 70
   300
  0
XRECORD
  5
9A0C
102
{ACAD_REACTORS
330
99A5
102
}
330
99A5
100
AcDbXrecord
280
     1
102
MATERIAL
148
0.0
149
0.0
149
0.0
 93
        0
 94
      127
282
     0
 72
     0
 77
     0
171
     0
175
     0
179
     0
273
     0
  0
XRECORD
  5
99A7
102
{ACAD_REACTORS
330
99A5
102
}
330
99A5
100
AcDbXrecord
280
     1
270
     1
271
     1
  0
XRECORD
  5
99A6
102
{ACAD_REACTORS
330
99A5
102
}
330
99A5
100
AcDbXrecord
280
     1
270
     1
271
     1
  0
XRECORD
  5
99AA
102
{ACAD_REACTORS
330
99A5
102
}
330
99A5
100
AcDbXrecord
280
     1
270
     1
271
     1
  0
XRECORD
  5
99A9
102
{ACAD_REACTORS
330
99A5
102
}
330
99A5
100
AcDbXrecord
280
     1
270
     1
271
     1
  0
XRECORD
  5
99AB
102
{ACAD_REACTORS
330
99A5
102
}
330
99A5
100
AcDbXrecord
280
     1
270
     1
271
     1
  0
XRECORD
  5
99A8
102
{ACAD_REACTORS
330
99A5
102
}
330
99A5
100
AcDbXrecord
280
     1
270
     1
271
     1
  0
XRECORD
  5
9A0B
102
{ACAD_REACTORS
330
999D
102
}
330
999D
100
AcDbXrecord
280
     1
102
MATERIAL
148
0.0
149
0.0
149
0.0
 93
        0
 94
      127
282
     0
 72
     0
 77
     0
171
     0
175
     0
179
     0
273
     0
  0
XRECORD
  5
999F
102
{ACAD_REACTORS
330
999D
102
}
330
999D
100
AcDbXrecord
280
     1
270
     1
271
     1
  0
XRECORD
  5
999E
102
{ACAD_REACTORS
330
999D
102
}
330
999D
100
AcDbXrecord
280
     1
270
     1
271
     1
  0
XRECORD
  5
99A2
102
{ACAD_REACTORS
330
999D
102
}
330
999D
100
AcDbXrecord
280
     1
270
     1
271
     1
  0
XRECORD
  5
99A1
102
{ACAD_REACTORS
330
999D
102
}
330
999D
100
AcDbXrecord
280
     1
270
     1
271
     1
  0
XRECORD
  5
99A3
102
{ACAD_REACTORS
330
999D
102
}
330
999D
100
AcDbXrecord
280
     1
270
     1
271
     1
  0
XRECORD
  5
99A0
102
{ACAD_REACTORS
330
999D
102
}
330
999D
100
AcDbXrecord
280
     1
270
     1
271
     1
  0
XRECORD
  5
9A0D
102
{ACAD_REACTORS
330
99AD
102
}
330
99AD
100
AcDbXrecord
280
     1
102
MATERIAL
148
0.0
149
0.0
149
0.0
 93
        0
 94
      127
282
     0
 72
     0
 77
     0
171
     0
175
     0
179
     0
273
     0
  0
XRECORD
  5
99AF
102
{ACAD_REACTORS
330
99AD
102
}
330
99AD
100
AcDbXrecord
280
     1
270
     1
271
     1
  0
XRECORD
  5
99AE
102
{ACAD_REACTORS
330
99AD
102
}
330
99AD
100
AcDbXrecord
280
     1
270
     1
271
     1
  0
XRECORD
  5
99B2
102
{ACAD_REACTORS
330
99AD
102
}
330
99AD
100
AcDbXrecord
280
     1
270
     1
271
     1
  0
XRECORD
  5
99B1
102
{ACAD_REACTORS
330
99AD
102
}
330
99AD
100
AcDbXrecord
280
     1
270
     1
271
     1
  0
XRECORD
  5
99B3
102
{ACAD_REACTORS
330
99AD
102
}
330
99AD
100
AcDbXrecord
280
     1
270
     1
271
     1
  0
XRECORD
  5
99B0
102
{ACAD_REACTORS
330
99AD
102
}
330
99AD
100
AcDbXrecord
280
     1
270
     1
271
     1
  0
XRECORD
  5
9A41
102
{ACAD_REACTORS
330
9A40
102
}
330
9A40
100
AcDbXrecord
280
     1
102
DISPLAYNAME
  1
Imperial24
102
FLAGS
 90
        0
  0
CELLSTYLEMAP
  5
9A08
102
{ACAD_REACTORS
330
9A07
102
}
330
9A07
100
AcDbCellStyleMap
 90
        3
300
CELLSTYLE
  1
TABLEFORMAT_BEGIN
 90
        5
170
     1
 91
        0
 92
    32768
 62
   257
 93
        1
300
CONTENTFORMAT
  1
CONTENTFORMAT_BEGIN
 90
        0
 91
        0
 92
      512
 93
        0
300

 40
0.0
140
1.0
 94
        5
 62
     0
340
9782
144
0.25
309
CONTENTFORMAT_END
171
     0
 94
        0
309
TABLEFORMAT_END
  1
CELLSTYLE_BEGIN
 90
        1
 91
        1
300
_TITLE
309
CELLSTYLE_END
300
CELLSTYLE
  1
TABLEFORMAT_BEGIN
 90
        5
170
     1
 91
        0
 92
        0
 62
   257
 93
        1
300
CONTENTFORMAT
  1
CONTENTFORMAT_BEGIN
 90
        0
 91
        0
 92
      512
 93
        0
300

 40
0.0
140
1.0
 94
        5
 62
     0
340
9782
144
0.18
309
CONTENTFORMAT_END
171
     0
 94
        0
309
TABLEFORMAT_END
  1
CELLSTYLE_BEGIN
 90
        2
 91
        1
300
_HEADER
309
CELLSTYLE_END
300
CELLSTYLE
  1
TABLEFORMAT_BEGIN
 90
        5
170
     1
 91
        0
 92
        0
 62
   257
 93
        1
300
CONTENTFORMAT
  1
CONTENTFORMAT_BEGIN
 90
        0
 91
        0
 92
      512
 93
        0
300

 40
0.0
140
1.0
 94
        2
 62
     0
340
9782
144
0.18
309
CONTENTFORMAT_END
171
     0
 94
        0
309
TABLEFORMAT_END
  1
CELLSTYLE_BEGIN
 90
        3
 91
        2
300
_DATA
309
CELLSTYLE_END
  0
XRECORD
  5
9A3E
102
{ACAD_REACTORS
330
9A07
102
}
330
9A07
100
AcDbXrecord
280
     1
102
ACAD_ROUNDTRIP_PRE2007_TABLESTYLE
 90
      512
 91
        0
  1

 92
      512
 93
        0
  2

 94
      512
 95
        0
  3

  0
XRECORD
  5
9A19
102
{ACAD_REACTORS
330
9A18
102
}
330
9A18
100
AcDbXrecord
280
     1
102
RTVSPost2010Prop28
280
     1
102
RTVSPost2010PropOp28
 70
     1
102
RTVSPost2010Prop29
280
     1
102
RTVSPost2010PropOp29
 70
     1
102
RTVSPost2010Prop30
280
     0
102
RTVSPost2010PropOp30
 70
     1
102
RTVSPost2010Prop31
280
     0
102
RTVSPost2010PropOp31
 70
     1
102
RTVSPost2010Prop32
280
     0
102
RTVSPost2010PropOp32
 70
     1
102
RTVSPost2010Prop33
280
     0
102
RTVSPost2010PropOp33
 70
     1
102
RTVSPost2010Prop34
280
     0
102
RTVSPost2010PropOp34
 70
     1
102
RTVSPost2010Prop35
280
     0
102
RTVSPost2010PropOp35
 70
     1
102
RTVSPost2010Prop36
280
     0
102
RTVSPost2010PropOp36
 70
     1
102
RTVSPost2010Prop37
 90
       50
102
RTVSPost2010PropOp37
 70
     1
102
RTVSPost2010Prop38
140
0.0
102
RTVSPost2010PropOp38
 70
     1
102
RTVSPost2010Prop39
140
1.0
102
RTVSPost2010PropOp39
 70
     1
102
RTVSPost2010Prop40
 90
        0
102
RTVSPost2010PropOp40
 70
     1
102
RTVSPost2010Prop41ColorIndex
 90
       18
102
RTVSPost2010Prop41ColorRGB
 90
        0
102
RTVSPost2010PropOp41
 70
     1
102
RTVSPost2010Prop42
 90
       50
102
RTVSPost2010PropOp42
 70
     1
102
RTVSPost2010Prop43
 90
        3
102
RTVSPost2010PropOp43
 70
     1
102
RTVSPost2010Prop44ColorIndex
 90
        5
102
RTVSPost2010Prop44ColorRGB
 90
      255
102
RTVSPost2010PropOp44
 70
     1
102
RTVSPost2010Prop45
280
     0
102
RTVSPost2010PropOp45
 70
     1
102
RTVSPost2010Prop46
 90
       50
102
RTVSPost2010PropOp46
 70
     1
102
RTVSPost2010Prop47
 90
       50
102
RTVSPost2010PropOp47
 70
     1
102
RTVSPost2010Prop48
 90
       50
102
RTVSPost2010PropOp48
 70
     1
102
RTVSPost2010Prop49
280
     0
102
RTVSPost2010PropOp49
 70
     1
102
RTVSPost2010Prop50
 90
       50
102
RTVSPost2010PropOp50
 70
     1
102
RTVSPost2010Prop51ColorIndex
 90
      256
102
RTVSPost2010Prop51ColorRGB
 90
-16777216
102
RTVSPost2010PropOp51
 70
     0
102
RTVSPost2010Prop52
140
1.0
102
RTVSPost2010PropOp52
 70
     0
102
RTVSPost2010Prop53
 90
        2
102
RTVSPost2010PropOp53
 70
     1
102
RTVSPost2010Prop54
  1
strokes_ogs.tif
102
RTVSPost2010PropOp54
 70
     1
102
RTVSPost2010Prop55
280
     0
102
RTVSPost2010PropOp55
 70
     1
102
RTVSPost2010Prop56
140
1.0
102
RTVSPost2010PropOp56
 70
     1
102
RTVSPost2010Prop57
140
1.0
102
RTVSPost2010PropOp57
 70
     1
102
RTVSPropertyOp0
 70
     1
102
RTVSPropertyOp1
 70
     1
102
RTVSPropertyOp2
 70
     1
102
RTVSPropertyOp3
 70
     1
102
RTVSPropertyOp4
 70
     1
102
RTVSPropertyOp5
 70
     1
102
RTVSPropertyOp6
 70
     1
102
RTVSPropertyOp7
 70
     1
102
RTVSPropertyOp8
 70
     1
102
RTVSPropertyOp9
 70
     1
102
RTVSPropertyOp10
 70
     1
102
RTVSPropertyOp11
 70
     1
102
RTVSPropertyOp12
 70
     1
102
RTVSPropertyOp13
 70
     1
102
RTVSPropertyOp14
 70
     1
102
RTVSPropertyOp15
 70
     1
102
RTVSPropertyOp16
 70
     1
102
RTVSPropertyOp17
 70
     1
102
RTVSPropertyOp18
 70
     1
102
RTVSPropertyOp19
 70
     1
102
RTVSPropertyOp20
 70
     1
102
RTVSPropertyOp21
 70
     1
102
RTVSPropertyOp22
 70
     1
102
RTVSPropertyOp23
 70
     1
102
RTVSPropertyOp24
 70
     1
102
RTVSPropertyOp25
 70
     1
102
RTVSPropertyOp26
 70
     1
102
RTVSPropertyOp27
 70
     1
102
RTVSPropertyOp28
 70
     1
102
RTVSPropertyOp29
 70
     1
102
RTVSPropertyOp30
 70
     1
102
RTVSPropertyOp31
 70
     1
102
RTVSPropertyOp32
 70
     1
102
RTVSPropertyOp33
 70
     1
102
RTVSPropertyOp34
 70
     1
102
RTVSPropertyOp35
 70
     1
102
RTVSPropertyOp36
 70
     1
102
RTVSPropertyOp37
 70
     1
102
RTVSPropertyOp38
 70
     1
102
RTVSPropertyOp39
 70
     1
102
RTVSPropertyOp40
 70
     1
102
RTVSPropertyOp41
 70
     1
102
RTVSPropertyOp42
 70
     1
102
RTVSPropertyOp43
 70
     1
102
RTVSPropertyOp44
 70
     1
102
RTVSPropertyOp45
 70
     1
102
RTVSPropertyOp46
 70
     1
102
RTVSPropertyOp47
 70
     1
102
RTVSPropertyOp48
 70
     1
102
RTVSPropertyOp49
 70
     1
102
RTVSPropertyOp50
 70
     1
102
RTVSPropertyOp51
 70
     0
102
RTVSPropertyOp52
 70
     0
102
RTVSPropertyOp53
 70
     1
102
RTVSPropertyOp54
 70
     1
102
RTVSPropertyOp55
 70
     1
102
RTVSPropertyOp56
 70
     1
102
RTVSPropertyOp57
 70
     1
102
RTVSPropertyOp58
 70
     1
102
RTVSPropertyOp59
 70
     1
102
RTVSPropertyOp60
 70
     1
102
RTVSPropertyOp61
 70
     1
102
RTVSPropertyOp62
 70
     1
  0
XRECORD
  5
9A17
102
{ACAD_REACTORS
330
9A16
102
}
330
9A16
100
AcDbXrecord
280
     1
102
RTVSPost2010Prop28
280
     0
102
RTVSPost2010PropOp28
 70
     1
102
RTVSPost2010Prop29
280
     1
102
RTVSPost2010PropOp29
 70
     1
102
RTVSPost2010Prop30
280
     1
102
RTVSPost2010PropOp30
 70
     1
102
RTVSPost2010Prop31
280
     0
102
RTVSPost2010PropOp31
 70
     1
102
RTVSPost2010Prop32
280
     0
102
RTVSPost2010PropOp32
 70
     1
102
RTVSPost2010Prop33
280
     0
102
RTVSPost2010PropOp33
 70
     1
102
RTVSPost2010Prop34
280
     0
102
RTVSPost2010PropOp34
 70
     1
102
RTVSPost2010Prop35
280
     0
102
RTVSPost2010PropOp35
 70
     1
102
RTVSPost2010Prop36
280
     0
102
RTVSPost2010PropOp36
 70
     1
102
RTVSPost2010Prop37
 90
       50
102
RTVSPost2010PropOp37
 70
     1
102
RTVSPost2010Prop38
140
0.0
102
RTVSPost2010PropOp38
 70
     1
102
RTVSPost2010Prop39
140
1.0
102
RTVSPost2010PropOp39
 70
     1
102
RTVSPost2010Prop40
 90
        0
102
RTVSPost2010PropOp40
 70
     1
102
RTVSPost2010Prop41ColorIndex
 90
       18
102
RTVSPost2010Prop41ColorRGB
 90
        0
102
RTVSPost2010PropOp41
 70
     1
102
RTVSPost2010Prop42
 90
       50
102
RTVSPost2010PropOp42
 70
     1
102
RTVSPost2010Prop43
 90
        3
102
RTVSPost2010PropOp43
 70
     1
102
RTVSPost2010Prop44ColorIndex
 90
        5
102
RTVSPost2010Prop44ColorRGB
 90
      255
102
RTVSPost2010PropOp44
 70
     1
102
RTVSPost2010Prop45
280
     0
102
RTVSPost2010PropOp45
 70
     1
102
RTVSPost2010Prop46
 90
       50
102
RTVSPost2010PropOp46
 70
     1
102
RTVSPost2010Prop47
 90
       50
102
RTVSPost2010PropOp47
 70
     1
102
RTVSPost2010Prop48
 90
       50
102
RTVSPost2010PropOp48
 70
     1
102
RTVSPost2010Prop49
280
     0
102
RTVSPost2010PropOp49
 70
     1
102
RTVSPost2010Prop50
 90
       50
102
RTVSPost2010PropOp50
 70
     1
102
RTVSPost2010Prop51ColorIndex
 90
      256
102
RTVSPost2010Prop51ColorRGB
 90
-16777216
102
RTVSPost2010PropOp51
 70
     0
102
RTVSPost2010Prop52
140
1.0
102
RTVSPost2010PropOp52
 70
     0
102
RTVSPost2010Prop53
 90
        2
102
RTVSPost2010PropOp53
 70
     1
102
RTVSPost2010Prop54
  1
strokes_ogs.tif
102
RTVSPost2010PropOp54
 70
     1
102
RTVSPost2010Prop55
280
     0
102
RTVSPost2010PropOp55
 70
     1
102
RTVSPost2010Prop56
140
1.0
102
RTVSPost2010PropOp56
 70
     1
102
RTVSPost2010Prop57
140
1.0
102
RTVSPost2010PropOp57
 70
     1
102
RTVSPropertyOp0
 70
     1
102
RTVSPropertyOp1
 70
     1
102
RTVSPropertyOp2
 70
     1
102
RTVSPropertyOp3
 70
     1
102
RTVSPropertyOp4
 70
     1
102
RTVSPropertyOp5
 70
     1
102
RTVSPropertyOp6
 70
     1
102
RTVSPropertyOp7
 70
     1
102
RTVSPropertyOp8
 70
     1
102
RTVSPropertyOp9
 70
     1
102
RTVSPropertyOp10
 70
     1
102
RTVSPropertyOp11
 70
     1
102
RTVSPropertyOp12
 70
     1
102
RTVSPropertyOp13
 70
     1
102
RTVSPropertyOp14
 70
     1
102
RTVSPropertyOp15
 70
     1
102
RTVSPropertyOp16
 70
     1
102
RTVSPropertyOp17
 70
     1
102
RTVSPropertyOp18
 70
     1
102
RTVSPropertyOp19
 70
     1
102
RTVSPropertyOp20
 70
     1
102
RTVSPropertyOp21
 70
     1
102
RTVSPropertyOp22
 70
     1
102
RTVSPropertyOp23
 70
     1
102
RTVSPropertyOp24
 70
     1
102
RTVSPropertyOp25
 70
     1
102
RTVSPropertyOp26
 70
     1
102
RTVSPropertyOp27
 70
     1
102
RTVSPropertyOp28
 70
     1
102
RTVSPropertyOp29
 70
     1
102
RTVSPropertyOp30
 70
     1
102
RTVSPropertyOp31
 70
     1
102
RTVSPropertyOp32
 70
     1
102
RTVSPropertyOp33
 70
     1
102
RTVSPropertyOp34
 70
     1
102
RTVSPropertyOp35
 70
     1
102
RTVSPropertyOp36
 70
     1
102
RTVSPropertyOp37
 70
     1
102
RTVSPropertyOp38
 70
     1
102
RTVSPropertyOp39
 70
     1
102
RTVSPropertyOp40
 70
     1
102
RTVSPropertyOp41
 70
     1
102
RTVSPropertyOp42
 70
     1
102
RTVSPropertyOp43
 70
     1
102
RTVSPropertyOp44
 70
     1
102
RTVSPropertyOp45
 70
     1
102
RTVSPropertyOp46
 70
     1
102
RTVSPropertyOp47
 70
     1
102
RTVSPropertyOp48
 70
     1
102
RTVSPropertyOp49
 70
     1
102
RTVSPropertyOp50
 70
     1
102
RTVSPropertyOp51
 70
     0
102
RTVSPropertyOp52
 70
     0
102
RTVSPropertyOp53
 70
     1
102
RTVSPropertyOp54
 70
     1
102
RTVSPropertyOp55
 70
     1
102
RTVSPropertyOp56
 70
     1
102
RTVSPropertyOp57
 70
     1
102
RTVSPropertyOp58
 70
     1
102
RTVSPropertyOp59
 70
     1
102
RTVSPropertyOp60
 70
     1
102
RTVSPropertyOp61
 70
     1
102
RTVSPropertyOp62
 70
     1
  0
XRECORD
  5
9A25
102
{ACAD_REACTORS
330
9A24
102
}
330
9A24
100
AcDbXrecord
280
     1
102
RTVSPost2010Prop28
280
     0
102
RTVSPost2010PropOp28
 70
     1
102
RTVSPost2010Prop29
280
     1
102
RTVSPost2010PropOp29
 70
     1
102
RTVSPost2010Prop30
280
     1
102
RTVSPost2010PropOp30
 70
     1
102
RTVSPost2010Prop31
280
     0
102
RTVSPost2010PropOp31
 70
     1
102
RTVSPost2010Prop32
280
     0
102
RTVSPost2010PropOp32
 70
     1
102
RTVSPost2010Prop33
280
     0
102
RTVSPost2010PropOp33
 70
     1
102
RTVSPost2010Prop34
280
     0
102
RTVSPost2010PropOp34
 70
     1
102
RTVSPost2010Prop35
280
     0
102
RTVSPost2010PropOp35
 70
     1
102
RTVSPost2010Prop36
280
     0
102
RTVSPost2010PropOp36
 70
     1
102
RTVSPost2010Prop37
 90
       50
102
RTVSPost2010PropOp37
 70
     1
102
RTVSPost2010Prop38
140
0.0
102
RTVSPost2010PropOp38
 70
     1
102
RTVSPost2010Prop39
140
1.0
102
RTVSPost2010PropOp39
 70
     1
102
RTVSPost2010Prop40
 90
        0
102
RTVSPost2010PropOp40
 70
     1
102
RTVSPost2010Prop41ColorIndex
 90
       18
102
RTVSPost2010Prop41ColorRGB
 90
        0
102
RTVSPost2010PropOp41
 70
     1
102
RTVSPost2010Prop42
 90
       50
102
RTVSPost2010PropOp42
 70
     1
102
RTVSPost2010Prop43
 90
        3
102
RTVSPost2010PropOp43
 70
     1
102
RTVSPost2010Prop44ColorIndex
 90
        5
102
RTVSPost2010Prop44ColorRGB
 90
      255
102
RTVSPost2010PropOp44
 70
     1
102
RTVSPost2010Prop45
280
     0
102
RTVSPost2010PropOp45
 70
     1
102
RTVSPost2010Prop46
 90
       50
102
RTVSPost2010PropOp46
 70
     1
102
RTVSPost2010Prop47
 90
       50
102
RTVSPost2010PropOp47
 70
     1
102
RTVSPost2010Prop48
 90
       50
102
RTVSPost2010PropOp48
 70
     1
102
RTVSPost2010Prop49
280
     0
102
RTVSPost2010PropOp49
 70
     1
102
RTVSPost2010Prop50
 90
       50
102
RTVSPost2010PropOp50
 70
     1
102
RTVSPost2010Prop51ColorIndex
 90
      256
102
RTVSPost2010Prop51ColorRGB
 90
-16777216
102
RTVSPost2010PropOp51
 70
     0
102
RTVSPost2010Prop52
140
1.0
102
RTVSPost2010PropOp52
 70
     0
102
RTVSPost2010Prop53
 90
        2
102
RTVSPost2010PropOp53
 70
     1
102
RTVSPost2010Prop54
  1
strokes_ogs.tif
102
RTVSPost2010PropOp54
 70
     1
102
RTVSPost2010Prop55
280
     0
102
RTVSPost2010PropOp55
 70
     1
102
RTVSPost2010Prop56
140
1.0
102
RTVSPost2010PropOp56
 70
     1
102
RTVSPost2010Prop57
140
1.0
102
RTVSPost2010PropOp57
 70
     1
102
RTVSPropertyOp0
 70
     1
102
RTVSPropertyOp1
 70
     1
102
RTVSPropertyOp2
 70
     1
102
RTVSPropertyOp3
 70
     1
102
RTVSPropertyOp4
 70
     1
102
RTVSPropertyOp5
 70
     1
102
RTVSPropertyOp6
 70
     1
102
RTVSPropertyOp7
 70
     1
102
RTVSPropertyOp8
 70
     1
102
RTVSPropertyOp9
 70
     1
102
RTVSPropertyOp10
 70
     1
102
RTVSPropertyOp11
 70
     1
102
RTVSPropertyOp12
 70
     1
102
RTVSPropertyOp13
 70
     1
102
RTVSPropertyOp14
 70
     1
102
RTVSPropertyOp15
 70
     1
102
RTVSPropertyOp16
 70
     1
102
RTVSPropertyOp17
 70
     1
102
RTVSPropertyOp18
 70
     1
102
RTVSPropertyOp19
 70
     1
102
RTVSPropertyOp20
 70
     1
102
RTVSPropertyOp21
 70
     1
102
RTVSPropertyOp22
 70
     1
102
RTVSPropertyOp23
 70
     1
102
RTVSPropertyOp24
 70
     1
102
RTVSPropertyOp25
 70
     1
102
RTVSPropertyOp26
 70
     1
102
RTVSPropertyOp27
 70
     1
102
RTVSPropertyOp28
 70
     1
102
RTVSPropertyOp29
 70
     1
102
RTVSPropertyOp30
 70
     1
102
RTVSPropertyOp31
 70
     1
102
RTVSPropertyOp32
 70
     1
102
RTVSPropertyOp33
 70
     1
102
RTVSPropertyOp34
 70
     1
102
RTVSPropertyOp35
 70
     1
102
RTVSPropertyOp36
 70
     1
102
RTVSPropertyOp37
 70
     1
102
RTVSPropertyOp38
 70
     1
102
RTVSPropertyOp39
 70
     1
102
RTVSPropertyOp40
 70
     1
102
RTVSPropertyOp41
 70
     1
102
RTVSPropertyOp42
 70
     1
102
RTVSPropertyOp43
 70
     1
102
RTVSPropertyOp44
 70
     1
102
RTVSPropertyOp45
 70
     1
102
RTVSPropertyOp46
 70
     1
102
RTVSPropertyOp47
 70
     1
102
RTVSPropertyOp48
 70
     1
102
RTVSPropertyOp49
 70
     1
102
RTVSPropertyOp50
 70
     1
102
RTVSPropertyOp51
 70
     0
102
RTVSPropertyOp52
 70
     0
102
RTVSPropertyOp53
 70
     1
102
RTVSPropertyOp54
 70
     1
102
RTVSPropertyOp55
 70
     1
102
RTVSPropertyOp56
 70
     1
102
RTVSPropertyOp57
 70
     1
102
RTVSPropertyOp58
 70
     1
102
RTVSPropertyOp59
 70
     1
102
RTVSPropertyOp60
 70
     1
102
RTVSPropertyOp61
 70
     1
102
RTVSPropertyOp62
 70
     1
  0
XRECORD
  5
9A2D
102
{ACAD_REACTORS
330
9A2C
102
}
330
9A2C
100
AcDbXrecord
280
     1
102
RTVSPost2010Prop28
280
     0
102
RTVSPost2010PropOp28
 70
     1
102
RTVSPost2010Prop29
280
     1
102
RTVSPost2010PropOp29
 70
     1
102
RTVSPost2010Prop30
280
     1
102
RTVSPost2010PropOp30
 70
     1
102
RTVSPost2010Prop31
280
     0
102
RTVSPost2010PropOp31
 70
     1
102
RTVSPost2010Prop32
280
     0
102
RTVSPost2010PropOp32
 70
     1
102
RTVSPost2010Prop33
280
     0
102
RTVSPost2010PropOp33
 70
     1
102
RTVSPost2010Prop34
280
     0
102
RTVSPost2010PropOp34
 70
     1
102
RTVSPost2010Prop35
280
     0
102
RTVSPost2010PropOp35
 70
     1
102
RTVSPost2010Prop36
280
     0
102
RTVSPost2010PropOp36
 70
     1
102
RTVSPost2010Prop37
 90
       50
102
RTVSPost2010PropOp37
 70
     1
102
RTVSPost2010Prop38
140
0.0
102
RTVSPost2010PropOp38
 70
     1
102
RTVSPost2010Prop39
140
1.0
102
RTVSPost2010PropOp39
 70
     1
102
RTVSPost2010Prop40
 90
        0
102
RTVSPost2010PropOp40
 70
     1
102
RTVSPost2010Prop41ColorIndex
 90
       18
102
RTVSPost2010Prop41ColorRGB
 90
        0
102
RTVSPost2010PropOp41
 70
     1
102
RTVSPost2010Prop42
 90
       50
102
RTVSPost2010PropOp42
 70
     1
102
RTVSPost2010Prop43
 90
        3
102
RTVSPost2010PropOp43
 70
     1
102
RTVSPost2010Prop44ColorIndex
 90
        5
102
RTVSPost2010Prop44ColorRGB
 90
      255
102
RTVSPost2010PropOp44
 70
     1
102
RTVSPost2010Prop45
280
     0
102
RTVSPost2010PropOp45
 70
     1
102
RTVSPost2010Prop46
 90
       50
102
RTVSPost2010PropOp46
 70
     1
102
RTVSPost2010Prop47
 90
       50
102
RTVSPost2010PropOp47
 70
     1
102
RTVSPost2010Prop48
 90
       50
102
RTVSPost2010PropOp48
 70
     1
102
RTVSPost2010Prop49
280
     0
102
RTVSPost2010PropOp49
 70
     1
102
RTVSPost2010Prop50
 90
       50
102
RTVSPost2010PropOp50
 70
     1
102
RTVSPost2010Prop51ColorIndex
 90
      256
102
RTVSPost2010Prop51ColorRGB
 90
-16777216
102
RTVSPost2010PropOp51
 70
     0
102
RTVSPost2010Prop52
140
1.0
102
RTVSPost2010PropOp52
 70
     0
102
RTVSPost2010Prop53
 90
        2
102
RTVSPost2010PropOp53
 70
     1
102
RTVSPost2010Prop54
  1
strokes_ogs.tif
102
RTVSPost2010PropOp54
 70
     1
102
RTVSPost2010Prop55
280
     0
102
RTVSPost2010PropOp55
 70
     1
102
RTVSPost2010Prop56
140
1.0
102
RTVSPost2010PropOp56
 70
     1
102
RTVSPost2010Prop57
140
1.0
102
RTVSPost2010PropOp57
 70
     1
102
RTVSPropertyOp0
 70
     1
102
RTVSPropertyOp1
 70
     1
102
RTVSPropertyOp2
 70
     1
102
RTVSPropertyOp3
 70
     1
102
RTVSPropertyOp4
 70
     1
102
RTVSPropertyOp5
 70
     1
102
RTVSPropertyOp6
 70
     1
102
RTVSPropertyOp7
 70
     1
102
RTVSPropertyOp8
 70
     1
102
RTVSPropertyOp9
 70
     1
102
RTVSPropertyOp10
 70
     1
102
RTVSPropertyOp11
 70
     1
102
RTVSPropertyOp12
 70
     1
102
RTVSPropertyOp13
 70
     1
102
RTVSPropertyOp14
 70
     1
102
RTVSPropertyOp15
 70
     1
102
RTVSPropertyOp16
 70
     1
102
RTVSPropertyOp17
 70
     1
102
RTVSPropertyOp18
 70
     1
102
RTVSPropertyOp19
 70
     1
102
RTVSPropertyOp20
 70
     1
102
RTVSPropertyOp21
 70
     1
102
RTVSPropertyOp22
 70
     1
102
RTVSPropertyOp23
 70
     1
102
RTVSPropertyOp24
 70
     1
102
RTVSPropertyOp25
 70
     1
102
RTVSPropertyOp26
 70
     1
102
RTVSPropertyOp27
 70
     1
102
RTVSPropertyOp28
 70
     1
102
RTVSPropertyOp29
 70
     1
102
RTVSPropertyOp30
 70
     1
102
RTVSPropertyOp31
 70
     1
102
RTVSPropertyOp32
 70
     1
102
RTVSPropertyOp33
 70
     1
102
RTVSPropertyOp34
 70
     1
102
RTVSPropertyOp35
 70
     1
102
RTVSPropertyOp36
 70
     1
102
RTVSPropertyOp37
 70
     1
102
RTVSPropertyOp38
 70
     1
102
RTVSPropertyOp39
 70
     1
102
RTVSPropertyOp40
 70
     1
102
RTVSPropertyOp41
 70
     1
102
RTVSPropertyOp42
 70
     1
102
RTVSPropertyOp43
 70
     1
102
RTVSPropertyOp44
 70
     1
102
RTVSPropertyOp45
 70
     1
102
RTVSPropertyOp46
 70
     1
102
RTVSPropertyOp47
 70
     1
102
RTVSPropertyOp48
 70
     1
102
RTVSPropertyOp49
 70
     1
102
RTVSPropertyOp50
 70
     1
102
RTVSPropertyOp51
 70
     0
102
RTVSPropertyOp52
 70
     0
102
RTVSPropertyOp53
 70
     1
102
RTVSPropertyOp54
 70
     1
102
RTVSPropertyOp55
 70
     1
102
RTVSPropertyOp56
 70
     1
102
RTVSPropertyOp57
 70
     1
102
RTVSPropertyOp58
 70
     1
102
RTVSPropertyOp59
 70
     1
102
RTVSPropertyOp60
 70
     1
102
RTVSPropertyOp61
 70
     1
102
RTVSPropertyOp62
 70
     1
  0
XRECORD
  5
9A1F
102
{ACAD_REACTORS
330
9A1E
102
}
330
9A1E
100
AcDbXrecord
280
     1
102
RTVSPost2010Prop28
280
     0
102
RTVSPost2010PropOp28
 70
     1
102
RTVSPost2010Prop29
280
     1
102
RTVSPost2010PropOp29
 70
     1
102
RTVSPost2010Prop30
280
     1
102
RTVSPost2010PropOp30
 70
     1
102
RTVSPost2010Prop31
280
     0
102
RTVSPost2010PropOp31
 70
     1
102
RTVSPost2010Prop32
280
     0
102
RTVSPost2010PropOp32
 70
     1
102
RTVSPost2010Prop33
280
     0
102
RTVSPost2010PropOp33
 70
     1
102
RTVSPost2010Prop34
280
     0
102
RTVSPost2010PropOp34
 70
     1
102
RTVSPost2010Prop35
280
     0
102
RTVSPost2010PropOp35
 70
     1
102
RTVSPost2010Prop36
280
     0
102
RTVSPost2010PropOp36
 70
     1
102
RTVSPost2010Prop37
 90
       50
102
RTVSPost2010PropOp37
 70
     1
102
RTVSPost2010Prop38
140
0.0
102
RTVSPost2010PropOp38
 70
     1
102
RTVSPost2010Prop39
140
1.0
102
RTVSPost2010PropOp39
 70
     1
102
RTVSPost2010Prop40
 90
        0
102
RTVSPost2010PropOp40
 70
     1
102
RTVSPost2010Prop41ColorIndex
 90
       18
102
RTVSPost2010Prop41ColorRGB
 90
        0
102
RTVSPost2010PropOp41
 70
     1
102
RTVSPost2010Prop42
 90
       50
102
RTVSPost2010PropOp42
 70
     1
102
RTVSPost2010Prop43
 90
        3
102
RTVSPost2010PropOp43
 70
     1
102
RTVSPost2010Prop44ColorIndex
 90
        5
102
RTVSPost2010Prop44ColorRGB
 90
      255
102
RTVSPost2010PropOp44
 70
     1
102
RTVSPost2010Prop45
280
     0
102
RTVSPost2010PropOp45
 70
     1
102
RTVSPost2010Prop46
 90
       50
102
RTVSPost2010PropOp46
 70
     1
102
RTVSPost2010Prop47
 90
       50
102
RTVSPost2010PropOp47
 70
     1
102
RTVSPost2010Prop48
 90
       50
102
RTVSPost2010PropOp48
 70
     1
102
RTVSPost2010Prop49
280
     0
102
RTVSPost2010PropOp49
 70
     1
102
RTVSPost2010Prop50
 90
       50
102
RTVSPost2010PropOp50
 70
     1
102
RTVSPost2010Prop51ColorIndex
 90
      256
102
RTVSPost2010Prop51ColorRGB
 90
-16777216
102
RTVSPost2010PropOp51
 70
     0
102
RTVSPost2010Prop52
140
1.0
102
RTVSPost2010PropOp52
 70
     0
102
RTVSPost2010Prop53
 90
        2
102
RTVSPost2010PropOp53
 70
     1
102
RTVSPost2010Prop54
  1
strokes_ogs.tif
102
RTVSPost2010PropOp54
 70
     1
102
RTVSPost2010Prop55
280
     0
102
RTVSPost2010PropOp55
 70
     1
102
RTVSPost2010Prop56
140
1.0
102
RTVSPost2010PropOp56
 70
     1
102
RTVSPost2010Prop57
140
1.0
102
RTVSPost2010PropOp57
 70
     1
102
RTVSPropertyOp0
 70
     1
102
RTVSPropertyOp1
 70
     1
102
RTVSPropertyOp2
 70
     1
102
RTVSPropertyOp3
 70
     1
102
RTVSPropertyOp4
 70
     1
102
RTVSPropertyOp5
 70
     1
102
RTVSPropertyOp6
 70
     1
102
RTVSPropertyOp7
 70
     1
102
RTVSPropertyOp8
 70
     1
102
RTVSPropertyOp9
 70
     1
102
RTVSPropertyOp10
 70
     1
102
RTVSPropertyOp11
 70
     1
102
RTVSPropertyOp12
 70
     1
102
RTVSPropertyOp13
 70
     1
102
RTVSPropertyOp14
 70
     1
102
RTVSPropertyOp15
 70
     1
102
RTVSPropertyOp16
 70
     1
102
RTVSPropertyOp17
 70
     1
102
RTVSPropertyOp18
 70
     1
102
RTVSPropertyOp19
 70
     1
102
RTVSPropertyOp20
 70
     1
102
RTVSPropertyOp21
 70
     1
102
RTVSPropertyOp22
 70
     1
102
RTVSPropertyOp23
 70
     1
102
RTVSPropertyOp24
 70
     1
102
RTVSPropertyOp25
 70
     1
102
RTVSPropertyOp26
 70
     1
102
RTVSPropertyOp27
 70
     1
102
RTVSPropertyOp28
 70
     1
102
RTVSPropertyOp29
 70
     1
102
RTVSPropertyOp30
 70
     1
102
RTVSPropertyOp31
 70
     1
102
RTVSPropertyOp32
 70
     1
102
RTVSPropertyOp33
 70
     1
102
RTVSPropertyOp34
 70
     1
102
RTVSPropertyOp35
 70
     1
102
RTVSPropertyOp36
 70
     1
102
RTVSPropertyOp37
 70
     1
102
RTVSPropertyOp38
 70
     1
102
RTVSPropertyOp39
 70
     1
102
RTVSPropertyOp40
 70
     1
102
RTVSPropertyOp41
 70
     1
102
RTVSPropertyOp42
 70
     1
102
RTVSPropertyOp43
 70
     1
102
RTVSPropertyOp44
 70
     1
102
RTVSPropertyOp45
 70
     1
102
RTVSPropertyOp46
 70
     1
102
RTVSPropertyOp47
 70
     1
102
RTVSPropertyOp48
 70
     1
102
RTVSPropertyOp49
 70
     1
102
RTVSPropertyOp50
 70
     1
102
RTVSPropertyOp51
 70
     0
102
RTVSPropertyOp52
 70
     0
102
RTVSPropertyOp53
 70
     1
102
RTVSPropertyOp54
 70
     1
102
RTVSPropertyOp55
 70
     1
102
RTVSPropertyOp56
 70
     1
102
RTVSPropertyOp57
 70
     1
102
RTVSPropertyOp58
 70
     1
102
RTVSPropertyOp59
 70
     1
102
RTVSPropertyOp60
 70
     1
102
RTVSPropertyOp61
 70
     1
102
RTVSPropertyOp62
 70
     1
  0
XRECORD
  5
9A23
102
{ACAD_REACTORS
330
9A22
102
}
330
9A22
100
AcDbXrecord
280
     1
102
RTVSPost2010Prop28
280
     0
102
RTVSPost2010PropOp28
 70
     1
102
RTVSPost2010Prop29
280
     1
102
RTVSPost2010PropOp29
 70
     1
102
RTVSPost2010Prop30
280
     1
102
RTVSPost2010PropOp30
 70
     1
102
RTVSPost2010Prop31
280
     0
102
RTVSPost2010PropOp31
 70
     1
102
RTVSPost2010Prop32
280
     0
102
RTVSPost2010PropOp32
 70
     1
102
RTVSPost2010Prop33
280
     0
102
RTVSPost2010PropOp33
 70
     1
102
RTVSPost2010Prop34
280
     0
102
RTVSPost2010PropOp34
 70
     1
102
RTVSPost2010Prop35
280
     0
102
RTVSPost2010PropOp35
 70
     1
102
RTVSPost2010Prop36
280
     0
102
RTVSPost2010PropOp36
 70
     1
102
RTVSPost2010Prop37
 90
       50
102
RTVSPost2010PropOp37
 70
     1
102
RTVSPost2010Prop38
140
0.0
102
RTVSPost2010PropOp38
 70
     1
102
RTVSPost2010Prop39
140
1.0
102
RTVSPost2010PropOp39
 70
     1
102
RTVSPost2010Prop40
 90
        0
102
RTVSPost2010PropOp40
 70
     1
102
RTVSPost2010Prop41ColorIndex
 90
       18
102
RTVSPost2010Prop41ColorRGB
 90
        0
102
RTVSPost2010PropOp41
 70
     1
102
RTVSPost2010Prop42
 90
       50
102
RTVSPost2010PropOp42
 70
     1
102
RTVSPost2010Prop43
 90
        3
102
RTVSPost2010PropOp43
 70
     1
102
RTVSPost2010Prop44ColorIndex
 90
        5
102
RTVSPost2010Prop44ColorRGB
 90
      255
102
RTVSPost2010PropOp44
 70
     1
102
RTVSPost2010Prop45
280
     0
102
RTVSPost2010PropOp45
 70
     1
102
RTVSPost2010Prop46
 90
       50
102
RTVSPost2010PropOp46
 70
     1
102
RTVSPost2010Prop47
 90
       50
102
RTVSPost2010PropOp47
 70
     1
102
RTVSPost2010Prop48
 90
       50
102
RTVSPost2010PropOp48
 70
     1
102
RTVSPost2010Prop49
280
     0
102
RTVSPost2010PropOp49
 70
     1
102
RTVSPost2010Prop50
 90
       50
102
RTVSPost2010PropOp50
 70
     1
102
RTVSPost2010Prop51ColorIndex
 90
      256
102
RTVSPost2010Prop51ColorRGB
 90
-16777216
102
RTVSPost2010PropOp51
 70
     0
102
RTVSPost2010Prop52
140
1.0
102
RTVSPost2010PropOp52
 70
     0
102
RTVSPost2010Prop53
 90
        2
102
RTVSPost2010PropOp53
 70
     1
102
RTVSPost2010Prop54
  1
strokes_ogs.tif
102
RTVSPost2010PropOp54
 70
     1
102
RTVSPost2010Prop55
280
     0
102
RTVSPost2010PropOp55
 70
     1
102
RTVSPost2010Prop56
140
1.0
102
RTVSPost2010PropOp56
 70
     1
102
RTVSPost2010Prop57
140
1.0
102
RTVSPost2010PropOp57
 70
     1
102
RTVSPropertyOp0
 70
     1
102
RTVSPropertyOp1
 70
     1
102
RTVSPropertyOp2
 70
     1
102
RTVSPropertyOp3
 70
     1
102
RTVSPropertyOp4
 70
     1
102
RTVSPropertyOp5
 70
     1
102
RTVSPropertyOp6
 70
     1
102
RTVSPropertyOp7
 70
     1
102
RTVSPropertyOp8
 70
     1
102
RTVSPropertyOp9
 70
     1
102
RTVSPropertyOp10
 70
     1
102
RTVSPropertyOp11
 70
     1
102
RTVSPropertyOp12
 70
     1
102
RTVSPropertyOp13
 70
     1
102
RTVSPropertyOp14
 70
     1
102
RTVSPropertyOp15
 70
     1
102
RTVSPropertyOp16
 70
     1
102
RTVSPropertyOp17
 70
     1
102
RTVSPropertyOp18
 70
     1
102
RTVSPropertyOp19
 70
     1
102
RTVSPropertyOp20
 70
     1
102
RTVSPropertyOp21
 70
     1
102
RTVSPropertyOp22
 70
     1
102
RTVSPropertyOp23
 70
     1
102
RTVSPropertyOp24
 70
     1
102
RTVSPropertyOp25
 70
     1
102
RTVSPropertyOp26
 70
     1
102
RTVSPropertyOp27
 70
     1
102
RTVSPropertyOp28
 70
     1
102
RTVSPropertyOp29
 70
     1
102
RTVSPropertyOp30
 70
     1
102
RTVSPropertyOp31
 70
     1
102
RTVSPropertyOp32
 70
     1
102
RTVSPropertyOp33
 70
     1
102
RTVSPropertyOp34
 70
     1
102
RTVSPropertyOp35
 70
     1
102
RTVSPropertyOp36
 70
     1
102
RTVSPropertyOp37
 70
     1
102
RTVSPropertyOp38
 70
     1
102
RTVSPropertyOp39
 70
     1
102
RTVSPropertyOp40
 70
     1
102
RTVSPropertyOp41
 70
     1
102
RTVSPropertyOp42
 70
     1
102
RTVSPropertyOp43
 70
     1
102
RTVSPropertyOp44
 70
     1
102
RTVSPropertyOp45
 70
     1
102
RTVSPropertyOp46
 70
     1
102
RTVSPropertyOp47
 70
     1
102
RTVSPropertyOp48
 70
     1
102
RTVSPropertyOp49
 70
     1
102
RTVSPropertyOp50
 70
     1
102
RTVSPropertyOp51
 70
     0
102
RTVSPropertyOp52
 70
     0
102
RTVSPropertyOp53
 70
     1
102
RTVSPropertyOp54
 70
     1
102
RTVSPropertyOp55
 70
     1
102
RTVSPropertyOp56
 70
     1
102
RTVSPropertyOp57
 70
     1
102
RTVSPropertyOp58
 70
     1
102
RTVSPropertyOp59
 70
     1
102
RTVSPropertyOp60
 70
     1
102
RTVSPropertyOp61
 70
     1
102
RTVSPropertyOp62
 70
     1
  0
XRECORD
  5
9A3D
102
{ACAD_REACTORS
330
9A3C
102
}
330
9A3C
100
AcDbXrecord
280
     1
102
RTVSPost2010Prop28
280
     0
102
RTVSPost2010PropOp28
 70
     1
102
RTVSPost2010Prop29
280
     1
102
RTVSPost2010PropOp29
 70
     1
102
RTVSPost2010Prop30
280
     1
102
RTVSPost2010PropOp30
 70
     1
102
RTVSPost2010Prop31
280
     0
102
RTVSPost2010PropOp31
 70
     1
102
RTVSPost2010Prop32
280
     0
102
RTVSPost2010PropOp32
 70
     1
102
RTVSPost2010Prop33
280
     0
102
RTVSPost2010PropOp33
 70
     1
102
RTVSPost2010Prop34
280
     0
102
RTVSPost2010PropOp34
 70
     1
102
RTVSPost2010Prop35
280
     0
102
RTVSPost2010PropOp35
 70
     1
102
RTVSPost2010Prop36
280
     0
102
RTVSPost2010PropOp36
 70
     1
102
RTVSPost2010Prop37
 90
       50
102
RTVSPost2010PropOp37
 70
     0
102
RTVSPost2010Prop38
140
0.0
102
RTVSPost2010PropOp38
 70
     0
102
RTVSPost2010Prop39
140
1.0
102
RTVSPost2010PropOp39
 70
     0
102
RTVSPost2010Prop40
 90
        0
102
RTVSPost2010PropOp40
 70
     0
102
RTVSPost2010Prop41ColorIndex
 90
       18
102
RTVSPost2010Prop41ColorRGB
 90
        0
102
RTVSPost2010PropOp41
 70
     0
102
RTVSPost2010Prop42
 90
       50
102
RTVSPost2010PropOp42
 70
     0
102
RTVSPost2010Prop43
 90
        3
102
RTVSPost2010PropOp43
 70
     0
102
RTVSPost2010Prop44ColorIndex
 90
        5
102
RTVSPost2010Prop44ColorRGB
 90
      255
102
RTVSPost2010PropOp44
 70
     0
102
RTVSPost2010Prop45
280
     0
102
RTVSPost2010PropOp45
 70
     1
102
RTVSPost2010Prop46
 90
       50
102
RTVSPost2010PropOp46
 70
     0
102
RTVSPost2010Prop47
 90
       50
102
RTVSPost2010PropOp47
 70
     0
102
RTVSPost2010Prop48
 90
       50
102
RTVSPost2010PropOp48
 70
     0
102
RTVSPost2010Prop49
280
     0
102
RTVSPost2010PropOp49
 70
     1
102
RTVSPost2010Prop50
 90
       50
102
RTVSPost2010PropOp50
 70
     0
102
RTVSPost2010Prop51ColorIndex
 90
      256
102
RTVSPost2010Prop51ColorRGB
 90
-16777216
102
RTVSPost2010PropOp51
 70
     0
102
RTVSPost2010Prop52
140
1.0
102
RTVSPost2010PropOp52
 70
     0
102
RTVSPost2010Prop53
 90
        2
102
RTVSPost2010PropOp53
 70
     0
102
RTVSPost2010Prop54
  1
strokes_ogs.tif
102
RTVSPost2010PropOp54
 70
     0
102
RTVSPost2010Prop55
280
     0
102
RTVSPost2010PropOp55
 70
     1
102
RTVSPost2010Prop56
140
1.0
102
RTVSPost2010PropOp56
 70
     0
102
RTVSPost2010Prop57
140
1.0
102
RTVSPost2010PropOp57
 70
     0
102
RTVSPropertyOp0
 70
     0
102
RTVSPropertyOp1
 70
     0
102
RTVSPropertyOp2
 70
     0
102
RTVSPropertyOp3
 70
     0
102
RTVSPropertyOp4
 70
     0
102
RTVSPropertyOp5
 70
     0
102
RTVSPropertyOp6
 70
     0
102
RTVSPropertyOp7
 70
     0
102
RTVSPropertyOp8
 70
     0
102
RTVSPropertyOp9
 70
     0
102
RTVSPropertyOp10
 70
     0
102
RTVSPropertyOp11
 70
     0
102
RTVSPropertyOp12
 70
     0
102
RTVSPropertyOp13
 70
     0
102
RTVSPropertyOp14
 70
     2
102
RTVSPropertyOp15
 70
     0
102
RTVSPropertyOp16
 70
     0
102
RTVSPropertyOp17
 70
     0
102
RTVSPropertyOp18
 70
     0
102
RTVSPropertyOp19
 70
     0
102
RTVSPropertyOp20
 70
     0
102
RTVSPropertyOp21
 70
     0
102
RTVSPropertyOp22
 70
     0
102
RTVSPropertyOp23
 70
     0
102
RTVSPropertyOp24
 70
     0
102
RTVSPropertyOp25
 70
     0
102
RTVSPropertyOp26
 70
     0
102
RTVSPropertyOp27
 70
     0
102
RTVSPropertyOp28
 70
     1
102
RTVSPropertyOp29
 70
     1
102
RTVSPropertyOp30
 70
     1
102
RTVSPropertyOp31
 70
     1
102
RTVSPropertyOp32
 70
     1
102
RTVSPropertyOp33
 70
     1
102
RTVSPropertyOp34
 70
     1
102
RTVSPropertyOp35
 70
     1
102
RTVSPropertyOp36
 70
     1
102
RTVSPropertyOp37
 70
     0
102
RTVSPropertyOp38
 70
     0
102
RTVSPropertyOp39
 70
     0
102
RTVSPropertyOp40
 70
     0
102
RTVSPropertyOp41
 70
     0
102
RTVSPropertyOp42
 70
     0
102
RTVSPropertyOp43
 70
     0
102
RTVSPropertyOp44
 70
     0
102
RTVSPropertyOp45
 70
     1
102
RTVSPropertyOp46
 70
     0
102
RTVSPropertyOp47
 70
     0
102
RTVSPropertyOp48
 70
     0
102
RTVSPropertyOp49
 70
     1
102
RTVSPropertyOp50
 70
     0
102
RTVSPropertyOp51
 70
     0
102
RTVSPropertyOp52
 70
     0
102
RTVSPropertyOp53
 70
     0
102
RTVSPropertyOp54
 70
     0
102
RTVSPropertyOp55
 70
     1
102
RTVSPropertyOp56
 70
     0
102
RTVSPropertyOp57
 70
     0
102
RTVSPropertyOp58
 70
     0
102
RTVSPropertyOp59
 70
     0
102
RTVSPropertyOp60
 70
     0
102
RTVSPropertyOp61
 70
     0
102
RTVSPropertyOp62
 70
     0
  0
XRECORD
  5
9A2B
102
{ACAD_REACTORS
330
9A2A
102
}
330
9A2A
100
AcDbXrecord
280
     1
102
RTVSPost2010Prop28
280
     0
102
RTVSPost2010PropOp28
 70
     1
102
RTVSPost2010Prop29
280
     1
102
RTVSPost2010PropOp29
 70
     1
102
RTVSPost2010Prop30
280
     1
102
RTVSPost2010PropOp30
 70
     1
102
RTVSPost2010Prop31
280
     0
102
RTVSPost2010PropOp31
 70
     1
102
RTVSPost2010Prop32
280
     0
102
RTVSPost2010PropOp32
 70
     1
102
RTVSPost2010Prop33
280
     0
102
RTVSPost2010PropOp33
 70
     1
102
RTVSPost2010Prop34
280
     0
102
RTVSPost2010PropOp34
 70
     1
102
RTVSPost2010Prop35
280
     0
102
RTVSPost2010PropOp35
 70
     1
102
RTVSPost2010Prop36
280
     0
102
RTVSPost2010PropOp36
 70
     1
102
RTVSPost2010Prop37
 90
       50
102
RTVSPost2010PropOp37
 70
     1
102
RTVSPost2010Prop38
140
0.0
102
RTVSPost2010PropOp38
 70
     1
102
RTVSPost2010Prop39
140
1.0
102
RTVSPost2010PropOp39
 70
     1
102
RTVSPost2010Prop40
 90
        0
102
RTVSPost2010PropOp40
 70
     1
102
RTVSPost2010Prop41ColorIndex
 90
       18
102
RTVSPost2010Prop41ColorRGB
 90
        0
102
RTVSPost2010PropOp41
 70
     1
102
RTVSPost2010Prop42
 90
       50
102
RTVSPost2010PropOp42
 70
     1
102
RTVSPost2010Prop43
 90
        3
102
RTVSPost2010PropOp43
 70
     1
102
RTVSPost2010Prop44ColorIndex
 90
        5
102
RTVSPost2010Prop44ColorRGB
 90
      255
102
RTVSPost2010PropOp44
 70
     1
102
RTVSPost2010Prop45
280
     0
102
RTVSPost2010PropOp45
 70
     1
102
RTVSPost2010Prop46
 90
       50
102
RTVSPost2010PropOp46
 70
     1
102
RTVSPost2010Prop47
 90
       50
102
RTVSPost2010PropOp47
 70
     1
102
RTVSPost2010Prop48
 90
       50
102
RTVSPost2010PropOp48
 70
     1
102
RTVSPost2010Prop49
280
     0
102
RTVSPost2010PropOp49
 70
     1
102
RTVSPost2010Prop50
 90
       50
102
RTVSPost2010PropOp50
 70
     1
102
RTVSPost2010Prop51ColorIndex
 90
      256
102
RTVSPost2010Prop51ColorRGB
 90
-16777216
102
RTVSPost2010PropOp51
 70
     0
102
RTVSPost2010Prop52
140
1.0
102
RTVSPost2010PropOp52
 70
     0
102
RTVSPost2010Prop53
 90
        2
102
RTVSPost2010PropOp53
 70
     1
102
RTVSPost2010Prop54
  1
strokes_ogs.tif
102
RTVSPost2010PropOp54
 70
     1
102
RTVSPost2010Prop55
280
     0
102
RTVSPost2010PropOp55
 70
     1
102
RTVSPost2010Prop56
140
1.0
102
RTVSPost2010PropOp56
 70
     1
102
RTVSPost2010Prop57
140
1.0
102
RTVSPost2010PropOp57
 70
     1
102
RTVSPropertyOp0
 70
     1
102
RTVSPropertyOp1
 70
     1
102
RTVSPropertyOp2
 70
     1
102
RTVSPropertyOp3
 70
     1
102
RTVSPropertyOp4
 70
     1
102
RTVSPropertyOp5
 70
     1
102
RTVSPropertyOp6
 70
     1
102
RTVSPropertyOp7
 70
     1
102
RTVSPropertyOp8
 70
     1
102
RTVSPropertyOp9
 70
     1
102
RTVSPropertyOp10
 70
     1
102
RTVSPropertyOp11
 70
     1
102
RTVSPropertyOp12
 70
     1
102
RTVSPropertyOp13
 70
     1
102
RTVSPropertyOp14
 70
     1
102
RTVSPropertyOp15
 70
     1
102
RTVSPropertyOp16
 70
     1
102
RTVSPropertyOp17
 70
     1
102
RTVSPropertyOp18
 70
     1
102
RTVSPropertyOp19
 70
     1
102
RTVSPropertyOp20
 70
     1
102
RTVSPropertyOp21
 70
     1
102
RTVSPropertyOp22
 70
     1
102
RTVSPropertyOp23
 70
     1
102
RTVSPropertyOp24
 70
     1
102
RTVSPropertyOp25
 70
     1
102
RTVSPropertyOp26
 70
     1
102
RTVSPropertyOp27
 70
     1
102
RTVSPropertyOp28
 70
     1
102
RTVSPropertyOp29
 70
     1
102
RTVSPropertyOp30
 70
     1
102
RTVSPropertyOp31
 70
     1
102
RTVSPropertyOp32
 70
     1
102
RTVSPropertyOp33
 70
     1
102
RTVSPropertyOp34
 70
     1
102
RTVSPropertyOp35
 70
     1
102
RTVSPropertyOp36
 70
     1
102
RTVSPropertyOp37
 70
     1
102
RTVSPropertyOp38
 70
     1
102
RTVSPropertyOp39
 70
     1
102
RTVSPropertyOp40
 70
     1
102
RTVSPropertyOp41
 70
     1
102
RTVSPropertyOp42
 70
     1
102
RTVSPropertyOp43
 70
     1
102
RTVSPropertyOp44
 70
     1
102
RTVSPropertyOp45
 70
     1
102
RTVSPropertyOp46
 70
     1
102
RTVSPropertyOp47
 70
     1
102
RTVSPropertyOp48
 70
     1
102
RTVSPropertyOp49
 70
     1
102
RTVSPropertyOp50
 70
     1
102
RTVSPropertyOp51
 70
     0
102
RTVSPropertyOp52
 70
     0
102
RTVSPropertyOp53
 70
     1
102
RTVSPropertyOp54
 70
     1
102
RTVSPropertyOp55
 70
     1
102
RTVSPropertyOp56
 70
     1
102
RTVSPropertyOp57
 70
     1
102
RTVSPropertyOp58
 70
     1
102
RTVSPropertyOp59
 70
     1
102
RTVSPropertyOp60
 70
     1
102
RTVSPropertyOp61
 70
     1
102
RTVSPropertyOp62
 70
     1
  0
XRECORD
  5
9A0F
102
{ACAD_REACTORS
330
9A0E
102
}
330
9A0E
100
AcDbXrecord
280
     1
102
RTVSPost2010Prop28
280
     0
102
RTVSPost2010PropOp28
 70
     1
102
RTVSPost2010Prop29
280
     1
102
RTVSPost2010PropOp29
 70
     1
102
RTVSPost2010Prop30
280
     1
102
RTVSPost2010PropOp30
 70
     1
102
RTVSPost2010Prop31
280
     0
102
RTVSPost2010PropOp31
 70
     1
102
RTVSPost2010Prop32
280
     0
102
RTVSPost2010PropOp32
 70
     1
102
RTVSPost2010Prop33
280
     0
102
RTVSPost2010PropOp33
 70
     1
102
RTVSPost2010Prop34
280
     0
102
RTVSPost2010PropOp34
 70
     1
102
RTVSPost2010Prop35
280
     0
102
RTVSPost2010PropOp35
 70
     1
102
RTVSPost2010Prop36
280
     0
102
RTVSPost2010PropOp36
 70
     1
102
RTVSPost2010Prop37
 90
       50
102
RTVSPost2010PropOp37
 70
     1
102
RTVSPost2010Prop38
140
0.0
102
RTVSPost2010PropOp38
 70
     1
102
RTVSPost2010Prop39
140
1.0
102
RTVSPost2010PropOp39
 70
     1
102
RTVSPost2010Prop40
 90
        0
102
RTVSPost2010PropOp40
 70
     1
102
RTVSPost2010Prop41ColorIndex
 90
       18
102
RTVSPost2010Prop41ColorRGB
 90
        0
102
RTVSPost2010PropOp41
 70
     1
102
RTVSPost2010Prop42
 90
       50
102
RTVSPost2010PropOp42
 70
     1
102
RTVSPost2010Prop43
 90
        3
102
RTVSPost2010PropOp43
 70
     1
102
RTVSPost2010Prop44ColorIndex
 90
        5
102
RTVSPost2010Prop44ColorRGB
 90
      255
102
RTVSPost2010PropOp44
 70
     1
102
RTVSPost2010Prop45
280
     0
102
RTVSPost2010PropOp45
 70
     1
102
RTVSPost2010Prop46
 90
       50
102
RTVSPost2010PropOp46
 70
     1
102
RTVSPost2010Prop47
 90
       50
102
RTVSPost2010PropOp47
 70
     1
102
RTVSPost2010Prop48
 90
       50
102
RTVSPost2010PropOp48
 70
     1
102
RTVSPost2010Prop49
280
     0
102
RTVSPost2010PropOp49
 70
     1
102
RTVSPost2010Prop50
 90
       50
102
RTVSPost2010PropOp50
 70
     1
102
RTVSPost2010Prop51ColorIndex
 90
      256
102
RTVSPost2010Prop51ColorRGB
 90
-16777216
102
RTVSPost2010PropOp51
 70
     0
102
RTVSPost2010Prop52
140
1.0
102
RTVSPost2010PropOp52
 70
     0
102
RTVSPost2010Prop53
 90
        2
102
RTVSPost2010PropOp53
 70
     1
102
RTVSPost2010Prop54
  1
strokes_ogs.tif
102
RTVSPost2010PropOp54
 70
     1
102
RTVSPost2010Prop55
280
     0
102
RTVSPost2010PropOp55
 70
     1
102
RTVSPost2010Prop56
140
1.0
102
RTVSPost2010PropOp56
 70
     1
102
RTVSPost2010Prop57
140
1.0
102
RTVSPost2010PropOp57
 70
     1
102
RTVSPropertyOp0
 70
     1
102
RTVSPropertyOp1
 70
     1
102
RTVSPropertyOp2
 70
     1
102
RTVSPropertyOp3
 70
     1
102
RTVSPropertyOp4
 70
     1
102
RTVSPropertyOp5
 70
     1
102
RTVSPropertyOp6
 70
     1
102
RTVSPropertyOp7
 70
     1
102
RTVSPropertyOp8
 70
     1
102
RTVSPropertyOp9
 70
     1
102
RTVSPropertyOp10
 70
     1
102
RTVSPropertyOp11
 70
     1
102
RTVSPropertyOp12
 70
     1
102
RTVSPropertyOp13
 70
     1
102
RTVSPropertyOp14
 70
     1
102
RTVSPropertyOp15
 70
     1
102
RTVSPropertyOp16
 70
     1
102
RTVSPropertyOp17
 70
     1
102
RTVSPropertyOp18
 70
     1
102
RTVSPropertyOp19
 70
     1
102
RTVSPropertyOp20
 70
     1
102
RTVSPropertyOp21
 70
     1
102
RTVSPropertyOp22
 70
     1
102
RTVSPropertyOp23
 70
     1
102
RTVSPropertyOp24
 70
     1
102
RTVSPropertyOp25
 70
     1
102
RTVSPropertyOp26
 70
     1
102
RTVSPropertyOp27
 70
     1
102
RTVSPropertyOp28
 70
     1
102
RTVSPropertyOp29
 70
     1
102
RTVSPropertyOp30
 70
     1
102
RTVSPropertyOp31
 70
     1
102
RTVSPropertyOp32
 70
     1
102
RTVSPropertyOp33
 70
     1
102
RTVSPropertyOp34
 70
     1
102
RTVSPropertyOp35
 70
     1
102
RTVSPropertyOp36
 70
     1
102
RTVSPropertyOp37
 70
     1
102
RTVSPropertyOp38
 70
     1
102
RTVSPropertyOp39
 70
     1
102
RTVSPropertyOp40
 70
     1
102
RTVSPropertyOp41
 70
     1
102
RTVSPropertyOp42
 70
     1
102
RTVSPropertyOp43
 70
     1
102
RTVSPropertyOp44
 70
     1
102
RTVSPropertyOp45
 70
     1
102
RTVSPropertyOp46
 70
     1
102
RTVSPropertyOp47
 70
     1
102
RTVSPropertyOp48
 70
     1
102
RTVSPropertyOp49
 70
     1
102
RTVSPropertyOp50
 70
     1
102
RTVSPropertyOp51
 70
     0
102
RTVSPropertyOp52
 70
     0
102
RTVSPropertyOp53
 70
     1
102
RTVSPropertyOp54
 70
     1
102
RTVSPropertyOp55
 70
     1
102
RTVSPropertyOp56
 70
     1
102
RTVSPropertyOp57
 70
     1
102
RTVSPropertyOp58
 70
     1
102
RTVSPropertyOp59
 70
     1
102
RTVSPropertyOp60
 70
     1
102
RTVSPropertyOp61
 70
     1
102
RTVSPropertyOp62
 70
     1
  0
XRECORD
  5
9A11
102
{ACAD_REACTORS
330
9A10
102
}
330
9A10
100
AcDbXrecord
280
     1
102
RTVSPost2010Prop28
280
     0
102
RTVSPost2010PropOp28
 70
     1
102
RTVSPost2010Prop29
280
     1
102
RTVSPost2010PropOp29
 70
     1
102
RTVSPost2010Prop30
280
     1
102
RTVSPost2010PropOp30
 70
     1
102
RTVSPost2010Prop31
280
     0
102
RTVSPost2010PropOp31
 70
     1
102
RTVSPost2010Prop32
280
     0
102
RTVSPost2010PropOp32
 70
     1
102
RTVSPost2010Prop33
280
     0
102
RTVSPost2010PropOp33
 70
     1
102
RTVSPost2010Prop34
280
     0
102
RTVSPost2010PropOp34
 70
     1
102
RTVSPost2010Prop35
280
     0
102
RTVSPost2010PropOp35
 70
     1
102
RTVSPost2010Prop36
280
     0
102
RTVSPost2010PropOp36
 70
     1
102
RTVSPost2010Prop37
 90
       50
102
RTVSPost2010PropOp37
 70
     1
102
RTVSPost2010Prop38
140
0.0
102
RTVSPost2010PropOp38
 70
     1
102
RTVSPost2010Prop39
140
1.0
102
RTVSPost2010PropOp39
 70
     1
102
RTVSPost2010Prop40
 90
        0
102
RTVSPost2010PropOp40
 70
     1
102
RTVSPost2010Prop41ColorIndex
 90
       18
102
RTVSPost2010Prop41ColorRGB
 90
        0
102
RTVSPost2010PropOp41
 70
     1
102
RTVSPost2010Prop42
 90
       50
102
RTVSPost2010PropOp42
 70
     1
102
RTVSPost2010Prop43
 90
        3
102
RTVSPost2010PropOp43
 70
     1
102
RTVSPost2010Prop44ColorIndex
 90
        5
102
RTVSPost2010Prop44ColorRGB
 90
      255
102
RTVSPost2010PropOp44
 70
     1
102
RTVSPost2010Prop45
280
     0
102
RTVSPost2010PropOp45
 70
     1
102
RTVSPost2010Prop46
 90
       50
102
RTVSPost2010PropOp46
 70
     1
102
RTVSPost2010Prop47
 90
       50
102
RTVSPost2010PropOp47
 70
     1
102
RTVSPost2010Prop48
 90
       50
102
RTVSPost2010PropOp48
 70
     1
102
RTVSPost2010Prop49
280
     0
102
RTVSPost2010PropOp49
 70
     1
102
RTVSPost2010Prop50
 90
       50
102
RTVSPost2010PropOp50
 70
     1
102
RTVSPost2010Prop51ColorIndex
 90
      256
102
RTVSPost2010Prop51ColorRGB
 90
-16777216
102
RTVSPost2010PropOp51
 70
     0
102
RTVSPost2010Prop52
140
1.0
102
RTVSPost2010PropOp52
 70
     0
102
RTVSPost2010Prop53
 90
        2
102
RTVSPost2010PropOp53
 70
     1
102
RTVSPost2010Prop54
  1
strokes_ogs.tif
102
RTVSPost2010PropOp54
 70
     1
102
RTVSPost2010Prop55
280
     0
102
RTVSPost2010PropOp55
 70
     1
102
RTVSPost2010Prop56
140
1.0
102
RTVSPost2010PropOp56
 70
     1
102
RTVSPost2010Prop57
140
1.0
102
RTVSPost2010PropOp57
 70
     1
102
RTVSPropertyOp0
 70
     1
102
RTVSPropertyOp1
 70
     1
102
RTVSPropertyOp2
 70
     1
102
RTVSPropertyOp3
 70
     1
102
RTVSPropertyOp4
 70
     1
102
RTVSPropertyOp5
 70
     1
102
RTVSPropertyOp6
 70
     1
102
RTVSPropertyOp7
 70
     1
102
RTVSPropertyOp8
 70
     1
102
RTVSPropertyOp9
 70
     1
102
RTVSPropertyOp10
 70
     1
102
RTVSPropertyOp11
 70
     1
102
RTVSPropertyOp12
 70
     1
102
RTVSPropertyOp13
 70
     1
102
RTVSPropertyOp14
 70
     1
102
RTVSPropertyOp15
 70
     1
102
RTVSPropertyOp16
 70
     1
102
RTVSPropertyOp17
 70
     1
102
RTVSPropertyOp18
 70
     1
102
RTVSPropertyOp19
 70
     1
102
RTVSPropertyOp20
 70
     1
102
RTVSPropertyOp21
 70
     1
102
RTVSPropertyOp22
 70
     1
102
RTVSPropertyOp23
 70
     1
102
RTVSPropertyOp24
 70
     1
102
RTVSPropertyOp25
 70
     1
102
RTVSPropertyOp26
 70
     1
102
RTVSPropertyOp27
 70
     1
102
RTVSPropertyOp28
 70
     1
102
RTVSPropertyOp29
 70
     1
102
RTVSPropertyOp30
 70
     1
102
RTVSPropertyOp31
 70
     1
102
RTVSPropertyOp32
 70
     1
102
RTVSPropertyOp33
 70
     1
102
RTVSPropertyOp34
 70
     1
102
RTVSPropertyOp35
 70
     1
102
RTVSPropertyOp36
 70
     1
102
RTVSPropertyOp37
 70
     1
102
RTVSPropertyOp38
 70
     1
102
RTVSPropertyOp39
 70
     1
102
RTVSPropertyOp40
 70
     1
102
RTVSPropertyOp41
 70
     1
102
RTVSPropertyOp42
 70
     1
102
RTVSPropertyOp43
 70
     1
102
RTVSPropertyOp44
 70
     1
102
RTVSPropertyOp45
 70
     1
102
RTVSPropertyOp46
 70
     1
102
RTVSPropertyOp47
 70
     1
102
RTVSPropertyOp48
 70
     1
102
RTVSPropertyOp49
 70
     1
102
RTVSPropertyOp50
 70
     1
102
RTVSPropertyOp51
 70
     0
102
RTVSPropertyOp52
 70
     0
102
RTVSPropertyOp53
 70
     1
102
RTVSPropertyOp54
 70
     1
102
RTVSPropertyOp55
 70
     1
102
RTVSPropertyOp56
 70
     1
102
RTVSPropertyOp57
 70
     1
102
RTVSPropertyOp58
 70
     1
102
RTVSPropertyOp59
 70
     1
102
RTVSPropertyOp60
 70
     1
102
RTVSPropertyOp61
 70
     1
102
RTVSPropertyOp62
 70
     1
  0
XRECORD
  5
9A13
102
{ACAD_REACTORS
330
9A12
102
}
330
9A12
100
AcDbXrecord
280
     1
102
RTVSPost2010Prop28
280
     0
102
RTVSPost2010PropOp28
 70
     1
102
RTVSPost2010Prop29
280
     1
102
RTVSPost2010PropOp29
 70
     1
102
RTVSPost2010Prop30
280
     1
102
RTVSPost2010PropOp30
 70
     1
102
RTVSPost2010Prop31
280
     0
102
RTVSPost2010PropOp31
 70
     1
102
RTVSPost2010Prop32
280
     0
102
RTVSPost2010PropOp32
 70
     1
102
RTVSPost2010Prop33
280
     0
102
RTVSPost2010PropOp33
 70
     1
102
RTVSPost2010Prop34
280
     0
102
RTVSPost2010PropOp34
 70
     1
102
RTVSPost2010Prop35
280
     0
102
RTVSPost2010PropOp35
 70
     1
102
RTVSPost2010Prop36
280
     0
102
RTVSPost2010PropOp36
 70
     1
102
RTVSPost2010Prop37
 90
       50
102
RTVSPost2010PropOp37
 70
     1
102
RTVSPost2010Prop38
140
0.0
102
RTVSPost2010PropOp38
 70
     1
102
RTVSPost2010Prop39
140
1.0
102
RTVSPost2010PropOp39
 70
     1
102
RTVSPost2010Prop40
 90
        0
102
RTVSPost2010PropOp40
 70
     1
102
RTVSPost2010Prop41ColorIndex
 90
       18
102
RTVSPost2010Prop41ColorRGB
 90
        0
102
RTVSPost2010PropOp41
 70
     1
102
RTVSPost2010Prop42
 90
       50
102
RTVSPost2010PropOp42
 70
     1
102
RTVSPost2010Prop43
 90
        3
102
RTVSPost2010PropOp43
 70
     1
102
RTVSPost2010Prop44ColorIndex
 90
        5
102
RTVSPost2010Prop44ColorRGB
 90
      255
102
RTVSPost2010PropOp44
 70
     1
102
RTVSPost2010Prop45
280
     0
102
RTVSPost2010PropOp45
 70
     1
102
RTVSPost2010Prop46
 90
       50
102
RTVSPost2010PropOp46
 70
     1
102
RTVSPost2010Prop47
 90
       50
102
RTVSPost2010PropOp47
 70
     1
102
RTVSPost2010Prop48
 90
       50
102
RTVSPost2010PropOp48
 70
     1
102
RTVSPost2010Prop49
280
     0
102
RTVSPost2010PropOp49
 70
     1
102
RTVSPost2010Prop50
 90
       50
102
RTVSPost2010PropOp50
 70
     1
102
RTVSPost2010Prop51ColorIndex
 90
      256
102
RTVSPost2010Prop51ColorRGB
 90
-16777216
102
RTVSPost2010PropOp51
 70
     0
102
RTVSPost2010Prop52
140
1.0
102
RTVSPost2010PropOp52
 70
     0
102
RTVSPost2010Prop53
 90
        2
102
RTVSPost2010PropOp53
 70
     1
102
RTVSPost2010Prop54
  1
strokes_ogs.tif
102
RTVSPost2010PropOp54
 70
     1
102
RTVSPost2010Prop55
280
     0
102
RTVSPost2010PropOp55
 70
     1
102
RTVSPost2010Prop56
140
1.0
102
RTVSPost2010PropOp56
 70
     1
102
RTVSPost2010Prop57
140
1.0
102
RTVSPost2010PropOp57
 70
     1
102
RTVSPropertyOp0
 70
     1
102
RTVSPropertyOp1
 70
     1
102
RTVSPropertyOp2
 70
     1
102
RTVSPropertyOp3
 70
     1
102
RTVSPropertyOp4
 70
     1
102
RTVSPropertyOp5
 70
     1
102
RTVSPropertyOp6
 70
     1
102
RTVSPropertyOp7
 70
     1
102
RTVSPropertyOp8
 70
     1
102
RTVSPropertyOp9
 70
     1
102
RTVSPropertyOp10
 70
     1
102
RTVSPropertyOp11
 70
     1
102
RTVSPropertyOp12
 70
     1
102
RTVSPropertyOp13
 70
     1
102
RTVSPropertyOp14
 70
     1
102
RTVSPropertyOp15
 70
     1
102
RTVSPropertyOp16
 70
     1
102
RTVSPropertyOp17
 70
     1
102
RTVSPropertyOp18
 70
     1
102
RTVSPropertyOp19
 70
     1
102
RTVSPropertyOp20
 70
     1
102
RTVSPropertyOp21
 70
     1
102
RTVSPropertyOp22
 70
     1
102
RTVSPropertyOp23
 70
     1
102
RTVSPropertyOp24
 70
     1
102
RTVSPropertyOp25
 70
     1
102
RTVSPropertyOp26
 70
     1
102
RTVSPropertyOp27
 70
     1
102
RTVSPropertyOp28
 70
     1
102
RTVSPropertyOp29
 70
     1
102
RTVSPropertyOp30
 70
     1
102
RTVSPropertyOp31
 70
     1
102
RTVSPropertyOp32
 70
     1
102
RTVSPropertyOp33
 70
     1
102
RTVSPropertyOp34
 70
     1
102
RTVSPropertyOp35
 70
     1
102
RTVSPropertyOp36
 70
     1
102
RTVSPropertyOp37
 70
     1
102
RTVSPropertyOp38
 70
     1
102
RTVSPropertyOp39
 70
     1
102
RTVSPropertyOp40
 70
     1
102
RTVSPropertyOp41
 70
     1
102
RTVSPropertyOp42
 70
     1
102
RTVSPropertyOp43
 70
     1
102
RTVSPropertyOp44
 70
     1
102
RTVSPropertyOp45
 70
     1
102
RTVSPropertyOp46
 70
     1
102
RTVSPropertyOp47
 70
     1
102
RTVSPropertyOp48
 70
     1
102
RTVSPropertyOp49
 70
     1
102
RTVSPropertyOp50
 70
     1
102
RTVSPropertyOp51
 70
     0
102
RTVSPropertyOp52
 70
     0
102
RTVSPropertyOp53
 70
     1
102
RTVSPropertyOp54
 70
     1
102
RTVSPropertyOp55
 70
     1
102
RTVSPropertyOp56
 70
     1
102
RTVSPropertyOp57
 70
     1
102
RTVSPropertyOp58
 70
     1
102
RTVSPropertyOp59
 70
     1
102
RTVSPropertyOp60
 70
     1
102
RTVSPropertyOp61
 70
     1
102
RTVSPropertyOp62
 70
     1
  0
XRECORD
  5
9A15
102
{ACAD_REACTORS
330
9A14
102
}
330
9A14
100
AcDbXrecord
280
     1
102
RTVSPost2010Prop28
280
     0
102
RTVSPost2010PropOp28
 70
     1
102
RTVSPost2010Prop29
280
     1
102
RTVSPost2010PropOp29
 70
     1
102
RTVSPost2010Prop30
280
     1
102
RTVSPost2010PropOp30
 70
     1
102
RTVSPost2010Prop31
280
     0
102
RTVSPost2010PropOp31
 70
     1
102
RTVSPost2010Prop32
280
     0
102
RTVSPost2010PropOp32
 70
     1
102
RTVSPost2010Prop33
280
     0
102
RTVSPost2010PropOp33
 70
     1
102
RTVSPost2010Prop34
280
     0
102
RTVSPost2010PropOp34
 70
     1
102
RTVSPost2010Prop35
280
     0
102
RTVSPost2010PropOp35
 70
     1
102
RTVSPost2010Prop36
280
     0
102
RTVSPost2010PropOp36
 70
     1
102
RTVSPost2010Prop37
 90
       50
102
RTVSPost2010PropOp37
 70
     1
102
RTVSPost2010Prop38
140
0.0
102
RTVSPost2010PropOp38
 70
     1
102
RTVSPost2010Prop39
140
1.0
102
RTVSPost2010PropOp39
 70
     1
102
RTVSPost2010Prop40
 90
        0
102
RTVSPost2010PropOp40
 70
     1
102
RTVSPost2010Prop41ColorIndex
 90
       18
102
RTVSPost2010Prop41ColorRGB
 90
        0
102
RTVSPost2010PropOp41
 70
     1
102
RTVSPost2010Prop42
 90
       50
102
RTVSPost2010PropOp42
 70
     1
102
RTVSPost2010Prop43
 90
        3
102
RTVSPost2010PropOp43
 70
     1
102
RTVSPost2010Prop44ColorIndex
 90
        5
102
RTVSPost2010Prop44ColorRGB
 90
      255
102
RTVSPost2010PropOp44
 70
     1
102
RTVSPost2010Prop45
280
     0
102
RTVSPost2010PropOp45
 70
     1
102
RTVSPost2010Prop46
 90
       50
102
RTVSPost2010PropOp46
 70
     1
102
RTVSPost2010Prop47
 90
       50
102
RTVSPost2010PropOp47
 70
     1
102
RTVSPost2010Prop48
 90
       50
102
RTVSPost2010PropOp48
 70
     1
102
RTVSPost2010Prop49
280
     0
102
RTVSPost2010PropOp49
 70
     1
102
RTVSPost2010Prop50
 90
       50
102
RTVSPost2010PropOp50
 70
     1
102
RTVSPost2010Prop51ColorIndex
 90
      256
102
RTVSPost2010Prop51ColorRGB
 90
-16777216
102
RTVSPost2010PropOp51
 70
     0
102
RTVSPost2010Prop52
140
1.0
102
RTVSPost2010PropOp52
 70
     0
102
RTVSPost2010Prop53
 90
        2
102
RTVSPost2010PropOp53
 70
     1
102
RTVSPost2010Prop54
  1
strokes_ogs.tif
102
RTVSPost2010PropOp54
 70
     1
102
RTVSPost2010Prop55
280
     0
102
RTVSPost2010PropOp55
 70
     1
102
RTVSPost2010Prop56
140
1.0
102
RTVSPost2010PropOp56
 70
     1
102
RTVSPost2010Prop57
140
1.0
102
RTVSPost2010PropOp57
 70
     1
102
RTVSPropertyOp0
 70
     1
102
RTVSPropertyOp1
 70
     1
102
RTVSPropertyOp2
 70
     1
102
RTVSPropertyOp3
 70
     1
102
RTVSPropertyOp4
 70
     1
102
RTVSPropertyOp5
 70
     1
102
RTVSPropertyOp6
 70
     1
102
RTVSPropertyOp7
 70
     1
102
RTVSPropertyOp8
 70
     1
102
RTVSPropertyOp9
 70
     1
102
RTVSPropertyOp10
 70
     1
102
RTVSPropertyOp11
 70
     1
102
RTVSPropertyOp12
 70
     1
102
RTVSPropertyOp13
 70
     1
102
RTVSPropertyOp14
 70
     1
102
RTVSPropertyOp15
 70
     1
102
RTVSPropertyOp16
 70
     1
102
RTVSPropertyOp17
 70
     1
102
RTVSPropertyOp18
 70
     1
102
RTVSPropertyOp19
 70
     1
102
RTVSPropertyOp20
 70
     1
102
RTVSPropertyOp21
 70
     1
102
RTVSPropertyOp22
 70
     1
102
RTVSPropertyOp23
 70
     1
102
RTVSPropertyOp24
 70
     1
102
RTVSPropertyOp25
 70
     1
102
RTVSPropertyOp26
 70
     1
102
RTVSPropertyOp27
 70
     1
102
RTVSPropertyOp28
 70
     1
102
RTVSPropertyOp29
 70
     1
102
RTVSPropertyOp30
 70
     1
102
RTVSPropertyOp31
 70
     1
102
RTVSPropertyOp32
 70
     1
102
RTVSPropertyOp33
 70
     1
102
RTVSPropertyOp34
 70
     1
102
RTVSPropertyOp35
 70
     1
102
RTVSPropertyOp36
 70
     1
102
RTVSPropertyOp37
 70
     1
102
RTVSPropertyOp38
 70
     1
102
RTVSPropertyOp39
 70
     1
102
RTVSPropertyOp40
 70
     1
102
RTVSPropertyOp41
 70
     1
102
RTVSPropertyOp42
 70
     1
102
RTVSPropertyOp43
 70
     1
102
RTVSPropertyOp44
 70
     1
102
RTVSPropertyOp45
 70
     1
102
RTVSPropertyOp46
 70
     1
102
RTVSPropertyOp47
 70
     1
102
RTVSPropertyOp48
 70
     1
102
RTVSPropertyOp49
 70
     1
102
RTVSPropertyOp50
 70
     1
102
RTVSPropertyOp51
 70
     0
102
RTVSPropertyOp52
 70
     0
102
RTVSPropertyOp53
 70
     1
102
RTVSPropertyOp54
 70
     1
102
RTVSPropertyOp55
 70
     1
102
RTVSPropertyOp56
 70
     1
102
RTVSPropertyOp57
 70
     1
102
RTVSPropertyOp58
 70
     1
102
RTVSPropertyOp59
 70
     1
102
RTVSPropertyOp60
 70
     1
102
RTVSPropertyOp61
 70
     1
102
RTVSPropertyOp62
 70
     1
  0
XRECORD
  5
9A1D
102
{ACAD_REACTORS
330
9A1C
102
}
330
9A1C
100
AcDbXrecord
280
     1
102
RTVSPost2010Prop28
280
     0
102
RTVSPost2010PropOp28
 70
     1
102
RTVSPost2010Prop29
280
     1
102
RTVSPost2010PropOp29
 70
     1
102
RTVSPost2010Prop30
280
     1
102
RTVSPost2010PropOp30
 70
     1
102
RTVSPost2010Prop31
280
     0
102
RTVSPost2010PropOp31
 70
     1
102
RTVSPost2010Prop32
280
     0
102
RTVSPost2010PropOp32
 70
     1
102
RTVSPost2010Prop33
280
     0
102
RTVSPost2010PropOp33
 70
     1
102
RTVSPost2010Prop34
280
     0
102
RTVSPost2010PropOp34
 70
     1
102
RTVSPost2010Prop35
280
     0
102
RTVSPost2010PropOp35
 70
     1
102
RTVSPost2010Prop36
280
     0
102
RTVSPost2010PropOp36
 70
     1
102
RTVSPost2010Prop37
 90
       50
102
RTVSPost2010PropOp37
 70
     1
102
RTVSPost2010Prop38
140
0.0
102
RTVSPost2010PropOp38
 70
     1
102
RTVSPost2010Prop39
140
1.0
102
RTVSPost2010PropOp39
 70
     1
102
RTVSPost2010Prop40
 90
        0
102
RTVSPost2010PropOp40
 70
     1
102
RTVSPost2010Prop41ColorIndex
 90
       18
102
RTVSPost2010Prop41ColorRGB
 90
        0
102
RTVSPost2010PropOp41
 70
     1
102
RTVSPost2010Prop42
 90
       50
102
RTVSPost2010PropOp42
 70
     1
102
RTVSPost2010Prop43
 90
        3
102
RTVSPost2010PropOp43
 70
     1
102
RTVSPost2010Prop44ColorIndex
 90
        5
102
RTVSPost2010Prop44ColorRGB
 90
      255
102
RTVSPost2010PropOp44
 70
     1
102
RTVSPost2010Prop45
280
     0
102
RTVSPost2010PropOp45
 70
     1
102
RTVSPost2010Prop46
 90
       50
102
RTVSPost2010PropOp46
 70
     1
102
RTVSPost2010Prop47
 90
       50
102
RTVSPost2010PropOp47
 70
     1
102
RTVSPost2010Prop48
 90
       50
102
RTVSPost2010PropOp48
 70
     1
102
RTVSPost2010Prop49
280
     0
102
RTVSPost2010PropOp49
 70
     1
102
RTVSPost2010Prop50
 90
       50
102
RTVSPost2010PropOp50
 70
     1
102
RTVSPost2010Prop51ColorIndex
 90
      256
102
RTVSPost2010Prop51ColorRGB
 90
-16777216
102
RTVSPost2010PropOp51
 70
     0
102
RTVSPost2010Prop52
140
1.0
102
RTVSPost2010PropOp52
 70
     0
102
RTVSPost2010Prop53
 90
        2
102
RTVSPost2010PropOp53
 70
     1
102
RTVSPost2010Prop54
  1
strokes_ogs.tif
102
RTVSPost2010PropOp54
 70
     1
102
RTVSPost2010Prop55
280
     0
102
RTVSPost2010PropOp55
 70
     1
102
RTVSPost2010Prop56
140
1.0
102
RTVSPost2010PropOp56
 70
     1
102
RTVSPost2010Prop57
140
1.0
102
RTVSPost2010PropOp57
 70
     1
102
RTVSPropertyOp0
 70
     1
102
RTVSPropertyOp1
 70
     1
102
RTVSPropertyOp2
 70
     1
102
RTVSPropertyOp3
 70
     1
102
RTVSPropertyOp4
 70
     1
102
RTVSPropertyOp5
 70
     1
102
RTVSPropertyOp6
 70
     1
102
RTVSPropertyOp7
 70
     1
102
RTVSPropertyOp8
 70
     1
102
RTVSPropertyOp9
 70
     1
102
RTVSPropertyOp10
 70
     1
102
RTVSPropertyOp11
 70
     1
102
RTVSPropertyOp12
 70
     1
102
RTVSPropertyOp13
 70
     1
102
RTVSPropertyOp14
 70
     1
102
RTVSPropertyOp15
 70
     1
102
RTVSPropertyOp16
 70
     1
102
RTVSPropertyOp17
 70
     1
102
RTVSPropertyOp18
 70
     1
102
RTVSPropertyOp19
 70
     1
102
RTVSPropertyOp20
 70
     1
102
RTVSPropertyOp21
 70
     1
102
RTVSPropertyOp22
 70
     1
102
RTVSPropertyOp23
 70
     1
102
RTVSPropertyOp24
 70
     1
102
RTVSPropertyOp25
 70
     1
102
RTVSPropertyOp26
 70
     1
102
RTVSPropertyOp27
 70
     1
102
RTVSPropertyOp28
 70
     1
102
RTVSPropertyOp29
 70
     1
102
RTVSPropertyOp30
 70
     1
102
RTVSPropertyOp31
 70
     1
102
RTVSPropertyOp32
 70
     1
102
RTVSPropertyOp33
 70
     1
102
RTVSPropertyOp34
 70
     1
102
RTVSPropertyOp35
 70
     1
102
RTVSPropertyOp36
 70
     1
102
RTVSPropertyOp37
 70
     1
102
RTVSPropertyOp38
 70
     1
102
RTVSPropertyOp39
 70
     1
102
RTVSPropertyOp40
 70
     1
102
RTVSPropertyOp41
 70
     1
102
RTVSPropertyOp42
 70
     1
102
RTVSPropertyOp43
 70
     1
102
RTVSPropertyOp44
 70
     1
102
RTVSPropertyOp45
 70
     1
102
RTVSPropertyOp46
 70
     1
102
RTVSPropertyOp47
 70
     1
102
RTVSPropertyOp48
 70
     1
102
RTVSPropertyOp49
 70
     1
102
RTVSPropertyOp50
 70
     1
102
RTVSPropertyOp51
 70
     0
102
RTVSPropertyOp52
 70
     0
102
RTVSPropertyOp53
 70
     1
102
RTVSPropertyOp54
 70
     1
102
RTVSPropertyOp55
 70
     1
102
RTVSPropertyOp56
 70
     1
102
RTVSPropertyOp57
 70
     1
102
RTVSPropertyOp58
 70
     1
102
RTVSPropertyOp59
 70
     1
102
RTVSPropertyOp60
 70
     1
102
RTVSPropertyOp61
 70
     1
102
RTVSPropertyOp62
 70
     1
  0
XRECORD
  5
9A39
102
{ACAD_REACTORS
330
9A38
102
}
330
9A38
100
AcDbXrecord
280
     1
102
RTVSPost2010Prop28
280
     0
102
RTVSPost2010PropOp28
 70
     1
102
RTVSPost2010Prop29
280
     1
102
RTVSPost2010PropOp29
 70
     1
102
RTVSPost2010Prop30
280
     1
102
RTVSPost2010PropOp30
 70
     1
102
RTVSPost2010Prop31
280
     0
102
RTVSPost2010PropOp31
 70
     1
102
RTVSPost2010Prop32
280
     0
102
RTVSPost2010PropOp32
 70
     1
102
RTVSPost2010Prop33
280
     0
102
RTVSPost2010PropOp33
 70
     1
102
RTVSPost2010Prop34
280
     0
102
RTVSPost2010PropOp34
 70
     1
102
RTVSPost2010Prop35
280
     0
102
RTVSPost2010PropOp35
 70
     1
102
RTVSPost2010Prop36
280
     0
102
RTVSPost2010PropOp36
 70
     1
102
RTVSPost2010Prop37
 90
       50
102
RTVSPost2010PropOp37
 70
     0
102
RTVSPost2010Prop38
140
0.0
102
RTVSPost2010PropOp38
 70
     0
102
RTVSPost2010Prop39
140
1.0
102
RTVSPost2010PropOp39
 70
     0
102
RTVSPost2010Prop40
 90
        0
102
RTVSPost2010PropOp40
 70
     0
102
RTVSPost2010Prop41ColorIndex
 90
       18
102
RTVSPost2010Prop41ColorRGB
 90
        0
102
RTVSPost2010PropOp41
 70
     0
102
RTVSPost2010Prop42
 90
       50
102
RTVSPost2010PropOp42
 70
     0
102
RTVSPost2010Prop43
 90
        3
102
RTVSPost2010PropOp43
 70
     0
102
RTVSPost2010Prop44ColorIndex
 90
        5
102
RTVSPost2010Prop44ColorRGB
 90
      255
102
RTVSPost2010PropOp44
 70
     0
102
RTVSPost2010Prop45
280
     0
102
RTVSPost2010PropOp45
 70
     1
102
RTVSPost2010Prop46
 90
       50
102
RTVSPost2010PropOp46
 70
     0
102
RTVSPost2010Prop47
 90
       50
102
RTVSPost2010PropOp47
 70
     0
102
RTVSPost2010Prop48
 90
       50
102
RTVSPost2010PropOp48
 70
     0
102
RTVSPost2010Prop49
280
     0
102
RTVSPost2010PropOp49
 70
     1
102
RTVSPost2010Prop50
 90
       50
102
RTVSPost2010PropOp50
 70
     0
102
RTVSPost2010Prop51ColorIndex
 90
      256
102
RTVSPost2010Prop51ColorRGB
 90
-16777216
102
RTVSPost2010PropOp51
 70
     0
102
RTVSPost2010Prop52
140
1.0
102
RTVSPost2010PropOp52
 70
     0
102
RTVSPost2010Prop53
 90
        2
102
RTVSPost2010PropOp53
 70
     0
102
RTVSPost2010Prop54
  1
strokes_ogs.tif
102
RTVSPost2010PropOp54
 70
     0
102
RTVSPost2010Prop55
280
     0
102
RTVSPost2010PropOp55
 70
     1
102
RTVSPost2010Prop56
140
1.0
102
RTVSPost2010PropOp56
 70
     0
102
RTVSPost2010Prop57
140
1.0
102
RTVSPost2010PropOp57
 70
     0
102
RTVSPropertyOp0
 70
     0
102
RTVSPropertyOp1
 70
     0
102
RTVSPropertyOp2
 70
     0
102
RTVSPropertyOp3
 70
     0
102
RTVSPropertyOp4
 70
     0
102
RTVSPropertyOp5
 70
     0
102
RTVSPropertyOp6
 70
     0
102
RTVSPropertyOp7
 70
     0
102
RTVSPropertyOp8
 70
     0
102
RTVSPropertyOp9
 70
     0
102
RTVSPropertyOp10
 70
     0
102
RTVSPropertyOp11
 70
     0
102
RTVSPropertyOp12
 70
     0
102
RTVSPropertyOp13
 70
     0
102
RTVSPropertyOp14
 70
     2
102
RTVSPropertyOp15
 70
     0
102
RTVSPropertyOp16
 70
     0
102
RTVSPropertyOp17
 70
     0
102
RTVSPropertyOp18
 70
     0
102
RTVSPropertyOp19
 70
     0
102
RTVSPropertyOp20
 70
     0
102
RTVSPropertyOp21
 70
     0
102
RTVSPropertyOp22
 70
     0
102
RTVSPropertyOp23
 70
     0
102
RTVSPropertyOp24
 70
     0
102
RTVSPropertyOp25
 70
     0
102
RTVSPropertyOp26
 70
     0
102
RTVSPropertyOp27
 70
     0
102
RTVSPropertyOp28
 70
     1
102
RTVSPropertyOp29
 70
     1
102
RTVSPropertyOp30
 70
     1
102
RTVSPropertyOp31
 70
     1
102
RTVSPropertyOp32
 70
     1
102
RTVSPropertyOp33
 70
     1
102
RTVSPropertyOp34
 70
     1
102
RTVSPropertyOp35
 70
     1
102
RTVSPropertyOp36
 70
     1
102
RTVSPropertyOp37
 70
     0
102
RTVSPropertyOp38
 70
     0
102
RTVSPropertyOp39
 70
     0
102
RTVSPropertyOp40
 70
     0
102
RTVSPropertyOp41
 70
     0
102
RTVSPropertyOp42
 70
     0
102
RTVSPropertyOp43
 70
     0
102
RTVSPropertyOp44
 70
     0
102
RTVSPropertyOp45
 70
     1
102
RTVSPropertyOp46
 70
     0
102
RTVSPropertyOp47
 70
     0
102
RTVSPropertyOp48
 70
     0
102
RTVSPropertyOp49
 70
     1
102
RTVSPropertyOp50
 70
     0
102
RTVSPropertyOp51
 70
     0
102
RTVSPropertyOp52
 70
     0
102
RTVSPropertyOp53
 70
     0
102
RTVSPropertyOp54
 70
     0
102
RTVSPropertyOp55
 70
     1
102
RTVSPropertyOp56
 70
     0
102
RTVSPropertyOp57
 70
     0
102
RTVSPropertyOp58
 70
     0
102
RTVSPropertyOp59
 70
     0
102
RTVSPropertyOp60
 70
     0
102
RTVSPropertyOp61
 70
     0
102
RTVSPropertyOp62
 70
     0
  0
XRECORD
  5
9A29
102
{ACAD_REACTORS
330
9A28
102
}
330
9A28
100
AcDbXrecord
280
     1
102
RTVSPost2010Prop28
280
     0
102
RTVSPost2010PropOp28
 70
     1
102
RTVSPost2010Prop29
280
     1
102
RTVSPost2010PropOp29
 70
     1
102
RTVSPost2010Prop30
280
     1
102
RTVSPost2010PropOp30
 70
     1
102
RTVSPost2010Prop31
280
     0
102
RTVSPost2010PropOp31
 70
     1
102
RTVSPost2010Prop32
280
     0
102
RTVSPost2010PropOp32
 70
     1
102
RTVSPost2010Prop33
280
     0
102
RTVSPost2010PropOp33
 70
     1
102
RTVSPost2010Prop34
280
     0
102
RTVSPost2010PropOp34
 70
     1
102
RTVSPost2010Prop35
280
     0
102
RTVSPost2010PropOp35
 70
     1
102
RTVSPost2010Prop36
280
     0
102
RTVSPost2010PropOp36
 70
     1
102
RTVSPost2010Prop37
 90
       50
102
RTVSPost2010PropOp37
 70
     1
102
RTVSPost2010Prop38
140
0.0
102
RTVSPost2010PropOp38
 70
     1
102
RTVSPost2010Prop39
140
1.0
102
RTVSPost2010PropOp39
 70
     1
102
RTVSPost2010Prop40
 90
        0
102
RTVSPost2010PropOp40
 70
     1
102
RTVSPost2010Prop41ColorIndex
 90
       18
102
RTVSPost2010Prop41ColorRGB
 90
        0
102
RTVSPost2010PropOp41
 70
     1
102
RTVSPost2010Prop42
 90
       50
102
RTVSPost2010PropOp42
 70
     1
102
RTVSPost2010Prop43
 90
        3
102
RTVSPost2010PropOp43
 70
     1
102
RTVSPost2010Prop44ColorIndex
 90
        5
102
RTVSPost2010Prop44ColorRGB
 90
      255
102
RTVSPost2010PropOp44
 70
     1
102
RTVSPost2010Prop45
280
     0
102
RTVSPost2010PropOp45
 70
     1
102
RTVSPost2010Prop46
 90
       50
102
RTVSPost2010PropOp46
 70
     1
102
RTVSPost2010Prop47
 90
       50
102
RTVSPost2010PropOp47
 70
     1
102
RTVSPost2010Prop48
 90
       50
102
RTVSPost2010PropOp48
 70
     1
102
RTVSPost2010Prop49
280
     0
102
RTVSPost2010PropOp49
 70
     1
102
RTVSPost2010Prop50
 90
       50
102
RTVSPost2010PropOp50
 70
     1
102
RTVSPost2010Prop51ColorIndex
 90
      256
102
RTVSPost2010Prop51ColorRGB
 90
-16777216
102
RTVSPost2010PropOp51
 70
     0
102
RTVSPost2010Prop52
140
1.0
102
RTVSPost2010PropOp52
 70
     0
102
RTVSPost2010Prop53
 90
        2
102
RTVSPost2010PropOp53
 70
     1
102
RTVSPost2010Prop54
  1
strokes_ogs.tif
102
RTVSPost2010PropOp54
 70
     1
102
RTVSPost2010Prop55
280
     0
102
RTVSPost2010PropOp55
 70
     1
102
RTVSPost2010Prop56
140
1.0
102
RTVSPost2010PropOp56
 70
     1
102
RTVSPost2010Prop57
140
1.0
102
RTVSPost2010PropOp57
 70
     1
102
RTVSPropertyOp0
 70
     1
102
RTVSPropertyOp1
 70
     1
102
RTVSPropertyOp2
 70
     1
102
RTVSPropertyOp3
 70
     1
102
RTVSPropertyOp4
 70
     1
102
RTVSPropertyOp5
 70
     1
102
RTVSPropertyOp6
 70
     1
102
RTVSPropertyOp7
 70
     1
102
RTVSPropertyOp8
 70
     1
102
RTVSPropertyOp9
 70
     1
102
RTVSPropertyOp10
 70
     1
102
RTVSPropertyOp11
 70
     1
102
RTVSPropertyOp12
 70
     1
102
RTVSPropertyOp13
 70
     1
102
RTVSPropertyOp14
 70
     1
102
RTVSPropertyOp15
 70
     1
102
RTVSPropertyOp16
 70
     1
102
RTVSPropertyOp17
 70
     1
102
RTVSPropertyOp18
 70
     1
102
RTVSPropertyOp19
 70
     1
102
RTVSPropertyOp20
 70
     1
102
RTVSPropertyOp21
 70
     1
102
RTVSPropertyOp22
 70
     1
102
RTVSPropertyOp23
 70
     1
102
RTVSPropertyOp24
 70
     1
102
RTVSPropertyOp25
 70
     1
102
RTVSPropertyOp26
 70
     1
102
RTVSPropertyOp27
 70
     1
102
RTVSPropertyOp28
 70
     1
102
RTVSPropertyOp29
 70
     1
102
RTVSPropertyOp30
 70
     1
102
RTVSPropertyOp31
 70
     1
102
RTVSPropertyOp32
 70
     1
102
RTVSPropertyOp33
 70
     1
102
RTVSPropertyOp34
 70
     1
102
RTVSPropertyOp35
 70
     1
102
RTVSPropertyOp36
 70
     1
102
RTVSPropertyOp37
 70
     1
102
RTVSPropertyOp38
 70
     1
102
RTVSPropertyOp39
 70
     1
102
RTVSPropertyOp40
 70
     1
102
RTVSPropertyOp41
 70
     1
102
RTVSPropertyOp42
 70
     1
102
RTVSPropertyOp43
 70
     1
102
RTVSPropertyOp44
 70
     1
102
RTVSPropertyOp45
 70
     1
102
RTVSPropertyOp46
 70
     1
102
RTVSPropertyOp47
 70
     1
102
RTVSPropertyOp48
 70
     1
102
RTVSPropertyOp49
 70
     1
102
RTVSPropertyOp50
 70
     1
102
RTVSPropertyOp51
 70
     0
102
RTVSPropertyOp52
 70
     0
102
RTVSPropertyOp53
 70
     1
102
RTVSPropertyOp54
 70
     1
102
RTVSPropertyOp55
 70
     1
102
RTVSPropertyOp56
 70
     1
102
RTVSPropertyOp57
 70
     1
102
RTVSPropertyOp58
 70
     1
102
RTVSPropertyOp59
 70
     1
102
RTVSPropertyOp60
 70
     1
102
RTVSPropertyOp61
 70
     1
102
RTVSPropertyOp62
 70
     1
  0
XRECORD
  5
9A3B
102
{ACAD_REACTORS
330
9A3A
102
}
330
9A3A
100
AcDbXrecord
280
     1
102
RTVSPost2010Prop28
280
     0
102
RTVSPost2010PropOp28
 70
     1
102
RTVSPost2010Prop29
280
     1
102
RTVSPost2010PropOp29
 70
     1
102
RTVSPost2010Prop30
280
     1
102
RTVSPost2010PropOp30
 70
     1
102
RTVSPost2010Prop31
280
     0
102
RTVSPost2010PropOp31
 70
     1
102
RTVSPost2010Prop32
280
     0
102
RTVSPost2010PropOp32
 70
     1
102
RTVSPost2010Prop33
280
     0
102
RTVSPost2010PropOp33
 70
     1
102
RTVSPost2010Prop34
280
     0
102
RTVSPost2010PropOp34
 70
     1
102
RTVSPost2010Prop35
280
     0
102
RTVSPost2010PropOp35
 70
     1
102
RTVSPost2010Prop36
280
     0
102
RTVSPost2010PropOp36
 70
     1
102
RTVSPost2010Prop37
 90
       50
102
RTVSPost2010PropOp37
 70
     0
102
RTVSPost2010Prop38
140
0.0
102
RTVSPost2010PropOp38
 70
     0
102
RTVSPost2010Prop39
140
1.0
102
RTVSPost2010PropOp39
 70
     0
102
RTVSPost2010Prop40
 90
        0
102
RTVSPost2010PropOp40
 70
     0
102
RTVSPost2010Prop41ColorIndex
 90
       18
102
RTVSPost2010Prop41ColorRGB
 90
        0
102
RTVSPost2010PropOp41
 70
     0
102
RTVSPost2010Prop42
 90
       50
102
RTVSPost2010PropOp42
 70
     0
102
RTVSPost2010Prop43
 90
        3
102
RTVSPost2010PropOp43
 70
     0
102
RTVSPost2010Prop44ColorIndex
 90
        5
102
RTVSPost2010Prop44ColorRGB
 90
      255
102
RTVSPost2010PropOp44
 70
     0
102
RTVSPost2010Prop45
280
     0
102
RTVSPost2010PropOp45
 70
     1
102
RTVSPost2010Prop46
 90
       50
102
RTVSPost2010PropOp46
 70
     0
102
RTVSPost2010Prop47
 90
       50
102
RTVSPost2010PropOp47
 70
     0
102
RTVSPost2010Prop48
 90
       50
102
RTVSPost2010PropOp48
 70
     0
102
RTVSPost2010Prop49
280
     0
102
RTVSPost2010PropOp49
 70
     1
102
RTVSPost2010Prop50
 90
       50
102
RTVSPost2010PropOp50
 70
     0
102
RTVSPost2010Prop51ColorIndex
 90
      256
102
RTVSPost2010Prop51ColorRGB
 90
-16777216
102
RTVSPost2010PropOp51
 70
     0
102
RTVSPost2010Prop52
140
1.0
102
RTVSPost2010PropOp52
 70
     0
102
RTVSPost2010Prop53
 90
        2
102
RTVSPost2010PropOp53
 70
     0
102
RTVSPost2010Prop54
  1
strokes_ogs.tif
102
RTVSPost2010PropOp54
 70
     0
102
RTVSPost2010Prop55
280
     0
102
RTVSPost2010PropOp55
 70
     1
102
RTVSPost2010Prop56
140
1.0
102
RTVSPost2010PropOp56
 70
     0
102
RTVSPost2010Prop57
140
1.0
102
RTVSPost2010PropOp57
 70
     0
102
RTVSPropertyOp0
 70
     0
102
RTVSPropertyOp1
 70
     0
102
RTVSPropertyOp2
 70
     0
102
RTVSPropertyOp3
 70
     0
102
RTVSPropertyOp4
 70
     0
102
RTVSPropertyOp5
 70
     0
102
RTVSPropertyOp6
 70
     0
102
RTVSPropertyOp7
 70
     0
102
RTVSPropertyOp8
 70
     0
102
RTVSPropertyOp9
 70
     0
102
RTVSPropertyOp10
 70
     0
102
RTVSPropertyOp11
 70
     0
102
RTVSPropertyOp12
 70
     0
102
RTVSPropertyOp13
 70
     0
102
RTVSPropertyOp14
 70
     2
102
RTVSPropertyOp15
 70
     0
102
RTVSPropertyOp16
 70
     0
102
RTVSPropertyOp17
 70
     0
102
RTVSPropertyOp18
 70
     0
102
RTVSPropertyOp19
 70
     0
102
RTVSPropertyOp20
 70
     0
102
RTVSPropertyOp21
 70
     0
102
RTVSPropertyOp22
 70
     0
102
RTVSPropertyOp23
 70
     0
102
RTVSPropertyOp24
 70
     0
102
RTVSPropertyOp25
 70
     0
102
RTVSPropertyOp26
 70
     0
102
RTVSPropertyOp27
 70
     0
102
RTVSPropertyOp28
 70
     1
102
RTVSPropertyOp29
 70
     1
102
RTVSPropertyOp30
 70
     1
102
RTVSPropertyOp31
 70
     1
102
RTVSPropertyOp32
 70
     1
102
RTVSPropertyOp33
 70
     1
102
RTVSPropertyOp34
 70
     1
102
RTVSPropertyOp35
 70
     1
102
RTVSPropertyOp36
 70
     1
102
RTVSPropertyOp37
 70
     0
102
RTVSPropertyOp38
 70
     0
102
RTVSPropertyOp39
 70
     0
102
RTVSPropertyOp40
 70
     0
102
RTVSPropertyOp41
 70
     0
102
RTVSPropertyOp42
 70
     0
102
RTVSPropertyOp43
 70
     0
102
RTVSPropertyOp44
 70
     0
102
RTVSPropertyOp45
 70
     1
102
RTVSPropertyOp46
 70
     0
102
RTVSPropertyOp47
 70
     0
102
RTVSPropertyOp48
 70
     0
102
RTVSPropertyOp49
 70
     1
102
RTVSPropertyOp50
 70
     0
102
RTVSPropertyOp51
 70
     0
102
RTVSPropertyOp52
 70
     0
102
RTVSPropertyOp53
 70
     0
102
RTVSPropertyOp54
 70
     0
102
RTVSPropertyOp55
 70
     1
102
RTVSPropertyOp56
 70
     0
102
RTVSPropertyOp57
 70
     0
102
RTVSPropertyOp58
 70
     0
102
RTVSPropertyOp59
 70
     0
102
RTVSPropertyOp60
 70
     0
102
RTVSPropertyOp61
 70
     0
102
RTVSPropertyOp62
 70
     0
  0
XRECORD
  5
9A21
102
{ACAD_REACTORS
330
9A20
102
}
330
9A20
100
AcDbXrecord
280
     1
102
RTVSPost2010Prop28
280
     0
102
RTVSPost2010PropOp28
 70
     1
102
RTVSPost2010Prop29
280
     1
102
RTVSPost2010PropOp29
 70
     1
102
RTVSPost2010Prop30
280
     1
102
RTVSPost2010PropOp30
 70
     1
102
RTVSPost2010Prop31
280
     0
102
RTVSPost2010PropOp31
 70
     1
102
RTVSPost2010Prop32
280
     0
102
RTVSPost2010PropOp32
 70
     1
102
RTVSPost2010Prop33
280
     0
102
RTVSPost2010PropOp33
 70
     1
102
RTVSPost2010Prop34
280
     0
102
RTVSPost2010PropOp34
 70
     1
102
RTVSPost2010Prop35
280
     0
102
RTVSPost2010PropOp35
 70
     1
102
RTVSPost2010Prop36
280
     0
102
RTVSPost2010PropOp36
 70
     1
102
RTVSPost2010Prop37
 90
       50
102
RTVSPost2010PropOp37
 70
     1
102
RTVSPost2010Prop38
140
0.0
102
RTVSPost2010PropOp38
 70
     1
102
RTVSPost2010Prop39
140
1.0
102
RTVSPost2010PropOp39
 70
     1
102
RTVSPost2010Prop40
 90
        0
102
RTVSPost2010PropOp40
 70
     1
102
RTVSPost2010Prop41ColorIndex
 90
       18
102
RTVSPost2010Prop41ColorRGB
 90
        0
102
RTVSPost2010PropOp41
 70
     1
102
RTVSPost2010Prop42
 90
       50
102
RTVSPost2010PropOp42
 70
     1
102
RTVSPost2010Prop43
 90
        3
102
RTVSPost2010PropOp43
 70
     1
102
RTVSPost2010Prop44ColorIndex
 90
        5
102
RTVSPost2010Prop44ColorRGB
 90
      255
102
RTVSPost2010PropOp44
 70
     1
102
RTVSPost2010Prop45
280
     0
102
RTVSPost2010PropOp45
 70
     1
102
RTVSPost2010Prop46
 90
       50
102
RTVSPost2010PropOp46
 70
     1
102
RTVSPost2010Prop47
 90
       50
102
RTVSPost2010PropOp47
 70
     1
102
RTVSPost2010Prop48
 90
       50
102
RTVSPost2010PropOp48
 70
     1
102
RTVSPost2010Prop49
280
     0
102
RTVSPost2010PropOp49
 70
     1
102
RTVSPost2010Prop50
 90
       50
102
RTVSPost2010PropOp50
 70
     1
102
RTVSPost2010Prop51ColorIndex
 90
      256
102
RTVSPost2010Prop51ColorRGB
 90
-16777216
102
RTVSPost2010PropOp51
 70
     0
102
RTVSPost2010Prop52
140
1.0
102
RTVSPost2010PropOp52
 70
     0
102
RTVSPost2010Prop53
 90
        2
102
RTVSPost2010PropOp53
 70
     1
102
RTVSPost2010Prop54
  1
strokes_ogs.tif
102
RTVSPost2010PropOp54
 70
     1
102
RTVSPost2010Prop55
280
     0
102
RTVSPost2010PropOp55
 70
     1
102
RTVSPost2010Prop56
140
1.0
102
RTVSPost2010PropOp56
 70
     1
102
RTVSPost2010Prop57
140
1.0
102
RTVSPost2010PropOp57
 70
     1
102
RTVSPropertyOp0
 70
     1
102
RTVSPropertyOp1
 70
     1
102
RTVSPropertyOp2
 70
     1
102
RTVSPropertyOp3
 70
     1
102
RTVSPropertyOp4
 70
     1
102
RTVSPropertyOp5
 70
     1
102
RTVSPropertyOp6
 70
     1
102
RTVSPropertyOp7
 70
     1
102
RTVSPropertyOp8
 70
     1
102
RTVSPropertyOp9
 70
     1
102
RTVSPropertyOp10
 70
     1
102
RTVSPropertyOp11
 70
     1
102
RTVSPropertyOp12
 70
     1
102
RTVSPropertyOp13
 70
     1
102
RTVSPropertyOp14
 70
     1
102
RTVSPropertyOp15
 70
     1
102
RTVSPropertyOp16
 70
     1
102
RTVSPropertyOp17
 70
     1
102
RTVSPropertyOp18
 70
     1
102
RTVSPropertyOp19
 70
     1
102
RTVSPropertyOp20
 70
     1
102
RTVSPropertyOp21
 70
     1
102
RTVSPropertyOp22
 70
     1
102
RTVSPropertyOp23
 70
     1
102
RTVSPropertyOp24
 70
     1
102
RTVSPropertyOp25
 70
     1
102
RTVSPropertyOp26
 70
     1
102
RTVSPropertyOp27
 70
     1
102
RTVSPropertyOp28
 70
     1
102
RTVSPropertyOp29
 70
     1
102
RTVSPropertyOp30
 70
     1
102
RTVSPropertyOp31
 70
     1
102
RTVSPropertyOp32
 70
     1
102
RTVSPropertyOp33
 70
     1
102
RTVSPropertyOp34
 70
     1
102
RTVSPropertyOp35
 70
     1
102
RTVSPropertyOp36
 70
     1
102
RTVSPropertyOp37
 70
     1
102
RTVSPropertyOp38
 70
     1
102
RTVSPropertyOp39
 70
     1
102
RTVSPropertyOp40
 70
     1
102
RTVSPropertyOp41
 70
     1
102
RTVSPropertyOp42
 70
     1
102
RTVSPropertyOp43
 70
     1
102
RTVSPropertyOp44
 70
     1
102
RTVSPropertyOp45
 70
     1
102
RTVSPropertyOp46
 70
     1
102
RTVSPropertyOp47
 70
     1
102
RTVSPropertyOp48
 70
     1
102
RTVSPropertyOp49
 70
     1
102
RTVSPropertyOp50
 70
     1
102
RTVSPropertyOp51
 70
     0
102
RTVSPropertyOp52
 70
     0
102
RTVSPropertyOp53
 70
     1
102
RTVSPropertyOp54
 70
     1
102
RTVSPropertyOp55
 70
     1
102
RTVSPropertyOp56
 70
     1
102
RTVSPropertyOp57
 70
     1
102
RTVSPropertyOp58
 70
     1
102
RTVSPropertyOp59
 70
     1
102
RTVSPropertyOp60
 70
     1
102
RTVSPropertyOp61
 70
     1
102
RTVSPropertyOp62
 70
     1
  0
XRECORD
  5
9A37
102
{ACAD_REACTORS
330
9A36
102
}
330
9A36
100
AcDbXrecord
280
     1
102
RTVSPost2010Prop28
280
     0
102
RTVSPost2010PropOp28
 70
     1
102
RTVSPost2010Prop29
280
     1
102
RTVSPost2010PropOp29
 70
     1
102
RTVSPost2010Prop30
280
     1
102
RTVSPost2010PropOp30
 70
     1
102
RTVSPost2010Prop31
280
     0
102
RTVSPost2010PropOp31
 70
     1
102
RTVSPost2010Prop32
280
     0
102
RTVSPost2010PropOp32
 70
     1
102
RTVSPost2010Prop33
280
     0
102
RTVSPost2010PropOp33
 70
     1
102
RTVSPost2010Prop34
280
     0
102
RTVSPost2010PropOp34
 70
     1
102
RTVSPost2010Prop35
280
     0
102
RTVSPost2010PropOp35
 70
     1
102
RTVSPost2010Prop36
280
     0
102
RTVSPost2010PropOp36
 70
     1
102
RTVSPost2010Prop37
 90
       50
102
RTVSPost2010PropOp37
 70
     1
102
RTVSPost2010Prop38
140
0.0
102
RTVSPost2010PropOp38
 70
     1
102
RTVSPost2010Prop39
140
1.0
102
RTVSPost2010PropOp39
 70
     1
102
RTVSPost2010Prop40
 90
        0
102
RTVSPost2010PropOp40
 70
     1
102
RTVSPost2010Prop41ColorIndex
 90
       18
102
RTVSPost2010Prop41ColorRGB
 90
        0
102
RTVSPost2010PropOp41
 70
     1
102
RTVSPost2010Prop42
 90
       50
102
RTVSPost2010PropOp42
 70
     1
102
RTVSPost2010Prop43
 90
        3
102
RTVSPost2010PropOp43
 70
     1
102
RTVSPost2010Prop44ColorIndex
 90
        5
102
RTVSPost2010Prop44ColorRGB
 90
      255
102
RTVSPost2010PropOp44
 70
     1
102
RTVSPost2010Prop45
280
     0
102
RTVSPost2010PropOp45
 70
     1
102
RTVSPost2010Prop46
 90
       50
102
RTVSPost2010PropOp46
 70
     1
102
RTVSPost2010Prop47
 90
       50
102
RTVSPost2010PropOp47
 70
     1
102
RTVSPost2010Prop48
 90
       50
102
RTVSPost2010PropOp48
 70
     1
102
RTVSPost2010Prop49
280
     0
102
RTVSPost2010PropOp49
 70
     1
102
RTVSPost2010Prop50
 90
       50
102
RTVSPost2010PropOp50
 70
     1
102
RTVSPost2010Prop51ColorIndex
 90
      256
102
RTVSPost2010Prop51ColorRGB
 90
-16777216
102
RTVSPost2010PropOp51
 70
     0
102
RTVSPost2010Prop52
140
1.0
102
RTVSPost2010PropOp52
 70
     0
102
RTVSPost2010Prop53
 90
        2
102
RTVSPost2010PropOp53
 70
     1
102
RTVSPost2010Prop54
  1
strokes_ogs.tif
102
RTVSPost2010PropOp54
 70
     1
102
RTVSPost2010Prop55
280
     0
102
RTVSPost2010PropOp55
 70
     1
102
RTVSPost2010Prop56
140
1.0
102
RTVSPost2010PropOp56
 70
     1
102
RTVSPost2010Prop57
140
1.0
102
RTVSPost2010PropOp57
 70
     1
102
RTVSPropertyOp0
 70
     1
102
RTVSPropertyOp1
 70
     1
102
RTVSPropertyOp2
 70
     1
102
RTVSPropertyOp3
 70
     1
102
RTVSPropertyOp4
 70
     1
102
RTVSPropertyOp5
 70
     1
102
RTVSPropertyOp6
 70
     1
102
RTVSPropertyOp7
 70
     1
102
RTVSPropertyOp8
 70
     1
102
RTVSPropertyOp9
 70
     1
102
RTVSPropertyOp10
 70
     1
102
RTVSPropertyOp11
 70
     1
102
RTVSPropertyOp12
 70
     1
102
RTVSPropertyOp13
 70
     1
102
RTVSPropertyOp14
 70
     1
102
RTVSPropertyOp15
 70
     1
102
RTVSPropertyOp16
 70
     1
102
RTVSPropertyOp17
 70
     1
102
RTVSPropertyOp18
 70
     1
102
RTVSPropertyOp19
 70
     1
102
RTVSPropertyOp20
 70
     1
102
RTVSPropertyOp21
 70
     1
102
RTVSPropertyOp22
 70
     1
102
RTVSPropertyOp23
 70
     1
102
RTVSPropertyOp24
 70
     1
102
RTVSPropertyOp25
 70
     1
102
RTVSPropertyOp26
 70
     1
102
RTVSPropertyOp27
 70
     1
102
RTVSPropertyOp28
 70
     1
102
RTVSPropertyOp29
 70
     1
102
RTVSPropertyOp30
 70
     1
102
RTVSPropertyOp31
 70
     1
102
RTVSPropertyOp32
 70
     1
102
RTVSPropertyOp33
 70
     1
102
RTVSPropertyOp34
 70
     1
102
RTVSPropertyOp35
 70
     1
102
RTVSPropertyOp36
 70
     1
102
RTVSPropertyOp37
 70
     1
102
RTVSPropertyOp38
 70
     1
102
RTVSPropertyOp39
 70
     1
102
RTVSPropertyOp40
 70
     1
102
RTVSPropertyOp41
 70
     1
102
RTVSPropertyOp42
 70
     1
102
RTVSPropertyOp43
 70
     1
102
RTVSPropertyOp44
 70
     1
102
RTVSPropertyOp45
 70
     1
102
RTVSPropertyOp46
 70
     1
102
RTVSPropertyOp47
 70
     1
102
RTVSPropertyOp48
 70
     1
102
RTVSPropertyOp49
 70
     1
102
RTVSPropertyOp50
 70
     1
102
RTVSPropertyOp51
 70
     0
102
RTVSPropertyOp52
 70
     0
102
RTVSPropertyOp53
 70
     1
102
RTVSPropertyOp54
 70
     1
102
RTVSPropertyOp55
 70
     1
102
RTVSPropertyOp56
 70
     1
102
RTVSPropertyOp57
 70
     1
102
RTVSPropertyOp58
 70
     1
102
RTVSPropertyOp59
 70
     1
102
RTVSPropertyOp60
 70
     1
102
RTVSPropertyOp61
 70
     1
102
RTVSPropertyOp62
 70
     1
  0
XRECORD
  5
9A35
102
{ACAD_REACTORS
330
9A34
102
}
330
9A34
100
AcDbXrecord
280
     1
102
RTVSPost2010Prop28
280
     0
102
RTVSPost2010PropOp28
 70
     1
102
RTVSPost2010Prop29
280
     1
102
RTVSPost2010PropOp29
 70
     1
102
RTVSPost2010Prop30
280
     1
102
RTVSPost2010PropOp30
 70
     1
102
RTVSPost2010Prop31
280
     0
102
RTVSPost2010PropOp31
 70
     1
102
RTVSPost2010Prop32
280
     0
102
RTVSPost2010PropOp32
 70
     1
102
RTVSPost2010Prop33
280
     0
102
RTVSPost2010PropOp33
 70
     1
102
RTVSPost2010Prop34
280
     0
102
RTVSPost2010PropOp34
 70
     1
102
RTVSPost2010Prop35
280
     0
102
RTVSPost2010PropOp35
 70
     1
102
RTVSPost2010Prop36
280
     0
102
RTVSPost2010PropOp36
 70
     1
102
RTVSPost2010Prop37
 90
       50
102
RTVSPost2010PropOp37
 70
     1
102
RTVSPost2010Prop38
140
0.0
102
RTVSPost2010PropOp38
 70
     1
102
RTVSPost2010Prop39
140
1.0
102
RTVSPost2010PropOp39
 70
     1
102
RTVSPost2010Prop40
 90
        0
102
RTVSPost2010PropOp40
 70
     1
102
RTVSPost2010Prop41ColorIndex
 90
       18
102
RTVSPost2010Prop41ColorRGB
 90
        0
102
RTVSPost2010PropOp41
 70
     1
102
RTVSPost2010Prop42
 90
       50
102
RTVSPost2010PropOp42
 70
     1
102
RTVSPost2010Prop43
 90
        3
102
RTVSPost2010PropOp43
 70
     1
102
RTVSPost2010Prop44ColorIndex
 90
        5
102
RTVSPost2010Prop44ColorRGB
 90
      255
102
RTVSPost2010PropOp44
 70
     1
102
RTVSPost2010Prop45
280
     0
102
RTVSPost2010PropOp45
 70
     1
102
RTVSPost2010Prop46
 90
       50
102
RTVSPost2010PropOp46
 70
     1
102
RTVSPost2010Prop47
 90
       50
102
RTVSPost2010PropOp47
 70
     1
102
RTVSPost2010Prop48
 90
       50
102
RTVSPost2010PropOp48
 70
     1
102
RTVSPost2010Prop49
280
     0
102
RTVSPost2010PropOp49
 70
     1
102
RTVSPost2010Prop50
 90
       50
102
RTVSPost2010PropOp50
 70
     1
102
RTVSPost2010Prop51ColorIndex
 90
      256
102
RTVSPost2010Prop51ColorRGB
 90
-16777216
102
RTVSPost2010PropOp51
 70
     0
102
RTVSPost2010Prop52
140
1.0
102
RTVSPost2010PropOp52
 70
     0
102
RTVSPost2010Prop53
 90
        2
102
RTVSPost2010PropOp53
 70
     1
102
RTVSPost2010Prop54
  1
strokes_ogs.tif
102
RTVSPost2010PropOp54
 70
     1
102
RTVSPost2010Prop55
280
     0
102
RTVSPost2010PropOp55
 70
     1
102
RTVSPost2010Prop56
140
1.0
102
RTVSPost2010PropOp56
 70
     1
102
RTVSPost2010Prop57
140
1.0
102
RTVSPost2010PropOp57
 70
     1
102
RTVSPropertyOp0
 70
     1
102
RTVSPropertyOp1
 70
     1
102
RTVSPropertyOp2
 70
     1
102
RTVSPropertyOp3
 70
     1
102
RTVSPropertyOp4
 70
     1
102
RTVSPropertyOp5
 70
     1
102
RTVSPropertyOp6
 70
     1
102
RTVSPropertyOp7
 70
     1
102
RTVSPropertyOp8
 70
     1
102
RTVSPropertyOp9
 70
     1
102
RTVSPropertyOp10
 70
     1
102
RTVSPropertyOp11
 70
     1
102
RTVSPropertyOp12
 70
     1
102
RTVSPropertyOp13
 70
     1
102
RTVSPropertyOp14
 70
     1
102
RTVSPropertyOp15
 70
     1
102
RTVSPropertyOp16
 70
     1
102
RTVSPropertyOp17
 70
     1
102
RTVSPropertyOp18
 70
     1
102
RTVSPropertyOp19
 70
     1
102
RTVSPropertyOp20
 70
     1
102
RTVSPropertyOp21
 70
     1
102
RTVSPropertyOp22
 70
     1
102
RTVSPropertyOp23
 70
     1
102
RTVSPropertyOp24
 70
     1
102
RTVSPropertyOp25
 70
     1
102
RTVSPropertyOp26
 70
     1
102
RTVSPropertyOp27
 70
     1
102
RTVSPropertyOp28
 70
     1
102
RTVSPropertyOp29
 70
     1
102
RTVSPropertyOp30
 70
     1
102
RTVSPropertyOp31
 70
     1
102
RTVSPropertyOp32
 70
     1
102
RTVSPropertyOp33
 70
     1
102
RTVSPropertyOp34
 70
     1
102
RTVSPropertyOp35
 70
     1
102
RTVSPropertyOp36
 70
     1
102
RTVSPropertyOp37
 70
     1
102
RTVSPropertyOp38
 70
     1
102
RTVSPropertyOp39
 70
     1
102
RTVSPropertyOp40
 70
     1
102
RTVSPropertyOp41
 70
     1
102
RTVSPropertyOp42
 70
     1
102
RTVSPropertyOp43
 70
     1
102
RTVSPropertyOp44
 70
     1
102
RTVSPropertyOp45
 70
     1
102
RTVSPropertyOp46
 70
     1
102
RTVSPropertyOp47
 70
     1
102
RTVSPropertyOp48
 70
     1
102
RTVSPropertyOp49
 70
     1
102
RTVSPropertyOp50
 70
     1
102
RTVSPropertyOp51
 70
     0
102
RTVSPropertyOp52
 70
     0
102
RTVSPropertyOp53
 70
     1
102
RTVSPropertyOp54
 70
     1
102
RTVSPropertyOp55
 70
     1
102
RTVSPropertyOp56
 70
     1
102
RTVSPropertyOp57
 70
     1
102
RTVSPropertyOp58
 70
     1
102
RTVSPropertyOp59
 70
     1
102
RTVSPropertyOp60
 70
     1
102
RTVSPropertyOp61
 70
     1
102
RTVSPropertyOp62
 70
     1
  0
XRECORD
  5
9A2F
102
{ACAD_REACTORS
330
9A2E
102
}
330
9A2E
100
AcDbXrecord
280
     1
102
RTVSPost2010Prop28
280
     0
102
RTVSPost2010PropOp28
 70
     1
102
RTVSPost2010Prop29
280
     1
102
RTVSPost2010PropOp29
 70
     1
102
RTVSPost2010Prop30
280
     1
102
RTVSPost2010PropOp30
 70
     1
102
RTVSPost2010Prop31
280
     0
102
RTVSPost2010PropOp31
 70
     1
102
RTVSPost2010Prop32
280
     0
102
RTVSPost2010PropOp32
 70
     1
102
RTVSPost2010Prop33
280
     0
102
RTVSPost2010PropOp33
 70
     1
102
RTVSPost2010Prop34
280
     0
102
RTVSPost2010PropOp34
 70
     1
102
RTVSPost2010Prop35
280
     0
102
RTVSPost2010PropOp35
 70
     1
102
RTVSPost2010Prop36
280
     0
102
RTVSPost2010PropOp36
 70
     1
102
RTVSPost2010Prop37
 90
       50
102
RTVSPost2010PropOp37
 70
     1
102
RTVSPost2010Prop38
140
0.0
102
RTVSPost2010PropOp38
 70
     1
102
RTVSPost2010Prop39
140
1.0
102
RTVSPost2010PropOp39
 70
     1
102
RTVSPost2010Prop40
 90
        0
102
RTVSPost2010PropOp40
 70
     1
102
RTVSPost2010Prop41ColorIndex
 90
       18
102
RTVSPost2010Prop41ColorRGB
 90
        0
102
RTVSPost2010PropOp41
 70
     1
102
RTVSPost2010Prop42
 90
       50
102
RTVSPost2010PropOp42
 70
     1
102
RTVSPost2010Prop43
 90
        3
102
RTVSPost2010PropOp43
 70
     1
102
RTVSPost2010Prop44ColorIndex
 90
        5
102
RTVSPost2010Prop44ColorRGB
 90
      255
102
RTVSPost2010PropOp44
 70
     1
102
RTVSPost2010Prop45
280
     0
102
RTVSPost2010PropOp45
 70
     1
102
RTVSPost2010Prop46
 90
       50
102
RTVSPost2010PropOp46
 70
     1
102
RTVSPost2010Prop47
 90
       50
102
RTVSPost2010PropOp47
 70
     1
102
RTVSPost2010Prop48
 90
       50
102
RTVSPost2010PropOp48
 70
     1
102
RTVSPost2010Prop49
280
     0
102
RTVSPost2010PropOp49
 70
     1
102
RTVSPost2010Prop50
 90
       50
102
RTVSPost2010PropOp50
 70
     1
102
RTVSPost2010Prop51ColorIndex
 90
      256
102
RTVSPost2010Prop51ColorRGB
 90
-16777216
102
RTVSPost2010PropOp51
 70
     0
102
RTVSPost2010Prop52
140
1.0
102
RTVSPost2010PropOp52
 70
     0
102
RTVSPost2010Prop53
 90
        2
102
RTVSPost2010PropOp53
 70
     1
102
RTVSPost2010Prop54
  1
strokes_ogs.tif
102
RTVSPost2010PropOp54
 70
     1
102
RTVSPost2010Prop55
280
     0
102
RTVSPost2010PropOp55
 70
     1
102
RTVSPost2010Prop56
140
1.0
102
RTVSPost2010PropOp56
 70
     1
102
RTVSPost2010Prop57
140
1.0
102
RTVSPost2010PropOp57
 70
     1
102
RTVSPropertyOp0
 70
     1
102
RTVSPropertyOp1
 70
     1
102
RTVSPropertyOp2
 70
     1
102
RTVSPropertyOp3
 70
     1
102
RTVSPropertyOp4
 70
     1
102
RTVSPropertyOp5
 70
     1
102
RTVSPropertyOp6
 70
     1
102
RTVSPropertyOp7
 70
     1
102
RTVSPropertyOp8
 70
     1
102
RTVSPropertyOp9
 70
     1
102
RTVSPropertyOp10
 70
     1
102
RTVSPropertyOp11
 70
     1
102
RTVSPropertyOp12
 70
     1
102
RTVSPropertyOp13
 70
     1
102
RTVSPropertyOp14
 70
     1
102
RTVSPropertyOp15
 70
     1
102
RTVSPropertyOp16
 70
     1
102
RTVSPropertyOp17
 70
     1
102
RTVSPropertyOp18
 70
     1
102
RTVSPropertyOp19
 70
     1
102
RTVSPropertyOp20
 70
     1
102
RTVSPropertyOp21
 70
     1
102
RTVSPropertyOp22
 70
     1
102
RTVSPropertyOp23
 70
     1
102
RTVSPropertyOp24
 70
     1
102
RTVSPropertyOp25
 70
     1
102
RTVSPropertyOp26
 70
     1
102
RTVSPropertyOp27
 70
     1
102
RTVSPropertyOp28
 70
     1
102
RTVSPropertyOp29
 70
     1
102
RTVSPropertyOp30
 70
     1
102
RTVSPropertyOp31
 70
     1
102
RTVSPropertyOp32
 70
     1
102
RTVSPropertyOp33
 70
     1
102
RTVSPropertyOp34
 70
     1
102
RTVSPropertyOp35
 70
     1
102
RTVSPropertyOp36
 70
     1
102
RTVSPropertyOp37
 70
     1
102
RTVSPropertyOp38
 70
     1
102
RTVSPropertyOp39
 70
     1
102
RTVSPropertyOp40
 70
     1
102
RTVSPropertyOp41
 70
     1
102
RTVSPropertyOp42
 70
     1
102
RTVSPropertyOp43
 70
     1
102
RTVSPropertyOp44
 70
     1
102
RTVSPropertyOp45
 70
     1
102
RTVSPropertyOp46
 70
     1
102
RTVSPropertyOp47
 70
     1
102
RTVSPropertyOp48
 70
     1
102
RTVSPropertyOp49
 70
     1
102
RTVSPropertyOp50
 70
     1
102
RTVSPropertyOp51
 70
     0
102
RTVSPropertyOp52
 70
     0
102
RTVSPropertyOp53
 70
     1
102
RTVSPropertyOp54
 70
     1
102
RTVSPropertyOp55
 70
     1
102
RTVSPropertyOp56
 70
     1
102
RTVSPropertyOp57
 70
     1
102
RTVSPropertyOp58
 70
     1
102
RTVSPropertyOp59
 70
     1
102
RTVSPropertyOp60
 70
     1
102
RTVSPropertyOp61
 70
     1
102
RTVSPropertyOp62
 70
     1
  0
XRECORD
  5
9A31
102
{ACAD_REACTORS
330
9A30
102
}
330
9A30
100
AcDbXrecord
280
     1
102
RTVSPost2010Prop28
280
     0
102
RTVSPost2010PropOp28
 70
     1
102
RTVSPost2010Prop29
280
     1
102
RTVSPost2010PropOp29
 70
     1
102
RTVSPost2010Prop30
280
     1
102
RTVSPost2010PropOp30
 70
     1
102
RTVSPost2010Prop31
280
     0
102
RTVSPost2010PropOp31
 70
     1
102
RTVSPost2010Prop32
280
     0
102
RTVSPost2010PropOp32
 70
     1
102
RTVSPost2010Prop33
280
     0
102
RTVSPost2010PropOp33
 70
     1
102
RTVSPost2010Prop34
280
     0
102
RTVSPost2010PropOp34
 70
     1
102
RTVSPost2010Prop35
280
     0
102
RTVSPost2010PropOp35
 70
     1
102
RTVSPost2010Prop36
280
     0
102
RTVSPost2010PropOp36
 70
     1
102
RTVSPost2010Prop37
 90
       50
102
RTVSPost2010PropOp37
 70
     1
102
RTVSPost2010Prop38
140
0.0
102
RTVSPost2010PropOp38
 70
     1
102
RTVSPost2010Prop39
140
1.0
102
RTVSPost2010PropOp39
 70
     1
102
RTVSPost2010Prop40
 90
        0
102
RTVSPost2010PropOp40
 70
     1
102
RTVSPost2010Prop41ColorIndex
 90
       18
102
RTVSPost2010Prop41ColorRGB
 90
        0
102
RTVSPost2010PropOp41
 70
     1
102
RTVSPost2010Prop42
 90
       50
102
RTVSPost2010PropOp42
 70
     1
102
RTVSPost2010Prop43
 90
        3
102
RTVSPost2010PropOp43
 70
     1
102
RTVSPost2010Prop44ColorIndex
 90
        5
102
RTVSPost2010Prop44ColorRGB
 90
      255
102
RTVSPost2010PropOp44
 70
     1
102
RTVSPost2010Prop45
280
     0
102
RTVSPost2010PropOp45
 70
     1
102
RTVSPost2010Prop46
 90
       50
102
RTVSPost2010PropOp46
 70
     1
102
RTVSPost2010Prop47
 90
       50
102
RTVSPost2010PropOp47
 70
     1
102
RTVSPost2010Prop48
 90
       50
102
RTVSPost2010PropOp48
 70
     1
102
RTVSPost2010Prop49
280
     0
102
RTVSPost2010PropOp49
 70
     1
102
RTVSPost2010Prop50
 90
       50
102
RTVSPost2010PropOp50
 70
     1
102
RTVSPost2010Prop51ColorIndex
 90
      256
102
RTVSPost2010Prop51ColorRGB
 90
-16777216
102
RTVSPost2010PropOp51
 70
     0
102
RTVSPost2010Prop52
140
1.0
102
RTVSPost2010PropOp52
 70
     0
102
RTVSPost2010Prop53
 90
        2
102
RTVSPost2010PropOp53
 70
     1
102
RTVSPost2010Prop54
  1
strokes_ogs.tif
102
RTVSPost2010PropOp54
 70
     1
102
RTVSPost2010Prop55
280
     0
102
RTVSPost2010PropOp55
 70
     1
102
RTVSPost2010Prop56
140
1.0
102
RTVSPost2010PropOp56
 70
     1
102
RTVSPost2010Prop57
140
1.0
102
RTVSPost2010PropOp57
 70
     1
102
RTVSPropertyOp0
 70
     1
102
RTVSPropertyOp1
 70
     1
102
RTVSPropertyOp2
 70
     1
102
RTVSPropertyOp3
 70
     1
102
RTVSPropertyOp4
 70
     1
102
RTVSPropertyOp5
 70
     1
102
RTVSPropertyOp6
 70
     1
102
RTVSPropertyOp7
 70
     1
102
RTVSPropertyOp8
 70
     1
102
RTVSPropertyOp9
 70
     1
102
RTVSPropertyOp10
 70
     1
102
RTVSPropertyOp11
 70
     1
102
RTVSPropertyOp12
 70
     1
102
RTVSPropertyOp13
 70
     1
102
RTVSPropertyOp14
 70
     1
102
RTVSPropertyOp15
 70
     1
102
RTVSPropertyOp16
 70
     1
102
RTVSPropertyOp17
 70
     1
102
RTVSPropertyOp18
 70
     1
102
RTVSPropertyOp19
 70
     1
102
RTVSPropertyOp20
 70
     1
102
RTVSPropertyOp21
 70
     1
102
RTVSPropertyOp22
 70
     1
102
RTVSPropertyOp23
 70
     1
102
RTVSPropertyOp24
 70
     1
102
RTVSPropertyOp25
 70
     1
102
RTVSPropertyOp26
 70
     1
102
RTVSPropertyOp27
 70
     1
102
RTVSPropertyOp28
 70
     1
102
RTVSPropertyOp29
 70
     1
102
RTVSPropertyOp30
 70
     1
102
RTVSPropertyOp31
 70
     1
102
RTVSPropertyOp32
 70
     1
102
RTVSPropertyOp33
 70
     1
102
RTVSPropertyOp34
 70
     1
102
RTVSPropertyOp35
 70
     1
102
RTVSPropertyOp36
 70
     1
102
RTVSPropertyOp37
 70
     1
102
RTVSPropertyOp38
 70
     1
102
RTVSPropertyOp39
 70
     1
102
RTVSPropertyOp40
 70
     1
102
RTVSPropertyOp41
 70
     1
102
RTVSPropertyOp42
 70
     1
102
RTVSPropertyOp43
 70
     1
102
RTVSPropertyOp44
 70
     1
102
RTVSPropertyOp45
 70
     1
102
RTVSPropertyOp46
 70
     1
102
RTVSPropertyOp47
 70
     1
102
RTVSPropertyOp48
 70
     1
102
RTVSPropertyOp49
 70
     1
102
RTVSPropertyOp50
 70
     1
102
RTVSPropertyOp51
 70
     0
102
RTVSPropertyOp52
 70
     0
102
RTVSPropertyOp53
 70
     1
102
RTVSPropertyOp54
 70
     1
102
RTVSPropertyOp55
 70
     1
102
RTVSPropertyOp56
 70
     1
102
RTVSPropertyOp57
 70
     1
102
RTVSPropertyOp58
 70
     1
102
RTVSPropertyOp59
 70
     1
102
RTVSPropertyOp60
 70
     1
102
RTVSPropertyOp61
 70
     1
102
RTVSPropertyOp62
 70
     1
  0
XRECORD
  5
9A27
102
{ACAD_REACTORS
330
9A26
102
}
330
9A26
100
AcDbXrecord
280
     1
102
RTVSPost2010Prop28
280
     0
102
RTVSPost2010PropOp28
 70
     1
102
RTVSPost2010Prop29
280
     1
102
RTVSPost2010PropOp29
 70
     1
102
RTVSPost2010Prop30
280
     1
102
RTVSPost2010PropOp30
 70
     1
102
RTVSPost2010Prop31
280
     0
102
RTVSPost2010PropOp31
 70
     1
102
RTVSPost2010Prop32
280
     0
102
RTVSPost2010PropOp32
 70
     1
102
RTVSPost2010Prop33
280
     0
102
RTVSPost2010PropOp33
 70
     1
102
RTVSPost2010Prop34
280
     0
102
RTVSPost2010PropOp34
 70
     1
102
RTVSPost2010Prop35
280
     0
102
RTVSPost2010PropOp35
 70
     1
102
RTVSPost2010Prop36
280
     0
102
RTVSPost2010PropOp36
 70
     1
102
RTVSPost2010Prop37
 90
       50
102
RTVSPost2010PropOp37
 70
     1
102
RTVSPost2010Prop38
140
0.0
102
RTVSPost2010PropOp38
 70
     1
102
RTVSPost2010Prop39
140
1.0
102
RTVSPost2010PropOp39
 70
     1
102
RTVSPost2010Prop40
 90
        0
102
RTVSPost2010PropOp40
 70
     1
102
RTVSPost2010Prop41ColorIndex
 90
       18
102
RTVSPost2010Prop41ColorRGB
 90
        0
102
RTVSPost2010PropOp41
 70
     1
102
RTVSPost2010Prop42
 90
       50
102
RTVSPost2010PropOp42
 70
     1
102
RTVSPost2010Prop43
 90
        3
102
RTVSPost2010PropOp43
 70
     1
102
RTVSPost2010Prop44ColorIndex
 90
        5
102
RTVSPost2010Prop44ColorRGB
 90
      255
102
RTVSPost2010PropOp44
 70
     1
102
RTVSPost2010Prop45
280
     0
102
RTVSPost2010PropOp45
 70
     1
102
RTVSPost2010Prop46
 90
       50
102
RTVSPost2010PropOp46
 70
     1
102
RTVSPost2010Prop47
 90
       50
102
RTVSPost2010PropOp47
 70
     1
102
RTVSPost2010Prop48
 90
       50
102
RTVSPost2010PropOp48
 70
     1
102
RTVSPost2010Prop49
280
     0
102
RTVSPost2010PropOp49
 70
     1
102
RTVSPost2010Prop50
 90
       50
102
RTVSPost2010PropOp50
 70
     1
102
RTVSPost2010Prop51ColorIndex
 90
      256
102
RTVSPost2010Prop51ColorRGB
 90
-16777216
102
RTVSPost2010PropOp51
 70
     0
102
RTVSPost2010Prop52
140
1.0
102
RTVSPost2010PropOp52
 70
     0
102
RTVSPost2010Prop53
 90
        2
102
RTVSPost2010PropOp53
 70
     1
102
RTVSPost2010Prop54
  1
strokes_ogs.tif
102
RTVSPost2010PropOp54
 70
     1
102
RTVSPost2010Prop55
280
     0
102
RTVSPost2010PropOp55
 70
     1
102
RTVSPost2010Prop56
140
1.0
102
RTVSPost2010PropOp56
 70
     1
102
RTVSPost2010Prop57
140
1.0
102
RTVSPost2010PropOp57
 70
     1
102
RTVSPropertyOp0
 70
     1
102
RTVSPropertyOp1
 70
     1
102
RTVSPropertyOp2
 70
     1
102
RTVSPropertyOp3
 70
     1
102
RTVSPropertyOp4
 70
     1
102
RTVSPropertyOp5
 70
     1
102
RTVSPropertyOp6
 70
     1
102
RTVSPropertyOp7
 70
     1
102
RTVSPropertyOp8
 70
     1
102
RTVSPropertyOp9
 70
     1
102
RTVSPropertyOp10
 70
     1
102
RTVSPropertyOp11
 70
     1
102
RTVSPropertyOp12
 70
     1
102
RTVSPropertyOp13
 70
     1
102
RTVSPropertyOp14
 70
     1
102
RTVSPropertyOp15
 70
     1
102
RTVSPropertyOp16
 70
     1
102
RTVSPropertyOp17
 70
     1
102
RTVSPropertyOp18
 70
     1
102
RTVSPropertyOp19
 70
     1
102
RTVSPropertyOp20
 70
     1
102
RTVSPropertyOp21
 70
     1
102
RTVSPropertyOp22
 70
     1
102
RTVSPropertyOp23
 70
     1
102
RTVSPropertyOp24
 70
     1
102
RTVSPropertyOp25
 70
     1
102
RTVSPropertyOp26
 70
     1
102
RTVSPropertyOp27
 70
     1
102
RTVSPropertyOp28
 70
     1
102
RTVSPropertyOp29
 70
     1
102
RTVSPropertyOp30
 70
     1
102
RTVSPropertyOp31
 70
     1
102
RTVSPropertyOp32
 70
     1
102
RTVSPropertyOp33
 70
     1
102
RTVSPropertyOp34
 70
     1
102
RTVSPropertyOp35
 70
     1
102
RTVSPropertyOp36
 70
     1
102
RTVSPropertyOp37
 70
     1
102
RTVSPropertyOp38
 70
     1
102
RTVSPropertyOp39
 70
     1
102
RTVSPropertyOp40
 70
     1
102
RTVSPropertyOp41
 70
     1
102
RTVSPropertyOp42
 70
     1
102
RTVSPropertyOp43
 70
     1
102
RTVSPropertyOp44
 70
     1
102
RTVSPropertyOp45
 70
     1
102
RTVSPropertyOp46
 70
     1
102
RTVSPropertyOp47
 70
     1
102
RTVSPropertyOp48
 70
     1
102
RTVSPropertyOp49
 70
     1
102
RTVSPropertyOp50
 70
     1
102
RTVSPropertyOp51
 70
     0
102
RTVSPropertyOp52
 70
     0
102
RTVSPropertyOp53
 70
     1
102
RTVSPropertyOp54
 70
     1
102
RTVSPropertyOp55
 70
     1
102
RTVSPropertyOp56
 70
     1
102
RTVSPropertyOp57
 70
     1
102
RTVSPropertyOp58
 70
     1
102
RTVSPropertyOp59
 70
     1
102
RTVSPropertyOp60
 70
     1
102
RTVSPropertyOp61
 70
     1
102
RTVSPropertyOp62
 70
     1
  0
XRECORD
  5
9A1B
102
{ACAD_REACTORS
330
9A1A
102
}
330
9A1A
100
AcDbXrecord
280
     1
102
RTVSPost2010Prop28
280
     0
102
RTVSPost2010PropOp28
 70
     1
102
RTVSPost2010Prop29
280
     1
102
RTVSPost2010PropOp29
 70
     1
102
RTVSPost2010Prop30
280
     1
102
RTVSPost2010PropOp30
 70
     1
102
RTVSPost2010Prop31
280
     0
102
RTVSPost2010PropOp31
 70
     1
102
RTVSPost2010Prop32
280
     0
102
RTVSPost2010PropOp32
 70
     1
102
RTVSPost2010Prop33
280
     0
102
RTVSPost2010PropOp33
 70
     1
102
RTVSPost2010Prop34
280
     0
102
RTVSPost2010PropOp34
 70
     1
102
RTVSPost2010Prop35
280
     0
102
RTVSPost2010PropOp35
 70
     1
102
RTVSPost2010Prop36
280
     0
102
RTVSPost2010PropOp36
 70
     1
102
RTVSPost2010Prop37
 90
       50
102
RTVSPost2010PropOp37
 70
     1
102
RTVSPost2010Prop38
140
0.0
102
RTVSPost2010PropOp38
 70
     1
102
RTVSPost2010Prop39
140
1.0
102
RTVSPost2010PropOp39
 70
     1
102
RTVSPost2010Prop40
 90
        0
102
RTVSPost2010PropOp40
 70
     1
102
RTVSPost2010Prop41ColorIndex
 90
       18
102
RTVSPost2010Prop41ColorRGB
 90
        0
102
RTVSPost2010PropOp41
 70
     1
102
RTVSPost2010Prop42
 90
       50
102
RTVSPost2010PropOp42
 70
     1
102
RTVSPost2010Prop43
 90
        3
102
RTVSPost2010PropOp43
 70
     1
102
RTVSPost2010Prop44ColorIndex
 90
        5
102
RTVSPost2010Prop44ColorRGB
 90
      255
102
RTVSPost2010PropOp44
 70
     1
102
RTVSPost2010Prop45
280
     0
102
RTVSPost2010PropOp45
 70
     1
102
RTVSPost2010Prop46
 90
       50
102
RTVSPost2010PropOp46
 70
     1
102
RTVSPost2010Prop47
 90
       50
102
RTVSPost2010PropOp47
 70
     1
102
RTVSPost2010Prop48
 90
       50
102
RTVSPost2010PropOp48
 70
     1
102
RTVSPost2010Prop49
280
     0
102
RTVSPost2010PropOp49
 70
     1
102
RTVSPost2010Prop50
 90
       50
102
RTVSPost2010PropOp50
 70
     1
102
RTVSPost2010Prop51ColorIndex
 90
      256
102
RTVSPost2010Prop51ColorRGB
 90
-16777216
102
RTVSPost2010PropOp51
 70
     0
102
RTVSPost2010Prop52
140
1.0
102
RTVSPost2010PropOp52
 70
     0
102
RTVSPost2010Prop53
 90
        2
102
RTVSPost2010PropOp53
 70
     1
102
RTVSPost2010Prop54
  1
strokes_ogs.tif
102
RTVSPost2010PropOp54
 70
     1
102
RTVSPost2010Prop55
280
     0
102
RTVSPost2010PropOp55
 70
     1
102
RTVSPost2010Prop56
140
1.0
102
RTVSPost2010PropOp56
 70
     1
102
RTVSPost2010Prop57
140
1.0
102
RTVSPost2010PropOp57
 70
     1
102
RTVSPropertyOp0
 70
     1
102
RTVSPropertyOp1
 70
     1
102
RTVSPropertyOp2
 70
     1
102
RTVSPropertyOp3
 70
     1
102
RTVSPropertyOp4
 70
     1
102
RTVSPropertyOp5
 70
     1
102
RTVSPropertyOp6
 70
     1
102
RTVSPropertyOp7
 70
     1
102
RTVSPropertyOp8
 70
     1
102
RTVSPropertyOp9
 70
     1
102
RTVSPropertyOp10
 70
     1
102
RTVSPropertyOp11
 70
     1
102
RTVSPropertyOp12
 70
     1
102
RTVSPropertyOp13
 70
     1
102
RTVSPropertyOp14
 70
     1
102
RTVSPropertyOp15
 70
     1
102
RTVSPropertyOp16
 70
     1
102
RTVSPropertyOp17
 70
     1
102
RTVSPropertyOp18
 70
     1
102
RTVSPropertyOp19
 70
     1
102
RTVSPropertyOp20
 70
     1
102
RTVSPropertyOp21
 70
     1
102
RTVSPropertyOp22
 70
     1
102
RTVSPropertyOp23
 70
     1
102
RTVSPropertyOp24
 70
     1
102
RTVSPropertyOp25
 70
     1
102
RTVSPropertyOp26
 70
     1
102
RTVSPropertyOp27
 70
     1
102
RTVSPropertyOp28
 70
     1
102
RTVSPropertyOp29
 70
     1
102
RTVSPropertyOp30
 70
     1
102
RTVSPropertyOp31
 70
     1
102
RTVSPropertyOp32
 70
     1
102
RTVSPropertyOp33
 70
     1
102
RTVSPropertyOp34
 70
     1
102
RTVSPropertyOp35
 70
     1
102
RTVSPropertyOp36
 70
     1
102
RTVSPropertyOp37
 70
     1
102
RTVSPropertyOp38
 70
     1
102
RTVSPropertyOp39
 70
     1
102
RTVSPropertyOp40
 70
     1
102
RTVSPropertyOp41
 70
     1
102
RTVSPropertyOp42
 70
     1
102
RTVSPropertyOp43
 70
     1
102
RTVSPropertyOp44
 70
     1
102
RTVSPropertyOp45
 70
     1
102
RTVSPropertyOp46
 70
     1
102
RTVSPropertyOp47
 70
     1
102
RTVSPropertyOp48
 70
     1
102
RTVSPropertyOp49
 70
     1
102
RTVSPropertyOp50
 70
     1
102
RTVSPropertyOp51
 70
     0
102
RTVSPropertyOp52
 70
     0
102
RTVSPropertyOp53
 70
     1
102
RTVSPropertyOp54
 70
     1
102
RTVSPropertyOp55
 70
     1
102
RTVSPropertyOp56
 70
     1
102
RTVSPropertyOp57
 70
     1
102
RTVSPropertyOp58
 70
     1
102
RTVSPropertyOp59
 70
     1
102
RTVSPropertyOp60
 70
     1
102
RTVSPropertyOp61
 70
     1
102
RTVSPropertyOp62
 70
     1
  0
XRECORD
  5
9A33
102
{ACAD_REACTORS
330
9A32
102
}
330
9A32
100
AcDbXrecord
280
     1
102
RTVSPost2010Prop28
280
     0
102
RTVSPost2010PropOp28
 70
     1
102
RTVSPost2010Prop29
280
     1
102
RTVSPost2010PropOp29
 70
     1
102
RTVSPost2010Prop30
280
     1
102
RTVSPost2010PropOp30
 70
     1
102
RTVSPost2010Prop31
280
     0
102
RTVSPost2010PropOp31
 70
     1
102
RTVSPost2010Prop32
280
     0
102
RTVSPost2010PropOp32
 70
     1
102
RTVSPost2010Prop33
280
     0
102
RTVSPost2010PropOp33
 70
     1
102
RTVSPost2010Prop34
280
     0
102
RTVSPost2010PropOp34
 70
     1
102
RTVSPost2010Prop35
280
     0
102
RTVSPost2010PropOp35
 70
     1
102
RTVSPost2010Prop36
280
     0
102
RTVSPost2010PropOp36
 70
     1
102
RTVSPost2010Prop37
 90
       50
102
RTVSPost2010PropOp37
 70
     1
102
RTVSPost2010Prop38
140
0.0
102
RTVSPost2010PropOp38
 70
     1
102
RTVSPost2010Prop39
140
1.0
102
RTVSPost2010PropOp39
 70
     1
102
RTVSPost2010Prop40
 90
        0
102
RTVSPost2010PropOp40
 70
     1
102
RTVSPost2010Prop41ColorIndex
 90
       18
102
RTVSPost2010Prop41ColorRGB
 90
        0
102
RTVSPost2010PropOp41
 70
     1
102
RTVSPost2010Prop42
 90
       50
102
RTVSPost2010PropOp42
 70
     1
102
RTVSPost2010Prop43
 90
        3
102
RTVSPost2010PropOp43
 70
     1
102
RTVSPost2010Prop44ColorIndex
 90
        5
102
RTVSPost2010Prop44ColorRGB
 90
      255
102
RTVSPost2010PropOp44
 70
     1
102
RTVSPost2010Prop45
280
     0
102
RTVSPost2010PropOp45
 70
     1
102
RTVSPost2010Prop46
 90
       50
102
RTVSPost2010PropOp46
 70
     1
102
RTVSPost2010Prop47
 90
       50
102
RTVSPost2010PropOp47
 70
     1
102
RTVSPost2010Prop48
 90
       50
102
RTVSPost2010PropOp48
 70
     1
102
RTVSPost2010Prop49
280
     0
102
RTVSPost2010PropOp49
 70
     1
102
RTVSPost2010Prop50
 90
       50
102
RTVSPost2010PropOp50
 70
     1
102
RTVSPost2010Prop51ColorIndex
 90
      256
102
RTVSPost2010Prop51ColorRGB
 90
-16777216
102
RTVSPost2010PropOp51
 70
     0
102
RTVSPost2010Prop52
140
1.0
102
RTVSPost2010PropOp52
 70
     0
102
RTVSPost2010Prop53
 90
        2
102
RTVSPost2010PropOp53
 70
     1
102
RTVSPost2010Prop54
  1
strokes_ogs.tif
102
RTVSPost2010PropOp54
 70
     1
102
RTVSPost2010Prop55
280
     0
102
RTVSPost2010PropOp55
 70
     1
102
RTVSPost2010Prop56
140
1.0
102
RTVSPost2010PropOp56
 70
     1
102
RTVSPost2010Prop57
140
1.0
102
RTVSPost2010PropOp57
 70
     1
102
RTVSPropertyOp0
 70
     1
102
RTVSPropertyOp1
 70
     1
102
RTVSPropertyOp2
 70
     1
102
RTVSPropertyOp3
 70
     1
102
RTVSPropertyOp4
 70
     1
102
RTVSPropertyOp5
 70
     1
102
RTVSPropertyOp6
 70
     1
102
RTVSPropertyOp7
 70
     1
102
RTVSPropertyOp8
 70
     1
102
RTVSPropertyOp9
 70
     1
102
RTVSPropertyOp10
 70
     1
102
RTVSPropertyOp11
 70
     1
102
RTVSPropertyOp12
 70
     1
102
RTVSPropertyOp13
 70
     1
102
RTVSPropertyOp14
 70
     1
102
RTVSPropertyOp15
 70
     1
102
RTVSPropertyOp16
 70
     1
102
RTVSPropertyOp17
 70
     1
102
RTVSPropertyOp18
 70
     1
102
RTVSPropertyOp19
 70
     1
102
RTVSPropertyOp20
 70
     1
102
RTVSPropertyOp21
 70
     1
102
RTVSPropertyOp22
 70
     1
102
RTVSPropertyOp23
 70
     1
102
RTVSPropertyOp24
 70
     1
102
RTVSPropertyOp25
 70
     1
102
RTVSPropertyOp26
 70
     1
102
RTVSPropertyOp27
 70
     1
102
RTVSPropertyOp28
 70
     1
102
RTVSPropertyOp29
 70
     1
102
RTVSPropertyOp30
 70
     1
102
RTVSPropertyOp31
 70
     1
102
RTVSPropertyOp32
 70
     1
102
RTVSPropertyOp33
 70
     1
102
RTVSPropertyOp34
 70
     1
102
RTVSPropertyOp35
 70
     1
102
RTVSPropertyOp36
 70
     1
102
RTVSPropertyOp37
 70
     1
102
RTVSPropertyOp38
 70
     1
102
RTVSPropertyOp39
 70
     1
102
RTVSPropertyOp40
 70
     1
102
RTVSPropertyOp41
 70
     1
102
RTVSPropertyOp42
 70
     1
102
RTVSPropertyOp43
 70
     1
102
RTVSPropertyOp44
 70
     1
102
RTVSPropertyOp45
 70
     1
102
RTVSPropertyOp46
 70
     1
102
RTVSPropertyOp47
 70
     1
102
RTVSPropertyOp48
 70
     1
102
RTVSPropertyOp49
 70
     1
102
RTVSPropertyOp50
 70
     1
102
RTVSPropertyOp51
 70
     0
102
RTVSPropertyOp52
 70
     0
102
RTVSPropertyOp53
 70
     1
102
RTVSPropertyOp54
 70
     1
102
RTVSPropertyOp55
 70
     1
102
RTVSPropertyOp56
 70
     1
102
RTVSPropertyOp57
 70
     1
102
RTVSPropertyOp58
 70
     1
102
RTVSPropertyOp59
 70
     1
102
RTVSPropertyOp60
 70
     1
102
RTVSPropertyOp61
 70
     1
102
RTVSPropertyOp62
 70
     1
  0
ENDSEC
  0
EOF
