  0
SECTION
  2
HEADER
  9
$ACADVER
  1
AC1015
  9
$ACADMAINTVER
 70
    20
  9
$DWGCODEPAGE
  3
ANSI_932
  9
$INSBASE
 10
0.0
 20
0.0
 30
0.0
  9
$EXTMIN
 10
10.0
 20
9.999999999999998
 30
0.0
  9
$EXTMAX
 10
420.2804699999998
 20
373.9779469999998
 30
0.0
  9
$LIMMIN
 10
0.0
 20
0.0
  9
$LIMMAX
 10
565.7000000000001
 20
389.990152
  9
$ORTHOMODE
 70
     1
  9
$REGENMODE
 70
     1
  9
$FILLMODE
 70
     1
  9
$QTEXTMODE
 70
     0
  9
$MIRRTEXT
 70
     1
  9
$LTSCALE
 40
20.0
  9
$ATTMODE
 70
     1
  9
$TEXTSIZE
 40
5.0
  9
$TRACEWID
 40
1.0
  9
$TEXTSTYLE
  7
STANDARD
  9
$CLAYER
  8
0
  9
$CELTYPE
  6
BYLAYER
  9
$CECOLOR
 62
   256
  9
$CELTSCALE
 40
1.0
  9
$DISPSILH
 70
     0
  9
$DIMSCALE
 40
1.0
  9
$DIMASZ
 40
3.0
  9
$DIMEXO
 40
1.0
  9
$DIMDLI
 40
10.0
  9
$DIMRND
 40
0.0
  9
$DIMDLE
 40
0.0
  9
$DIMEXE
 40
1.0
  9
$DIMTP
 40
0.0
  9
$DIMTM
 40
0.0
  9
$DIMTXT
 40
3.2
  9
$DIMCEN
 40
0.0
  9
$DIMTSZ
 40
0.0
  9
$DIMTOL
 70
     0
  9
$DIMLIM
 70
     0
  9
$DIMTIH
 70
     0
  9
$DIMTOH
 70
     0
  9
$DIMSE1
 70
     0
  9
$DIMSE2
 70
     0
  9
$DIMTAD
 70
     3
  9
$DIMZIN
 70
     8
  9
$DIMBLK
  1

  9
$DIMASO
 70
     1
  9
$DIMSHO
 70
     1
  9
$DIMPOST
  1

  9
$DIMAPOST
  1

  9
$DIMALT
 70
     0
  9
$DIMALTD
 70
     2
  9
$DIMALTF
 40
25.4
  9
$DIMLFAC
 40
1.0
  9
$DIMTOFL
 70
     1
  9
$DIMTVP
 40
0.0
  9
$DIMTIX
 70
     0
  9
$DIMSOXD
 70
     0
  9
$DIMSAH
 70
     1
  9
$DIMBLK1
  1

  9
$DIMBLK2
  1

  9
$DIMSTYLE
  2
STANDARD
  9
$DIMCLRD
 70
     0
  9
$DIMCLRE
 70
     0
  9
$DIMCLRT
 70
     0
  9
$DIMTFAC
 40
1.0
  9
$DIMGAP
 40
1.0
  9
$DIMJUST
 70
     0
  9
$DIMSD1
 70
     0
  9
$DIMSD2
 70
     0
  9
$DIMTOLJ
 70
     1
  9
$DIMTZIN
 70
     0
  9
$DIMALTZ
 70
     0
  9
$DIMALTTZ
 70
     0
  9
$DIMUPT
 70
     0
  9
$DIMDEC
 70
     4
  9
$DIMTDEC
 70
     4
  9
$DIMALTU
 70
     2
  9
$DIMALTTD
 70
     2
  9
$DIMTXSTY
  7
STANDARD
  9
$DIMAUNIT
 70
     0
  9
$DIMADEC
 70
     0
  9
$DIMALTRND
 40
0.0
  9
$DIMAZIN
 70
     0
  9
$DIMDSEP
 70
    46
  9
$DIMATFIT
 70
     3
  9
$DIMFRAC
 70
     0
  9
$DIMLDRBLK
  1

  9
$DIMLUNIT
 70
     2
  9
$DIMLWD
 70
    -2
  9
$DIMLWE
 70
    -2
  9
$DIMTMOVE
 70
     0
  9
$LUNITS
 70
     2
  9
$LUPREC
 70
     4
  9
$SKETCHINC
 40
1.0
  9
$FILLETRAD
 40
2.5
  9
$AUNITS
 70
     0
  9
$AUPREC
 70
     2
  9
$MENU
  1
.
  9
$ELEVATION
 40
0.0
  9
$PELEVATION
 40
0.0
  9
$THICKNESS
 40
0.0
  9
$LIMCHECK
 70
     0
  9
$CHAMFERA
 40
10.0
  9
$CHAMFERB
 40
10.0
  9
$CHAMFERC
 40
0.0
  9
$CHAMFERD
 40
0.0
  9
$SKPOLY
 70
     0
  9
$TDCREATE
 40
2450737.699202084
  9
$TDUCREATE
 40
2450737.324202084
  9
$TDUPDATE
 40
2457192.640295741
  9
$TDUUPDATE
 40
2457192.265295741
  9
$TDINDWG
 40
0.0000165509
  9
$TDUSRTIMER
 40
0.0000160417
  9
$USRTIMER
 70
     1
  9
$ANGBASE
 50
0.0
  9
$ANGDIR
 70
     0
  9
$PDMODE
 70
     0
  9
$PDSIZE
 40
0.0
  9
$PLINEWID
 40
0.0
  9
$SPLFRAME
 70
     0
  9
$SPLINETYPE
 70
     6
  9
$SPLINESEGS
 70
     8
  9
$HANDSEED
  5
99FE
  9
$SURFTAB1
 70
     6
  9
$SURFTAB2
 70
     6
  9
$SURFTYPE
 70
     6
  9
$SURFU
 70
     6
  9
$SURFV
 70
     6
  9
$UCSBASE
  2

  9
$UCSNAME
  2

  9
$UCSORG
 10
0.0
 20
0.0
 30
0.0
  9
$UCSXDIR
 10
1.0
 20
0.0
 30
0.0
  9
$UCSYDIR
 10
0.0
 20
1.0
 30
0.0
  9
$UCSORTHOREF
  2

  9
$UCSORTHOVIEW
 70
     0
  9
$UCSORGTOP
 10
0.0
 20
0.0
 30
0.0
  9
$UCSORGBOTTOM
 10
0.0
 20
0.0
 30
0.0
  9
$UCSORGLEFT
 10
0.0
 20
0.0
 30
0.0
  9
$UCSORGRIGHT
 10
0.0
 20
0.0
 30
0.0
  9
$UCSORGFRONT
 10
0.0
 20
0.0
 30
0.0
  9
$UCSORGBACK
 10
0.0
 20
0.0
 30
0.0
  9
$PUCSBASE
  2

  9
$PUCSNAME
  2

  9
$PUCSORG
 10
0.0
 20
0.0
 30
0.0
  9
$PUCSXDIR
 10
1.0
 20
0.0
 30
0.0
  9
$PUCSYDIR
 10
0.0
 20
1.0
 30
0.0
  9
$PUCSORTHOREF
  2

  9
$PUCSORTHOVIEW
 70
     0
  9
$PUCSORGTOP
 10
0.0
 20
0.0
 30
0.0
  9
$PUCSORGBOTTOM
 10
0.0
 20
0.0
 30
0.0
  9
$PUCSORGLEFT
 10
0.0
 20
0.0
 30
0.0
  9
$PUCSORGRIGHT
 10
0.0
 20
0.0
 30
0.0
  9
$PUCSORGFRONT
 10
0.0
 20
0.0
 30
0.0
  9
$PUCSORGBACK
 10
0.0
 20
0.0
 30
0.0
  9
$USERI1
 70
     0
  9
$USERI2
 70
     0
  9
$USERI3
 70
     0
  9
$USERI4
 70
     0
  9
$USERI5
 70
     0
  9
$USERR1
 40
0.0
  9
$USERR2
 40
0.0
  9
$USERR3
 40
0.0
  9
$USERR4
 40
0.0
  9
$USERR5
 40
0.0
  9
$WORLDVIEW
 70
     1
  9
$SHADEDGE
 70
     3
  9
$SHADEDIF
 70
    70
  9
$TILEMODE
 70
     1
  9
$MAXACTVP
 70
    16
  9
$PINSBASE
 10
0.0
 20
0.0
 30
0.0
  9
$PLIMCHECK
 70
     0
  9
$PEXTMIN
 10
1.000000000000000E+20
 20
1.000000000000000E+20
 30
1.000000000000000E+20
  9
$PEXTMAX
 10
-1.000000000000000E+20
 20
-1.000000000000000E+20
 30
-1.000000000000000E+20
  9
$PLIMMIN
 10
0.0
 20
0.0
  9
$PLIMMAX
 10
420.0
 20
297.0
  9
$UNITMODE
 70
     0
  9
$VISRETAIN
 70
     0
  9
$PLINEGEN
 70
     0
  9
$PSLTSCALE
 70
     0
  9
$TREEDEPTH
 70
  3020
  9
$CMLSTYLE
  2
STANDARD
  9
$CMLJUST
 70
     0
  9
$CMLSCALE
 40
1.0
  9
$PROXYGRAPHICS
 70
     1
  9
$MEASUREMENT
 70
     0
  9
$CELWEIGHT
370
    -1
  9
$ENDCAPS
280
     0
  9
$JOINSTYLE
280
     0
  9
$LWDISPLAY
290
     0
  9
$INSUNITS
 70
     0
  9
$HYPERLINKBASE
  1

  9
$STYLESHEET
  1

  9
$XEDIT
290
     1
  9
$CEPSNTYPE
380
     0
  9
$PSTYLEMODE
290
     1
  9
$FINGERPRINTGUID
  2
{023C5216-5948-44FC-AAB8-E8165C292EF5}
  9
$VERSIONGUID
  2
{2862088F-69BD-4BD6-8C1C-2DB07CA5C850}
  9
$EXTNAMES
290
     1
  9
$PSVPSCALE
 40
0.0
  9
$OLESTARTUP
290
     0
  0
ENDSEC
  0
SECTION
  2
CLASSES
  0
CLASS
  1
ACDBDICTIONARYWDFLT
  2
AcDbDictionaryWithDefault
  3
ObjectDBX Classes
 90
        0
280
     0
281
     0
  0
CLASS
  1
ACDBPLACEHOLDER
  2
AcDbPlaceHolder
  3
ObjectDBX Classes
 90
        0
280
     0
281
     0
  0
CLASS
  1
LAYOUT
  2
AcDbLayout
  3
ObjectDBX Classes
 90
        0
280
     0
281
     0
  0
CLASS
  1
DICTIONARYVAR
  2
AcDbDictionaryVar
  3
ObjectDBX Classes
 90
        0
280
     0
281
     0
  0
CLASS
  1
MATERIAL
  2
AcDbMaterial
  3
ObjectDBX Classes
 90
     1153
280
     0
281
     0
  0
CLASS
  1
VISUALSTYLE
  2
AcDbVisualStyle
  3
ObjectDBX Classes
 90
     4095
280
     0
281
     0
  0
CLASS
  1
TABLESTYLE
  2
AcDbTableStyle
  3
ObjectDBX Classes
 90
     4095
280
     0
281
     0
  0
CLASS
  1
SCALE
  2
AcDbScale
  3
ObjectDBX Classes
 90
     1153
280
     0
281
     0
  0
CLASS
  1
MLEADERSTYLE
  2
AcDbMLeaderStyle
  3
ACDB_MLEADERSTYLE_CLASS
 90
     4095
280
     0
281
     0
  0
CLASS
  1
ACDBSECTIONVIEWSTYLE
  2
AcDbSectionViewStyle
  3
ObjectDBX Classes
 90
     1025
280
     0
281
     0
  0
CLASS
  1
ACDBDETAILVIEWSTYLE
  2
AcDbDetailViewStyle
  3
ObjectDBX Classes
 90
     1025
280
     0
281
     0
  0
CLASS
  1
CELLSTYLEMAP
  2
AcDbCellStyleMap
  3
ObjectDBX Classes
 90
     1152
280
     0
281
     0
  0
ENDSEC
  0
SECTION
  2
TABLES
  0
TABLE
  2
VPORT
  5
95C0
330
0
100
AcDbSymbolTable
 70
     1
  0
VPORT
  5
9947
330
95C0
100
AcDbSymbolTableRecord
100
AcDbViewportTableRecord
  2
*ACTIVE
 70
     0
 10
0.0
 20
0.0
 11
1.0
 21
1.0
 12
325.3881006783901
 22
191.9601803969151
 13
0.0
 23
0.0
 14
10.0
 24
10.0
 15
10.0
 25
10.0
 16
0.0
 26
0.0
 36
1.0
 17
0.0
 27
0.0
 37
0.0
 40
368.0201135587887
 41
1.899603698811096
 42
50.0
 43
0.0
 44
0.0
 50
0.0
 51
0.0
 71
     0
 72
   100
 73
     1
 74
     0
 75
     0
 76
     0
 77
     0
 78
     0
281
     0
 65
     1
110
0.0
120
0.0
130
0.0
111
1.0
121
0.0
131
0.0
112
0.0
122
1.0
132
0.0
 79
     0
146
0.0
1001
ACAD_NAV_VCDISPLAY
1070
     3
  0
ENDTAB
  0
TABLE
  2
LTYPE
  5
95BD
330
0
100
AcDbSymbolTable
 70
     4
  0
LTYPE
  5
95CB
330
95BD
100
AcDbSymbolTableRecord
100
AcDbLinetypeTableRecord
  2
BYBLOCK
 70
     0
  3

 72
    65
 73
     0
 40
0.0
  0
LTYPE
  5
95CC
330
95BD
100
AcDbSymbolTableRecord
100
AcDbLinetypeTableRecord
  2
BYLAYER
 70
     0
  3

 72
    65
 73
     0
 40
0.0
  0
LTYPE
  5
95CD
330
95BD
100
AcDbSymbolTableRecord
100
AcDbLinetypeTableRecord
  2
CONTINUOUS
 70
     0
  3
Solid line
 72
    65
 73
     0
 40
0.0
  0
LTYPE
  5
95DB
330
95BD
100
AcDbSymbolTableRecord
100
AcDbLinetypeTableRecord
  2
DASHED
 70
     0
  3
__ __ __ __ __ __ __ __ __ __ __ __ __ __ __ __
 72
    65
 73
     2
 40
0.75
 49
0.5
 74
     0
 49
-0.25
 74
     0
  0
LTYPE
  5
95DC
330
95BD
100
AcDbSymbolTableRecord
100
AcDbLinetypeTableRecord
  2
CENTER
 70
     0
  3
____ _ ____ _ ____ _ ____ _ ____ _ ____ _ ____ 
 72
    65
 73
     4
 40
2.0
 49
1.25
 74
     0
 49
-0.25
 74
     0
 49
0.25
 74
     0
 49
-0.25
 74
     0
  0
LTYPE
  5
95DD
330
95BD
100
AcDbSymbolTableRecord
100
AcDbLinetypeTableRecord
  2
PHANTOM
 70
     0
  3
______  __  __  ______  __  __  ______  __  __ 
 72
    65
 73
     6
 40
2.5
 49
1.25
 74
     0
 49
-0.25
 74
     0
 49
0.25
 74
     0
 49
-0.25
 74
     0
 49
0.25
 74
     0
 49
-0.25
 74
     0
  0
ENDTAB
  0
TABLE
  2
LAYER
  5
95BA
330
0
100
AcDbSymbolTable
 70
     8
  0
LAYER
  5
95C8
102
{ACAD_XDICTIONARY
360
99A2
102
}
330
95BA
100
AcDbSymbolTableRecord
100
AcDbLayerTableRecord
  2
0
 70
     0
 62
     7
  6
CONTINUOUS
370
    -3
390
9950
  0
LAYER
  5
95DE
102
{ACAD_XDICTIONARY
360
99A4
102
}
330
95BA
100
AcDbSymbolTableRecord
100
AcDbLayerTableRecord
  2
4
 70
     0
 62
     1
  6
CENTER
370
    -3
390
9950
  0
LAYER
  5
95DF
102
{ACAD_XDICTIONARY
360
99A6
102
}
330
95BA
100
AcDbSymbolTableRecord
100
AcDbLayerTableRecord
  2
5
 70
     0
 62
     6
  6
PHANTOM
370
    -3
390
9950
  0
LAYER
  5
95E0
102
{ACAD_XDICTIONARY
360
99A8
102
}
330
95BA
100
AcDbSymbolTableRecord
100
AcDbLayerTableRecord
  2
1
 70
     0
 62
     7
  6
CONTINUOUS
370
    -3
390
9950
  0
LAYER
  5
95E1
102
{ACAD_XDICTIONARY
360
99AA
102
}
330
95BA
100
AcDbSymbolTableRecord
100
AcDbLayerTableRecord
  2
2
 70
     0
 62
     4
  6
CONTINUOUS
370
    -3
390
9950
  0
LAYER
  5
95E2
102
{ACAD_XDICTIONARY
360
99AC
102
}
330
95BA
100
AcDbSymbolTableRecord
100
AcDbLayerTableRecord
  2
3
 70
     0
 62
     2
  6
DASHED
370
    -3
390
9950
  0
LAYER
  5
95E3
102
{ACAD_XDICTIONARY
360
99AE
102
}
330
95BA
100
AcDbSymbolTableRecord
100
AcDbLayerTableRecord
  2
6
 70
     0
 62
     5
  6
CONTINUOUS
370
    -3
390
9950
  0
LAYER
  5
95E4
102
{ACAD_XDICTIONARY
360
99B0
102
}
330
95BA
100
AcDbSymbolTableRecord
100
AcDbLayerTableRecord
  2
7
 70
     0
 62
     3
  6
CONTINUOUS
370
    -3
390
9950
  0
ENDTAB
  0
TABLE
  2
STYLE
  5
95BB
330
0
100
AcDbSymbolTable
 70
     1
  0
STYLE
  5
95C9
330
95BB
100
AcDbSymbolTableRecord
100
AcDbTextStyleTableRecord
  2
STANDARD
 70
     0
 40
0.0
 41
1.0
 50
0.0
 71
     0
 42
5.0
  3
txt
  4

  0
ENDTAB
  0
TABLE
  2
VIEW
  5
95BE
330
0
100
AcDbSymbolTable
 70
     0
  0
ENDTAB
  0
TABLE
  2
UCS
  5
95BF
330
0
100
AcDbSymbolTable
 70
     0
  0
ENDTAB
  0
TABLE
  2
APPID
  5
95C1
330
0
100
AcDbSymbolTable
 70
     3
  0
APPID
  5
95CA
330
95C1
100
AcDbSymbolTableRecord
100
AcDbRegAppTableRecord
  2
ACAD
 70
     0
  0
APPID
  5
99BC
330
95C1
100
AcDbSymbolTableRecord
100
AcDbRegAppTableRecord
  2
ACAD_NAV_VCDISPLAY
 70
     0
  0
APPID
  5
99F5
330
95C1
100
AcDbSymbolTableRecord
100
AcDbRegAppTableRecord
  2
ACAD_MLEADERVER
 70
     0
  0
ENDTAB
  0
TABLE
  2
DIMSTYLE
  5
95C2
330
0
100
AcDbSymbolTable
 70
     1
100
AcDbDimStyleTable
 71
     0
  0
DIMSTYLE
105
95E6
330
95C2
100
AcDbSymbolTableRecord
100
AcDbDimStyleTableRecord
  2
STANDARD
 70
     0
 41
3.0
 42
1.0
 43
10.0
 44
1.0
 73
     0
 74
     0
 77
     3
 78
     8
140
3.2
141
0.0
147
1.0
172
     1
173
     1
284
     8
285
     8
286
     8
340
95C9
  0
ENDTAB
  0
TABLE
  2
BLOCK_RECORD
  5
95B9
330
0
100
AcDbSymbolTable
 70
     0
  0
BLOCK_RECORD
  5
95D6
102
{ACAD_XDICTIONARY
360
994A
102
}
330
95B9
100
AcDbSymbolTableRecord
100
AcDbBlockTableRecord
  2
*MODEL_SPACE
340
999E
  0
BLOCK_RECORD
  5
95D2
102
{ACAD_XDICTIONARY
360
9948
102
}
330
95B9
100
AcDbSymbolTableRecord
100
AcDbBlockTableRecord
  2
*PAPER_SPACE
340
999F
  0
ENDTAB
  0
ENDSEC
  0
SECTION
  2
BLOCKS
  0
BLOCK
  5
95D7
330
95D6
100
AcDbEntity
  8
0
100
AcDbBlockBegin
  2
*MODEL_SPACE
 70
     0
 10
0.0
 20
0.0
 30
0.0
  3
*MODEL_SPACE
  1

  0
ENDBLK
  5
95D8
330
95D6
100
AcDbEntity
  8
0
100
AcDbBlockEnd
  0
BLOCK
  5
95D3
330
95D2
100
AcDbEntity
 67
     1
  8
0
100
AcDbBlockBegin
  2
*PAPER_SPACE
 70
     0
 10
0.0
 20
0.0
 30
0.0
  3
*PAPER_SPACE
  1

  0
ENDBLK
  5
95D4
330
95D2
100
AcDbEntity
 67
     1
  8
0
100
AcDbBlockEnd
  0
ENDSEC
  0
SECTION
  2
ENTITIES
  0
TEXT
  5
95EE
330
95D6
100
AcDbEntity
  8
7
  6
Continuous
100
AcDbText
 10
10.0
 20
18.0
 30
0.0
 40
3.0
  1
TYPE No.THA-249-1L
100
AcDbText
  0
TEXT
  5
95EF
330
95D6
100
AcDbEntity
  8
7
  6
Continuous
100
AcDbText
 10
10.0
 20
26.0
 30
0.0
 40
3.0
  1
CODE No.3257
100
AcDbText
  0
TEXT
  5
95F0
330
95D6
100
AcDbEntity
  8
1
  6
Continuous
100
AcDbText
 10
10.0
 20
10.0
 30
0.0
 40
1.399999999999999
  1
LAYER
100
AcDbText
  0
TEXT
  5
95F1
330
95D6
100
AcDbEntity
  8
1
  6
Continuous
100
AcDbText
 10
17.97951099999998
 20
10.04873699999998
 30
0.0
 40
1.399999999999999
  1
1
100
AcDbText
  0
TEXT
  5
95F2
330
95D6
100
AcDbEntity
  8
7
  6
Continuous
100
AcDbText
 10
29.97951099999999
 20
10.04873699999998
 30
0.0
 40
1.399999999999999
  1
7
100
AcDbText
  0
TEXT
  5
95F3
330
95D6
100
AcDbEntity
  8
4
  6
CENTER
100
AcDbText
 10
23.97951099999999
 20
10.04873699999998
 30
0.0
 40
1.399999999999999
  1
4
100
AcDbText
  0
TEXT
  5
95F4
330
95D6
100
AcDbEntity
  8
3
  6
DASHED
100
AcDbText
 10
21.979511
 20
10.04873699999998
 30
0.0
 40
1.399999999999999
  1
3
100
AcDbText
  0
TEXT
  5
95F5
330
95D6
100
AcDbEntity
  8
2
  6
Continuous
100
AcDbText
 10
19.97951099999999
 20
10.04873699999998
 30
0.0
 40
1.399999999999999
  1
2
100
AcDbText
  0
TEXT
  5
95F6
330
95D6
100
AcDbEntity
  8
6
  6
Continuous
100
AcDbText
 10
27.979511
 20
10.04873699999998
 30
0.0
 40
1.399999999999999
  1
6
100
AcDbText
  0
TEXT
  5
95F7
330
95D6
100
AcDbEntity
  8
5
  6
PHANTOM
100
AcDbText
 10
25.97951099999999
 20
10.04873699999998
 30
0.0
 40
1.399999999999999
  1
5
100
AcDbText
  0
LINE
  5
95F8
330
95D6
100
AcDbEntity
  8
4
  6
CENTER
100
AcDbLine
 10
20.64747
 20
201.0129469999998
 30
0.0
 11
64.46486999999999
 21
201.0129469999998
 31
0.0
  0
LINE
  5
95F9
330
95D6
100
AcDbEntity
  8
4
  6
CENTER
100
AcDbLine
 10
146.4384699999999
 20
364.156947
 30
0.0
 11
146.4384699999999
 21
328.7319469999999
 31
0.0
  0
LINE
  5
95FA
330
95D6
100
AcDbEntity
  8
1
  6
Continuous
100
AcDbLine
 10
124.17697
 20
276.512947
 30
0.0
 11
168.69997
 21
276.512947
 31
0.0
  0
LINE
  5
95FB
330
95D6
100
AcDbEntity
  8
1
  6
Continuous
100
AcDbLine
 10
124.17697
 20
275.012947
 30
0.0
 11
168.69997
 21
275.012947
 31
0.0
  0
LINE
  5
95FC
330
95D6
100
AcDbEntity
  8
1
  6
Continuous
100
AcDbLine
 10
124.17697
 20
275.5129469999999
 30
0.0
 11
168.69997
 21
275.5129469999999
 31
0.0
  0
LINE
  5
95FD
330
95D6
100
AcDbEntity
  8
1
  6
Continuous
100
AcDbLine
 10
124.17697
 20
125.5129469999999
 30
0.0
 11
168.69997
 21
125.5129469999999
 31
0.0
  0
LINE
  5
95FE
330
95D6
100
AcDbEntity
  8
1
  6
Continuous
100
AcDbLine
 10
124.17697
 20
127.012947
 30
0.0
 11
168.69997
 21
127.012947
 31
0.0
  0
LINE
  5
95FF
330
95D6
100
AcDbEntity
  8
1
  6
Continuous
100
AcDbLine
 10
124.17697
 20
126.5129469999999
 30
0.0
 11
168.69997
 21
126.5129469999999
 31
0.0
  0
LINE
  5
9600
330
95D6
100
AcDbEntity
  8
1
  6
Continuous
100
AcDbLine
 10
118.43847
 20
261.722347
 30
0.0
 11
118.43847
 21
143.7843469999999
 31
0.0
  0
LINE
  5
9601
330
95D6
100
AcDbEntity
  8
1
  6
Continuous
100
AcDbLine
 10
174.4384699999999
 20
261.178847
 30
0.0
 11
174.4384699999999
 21
142.697347
 31
0.0
  0
LINE
  5
9602
330
95D6
100
AcDbEntity
  8
1
  6
Continuous
100
AcDbLine
 10
127.9635699999999
 20
270.512947
 30
0.0
 11
166.2797699999998
 21
270.512947
 31
0.0
  0
LINE
  5
9603
330
95D6
100
AcDbEntity
  8
1
  6
Continuous
100
AcDbLine
 10
128.77877
 20
131.512947
 30
0.0
 11
163.83407
 21
131.512947
 31
0.0
  0
LINE
  5
9604
330
95D6
100
AcDbEntity
  8
1
  6
Continuous
100
AcDbLine
 10
120.43847
 20
266.012947
 30
0.0
 11
120.43847
 21
136.0129469999999
 31
0.0
  0
LINE
  5
9605
330
95D6
100
AcDbEntity
  8
1
  6
Continuous
100
AcDbLine
 10
172.4384699999999
 20
266.012947
 30
0.0
 11
172.4384699999999
 21
136.0129469999999
 31
0.0
  0
LINE
  5
9606
330
95D6
100
AcDbEntity
  8
1
  6
Continuous
100
AcDbLine
 10
122.9384699999999
 20
268.512947
 30
0.0
 11
169.9384699999999
 21
268.512947
 31
0.0
  0
LINE
  5
9607
330
95D6
100
AcDbEntity
  8
1
  6
Continuous
100
AcDbLine
 10
122.9384699999999
 20
133.512947
 30
0.0
 11
169.9384699999999
 21
133.512947
 31
0.0
  0
LINE
  5
9608
330
95D6
100
AcDbEntity
  8
1
  6
Continuous
100
AcDbLine
 10
111.9384699999999
 20
340.256947
 30
0.0
 11
180.93847
 21
340.256947
 31
0.0
  0
LINE
  5
9609
330
95D6
100
AcDbEntity
  8
1
  6
Continuous
100
AcDbLine
 10
113.43847
 20
337.2569470000001
 30
0.0
 11
113.43847
 21
336.456947
 31
0.0
  0
LINE
  5
960A
330
95D6
100
AcDbEntity
  8
1
  6
Continuous
100
AcDbLine
 10
151.83151
 20
356.756947
 30
0.0
 11
146.8882259999998
 21
356.756947
 31
0.0
  0
LINE
  5
960B
330
95D6
100
AcDbEntity
  8
1
  6
Continuous
100
AcDbLine
 10
121.9742699999999
 20
340.256947
 30
0.0
 11
133.3322699999999
 21
351.939947
 31
0.0
  0
LINE
  5
960C
330
95D6
100
AcDbEntity
  8
1
  6
Continuous
100
AcDbLine
 10
167.04847
 20
350.453947
 30
0.0
 11
171.8637699999999
 21
340.256947
 31
0.0
  0
LINE
  5
960D
330
95D6
100
AcDbEntity
  8
1
  6
Continuous
100
AcDbLine
 10
168.25137
 20
359.756947
 30
0.0
 11
165.06287
 21
359.756947
 31
0.0
  0
LINE
  5
960E
330
95D6
100
AcDbEntity
  8
1
  6
Continuous
100
AcDbLine
 10
171.4064699999999
 20
349.4849469999999
 30
0.0
 11
178.9141699999999
 21
347.694947
 31
0.0
  0
LINE
  5
960F
330
95D6
100
AcDbEntity
  8
1
  6
Continuous
100
AcDbLine
 10
169.0880699999999
 20
349.7569470000001
 30
0.0
 11
167.3776699999999
 21
349.7569470000001
 31
0.0
  0
LINE
  5
9610
330
95D6
100
AcDbEntity
  8
4
  6
CENTER
100
AcDbLine
 10
157.93527
 20
342.0869469999999
 30
0.0
 11
156.31636
 21
352.919947
 31
0.0
  0
LINE
  5
9611
330
95D6
100
AcDbEntity
  8
1
  6
Continuous
100
AcDbLine
 10
134.49337
 20
356.017947
 30
0.0
 11
144.38355
 21
357.495947
 31
0.0
  0
LINE
  5
9612
330
95D6
100
AcDbEntity
  8
1
  6
Continuous
100
AcDbLine
 10
135.6607699999998
 20
343.4339469999999
 30
0.0
 11
134.49337
 21
356.017947
 31
0.0
  0
LINE
  5
9613
330
95D6
100
AcDbEntity
  8
1
  6
Continuous
100
AcDbLine
 10
146.9464379999998
 20
345.119947
 30
0.0
 11
144.38355
 21
357.495947
 31
0.0
  0
LINE
  5
9614
330
95D6
100
AcDbEntity
  8
1
  6
Continuous
100
AcDbLine
 10
152.666997
 20
340.7566279999999
 30
0.0
 11
151.9933899999998
 21
348.0179469999998
 31
0.0
  0
LINE
  5
9615
330
95D6
100
AcDbEntity
  8
1
  6
Continuous
100
AcDbLine
 10
151.9933899999998
 20
348.0179469999998
 30
0.0
 11
161.8835699999999
 21
349.4959469999998
 31
0.0
  0
LINE
  5
9616
330
95D6
100
AcDbEntity
  8
1
  6
Continuous
100
AcDbLine
 10
163.693326
 20
340.756947
 30
0.0
 11
161.8835699999999
 21
349.4959469999998
 31
0.0
  0
LINE
  5
9617
330
95D6
100
AcDbEntity
  8
4
  6
CENTER
100
AcDbLine
 10
140.8247
 20
347.4819469999998
 30
0.0
 11
138.63779
 21
362.1149469999999
 31
0.0
  0
LINE
  5
9618
330
95D6
100
AcDbEntity
  8
1
  6
Continuous
100
AcDbLine
 10
148.9788899999998
 20
345.143947
 30
0.0
 11
149.938407
 21
340.756947
 31
0.0
  0
LINE
  5
9619
330
95D6
100
AcDbEntity
  8
1
  6
Continuous
100
AcDbLine
 10
48.04857
 20
276.512947
 30
0.0
 11
48.04857
 21
125.5129469999999
 31
0.0
  0
LINE
  5
961A
330
95D6
100
AcDbEntity
  8
1
  6
Continuous
100
AcDbLine
 10
54.12266999999999
 20
270.807247
 30
0.0
 11
54.12266999999999
 21
131.218647
 31
0.0
  0
LINE
  5
961B
330
95D6
100
AcDbEntity
  8
1
  6
Continuous
100
AcDbLine
 10
51.04856999999999
 20
275.521447
 30
0.0
 11
51.04856999999999
 21
126.504447
 31
0.0
  0
LINE
  5
961C
330
95D6
100
AcDbEntity
  8
1
  6
Continuous
100
AcDbLine
 10
31.54847
 20
269.012947
 30
0.0
 11
31.54847
 21
259.0129469999999
 31
0.0
  0
LINE
  5
961D
330
95D6
100
AcDbEntity
  8
4
  6
CENTER
100
AcDbLine
 10
25.87047
 20
264.012947
 30
0.0
 11
39.43747000000001
 21
264.012947
 31
0.0
  0
LINE
  5
961E
330
95D6
100
AcDbEntity
  8
1
  6
Continuous
100
AcDbLine
 10
31.54847
 20
269.012947
 30
0.0
 11
48.04857
 21
269.877647
 31
0.0
  0
LINE
  5
961F
330
95D6
100
AcDbEntity
  8
1
  6
Continuous
100
AcDbLine
 10
31.54847
 20
259.0129469999999
 30
0.0
 11
36.21147
 21
258.7686469999999
 31
0.0
  0
LINE
  5
9620
330
95D6
100
AcDbEntity
  8
1
  6
Continuous
100
AcDbLine
 10
31.54847
 20
243.3510469999999
 30
0.0
 11
31.54847
 21
158.674847
 31
0.0
  0
LINE
  5
9621
330
95D6
100
AcDbEntity
  8
1
  6
Continuous
100
AcDbLine
 10
34.54847
 20
254.623047
 30
0.0
 11
34.54847
 21
251.397847
 31
0.0
  0
LINE
  5
9622
330
95D6
100
AcDbEntity
  8
1
  6
Continuous
100
AcDbLine
 10
32.40346999999999
 20
246.438047
 30
0.0
 11
33.83646999999999
 21
248.825347
 31
0.0
  0
LINE
  5
9623
330
95D6
100
AcDbEntity
  8
1
  6
Continuous
100
AcDbLine
 10
180.7172699999999
 20
236.1129469999999
 30
0.0
 11
188.43847
 21
236.1129469999999
 31
0.0
  0
LINE
  5
9624
330
95D6
100
AcDbEntity
  8
1
  6
Continuous
100
AcDbLine
 10
180.66397
 20
240.1129469999999
 30
0.0
 11
188.43847
 21
240.1129469999999
 31
0.0
  0
LINE
  5
9625
330
95D6
100
AcDbEntity
  8
1
  6
Continuous
100
AcDbLine
 10
188.43847
 20
240.1129469999999
 30
0.0
 11
188.43847
 21
236.1129469999999
 31
0.0
  0
LINE
  5
9626
330
95D6
100
AcDbEntity
  8
1
  6
Continuous
100
AcDbLine
 10
180.66397
 20
161.912947
 30
0.0
 11
188.43847
 21
161.912947
 31
0.0
  0
LINE
  5
9627
330
95D6
100
AcDbEntity
  8
1
  6
Continuous
100
AcDbLine
 10
188.43847
 20
161.912947
 30
0.0
 11
188.43847
 21
165.912947
 31
0.0
  0
LINE
  5
9628
330
95D6
100
AcDbEntity
  8
1
  6
Continuous
100
AcDbLine
 10
32.40346999999999
 20
155.587847
 30
0.0
 11
33.83646999999999
 21
153.200547
 31
0.0
  0
LINE
  5
9629
330
95D6
100
AcDbEntity
  8
1
  6
Continuous
100
AcDbLine
 10
51.04856999999999
 20
127.012947
 30
0.0
 11
51.84857
 21
127.012947
 31
0.0
  0
LINE
  5
962A
330
95D6
100
AcDbEntity
  8
1
  6
Continuous
100
AcDbLine
 10
31.54847
 20
133.0129469999999
 30
0.0
 11
31.54847
 21
143.0129469999999
 31
0.0
  0
LINE
  5
962B
330
95D6
100
AcDbEntity
  8
4
  6
CENTER
100
AcDbLine
 10
27.77247
 20
138.0129469999999
 30
0.0
 11
39.96347
 21
138.0129469999999
 31
0.0
  0
LINE
  5
962C
330
95D6
100
AcDbEntity
  8
1
  6
Continuous
100
AcDbLine
 10
31.54847
 20
133.0129469999999
 30
0.0
 11
48.04857
 21
132.148247
 31
0.0
  0
LINE
  5
962D
330
95D6
100
AcDbEntity
  8
1
  6
Continuous
100
AcDbLine
 10
31.54847
 20
143.0129469999999
 30
0.0
 11
36.21147
 21
143.257247
 31
0.0
  0
LINE
  5
962E
330
95D6
100
AcDbEntity
  8
1
  6
Continuous
100
AcDbLine
 10
180.7172699999999
 20
165.912947
 30
0.0
 11
188.43847
 21
165.912947
 31
0.0
  0
LINE
  5
962F
330
95D6
100
AcDbEntity
  8
1
  6
Continuous
100
AcDbLine
 10
244.82837
 20
276.512947
 30
0.0
 11
244.82837
 21
125.5129469999999
 31
0.0
  0
LINE
  5
9630
330
95D6
100
AcDbEntity
  8
1
  6
Continuous
100
AcDbLine
 10
238.75427
 20
270.807247
 30
0.0
 11
238.75427
 21
131.218647
 31
0.0
  0
LINE
  5
9631
330
95D6
100
AcDbEntity
  8
1
  6
Continuous
100
AcDbLine
 10
241.8283699999999
 20
275.521447
 30
0.0
 11
241.8283699999999
 21
126.504447
 31
0.0
  0
LINE
  5
9632
330
95D6
100
AcDbEntity
  8
1
  6
Continuous
100
AcDbLine
 10
253.32847
 20
269.012947
 30
0.0
 11
253.32847
 21
259.0129469999999
 31
0.0
  0
LINE
  5
9633
330
95D6
100
AcDbEntity
  8
4
  6
CENTER
100
AcDbLine
 10
269.7554699999999
 20
264.012947
 30
0.0
 11
246.6574699999999
 21
264.012947
 31
0.0
  0
LINE
  5
9634
330
95D6
100
AcDbEntity
  8
1
  6
Continuous
100
AcDbLine
 10
253.32847
 20
269.012947
 30
0.0
 11
244.82837
 21
269.4584469999999
 31
0.0
  0
LINE
  5
9635
330
95D6
100
AcDbEntity
  8
1
  6
Continuous
100
AcDbLine
 10
253.32847
 20
259.0129469999999
 30
0.0
 11
245.32837
 21
258.5936469999999
 31
0.0
  0
LINE
  5
9636
330
95D6
100
AcDbEntity
  8
1
  6
Continuous
100
AcDbLine
 10
261.3284699999999
 20
236.1129469999999
 30
0.0
 11
261.3284699999999
 21
165.912947
 31
0.0
  0
LINE
  5
9637
330
95D6
100
AcDbEntity
  8
1
  6
Continuous
100
AcDbLine
 10
241.8283699999999
 20
127.012947
 30
0.0
 11
241.02837
 21
127.012947
 31
0.0
  0
LINE
  5
9638
330
95D6
100
AcDbEntity
  8
1
  6
Continuous
100
AcDbLine
 10
261.3284699999999
 20
133.0129469999999
 30
0.0
 11
261.3284699999999
 21
143.0129469999999
 31
0.0
  0
LINE
  5
9639
330
95D6
100
AcDbEntity
  8
4
  6
CENTER
100
AcDbLine
 10
266.15147
 20
138.0129469999999
 30
0.0
 11
243.09907
 21
138.0129469999999
 31
0.0
  0
LINE
  5
963A
330
95D6
100
AcDbEntity
  8
1
  6
Continuous
100
AcDbLine
 10
261.3284699999999
 20
133.0129469999999
 30
0.0
 11
244.82837
 21
132.148247
 31
0.0
  0
LINE
  5
963B
330
95D6
100
AcDbEntity
  8
1
  6
Continuous
100
AcDbLine
 10
261.3284699999999
 20
143.0129469999999
 30
0.0
 11
256.66547
 21
143.257247
 31
0.0
  0
LINE
  5
963C
330
95D6
100
AcDbEntity
  8
4
  6
CENTER
100
AcDbLine
 10
376.21847
 20
285.0928469999999
 30
0.0
 11
376.21847
 21
117.402947
 31
0.0
  0
LINE
  5
963D
330
95D6
100
AcDbEntity
  8
1
  6
Continuous
100
AcDbLine
 10
398.47947
 20
276.512947
 30
0.0
 11
353.95647
 21
276.512947
 31
0.0
  0
LINE
  5
963E
330
95D6
100
AcDbEntity
  8
1
  6
Continuous
100
AcDbLine
 10
368.3594699999999
 20
236.1129469999999
 30
0.0
 11
354.96747
 21
236.1129469999999
 31
0.0
  0
LINE
  5
963F
330
95D6
100
AcDbEntity
  8
1
  6
Continuous
100
AcDbLine
 10
368.3594699999999
 20
240.1129469999999
 30
0.0
 11
354.96747
 21
240.1129469999999
 31
0.0
  0
LINE
  5
9640
330
95D6
100
AcDbEntity
  8
1
  6
Continuous
100
AcDbLine
 10
334.21847
 20
240.1129469999999
 30
0.0
 11
334.21847
 21
236.1129469999999
 31
0.0
  0
LINE
  5
9641
330
95D6
100
AcDbEntity
  8
1
  6
Continuous
100
AcDbLine
 10
368.3594699999999
 20
240.1129469999999
 30
0.0
 11
368.3594699999999
 21
236.1129469999999
 31
0.0
  0
LINE
  5
9642
330
95D6
100
AcDbEntity
  8
1
  6
Continuous
100
AcDbLine
 10
359.21847
 20
244.060647
 30
0.0
 11
359.21847
 21
240.1129469999999
 31
0.0
  0
LINE
  5
9643
330
95D6
100
AcDbEntity
  8
1
  6
Continuous
100
AcDbLine
 10
355.21847
 20
257.5129469999998
 30
0.0
 11
371.21847
 21
257.5129469999998
 31
0.0
  0
LINE
  5
9644
330
95D6
100
AcDbEntity
  8
1
  6
Continuous
100
AcDbLine
 10
355.77847
 20
250.512947
 30
0.0
 11
371.21847
 21
250.512947
 31
0.0
  0
LINE
  5
9645
330
95D6
100
AcDbEntity
  8
1
  6
Continuous
100
AcDbLine
 10
371.21847
 20
257.5129469999998
 30
0.0
 11
371.21847
 21
250.512947
 31
0.0
  0
LINE
  5
9646
330
95D6
100
AcDbEntity
  8
1
  6
Continuous
100
AcDbLine
 10
264.3284699999999
 20
240.1129469999999
 30
0.0
 11
264.3284699999999
 21
235.112947
 31
0.0
  0
LINE
  5
9647
330
95D6
100
AcDbEntity
  8
1
  6
Continuous
100
AcDbLine
 10
251.32847
 20
240.1129469999999
 30
0.0
 11
264.3284699999999
 21
240.1129469999999
 31
0.0
  0
LINE
  5
9648
330
95D6
100
AcDbEntity
  8
1
  6
Continuous
100
AcDbLine
 10
251.32847
 20
236.1129469999999
 30
0.0
 11
264.3284699999999
 21
236.1129469999999
 31
0.0
  0
LINE
  5
9649
330
95D6
100
AcDbEntity
  8
1
  6
Continuous
100
AcDbLine
 10
251.32847
 20
240.1129469999999
 30
0.0
 11
251.32847
 21
236.1129469999999
 31
0.0
  0
LINE
  5
964A
330
95D6
100
AcDbEntity
  8
1
  6
Continuous
100
AcDbLine
 10
372.71847
 20
264.0798469999999
 30
0.0
 11
372.71847
 21
249.7481469999999
 31
0.0
  0
LINE
  5
964B
330
95D6
100
AcDbEntity
  8
1
  6
Continuous
100
AcDbLine
 10
245.32837
 20
267.0798469999999
 30
0.0
 11
245.32837
 21
248.748147
 31
0.0
  0
LINE
  5
964C
330
95D6
100
AcDbEntity
  8
1
  6
Continuous
100
AcDbLine
 10
255.61447
 20
269.312447
 30
0.0
 11
244.82837
 21
269.877647
 31
0.0
  0
LINE
  5
964D
330
95D6
100
AcDbEntity
  8
1
  6
Continuous
100
AcDbLine
 10
377.82947
 20
250.012947
 30
0.0
 11
384.84147
 21
250.012947
 31
0.0
  0
LINE
  5
964E
330
95D6
100
AcDbEntity
  8
1
  6
Continuous
100
AcDbLine
 10
373.0344699999998
 20
247.965047
 30
0.0
 11
375.13947
 21
244.6915469999999
 31
0.0
  0
LINE
  5
964F
330
95D6
100
AcDbEntity
  8
1
  6
Continuous
100
AcDbLine
 10
376.04347
 20
257.7144469999999
 30
0.0
 11
374.5204699999999
 21
265.0475469999999
 31
0.0
  0
LINE
  5
9650
330
95D6
100
AcDbEntity
  8
1
  6
Continuous
100
AcDbLine
 10
376.21847
 20
245.280647
 30
0.0
 11
376.21847
 21
255.2003469999999
 31
0.0
  0
LINE
  5
9651
330
95D6
100
AcDbEntity
  8
1
  6
Continuous
100
AcDbLine
 10
387.5574700000001
 20
255.9661469999999
 30
0.0
 11
387.5574700000001
 21
251.380147
 31
0.0
  0
LINE
  5
9652
330
95D6
100
AcDbEntity
  8
1
  6
Continuous
100
AcDbLine
 10
383.21847
 20
240.598247
 30
0.0
 11
383.21847
 21
162.0359469999999
 31
0.0
  0
LINE
  5
9653
330
95D6
100
AcDbEntity
  8
1
  6
Continuous
100
AcDbLine
 10
359.21847
 20
236.1129469999999
 30
0.0
 11
359.21847
 21
165.912947
 31
0.0
  0
LINE
  5
9654
330
95D6
100
AcDbEntity
  8
4
  6
CENTER
100
AcDbLine
 10
339.21847
 20
261.9581469999999
 30
0.0
 11
339.21847
 21
231.244247
 31
0.0
  0
LINE
  5
9655
330
95D6
100
AcDbEntity
  8
4
  6
CENTER
100
AcDbLine
 10
365.71847
 20
271.5129469999999
 30
0.0
 11
365.71847
 21
256.512947
 31
0.0
  0
LINE
  5
9656
330
95D6
100
AcDbEntity
  8
4
  6
CENTER
100
AcDbLine
 10
358.21847
 20
264.012947
 30
0.0
 11
373.21847
 21
264.012947
 31
0.0
  0
LINE
  5
9657
330
95D6
100
AcDbEntity
  8
4
  6
CENTER
100
AcDbLine
 10
385.71847
 20
271.5129469999999
 30
0.0
 11
385.71847
 21
256.512947
 31
0.0
  0
LINE
  5
9658
330
95D6
100
AcDbEntity
  8
4
  6
CENTER
100
AcDbLine
 10
378.21847
 20
264.012947
 30
0.0
 11
393.21847
 21
264.012947
 31
0.0
  0
LINE
  5
9659
330
95D6
100
AcDbEntity
  8
4
  6
CENTER
100
AcDbLine
 10
183.43847
 20
357.476947
 30
0.0
 11
183.43847
 21
344.256947
 31
0.0
  0
LINE
  5
965A
330
95D6
100
AcDbEntity
  8
4
  6
CENTER
100
AcDbLine
 10
177.49497
 20
351.7569470000001
 30
0.0
 11
189.9149699999999
 21
351.7569470000001
 31
0.0
  0
LINE
  5
965B
330
95D6
100
AcDbEntity
  8
1
  6
Continuous
100
AcDbLine
 10
112.92997
 20
337.2569470000001
 30
0.0
 11
179.9469699999999
 21
337.2569470000001
 31
0.0
  0
LINE
  5
965C
330
95D6
100
AcDbEntity
  8
1
  6
Continuous
100
AcDbLine
 10
175.3244699999999
 20
334.439947
 30
0.0
 11
117.5524699999999
 21
334.439947
 31
0.0
  0
LINE
  5
965D
330
95D6
100
AcDbEntity
  8
1
  6
Continuous
100
AcDbLine
 10
339.4464699999999
 20
252.3629469999999
 30
0.0
 11
345.36647
 21
252.3629469999999
 31
0.0
  0
LINE
  5
965E
330
95D6
100
AcDbEntity
  8
1
  6
Continuous
100
AcDbLine
 10
339.4464699999999
 20
256.362947
 30
0.0
 11
366.21847
 21
256.362947
 31
0.0
  0
LINE
  5
965F
330
95D6
100
AcDbEntity
  8
1
  6
Continuous
100
AcDbLine
 10
366.21847
 20
256.362947
 30
0.0
 11
366.21847
 21
252.3629469999999
 31
0.0
  0
LINE
  5
9660
330
95D6
100
AcDbEntity
  8
1
  6
Continuous
100
AcDbLine
 10
148.4384699999999
 20
265.5129469999998
 30
0.0
 11
148.4384699999999
 21
136.512947
 31
0.0
  0
LINE
  5
9661
330
95D6
100
AcDbEntity
  8
1
  6
Continuous
100
AcDbLine
 10
171.83847
 20
265.5129469999998
 30
0.0
 11
171.83847
 21
136.512947
 31
0.0
  0
LINE
  5
9662
330
95D6
100
AcDbEntity
  8
1
  6
Continuous
100
AcDbLine
 10
150.93847
 20
134.0129469999999
 30
0.0
 11
169.33847
 21
134.0129469999999
 31
0.0
  0
LINE
  5
9663
330
95D6
100
AcDbEntity
  8
1
  6
Continuous
100
AcDbLine
 10
150.93847
 20
268.012947
 30
0.0
 11
169.33847
 21
268.012947
 31
0.0
  0
LINE
  5
9664
330
95D6
100
AcDbEntity
  8
1
  6
Continuous
100
AcDbLine
 10
150.93847
 20
262.012947
 30
0.0
 11
165.83847
 21
262.012947
 31
0.0
  0
LINE
  5
9665
330
95D6
100
AcDbEntity
  8
1
  6
Continuous
100
AcDbLine
 10
165.83847
 20
262.012947
 30
0.0
 11
165.83847
 21
140.0129469999999
 31
0.0
  0
LINE
  5
9666
330
95D6
100
AcDbEntity
  8
1
  6
Continuous
100
AcDbLine
 10
165.83847
 20
262.012947
 30
0.0
 11
170.07937
 21
266.253847
 31
0.0
  0
LINE
  5
9667
330
95D6
100
AcDbEntity
  8
1
  6
Continuous
100
AcDbLine
 10
150.93847
 20
140.0129469999999
 30
0.0
 11
165.83847
 21
140.0129469999999
 31
0.0
  0
LINE
  5
9668
330
95D6
100
AcDbEntity
  8
1
  6
Continuous
100
AcDbLine
 10
180.66397
 20
252.3629469999999
 30
0.0
 11
193.9351699999999
 21
252.3629469999999
 31
0.0
  0
LINE
  5
9669
330
95D6
100
AcDbEntity
  8
1
  6
Continuous
100
AcDbLine
 10
180.38837
 20
256.362947
 30
0.0
 11
188.43847
 21
256.362947
 31
0.0
  0
LINE
  5
966A
330
95D6
100
AcDbEntity
  8
1
  6
Continuous
100
AcDbLine
 10
188.43847
 20
257.5629469999999
 30
0.0
 11
188.43847
 21
252.3629469999999
 31
0.0
  0
LINE
  5
966B
330
95D6
100
AcDbEntity
  8
1
  6
Continuous
100
AcDbLine
 10
329.6504699999999
 20
249.762947
 30
0.0
 11
354.7784700000002
 21
249.762947
 31
0.0
  0
LINE
  5
966C
330
95D6
100
AcDbEntity
  8
1
  6
Continuous
100
AcDbLine
 10
320.4634699999999
 20
273.362947
 30
0.0
 11
320.4634699999999
 21
270.762947
 31
0.0
  0
LINE
  5
966D
330
95D6
100
AcDbEntity
  8
1
  6
Continuous
100
AcDbLine
 10
320.4634699999999
 20
273.362947
 30
0.0
 11
336.84647
 21
273.362947
 31
0.0
  0
LINE
  5
966E
330
95D6
100
AcDbEntity
  8
1
  6
Continuous
100
AcDbLine
 10
320.4634699999999
 20
270.762947
 30
0.0
 11
337.77547
 21
270.762947
 31
0.0
  0
LINE
  5
966F
330
95D6
100
AcDbEntity
  8
1
  6
Continuous
100
AcDbLine
 10
327.05047
 20
270.762947
 30
0.0
 11
327.05047
 21
252.3629469999999
 31
0.0
  0
LINE
  5
9670
330
95D6
100
AcDbEntity
  8
1
  6
Continuous
100
AcDbLine
 10
339.4464699999999
 20
270.762947
 30
0.0
 11
339.4464699999999
 21
252.3629469999999
 31
0.0
  0
LINE
  5
9671
330
95D6
100
AcDbEntity
  8
1
  6
Continuous
100
AcDbLine
 10
345.36647
 20
256.362947
 30
0.0
 11
345.36647
 21
250.762947
 31
0.0
  0
LINE
  5
9672
330
95D6
100
AcDbEntity
  8
1
  6
Continuous
100
AcDbLine
 10
350.7804699999998
 20
256.362947
 30
0.0
 11
350.7804699999998
 21
250.762947
 31
0.0
  0
LINE
  5
9673
330
95D6
100
AcDbEntity
  8
1
  6
Continuous
100
AcDbLine
 10
351.90147
 20
256.362947
 30
0.0
 11
351.90147
 21
252.3629469999999
 31
0.0
  0
LINE
  5
9674
330
95D6
100
AcDbEntity
  8
1
  6
Continuous
100
AcDbLine
 10
351.90147
 20
252.3629469999999
 30
0.0
 11
366.21847
 21
252.3629469999999
 31
0.0
  0
LINE
  5
9675
330
95D6
100
AcDbEntity
  8
1
  6
Continuous
100
AcDbLine
 10
355.77847
 20
252.3629469999999
 30
0.0
 11
355.77847
 21
250.762947
 31
0.0
  0
LINE
  5
9676
330
95D6
100
AcDbEntity
  8
1
  6
Continuous
100
AcDbLine
 10
337.77547
 20
270.762947
 30
0.0
 11
337.77547
 21
252.3629469999999
 31
0.0
  0
LINE
  5
9677
330
95D6
100
AcDbEntity
  8
1
  6
Continuous
100
AcDbLine
 10
334.3614699999998
 20
240.3893469999999
 30
0.0
 11
344.16147
 21
241.0393469999999
 31
0.0
  0
LINE
  5
9678
330
95D6
100
AcDbEntity
  8
1
  6
Continuous
100
AcDbLine
 10
334.2754699999999
 20
245.586547
 30
0.0
 11
344.0754699999998
 21
246.236547
 31
0.0
  0
LINE
  5
9679
330
95D6
100
AcDbEntity
  8
1
  6
Continuous
100
AcDbLine
 10
334.2754699999999
 20
246.886547
 30
0.0
 11
344.0754699999998
 21
247.536547
 31
0.0
  0
LINE
  5
967A
330
95D6
100
AcDbEntity
  8
1
  6
Continuous
100
AcDbLine
 10
334.3614699999998
 20
244.289347
 30
0.0
 11
344.16147
 21
244.939347
 31
0.0
  0
LINE
  5
967B
330
95D6
100
AcDbEntity
  8
1
  6
Continuous
100
AcDbLine
 10
334.3614699999998
 20
242.989347
 30
0.0
 11
344.16147
 21
243.639347
 31
0.0
  0
LINE
  5
967C
330
95D6
100
AcDbEntity
  8
1
  6
Continuous
100
AcDbLine
 10
334.3614699999998
 20
241.689347
 30
0.0
 11
344.16147
 21
242.339347
 31
0.0
  0
LINE
  5
967D
330
95D6
100
AcDbEntity
  8
5
  6
PHANTOM
100
AcDbLine
 10
165.75567
 20
318.585947
 30
0.0
 11
178.6229699999999
 21
327.046947
 31
0.0
  0
LINE
  5
967E
330
95D6
100
AcDbEntity
  8
5
  6
PHANTOM
100
AcDbLine
 10
166.41567
 20
323.042947
 30
0.0
 11
164.4906699999999
 21
325.9699470000001
 31
0.0
  0
LINE
  5
967F
330
95D6
100
AcDbEntity
  8
5
  6
PHANTOM
100
AcDbLine
 10
175.6949699999999
 20
328.951947
 30
0.0
 11
172.4367699999999
 21
333.906947
 31
0.0
  0
LINE
  5
9680
330
95D6
100
AcDbEntity
  8
1
  6
Continuous
100
AcDbLine
 10
164.35317
 20
368.256947
 30
0.0
 11
169.9405699999998
 21
368.256947
 31
0.0
  0
LINE
  5
9681
330
95D6
100
AcDbEntity
  8
1
  6
Continuous
100
AcDbLine
 10
162.0993699999999
 20
357.1089469999998
 30
0.0
 11
166.92317
 21
354.6279469999998
 31
0.0
  0
LINE
  5
9682
330
95D6
100
AcDbEntity
  8
1
  6
Continuous
100
AcDbLine
 10
167.3804699999998
 20
355.517947
 30
0.0
 11
168.13997
 21
355.1269469999998
 31
0.0
  0
LINE
  5
9683
330
95D6
100
AcDbEntity
  8
1
  6
Continuous
100
AcDbLine
 10
169.9405699999998
 20
368.256947
 30
0.0
 11
176.65447
 21
364.803947
 31
0.0
  0
LINE
  5
9684
330
95D6
100
AcDbEntity
  8
1
  6
Continuous
100
AcDbLine
 10
172.08097
 20
355.910947
 30
0.0
 11
174.13907
 21
359.9129469999998
 31
0.0
  0
LINE
  5
9685
330
95D6
100
AcDbEntity
  8
1
  6
Continuous
100
AcDbLine
 10
164.96667
 20
359.569947
 30
0.0
 11
167.02477
 21
363.571947
 31
0.0
  0
LINE
  5
9686
330
95D6
100
AcDbEntity
  8
1
  6
Continuous
100
AcDbLine
 10
176.65447
 20
364.803947
 30
0.0
 11
186.82607
 21
355.434947
 31
0.0
  0
LINE
  5
9687
330
95D6
100
AcDbEntity
  8
1
  6
Continuous
100
AcDbLine
 10
166.92317
 20
354.6279469999998
 30
0.0
 11
167.3804699999998
 21
355.517947
 31
0.0
  0
LINE
  5
9688
330
95D6
100
AcDbEntity
  8
1
  6
Continuous
100
AcDbLine
 10
174.4947699999999
 20
351.858947
 30
0.0
 11
180.5964699999999
 21
347.6429469999998
 31
0.0
  0
LINE
  5
9689
330
95D6
100
AcDbEntity
  8
1
  6
Continuous
100
AcDbLine
 10
164.96667
 20
359.569947
 30
0.0
 11
169.62177
 21
357.1759469999999
 31
0.0
  0
LINE
  5
968A
330
95D6
100
AcDbEntity
  8
1
  6
Continuous
100
AcDbLine
 10
167.02477
 20
363.571947
 30
0.0
 11
174.13907
 21
359.9129469999998
 31
0.0
  0
LINE
  5
968B
330
95D6
100
AcDbEntity
  8
5
  6
PHANTOM
100
AcDbLine
 10
182.4232699999998
 20
331.747947
 30
0.0
 11
180.20687
 21
331.9189469999999
 31
0.0
  0
LINE
  5
968C
330
95D6
100
AcDbEntity
  8
5
  6
PHANTOM
100
AcDbLine
 10
167.0876699999998
 20
323.291947
 30
0.0
 11
163.9613699999999
 21
322.131947
 31
0.0
  0
LINE
  5
968D
330
95D6
100
AcDbEntity
  8
1
  6
Continuous
100
AcDbLine
 10
168.44257
 20
353.6519469999998
 30
0.0
 11
170.39767
 21
353.9659470000001
 31
0.0
  0
LINE
  5
968E
330
95D6
100
AcDbEntity
  8
1
  6
Continuous
100
AcDbLine
 10
167.81277
 20
354.6739469999999
 30
0.0
 11
169.9514699999998
 21
357.631947
 31
0.0
  0
LINE
  5
968F
330
95D6
100
AcDbEntity
  8
1
  6
Continuous
100
AcDbLine
 10
169.9514699999998
 20
357.631947
 30
0.0
 11
171.0048699999999
 21
356.869947
 31
0.0
  0
LINE
  5
9690
330
95D6
100
AcDbEntity
  8
1
  6
Continuous
100
AcDbLine
 10
169.30937
 20
354.5259469999999
 30
0.0
 11
174.4947699999999
 21
351.858947
 31
0.0
  0
LINE
  5
9691
330
95D6
100
AcDbEntity
  8
1
  6
Continuous
100
AcDbLine
 10
170.7911699999999
 20
356.574947
 30
0.0
 11
172.08097
 21
355.910947
 31
0.0
  0
LINE
  5
9692
330
95D6
100
AcDbEntity
  8
1
  6
Continuous
100
AcDbLine
 10
168.8661699999999
 20
353.9129469999999
 30
0.0
 11
171.0048699999999
 21
356.869947
 31
0.0
  0
LINE
  5
9693
330
95D6
100
AcDbEntity
  8
1
  6
Continuous
100
AcDbLine
 10
354.96747
 20
256.472747
 30
0.0
 11
354.96747
 21
256.362947
 31
0.0
  0
LINE
  5
9694
330
95D6
100
AcDbEntity
  8
1
  6
Continuous
100
AcDbLine
 10
353.6674699999999
 20
256.472747
 30
0.0
 11
353.6674699999999
 21
256.362947
 31
0.0
  0
LINE
  5
9695
330
95D6
100
AcDbEntity
  8
1
  6
Continuous
100
AcDbLine
 10
351.65147
 20
257.7727469999999
 30
0.0
 11
353.6674699999999
 21
257.7727469999999
 31
0.0
  0
LINE
  5
9696
330
95D6
100
AcDbEntity
  8
1
  6
Continuous
100
AcDbLine
 10
351.65147
 20
256.472747
 30
0.0
 11
353.6674699999999
 21
256.472747
 31
0.0
  0
LINE
  5
9697
330
95D6
100
AcDbEntity
  8
1
  6
Continuous
100
AcDbLine
 10
354.96747
 20
240.306047
 30
0.0
 11
354.96747
 21
235.3060469999999
 31
0.0
  0
LINE
  5
9698
330
95D6
100
AcDbEntity
  8
1
  6
Continuous
100
AcDbLine
 10
353.6674699999999
 20
235.3060469999999
 30
0.0
 11
353.6674699999999
 21
240.306047
 31
0.0
  0
LINE
  5
9699
330
95D6
100
AcDbEntity
  8
1
  6
Continuous
100
AcDbLine
 10
334.31847
 20
249.4879469999999
 30
0.0
 11
341.09847
 21
249.762947
 31
0.0
  0
LINE
  5
969A
330
95D6
100
AcDbEntity
  8
1
  6
Continuous
100
AcDbLine
 10
334.37147
 20
248.1890469999999
 30
0.0
 11
353.7204699999999
 21
248.973847
 31
0.0
  0
LINE
  5
969B
330
95D6
100
AcDbEntity
  8
1
  6
Continuous
100
AcDbLine
 10
353.6674699999999
 20
234.006047
 30
0.0
 11
351.65147
 21
234.006047
 31
0.0
  0
LINE
  5
969C
330
95D6
100
AcDbEntity
  8
1
  6
Continuous
100
AcDbLine
 10
353.6674699999999
 20
240.306047
 30
0.0
 11
342.21847
 21
240.3544469999999
 31
0.0
  0
LINE
  5
969D
330
95D6
100
AcDbEntity
  8
1
  6
Continuous
100
AcDbLine
 10
353.6724699999999
 20
241.606047
 30
0.0
 11
344.76647
 21
241.6437469999999
 31
0.0
  0
LINE
  5
969E
330
95D6
100
AcDbEntity
  8
1
  6
Continuous
100
AcDbLine
 10
353.6674699999999
 20
240.1129469999999
 30
0.0
 11
334.21847
 21
240.1129469999999
 31
0.0
  0
LINE
  5
969F
330
95D6
100
AcDbEntity
  8
1
  6
Continuous
100
AcDbLine
 10
353.6674699999999
 20
236.1129469999999
 30
0.0
 11
334.21847
 21
236.1129469999999
 31
0.0
  0
LINE
  5
96A0
330
95D6
100
AcDbEntity
  8
1
  6
Continuous
100
AcDbLine
 10
352.3384699999998
 20
245.7481469999999
 30
0.0
 11
352.3384699999998
 21
241.611647
 31
0.0
  0
LINE
  5
96A1
330
95D6
100
AcDbEntity
  8
1
  6
Continuous
100
AcDbLine
 10
383.21847
 20
269.012947
 30
0.0
 11
385.71847
 21
269.012947
 31
0.0
  0
LINE
  5
96A2
330
95D6
100
AcDbEntity
  8
1
  6
Continuous
100
AcDbLine
 10
383.21847
 20
259.0129469999999
 30
0.0
 11
385.71847
 21
259.0129469999999
 31
0.0
  0
LINE
  5
96A3
330
95D6
100
AcDbEntity
  8
1
  6
Continuous
100
AcDbLine
 10
398.47947
 20
125.5129469999999
 30
0.0
 11
353.95647
 21
125.5129469999999
 31
0.0
  0
LINE
  5
96A4
330
95D6
100
AcDbEntity
  8
1
  6
Continuous
100
AcDbLine
 10
368.3594699999999
 20
165.912947
 30
0.0
 11
354.96747
 21
165.912947
 31
0.0
  0
LINE
  5
96A5
330
95D6
100
AcDbEntity
  8
1
  6
Continuous
100
AcDbLine
 10
368.3594699999999
 20
161.912947
 30
0.0
 11
354.96747
 21
161.912947
 31
0.0
  0
LINE
  5
96A6
330
95D6
100
AcDbEntity
  8
1
  6
Continuous
100
AcDbLine
 10
334.21847
 20
161.912947
 30
0.0
 11
334.21847
 21
165.912947
 31
0.0
  0
LINE
  5
96A7
330
95D6
100
AcDbEntity
  8
1
  6
Continuous
100
AcDbLine
 10
368.3594699999999
 20
161.912947
 30
0.0
 11
368.3594699999999
 21
165.912947
 31
0.0
  0
LINE
  5
96A8
330
95D6
100
AcDbEntity
  8
1
  6
Continuous
100
AcDbLine
 10
359.21847
 20
159.0129469999999
 30
0.0
 11
359.21847
 21
161.912947
 31
0.0
  0
LINE
  5
96A9
330
95D6
100
AcDbEntity
  8
1
  6
Continuous
100
AcDbLine
 10
355.21847
 20
144.5129469999999
 30
0.0
 11
371.21847
 21
144.5129469999999
 31
0.0
  0
LINE
  5
96AA
330
95D6
100
AcDbEntity
  8
1
  6
Continuous
100
AcDbLine
 10
355.21847
 20
151.5129469999999
 30
0.0
 11
371.21847
 21
151.5129469999999
 31
0.0
  0
LINE
  5
96AB
330
95D6
100
AcDbEntity
  8
1
  6
Continuous
100
AcDbLine
 10
371.21847
 20
144.5129469999999
 30
0.0
 11
371.21847
 21
151.5129469999999
 31
0.0
  0
LINE
  5
96AC
330
95D6
100
AcDbEntity
  8
1
  6
Continuous
100
AcDbLine
 10
377.82947
 20
152.012947
 30
0.0
 11
384.84147
 21
152.012947
 31
0.0
  0
LINE
  5
96AD
330
95D6
100
AcDbEntity
  8
1
  6
Continuous
100
AcDbLine
 10
376.21847
 20
156.745247
 30
0.0
 11
376.21847
 21
146.825547
 31
0.0
  0
LINE
  5
96AE
330
95D6
100
AcDbEntity
  8
4
  6
CENTER
100
AcDbLine
 10
339.21847
 20
140.780447
 30
0.0
 11
339.21847
 21
171.3618469999999
 31
0.0
  0
LINE
  5
96AF
330
95D6
100
AcDbEntity
  8
4
  6
CENTER
100
AcDbLine
 10
365.71847
 20
130.512947
 30
0.0
 11
365.71847
 21
145.5129469999999
 31
0.0
  0
LINE
  5
96B0
330
95D6
100
AcDbEntity
  8
4
  6
CENTER
100
AcDbLine
 10
358.21847
 20
138.0129469999999
 30
0.0
 11
373.21847
 21
138.0129469999999
 31
0.0
  0
LINE
  5
96B1
330
95D6
100
AcDbEntity
  8
4
  6
CENTER
100
AcDbLine
 10
385.71847
 20
130.512947
 30
0.0
 11
385.71847
 21
145.5129469999999
 31
0.0
  0
LINE
  5
96B2
330
95D6
100
AcDbEntity
  8
4
  6
CENTER
100
AcDbLine
 10
378.21847
 20
138.0129469999999
 30
0.0
 11
393.21847
 21
138.0129469999999
 31
0.0
  0
LINE
  5
96B3
330
95D6
100
AcDbEntity
  8
1
  6
Continuous
100
AcDbLine
 10
334.21847
 20
145.662947
 30
0.0
 11
366.21847
 21
145.662947
 31
0.0
  0
LINE
  5
96B4
330
95D6
100
AcDbEntity
  8
1
  6
Continuous
100
AcDbLine
 10
334.21847
 20
144.4629469999999
 30
0.0
 11
334.21847
 21
149.662947
 31
0.0
  0
LINE
  5
96B5
330
95D6
100
AcDbEntity
  8
1
  6
Continuous
100
AcDbLine
 10
366.21847
 20
145.662947
 30
0.0
 11
366.21847
 21
149.662947
 31
0.0
  0
LINE
  5
96B6
330
95D6
100
AcDbEntity
  8
1
  6
Continuous
100
AcDbLine
 10
334.21847
 20
149.662947
 30
0.0
 11
366.21847
 21
149.662947
 31
0.0
  0
LINE
  5
96B7
330
95D6
100
AcDbEntity
  8
1
  6
Continuous
100
AcDbLine
 10
334.3614699999998
 20
160.4365469999999
 30
0.0
 11
344.16147
 21
159.7865469999999
 31
0.0
  0
LINE
  5
96B8
330
95D6
100
AcDbEntity
  8
1
  6
Continuous
100
AcDbLine
 10
334.2754699999999
 20
155.239347
 30
0.0
 11
344.0754699999998
 21
154.589347
 31
0.0
  0
LINE
  5
96B9
330
95D6
100
AcDbEntity
  8
1
  6
Continuous
100
AcDbLine
 10
334.2754699999999
 20
153.939347
 30
0.0
 11
344.0754699999998
 21
153.2893469999999
 31
0.0
  0
LINE
  5
96BA
330
95D6
100
AcDbEntity
  8
1
  6
Continuous
100
AcDbLine
 10
334.3614699999998
 20
156.5365469999998
 30
0.0
 11
344.16147
 21
155.886547
 31
0.0
  0
LINE
  5
96BB
330
95D6
100
AcDbEntity
  8
1
  6
Continuous
100
AcDbLine
 10
334.3614699999998
 20
157.836547
 30
0.0
 11
344.16147
 21
157.1865469999998
 31
0.0
  0
LINE
  5
96BC
330
95D6
100
AcDbEntity
  8
1
  6
Continuous
100
AcDbLine
 10
334.3614699999998
 20
159.136547
 30
0.0
 11
344.16147
 21
158.4865469999998
 31
0.0
  0
LINE
  5
96BD
330
95D6
100
AcDbEntity
  8
1
  6
Continuous
100
AcDbLine
 10
353.6674699999999
 20
145.5531469999999
 30
0.0
 11
353.6674699999999
 21
145.662947
 31
0.0
  0
LINE
  5
96BE
330
95D6
100
AcDbEntity
  8
1
  6
Continuous
100
AcDbLine
 10
351.65147
 20
143.053147
 30
0.0
 11
351.65147
 21
144.353147
 31
0.0
  0
LINE
  5
96BF
330
95D6
100
AcDbEntity
  8
1
  6
Continuous
100
AcDbLine
 10
351.65147
 20
143.053147
 30
0.0
 11
353.6674699999999
 21
143.053147
 31
0.0
  0
LINE
  5
96C0
330
95D6
100
AcDbEntity
  8
1
  6
Continuous
100
AcDbLine
 10
351.65147
 20
144.353147
 30
0.0
 11
353.6674699999999
 21
144.353147
 31
0.0
  0
LINE
  5
96C1
330
95D6
100
AcDbEntity
  8
1
  6
Continuous
100
AcDbLine
 10
354.96747
 20
161.7198469999999
 30
0.0
 11
354.96747
 21
166.7198469999999
 31
0.0
  0
LINE
  5
96C2
330
95D6
100
AcDbEntity
  8
1
  6
Continuous
100
AcDbLine
 10
353.6674699999999
 20
166.7198469999999
 30
0.0
 11
353.6674699999999
 21
161.7198469999999
 31
0.0
  0
LINE
  5
96C3
330
95D6
100
AcDbEntity
  8
1
  6
Continuous
100
AcDbLine
 10
334.31847
 20
151.3379469999998
 30
0.0
 11
353.6674699999999
 21
150.553147
 31
0.0
  0
LINE
  5
96C4
330
95D6
100
AcDbEntity
  8
1
  6
Continuous
100
AcDbLine
 10
334.37147
 20
152.6368469999999
 30
0.0
 11
353.7204699999999
 21
151.852147
 31
0.0
  0
LINE
  5
96C5
330
95D6
100
AcDbEntity
  8
1
  6
Continuous
100
AcDbLine
 10
353.6674699999999
 20
166.6198469999999
 30
0.0
 11
351.65147
 21
166.6198469999999
 31
0.0
  0
LINE
  5
96C6
330
95D6
100
AcDbEntity
  8
1
  6
Continuous
100
AcDbLine
 10
353.6674699999999
 20
168.019847
 30
0.0
 11
351.65147
 21
168.019847
 31
0.0
  0
LINE
  5
96C7
330
95D6
100
AcDbEntity
  8
1
  6
Continuous
100
AcDbLine
 10
353.6674699999999
 20
161.912947
 30
0.0
 11
334.21847
 21
161.912947
 31
0.0
  0
LINE
  5
96C8
330
95D6
100
AcDbEntity
  8
1
  6
Continuous
100
AcDbLine
 10
353.6674699999999
 20
165.912947
 30
0.0
 11
334.21847
 21
165.912947
 31
0.0
  0
LINE
  5
96C9
330
95D6
100
AcDbEntity
  8
1
  6
Continuous
100
AcDbLine
 10
351.65147
 20
166.6198469999999
 30
0.0
 11
351.65147
 21
168.019847
 31
0.0
  0
LINE
  5
96CA
330
95D6
100
AcDbEntity
  8
1
  6
Continuous
100
AcDbLine
 10
383.21847
 20
133.0129469999999
 30
0.0
 11
385.71847
 21
133.0129469999999
 31
0.0
  0
LINE
  5
96CB
330
95D6
100
AcDbEntity
  8
1
  6
Continuous
100
AcDbLine
 10
383.21847
 20
143.0129469999999
 30
0.0
 11
385.71847
 21
143.0129469999999
 31
0.0
  0
LINE
  5
96CC
330
95D6
100
AcDbEntity
  8
1
  6
Continuous
100
AcDbLine
 10
354.96747
 20
149.662947
 30
0.0
 11
354.96747
 21
150.5503469999998
 31
0.0
  0
LINE
  5
96CD
330
95D6
100
AcDbEntity
  8
1
  6
Continuous
100
AcDbLine
 10
334.3614699999998
 20
160.4393469999999
 30
0.0
 11
336.21847
 21
160.5625469999999
 31
0.0
  0
LINE
  5
96CE
330
95D6
100
AcDbEntity
  8
1
  6
Continuous
100
AcDbLine
 10
353.6674699999999
 20
149.662947
 30
0.0
 11
353.6674699999999
 21
150.5503469999998
 31
0.0
  0
LINE
  5
96CF
330
95D6
100
AcDbEntity
  8
1
  6
Continuous
100
AcDbLine
 10
354.96747
 20
144.353147
 30
0.0
 11
354.96747
 21
145.662947
 31
0.0
  0
LINE
  5
96D0
330
95D6
100
AcDbEntity
  8
1
  6
Continuous
100
AcDbLine
 10
353.6674699999999
 20
144.353147
 30
0.0
 11
353.6674699999999
 21
145.5531469999999
 31
0.0
  0
LINE
  5
96D1
330
95D6
100
AcDbEntity
  8
1
  6
Continuous
100
AcDbLine
 10
344.16147
 20
159.7865469999999
 30
0.0
 11
353.75347
 21
160.4227469999998
 31
0.0
  0
LINE
  5
96D2
330
95D6
100
AcDbEntity
  8
1
  6
Continuous
100
AcDbLine
 10
355.21847
 20
144.5129469999999
 30
0.0
 11
355.21847
 21
145.662947
 31
0.0
  0
LINE
  5
96D3
330
95D6
100
AcDbEntity
  8
1
  6
Continuous
100
AcDbLine
 10
355.21847
 20
149.662947
 30
0.0
 11
355.21847
 21
151.5129469999999
 31
0.0
  0
LINE
  5
96D4
330
95D6
100
AcDbEntity
  8
1
  6
Continuous
100
AcDbLine
 10
344.21847
 20
144.4629469999999
 30
0.0
 11
344.21847
 21
145.662947
 31
0.0
  0
LINE
  5
96D5
330
95D6
100
AcDbEntity
  8
1
  6
Continuous
100
AcDbLine
 10
334.21847
 20
144.4629469999999
 30
0.0
 11
344.21847
 21
144.4629469999999
 31
0.0
  0
LINE
  5
96D6
330
95D6
100
AcDbEntity
  8
1
  6
Continuous
100
AcDbLine
 10
342.21847
 20
149.662947
 30
0.0
 11
342.21847
 21
151.017547
 31
0.0
  0
LINE
  5
96D7
330
95D6
100
AcDbEntity
  8
1
  6
Continuous
100
AcDbLine
 10
336.21847
 20
149.662947
 30
0.0
 11
336.21847
 21
151.2608469999999
 31
0.0
  0
LINE
  5
96D8
330
95D6
100
AcDbEntity
  8
1
  6
Continuous
100
AcDbLine
 10
342.21847
 20
166.912947
 30
0.0
 11
336.21847
 21
166.912947
 31
0.0
  0
LINE
  5
96D9
330
95D6
100
AcDbEntity
  8
1
  6
Continuous
100
AcDbLine
 10
336.21847
 20
165.912947
 30
0.0
 11
336.21847
 21
166.912947
 31
0.0
  0
LINE
  5
96DA
330
95D6
100
AcDbEntity
  8
1
  6
Continuous
100
AcDbLine
 10
342.21847
 20
165.912947
 30
0.0
 11
342.21847
 21
166.912947
 31
0.0
  0
LINE
  5
96DB
330
95D6
100
AcDbEntity
  8
1
  6
Continuous
100
AcDbLine
 10
342.21847
 20
159.915347
 30
0.0
 11
342.21847
 21
161.912947
 31
0.0
  0
LINE
  5
96DC
330
95D6
100
AcDbEntity
  8
1
  6
Continuous
100
AcDbLine
 10
336.21847
 20
160.3133469999999
 30
0.0
 11
336.21847
 21
161.912947
 31
0.0
  0
LINE
  5
96DD
330
95D6
100
AcDbEntity
  8
1
  6
Continuous
100
AcDbLine
 10
342.21847
 20
160.9604469999998
 30
0.0
 11
353.6674699999999
 21
161.7198469999999
 31
0.0
  0
LINE
  5
96DE
330
95D6
100
AcDbEntity
  8
1
  6
Continuous
100
AcDbLine
 10
344.21847
 20
257.5629469999999
 30
0.0
 11
344.21847
 21
256.362947
 31
0.0
  0
LINE
  5
96DF
330
95D6
100
AcDbEntity
  8
1
  6
Continuous
100
AcDbLine
 10
339.4464699999999
 20
257.5629469999999
 30
0.0
 11
344.21847
 21
257.5629469999999
 31
0.0
  0
LINE
  5
96E0
330
95D6
100
AcDbEntity
  8
1
  6
Continuous
100
AcDbLine
 10
336.21847
 20
236.1129469999999
 30
0.0
 11
336.21847
 21
235.112947
 31
0.0
  0
LINE
  5
96E1
330
95D6
100
AcDbEntity
  8
1
  6
Continuous
100
AcDbLine
 10
342.21847
 20
235.112947
 30
0.0
 11
336.21847
 21
235.112947
 31
0.0
  0
LINE
  5
96E2
330
95D6
100
AcDbEntity
  8
1
  6
Continuous
100
AcDbLine
 10
342.21847
 20
240.910547
 30
0.0
 11
342.21847
 21
240.1129469999999
 31
0.0
  0
LINE
  5
96E3
330
95D6
100
AcDbEntity
  8
1
  6
Continuous
100
AcDbLine
 10
342.21847
 20
235.112947
 30
0.0
 11
342.21847
 21
236.1129469999999
 31
0.0
  0
LINE
  5
96E4
330
95D6
100
AcDbEntity
  8
1
  6
Continuous
100
AcDbLine
 10
176.1701699999999
 20
365.948947
 30
0.0
 11
193.9351699999999
 21
351.042947
 31
0.0
  0
LINE
  5
96E5
330
95D6
100
AcDbEntity
  8
5
  6
PHANTOM
100
AcDbLine
 10
193.6816699999999
 20
366.1649469999999
 30
0.0
 11
192.60117
 21
356.927947
 31
0.0
  0
LINE
  5
96E6
330
95D6
100
AcDbEntity
  8
5
  6
PHANTOM
100
AcDbLine
 10
179.7764699999999
 20
367.790947
 30
0.0
 11
178.6959699999999
 21
358.553947
 31
0.0
  0
LINE
  5
96E7
330
95D6
100
AcDbEntity
  8
1
  6
Continuous
100
AcDbLine
 10
170.75567
 20
368.5349469999999
 30
0.0
 11
176.1701699999999
 21
365.948947
 31
0.0
  0
LINE
  5
96E8
330
95D6
100
AcDbEntity
  8
1
  6
Continuous
100
AcDbLine
 10
171.8758699999999
 20
370.8809469999998
 30
0.0
 11
177.29037
 21
368.295947
 31
0.0
  0
LINE
  5
96E9
330
95D6
100
AcDbEntity
  8
1
  6
Continuous
100
AcDbLine
 10
171.8758699999999
 20
370.8809469999998
 30
0.0
 11
170.4885699999999
 21
367.9749469999999
 31
0.0
  0
LINE
  5
96EA
330
95D6
100
AcDbEntity
  8
1
  6
Continuous
100
AcDbLine
 10
177.29037
 20
368.295947
 30
0.0
 11
175.82667
 21
365.2299469999999
 31
0.0
  0
LINE
  5
96EB
330
95D6
100
AcDbEntity
  8
1
  6
Continuous
100
AcDbLine
 10
167.9981699999999
 20
362.7589469999999
 30
0.0
 11
173.41267
 21
360.173947
 31
0.0
  0
LINE
  5
96EC
330
95D6
100
AcDbEntity
  8
1
  6
Continuous
100
AcDbLine
 10
166.87787
 20
360.4129469999999
 30
0.0
 11
172.29237
 21
357.827947
 31
0.0
  0
LINE
  5
96ED
330
95D6
100
AcDbEntity
  8
1
  6
Continuous
100
AcDbLine
 10
173.41267
 20
360.173947
 30
0.0
 11
173.8457699999999
 21
359.3429469999999
 31
0.0
  0
LINE
  5
96EE
330
95D6
100
AcDbEntity
  8
1
  6
Continuous
100
AcDbLine
 10
167.9981699999999
 20
362.7589469999999
 30
0.0
 11
166.87787
 21
360.4129469999999
 31
0.0
  0
LINE
  5
96EF
330
95D6
100
AcDbEntity
  8
1
  6
Continuous
100
AcDbLine
 10
173.41267
 20
360.173947
 30
0.0
 11
172.29237
 21
357.827947
 31
0.0
  0
LINE
  5
96F0
330
95D6
100
AcDbEntity
  8
1
  6
Continuous
100
AcDbLine
 10
136.56089
 20
250.012947
 30
0.0
 11
148.4384699999999
 21
250.012947
 31
0.0
  0
LINE
  5
96F1
330
95D6
100
AcDbEntity
  8
4
  6
CENTER
100
AcDbLine
 10
327.46347
 20
278.599147
 30
0.0
 11
327.46347
 21
264.4658469999999
 31
0.0
  0
LINE
  5
96F2
330
95D6
100
AcDbEntity
  8
1
  6
Continuous
100
AcDbLine
 10
350.20747
 20
264.6900469999998
 30
0.0
 11
350.20747
 21
256.362947
 31
0.0
  0
LINE
  5
96F3
330
95D6
100
AcDbEntity
  8
1
  6
Continuous
100
AcDbLine
 10
367.8744699999999
 20
268.5242469999999
 30
0.0
 11
381.06247
 21
268.5242469999999
 31
0.0
  0
LINE
  5
96F4
330
95D6
100
AcDbEntity
  8
1
  6
Continuous
100
AcDbLine
 10
387.87447
 20
268.5242469999999
 30
0.0
 11
398.3954699999999
 21
268.5242469999999
 31
0.0
  0
LINE
  5
96F5
330
95D6
100
AcDbEntity
  8
1
  6
Continuous
100
AcDbLine
 10
355.24047
 20
267.0798469999999
 30
0.0
 11
360.4994699999999
 21
267.0798469999999
 31
0.0
  0
LINE
  5
96F6
330
95D6
100
AcDbEntity
  8
1
  6
Continuous
100
AcDbLine
 10
352.24047
 20
264.0798469999999
 30
0.0
 11
352.24047
 21
257.7727469999999
 31
0.0
  0
LINE
  5
96F7
330
95D6
100
AcDbEntity
  8
1
  6
Continuous
100
AcDbLine
 10
353.6674699999999
 20
235.3060469999999
 30
0.0
 11
351.65147
 21
235.3060469999999
 31
0.0
  0
LINE
  5
96F8
330
95D6
100
AcDbEntity
  8
1
  6
Continuous
100
AcDbLine
 10
369.6674699999999
 20
267.0798469999999
 30
0.0
 11
375.71847
 21
267.0798469999999
 31
0.0
  0
LINE
  5
96F9
330
95D6
100
AcDbEntity
  8
1
  6
Continuous
100
AcDbLine
 10
350.20747
 20
137.335847
 30
0.0
 11
350.20747
 21
145.662947
 31
0.0
  0
LINE
  5
96FA
330
95D6
100
AcDbEntity
  8
1
  6
Continuous
100
AcDbLine
 10
352.24047
 20
137.9460469999999
 30
0.0
 11
352.24047
 21
143.053147
 31
0.0
  0
LINE
  5
96FB
330
95D6
100
AcDbEntity
  8
1
  6
Continuous
100
AcDbLine
 10
355.24047
 20
134.9460469999999
 30
0.0
 11
360.4994699999999
 21
134.9460469999999
 31
0.0
  0
LINE
  5
96FC
330
95D6
100
AcDbEntity
  8
1
  6
Continuous
100
AcDbLine
 10
354.0414699999999
 20
133.501647
 30
0.0
 11
362.2924699999999
 21
133.501647
 31
0.0
  0
LINE
  5
96FD
330
95D6
100
AcDbEntity
  8
1
  6
Continuous
100
AcDbLine
 10
367.8744699999999
 20
133.501647
 30
0.0
 11
381.06247
 21
133.501647
 31
0.0
  0
LINE
  5
96FE
330
95D6
100
AcDbEntity
  8
1
  6
Continuous
100
AcDbLine
 10
369.6674699999999
 20
134.9460469999999
 30
0.0
 11
375.71847
 21
134.9460469999999
 31
0.0
  0
LINE
  5
96FF
330
95D6
100
AcDbEntity
  8
1
  6
Continuous
100
AcDbLine
 10
387.87447
 20
133.501647
 30
0.0
 11
398.3954699999999
 21
133.501647
 31
0.0
  0
LINE
  5
9700
330
95D6
100
AcDbEntity
  8
1
  6
Continuous
100
AcDbLine
 10
354.0414699999999
 20
268.5242469999999
 30
0.0
 11
362.2924699999999
 21
268.5242469999999
 31
0.0
  0
LINE
  5
9701
330
95D6
100
AcDbEntity
  8
1
  6
Continuous
100
AcDbLine
 10
353.4824699999999
 20
270.3326469999999
 30
0.0
 11
396.37947
 21
270.3326469999999
 31
0.0
  0
LINE
  5
9702
330
95D6
100
AcDbEntity
  8
1
  6
Continuous
100
AcDbLine
 10
348.4824699999998
 20
265.332647
 30
0.0
 11
348.4824699999998
 21
256.362947
 31
0.0
  0
LINE
  5
9703
330
95D6
100
AcDbEntity
  8
1
  6
Continuous
100
AcDbLine
 10
348.4824699999998
 20
248.761347
 30
0.0
 11
348.4824699999998
 21
241.627947
 31
0.0
  0
LINE
  5
9704
330
95D6
100
AcDbEntity
  8
1
  6
Continuous
100
AcDbLine
 10
401.37947
 20
265.332647
 30
0.0
 11
401.37947
 21
136.6932469999998
 31
0.0
  0
LINE
  5
9705
330
95D6
100
AcDbEntity
  8
1
  6
Continuous
100
AcDbLine
 10
138.43847
 20
243.5744469999999
 30
0.0
 11
138.43847
 21
158.6709469999999
 31
0.0
  0
LINE
  5
9706
330
95D6
100
AcDbEntity
  8
1
  6
Continuous
100
AcDbLine
 10
241.02837
 20
275.012947
 30
0.0
 11
241.8283699999999
 21
275.012947
 31
0.0
  0
LINE
  5
9707
330
95D6
100
AcDbEntity
  8
1
  6
Continuous
100
AcDbLine
 10
244.82837
 20
267.440947
 30
0.0
 11
245.32837
 21
267.0798469999999
 31
0.0
  0
LINE
  5
9708
330
95D6
100
AcDbEntity
  8
1
  6
Continuous
100
AcDbLine
 10
244.82837
 20
134.584947
 30
0.0
 11
245.32837
 21
134.9460469999999
 31
0.0
  0
LINE
  5
9709
330
95D6
100
AcDbEntity
  8
1
  6
Continuous
100
AcDbLine
 10
253.32847
 20
133.0129469999999
 30
0.0
 11
244.82837
 21
132.5674469999998
 31
0.0
  0
LINE
  5
970A
330
95D6
100
AcDbEntity
  8
1
  6
Continuous
100
AcDbLine
 10
253.32847
 20
133.0129469999999
 30
0.0
 11
253.32847
 21
141.7531469999999
 31
0.0
  0
LINE
  5
970B
330
95D6
100
AcDbEntity
  8
1
  6
Continuous
100
AcDbLine
 10
245.32837
 20
134.9460469999999
 30
0.0
 11
245.32837
 21
153.277747
 31
0.0
  0
LINE
  5
970C
330
95D6
100
AcDbEntity
  8
1
  6
Continuous
100
AcDbLine
 10
250.02847
 20
143.1858469999999
 30
0.0
 11
245.32837
 21
143.4322469999998
 31
0.0
  0
LINE
  5
970D
330
95D6
100
AcDbEntity
  8
1
  6
Continuous
100
AcDbLine
 10
253.32847
 20
261.302047
 30
0.0
 11
255.61447
 21
259.6512469999999
 31
0.0
  0
LINE
  5
970E
330
95D6
100
AcDbEntity
  8
1
  6
Continuous
100
AcDbLine
 10
253.32847
 20
140.723847
 30
0.0
 11
255.8414699999999
 21
142.5387469999998
 31
0.0
  0
LINE
  5
970F
330
95D6
100
AcDbEntity
  8
1
  6
Continuous
100
AcDbLine
 10
245.32837
 20
248.748147
 30
0.0
 11
250.79647
 21
247.039447
 31
0.0
  0
LINE
  5
9710
330
95D6
100
AcDbEntity
  8
1
  6
Continuous
100
AcDbLine
 10
359.21847
 20
244.060647
 30
0.0
 11
383.21847
 21
244.060647
 31
0.0
  0
LINE
  5
9711
330
95D6
100
AcDbEntity
  8
1
  6
Continuous
100
AcDbLine
 10
355.3384699999999
 20
248.748147
 30
0.0
 11
371.71847
 21
248.748147
 31
0.0
  0
LINE
  5
9712
330
95D6
100
AcDbEntity
  8
1
  6
Continuous
100
AcDbLine
 10
377.6844699999998
 20
257.6909469999999
 30
0.0
 11
385.85347
 21
257.6909469999999
 31
0.0
  0
LINE
  5
9713
330
95D6
100
AcDbEntity
  8
1
  6
Continuous
100
AcDbLine
 10
388.88247
 20
258.902847
 30
0.0
 11
397.77947
 21
267.039447
 31
0.0
  0
LINE
  5
9714
330
95D6
100
AcDbEntity
  8
1
  6
Continuous
100
AcDbLine
 10
355.00447
 20
246.9320469999999
 30
0.0
 11
357.5734699999999
 21
245.1811469999999
 31
0.0
  0
LINE
  5
9715
330
95D6
100
AcDbEntity
  8
1
  6
Continuous
100
AcDbLine
 10
384.2214699999999
 20
245.436947
 30
0.0
 11
386.65947
 21
248.7806469999999
 31
0.0
  0
LINE
  5
9716
330
95D6
100
AcDbEntity
  8
1
  6
Continuous
100
AcDbLine
 10
388.88247
 20
143.1230469999998
 30
0.0
 11
397.77947
 21
134.9864469999999
 31
0.0
  0
LINE
  5
9717
330
95D6
100
AcDbEntity
  8
1
  6
Continuous
100
AcDbLine
 10
377.6844699999998
 20
144.334947
 30
0.0
 11
385.85347
 21
144.334947
 31
0.0
  0
LINE
  5
9718
330
95D6
100
AcDbEntity
  8
1
  6
Continuous
100
AcDbLine
 10
387.5574700000001
 20
146.0597469999999
 30
0.0
 11
387.5574700000001
 21
150.6457469999998
 31
0.0
  0
LINE
  5
9719
330
95D6
100
AcDbEntity
  8
1
  6
Continuous
100
AcDbLine
 10
384.2214699999999
 20
156.5889469999999
 30
0.0
 11
386.65947
 21
153.245247
 31
0.0
  0
LINE
  5
971A
330
95D6
100
AcDbEntity
  8
1
  6
Continuous
100
AcDbLine
 10
359.21847
 20
157.965247
 30
0.0
 11
383.21847
 21
157.965247
 31
0.0
  0
LINE
  5
971B
330
95D6
100
AcDbEntity
  8
1
  6
Continuous
100
AcDbLine
 10
355.00447
 20
155.093847
 30
0.0
 11
357.5734699999999
 21
156.8447469999999
 31
0.0
  0
LINE
  5
971C
330
95D6
100
AcDbEntity
  8
1
  6
Continuous
100
AcDbLine
 10
355.3384699999999
 20
153.277747
 30
0.0
 11
371.71847
 21
153.277747
 31
0.0
  0
LINE
  5
971D
330
95D6
100
AcDbEntity
  8
1
  6
Continuous
100
AcDbLine
 10
353.4824699999999
 20
131.6932469999999
 30
0.0
 11
396.37947
 21
131.6932469999999
 31
0.0
  0
LINE
  5
971E
330
95D6
100
AcDbEntity
  8
1
  6
Continuous
100
AcDbLine
 10
372.71847
 20
137.9460469999999
 30
0.0
 11
372.71847
 21
152.277747
 31
0.0
  0
LINE
  5
971F
330
95D6
100
AcDbEntity
  8
1
  6
Continuous
100
AcDbLine
 10
373.68247
 20
137.5323469999998
 30
0.0
 11
375.82047
 21
143.2687469999999
 31
0.0
  0
LINE
  5
9720
330
95D6
100
AcDbEntity
  8
1
  6
Continuous
100
AcDbLine
 10
375.63447
 20
157.1933469999999
 30
0.0
 11
372.84747
 21
153.5058469999999
 31
0.0
  0
LINE
  5
9721
330
95D6
100
AcDbEntity
  8
1
  6
Continuous
100
AcDbLine
 10
348.4824699999998
 20
161.912947
 30
0.0
 11
348.4824699999998
 21
161.3759469999999
 31
0.0
  0
LINE
  5
9722
330
95D6
100
AcDbEntity
  8
1
  6
Continuous
100
AcDbLine
 10
352.3384699999998
 20
151.9081469999999
 30
0.0
 11
352.3384699999998
 21
156.277747
 31
0.0
  0
LINE
  5
9723
330
95D6
100
AcDbEntity
  8
1
  6
Continuous
100
AcDbLine
 10
139.9126099999998
 20
245.012947
 30
0.0
 11
148.4384699999999
 21
245.012947
 31
0.0
  0
LINE
  5
9724
330
95D6
100
AcDbEntity
  8
1
  6
Continuous
100
AcDbLine
 10
136.4998099999999
 20
257.6909469999999
 30
0.0
 11
148.4384699999999
 21
257.6909469999999
 31
0.0
  0
LINE
  5
9725
330
95D6
100
AcDbEntity
  8
1
  6
Continuous
100
AcDbLine
 10
135.52177
 20
256.0652469999999
 30
0.0
 11
135.52177
 21
251.4921469999999
 31
0.0
  0
LINE
  5
9726
330
95D6
100
AcDbEntity
  8
1
  6
Continuous
100
AcDbLine
 10
135.95067
 20
249.277747
 30
0.0
 11
137.7504599999997
 21
246.192347
 31
0.0
  0
LINE
  5
9727
330
95D6
100
AcDbEntity
  8
1
  6
Continuous
100
AcDbLine
 10
133.81637
 20
258.914547
 30
0.0
 11
122.12087
 21
267.305847
 31
0.0
  0
LINE
  5
9728
330
95D6
100
AcDbEntity
  8
1
  6
Continuous
100
AcDbLine
 10
133.81637
 20
143.1113469999999
 30
0.0
 11
122.12087
 21
134.7200469999999
 31
0.0
  0
LINE
  5
9729
330
95D6
100
AcDbEntity
  8
1
  6
Continuous
100
AcDbLine
 10
136.4998099999999
 20
144.334947
 30
0.0
 11
148.4384699999999
 21
144.334947
 31
0.0
  0
LINE
  5
972A
330
95D6
100
AcDbEntity
  8
1
  6
Continuous
100
AcDbLine
 10
135.52177
 20
145.9606469999999
 30
0.0
 11
135.52177
 21
150.533747
 31
0.0
  0
LINE
  5
972B
330
95D6
100
AcDbEntity
  8
1
  6
Continuous
100
AcDbLine
 10
136.9776099999999
 20
152.012947
 30
0.0
 11
148.4384699999999
 21
152.012947
 31
0.0
  0
LINE
  5
972C
330
95D6
100
AcDbEntity
  8
1
  6
Continuous
100
AcDbLine
 10
139.9126099999998
 20
157.0129469999999
 30
0.0
 11
148.4384699999999
 21
157.0129469999999
 31
0.0
  0
LINE
  5
972D
330
95D6
100
AcDbEntity
  8
1
  6
Continuous
100
AcDbLine
 10
135.95067
 20
152.7481469999998
 30
0.0
 11
137.7504599999997
 21
155.833547
 31
0.0
  0
LINE
  5
972E
330
95D6
100
AcDbEntity
  8
1
  6
Continuous
100
AcDbLine
 10
245.32837
 20
153.277747
 30
0.0
 11
250.82547
 21
154.995547
 31
0.0
  0
LINE
  5
972F
330
95D6
100
AcDbEntity
  8
4
  6
CENTER
100
AcDbLine
 10
256.32847
 20
261.9581469999999
 30
0.0
 11
256.32847
 21
231.244247
 31
0.0
  0
LINE
  5
9730
330
95D6
100
AcDbEntity
  8
1
  6
Continuous
100
AcDbLine
 10
269.8014699999998
 20
252.3629469999999
 30
0.0
 11
266.60447
 21
252.3629469999999
 31
0.0
  0
LINE
  5
9731
330
95D6
100
AcDbEntity
  8
1
  6
Continuous
100
AcDbLine
 10
275.45247
 20
256.362947
 30
0.0
 11
266.60447
 21
256.362947
 31
0.0
  0
LINE
  5
9732
330
95D6
100
AcDbEntity
  8
1
  6
Continuous
100
AcDbLine
 10
272.8524699999999
 20
249.762947
 30
0.0
 11
251.32847
 21
249.762947
 31
0.0
  0
LINE
  5
9733
330
95D6
100
AcDbEntity
  8
1
  6
Continuous
100
AcDbLine
 10
251.47147
 20
239.989347
 30
0.0
 11
261.27147
 21
240.6393469999999
 31
0.0
  0
LINE
  5
9734
330
95D6
100
AcDbEntity
  8
1
  6
Continuous
100
AcDbLine
 10
251.38547
 20
245.1865469999999
 30
0.0
 11
261.18547
 21
245.836547
 31
0.0
  0
LINE
  5
9735
330
95D6
100
AcDbEntity
  8
1
  6
Continuous
100
AcDbLine
 10
251.38547
 20
246.486547
 30
0.0
 11
261.18547
 21
247.136547
 31
0.0
  0
LINE
  5
9736
330
95D6
100
AcDbEntity
  8
1
  6
Continuous
100
AcDbLine
 10
251.47147
 20
243.889347
 30
0.0
 11
261.27147
 21
244.5393469999999
 31
0.0
  0
LINE
  5
9737
330
95D6
100
AcDbEntity
  8
1
  6
Continuous
100
AcDbLine
 10
251.47147
 20
242.589347
 30
0.0
 11
261.27147
 21
243.239347
 31
0.0
  0
LINE
  5
9738
330
95D6
100
AcDbEntity
  8
1
  6
Continuous
100
AcDbLine
 10
251.47147
 20
241.2893469999999
 30
0.0
 11
261.27147
 21
241.939347
 31
0.0
  0
LINE
  5
9739
330
95D6
100
AcDbEntity
  8
4
  6
CENTER
100
AcDbLine
 10
256.32847
 20
140.780447
 30
0.0
 11
256.32847
 21
170.7852469999999
 31
0.0
  0
LINE
  5
973A
330
95D6
100
AcDbEntity
  8
1
  6
Continuous
100
AcDbLine
 10
272.8284699999999
 20
145.662947
 30
0.0
 11
251.32847
 21
145.662947
 31
0.0
  0
LINE
  5
973B
330
95D6
100
AcDbEntity
  8
1
  6
Continuous
100
AcDbLine
 10
261.3284699999999
 20
144.4629469999999
 30
0.0
 11
261.3284699999999
 21
145.662947
 31
0.0
  0
LINE
  5
973C
330
95D6
100
AcDbEntity
  8
1
  6
Continuous
100
AcDbLine
 10
272.8284699999999
 20
149.662947
 30
0.0
 11
251.32847
 21
149.662947
 31
0.0
  0
LINE
  5
973D
330
95D6
100
AcDbEntity
  8
1
  6
Continuous
100
AcDbLine
 10
251.47147
 20
160.4365469999999
 30
0.0
 11
261.27147
 21
159.7865469999999
 31
0.0
  0
LINE
  5
973E
330
95D6
100
AcDbEntity
  8
1
  6
Continuous
100
AcDbLine
 10
251.29947
 20
152.6422469999999
 30
0.0
 11
261.09947
 21
151.992247
 31
0.0
  0
LINE
  5
973F
330
95D6
100
AcDbEntity
  8
1
  6
Continuous
100
AcDbLine
 10
251.29947
 20
151.3422469999999
 30
0.0
 11
261.09947
 21
150.692247
 31
0.0
  0
LINE
  5
9740
330
95D6
100
AcDbEntity
  8
1
  6
Continuous
100
AcDbLine
 10
251.47147
 20
156.5365469999998
 30
0.0
 11
261.27147
 21
155.886547
 31
0.0
  0
LINE
  5
9741
330
95D6
100
AcDbEntity
  8
1
  6
Continuous
100
AcDbLine
 10
251.47147
 20
157.836547
 30
0.0
 11
261.27147
 21
157.1865469999998
 31
0.0
  0
LINE
  5
9742
330
95D6
100
AcDbEntity
  8
1
  6
Continuous
100
AcDbLine
 10
251.47147
 20
159.136547
 30
0.0
 11
261.27147
 21
158.4865469999998
 31
0.0
  0
LINE
  5
9743
330
95D6
100
AcDbEntity
  8
1
  6
Continuous
100
AcDbLine
 10
251.32847
 20
161.912947
 30
0.0
 11
264.3284699999999
 21
161.912947
 31
0.0
  0
LINE
  5
9744
330
95D6
100
AcDbEntity
  8
1
  6
Continuous
100
AcDbLine
 10
251.32847
 20
165.912947
 30
0.0
 11
264.3284699999999
 21
165.912947
 31
0.0
  0
LINE
  5
9745
330
95D6
100
AcDbEntity
  8
1
  6
Continuous
100
AcDbLine
 10
251.47147
 20
160.4393469999999
 30
0.0
 11
253.32847
 21
160.5625469999999
 31
0.0
  0
LINE
  5
9746
330
95D6
100
AcDbEntity
  8
1
  6
Continuous
100
AcDbLine
 10
261.27147
 20
159.7865469999999
 30
0.0
 11
264.41447
 21
159.994947
 31
0.0
  0
LINE
  5
9747
330
95D6
100
AcDbEntity
  8
1
  6
Continuous
100
AcDbLine
 10
261.3284699999999
 20
144.4629469999999
 30
0.0
 11
251.32847
 21
144.4629469999999
 31
0.0
  0
LINE
  5
9748
330
95D6
100
AcDbEntity
  8
1
  6
Continuous
100
AcDbLine
 10
253.32847
 20
149.662947
 30
0.0
 11
253.32847
 21
151.207647
 31
0.0
  0
LINE
  5
9749
330
95D6
100
AcDbEntity
  8
1
  6
Continuous
100
AcDbLine
 10
259.3284699999999
 20
149.662947
 30
0.0
 11
259.3284699999999
 21
150.8096469999999
 31
0.0
  0
LINE
  5
974A
330
95D6
100
AcDbEntity
  8
1
  6
Continuous
100
AcDbLine
 10
253.32847
 20
166.912947
 30
0.0
 11
259.3284699999999
 21
166.912947
 31
0.0
  0
LINE
  5
974B
330
95D6
100
AcDbEntity
  8
1
  6
Continuous
100
AcDbLine
 10
259.3284699999999
 20
165.912947
 30
0.0
 11
259.3284699999999
 21
166.912947
 31
0.0
  0
LINE
  5
974C
330
95D6
100
AcDbEntity
  8
1
  6
Continuous
100
AcDbLine
 10
253.32847
 20
165.912947
 30
0.0
 11
253.32847
 21
166.912947
 31
0.0
  0
LINE
  5
974D
330
95D6
100
AcDbEntity
  8
1
  6
Continuous
100
AcDbLine
 10
253.32847
 20
160.3133469999999
 30
0.0
 11
253.32847
 21
161.912947
 31
0.0
  0
LINE
  5
974E
330
95D6
100
AcDbEntity
  8
1
  6
Continuous
100
AcDbLine
 10
259.3284699999999
 20
159.915447
 30
0.0
 11
259.3284699999999
 21
161.912947
 31
0.0
  0
LINE
  5
974F
330
95D6
100
AcDbEntity
  8
1
  6
Continuous
100
AcDbLine
 10
259.3284699999999
 20
160.9604469999998
 30
0.0
 11
264.3284699999999
 21
161.292147
 31
0.0
  0
LINE
  5
9750
330
95D6
100
AcDbEntity
  8
1
  6
Continuous
100
AcDbLine
 10
251.32847
 20
257.5629469999999
 30
0.0
 11
251.32847
 21
256.362947
 31
0.0
  0
LINE
  5
9751
330
95D6
100
AcDbEntity
  8
1
  6
Continuous
100
AcDbLine
 10
255.48647
 20
257.5629469999999
 30
0.0
 11
251.32847
 21
257.5629469999999
 31
0.0
  0
LINE
  5
9752
330
95D6
100
AcDbEntity
  8
1
  6
Continuous
100
AcDbLine
 10
259.3284699999999
 20
236.1129469999999
 30
0.0
 11
259.3284699999999
 21
235.112947
 31
0.0
  0
LINE
  5
9753
330
95D6
100
AcDbEntity
  8
1
  6
Continuous
100
AcDbLine
 10
253.32847
 20
235.112947
 30
0.0
 11
259.3284699999999
 21
235.112947
 31
0.0
  0
LINE
  5
9754
330
95D6
100
AcDbEntity
  8
1
  6
Continuous
100
AcDbLine
 10
253.32847
 20
235.112947
 30
0.0
 11
253.32847
 21
236.1129469999999
 31
0.0
  0
LINE
  5
9755
330
95D6
100
AcDbEntity
  8
1
  6
Continuous
100
AcDbLine
 10
275.00347
 20
273.362947
 30
0.0
 11
258.21447
 21
273.362947
 31
0.0
  0
LINE
  5
9756
330
95D6
100
AcDbEntity
  8
1
  6
Continuous
100
AcDbLine
 10
275.00347
 20
270.762947
 30
0.0
 11
257.60547
 21
270.762947
 31
0.0
  0
LINE
  5
9757
330
95D6
100
AcDbEntity
  8
1
  6
Continuous
100
AcDbLine
 10
275.00347
 20
273.362947
 30
0.0
 11
275.00347
 21
270.762947
 31
0.0
  0
LINE
  5
9758
330
95D6
100
AcDbEntity
  8
1
  6
Continuous
100
AcDbLine
 10
251.32847
 20
252.3629469999999
 30
0.0
 11
251.32847
 21
249.762947
 31
0.0
  0
LINE
  5
9759
330
95D6
100
AcDbEntity
  8
1
  6
Continuous
100
AcDbLine
 10
255.61447
 20
270.762947
 30
0.0
 11
255.61447
 21
252.3629469999999
 31
0.0
  0
LINE
  5
975A
330
95D6
100
AcDbEntity
  8
1
  6
Continuous
100
AcDbLine
 10
257.60547
 20
270.762947
 30
0.0
 11
257.60547
 21
252.3629469999999
 31
0.0
  0
LINE
  5
975B
330
95D6
100
AcDbEntity
  8
1
  6
Continuous
100
AcDbLine
 10
266.60447
 20
270.762947
 30
0.0
 11
266.60447
 21
252.3629469999999
 31
0.0
  0
LINE
  5
975C
330
95D6
100
AcDbEntity
  8
1
  6
Continuous
100
AcDbLine
 10
272.8284699999999
 20
256.362947
 30
0.0
 11
272.8284699999999
 21
252.3629469999999
 31
0.0
  0
LINE
  5
975D
330
95D6
100
AcDbEntity
  8
1
  6
Continuous
100
AcDbLine
 10
275.45247
 20
256.362947
 30
0.0
 11
275.45247
 21
252.3629469999999
 31
0.0
  0
LINE
  5
975E
330
95D6
100
AcDbEntity
  8
1
  6
Continuous
100
AcDbLine
 10
272.86747
 20
256.362947
 30
0.0
 11
272.86747
 21
252.3629469999999
 31
0.0
  0
LINE
  5
975F
330
95D6
100
AcDbEntity
  8
1
  6
Continuous
100
AcDbLine
 10
269.8014699999998
 20
256.362947
 30
0.0
 11
269.8014699999998
 21
249.762947
 31
0.0
  0
LINE
  5
9760
330
95D6
100
AcDbEntity
  8
1
  6
Continuous
100
AcDbLine
 10
255.61447
 20
256.362947
 30
0.0
 11
245.32837
 21
256.362947
 31
0.0
  0
LINE
  5
9761
330
95D6
100
AcDbEntity
  8
1
  6
Continuous
100
AcDbLine
 10
255.61447
 20
252.3629469999999
 30
0.0
 11
245.32837
 21
252.3629469999999
 31
0.0
  0
LINE
  5
9762
330
95D6
100
AcDbEntity
  8
1
  6
Continuous
100
AcDbLine
 10
250.02847
 20
252.3629469999999
 30
0.0
 11
250.02847
 21
249.8894469999999
 31
0.0
  0
LINE
  5
9763
330
95D6
100
AcDbEntity
  8
1
  6
Continuous
100
AcDbLine
 10
251.38547
 20
247.786547
 30
0.0
 11
261.27247
 21
248.442347
 31
0.0
  0
LINE
  5
9764
330
95D6
100
AcDbEntity
  8
1
  6
Continuous
100
AcDbLine
 10
251.29947
 20
249.0808470000001
 30
0.0
 11
261.1864699999999
 21
249.736647
 31
0.0
  0
LINE
  5
9765
330
95D6
100
AcDbEntity
  8
1
  6
Continuous
100
AcDbLine
 10
265.62847
 20
240.1129469999999
 30
0.0
 11
265.62847
 21
235.112947
 31
0.0
  0
LINE
  5
9766
330
95D6
100
AcDbEntity
  8
1
  6
Continuous
100
AcDbLine
 10
261.86647
 20
241.412947
 30
0.0
 11
264.3284699999999
 21
241.412947
 31
0.0
  0
LINE
  5
9767
330
95D6
100
AcDbEntity
  8
1
  6
Continuous
100
AcDbLine
 10
261.3284699999999
 20
235.112947
 30
0.0
 11
264.3284699999999
 21
235.112947
 31
0.0
  0
LINE
  5
9768
330
95D6
100
AcDbEntity
  8
1
  6
Continuous
100
AcDbLine
 10
261.3284699999999
 20
233.812947
 30
0.0
 11
264.3284699999999
 21
233.812947
 31
0.0
  0
LINE
  5
9769
330
95D6
100
AcDbEntity
  8
1
  6
Continuous
100
AcDbLine
 10
48.04857
 20
134.584947
 30
0.0
 11
37.03546999999999
 21
142.5387469999998
 31
0.0
  0
LINE
  5
976A
330
95D6
100
AcDbEntity
  8
1
  6
Continuous
100
AcDbLine
 10
264.3284699999999
 20
166.292147
 30
0.0
 11
264.3284699999999
 21
161.292147
 31
0.0
  0
LINE
  5
976B
330
95D6
100
AcDbEntity
  8
1
  6
Continuous
100
AcDbLine
 10
251.32847
 20
165.912947
 30
0.0
 11
251.32847
 21
161.912947
 31
0.0
  0
LINE
  5
976C
330
95D6
100
AcDbEntity
  8
1
  6
Continuous
100
AcDbLine
 10
261.3284699999999
 20
161.912947
 30
0.0
 11
261.3284699999999
 21
161.0931469999998
 31
0.0
  0
LINE
  5
976D
330
95D6
100
AcDbEntity
  8
1
  6
Continuous
100
AcDbLine
 10
272.8284699999999
 20
149.662947
 30
0.0
 11
272.8284699999999
 21
145.662947
 31
0.0
  0
LINE
  5
976E
330
95D6
100
AcDbEntity
  8
1
  6
Continuous
100
AcDbLine
 10
251.32847
 20
150.553147
 30
0.0
 11
251.32847
 21
143.053147
 31
0.0
  0
LINE
  5
976F
330
95D6
100
AcDbEntity
  8
1
  6
Continuous
100
AcDbLine
 10
251.32847
 20
256.362947
 30
0.0
 11
251.32847
 21
252.3629469999999
 31
0.0
  0
LINE
  5
9770
330
95D6
100
AcDbEntity
  8
1
  6
Continuous
100
AcDbLine
 10
251.32847
 20
150.553147
 30
0.0
 11
253.32847
 21
150.553147
 31
0.0
  0
LINE
  5
9771
330
95D6
100
AcDbEntity
  8
1
  6
Continuous
100
AcDbLine
 10
251.38547
 20
155.239347
 30
0.0
 11
261.18547
 21
154.589347
 31
0.0
  0
LINE
  5
9772
330
95D6
100
AcDbEntity
  8
1
  6
Continuous
100
AcDbLine
 10
251.38547
 20
153.939347
 30
0.0
 11
261.18547
 21
153.2893469999999
 31
0.0
  0
LINE
  5
9773
330
95D6
100
AcDbEntity
  8
1
  6
Continuous
100
AcDbLine
 10
250.02847
 20
150.553147
 30
0.0
 11
250.02847
 21
143.053147
 31
0.0
  0
LINE
  5
9774
330
95D6
100
AcDbEntity
  8
1
  6
Continuous
100
AcDbLine
 10
259.3284699999999
 20
150.692247
 30
0.0
 11
261.09947
 21
150.692247
 31
0.0
  0
LINE
  5
9775
330
95D6
100
AcDbEntity
  8
1
  6
Continuous
100
AcDbLine
 10
251.32847
 20
143.053147
 30
0.0
 11
254.32847
 21
143.053147
 31
0.0
  0
LINE
  5
9776
330
95D6
100
AcDbEntity
  8
1
  6
Continuous
100
AcDbLine
 10
251.32847
 20
141.7531469999999
 30
0.0
 11
254.32847
 21
141.7531469999999
 31
0.0
  0
LINE
  5
9777
330
95D6
100
AcDbEntity
  8
1
  6
Continuous
100
AcDbLine
 10
254.32847
 20
143.053147
 30
0.0
 11
254.32847
 21
141.7531469999999
 31
0.0
  0
LINE
  5
9778
330
95D6
100
AcDbEntity
  8
1
  6
Continuous
100
AcDbLine
 10
250.02847
 20
145.662947
 30
0.0
 11
245.32837
 21
145.662947
 31
0.0
  0
LINE
  5
9779
330
95D6
100
AcDbEntity
  8
1
  6
Continuous
100
AcDbLine
 10
250.02847
 20
149.662947
 30
0.0
 11
245.32837
 21
149.662947
 31
0.0
  0
LINE
  5
977A
330
95D6
100
AcDbEntity
  8
1
  6
Continuous
100
AcDbLine
 10
265.62847
 20
166.292147
 30
0.0
 11
265.62847
 21
161.292147
 31
0.0
  0
LINE
  5
977B
330
95D6
100
AcDbEntity
  8
1
  6
Continuous
100
AcDbLine
 10
261.3284699999999
 20
166.292147
 30
0.0
 11
264.3284699999999
 21
166.292147
 31
0.0
  0
LINE
  5
977C
330
95D6
100
AcDbEntity
  8
1
  6
Continuous
100
AcDbLine
 10
261.3284699999999
 20
167.592147
 30
0.0
 11
264.3284699999999
 21
167.592147
 31
0.0
  0
LINE
  5
977D
330
95D6
100
AcDbEntity
  8
4
  6
CENTER
100
AcDbLine
 10
332.4244699999999
 20
201.0129469999998
 30
0.0
 11
420.2804699999998
 21
201.0129469999998
 31
0.0
  0
LINE
  5
977E
330
95D6
100
AcDbEntity
  8
4
  6
CENTER
100
AcDbLine
 10
232.34577
 20
201.0129469999998
 30
0.0
 11
271.6894699999999
 21
201.0129469999998
 31
0.0
  0
LINE
  5
977F
330
95D6
100
AcDbEntity
  8
4
  6
CENTER
100
AcDbLine
 10
102.2810699999999
 20
201.0129469999998
 30
0.0
 11
191.0917699999999
 21
201.0129469999998
 31
0.0
  0
LINE
  5
9780
330
95D6
100
AcDbEntity
  8
1
  6
Continuous
100
AcDbLine
 10
48.04857
 20
267.440947
 30
0.0
 11
37.03546999999999
 21
259.487147
 31
0.0
  0
LINE
  5
9781
330
95D6
100
AcDbEntity
  8
4
  6
CENTER
100
AcDbLine
 10
146.4384699999999
 20
286.2962469999999
 30
0.0
 11
146.4384699999999
 21
115.446247
 31
0.0
  0
LINE
  5
9782
330
95D6
100
AcDbEntity
  8
1
  6
Continuous
100
AcDbLine
 10
51.04856999999999
 20
275.521447
 30
0.0
 11
48.04857
 21
276.512947
 31
0.0
  0
LINE
  5
9783
330
95D6
100
AcDbEntity
  8
1
  6
Continuous
100
AcDbLine
 10
51.84857
 20
275.012947
 30
0.0
 11
51.04856999999999
 21
275.012947
 31
0.0
  0
LINE
  5
9784
330
95D6
100
AcDbEntity
  8
1
  6
Continuous
100
AcDbLine
 10
51.84857
 20
275.012947
 30
0.0
 11
53.90886999999999
 21
271.578947
 31
0.0
  0
LINE
  5
9785
330
95D6
100
AcDbEntity
  8
1
  6
Continuous
100
AcDbLine
 10
51.04856999999999
 20
126.504447
 30
0.0
 11
48.04857
 21
125.5129469999999
 31
0.0
  0
LINE
  5
9786
330
95D6
100
AcDbEntity
  8
1
  6
Continuous
100
AcDbLine
 10
51.84857
 20
127.012947
 30
0.0
 11
53.90886999999999
 21
130.4469469999999
 31
0.0
  0
LINE
  5
9787
330
95D6
100
AcDbEntity
  8
1
  6
Continuous
100
AcDbLine
 10
241.8283699999999
 20
275.521447
 30
0.0
 11
244.82837
 21
276.512947
 31
0.0
  0
LINE
  5
9788
330
95D6
100
AcDbEntity
  8
1
  6
Continuous
100
AcDbLine
 10
241.02837
 20
275.012947
 30
0.0
 11
238.9680699999999
 21
271.578947
 31
0.0
  0
LINE
  5
9789
330
95D6
100
AcDbEntity
  8
1
  6
Continuous
100
AcDbLine
 10
241.02837
 20
127.012947
 30
0.0
 11
238.9680699999999
 21
130.4469469999999
 31
0.0
  0
LINE
  5
978A
330
95D6
100
AcDbEntity
  8
1
  6
Continuous
100
AcDbLine
 10
241.8283699999999
 20
126.504447
 30
0.0
 11
244.82837
 21
125.5129469999999
 31
0.0
  0
LINE
  5
978B
330
95D6
100
AcDbEntity
  8
1
  6
Continuous
100
AcDbLine
 10
113.43847
 20
336.456947
 30
0.0
 11
116.83977
 21
334.619947
 31
0.0
  0
LINE
  5
978C
330
95D6
100
AcDbEntity
  8
1
  6
Continuous
100
AcDbLine
 10
112.92997
 20
337.2569470000001
 30
0.0
 11
111.9384699999999
 21
340.256947
 31
0.0
  0
LINE
  5
978D
330
95D6
100
AcDbEntity
  8
1
  6
Continuous
100
AcDbLine
 10
179.9469699999999
 20
337.2569470000001
 30
0.0
 11
180.93847
 21
340.256947
 31
0.0
  0
LINE
  5
978E
330
95D6
100
AcDbEntity
  8
1
  6
Continuous
100
AcDbLine
 10
179.4384699999999
 20
336.456947
 30
0.0
 11
176.03717
 21
334.619947
 31
0.0
  0
LINE
  5
978F
330
95D6
100
AcDbEntity
  8
1
  6
Continuous
100
AcDbLine
 10
179.4384699999999
 20
337.2569470000001
 30
0.0
 11
179.4384699999999
 21
336.456947
 31
0.0
  0
LINE
  5
9790
330
95D6
100
AcDbEntity
  8
4
  6
CENTER
100
AcDbLine
 10
183.43847
 20
260.145547
 30
0.0
 11
183.43847
 21
232.092647
 31
0.0
  0
LINE
  5
9791
330
95D6
100
AcDbEntity
  8
1
  6
Continuous
100
AcDbLine
 10
202.1935699999999
 20
273.362947
 30
0.0
 11
202.1935699999999
 21
270.762947
 31
0.0
  0
LINE
  5
9792
330
95D6
100
AcDbEntity
  8
1
  6
Continuous
100
AcDbLine
 10
202.1935699999999
 20
273.362947
 30
0.0
 11
185.81047
 21
273.362947
 31
0.0
  0
LINE
  5
9793
330
95D6
100
AcDbEntity
  8
1
  6
Continuous
100
AcDbLine
 10
202.1935699999999
 20
270.762947
 30
0.0
 11
195.6063699999999
 21
270.762947
 31
0.0
  0
LINE
  5
9794
330
95D6
100
AcDbEntity
  8
1
  6
Continuous
100
AcDbLine
 10
195.6063699999999
 20
270.762947
 30
0.0
 11
195.6063699999999
 21
252.3629469999999
 31
0.0
  0
LINE
  5
9795
330
95D6
100
AcDbEntity
  8
1
  6
Continuous
100
AcDbLine
 10
183.21047
 20
270.762947
 30
0.0
 11
183.21047
 21
257.5629469999999
 31
0.0
  0
LINE
  5
9796
330
95D6
100
AcDbEntity
  8
1
  6
Continuous
100
AcDbLine
 10
180.6637699999998
 20
240.127447
 30
0.0
 11
188.38147
 21
240.6393469999999
 31
0.0
  0
LINE
  5
9797
330
95D6
100
AcDbEntity
  8
1
  6
Continuous
100
AcDbLine
 10
180.5858699999998
 20
245.325147
 30
0.0
 11
188.2954699999999
 21
245.836547
 31
0.0
  0
LINE
  5
9798
330
95D6
100
AcDbEntity
  8
1
  6
Continuous
100
AcDbLine
 10
180.56497
 20
246.623747
 30
0.0
 11
188.2954699999999
 21
247.136547
 31
0.0
  0
LINE
  5
9799
330
95D6
100
AcDbEntity
  8
1
  6
Continuous
100
AcDbLine
 10
180.6063699999999
 20
244.023647
 30
0.0
 11
188.38147
 21
244.5393469999999
 31
0.0
  0
LINE
  5
979A
330
95D6
100
AcDbEntity
  8
1
  6
Continuous
100
AcDbLine
 10
180.6260699999999
 20
242.724947
 30
0.0
 11
188.38147
 21
243.239347
 31
0.0
  0
LINE
  5
979B
330
95D6
100
AcDbEntity
  8
1
  6
Continuous
100
AcDbLine
 10
180.6452699999999
 20
241.426247
 30
0.0
 11
188.38147
 21
241.939347
 31
0.0
  0
LINE
  5
979C
330
95D6
100
AcDbEntity
  8
1
  6
Continuous
100
AcDbLine
 10
188.43847
 20
257.5629469999999
 30
0.0
 11
180.36427
 21
257.5629469999999
 31
0.0
  0
LINE
  5
979D
330
95D6
100
AcDbEntity
  8
1
  6
Continuous
100
AcDbLine
 10
186.43847
 20
236.1129469999999
 30
0.0
 11
186.43847
 21
235.112947
 31
0.0
  0
LINE
  5
979E
330
95D6
100
AcDbEntity
  8
1
  6
Continuous
100
AcDbLine
 10
180.72967
 20
235.112947
 30
0.0
 11
186.43847
 21
235.112947
 31
0.0
  0
LINE
  5
979F
330
95D6
100
AcDbEntity
  8
4
  6
CENTER
100
AcDbLine
 10
195.1935699999999
 20
278.599147
 30
0.0
 11
195.1935699999999
 21
264.4658469999999
 31
0.0
  0
LINE
  5
97A0
330
95D6
100
AcDbEntity
  8
1
  6
Continuous
100
AcDbLine
 10
180.5117699999999
 20
249.762947
 30
0.0
 11
193.00637
 21
249.762947
 31
0.0
  0
LINE
  5
97A1
330
95D6
100
AcDbEntity
  8
1
  6
Continuous
100
AcDbLine
 10
193.9351699999999
 20
270.762947
 30
0.0
 11
193.9351699999999
 21
252.3629469999999
 31
0.0
  0
LINE
  5
97A2
330
95D6
100
AcDbEntity
  8
1
  6
Continuous
100
AcDbLine
 10
180.5211699999999
 20
249.220847
 30
0.0
 11
188.2095699999999
 21
249.730847
 31
0.0
  0
LINE
  5
97A3
330
95D6
100
AcDbEntity
  8
1
  6
Continuous
100
AcDbLine
 10
180.5433699999999
 20
247.922347
 30
0.0
 11
188.2095699999999
 21
248.430847
 31
0.0
  0
LINE
  5
97A4
330
95D6
100
AcDbEntity
  8
1
  6
Continuous
100
AcDbLine
 10
180.5211699999999
 20
152.205047
 30
0.0
 11
188.2095699999999
 21
151.6950469999999
 31
0.0
  0
LINE
  5
97A5
330
95D6
100
AcDbEntity
  8
1
  6
Continuous
100
AcDbLine
 10
180.5433699999999
 20
153.5035469999999
 30
0.0
 11
188.2095699999999
 21
152.9950469999998
 31
0.0
  0
LINE
  5
97A6
330
95D6
100
AcDbEntity
  8
1
  6
Continuous
100
AcDbLine
 10
180.56497
 20
154.8021469999999
 30
0.0
 11
188.2954699999999
 21
154.2893469999999
 31
0.0
  0
LINE
  5
97A7
330
95D6
100
AcDbEntity
  8
1
  6
Continuous
100
AcDbLine
 10
180.58597
 20
156.1007469999998
 30
0.0
 11
188.2954699999999
 21
155.589347
 31
0.0
  0
LINE
  5
97A8
330
95D6
100
AcDbEntity
  8
1
  6
Continuous
100
AcDbLine
 10
180.6063699999999
 20
157.4022469999999
 30
0.0
 11
188.38147
 21
156.886547
 31
0.0
  0
LINE
  5
97A9
330
95D6
100
AcDbEntity
  8
1
  6
Continuous
100
AcDbLine
 10
180.6260699999999
 20
158.7009469999999
 30
0.0
 11
188.38147
 21
158.1865469999998
 31
0.0
  0
LINE
  5
97AA
330
95D6
100
AcDbEntity
  8
1
  6
Continuous
100
AcDbLine
 10
180.6452699999999
 20
159.999647
 30
0.0
 11
188.38147
 21
159.486547
 31
0.0
  0
LINE
  5
97AB
330
95D6
100
AcDbEntity
  8
1
  6
Continuous
100
AcDbLine
 10
180.6637699999998
 20
161.298447
 30
0.0
 11
188.38147
 21
160.7865469999999
 31
0.0
  0
LINE
  5
97AC
330
95D6
100
AcDbEntity
  8
1
  6
Continuous
100
AcDbLine
 10
188.43847
 20
144.4629469999999
 30
0.0
 11
180.36427
 21
144.4629469999999
 31
0.0
  0
LINE
  5
97AD
330
95D6
100
AcDbEntity
  8
1
  6
Continuous
100
AcDbLine
 10
180.38837
 20
145.662947
 30
0.0
 11
188.43847
 21
145.662947
 31
0.0
  0
LINE
  5
97AE
330
95D6
100
AcDbEntity
  8
1
  6
Continuous
100
AcDbLine
 10
188.43847
 20
144.4629469999999
 30
0.0
 11
188.43847
 21
149.662947
 31
0.0
  0
LINE
  5
97AF
330
95D6
100
AcDbEntity
  8
1
  6
Continuous
100
AcDbLine
 10
180.72967
 20
166.912947
 30
0.0
 11
186.43847
 21
166.912947
 31
0.0
  0
LINE
  5
97B0
330
95D6
100
AcDbEntity
  8
1
  6
Continuous
100
AcDbLine
 10
186.43847
 20
165.912947
 30
0.0
 11
186.43847
 21
166.912947
 31
0.0
  0
LINE
  5
97B1
330
95D6
100
AcDbEntity
  8
4
  6
CENTER
100
AcDbLine
 10
183.43847
 20
140.0677469999999
 30
0.0
 11
183.43847
 21
170.781647
 31
0.0
  0
LINE
  5
97B2
330
95D6
100
AcDbEntity
  8
1
  6
Continuous
100
AcDbLine
 10
180.46507
 20
149.662947
 30
0.0
 11
188.43847
 21
149.662947
 31
0.0
  0
LINE
  5
97B3
330
95D6
100
AcDbEntity
  8
1
  6
Continuous
100
AcDbLine
 10
186.43847
 20
149.662947
 30
0.0
 11
186.43847
 21
151.812547
 31
0.0
  0
LINE
  5
97B4
330
95D6
100
AcDbEntity
  8
1
  6
Continuous
100
AcDbLine
 10
186.43847
 20
160.915347
 30
0.0
 11
186.43847
 21
161.912947
 31
0.0
  0
LINE
  5
97B5
330
95D6
100
AcDbEntity
  8
4
  6
CENTER
100
AcDbLine
 10
268.0834699999999
 20
278.599147
 30
0.0
 11
268.0834699999999
 21
264.4658469999999
 31
0.0
  0
LINE
  5
97B6
330
95D6
100
AcDbEntity
  8
1
  6
Continuous
100
AcDbLine
 10
28.54846999999999
 20
240.1129469999999
 30
0.0
 11
28.54846999999999
 21
235.112947
 31
0.0
  0
LINE
  5
97B7
330
95D6
100
AcDbEntity
  8
1
  6
Continuous
100
AcDbLine
 10
31.54847
 20
240.1129469999999
 30
0.0
 11
28.54846999999999
 21
240.1129469999999
 31
0.0
  0
LINE
  5
97B8
330
95D6
100
AcDbEntity
  8
1
  6
Continuous
100
AcDbLine
 10
31.54847
 20
236.1129469999999
 30
0.0
 11
28.54846999999999
 21
236.1129469999999
 31
0.0
  0
LINE
  5
97B9
330
95D6
100
AcDbEntity
  8
1
  6
Continuous
100
AcDbLine
 10
20.04846999999999
 20
252.3629469999999
 30
0.0
 11
34.54847
 21
252.3629469999999
 31
0.0
  0
LINE
  5
97BA
330
95D6
100
AcDbEntity
  8
1
  6
Continuous
100
AcDbLine
 10
17.42447
 20
256.362947
 30
0.0
 11
34.80646999999999
 21
256.362947
 31
0.0
  0
LINE
  5
97BB
330
95D6
100
AcDbEntity
  8
1
  6
Continuous
100
AcDbLine
 10
20.02447
 20
249.762947
 30
0.0
 11
34.27347000000001
 21
249.762947
 31
0.0
  0
LINE
  5
97BC
330
95D6
100
AcDbEntity
  8
1
  6
Continuous
100
AcDbLine
 10
17.87347
 20
273.362947
 30
0.0
 11
34.66247
 21
273.362947
 31
0.0
  0
LINE
  5
97BD
330
95D6
100
AcDbEntity
  8
1
  6
Continuous
100
AcDbLine
 10
17.87347
 20
270.762947
 30
0.0
 11
26.27247
 21
270.762947
 31
0.0
  0
LINE
  5
97BE
330
95D6
100
AcDbEntity
  8
1
  6
Continuous
100
AcDbLine
 10
17.87347
 20
273.362947
 30
0.0
 11
17.87347
 21
270.762947
 31
0.0
  0
LINE
  5
97BF
330
95D6
100
AcDbEntity
  8
1
  6
Continuous
100
AcDbLine
 10
26.27247
 20
270.762947
 30
0.0
 11
26.27247
 21
256.362947
 31
0.0
  0
LINE
  5
97C0
330
95D6
100
AcDbEntity
  8
1
  6
Continuous
100
AcDbLine
 10
20.04846999999999
 20
256.362947
 30
0.0
 11
20.04846999999999
 21
252.3629469999999
 31
0.0
  0
LINE
  5
97C1
330
95D6
100
AcDbEntity
  8
1
  6
Continuous
100
AcDbLine
 10
17.42447
 20
256.362947
 30
0.0
 11
17.42447
 21
252.3629469999999
 31
0.0
  0
LINE
  5
97C2
330
95D6
100
AcDbEntity
  8
1
  6
Continuous
100
AcDbLine
 10
27.24847
 20
240.1129469999999
 30
0.0
 11
27.24847
 21
235.112947
 31
0.0
  0
LINE
  5
97C3
330
95D6
100
AcDbEntity
  8
1
  6
Continuous
100
AcDbLine
 10
31.54847
 20
241.412947
 30
0.0
 11
28.54846999999999
 21
241.412947
 31
0.0
  0
LINE
  5
97C4
330
95D6
100
AcDbEntity
  8
1
  6
Continuous
100
AcDbLine
 10
31.54847
 20
235.112947
 30
0.0
 11
28.54846999999999
 21
235.112947
 31
0.0
  0
LINE
  5
97C5
330
95D6
100
AcDbEntity
  8
1
  6
Continuous
100
AcDbLine
 10
31.54847
 20
233.812947
 30
0.0
 11
28.54846999999999
 21
233.812947
 31
0.0
  0
LINE
  5
97C6
330
95D6
100
AcDbEntity
  8
4
  6
CENTER
100
AcDbLine
 10
24.79347000000001
 20
278.599147
 30
0.0
 11
24.79347000000001
 21
264.4658469999999
 31
0.0
  0
LINE
  5
97C7
330
95D6
100
AcDbEntity
  8
1
  6
Continuous
100
AcDbLine
 10
37.26247
 20
270.762947
 30
0.0
 11
37.26247
 21
269.312447
 31
0.0
  0
LINE
  5
97C8
330
95D6
100
AcDbEntity
  8
1
  6
Continuous
100
AcDbLine
 10
27.94347
 20
270.762947
 30
0.0
 11
27.94347
 21
256.362947
 31
0.0
  0
LINE
  5
97C9
330
95D6
100
AcDbEntity
  8
1
  6
Continuous
100
AcDbLine
 10
31.51946999999999
 20
249.0808470000001
 30
0.0
 11
34.06347
 21
249.249547
 31
0.0
  0
LINE
  5
97CA
330
95D6
100
AcDbEntity
  8
1
  6
Continuous
100
AcDbLine
 10
31.60547
 20
247.786547
 30
0.0
 11
33.27947
 21
247.897547
 31
0.0
  0
LINE
  5
97CB
330
95D6
100
AcDbEntity
  8
1
  6
Continuous
100
AcDbLine
 10
31.60547
 20
246.486547
 30
0.0
 11
32.46647
 21
246.5436469999999
 31
0.0
  0
LINE
  5
97CC
330
95D6
100
AcDbEntity
  8
1
  6
Continuous
100
AcDbLine
 10
31.60547
 20
154.1393469999999
 30
0.0
 11
33.34147
 21
154.024247
 31
0.0
  0
LINE
  5
97CD
330
95D6
100
AcDbEntity
  8
1
  6
Continuous
100
AcDbLine
 10
28.54846999999999
 20
161.912947
 30
0.0
 11
28.54846999999999
 21
166.912947
 31
0.0
  0
LINE
  5
97CE
330
95D6
100
AcDbEntity
  8
1
  6
Continuous
100
AcDbLine
 10
31.54847
 20
161.912947
 30
0.0
 11
28.54846999999999
 21
161.912947
 31
0.0
  0
LINE
  5
97CF
330
95D6
100
AcDbEntity
  8
1
  6
Continuous
100
AcDbLine
 10
31.54847
 20
165.912947
 30
0.0
 11
28.54846999999999
 21
165.912947
 31
0.0
  0
LINE
  5
97D0
330
95D6
100
AcDbEntity
  8
1
  6
Continuous
100
AcDbLine
 10
20.04846999999999
 20
149.662947
 30
0.0
 11
34.54847
 21
149.662947
 31
0.0
  0
LINE
  5
97D1
330
95D6
100
AcDbEntity
  8
1
  6
Continuous
100
AcDbLine
 10
20.04846999999999
 20
145.662947
 30
0.0
 11
34.80646999999999
 21
145.662947
 31
0.0
  0
LINE
  5
97D2
330
95D6
100
AcDbEntity
  8
1
  6
Continuous
100
AcDbLine
 10
20.04846999999999
 20
145.662947
 30
0.0
 11
20.04846999999999
 21
149.662947
 31
0.0
  0
LINE
  5
97D3
330
95D6
100
AcDbEntity
  8
1
  6
Continuous
100
AcDbLine
 10
27.24847
 20
161.912947
 30
0.0
 11
27.24847
 21
166.912947
 31
0.0
  0
LINE
  5
97D4
330
95D6
100
AcDbEntity
  8
1
  6
Continuous
100
AcDbLine
 10
31.54847
 20
160.6129469999999
 30
0.0
 11
28.54846999999999
 21
160.6129469999999
 31
0.0
  0
LINE
  5
97D5
330
95D6
100
AcDbEntity
  8
1
  6
Continuous
100
AcDbLine
 10
31.54847
 20
166.912947
 30
0.0
 11
28.54846999999999
 21
166.912947
 31
0.0
  0
LINE
  5
97D6
330
95D6
100
AcDbEntity
  8
1
  6
Continuous
100
AcDbLine
 10
31.54847
 20
168.2129469999999
 30
0.0
 11
28.54846999999999
 21
168.2129469999999
 31
0.0
  0
LINE
  5
97D7
330
95D6
100
AcDbEntity
  8
1
  6
Continuous
100
AcDbLine
 10
31.51946999999999
 20
151.545047
 30
0.0
 11
34.49647000000001
 21
151.347647
 31
0.0
  0
LINE
  5
97D8
330
95D6
100
AcDbEntity
  8
1
  6
Continuous
100
AcDbLine
 10
31.60547
 20
152.839347
 30
0.0
 11
34.11146999999999
 21
152.673147
 31
0.0
  0
LINE
  5
97D9
330
95D6
100
AcDbEntity
  8
1
  6
Continuous
100
AcDbLine
 10
34.54847
 20
150.628047
 30
0.0
 11
34.54847
 21
147.402847
 31
0.0
  0
LINE
  5
97DA
330
95D6
100
AcDbEntity
  8
1
  6
Continuous
100
AcDbLine
 10
31.69147000000001
 20
155.436547
 30
0.0
 11
32.52747
 21
155.3810469999999
 31
0.0
  0
LINE
  5
97DB
330
95D6
100
AcDbEntity
  8
1
  6
Continuous
100
AcDbLine
 10
31.63047000000001
 20
156.7377469999998
 30
0.0
 11
31.87547
 21
156.7214469999998
 31
0.0
  0
LINE
  5
97DC
330
95D6
100
AcDbEntity
  8
4
  6
CENTER
100
AcDbLine
 10
146.4384699999999
 20
37.86894699999999
 30
0.0
 11
146.4384699999999
 21
73.293947
 31
0.0
  0
LINE
  5
97DD
330
95D6
100
AcDbEntity
  8
1
  6
Continuous
100
AcDbLine
 10
111.9384699999999
 20
61.768947
 30
0.0
 11
180.93847
 21
61.768947
 31
0.0
  0
LINE
  5
97DE
330
95D6
100
AcDbEntity
  8
1
  6
Continuous
100
AcDbLine
 10
113.43847
 20
64.76894699999999
 30
0.0
 11
113.43847
 21
65.56894699999999
 31
0.0
  0
LINE
  5
97DF
330
95D6
100
AcDbEntity
  8
1
  6
Continuous
100
AcDbLine
 10
151.83151
 20
45.26894699999998
 30
0.0
 11
146.8882259999998
 21
45.26894699999998
 31
0.0
  0
LINE
  5
97E0
330
95D6
100
AcDbEntity
  8
1
  6
Continuous
100
AcDbLine
 10
121.9742699999999
 20
61.768947
 30
0.0
 11
133.3322699999999
 21
50.08594699999999
 31
0.0
  0
LINE
  5
97E1
330
95D6
100
AcDbEntity
  8
1
  6
Continuous
100
AcDbLine
 10
167.04847
 20
51.57194699999998
 30
0.0
 11
171.8637699999999
 21
61.768947
 31
0.0
  0
LINE
  5
97E2
330
95D6
100
AcDbEntity
  8
1
  6
Continuous
100
AcDbLine
 10
171.4064699999999
 20
52.54094699999999
 30
0.0
 11
182.2792699999999
 21
55.13294699999999
 31
0.0
  0
LINE
  5
97E3
330
95D6
100
AcDbEntity
  8
1
  6
Continuous
100
AcDbLine
 10
169.0880699999999
 20
52.26894699999999
 30
0.0
 11
167.3776699999999
 21
52.26894699999999
 31
0.0
  0
LINE
  5
97E4
330
95D6
100
AcDbEntity
  8
4
  6
CENTER
100
AcDbLine
 10
158.6570769999999
 20
64.76894699999999
 30
0.0
 11
156.31636
 21
49.105947
 31
0.0
  0
LINE
  5
97E5
330
95D6
100
AcDbEntity
  8
1
  6
Continuous
100
AcDbLine
 10
134.49337
 20
46.00794699999998
 30
0.0
 11
144.38355
 21
44.529947
 31
0.0
  0
LINE
  5
97E6
330
95D6
100
AcDbEntity
  8
1
  6
Continuous
100
AcDbLine
 10
135.6607699999998
 20
58.59194699999999
 30
0.0
 11
134.49337
 21
46.00794699999998
 31
0.0
  0
LINE
  5
97E7
330
95D6
100
AcDbEntity
  8
1
  6
Continuous
100
AcDbLine
 10
146.9464379999998
 20
56.905947
 30
0.0
 11
144.38355
 21
44.529947
 31
0.0
  0
LINE
  5
97E8
330
95D6
100
AcDbEntity
  8
1
  6
Continuous
100
AcDbLine
 10
152.666997
 20
61.269266
 30
0.0
 11
151.9933899999998
 21
54.00794699999998
 31
0.0
  0
LINE
  5
97E9
330
95D6
100
AcDbEntity
  8
1
  6
Continuous
100
AcDbLine
 10
151.9933899999998
 20
54.00794699999998
 30
0.0
 11
161.8835699999999
 21
52.529947
 31
0.0
  0
LINE
  5
97EA
330
95D6
100
AcDbEntity
  8
1
  6
Continuous
100
AcDbLine
 10
163.693326
 20
61.268947
 30
0.0
 11
161.8835699999999
 21
52.529947
 31
0.0
  0
LINE
  5
97EB
330
95D6
100
AcDbEntity
  8
4
  6
CENTER
100
AcDbLine
 10
140.8247
 20
54.54394699999999
 30
0.0
 11
138.63779
 21
39.910947
 31
0.0
  0
LINE
  5
97EC
330
95D6
100
AcDbEntity
  8
1
  6
Continuous
100
AcDbLine
 10
148.9788899999998
 20
56.881947
 30
0.0
 11
149.938407
 21
61.268947
 31
0.0
  0
LINE
  5
97ED
330
95D6
100
AcDbEntity
  8
4
  6
CENTER
100
AcDbLine
 10
183.43847
 20
42.76894699999997
 30
0.0
 11
183.43847
 21
57.76894699999999
 31
0.0
  0
LINE
  5
97EE
330
95D6
100
AcDbEntity
  8
4
  6
CENTER
100
AcDbLine
 10
175.93847
 20
50.26894699999999
 30
0.0
 11
190.93847
 21
50.26894699999999
 31
0.0
  0
LINE
  5
97EF
330
95D6
100
AcDbEntity
  8
1
  6
Continuous
100
AcDbLine
 10
112.92997
 20
64.76894699999999
 30
0.0
 11
179.9469699999999
 21
64.76894699999999
 31
0.0
  0
LINE
  5
97F0
330
95D6
100
AcDbEntity
  8
1
  6
Continuous
100
AcDbLine
 10
175.3244699999999
 20
67.58594699999999
 30
0.0
 11
117.5524699999999
 21
67.58594699999999
 31
0.0
  0
LINE
  5
97F1
330
95D6
100
AcDbEntity
  8
1
  6
Continuous
100
AcDbLine
 10
150.4384699999999
 20
68.268947
 30
0.0
 11
165.83847
 21
68.268947
 31
0.0
  0
LINE
  5
97F2
330
95D6
100
AcDbEntity
  8
1
  6
Continuous
100
AcDbLine
 10
164.35317
 20
33.76894699999999
 30
0.0
 11
169.9405699999998
 21
33.76894699999999
 31
0.0
  0
LINE
  5
97F3
330
95D6
100
AcDbEntity
  8
1
  6
Continuous
100
AcDbLine
 10
162.0993699999999
 20
44.916947
 30
0.0
 11
166.92317
 21
47.397947
 31
0.0
  0
LINE
  5
97F4
330
95D6
100
AcDbEntity
  8
1
  6
Continuous
100
AcDbLine
 10
167.3804699999998
 20
46.50794699999997
 30
0.0
 11
168.13997
 21
46.89894699999999
 31
0.0
  0
LINE
  5
97F5
330
95D6
100
AcDbEntity
  8
1
  6
Continuous
100
AcDbLine
 10
169.9405699999998
 20
33.76894699999999
 30
0.0
 11
176.65447
 21
37.221947
 31
0.0
  0
LINE
  5
97F6
330
95D6
100
AcDbEntity
  8
1
  6
Continuous
100
AcDbLine
 10
176.65447
 20
37.221947
 30
0.0
 11
186.82607
 21
46.59094699999999
 31
0.0
  0
LINE
  5
97F7
330
95D6
100
AcDbEntity
  8
1
  6
Continuous
100
AcDbLine
 10
166.92317
 20
47.397947
 30
0.0
 11
167.3804699999998
 21
46.50794699999997
 31
0.0
  0
LINE
  5
97F8
330
95D6
100
AcDbEntity
  8
1
  6
Continuous
100
AcDbLine
 10
174.4947699999999
 20
50.166947
 30
0.0
 11
180.5964699999999
 21
54.382947
 31
0.0
  0
LINE
  5
97F9
330
95D6
100
AcDbEntity
  8
1
  6
Continuous
100
AcDbLine
 10
168.44257
 20
48.37394699999999
 30
0.0
 11
170.39767
 21
48.05994699999999
 31
0.0
  0
LINE
  5
97FA
330
95D6
100
AcDbEntity
  8
1
  6
Continuous
100
AcDbLine
 10
167.81277
 20
47.351947
 30
0.0
 11
169.9514699999998
 21
44.393947
 31
0.0
  0
LINE
  5
97FB
330
95D6
100
AcDbEntity
  8
1
  6
Continuous
100
AcDbLine
 10
169.9514699999998
 20
44.393947
 30
0.0
 11
171.0048699999999
 21
45.155947
 31
0.0
  0
LINE
  5
97FC
330
95D6
100
AcDbEntity
  8
1
  6
Continuous
100
AcDbLine
 10
169.30937
 20
47.499947
 30
0.0
 11
174.4947699999999
 21
50.166947
 31
0.0
  0
LINE
  5
97FD
330
95D6
100
AcDbEntity
  8
1
  6
Continuous
100
AcDbLine
 10
168.8661699999999
 20
48.112947
 30
0.0
 11
171.0048699999999
 21
45.155947
 31
0.0
  0
LINE
  5
97FE
330
95D6
100
AcDbEntity
  8
1
  6
Continuous
100
AcDbLine
 10
176.1701699999999
 20
36.07694699999999
 30
0.0
 11
183.21047
 21
41.983947
 31
0.0
  0
LINE
  5
97FF
330
95D6
100
AcDbEntity
  8
1
  6
Continuous
100
AcDbLine
 10
199.91307
 20
43.858947
 30
0.0
 11
193.9351699999999
 21
50.982947
 31
0.0
  0
LINE
  5
9800
330
95D6
100
AcDbEntity
  8
1
  6
Continuous
100
AcDbLine
 10
189.18847
 20
34.859947
 30
0.0
 11
183.21047
 21
41.983947
 31
0.0
  0
LINE
  5
9801
330
95D6
100
AcDbEntity
  8
1
  6
Continuous
100
AcDbLine
 10
171.8758699999999
 20
31.14494699999999
 30
0.0
 11
177.29037
 21
33.72994699999999
 31
0.0
  0
LINE
  5
9802
330
95D6
100
AcDbEntity
  8
1
  6
Continuous
100
AcDbLine
 10
171.8758699999999
 20
31.14494699999999
 30
0.0
 11
170.4885699999999
 21
34.050947
 31
0.0
  0
LINE
  5
9803
330
95D6
100
AcDbEntity
  8
1
  6
Continuous
100
AcDbLine
 10
177.29037
 20
33.72994699999999
 30
0.0
 11
175.82667
 21
36.79594699999999
 31
0.0
  0
LINE
  5
9804
330
95D6
100
AcDbEntity
  8
1
  6
Continuous
100
AcDbLine
 10
184.8817699999999
 20
39.99194699999998
 30
0.0
 11
195.6063699999999
 21
48.990947
 31
0.0
  0
LINE
  5
9805
330
95D6
100
AcDbEntity
  8
1
  6
Continuous
100
AcDbLine
 10
113.43847
 20
65.56894699999999
 30
0.0
 11
116.83977
 21
67.40594699999999
 31
0.0
  0
LINE
  5
9806
330
95D6
100
AcDbEntity
  8
1
  6
Continuous
100
AcDbLine
 10
112.92997
 20
64.76894699999999
 30
0.0
 11
111.9384699999999
 21
61.768947
 31
0.0
  0
LINE
  5
9807
330
95D6
100
AcDbEntity
  8
1
  6
Continuous
100
AcDbLine
 10
179.9469699999999
 20
64.76894699999999
 30
0.0
 11
180.93847
 21
61.768947
 31
0.0
  0
LINE
  5
9808
330
95D6
100
AcDbEntity
  8
1
  6
Continuous
100
AcDbLine
 10
179.4384699999999
 20
65.56894699999999
 30
0.0
 11
176.03717
 21
67.40594699999999
 31
0.0
  0
LINE
  5
9809
330
95D6
100
AcDbEntity
  8
1
  6
Continuous
100
AcDbLine
 10
179.4384699999999
 20
64.76894699999999
 30
0.0
 11
179.4384699999999
 21
65.56894699999999
 31
0.0
  0
LINE
  5
980A
330
95D6
100
AcDbEntity
  8
1
  6
Continuous
100
AcDbLine
 10
150.4384699999999
 20
333.756947
 30
0.0
 11
165.83847
 21
333.756947
 31
0.0
  0
LINE
  5
980B
330
95D6
100
AcDbEntity
  8
1
  6
Continuous
100
AcDbLine
 10
189.18847
 20
367.165947
 30
0.0
 11
183.21047
 21
360.0419469999998
 31
0.0
  0
LINE
  5
980C
330
95D6
100
AcDbEntity
  8
1
  6
Continuous
100
AcDbLine
 10
199.91307
 20
358.166947
 30
0.0
 11
193.9351699999999
 21
351.042947
 31
0.0
  0
LINE
  5
980D
330
95D6
100
AcDbEntity
  8
5
  6
PHANTOM
100
AcDbLine
 10
167.0876699999998
 20
323.291947
 30
0.0
 11
180.20687
 21
331.9189469999999
 31
0.0
  0
LINE
  5
980E
330
95D6
100
AcDbEntity
  8
5
  6
PHANTOM
100
AcDbLine
 10
165.1894699999998
 20
319.410947
 30
0.0
 11
181.4134699999999
 21
330.0789470000002
 31
0.0
  0
LINE
  5
980F
330
95D6
100
AcDbEntity
  8
5
  6
PHANTOM
100
AcDbLine
 10
165.75567
 20
83.43994700000001
 30
0.0
 11
178.6229699999999
 21
74.97894699999998
 31
0.0
  0
LINE
  5
9810
330
95D6
100
AcDbEntity
  8
5
  6
PHANTOM
100
AcDbLine
 10
166.41567
 20
78.98294699999998
 30
0.0
 11
164.4906699999999
 21
76.05594700000001
 31
0.0
  0
LINE
  5
9811
330
95D6
100
AcDbEntity
  8
5
  6
PHANTOM
100
AcDbLine
 10
175.6949699999999
 20
73.073947
 30
0.0
 11
172.0858699999998
 21
67.58594699999999
 31
0.0
  0
LINE
  5
9812
330
95D6
100
AcDbEntity
  8
5
  6
PHANTOM
100
AcDbLine
 10
182.4232699999998
 20
70.277947
 30
0.0
 11
180.20687
 21
70.10694699999999
 31
0.0
  0
LINE
  5
9813
330
95D6
100
AcDbEntity
  8
5
  6
PHANTOM
100
AcDbLine
 10
167.0876699999998
 20
78.733947
 30
0.0
 11
163.9613699999999
 21
79.89394699999998
 31
0.0
  0
LINE
  5
9814
330
95D6
100
AcDbEntity
  8
5
  6
PHANTOM
100
AcDbLine
 10
193.6816699999999
 20
35.86094699999998
 30
0.0
 11
192.60117
 21
45.09794699999999
 31
0.0
  0
LINE
  5
9815
330
95D6
100
AcDbEntity
  8
5
  6
PHANTOM
100
AcDbLine
 10
179.7764699999999
 20
34.234947
 30
0.0
 11
178.6959699999999
 21
43.471947
 31
0.0
  0
LINE
  5
9816
330
95D6
100
AcDbEntity
  8
5
  6
PHANTOM
100
AcDbLine
 10
167.0876699999998
 20
78.733947
 30
0.0
 11
180.20687
 21
70.10694699999999
 31
0.0
  0
LINE
  5
9817
330
95D6
100
AcDbEntity
  8
5
  6
PHANTOM
100
AcDbLine
 10
165.1894699999998
 20
82.614947
 30
0.0
 11
181.4134699999999
 21
71.94694699999998
 31
0.0
  0
LINE
  5
9818
330
95D6
100
AcDbEntity
  8
1
  6
Continuous
100
AcDbLine
 10
355.21847
 20
257.5129469999998
 30
0.0
 11
355.21847
 21
256.362947
 31
0.0
  0
LINE
  5
9819
330
95D6
100
AcDbEntity
  8
1
  6
Continuous
100
AcDbLine
 10
348.4824699999998
 20
145.662947
 30
0.0
 11
348.4824699999998
 21
136.6932469999998
 31
0.0
  0
LINE
  5
981A
330
95D6
100
AcDbEntity
  8
1
  6
Continuous
100
AcDbLine
 10
348.4824699999998
 20
150.7634469999999
 30
0.0
 11
348.4824699999998
 21
149.662947
 31
0.0
  0
LINE
  5
981B
330
95D6
100
AcDbEntity
  8
1
  6
Continuous
100
AcDbLine
 10
348.4824699999998
 20
160.073147
 30
0.0
 11
348.4824699999998
 21
152.064547
 31
0.0
  0
LINE
  5
981C
330
95D6
100
AcDbEntity
  8
1
  6
Continuous
100
AcDbLine
 10
348.4824699999998
 20
236.1129469999999
 30
0.0
 11
348.4824699999998
 21
165.912947
 31
0.0
  0
LINE
  5
981D
330
95D6
100
AcDbEntity
  8
1
  6
Continuous
100
AcDbLine
 10
33.54847
 20
149.662947
 30
0.0
 11
33.54847
 21
151.410547
 31
0.0
  0
LINE
  5
981E
330
95D6
100
AcDbEntity
  8
1
  6
Continuous
100
AcDbLine
 10
33.54847
 20
249.762947
 30
0.0
 11
33.54847
 21
249.215347
 31
0.0
  0
LINE
  5
981F
330
95D6
100
AcDbEntity
  8
1
  6
Continuous
100
AcDbLine
 10
54.54857
 20
263.0129469999999
 30
0.0
 11
54.54857
 21
139.0129469999999
 31
0.0
  0
LINE
  5
9820
330
95D6
100
AcDbEntity
  8
1
  6
Continuous
100
AcDbLine
 10
193.9351699999999
 20
351.042947
 30
0.0
 11
185.00707
 21
346.474947
 31
0.0
  0
LINE
  5
9821
330
95D6
100
AcDbEntity
  8
1
  6
Continuous
100
AcDbLine
 10
178.1213699999999
 20
348.9869469999999
 30
0.0
 11
177.90397
 21
349.5029469999999
 31
0.0
  0
LINE
  5
9822
330
95D6
100
AcDbEntity
  8
4
  6
CENTER
100
AcDbLine
 10
198.54077
 20
367.4219470000001
 30
0.0
 11
191.68707
 21
359.2539469999999
 31
0.0
  0
LINE
  5
9823
330
95D6
100
AcDbEntity
  8
4
  6
CENTER
100
AcDbLine
 10
191.19447
 20
366.7879469999999
 30
0.0
 11
199.2773699999999
 21
360.0059470000001
 31
0.0
  0
LINE
  5
9824
330
95D6
100
AcDbEntity
  8
4
  6
CENTER
100
AcDbLine
 10
187.4286699999999
 20
372.958947
 30
0.0
 11
186.10307
 21
361.625947
 31
0.0
  0
LINE
  5
9825
330
95D6
100
AcDbEntity
  8
4
  6
CENTER
100
AcDbLine
 10
192.16917
 20
367.3479469999999
 30
0.0
 11
180.86937
 21
368.6699469999999
 31
0.0
  0
LINE
  5
9826
330
95D6
100
AcDbEntity
  8
4
  6
CENTER
100
AcDbLine
 10
187.4862699999999
 20
28.574947
 30
0.0
 11
186.1781699999999
 21
39.75794699999998
 31
0.0
  0
LINE
  5
9827
330
95D6
100
AcDbEntity
  8
4
  6
CENTER
100
AcDbLine
 10
192.45687
 20
34.710947
 30
0.0
 11
180.69207
 21
33.334947
 31
0.0
  0
LINE
  5
9828
330
95D6
100
AcDbEntity
  8
4
  6
CENTER
100
AcDbLine
 10
198.66367
 20
34.45794699999999
 30
0.0
 11
191.8530699999998
 21
42.57394699999998
 31
0.0
  0
LINE
  5
9829
330
95D6
100
AcDbEntity
  8
4
  6
CENTER
100
AcDbLine
 10
190.7866699999999
 20
34.895947
 30
0.0
 11
199.87057
 21
42.517947
 31
0.0
  0
LINE
  5
982A
330
95D6
100
AcDbEntity
  8
1
  6
Continuous
100
AcDbLine
 10
193.9351699999999
 20
50.982947
 30
0.0
 11
185.00707
 21
55.550947
 31
0.0
  0
LINE
  5
982B
330
95D6
100
AcDbEntity
  8
1
  6
Continuous
100
AcDbLine
 10
54.54857
 20
139.0129469999999
 30
0.0
 11
54.12266999999999
 21
136.8836469999999
 31
0.0
  0
LINE
  5
982C
330
95D6
100
AcDbEntity
  8
1
  6
Continuous
100
AcDbLine
 10
54.54857
 20
263.0129469999999
 30
0.0
 11
54.12266999999999
 21
265.1422469999999
 31
0.0
  0
LINE
  5
982D
330
95D6
100
AcDbEntity
  8
1
  6
Continuous
100
AcDbLine
 10
238.32837
 20
263.0129469999999
 30
0.0
 11
238.32837
 21
139.0129469999999
 31
0.0
  0
LINE
  5
982E
330
95D6
100
AcDbEntity
  8
1
  6
Continuous
100
AcDbLine
 10
238.32837
 20
263.0129469999999
 30
0.0
 11
238.75427
 21
265.1422469999999
 31
0.0
  0
LINE
  5
982F
330
95D6
100
AcDbEntity
  8
1
  6
Continuous
100
AcDbLine
 10
238.32837
 20
139.0129469999999
 30
0.0
 11
238.75427
 21
136.8836469999999
 31
0.0
  0
ARC
  5
9830
330
95D6
100
AcDbEntity
  8
1
  6
Continuous
100
AcDbCircle
 10
2896.93847
 20
201.0129469999998
 30
0.0
 40
2783.5
100
AcDbArc
 50
178.678
 51
181.322
  0
ARC
  5
9831
330
95D6
100
AcDbEntity
  8
1
  6
Continuous
100
AcDbCircle
 10
2896.93847
 20
201.0129469999998
 30
0.0
 40
2784.0
100
AcDbArc
 50
178.678
 51
181.322
  0
ARC
  5
9832
330
95D6
100
AcDbEntity
  8
1
  6
Continuous
100
AcDbCircle
 10
2896.93847
 20
201.0129469999998
 30
0.0
 40
2785.0
100
AcDbArc
 50
178.678
 51
181.322
  0
ARC
  5
9833
330
95D6
100
AcDbEntity
  8
1
  6
Continuous
100
AcDbCircle
 10
124.17697
 20
265.0129469999999
 30
0.0
 40
10.0
100
AcDbArc
 50
90.0
 51
178.678
  0
ARC
  5
9834
330
95D6
100
AcDbEntity
  8
1
  6
Continuous
100
AcDbCircle
 10
124.17697
 20
265.0129469999999
 30
0.0
 40
10.5
100
AcDbArc
 50
90.0
 51
178.678
  0
ARC
  5
9835
330
95D6
100
AcDbEntity
  8
1
  6
Continuous
100
AcDbCircle
 10
124.17697
 20
265.0129469999999
 30
0.0
 40
11.5
100
AcDbArc
 50
90.0
 51
178.678
  0
ARC
  5
9836
330
95D6
100
AcDbEntity
  8
1
  6
Continuous
100
AcDbCircle
 10
168.69997
 20
265.0129469999999
 30
0.0
 40
11.5
100
AcDbArc
 50
1.322249999999999
 51
90.0
  0
ARC
  5
9837
330
95D6
100
AcDbEntity
  8
1
  6
Continuous
100
AcDbCircle
 10
168.69997
 20
265.0129469999999
 30
0.0
 40
10.0
100
AcDbArc
 50
1.322249999999999
 51
90.0
  0
ARC
  5
9838
330
95D6
100
AcDbEntity
  8
1
  6
Continuous
100
AcDbCircle
 10
168.69997
 20
265.0129469999999
 30
0.0
 40
10.5
100
AcDbArc
 50
1.322249999999999
 51
90.0
  0
ARC
  5
9839
330
95D6
100
AcDbEntity
  8
1
  6
Continuous
100
AcDbCircle
 10
124.17697
 20
137.0129469999999
 30
0.0
 40
11.5
100
AcDbArc
 50
181.322
 51
270.0
  0
ARC
  5
983A
330
95D6
100
AcDbEntity
  8
1
  6
Continuous
100
AcDbCircle
 10
124.17697
 20
137.0129469999999
 30
0.0
 40
10.0
100
AcDbArc
 50
181.322
 51
270.0
  0
ARC
  5
983B
330
95D6
100
AcDbEntity
  8
1
  6
Continuous
100
AcDbCircle
 10
124.17697
 20
137.0129469999999
 30
0.0
 40
10.5
100
AcDbArc
 50
181.322
 51
270.0
  0
ARC
  5
983C
330
95D6
100
AcDbEntity
  8
1
  6
Continuous
100
AcDbCircle
 10
168.69997
 20
137.0129469999999
 30
0.0
 40
11.5
100
AcDbArc
 50
270.0
 51
358.678
  0
ARC
  5
983D
330
95D6
100
AcDbEntity
  8
1
  6
Continuous
100
AcDbCircle
 10
168.69997
 20
137.0129469999999
 30
0.0
 40
10.0
100
AcDbArc
 50
270.0
 51
358.678
  0
ARC
  5
983E
330
95D6
100
AcDbEntity
  8
1
  6
Continuous
100
AcDbCircle
 10
168.69997
 20
137.0129469999999
 30
0.0
 40
10.5
100
AcDbArc
 50
270.0
 51
358.678
  0
ARC
  5
983F
330
95D6
100
AcDbEntity
  8
1
  6
Continuous
100
AcDbCircle
 10
-2604.06153
 20
201.0129469999998
 30
0.0
 40
2785.0
100
AcDbArc
 50
358.678
 51
1.322249999999999
  0
ARC
  5
9840
330
95D6
100
AcDbEntity
  8
1
  6
Continuous
100
AcDbCircle
 10
-2604.06153
 20
201.0129469999998
 30
0.0
 40
2784.0
100
AcDbArc
 50
358.678
 51
1.322249999999999
  0
ARC
  5
9841
330
95D6
100
AcDbEntity
  8
1
  6
Continuous
100
AcDbCircle
 10
-2604.06153
 20
201.0129469999998
 30
0.0
 40
2783.5
100
AcDbArc
 50
358.678
 51
1.322249999999999
  0
ARC
  5
9842
330
95D6
100
AcDbEntity
  8
1
  6
Continuous
100
AcDbCircle
 10
122.9384699999999
 20
266.012947
 30
0.0
 40
2.5
100
AcDbArc
 50
90.0
 51
180.0
  0
ARC
  5
9843
330
95D6
100
AcDbEntity
  8
1
  6
Continuous
100
AcDbCircle
 10
122.9384699999999
 20
266.012947
 30
0.0
 40
4.5
100
AcDbArc
 50
90.0
 51
180.0
  0
ARC
  5
9844
330
95D6
100
AcDbEntity
  8
1
  6
Continuous
100
AcDbCircle
 10
122.9384699999999
 20
136.0129469999999
 30
0.0
 40
4.5
100
AcDbArc
 50
180.0
 51
270.0
  0
ARC
  5
9845
330
95D6
100
AcDbEntity
  8
1
  6
Continuous
100
AcDbCircle
 10
122.9384699999999
 20
136.0129469999999
 30
0.0
 40
2.5
100
AcDbArc
 50
180.0
 51
270.0
  0
ARC
  5
9846
330
95D6
100
AcDbEntity
  8
1
  6
Continuous
100
AcDbCircle
 10
169.9384699999999
 20
266.012947
 30
0.0
 40
4.5
100
AcDbArc
 50
0.0
 51
90.0
  0
ARC
  5
9847
330
95D6
100
AcDbEntity
  8
1
  6
Continuous
100
AcDbCircle
 10
169.9384699999999
 20
266.012947
 30
0.0
 40
2.5
100
AcDbArc
 50
0.0
 51
90.0
  0
ARC
  5
9848
330
95D6
100
AcDbEntity
  8
1
  6
Continuous
100
AcDbCircle
 10
169.9384699999999
 20
136.0129469999999
 30
0.0
 40
4.5
100
AcDbArc
 50
270.0
 51
0.0
  0
ARC
  5
9849
330
95D6
100
AcDbEntity
  8
1
  6
Continuous
100
AcDbCircle
 10
169.9384699999999
 20
136.0129469999999
 30
0.0
 40
2.5
100
AcDbArc
 50
270.0
 51
0.0
  0
ARC
  5
984A
330
95D6
100
AcDbEntity
  8
1
  6
Continuous
100
AcDbCircle
 10
146.8882259999998
 20
335.756947
 30
0.0
 40
21.0
100
AcDbArc
 50
90.0
 51
96.35620000000001
  0
ARC
  5
984B
330
95D6
100
AcDbEntity
  8
1
  6
Continuous
100
AcDbCircle
 10
157.1017699999998
 20
345.7569470000001
 30
0.0
 40
11.0
100
AcDbArc
 50
25.2777
 51
64.74070000000001
  0
ARC
  5
984C
330
95D6
100
AcDbEntity
  8
1
  6
Continuous
100
AcDbCircle
 10
183.43847
 20
351.7569470000001
 30
0.0
 40
5.0
100
AcDbArc
 50
235.361
 51
47.35019999999999
  0
ARC
  5
984D
330
95D6
100
AcDbEntity
  8
1
  6
Continuous
100
AcDbCircle
 10
169.0880699999999
 20
339.756947
 30
0.0
 40
10.0
100
AcDbArc
 50
76.59480000000002
 51
90.0
  0
ARC
  5
984E
330
95D6
100
AcDbEntity
  8
1
  6
Continuous
100
AcDbCircle
 10
137.6342399999997
 20
347.7569470000001
 30
0.0
 40
6.0
100
AcDbArc
 50
118.507
 51
135.8069999999999
  0
ARC
  5
984F
330
95D6
100
AcDbEntity
  8
1
  6
Continuous
100
AcDbCircle
 10
138.23299
 20
342.792947
 30
0.0
 40
11.0
100
AcDbArc
 50
12.3391
 51
46.7573
  0
ARC
  5
9850
330
95D6
100
AcDbEntity
  8
1
  6
Continuous
100
AcDbCircle
 10
29.54847
 20
251.397847
 30
0.0
 40
5.0
100
AcDbArc
 50
329.036
 51
0.0
  0
ARC
  5
9851
330
95D6
100
AcDbEntity
  8
1
  6
Continuous
100
AcDbCircle
 10
37.54847
 20
243.3510469999999
 30
0.0
 40
6.0
100
AcDbArc
 50
149.036
 51
180.0
  0
ARC
  5
9852
330
95D6
100
AcDbEntity
  8
1
  6
Continuous
100
AcDbCircle
 10
142.2489899999999
 20
344.417947
 30
0.0
 40
6.66136
100
AcDbArc
 50
188.4999999999998
 51
218.66
  0
ARC
  5
9853
330
95D6
100
AcDbEntity
  8
1
  6
Continuous
100
AcDbCircle
 10
140.3582499999999
 20
344.135947
 30
0.0
 40
6.66136
100
AcDbArc
 50
324.389
 51
14.9
  0
ARC
  5
9854
330
95D6
100
AcDbEntity
  8
1
  6
Continuous
100
AcDbCircle
 10
37.54847
 20
158.674847
 30
0.0
 40
6.0
100
AcDbArc
 50
180.0
 51
210.964
  0
ARC
  5
9855
330
95D6
100
AcDbEntity
  8
1
  6
Continuous
100
AcDbCircle
 10
29.54847
 20
150.628047
 30
0.0
 40
5.0
100
AcDbArc
 50
0.0
 51
30.9638
  0
ARC
  5
9856
330
95D6
100
AcDbEntity
  8
1
  6
Continuous
100
AcDbCircle
 10
-2374.281530000001
 20
201.0129469999998
 30
0.0
 40
2785.0
100
AcDbArc
 50
358.678
 51
1.322249999999999
  0
ARC
  5
9857
330
95D6
100
AcDbEntity
  8
1
  6
Continuous
100
AcDbCircle
 10
398.47947
 20
265.0129469999999
 30
0.0
 40
11.5
100
AcDbArc
 50
1.322249999999999
 51
90.0
  0
ARC
  5
9858
330
95D6
100
AcDbEntity
  8
1
  6
Continuous
100
AcDbCircle
 10
353.95647
 20
265.0129469999999
 30
0.0
 40
11.5
100
AcDbArc
 50
90.0
 51
178.678
  0
ARC
  5
9859
330
95D6
100
AcDbEntity
  8
1
  6
Continuous
100
AcDbCircle
 10
3126.71847
 20
201.0129469999998
 30
0.0
 40
2785.0
100
AcDbArc
 50
178.678
 51
178.837
  0
CIRCLE
  5
985A
330
95D6
100
AcDbEntity
  8
1
  6
Continuous
100
AcDbCircle
 10
365.71847
 20
264.012947
 30
0.0
 40
5.0
  0
CIRCLE
  5
985B
330
95D6
100
AcDbEntity
  8
1
  6
Continuous
100
AcDbCircle
 10
385.71847
 20
264.012947
 30
0.0
 40
5.0
  0
CIRCLE
  5
985C
330
95D6
100
AcDbEntity
  8
2
  6
Continuous
100
AcDbCircle
 10
385.71847
 20
264.012947
 30
0.0
 40
3.0
  0
CIRCLE
  5
985D
330
95D6
100
AcDbEntity
  8
2
  6
Continuous
100
AcDbCircle
 10
365.71847
 20
264.012947
 30
0.0
 40
3.0
  0
CIRCLE
  5
985E
330
95D6
100
AcDbEntity
  8
1
  6
Continuous
100
AcDbCircle
 10
385.71847
 20
264.012947
 30
0.0
 40
2.458499999999999
  0
CIRCLE
  5
985F
330
95D6
100
AcDbEntity
  8
1
  6
Continuous
100
AcDbCircle
 10
365.71847
 20
264.012947
 30
0.0
 40
2.458499999999999
  0
ARC
  5
9860
330
95D6
100
AcDbEntity
  8
1
  6
Continuous
100
AcDbCircle
 10
3126.71847
 20
201.0129469999998
 30
0.0
 40
2785.0
100
AcDbArc
 50
179.298
 51
180.7019999999999
  0
ARC
  5
9861
330
95D6
100
AcDbEntity
  8
1
  6
Continuous
100
AcDbCircle
 10
169.33847
 20
265.5129469999998
 30
0.0
 40
2.5
100
AcDbArc
 50
0.0
 51
90.0
  0
ARC
  5
9862
330
95D6
100
AcDbEntity
  8
1
  6
Continuous
100
AcDbCircle
 10
150.93847
 20
265.5129469999998
 30
0.0
 40
2.5
100
AcDbArc
 50
90.0
 51
180.0
  0
ARC
  5
9863
330
95D6
100
AcDbEntity
  8
1
  6
Continuous
100
AcDbCircle
 10
169.33847
 20
136.512947
 30
0.0
 40
2.5
100
AcDbArc
 50
270.0
 51
0.0
  0
ARC
  5
9864
330
95D6
100
AcDbEntity
  8
1
  6
Continuous
100
AcDbCircle
 10
150.93847
 20
136.512947
 30
0.0
 40
2.5
100
AcDbArc
 50
180.0
 51
270.0
  0
ARC
  5
9865
330
95D6
100
AcDbEntity
  8
1
  6
Continuous
100
AcDbCircle
 10
329.6504699999999
 20
252.3629469999999
 30
0.0
 40
2.6
100
AcDbArc
 50
180.0
 51
270.0
  0
ARC
  5
9866
330
95D6
100
AcDbEntity
  8
1
  6
Continuous
100
AcDbCircle
 10
336.84647
 20
270.762947
 30
0.0
 40
2.6
100
AcDbArc
 50
0.0
 51
90.0
  0
ARC
  5
9867
330
95D6
100
AcDbEntity
  8
1
  6
Continuous
100
AcDbCircle
 10
3126.71847
 20
201.0129469999998
 30
0.0
 40
2782.0
100
AcDbArc
 50
179.019
 51
179.1629999999999
  0
ARC
  5
9868
330
95D6
100
AcDbEntity
  8
1
  6
Continuous
100
AcDbCircle
 10
351.7804699999999
 20
250.762947
 30
0.0
 40
1.0
100
AcDbArc
 50
180.0
 51
270.0
  0
ARC
  5
9869
330
95D6
100
AcDbEntity
  8
1
  6
Continuous
100
AcDbCircle
 10
346.3664699999998
 20
250.762947
 30
0.0
 40
1.0
100
AcDbArc
 50
180.0
 51
270.0
  0
ARC
  5
986A
330
95D6
100
AcDbEntity
  8
1
  6
Continuous
100
AcDbCircle
 10
354.7784700000002
 20
250.762947
 30
0.0
 40
1.0
100
AcDbArc
 50
270.0
 51
0.0
  0
ARC
  5
986B
330
95D6
100
AcDbEntity
  8
1
  6
Continuous
100
AcDbCircle
 10
334.31847
 20
241.037947
 30
0.0
 40
0.65
100
AcDbArc
 50
90.0
 51
270.0
  0
ARC
  5
986C
330
95D6
100
AcDbEntity
  8
1
  6
Continuous
100
AcDbCircle
 10
334.31847
 20
244.937947
 30
0.0
 40
0.65
100
AcDbArc
 50
90.0
 51
270.0
  0
ARC
  5
986D
330
95D6
100
AcDbEntity
  8
1
  6
Continuous
100
AcDbCircle
 10
334.31847
 20
243.637947
 30
0.0
 40
0.65
100
AcDbArc
 50
90.0
 51
270.0
  0
ARC
  5
986E
330
95D6
100
AcDbEntity
  8
1
  6
Continuous
100
AcDbCircle
 10
334.31847
 20
242.3379469999999
 30
0.0
 40
0.65
100
AcDbArc
 50
90.0
 51
270.0
  0
ARC
  5
986F
330
95D6
100
AcDbEntity
  8
1
  6
Continuous
100
AcDbCircle
 10
334.31847
 20
248.837947
 30
0.0
 40
0.65
100
AcDbArc
 50
90.0
 51
270.0
  0
ARC
  5
9870
330
95D6
100
AcDbEntity
  8
1
  6
Continuous
100
AcDbCircle
 10
334.31847
 20
247.537947
 30
0.0
 40
0.65
100
AcDbArc
 50
90.0
 51
270.0
  0
ARC
  5
9871
330
95D6
100
AcDbEntity
  8
1
  6
Continuous
100
AcDbCircle
 10
334.31847
 20
246.237947
 30
0.0
 40
0.65
100
AcDbArc
 50
90.0
 51
270.0
  0
ARC
  5
9872
330
95D6
100
AcDbEntity
  8
1
  6
Continuous
100
AcDbCircle
 10
344.1184699999998
 20
241.687947
 30
0.0
 40
0.65
100
AcDbArc
 50
270.0
 51
90.0
  0
ARC
  5
9873
330
95D6
100
AcDbEntity
  8
1
  6
Continuous
100
AcDbCircle
 10
344.1184699999998
 20
246.887947
 30
0.0
 40
0.65
100
AcDbArc
 50
270.0
 51
90.0
  0
ARC
  5
9874
330
95D6
100
AcDbEntity
  8
1
  6
Continuous
100
AcDbCircle
 10
344.1184699999998
 20
248.1879469999999
 30
0.0
 40
0.65
100
AcDbArc
 50
270.0
 51
39.86610000000001
  0
ARC
  5
9875
330
95D6
100
AcDbEntity
  8
1
  6
Continuous
100
AcDbCircle
 10
344.1184699999998
 20
245.587947
 30
0.0
 40
0.65
100
AcDbArc
 50
270.0
 51
90.0
  0
ARC
  5
9876
330
95D6
100
AcDbEntity
  8
1
  6
Continuous
100
AcDbCircle
 10
344.1184699999998
 20
244.287947
 30
0.0
 40
0.65
100
AcDbArc
 50
270.0
 51
90.0
  0
ARC
  5
9877
330
95D6
100
AcDbEntity
  8
1
  6
Continuous
100
AcDbCircle
 10
344.1184699999998
 20
242.9879469999999
 30
0.0
 40
0.65
100
AcDbArc
 50
270.0
 51
90.0
  0
ARC
  5
9878
330
95D6
100
AcDbEntity
  8
5
  6
PHANTOM
100
AcDbCircle
 10
182.44287
 20
331.248947
 30
0.0
 40
0.5
100
AcDbArc
 50
314.297
 51
92.23609999999998
  0
ARC
  5
9879
330
95D6
100
AcDbEntity
  8
5
  6
PHANTOM
100
AcDbCircle
 10
164.6568699999999
 20
320.256947
 30
0.0
 40
2.0
100
AcDbArc
 50
110.3489999999999
 51
303.3279999999999
  0
ARC
  5
987A
330
95D6
100
AcDbEntity
  8
5
  6
PHANTOM
100
AcDbCircle
 10
183.43847
 20
351.7569470000001
 30
0.0
 40
32.0
100
AcDbArc
 50
214.229
 51
233.6929999999999
  0
ARC
  5
987B
330
95D6
100
AcDbEntity
  8
1
  6
Continuous
100
AcDbCircle
 10
164.35317
 20
355.756947
 30
0.0
 40
12.5
100
AcDbArc
 50
90.0
 51
168.163
  0
ARC
  5
987C
330
95D6
100
AcDbEntity
  8
5
  6
PHANTOM
100
AcDbCircle
 10
112.95397
 20
402.4629469999998
 30
0.0
 40
100.0
100
AcDbArc
 50
311.0479999999999
 51
314.297
  0
ARC
  5
987D
330
95D6
100
AcDbEntity
  8
1
  6
Continuous
100
AcDbCircle
 10
168.33947
 20
354.292947
 30
0.0
 40
0.65
100
AcDbArc
 50
144.13
 51
324.1299999999998
  0
ARC
  5
987E
330
95D6
100
AcDbEntity
  8
1
  6
Continuous
100
AcDbCircle
 10
353.6674699999999
 20
240.306047
 30
0.0
 40
1.3
100
AcDbArc
 50
0.0
 51
86.20529999999998
  0
ARC
  5
987F
330
95D6
100
AcDbEntity
  8
1
  6
Continuous
100
AcDbCircle
 10
353.6674699999999
 20
235.3060469999999
 30
0.0
 40
1.3
100
AcDbArc
 50
270.0
 51
0.0
  0
ARC
  5
9880
330
95D6
100
AcDbEntity
  8
1
  6
Continuous
100
AcDbCircle
 10
353.6674699999999
 20
250.2755469999999
 30
0.0
 40
1.3
100
AcDbArc
 50
273.795
 51
336.775
  0
ARC
  5
9881
330
95D6
100
AcDbEntity
  8
1
  6
Continuous
100
AcDbCircle
 10
353.6674699999999
 20
256.472747
 30
0.0
 40
1.3
100
AcDbArc
 50
0.0
 51
90.0
  0
ARC
  5
9882
330
95D6
100
AcDbEntity
  8
1
  6
Continuous
100
AcDbCircle
 10
364.44847
 20
264.012947
 30
0.0
 40
5.0
100
AcDbArc
 50
90.0
 51
270.0
  0
ARC
  5
9883
330
95D6
100
AcDbEntity
  8
1
  6
Continuous
100
AcDbCircle
 10
383.21847
 20
264.012947
 30
0.0
 40
5.0
100
AcDbArc
 50
89.60970000000001
 51
270.3899999999998
  0
ARC
  5
9884
330
95D6
100
AcDbEntity
  8
1
  6
Continuous
100
AcDbCircle
 10
344.16147
 20
152.636547
 30
0.0
 40
0.65
100
AcDbArc
 50
320.134
 51
90.0
  0
ARC
  5
9885
330
95D6
100
AcDbEntity
  8
1
  6
Continuous
100
AcDbCircle
 10
353.6674699999999
 20
166.7198469999999
 30
0.0
 40
1.3
100
AcDbArc
 50
0.0
 51
90.0
  0
ARC
  5
9886
330
95D6
100
AcDbEntity
  8
1
  6
Continuous
100
AcDbCircle
 10
353.6674699999999
 20
150.5503469999998
 30
0.0
 40
1.3
100
AcDbArc
 50
0.0
 51
86.20529999999998
  0
ARC
  5
9887
330
95D6
100
AcDbEntity
  8
1
  6
Continuous
100
AcDbCircle
 10
344.1184699999998
 20
155.2379469999999
 30
0.0
 40
0.65
100
AcDbArc
 50
270.0
 51
90.0
  0
ARC
  5
9888
330
95D6
100
AcDbEntity
  8
1
  6
Continuous
100
AcDbCircle
 10
398.47947
 20
137.0129469999999
 30
0.0
 40
11.5
100
AcDbArc
 50
270.0
 51
358.678
  0
ARC
  5
9889
330
95D6
100
AcDbEntity
  8
1
  6
Continuous
100
AcDbCircle
 10
353.95647
 20
137.0129469999999
 30
0.0
 40
11.5
100
AcDbArc
 50
181.322
 51
270.0
  0
ARC
  5
988A
330
95D6
100
AcDbEntity
  8
1
  6
Continuous
100
AcDbCircle
 10
3126.71847
 20
201.0129469999998
 30
0.0
 40
2785.0
100
AcDbArc
 50
181.1629999999999
 51
181.322
  0
CIRCLE
  5
988B
330
95D6
100
AcDbEntity
  8
1
  6
Continuous
100
AcDbCircle
 10
365.71847
 20
138.0129469999999
 30
0.0
 40
5.0
  0
CIRCLE
  5
988C
330
95D6
100
AcDbEntity
  8
1
  6
Continuous
100
AcDbCircle
 10
385.71847
 20
138.0129469999999
 30
0.0
 40
5.0
  0
ARC
  5
988D
330
95D6
100
AcDbEntity
  8
1
  6
Continuous
100
AcDbCircle
 10
344.1184699999998
 20
156.537947
 30
0.0
 40
0.65
100
AcDbArc
 50
270.0
 51
90.0
  0
ARC
  5
988E
330
95D6
100
AcDbEntity
  8
1
  6
Continuous
100
AcDbCircle
 10
344.1184699999998
 20
157.8379469999999
 30
0.0
 40
0.65
100
AcDbArc
 50
270.0
 51
90.0
  0
ARC
  5
988F
330
95D6
100
AcDbEntity
  8
1
  6
Continuous
100
AcDbCircle
 10
353.6674699999999
 20
161.7198469999999
 30
0.0
 40
1.3
100
AcDbArc
 50
273.795
 51
0.0
  0
CIRCLE
  5
9890
330
95D6
100
AcDbEntity
  8
2
  6
Continuous
100
AcDbCircle
 10
385.71847
 20
138.0129469999999
 30
0.0
 40
3.0
  0
CIRCLE
  5
9891
330
95D6
100
AcDbEntity
  8
2
  6
Continuous
100
AcDbCircle
 10
365.71847
 20
138.0129469999999
 30
0.0
 40
3.0
  0
CIRCLE
  5
9892
330
95D6
100
AcDbEntity
  8
1
  6
Continuous
100
AcDbCircle
 10
385.71847
 20
138.0129469999999
 30
0.0
 40
2.458499999999999
  0
CIRCLE
  5
9893
330
95D6
100
AcDbEntity
  8
1
  6
Continuous
100
AcDbCircle
 10
365.71847
 20
138.0129469999999
 30
0.0
 40
2.458499999999999
  0
ARC
  5
9894
330
95D6
100
AcDbEntity
  8
1
  6
Continuous
100
AcDbCircle
 10
353.6674699999999
 20
144.353147
 30
0.0
 40
1.3
100
AcDbArc
 50
270.0
 51
0.0
  0
ARC
  5
9895
330
95D6
100
AcDbEntity
  8
1
  6
Continuous
100
AcDbCircle
 10
364.44847
 20
138.0129469999999
 30
0.0
 40
5.0
100
AcDbArc
 50
90.0
 51
270.0
  0
ARC
  5
9896
330
95D6
100
AcDbEntity
  8
1
  6
Continuous
100
AcDbCircle
 10
383.21847
 20
138.0129469999999
 30
0.0
 40
5.0
100
AcDbArc
 50
89.60970000000001
 51
270.3899999999998
  0
ARC
  5
9897
330
95D6
100
AcDbEntity
  8
1
  6
Continuous
100
AcDbCircle
 10
334.31847
 20
159.787947
 30
0.0
 40
0.65
100
AcDbArc
 50
90.0
 51
270.0
  0
ARC
  5
9898
330
95D6
100
AcDbEntity
  8
1
  6
Continuous
100
AcDbCircle
 10
334.31847
 20
155.8879469999999
 30
0.0
 40
0.65
100
AcDbArc
 50
90.0
 51
270.0
  0
ARC
  5
9899
330
95D6
100
AcDbEntity
  8
1
  6
Continuous
100
AcDbCircle
 10
334.3614699999998
 20
157.1865469999998
 30
0.0
 40
0.65
100
AcDbArc
 50
90.0
 51
270.0
  0
ARC
  5
989A
330
95D6
100
AcDbEntity
  8
1
  6
Continuous
100
AcDbCircle
 10
334.31847
 20
158.4879469999999
 30
0.0
 40
0.65
100
AcDbArc
 50
90.0
 51
270.0
  0
ARC
  5
989B
330
95D6
100
AcDbEntity
  8
1
  6
Continuous
100
AcDbCircle
 10
334.31847
 20
151.987947
 30
0.0
 40
0.65
100
AcDbArc
 50
90.0
 51
270.0
  0
ARC
  5
989C
330
95D6
100
AcDbEntity
  8
1
  6
Continuous
100
AcDbCircle
 10
334.31847
 20
153.287947
 30
0.0
 40
0.65
100
AcDbArc
 50
90.0
 51
270.0
  0
ARC
  5
989D
330
95D6
100
AcDbEntity
  8
1
  6
Continuous
100
AcDbCircle
 10
334.31847
 20
154.5879469999999
 30
0.0
 40
0.65
100
AcDbArc
 50
90.0
 51
270.0
  0
ARC
  5
989E
330
95D6
100
AcDbEntity
  8
1
  6
Continuous
100
AcDbCircle
 10
344.1184699999998
 20
159.1379469999999
 30
0.0
 40
0.65
100
AcDbArc
 50
270.0
 51
90.0
  0
ARC
  5
989F
330
95D6
100
AcDbEntity
  8
1
  6
Continuous
100
AcDbCircle
 10
344.16147
 20
153.9365469999999
 30
0.0
 40
0.65
100
AcDbArc
 50
270.0
 51
90.0
  0
ARC
  5
98A0
330
95D6
100
AcDbEntity
  8
1
  6
Continuous
100
AcDbCircle
 10
3126.71847
 20
201.0129469999998
 30
0.0
 40
2785.0
100
AcDbArc
 50
181.1629999999999
 51
181.322
  0
ARC
  5
98A1
330
95D6
100
AcDbEntity
  8
5
  6
PHANTOM
100
AcDbCircle
 10
186.72907
 20
366.9779469999999
 30
0.0
 40
7.0
100
AcDbArc
 50
353.3279999999999
 51
173.328
  0
CIRCLE
  5
98A2
330
95D6
100
AcDbEntity
  8
5
  6
PHANTOM
100
AcDbCircle
 10
186.8452699999999
 20
367.970947
 30
0.0
 40
4.0
  0
ARC
  5
98A3
330
95D6
100
AcDbEntity
  8
1
  6
Continuous
100
AcDbCircle
 10
340.37547
 20
252.3629469999999
 30
0.0
 40
2.6
100
AcDbArc
 50
180.0
 51
270.0
  0
ARC
  5
98A4
330
95D6
100
AcDbEntity
  8
1
  6
Continuous
100
AcDbCircle
 10
354.0414699999999
 20
264.6900469999998
 30
0.0
 40
3.83426
100
AcDbArc
 50
90.0
 51
180.0
  0
ARC
  5
98A5
330
95D6
100
AcDbEntity
  8
1
  6
Continuous
100
AcDbCircle
 10
355.24047
 20
264.0798469999999
 30
0.0
 40
3.0
100
AcDbArc
 50
90.0
 51
180.0
  0
ARC
  5
98A6
330
95D6
100
AcDbEntity
  8
1
  6
Continuous
100
AcDbCircle
 10
375.71847
 20
264.0798469999999
 30
0.0
 40
3.0
100
AcDbArc
 50
90.0
 51
180.0
  0
ARC
  5
98A7
330
95D6
100
AcDbEntity
  8
1
  6
Continuous
100
AcDbCircle
 10
398.3954699999999
 20
264.6900469999998
 30
0.0
 40
3.83426
100
AcDbArc
 50
51.2828
 51
90.0
  0
CIRCLE
  5
98A8
330
95D6
100
AcDbEntity
  8
1
  6
Continuous
100
AcDbCircle
 10
351.65147
 20
257.122747
 30
0.0
 40
0.65
  0
ARC
  5
98A9
330
95D6
100
AcDbEntity
  8
1
  6
Continuous
100
AcDbCircle
 10
351.65147
 20
234.656047
 30
0.0
 40
0.6500020000000001
100
AcDbArc
 50
90.0
 51
270.0
  0
ARC
  5
98AA
330
95D6
100
AcDbEntity
  8
1
  6
Continuous
100
AcDbCircle
 10
355.24047
 20
137.9460469999999
 30
0.0
 40
3.0
100
AcDbArc
 50
180.0
 51
270.0
  0
ARC
  5
98AB
330
95D6
100
AcDbEntity
  8
1
  6
Continuous
100
AcDbCircle
 10
354.0414699999999
 20
137.335847
 30
0.0
 40
3.83426
100
AcDbArc
 50
180.0
 51
270.0
  0
ARC
  5
98AC
330
95D6
100
AcDbEntity
  8
1
  6
Continuous
100
AcDbCircle
 10
353.4824699999999
 20
265.332647
 30
0.0
 40
5.0
100
AcDbArc
 50
90.0
 51
180.0
  0
ARC
  5
98AD
330
95D6
100
AcDbEntity
  8
1
  6
Continuous
100
AcDbCircle
 10
396.37947
 20
265.332647
 30
0.0
 40
5.0
100
AcDbArc
 50
0.0
 51
90.0
  0
ARC
  5
98AE
330
95D6
100
AcDbEntity
  8
1
  6
Continuous
100
AcDbCircle
 10
252.32847
 20
147.402847
 30
0.0
 40
6.0
100
AcDbArc
 50
305.8379999999999
 51
330.661
  0
ARC
  5
98AF
330
95D6
100
AcDbEntity
  8
1
  6
Continuous
100
AcDbCircle
 10
355.3384699999999
 20
245.7481469999999
 30
0.0
 40
3.0
100
AcDbArc
 50
108.227
 51
158.745
  0
ARC
  5
98B0
330
95D6
100
AcDbEntity
  8
1
  6
Continuous
100
AcDbCircle
 10
371.71847
 20
249.7481469999999
 30
0.0
 40
1.0
100
AcDbArc
 50
270.0
 51
0.0
  0
ARC
  5
98B1
330
95D6
100
AcDbEntity
  8
1
  6
Continuous
100
AcDbCircle
 10
396.37947
 20
136.6932469999998
 30
0.0
 40
5.0
100
AcDbArc
 50
270.0
 51
0.0
  0
ARC
  5
98B2
330
95D6
100
AcDbEntity
  8
1
  6
Continuous
100
AcDbCircle
 10
396.37947
 20
136.6932469999998
 30
0.0
 40
5.0
100
AcDbArc
 50
270.0
 51
0.0
  0
ARC
  5
98B3
330
95D6
100
AcDbEntity
  8
1
  6
Continuous
100
AcDbCircle
 10
353.4824699999999
 20
136.6932469999998
 30
0.0
 40
5.0
100
AcDbArc
 50
180.0
 51
270.0
  0
ARC
  5
98B4
330
95D6
100
AcDbEntity
  8
1
  6
Continuous
100
AcDbCircle
 10
398.3954699999999
 20
137.335847
 30
0.0
 40
3.83426
100
AcDbArc
 50
270.0
 51
308.7169999999999
  0
ARC
  5
98B5
330
95D6
100
AcDbEntity
  8
1
  6
Continuous
100
AcDbCircle
 10
375.71847
 20
137.9460469999999
 30
0.0
 40
3.0
100
AcDbArc
 50
180.0
 51
270.0
  0
ARC
  5
98B6
330
95D6
100
AcDbEntity
  8
1
  6
Continuous
100
AcDbCircle
 10
371.71847
 20
152.277747
 30
0.0
 40
1.0
100
AcDbArc
 50
0.0
 51
90.0
  0
ARC
  5
98B7
330
95D6
100
AcDbEntity
  8
1
  6
Continuous
100
AcDbCircle
 10
355.3384699999999
 20
156.277747
 30
0.0
 40
3.0
100
AcDbArc
 50
201.255
 51
251.773
  0
ARC
  5
98B8
330
95D6
100
AcDbEntity
  8
1
  6
Continuous
100
AcDbCircle
 10
261.22847
 20
159.1379469999999
 30
0.0
 40
0.65
100
AcDbArc
 50
270.0
 51
90.0
  0
ARC
  5
98B9
330
95D6
100
AcDbEntity
  8
1
  6
Continuous
100
AcDbCircle
 10
261.09947
 20
151.3422469999999
 30
0.0
 40
0.65
100
AcDbArc
 50
270.0
 51
90.0
  0
ARC
  5
98BA
330
95D6
100
AcDbEntity
  8
1
  6
Continuous
100
AcDbCircle
 10
251.4284700000001
 20
158.4879469999999
 30
0.0
 40
0.65
100
AcDbArc
 50
90.0
 51
270.0
  0
ARC
  5
98BB
330
95D6
100
AcDbEntity
  8
1
  6
Continuous
100
AcDbCircle
 10
251.4284700000001
 20
154.5879469999999
 30
0.0
 40
0.65
100
AcDbArc
 50
90.0
 51
270.0
  0
ARC
  5
98BC
330
95D6
100
AcDbEntity
  8
1
  6
Continuous
100
AcDbCircle
 10
251.4284700000001
 20
153.287947
 30
0.0
 40
0.65
100
AcDbArc
 50
90.0
 51
270.0
  0
ARC
  5
98BD
330
95D6
100
AcDbEntity
  8
1
  6
Continuous
100
AcDbCircle
 10
251.4284700000001
 20
151.987947
 30
0.0
 40
0.65
100
AcDbArc
 50
90.0
 51
270.0
  0
ARC
  5
98BE
330
95D6
100
AcDbEntity
  8
1
  6
Continuous
100
AcDbCircle
 10
251.4284700000001
 20
240.637947
 30
0.0
 40
0.65
100
AcDbArc
 50
90.0
 51
270.0
  0
ARC
  5
98BF
330
95D6
100
AcDbEntity
  8
1
  6
Continuous
100
AcDbCircle
 10
251.4284700000001
 20
244.537947
 30
0.0
 40
0.65
100
AcDbArc
 50
90.0
 51
270.0
  0
ARC
  5
98C0
330
95D6
100
AcDbEntity
  8
1
  6
Continuous
100
AcDbCircle
 10
251.4284700000001
 20
243.2379469999999
 30
0.0
 40
0.65
100
AcDbArc
 50
90.0
 51
270.0
  0
ARC
  5
98C1
330
95D6
100
AcDbEntity
  8
1
  6
Continuous
100
AcDbCircle
 10
251.4284700000001
 20
241.9379469999999
 30
0.0
 40
0.65
100
AcDbArc
 50
90.0
 51
270.0
  0
ARC
  5
98C2
330
95D6
100
AcDbEntity
  8
1
  6
Continuous
100
AcDbCircle
 10
251.4284700000001
 20
248.4379469999999
 30
0.0
 40
0.65
100
AcDbArc
 50
90.0
 51
270.0
  0
ARC
  5
98C3
330
95D6
100
AcDbEntity
  8
1
  6
Continuous
100
AcDbCircle
 10
251.4284700000001
 20
247.137947
 30
0.0
 40
0.65
100
AcDbArc
 50
90.0
 51
270.0
  0
ARC
  5
98C4
330
95D6
100
AcDbEntity
  8
1
  6
Continuous
100
AcDbCircle
 10
251.4284700000001
 20
245.837947
 30
0.0
 40
0.65
100
AcDbArc
 50
90.0
 51
270.0
  0
ARC
  5
98C5
330
95D6
100
AcDbEntity
  8
1
  6
Continuous
100
AcDbCircle
 10
261.22847
 20
241.287947
 30
0.0
 40
0.65
100
AcDbArc
 50
270.0
 51
90.0
  0
ARC
  5
98C6
330
95D6
100
AcDbEntity
  8
1
  6
Continuous
100
AcDbCircle
 10
261.22847
 20
246.487947
 30
0.0
 40
0.65
100
AcDbArc
 50
270.0
 51
90.0
  0
ARC
  5
98C7
330
95D6
100
AcDbEntity
  8
1
  6
Continuous
100
AcDbCircle
 10
261.22847
 20
247.787947
 30
0.0
 40
0.65
100
AcDbArc
 50
268.427
 51
93.79470000000001
  0
ARC
  5
98C8
330
95D6
100
AcDbEntity
  8
1
  6
Continuous
100
AcDbCircle
 10
261.22847
 20
245.187947
 30
0.0
 40
0.65
100
AcDbArc
 50
270.0
 51
90.0
  0
ARC
  5
98C9
330
95D6
100
AcDbEntity
  8
1
  6
Continuous
100
AcDbCircle
 10
261.22847
 20
243.887947
 30
0.0
 40
0.65
100
AcDbArc
 50
270.0
 51
90.0
  0
ARC
  5
98CA
330
95D6
100
AcDbEntity
  8
1
  6
Continuous
100
AcDbCircle
 10
261.22847
 20
242.587947
 30
0.0
 40
0.65
100
AcDbArc
 50
270.0
 51
90.0
  0
ARC
  5
98CB
330
95D6
100
AcDbEntity
  8
1
  6
Continuous
100
AcDbCircle
 10
261.14247
 20
152.640747
 30
0.0
 40
0.65
100
AcDbArc
 50
270.0
 51
90.0
  0
ARC
  5
98CC
330
95D6
100
AcDbEntity
  8
1
  6
Continuous
100
AcDbCircle
 10
251.38547
 20
157.189347
 30
0.0
 40
0.65
100
AcDbArc
 50
90.0
 51
270.0
  0
ARC
  5
98CD
330
95D6
100
AcDbEntity
  8
1
  6
Continuous
100
AcDbCircle
 10
261.22847
 20
156.537947
 30
0.0
 40
0.65
100
AcDbArc
 50
270.0
 51
90.0
  0
ARC
  5
98CE
330
95D6
100
AcDbEntity
  8
1
  6
Continuous
100
AcDbCircle
 10
261.22847
 20
157.8379469999999
 30
0.0
 40
0.65
100
AcDbArc
 50
270.0
 51
90.0
  0
ARC
  5
98CF
330
95D6
100
AcDbEntity
  8
1
  6
Continuous
100
AcDbCircle
 10
251.4284700000001
 20
159.787947
 30
0.0
 40
0.65
100
AcDbArc
 50
90.0
 51
270.0
  0
ARC
  5
98D0
330
95D6
100
AcDbEntity
  8
1
  6
Continuous
100
AcDbCircle
 10
251.4284700000001
 20
155.8879469999999
 30
0.0
 40
0.65
100
AcDbArc
 50
90.0
 51
270.0
  0
ARC
  5
98D1
330
95D6
100
AcDbEntity
  8
1
  6
Continuous
100
AcDbCircle
 10
258.21447
 20
270.762947
 30
0.0
 40
2.6
100
AcDbArc
 50
90.0
 51
180.0
  0
ARC
  5
98D2
330
95D6
100
AcDbEntity
  8
1
  6
Continuous
100
AcDbCircle
 10
264.00447
 20
252.3629469999999
 30
0.0
 40
2.6
100
AcDbArc
 50
270.0
 51
0.0
  0
ARC
  5
98D3
330
95D6
100
AcDbEntity
  8
1
  6
Continuous
100
AcDbCircle
 10
270.26747
 20
252.3629469999999
 30
0.0
 40
2.6
100
AcDbArc
 50
270.0
 51
0.0
  0
ARC
  5
98D4
330
95D6
100
AcDbEntity
  8
1
  6
Continuous
100
AcDbCircle
 10
272.8524699999999
 20
252.3629469999999
 30
0.0
 40
2.6
100
AcDbArc
 50
270.0
 51
0.0
  0
ARC
  5
98D5
330
95D6
100
AcDbEntity
  8
1
  6
Continuous
100
AcDbCircle
 10
255.00547
 20
252.3629469999999
 30
0.0
 40
2.6
100
AcDbArc
 50
270.0
 51
0.0
  0
ARC
  5
98D6
330
95D6
100
AcDbEntity
  8
1
  6
Continuous
100
AcDbCircle
 10
251.32847
 20
249.8894469999999
 30
0.0
 40
1.3
100
AcDbArc
 50
180.0
 51
245.635
  0
ARC
  5
98D7
330
95D6
100
AcDbEntity
  8
1
  6
Continuous
100
AcDbCircle
 10
261.22947
 20
249.089447
 30
0.0
 40
0.6485750000000003
100
AcDbArc
 50
273.795
 51
93.79470000000001
  0
ARC
  5
98D8
330
95D6
100
AcDbEntity
  8
1
  6
Continuous
100
AcDbCircle
 10
264.3284699999999
 20
240.1129469999999
 30
0.0
 40
1.3
100
AcDbArc
 50
0.0
 51
90.0
  0
ARC
  5
98D9
330
95D6
100
AcDbEntity
  8
1
  6
Continuous
100
AcDbCircle
 10
264.3284699999999
 20
235.112947
 30
0.0
 40
1.3
100
AcDbArc
 50
270.0
 51
0.0
  0
ARC
  5
98DA
330
95D6
100
AcDbEntity
  8
1
  6
Continuous
100
AcDbCircle
 10
40.54847
 20
147.402847
 30
0.0
 40
6.0
100
AcDbArc
 50
180.0
 51
234.162
  0
ARC
  5
98DB
330
95D6
100
AcDbEntity
  8
1
  6
Continuous
100
AcDbCircle
 10
261.18547
 20
153.939347
 30
0.0
 40
0.65
100
AcDbArc
 50
270.0
 51
90.0
  0
ARC
  5
98DC
330
95D6
100
AcDbEntity
  8
1
  6
Continuous
100
AcDbCircle
 10
261.22847
 20
155.2379469999999
 30
0.0
 40
0.65
100
AcDbArc
 50
270.0
 51
90.0
  0
ARC
  5
98DD
330
95D6
100
AcDbEntity
  8
1
  6
Continuous
100
AcDbCircle
 10
251.32847
 20
150.553147
 30
0.0
 40
1.3
100
AcDbArc
 50
112.871
 51
180.0
  0
ARC
  5
98DE
330
95D6
100
AcDbEntity
  8
1
  6
Continuous
100
AcDbCircle
 10
251.32847
 20
143.053147
 30
0.0
 40
1.3
100
AcDbArc
 50
180.0
 51
270.0
  0
ARC
  5
98DF
330
95D6
100
AcDbEntity
  8
1
  6
Continuous
100
AcDbCircle
 10
264.3284699999999
 20
161.292147
 30
0.0
 40
1.3
100
AcDbArc
 50
273.795
 51
0.0
  0
ARC
  5
98E0
330
95D6
100
AcDbEntity
  8
1
  6
Continuous
100
AcDbCircle
 10
264.3284699999999
 20
166.292147
 30
0.0
 40
1.3
100
AcDbArc
 50
0.0
 51
90.0
  0
ARC
  5
98E1
330
95D6
100
AcDbEntity
  8
1
  6
Continuous
100
AcDbCircle
 10
40.54847
 20
254.623047
 30
0.0
 40
6.0
100
AcDbArc
 50
125.838
 51
180.0
  0
ARC
  5
98E2
330
95D6
100
AcDbEntity
  8
1
  6
Continuous
100
AcDbCircle
 10
52.62266999999999
 20
270.807247
 30
0.0
 40
1.5
100
AcDbArc
 50
0.0
 51
30.9638
  0
ARC
  5
98E3
330
95D6
100
AcDbEntity
  8
1
  6
Continuous
100
AcDbCircle
 10
52.62266999999999
 20
131.218647
 30
0.0
 40
1.5
100
AcDbArc
 50
329.036
 51
0.0
  0
ARC
  5
98E4
330
95D6
100
AcDbEntity
  8
1
  6
Continuous
100
AcDbCircle
 10
240.25427
 20
270.807247
 30
0.0
 40
1.5
100
AcDbArc
 50
149.036
 51
180.0
  0
ARC
  5
98E5
330
95D6
100
AcDbEntity
  8
1
  6
Continuous
100
AcDbCircle
 10
240.25427
 20
131.218647
 30
0.0
 40
1.5
100
AcDbArc
 50
180.0
 51
210.964
  0
ARC
  5
98E6
330
95D6
100
AcDbEntity
  8
1
  6
Continuous
100
AcDbCircle
 10
117.5524699999999
 20
335.939947
 30
0.0
 40
1.5
100
AcDbArc
 50
241.6309999999999
 51
270.0
  0
ARC
  5
98E7
330
95D6
100
AcDbEntity
  8
1
  6
Continuous
100
AcDbCircle
 10
175.3244699999999
 20
335.939947
 30
0.0
 40
1.5
100
AcDbArc
 50
270.0
 51
298.3690000000001
  0
ARC
  5
98E8
330
95D6
100
AcDbEntity
  8
1
  6
Continuous
100
AcDbCircle
 10
188.33847
 20
243.887947
 30
0.0
 40
0.65
100
AcDbArc
 50
270.0
 51
90.0
  0
ARC
  5
98E9
330
95D6
100
AcDbEntity
  8
1
  6
Continuous
100
AcDbCircle
 10
188.33847
 20
245.187947
 30
0.0
 40
0.65
100
AcDbArc
 50
270.0
 51
90.0
  0
ARC
  5
98EA
330
95D6
100
AcDbEntity
  8
1
  6
Continuous
100
AcDbCircle
 10
188.33847
 20
249.087947
 30
0.0
 40
0.65
100
AcDbArc
 50
270.0
 51
93.79470000000001
  0
ARC
  5
98EB
330
95D6
100
AcDbEntity
  8
1
  6
Continuous
100
AcDbCircle
 10
188.33847
 20
246.487947
 30
0.0
 40
0.65
100
AcDbArc
 50
270.0
 51
90.0
  0
ARC
  5
98EC
330
95D6
100
AcDbEntity
  8
1
  6
Continuous
100
AcDbCircle
 10
188.33847
 20
241.287947
 30
0.0
 40
0.65
100
AcDbArc
 50
270.0
 51
90.0
  0
ARC
  5
98ED
330
95D6
100
AcDbEntity
  8
1
  6
Continuous
100
AcDbCircle
 10
188.33847
 20
242.587947
 30
0.0
 40
0.65
100
AcDbArc
 50
270.0
 51
90.0
  0
ARC
  5
98EE
330
95D6
100
AcDbEntity
  8
1
  6
Continuous
100
AcDbCircle
 10
193.00637
 20
252.3629469999999
 30
0.0
 40
2.6
100
AcDbArc
 50
270.0
 51
0.000005
  0
ARC
  5
98EF
330
95D6
100
AcDbEntity
  8
1
  6
Continuous
100
AcDbCircle
 10
185.81047
 20
270.762947
 30
0.0
 40
2.6
100
AcDbArc
 50
90.0
 51
180.0
  0
ARC
  5
98F0
330
95D6
100
AcDbEntity
  8
1
  6
Continuous
100
AcDbCircle
 10
196.53517
 20
270.762947
 30
0.0
 40
2.6
100
AcDbArc
 50
90.0
 51
180.0
  0
ARC
  5
98F1
330
95D6
100
AcDbEntity
  8
1
  6
Continuous
100
AcDbCircle
 10
188.33847
 20
247.787947
 30
0.0
 40
0.65
100
AcDbArc
 50
270.0
 51
93.79470000000001
  0
ARC
  5
98F2
330
95D6
100
AcDbEntity
  8
1
  6
Continuous
100
AcDbCircle
 10
188.33847
 20
152.3379469999999
 30
0.0
 40
0.65
100
AcDbArc
 50
266.2049999999999
 51
90.0
  0
ARC
  5
98F3
330
95D6
100
AcDbEntity
  8
1
  6
Continuous
100
AcDbCircle
 10
188.33847
 20
153.6379469999999
 30
0.0
 40
0.65
100
AcDbArc
 50
266.2049999999999
 51
90.0
  0
ARC
  5
98F4
330
95D6
100
AcDbEntity
  8
1
  6
Continuous
100
AcDbCircle
 10
188.33847
 20
154.937947
 30
0.0
 40
0.65
100
AcDbArc
 50
270.0
 51
90.0
  0
ARC
  5
98F5
330
95D6
100
AcDbEntity
  8
1
  6
Continuous
100
AcDbCircle
 10
188.33847
 20
156.2379469999999
 30
0.0
 40
0.65
100
AcDbArc
 50
270.0
 51
90.0
  0
ARC
  5
98F6
330
95D6
100
AcDbEntity
  8
1
  6
Continuous
100
AcDbCircle
 10
188.33847
 20
157.537947
 30
0.0
 40
0.65
100
AcDbArc
 50
270.0
 51
90.0
  0
ARC
  5
98F7
330
95D6
100
AcDbEntity
  8
1
  6
Continuous
100
AcDbCircle
 10
188.33847
 20
158.8379469999999
 30
0.0
 40
0.65
100
AcDbArc
 50
270.0
 51
90.0
  0
ARC
  5
98F8
330
95D6
100
AcDbEntity
  8
1
  6
Continuous
100
AcDbCircle
 10
188.33847
 20
160.1379469999999
 30
0.0
 40
0.65
100
AcDbArc
 50
270.0
 51
90.0
  0
ARC
  5
98F9
330
95D6
100
AcDbEntity
  8
1
  6
Continuous
100
AcDbCircle
 10
28.54846999999999
 20
235.112947
 30
0.0
 40
1.3
100
AcDbArc
 50
180.0
 51
270.0
  0
ARC
  5
98FA
330
95D6
100
AcDbEntity
  8
1
  6
Continuous
100
AcDbCircle
 10
20.02447
 20
252.3629469999999
 30
0.0
 40
2.6
100
AcDbArc
 50
180.0
 51
270.0
  0
ARC
  5
98FB
330
95D6
100
AcDbEntity
  8
1
  6
Continuous
100
AcDbCircle
 10
28.54846999999999
 20
240.1129469999999
 30
0.0
 40
1.3
100
AcDbArc
 50
90.0
 51
180.0
  0
ARC
  5
98FC
330
95D6
100
AcDbEntity
  8
1
  6
Continuous
100
AcDbCircle
 10
34.66247
 20
270.762947
 30
0.0
 40
2.6
100
AcDbArc
 50
0.0
 51
90.0
  0
ARC
  5
98FD
330
95D6
100
AcDbEntity
  8
1
  6
Continuous
100
AcDbCircle
 10
25.34347
 20
270.762947
 30
0.0
 40
2.6
100
AcDbArc
 50
0.0
 51
90.0
  0
ARC
  5
98FE
330
95D6
100
AcDbEntity
  8
1
  6
Continuous
100
AcDbCircle
 10
27.87746999999999
 20
252.3629469999999
 30
0.0
 40
2.6
100
AcDbArc
 50
270.0
 51
0.0
  0
ARC
  5
98FF
330
95D6
100
AcDbEntity
  8
1
  6
Continuous
100
AcDbCircle
 10
25.29247
 20
252.3629469999999
 30
0.0
 40
2.6
100
AcDbArc
 50
270.0
 51
0.0
  0
ARC
  5
9900
330
95D6
100
AcDbEntity
  8
1
  6
Continuous
100
AcDbCircle
 10
31.64846999999999
 20
248.4379469999999
 30
0.0
 40
0.65
100
AcDbArc
 50
90.0
 51
270.0
  0
ARC
  5
9901
330
95D6
100
AcDbEntity
  8
1
  6
Continuous
100
AcDbCircle
 10
31.64846999999999
 20
247.137947
 30
0.0
 40
0.65
100
AcDbArc
 50
90.0
 51
270.0
  0
ARC
  5
9902
330
95D6
100
AcDbEntity
  8
1
  6
Continuous
100
AcDbCircle
 10
31.64846999999999
 20
245.837947
 30
0.0
 40
0.65
100
AcDbArc
 50
90.0
 51
270.0
  0
ARC
  5
9903
330
95D6
100
AcDbEntity
  8
1
  6
Continuous
100
AcDbCircle
 10
31.64846999999999
 20
244.537947
 30
0.0
 40
0.65
100
AcDbArc
 50
73.9248
 51
270.0
  0
ARC
  5
9904
330
95D6
100
AcDbEntity
  8
1
  6
Continuous
100
AcDbCircle
 10
31.64846999999999
 20
243.2379469999999
 30
0.0
 40
0.65
100
AcDbArc
 50
90.0
 51
261.1499999999999
  0
ARC
  5
9905
330
95D6
100
AcDbEntity
  8
1
  6
Continuous
100
AcDbCircle
 10
31.64846999999999
 20
241.9379469999999
 30
0.0
 40
0.65
100
AcDbArc
 50
98.8504
 51
233.8709999999999
  0
ARC
  5
9906
330
95D6
100
AcDbEntity
  8
1
  6
Continuous
100
AcDbCircle
 10
31.64846999999999
 20
152.187947
 30
0.0
 40
0.65
100
AcDbArc
 50
90.0
 51
270.0
  0
ARC
  5
9907
330
95D6
100
AcDbEntity
  8
1
  6
Continuous
100
AcDbCircle
 10
31.64846999999999
 20
154.7879469999998
 30
0.0
 40
0.65
100
AcDbArc
 50
90.0
 51
270.0
  0
ARC
  5
9908
330
95D6
100
AcDbEntity
  8
1
  6
Continuous
100
AcDbCircle
 10
31.64846999999999
 20
156.0879469999999
 30
0.0
 40
0.65
100
AcDbArc
 50
90.0
 51
270.0
  0
ARC
  5
9909
330
95D6
100
AcDbEntity
  8
1
  6
Continuous
100
AcDbCircle
 10
31.64846999999999
 20
153.4879469999999
 30
0.0
 40
0.65
100
AcDbArc
 50
90.0
 51
270.0
  0
ARC
  5
990A
330
95D6
100
AcDbEntity
  8
1
  6
Continuous
100
AcDbCircle
 10
31.64846999999999
 20
157.387947
 30
0.0
 40
0.65
100
AcDbArc
 50
95.8056
 51
270.0
  0
ARC
  5
990B
330
95D6
100
AcDbEntity
  8
1
  6
Continuous
100
AcDbCircle
 10
31.64846999999999
 20
158.687947
 30
0.0
 40
0.65
100
AcDbArc
 50
98.8504
 51
264.1309999999999
  0
ARC
  5
990C
330
95D6
100
AcDbEntity
  8
1
  6
Continuous
100
AcDbCircle
 10
28.54846999999999
 20
161.912947
 30
0.0
 40
1.3
100
AcDbArc
 50
180.0
 51
270.0
  0
ARC
  5
990D
330
95D6
100
AcDbEntity
  8
1
  6
Continuous
100
AcDbCircle
 10
28.54846999999999
 20
166.912947
 30
0.0
 40
1.3
100
AcDbArc
 50
90.0
 51
180.0
  0
ARC
  5
990E
330
95D6
100
AcDbEntity
  8
1
  6
Continuous
100
AcDbCircle
 10
146.8882259999998
 20
66.268947
 30
0.0
 40
21.0
100
AcDbArc
 50
263.6439999999999
 51
270.0
  0
ARC
  5
990F
330
95D6
100
AcDbEntity
  8
1
  6
Continuous
100
AcDbCircle
 10
157.1017699999998
 20
56.268947
 30
0.0
 40
11.0
100
AcDbArc
 50
295.259
 51
334.722
  0
CIRCLE
  5
9910
330
95D6
100
AcDbEntity
  8
1
  6
Continuous
100
AcDbCircle
 10
183.43847
 20
50.26894699999999
 30
0.0
 40
3.1
  0
ARC
  5
9911
330
95D6
100
AcDbEntity
  8
1
  6
Continuous
100
AcDbCircle
 10
183.43847
 20
50.26894699999999
 30
0.0
 40
5.0
100
AcDbArc
 50
312.65
 51
124.6389999999999
  0
ARC
  5
9912
330
95D6
100
AcDbEntity
  8
1
  6
Continuous
100
AcDbCircle
 10
169.0880699999999
 20
62.26894699999999
 30
0.0
 40
10.0
100
AcDbArc
 50
270.0
 51
283.4049999999999
  0
ARC
  5
9913
330
95D6
100
AcDbEntity
  8
1
  6
Continuous
100
AcDbCircle
 10
137.6342399999997
 20
54.268947
 30
0.0
 40
6.0
100
AcDbArc
 50
224.1929999999999
 51
241.493
  0
ARC
  5
9914
330
95D6
100
AcDbEntity
  8
1
  6
Continuous
100
AcDbCircle
 10
138.23299
 20
59.23294699999999
 30
0.0
 40
11.0
100
AcDbArc
 50
313.2429999999998
 51
347.6609999999998
  0
ARC
  5
9915
330
95D6
100
AcDbEntity
  8
1
  6
Continuous
100
AcDbCircle
 10
142.2489899999999
 20
57.60794699999999
 30
0.0
 40
6.66136
100
AcDbArc
 50
141.34
 51
171.5
  0
ARC
  5
9916
330
95D6
100
AcDbEntity
  8
1
  6
Continuous
100
AcDbCircle
 10
140.3582499999999
 20
57.88994699999999
 30
0.0
 40
6.66136
100
AcDbArc
 50
345.1
 51
35.6105
  0
ARC
  5
9917
330
95D6
100
AcDbEntity
  8
1
  6
Continuous
100
AcDbCircle
 10
150.4384699999999
 20
66.268947
 30
0.0
 40
2.0
100
AcDbArc
 50
90.0
 51
138.8199999999999
  0
ARC
  5
9918
330
95D6
100
AcDbEntity
  8
1
  6
Continuous
100
AcDbCircle
 10
183.43847
 20
50.26894699999999
 30
0.0
 40
22.0
100
AcDbArc
 50
173.9749999999999
 51
194.08
  0
ARC
  5
9919
330
95D6
100
AcDbEntity
  8
1
  6
Continuous
100
AcDbCircle
 10
183.43847
 20
50.26894699999999
 30
0.0
 40
32.0
100
AcDbArc
 50
166.291
 51
191.8369999999999
  0
ARC
  5
991A
330
95D6
100
AcDbEntity
  8
1
  6
Continuous
100
AcDbCircle
 10
164.35317
 20
46.268947
 30
0.0
 40
12.5
100
AcDbArc
 50
191.8369999999999
 51
270.0
  0
ARC
  5
991B
330
95D6
100
AcDbEntity
  8
1
  6
Continuous
100
AcDbCircle
 10
152.40618
 20
-30.82505300000001
 30
0.0
 40
100.0
100
AcDbArc
 50
79.7711
 51
82.28050000000001
  0
ARC
  5
991C
330
95D6
100
AcDbEntity
  8
1
  6
Continuous
100
AcDbCircle
 10
168.33947
 20
47.732947
 30
0.0
 40
0.65
100
AcDbArc
 50
35.8701
 51
215.87
  0
CIRCLE
  5
991D
330
95D6
100
AcDbEntity
  8
1
  6
Continuous
100
AcDbCircle
 10
195.1935699999999
 20
38.59294699999999
 30
0.0
 40
4.0
  0
ARC
  5
991E
330
95D6
100
AcDbEntity
  8
1
  6
Continuous
100
AcDbCircle
 10
117.5524699999999
 20
66.08594699999999
 30
0.0
 40
1.5
100
AcDbArc
 50
90.0
 51
118.369
  0
ARC
  5
991F
330
95D6
100
AcDbEntity
  8
1
  6
Continuous
100
AcDbCircle
 10
175.3244699999999
 20
66.08594699999999
 30
0.0
 40
1.5
100
AcDbArc
 50
61.631
 51
90.0
  0
ARC
  5
9920
330
95D6
100
AcDbEntity
  8
1
  6
Continuous
100
AcDbCircle
 10
183.43847
 20
351.7569470000001
 30
0.0
 40
32.0
100
AcDbArc
 50
168.163
 51
193.708
  0
ARC
  5
9921
330
95D6
100
AcDbEntity
  8
1
  6
Continuous
100
AcDbCircle
 10
150.4384699999999
 20
335.756947
 30
0.0
 40
2.0
100
AcDbArc
 50
221.1799999999998
 51
270.0
  0
ARC
  5
9922
330
95D6
100
AcDbEntity
  8
1
  6
Continuous
100
AcDbCircle
 10
152.40618
 20
432.8509469999998
 30
0.0
 40
100.0
100
AcDbArc
 50
277.719
 51
280.2289999999999
  0
ARC
  5
9923
330
95D6
100
AcDbEntity
  8
1
  6
Continuous
100
AcDbCircle
 10
183.43847
 20
351.7569470000001
 30
0.0
 40
22.0
100
AcDbArc
 50
165.92
 51
186.025
  0
CIRCLE
  5
9924
330
95D6
100
AcDbEntity
  8
1
  6
Continuous
100
AcDbCircle
 10
195.1935699999999
 20
363.432947
 30
0.0
 40
4.0
  0
ARC
  5
9925
330
95D6
100
AcDbEntity
  8
5
  6
PHANTOM
100
AcDbCircle
 10
181.5148699999998
 20
351.7279469999999
 30
0.0
 40
20.0
100
AcDbArc
 50
243.0059999999999
 51
265.665
  0
ARC
  5
9926
330
95D6
100
AcDbEntity
  8
5
  6
PHANTOM
100
AcDbCircle
 10
181.5148699999998
 20
351.7279469999999
 30
0.0
 40
21.2
100
AcDbArc
 50
248.279
 51
261.6429999999999
  0
ARC
  5
9927
330
95D6
100
AcDbEntity
  8
5
  6
PHANTOM
100
AcDbCircle
 10
182.44287
 20
70.77694699999998
 30
0.0
 40
0.5
100
AcDbArc
 50
267.764
 51
45.70280000000001
  0
ARC
  5
9928
330
95D6
100
AcDbEntity
  8
5
  6
PHANTOM
100
AcDbCircle
 10
164.6568699999999
 20
81.76894699999998
 30
0.0
 40
2.0
100
AcDbArc
 50
56.67159999999999
 51
249.6509999999999
  0
ARC
  5
9929
330
95D6
100
AcDbEntity
  8
5
  6
PHANTOM
100
AcDbCircle
 10
183.43847
 20
50.26894699999999
 30
0.0
 40
32.0
100
AcDbArc
 50
126.307
 51
145.771
  0
ARC
  5
992A
330
95D6
100
AcDbEntity
  8
5
  6
PHANTOM
100
AcDbCircle
 10
112.95397
 20
-0.437053
 30
0.0
 40
100.0
100
AcDbArc
 50
45.70280000000001
 51
48.9521
  0
ARC
  5
992B
330
95D6
100
AcDbEntity
  8
5
  6
PHANTOM
100
AcDbCircle
 10
186.72907
 20
35.047947
 30
0.0
 40
7.0
100
AcDbArc
 50
186.672
 51
6.671549999999999
  0
CIRCLE
  5
992C
330
95D6
100
AcDbEntity
  8
5
  6
PHANTOM
100
AcDbCircle
 10
186.8452699999999
 20
34.054947
 30
0.0
 40
4.0
  0
ARC
  5
992D
330
95D6
100
AcDbEntity
  8
5
  6
PHANTOM
100
AcDbCircle
 10
181.5148699999998
 20
50.297947
 30
0.0
 40
20.0
100
AcDbArc
 50
94.3349
 51
116.9939999999999
  0
ARC
  5
992E
330
95D6
100
AcDbEntity
  8
5
  6
PHANTOM
100
AcDbCircle
 10
181.5148699999998
 20
50.297947
 30
0.0
 40
21.2
100
AcDbArc
 50
98.35710000000002
 51
111.721
  0
ARC
  5
992F
330
95D6
100
AcDbEntity
  8
1
  6
Continuous
100
AcDbCircle
 10
182.72987
 20
350.926947
 30
0.0
 40
5.0
100
AcDbArc
 50
202.8269999999998
 51
297.094
  0
CIRCLE
  5
9930
330
95D6
100
AcDbEntity
  8
1
  6
Continuous
100
AcDbCircle
 10
183.43847
 20
351.7569470000001
 30
0.0
 40
3.0
  0
ARC
  5
9931
330
95D6
100
AcDbEntity
  8
1
  6
Continuous
100
AcDbCircle
 10
182.72987
 20
51.09894699999999
 30
0.0
 40
5.0
100
AcDbArc
 50
62.9058
 51
139.74
  0
ARC
  5
9932
330
95D6
100
AcDbEntity
  8
1
  6
Continuous
100
AcDbCircle
 10
194.55077
 20
362.6669469999998
 30
0.0
 40
7.0
100
AcDbArc
 50
320.0
 51
140.0
  0
ARC
  5
9933
330
95D6
100
AcDbEntity
  8
1
  6
Continuous
100
AcDbCircle
 10
194.55077
 20
39.358947
 30
0.0
 40
7.0
100
AcDbArc
 50
220.0
 51
40.0
  0
LINE
  5
9934
330
95D6
100
AcDbEntity
  8
1
  6
Continuous
100
AcDbLine
 10
171.6276569999999
 20
61.268947
 30
0.0
 11
163.551884
 21
61.268947
 31
0.0
  0
LINE
  5
9935
330
95D6
100
AcDbEntity
  8
1
  6
Continuous
100
AcDbLine
 10
152.603608
 20
61.268947
 30
0.0
 11
149.938407
 21
61.268947
 31
0.0
  0
ARC
  5
9936
330
95D6
100
AcDbEntity
  8
1
  6
Continuous
100
AcDbCircle
 10
163.551884
 20
66.02525799999999
 30
0.0
 40
4.756311
100
AcDbArc
 50
243.492572
 51
270.0
  0
ARC
  5
9937
330
95D6
100
AcDbEntity
  8
1
  6
Continuous
100
AcDbCircle
 10
152.603608
 20
67.56880600000001
 30
0.0
 40
6.299858999999997
100
AcDbArc
 50
269.9999969999999
 51
292.9811809999998
  0
LINE
  5
9938
330
95D6
100
AcDbEntity
  8
1
  6
Continuous
100
AcDbLine
 10
171.6276569999999
 20
340.756947
 30
0.0
 11
163.551884
 21
340.756947
 31
0.0
  0
ARC
  5
9939
330
95D6
100
AcDbEntity
  8
1
  6
Continuous
100
AcDbCircle
 10
152.603608
 20
334.457088
 30
0.0
 40
6.299858999999997
100
AcDbArc
 50
67.018819
 51
90.00000300000001
  0
ARC
  5
993A
330
95D6
100
AcDbEntity
  8
1
  6
Continuous
100
AcDbCircle
 10
163.551884
 20
336.0006359999998
 30
0.0
 40
4.756311
100
AcDbArc
 50
90.0
 51
116.507428
  0
LINE
  5
993B
330
95D6
100
AcDbEntity
  8
1
  6
Continuous
100
AcDbLine
 10
152.603608
 20
340.756947
 30
0.0
 11
149.938407
 21
340.756947
 31
0.0
  0
ENDSEC
  0
SECTION
  2
OBJECTS
  0
DICTIONARY
  5
95C4
330
0
100
AcDbDictionary
281
     1
  3
ACAD_CIP_PREVIOUS_PRODUCT_INFO
350
99A1
  3
ACAD_COLOR
350
9983
  3
ACAD_DETAILVIEWSTYLE
350
999C
  3
ACAD_GROUP
350
95C5
  3
ACAD_LAYOUT
350
95D1
  3
ACAD_MATERIAL
350
9951
  3
ACAD_MLEADERSTYLE
350
9998
  3
ACAD_MLINESTYLE
350
95CE
  3
ACAD_PLOTSETTINGS
350
95D0
  3
ACAD_PLOTSTYLENAME
350
994F
  3
ACAD_SCALELIST
350
9986
  3
ACAD_SECTIONVIEWSTYLE
350
999A
  3
ACAD_TABLESTYLE
350
9984
  3
ACAD_VISUALSTYLE
350
996A
  3
ACDB_RECOMPOSE_DATA
350
99BF
  3
AcDbVariableDictionary
350
99B2
  3
DWGPROPS
350
99C0
  0
DICTIONARY
  5
99A2
330
95C8
100
AcDbDictionary
280
     1
281
     1
  3
ADSK_XREC_LAYER_RECONCILED
360
99A3
  0
DICTIONARY
  5
99A4
330
95DE
100
AcDbDictionary
280
     1
281
     1
  3
ADSK_XREC_LAYER_RECONCILED
360
99A5
  0
DICTIONARY
  5
99A6
330
95DF
100
AcDbDictionary
280
     1
281
     1
  3
ADSK_XREC_LAYER_RECONCILED
360
99A7
  0
DICTIONARY
  5
99A8
330
95E0
100
AcDbDictionary
280
     1
281
     1
  3
ADSK_XREC_LAYER_RECONCILED
360
99A9
  0
DICTIONARY
  5
99AA
330
95E1
100
AcDbDictionary
280
     1
281
     1
  3
ADSK_XREC_LAYER_RECONCILED
360
99AB
  0
DICTIONARY
  5
99AC
330
95E2
100
AcDbDictionary
280
     1
281
     1
  3
ADSK_XREC_LAYER_RECONCILED
360
99AD
  0
DICTIONARY
  5
99AE
330
95E3
100
AcDbDictionary
280
     1
281
     1
  3
ADSK_XREC_LAYER_RECONCILED
360
99AF
  0
DICTIONARY
  5
99B0
330
95E4
100
AcDbDictionary
280
     1
281
     1
  3
ADSK_XREC_LAYER_RECONCILED
360
99B1
  0
DICTIONARY
  5
994A
330
95D6
100
AcDbDictionary
281
     1
  3
ACAD_LAYOUTSELFREF
350
994B
  0
DICTIONARY
  5
9948
330
95D2
100
AcDbDictionary
281
     1
  3
ACAD_LAYOUTSELFREF
350
9949
  0
XRECORD
  5
99A1
102
{ACAD_REACTORS
330
95C4
102
}
330
95C4
100
AcDbXrecord
280
     1
300
ACDLT
300
2014
300
ACDLT_F_S
  0
DICTIONARY
  5
9983
102
{ACAD_REACTORS
330
95C4
102
}
330
95C4
100
AcDbDictionary
281
     1
  0
DICTIONARY
  5
999C
102
{ACAD_REACTORS
330
95C4
102
}
330
95C4
100
AcDbDictionary
281
     1
  3
Imperial24
350
999D
  0
DICTIONARY
  5
95C5
102
{ACAD_REACTORS
330
95C4
102
}
330
95C4
100
AcDbDictionary
281
     1
  0
DICTIONARY
  5
95D1
102
{ACAD_REACTORS
330
95C4
102
}
330
95C4
100
AcDbDictionary
281
     1
  3
Model
350
999E
  3
レイアウト1
350
999F
  0
DICTIONARY
  5
9951
102
{ACAD_REACTORS
330
95C4
102
}
330
95C4
100
AcDbDictionary
281
     1
  3
ByBlock
350
995A
  3
ByLayer
350
9952
  3
Global
350
9962
  0
DICTIONARY
  5
9998
102
{ACAD_REACTORS
330
95C4
102
}
330
95C4
100
AcDbDictionary
281
     1
  3
Standard
350
9999
  0
DICTIONARY
  5
95CE
102
{ACAD_REACTORS
330
95C4
102
}
330
95C4
100
AcDbDictionary
281
     1
  3
STANDARD
350
95CF
  0
DICTIONARY
  5
95D0
102
{ACAD_REACTORS
330
95C4
102
}
330
95C4
100
AcDbDictionary
281
     1
  0
ACDBDICTIONARYWDFLT
  5
994F
102
{ACAD_REACTORS
330
95C4
102
}
330
95C4
100
AcDbDictionary
281
     1
  3
Normal
350
9950
100
AcDbDictionaryWithDefault
340
9950
  0
DICTIONARY
  5
9986
102
{ACAD_REACTORS
330
95C4
102
}
330
95C4
100
AcDbDictionary
281
     1
  3
A0
350
9987
  3
A1
350
9988
  3
A2
350
9989
  3
A3
350
998A
  3
A4
350
998B
  3
A5
350
998C
  3
A6
350
998D
  3
A7
350
998E
  3
A8
350
998F
  3
A9
350
9990
  3
B0
350
9991
  3
B1
350
9992
  3
B2
350
9993
  3
B3
350
9994
  3
B4
350
9995
  3
B5
350
9996
  3
B6
350
9997
  0
DICTIONARY
  5
999A
102
{ACAD_REACTORS
330
95C4
102
}
330
95C4
100
AcDbDictionary
281
     1
  3
Imperial24
350
999B
  0
DICTIONARY
  5
9984
102
{ACAD_REACTORS
330
95C4
102
}
330
95C4
100
AcDbDictionary
281
     1
  3
Standard
350
9985
  0
DICTIONARY
  5
996A
102
{ACAD_REACTORS
330
95C4
102
}
330
95C4
100
AcDbDictionary
281
     1
  3
2dWireframe
350
9970
  3
Basic
350
996F
  3
Brighten
350
9976
  3
ColorChange
350
997A
  3
Conceptual
350
9973
  3
Dim
350
9975
  3
EdgeColorOff
350
9982
  3
Facepattern
350
9979
  3
Flat
350
996B
  3
FlatWithEdges
350
996C
  3
Gouraud
350
996D
  3
GouraudWithEdges
350
996E
  3
Hidden
350
9972
  3
JitterOff
350
9980
  3
Linepattern
350
9978
  3
OverhangOff
350
9981
  3
Realistic
350
9974
  3
Shaded
350
997F
  3
Shaded with edges
350
997E
  3
Shades of Gray
350
997B
  3
Sketchy
350
997C
  3
Thicken
350
9977
  3
Wireframe
350
9971
  3
X-Ray
350
997D
  0
XRECORD
  5
99BF
102
{ACAD_REACTORS
330
95C4
102
}
330
95C4
100
AcDbXrecord
280
     1
 90
        1
330
9985
  0
DICTIONARY
  5
99B2
102
{ACAD_REACTORS
330
95C4
102
}
330
95C4
100
AcDbDictionary
281
     1
  3
CANNOSCALE
350
99B7
  3
CMLEADERSTYLE
350
99B4
  3
CTABLESTYLE
350
99B3
  3
CVIEWDETAILSTYLE
350
99B5
  3
CVIEWSECTIONSTYLE
350
99B6
  3
DIMASSOC
350
99BA
  3
INDEXCTL
350
99B9
  3
SORTENTS
350
99B8
  3
XCLIPFRAME
350
99BB
  0
XRECORD
  5
99C0
102
{ACAD_REACTORS
330
95C4
102
}
330
95C4
100
AcDbXrecord
280
     1
  1
DWGPROPS COOKIE
  2

  3

  4

  6

  7

  8
Yoshitsune
  9

300
=
301
=
302
=
303
=
304
=
305
=
306
=
307
=
308
=
309
=
 40
0.0000158680555556
 41
2450737.699202084
 42
2457192.640295741
  1

 90
        0
  0
XRECORD
  5
99A3
102
{ACAD_REACTORS
330
99A2
102
}
330
99A2
100
AcDbXrecord
280
     1
290
     1
  0
XRECORD
  5
99A5
102
{ACAD_REACTORS
330
99A4
102
}
330
99A4
100
AcDbXrecord
280
     1
290
     1
  0
XRECORD
  5
99A7
102
{ACAD_REACTORS
330
99A6
102
}
330
99A6
100
AcDbXrecord
280
     1
290
     1
  0
XRECORD
  5
99A9
102
{ACAD_REACTORS
330
99A8
102
}
330
99A8
100
AcDbXrecord
280
     1
290
     1
  0
XRECORD
  5
99AB
102
{ACAD_REACTORS
330
99AA
102
}
330
99AA
100
AcDbXrecord
280
     1
290
     1
  0
XRECORD
  5
99AD
102
{ACAD_REACTORS
330
99AC
102
}
330
99AC
100
AcDbXrecord
280
     1
290
     1
  0
XRECORD
  5
99AF
102
{ACAD_REACTORS
330
99AE
102
}
330
99AE
100
AcDbXrecord
280
     1
290
     1
  0
XRECORD
  5
99B1
102
{ACAD_REACTORS
330
99B0
102
}
330
99B0
100
AcDbXrecord
280
     1
290
     1
  0
XRECORD
  5
994B
102
{ACAD_REACTORS
330
994A
102
}
330
994A
100
AcDbXrecord
280
     1
340
95D6
  0
XRECORD
  5
9949
102
{ACAD_REACTORS
330
9948
102
}
330
9948
100
AcDbXrecord
280
     1
340
95D2
  0
ACDBDETAILVIEWSTYLE
  5
999D
102
{ACAD_XDICTIONARY
360
99F8
102
}
102
{ACAD_REACTORS
330
999C
102
}
330
999C
100
AcDbModelDocViewStyle
 70
     0
  3
Imperial24
290
     0
100
AcDbDetailViewStyle
 70
     0
 71
     0
 90
        3
 71
     1
340
95C9
 40
0.24
340
0
 40
0.24
300

 40
0.36
280
     3
 71
     2
340
95CD
 90
       25
 71
     3
340
95C9
 40
0.24
 90
        1
 40
0.75
 90
        1
300
%<\AcVar ViewType \f "%tc1">% %<\AcVar ViewDetailId>%\PSCALE %<\AcVar ViewScale \f "%sn">%
 71
     4
340
95CD
 90
       25
340
95CD
 90
       25
280
     0
  0
LAYOUT
  5
999E
102
{ACAD_XDICTIONARY
360
99FA
102
}
102
{ACAD_REACTORS
330
95D1
102
}
330
95D1
100
AcDbPlotSettings
  1

  2
Canon LBP9100C
  4

  6

 40
0.0
 41
0.0
 42
0.0
 43
0.0
 44
0.0
 45
0.0
 46
0.0
 47
0.0
 48
0.0
 49
0.0
140
0.0
141
0.0
142
1.0
143
1.0
 70
  1712
 72
     0
 73
     0
 74
     0
  7

 75
     0
147
1.0
148
0.0
149
0.0
100
AcDbLayout
  1
Model
 70
     1
 71
     0
 10
0.0
 20
0.0
 11
12.0
 21
9.0
 12
0.0
 22
0.0
 32
0.0
 14
0.0
 24
0.0
 34
0.0
 15
0.0
 25
0.0
 35
0.0
146
0.0
 13
0.0
 23
0.0
 33
0.0
 16
1.0
 26
0.0
 36
0.0
 17
0.0
 27
1.0
 37
0.0
 76
     0
330
95D6
331
9947
  0
LAYOUT
  5
999F
102
{ACAD_XDICTIONARY
360
99FC
102
}
102
{ACAD_REACTORS
330
95D1
102
}
330
95D1
100
AcDbPlotSettings
  1

  2
Canon LBP9100C
  4

  6

 40
0.0
 41
0.0
 42
0.0
 43
0.0
 44
0.0
 45
0.0
 46
0.0
 47
0.0
 48
0.0
 49
0.0
140
0.0
141
0.0
142
1.0
143
1.0
 70
   688
 72
     0
 73
     0
 74
     5
  7

 75
    16
147
1.0
148
0.0
149
0.0
100
AcDbLayout
  1
レイアウト1
 70
     0
 71
     1
 10
0.0
 20
0.0
 11
420.0
 21
297.0
 12
0.0
 22
0.0
 32
0.0
 14
1.000000000000000E+20
 24
1.000000000000000E+20
 34
1.000000000000000E+20
 15
-1.000000000000000E+20
 25
-1.000000000000000E+20
 35
-1.000000000000000E+20
146
0.0
 13
0.0
 23
0.0
 33
0.0
 16
1.0
 26
0.0
 36
0.0
 17
0.0
 27
1.0
 37
0.0
 76
     0
330
95D2
  0
MATERIAL
  5
995A
102
{ACAD_XDICTIONARY
360
995B
102
}
102
{ACAD_REACTORS
330
9951
102
}
330
9951
100
AcDbMaterial
  1
ByBlock
 72
     0
 43
0.0208333333333333
 43
0.0
 43
0.0
 43
0.0
 43
0.0
 43
0.0208333333333333
 43
0.0
 43
0.0
 43
0.0
 43
0.0
 43
1.0
 43
0.0
 43
0.0
 43
0.0
 43
0.0
 43
1.0
 77
     0
 47
0.0208333333333333
 47
0.0
 47
0.0
 47
0.0
 47
0.0
 47
0.0208333333333333
 47
0.0
 47
0.0
 47
0.0
 47
0.0
 47
1.0
 47
0.0
 47
0.0
 47
0.0
 47
0.0
 47
1.0
171
     0
 49
0.0208333333333333
 49
0.0
 49
0.0
 49
0.0
 49
0.0
 49
0.0208333333333333
 49
0.0
 49
0.0
 49
0.0
 49
0.0
 49
1.0
 49
0.0
 49
0.0
 49
0.0
 49
0.0
 49
1.0
175
     0
142
0.0208333333333333
142
0.0
142
0.0
142
0.0
142
0.0
142
0.0208333333333333
142
0.0
142
0.0
142
0.0
142
0.0
142
1.0
142
0.0
142
0.0
142
0.0
142
0.0
142
1.0
179
     0
144
0.0208333333333333
144
0.0
144
0.0
144
0.0
144
0.0
144
0.0208333333333333
144
0.0
144
0.0
144
0.0
144
0.0
144
1.0
144
0.0
144
0.0
144
0.0
144
0.0
144
1.0
147
0.0208333333333333
147
0.0
147
0.0
147
0.0
147
0.0
147
0.0208333333333333
147
0.0
147
0.0
147
0.0
147
0.0
147
1.0
147
0.0
147
0.0
147
0.0
147
0.0
147
1.0
  0
MATERIAL
  5
9952
102
{ACAD_XDICTIONARY
360
9953
102
}
102
{ACAD_REACTORS
330
9951
102
}
330
9951
100
AcDbMaterial
  1
ByLayer
 72
     0
 43
0.0208333333333333
 43
0.0
 43
0.0
 43
0.0
 43
0.0
 43
0.0208333333333333
 43
0.0
 43
0.0
 43
0.0
 43
0.0
 43
1.0
 43
0.0
 43
0.0
 43
0.0
 43
0.0
 43
1.0
 77
     0
 47
0.0208333333333333
 47
0.0
 47
0.0
 47
0.0
 47
0.0
 47
0.0208333333333333
 47
0.0
 47
0.0
 47
0.0
 47
0.0
 47
1.0
 47
0.0
 47
0.0
 47
0.0
 47
0.0
 47
1.0
171
     0
 49
0.0208333333333333
 49
0.0
 49
0.0
 49
0.0
 49
0.0
 49
0.0208333333333333
 49
0.0
 49
0.0
 49
0.0
 49
0.0
 49
1.0
 49
0.0
 49
0.0
 49
0.0
 49
0.0
 49
1.0
175
     0
142
0.0208333333333333
142
0.0
142
0.0
142
0.0
142
0.0
142
0.0208333333333333
142
0.0
142
0.0
142
0.0
142
0.0
142
1.0
142
0.0
142
0.0
142
0.0
142
0.0
142
1.0
179
     0
144
0.0208333333333333
144
0.0
144
0.0
144
0.0
144
0.0
144
0.0208333333333333
144
0.0
144
0.0
144
0.0
144
0.0
144
1.0
144
0.0
144
0.0
144
0.0
144
0.0
144
1.0
147
0.0208333333333333
147
0.0
147
0.0
147
0.0
147
0.0
147
0.0208333333333333
147
0.0
147
0.0
147
0.0
147
0.0
147
1.0
147
0.0
147
0.0
147
0.0
147
0.0
147
1.0
  0
MATERIAL
  5
9962
102
{ACAD_XDICTIONARY
360
9963
102
}
102
{ACAD_REACTORS
330
9951
102
}
330
9951
100
AcDbMaterial
  1
Global
 72
     0
 43
0.0208333333333333
 43
0.0
 43
0.0
 43
0.0
 43
0.0
 43
0.0208333333333333
 43
0.0
 43
0.0
 43
0.0
 43
0.0
 43
1.0
 43
0.0
 43
0.0
 43
0.0
 43
0.0
 43
1.0
 77
     0
 47
0.0208333333333333
 47
0.0
 47
0.0
 47
0.0
 47
0.0
 47
0.0208333333333333
 47
0.0
 47
0.0
 47
0.0
 47
0.0
 47
1.0
 47
0.0
 47
0.0
 47
0.0
 47
0.0
 47
1.0
171
     0
 49
0.0208333333333333
 49
0.0
 49
0.0
 49
0.0
 49
0.0
 49
0.0208333333333333
 49
0.0
 49
0.0
 49
0.0
 49
0.0
 49
1.0
 49
0.0
 49
0.0
 49
0.0
 49
0.0
 49
1.0
175
     0
142
0.0208333333333333
142
0.0
142
0.0
142
0.0
142
0.0
142
0.0208333333333333
142
0.0
142
0.0
142
0.0
142
0.0
142
1.0
142
0.0
142
0.0
142
0.0
142
0.0
142
1.0
179
     0
144
0.0208333333333333
144
0.0
144
0.0
144
0.0
144
0.0
144
0.0208333333333333
144
0.0
144
0.0
144
0.0
144
0.0
144
1.0
144
0.0
144
0.0
144
0.0
144
0.0
144
1.0
147
0.0208333333333333
147
0.0
147
0.0
147
0.0
147
0.0
147
0.0208333333333333
147
0.0
147
0.0
147
0.0
147
0.0
147
1.0
147
0.0
147
0.0
147
0.0
147
0.0
147
1.0
  0
MLEADERSTYLE
  5
9999
102
{ACAD_REACTORS
330
9998
102
}
330
9998
100
AcDbMLeaderStyle
170
     2
171
     1
172
     0
 90
        2
 40
0.0
 41
0.0
173
     1
 91
-1056964608
340
95CB
 92
       -2
290
     1
 42
0.09
291
     1
 43
0.36
  3
Standard
 44
0.18
300

342
95C9
174
     1
178
     6
175
     1
176
     0
 93
-1056964608
 45
0.18
292
     0
297
     0
 46
0.18
 94
-1056964608
 47
1.0
 49
1.0
140
1.0
293
     1
141
0.0
294
     1
177
     0
142
1.0
295
     0
296
     0
143
0.125
1001
ACAD_MLEADERVER
1070
     2
  0
MLINESTYLE
  5
95CF
102
{ACAD_REACTORS
330
95CE
102
}
330
95CE
100
AcDbMlineStyle
  2
STANDARD
 70
     0
  3

 62
   256
 51
90.0
 52
90.0
 71
     2
 49
0.5
 62
   256
  6
BYLAYER
 49
-0.5
 62
   256
  6
BYLAYER
  0
ACDBPLACEHOLDER
  5
9950
102
{ACAD_REACTORS
330
994F
102
}
330
994F
  0
SCALE
  5
9987
102
{ACAD_REACTORS
330
9986
102
}
330
9986
100
AcDbScale
 70
     0
300
1:1
140
1.0
141
1.0
290
     1
  0
SCALE
  5
9988
102
{ACAD_REACTORS
330
9986
102
}
330
9986
100
AcDbScale
 70
     0
300
1/128" = 1'-0"
140
0.0078125
141
12.0
290
     0
  0
SCALE
  5
9989
102
{ACAD_REACTORS
330
9986
102
}
330
9986
100
AcDbScale
 70
     0
300
1/64" = 1'-0"
140
0.015625
141
12.0
290
     0
  0
SCALE
  5
998A
102
{ACAD_REACTORS
330
9986
102
}
330
9986
100
AcDbScale
 70
     0
300
1/32" = 1'-0"
140
0.03125
141
12.0
290
     0
  0
SCALE
  5
998B
102
{ACAD_REACTORS
330
9986
102
}
330
9986
100
AcDbScale
 70
     0
300
1/16" = 1'-0"
140
0.0625
141
12.0
290
     0
  0
SCALE
  5
998C
102
{ACAD_REACTORS
330
9986
102
}
330
9986
100
AcDbScale
 70
     0
300
3/32" = 1'-0"
140
0.09375
141
12.0
290
     0
  0
SCALE
  5
998D
102
{ACAD_REACTORS
330
9986
102
}
330
9986
100
AcDbScale
 70
     0
300
1/8" = 1'-0"
140
0.125
141
12.0
290
     0
  0
SCALE
  5
998E
102
{ACAD_REACTORS
330
9986
102
}
330
9986
100
AcDbScale
 70
     0
300
3/16" = 1'-0"
140
0.1875
141
12.0
290
     0
  0
SCALE
  5
998F
102
{ACAD_REACTORS
330
9986
102
}
330
9986
100
AcDbScale
 70
     0
300
1/4" = 1'-0"
140
0.25
141
12.0
290
     0
  0
SCALE
  5
9990
102
{ACAD_REACTORS
330
9986
102
}
330
9986
100
AcDbScale
 70
     0
300
3/8" = 1'-0"
140
0.375
141
12.0
290
     0
  0
SCALE
  5
9991
102
{ACAD_REACTORS
330
9986
102
}
330
9986
100
AcDbScale
 70
     0
300
1/2" = 1'-0"
140
0.5
141
12.0
290
     0
  0
SCALE
  5
9992
102
{ACAD_REACTORS
330
9986
102
}
330
9986
100
AcDbScale
 70
     0
300
3/4" = 1'-0"
140
0.75
141
12.0
290
     0
  0
SCALE
  5
9993
102
{ACAD_REACTORS
330
9986
102
}
330
9986
100
AcDbScale
 70
     0
300
1" = 1'-0"
140
1.0
141
12.0
290
     0
  0
SCALE
  5
9994
102
{ACAD_REACTORS
330
9986
102
}
330
9986
100
AcDbScale
 70
     0
300
1-1/2" = 1'-0"
140
1.5
141
12.0
290
     0
  0
SCALE
  5
9995
102
{ACAD_REACTORS
330
9986
102
}
330
9986
100
AcDbScale
 70
     0
300
3" = 1'-0"
140
3.0
141
12.0
290
     0
  0
SCALE
  5
9996
102
{ACAD_REACTORS
330
9986
102
}
330
9986
100
AcDbScale
 70
     0
300
6" = 1'-0"
140
6.0
141
12.0
290
     0
  0
SCALE
  5
9997
102
{ACAD_REACTORS
330
9986
102
}
330
9986
100
AcDbScale
 70
     0
300
1'-0" = 1'-0"
140
12.0
141
12.0
290
     0
  0
ACDBSECTIONVIEWSTYLE
  5
999B
102
{ACAD_XDICTIONARY
360
99F6
102
}
102
{ACAD_REACTORS
330
999A
102
}
330
999A
100
AcDbModelDocViewStyle
 70
     0
  3
Imperial24
290
     0
100
AcDbSectionViewStyle
 70
     0
 71
     0
 90
       78
 71
     1
340
95C9
 40
0.24
340
0
340
0
 40
0.24
300
I, O, Q, S, X, Z
 40
0.48
 90
        3
 40
0.18
 90
        1
 71
     2
340
95CD
 90
       25
340
95CD
 90
       50
 40
0.24
 40
0.0
 40
0.24
 71
     3
340
95C9
 40
0.24
 90
        1
 40
0.75
 90
        1
300
%<\AcVar ViewType \f "%tc1">% %<\AcVar ViewSectionStartId>%-%<\AcVar ViewSectionEndId>%\PSCALE %<\AcVar ViewScale \f "%sn">%
 71
     4
300
ANSI31
 40
1.0
 90
        0
290
     0
290
     0
 90
        6
 40
0.0
 40
1.570796326794896
 40
0.2617993877991494
 40
1.308996938995747
 40
-0.2617993877991494
 40
1.832595714594046
  0
TABLESTYLE
  5
9985
102
{ACAD_XDICTIONARY
360
99BD
102
}
102
{ACAD_REACTORS
330
9984
102
}
330
9984
100
AcDbTableStyle
  3
Standard
 70
     0
 71
     0
 40
0.06
 41
0.06
280
     0
281
     0
  7
STANDARD
140
0.18
170
     2
 62
     0
 63
     7
283
     0
274
    -2
284
     1
 64
     0
275
    -2
285
     1
 65
     0
276
    -2
286
     1
 66
     0
277
    -2
287
     1
 67
     0
278
    -2
288
     1
 68
     0
279
    -2
289
     1
 69
     0
  7
STANDARD
140
0.25
170
     5
 62
     0
 63
     7
283
     0
274
    -2
284
     1
 64
     0
275
    -2
285
     1
 65
     0
276
    -2
286
     1
 66
     0
277
    -2
287
     1
 67
     0
278
    -2
288
     1
 68
     0
279
    -2
289
     1
 69
     0
  7
STANDARD
140
0.18
170
     5
 62
     0
 63
     7
283
     0
274
    -2
284
     1
 64
     0
275
    -2
285
     1
 65
     0
276
    -2
286
     1
 66
     0
277
    -2
287
     1
 67
     0
278
    -2
288
     1
 68
     0
279
    -2
289
     1
 69
     0
  0
VISUALSTYLE
  5
9970
102
{ACAD_XDICTIONARY
360
99CE
102
}
102
{ACAD_REACTORS
330
996A
102
}
330
996A
100
AcDbVisualStyle
  2
2dWireframe
 70
     4
 71
     0
 72
     2
 73
     0
 90
        0
 40
-0.6
 41
-30.0
 62
     5
 63
     7
 74
     1
 91
        4
 64
     7
 65
   257
 75
     1
175
     1
 42
1.0
 92
        0
 66
   257
 43
1.0
 76
     1
 77
     6
 78
     2
 67
     7
 79
     5
170
     0
171
     0
290
     0
174
     0
 93
        1
 44
0.0
173
     0
291
     0
 45
0.0
1001
ACAD
1000
AcDbSavedByObjectVersion
1070
     0
  0
VISUALSTYLE
  5
996F
102
{ACAD_XDICTIONARY
360
99CC
102
}
102
{ACAD_REACTORS
330
996A
102
}
330
996A
100
AcDbVisualStyle
  2
Basic
 70
     7
 71
     1
 72
     0
 73
     1
 90
        0
 40
-0.6
 41
-30.0
 62
     5
 63
     7
 74
     0
 91
        4
 64
     7
 65
   257
 75
     1
175
     1
 42
1.0
 92
        8
 66
     7
 43
1.0
 76
     1
 77
     6
 78
     2
 67
     7
 79
     5
170
     0
171
     0
290
     0
174
     0
 93
        1
 44
0.0
173
     0
291
     1
 45
0.0
1001
ACAD
1000
AcDbSavedByObjectVersion
1070
     0
  0
VISUALSTYLE
  5
9976
102
{ACAD_XDICTIONARY
360
99DA
102
}
102
{ACAD_REACTORS
330
996A
102
}
330
996A
100
AcDbVisualStyle
  2
Brighten
 70
    12
 71
     2
 72
     2
 73
     0
 90
        0
 40
-0.6
 41
-30.0
 62
     5
 63
     7
 74
     1
 91
        4
 64
     7
 65
   257
 75
     1
175
     1
 42
1.0
 92
        8
 66
     7
 43
1.0
 76
     1
 77
     6
 78
     2
 67
     7
 79
     5
170
     0
171
     0
290
     0
174
     0
 93
        1
 44
50.0
173
     0
291
     1
 45
0.0
1001
ACAD
1000
AcDbSavedByObjectVersion
1070
     0
  0
VISUALSTYLE
  5
997A
102
{ACAD_XDICTIONARY
360
99E2
102
}
102
{ACAD_REACTORS
330
996A
102
}
330
996A
100
AcDbVisualStyle
  2
ColorChange
 70
    16
 71
     2
 72
     2
 73
     3
 90
        0
 40
-0.6
 41
-30.0
 62
     5
 63
     8
 74
     1
 91
        4
 64
     7
 65
   257
 75
     1
175
     1
 42
1.0
 92
        8
 66
     8
 43
1.0
 76
     1
 77
     6
 78
     2
 67
     7
 79
     5
170
     0
171
     0
290
     0
174
     0
 93
        1
 44
0.0
173
     0
291
     1
 45
0.0
1001
ACAD
1000
AcDbSavedByObjectVersion
1070
     0
  0
VISUALSTYLE
  5
9973
102
{ACAD_XDICTIONARY
360
99D4
102
}
102
{ACAD_REACTORS
330
996A
102
}
330
996A
100
AcDbVisualStyle
  2
Conceptual
 70
     9
 71
     3
 72
     2
 73
     0
 90
        0
 40
-0.6
 41
-30.0
 62
     5
 63
     7
 74
     2
 91
        2
 64
     7
 65
   257
 75
     1
175
     1
 42
179.0
 92
        8
 66
     7
 43
1.0
 76
     1
 77
     6
 78
     2
 67
     7
 79
     3
170
     0
171
     0
290
     0
174
     0
 93
        1
 44
0.0
173
     0
291
     0
 45
0.0
1001
ACAD
1000
AcDbSavedByObjectVersion
1070
     0
  0
VISUALSTYLE
  5
9975
102
{ACAD_XDICTIONARY
360
99D8
102
}
102
{ACAD_REACTORS
330
996A
102
}
330
996A
100
AcDbVisualStyle
  2
Dim
 70
    11
 71
     2
 72
     2
 73
     0
 90
        0
 40
-0.6
 41
-30.0
 62
     5
 63
     7
 74
     1
 91
        4
 64
     7
 65
   257
 75
     1
175
     1
 42
1.0
 92
        8
 66
     7
 43
1.0
 76
     1
 77
     6
 78
     2
 67
     7
 79
     5
170
     0
171
     0
290
     0
174
     0
 93
        1
 44
-50.0
173
     0
291
     1
 45
0.0
1001
ACAD
1000
AcDbSavedByObjectVersion
1070
     0
  0
VISUALSTYLE
  5
9982
102
{ACAD_XDICTIONARY
360
99F2
102
}
102
{ACAD_REACTORS
330
996A
102
}
330
996A
100
AcDbVisualStyle
  2
EdgeColorOff
 70
    22
 71
     2
 72
     2
 73
     0
 90
        0
 40
-0.6
 41
-30.0
 62
     5
 63
     7
 74
     1
 91
        4
 64
     7
 65
   257
 75
     1
175
     1
 42
1.0
 92
        8
 66
     7
 43
1.0
 76
     1
 77
     6
 78
     2
 67
     7
 79
     5
170
     0
171
     0
290
     0
174
     0
 93
        1
 44
0.0
173
     0
291
     1
 45
0.0
1001
ACAD
1000
AcDbSavedByObjectVersion
1070
     0
  0
VISUALSTYLE
  5
9979
102
{ACAD_XDICTIONARY
360
99E0
102
}
102
{ACAD_REACTORS
330
996A
102
}
330
996A
100
AcDbVisualStyle
  2
Facepattern
 70
    15
 71
     2
 72
     2
 73
     0
 90
        0
 40
-0.6
 41
-30.0
 62
     5
 63
     7
 74
     1
 91
        4
 64
     7
 65
   257
 75
     1
175
     1
 42
1.0
 92
        8
 66
     7
 43
1.0
 76
     1
 77
     6
 78
     2
 67
     7
 79
     5
170
     0
171
     0
290
     0
174
     0
 93
        1
 44
0.0
173
     0
291
     1
 45
0.0
1001
ACAD
1000
AcDbSavedByObjectVersion
1070
     0
  0
VISUALSTYLE
  5
996B
102
{ACAD_XDICTIONARY
360
99C4
102
}
102
{ACAD_REACTORS
330
996A
102
}
330
996A
100
AcDbVisualStyle
  2
Flat
 70
     0
 71
     2
 72
     1
 73
     1
 90
        2
 40
-0.6
 41
30.0
 62
     5
 63
     7
 74
     0
 91
        0
 64
     7
 65
   257
 75
     1
175
     1
 42
1.0
 92
        8
 66
     7
 43
1.0
 76
     1
 77
     6
 78
     2
 67
     7
 79
     5
170
     0
171
     0
290
     0
174
     0
 93
       13
 44
0.0
173
     0
291
     1
 45
0.0
1001
ACAD
1000
AcDbSavedByObjectVersion
1070
     0
  0
VISUALSTYLE
  5
996C
102
{ACAD_XDICTIONARY
360
99C6
102
}
102
{ACAD_REACTORS
330
996A
102
}
330
996A
100
AcDbVisualStyle
  2
FlatWithEdges
 70
     1
 71
     2
 72
     1
 73
     1
 90
        2
 40
-0.6
 41
30.0
 62
     5
 63
     7
 74
     1
 91
        0
 64
     7
 65
   257
 75
     1
175
     1
 42
1.0
 92
        0
 66
   257
 43
1.0
 76
     1
 77
     6
 78
     2
 67
     7
 79
     5
170
     0
171
     0
290
     0
174
     0
 93
       13
 44
0.0
173
     0
291
     1
 45
0.0
1001
ACAD
1000
AcDbSavedByObjectVersion
1070
     0
  0
VISUALSTYLE
  5
996D
102
{ACAD_XDICTIONARY
360
99C8
102
}
102
{ACAD_REACTORS
330
996A
102
}
330
996A
100
AcDbVisualStyle
  2
Gouraud
 70
     2
 71
     2
 72
     2
 73
     1
 90
        2
 40
-0.6
 41
30.0
 62
     5
 63
     7
 74
     0
 91
        0
 64
     7
 65
   257
 75
     1
175
     1
 42
1.0
 92
        0
 66
     7
 43
1.0
 76
     1
 77
     6
 78
     2
 67
     7
 79
     5
170
     0
171
     0
290
     0
174
     0
 93
       13
 44
0.0
173
     0
291
     1
 45
0.0
1001
ACAD
1000
AcDbSavedByObjectVersion
1070
     0
  0
VISUALSTYLE
  5
996E
102
{ACAD_XDICTIONARY
360
99CA
102
}
102
{ACAD_REACTORS
330
996A
102
}
330
996A
100
AcDbVisualStyle
  2
GouraudWithEdges
 70
     3
 71
     2
 72
     2
 73
     1
 90
        2
 40
-0.6
 41
30.0
 62
     5
 63
     7
 74
     1
 91
        0
 64
     7
 65
   257
 75
     1
175
     1
 42
1.0
 92
        0
 66
   257
 43
1.0
 76
     1
 77
     6
 78
     2
 67
     7
 79
     5
170
     0
171
     0
290
     0
174
     0
 93
       13
 44
0.0
173
     0
291
     1
 45
0.0
1001
ACAD
1000
AcDbSavedByObjectVersion
1070
     0
  0
VISUALSTYLE
  5
9972
102
{ACAD_XDICTIONARY
360
99D2
102
}
102
{ACAD_REACTORS
330
996A
102
}
330
996A
100
AcDbVisualStyle
  2
Hidden
 70
     6
 71
     1
 72
     2
 73
     2
 90
        0
 40
-0.6
 41
-30.0
 62
     5
 63
     7
 74
     2
 91
        2
 64
     7
 65
   257
 75
     2
175
     1
 42
40.0
 92
        0
 66
   257
 43
1.0
 76
     1
 77
     6
 78
     2
 67
     7
 79
     3
170
     0
171
     0
290
     0
174
     0
 93
        1
 44
0.0
173
     0
291
     0
 45
0.0
1001
ACAD
1000
AcDbSavedByObjectVersion
1070
     0
  0
VISUALSTYLE
  5
9980
102
{ACAD_XDICTIONARY
360
99EE
102
}
102
{ACAD_REACTORS
330
996A
102
}
330
996A
100
AcDbVisualStyle
  2
JitterOff
 70
    20
 71
     2
 72
     2
 73
     0
 90
        0
 40
-0.6
 41
-30.0
 62
     5
 63
     7
 74
     1
 91
        4
 64
     7
 65
   257
 75
     1
175
     1
 42
1.0
 92
       10
 66
     7
 43
1.0
 76
     1
 77
     6
 78
     2
 67
     7
 79
     5
170
     0
171
     0
290
     0
174
     0
 93
        1
 44
0.0
173
     0
291
     1
 45
0.0
1001
ACAD
1000
AcDbSavedByObjectVersion
1070
     0
  0
VISUALSTYLE
  5
9978
102
{ACAD_XDICTIONARY
360
99DE
102
}
102
{ACAD_REACTORS
330
996A
102
}
330
996A
100
AcDbVisualStyle
  2
Linepattern
 70
    14
 71
     2
 72
     2
 73
     0
 90
        0
 40
-0.6
 41
-30.0
 62
     5
 63
     7
 74
     1
 91
        4
 64
     7
 65
   257
 75
     7
175
     7
 42
1.0
 92
        8
 66
     7
 43
1.0
 76
     1
 77
     6
 78
     2
 67
     7
 79
     5
170
     0
171
     0
290
     0
174
     0
 93
        1
 44
0.0
173
     0
291
     1
 45
0.0
1001
ACAD
1000
AcDbSavedByObjectVersion
1070
     0
  0
VISUALSTYLE
  5
9981
102
{ACAD_XDICTIONARY
360
99F0
102
}
102
{ACAD_REACTORS
330
996A
102
}
330
996A
100
AcDbVisualStyle
  2
OverhangOff
 70
    21
 71
     2
 72
     2
 73
     0
 90
        0
 40
-0.6
 41
-30.0
 62
     5
 63
     7
 74
     1
 91
        4
 64
     7
 65
   257
 75
     1
175
     1
 42
1.0
 92
        9
 66
     7
 43
1.0
 76
     1
 77
     6
 78
     2
 67
     7
 79
     5
170
     0
171
     0
290
     0
174
     0
 93
        1
 44
0.0
173
     0
291
     1
 45
0.0
1001
ACAD
1000
AcDbSavedByObjectVersion
1070
     0
  0
VISUALSTYLE
  5
9974
102
{ACAD_XDICTIONARY
360
99D6
102
}
102
{ACAD_REACTORS
330
996A
102
}
330
996A
100
AcDbVisualStyle
  2
Realistic
 70
     8
 71
     2
 72
     3
 73
     0
 90
        2
 40
-0.6
 41
30.0
 62
     5
 63
     7
 74
     0
 91
        0
 64
     7
 65
   257
 75
     1
175
     1
 42
1.0
 92
        8
 66
   257
 43
1.0
 76
     1
 77
     6
 78
     2
 67
     7
 79
     3
170
     0
171
     0
290
     0
174
     0
 93
       13
 44
0.0
173
     0
291
     0
 45
0.0
1001
ACAD
1000
AcDbSavedByObjectVersion
1070
     0
  0
VISUALSTYLE
  5
997F
102
{ACAD_XDICTIONARY
360
99EC
102
}
102
{ACAD_REACTORS
330
996A
102
}
330
996A
100
AcDbVisualStyle
  2
Shaded
 70
    27
 71
     2
 72
     2
 73
     1
 90
        2
 40
-0.6
 41
30.0
 62
     5
 63
     7
 74
     0
 91
        4
 64
     7
 65
   257
 75
     1
175
     1
 42
1.0
 92
        8
 66
   257
 43
1.0
 76
     1
 77
     6
 78
     2
 67
     8
 79
     3
170
     0
171
     0
290
     0
174
     0
 93
        5
 44
0.0
173
     0
291
     0
 45
0.0
1001
ACAD
1000
AcDbSavedByObjectVersion
1070
     0
  0
VISUALSTYLE
  5
997E
102
{ACAD_XDICTIONARY
360
99EA
102
}
102
{ACAD_REACTORS
330
996A
102
}
330
996A
100
AcDbVisualStyle
  2
Shaded with edges
 70
    26
 71
     2
 72
     2
 73
     1
 90
        2
 40
-0.6
 41
30.0
 62
     5
 63
     7
 74
     1
 91
       10
 64
     7
 65
   257
 75
     2
175
     1
 42
1.0
 92
        8
 66
   257
 43
1.0
 76
     1
 77
     6
 78
     2
 67
     7
 79
     3
170
     0
171
     0
290
     0
174
     0
 93
        5
 44
0.0
173
     0
291
     0
 45
0.0
1001
ACAD
1000
AcDbSavedByObjectVersion
1070
     0
  0
VISUALSTYLE
  5
997B
102
{ACAD_XDICTIONARY
360
99E4
102
}
102
{ACAD_REACTORS
330
996A
102
}
330
996A
100
AcDbVisualStyle
  2
Shades of Gray
 70
    23
 71
     2
 72
     2
 73
     3
 90
        0
 40
-0.6
 41
-30.0
 62
     5
 63
     7
 74
     2
 91
        2
 64
     7
 65
     7
 75
     1
175
     1
 42
40.0
 92
        8
 66
     7
 43
1.0
 76
     1
 77
     6
 78
     2
 67
     7
 79
     3
170
     0
171
     0
290
     0
174
     0
 93
        1
 44
0.0
173
     0
291
     0
 45
0.0
1001
ACAD
1000
AcDbSavedByObjectVersion
1070
     0
  0
VISUALSTYLE
  5
997C
102
{ACAD_XDICTIONARY
360
99E6
102
}
102
{ACAD_REACTORS
330
996A
102
}
330
996A
100
AcDbVisualStyle
  2
Sketchy
 70
    24
 71
     1
 72
     2
 73
     2
 90
        0
 40
-0.6
 41
-30.0
 62
     5
 63
     7
 74
     2
 91
        2
 64
     7
 65
     7
 75
     1
175
     1
 42
40.0
 92
       11
 66
     7
 43
1.0
 76
     1
 77
     6
 78
     2
 67
     7
 79
     6
170
     0
171
     0
290
     0
174
     0
 93
        1
 44
0.0
173
     0
291
     0
 45
0.0
1001
ACAD
1000
AcDbSavedByObjectVersion
1070
     0
  0
VISUALSTYLE
  5
9977
102
{ACAD_XDICTIONARY
360
99DC
102
}
102
{ACAD_REACTORS
330
996A
102
}
330
996A
100
AcDbVisualStyle
  2
Thicken
 70
    13
 71
     2
 72
     2
 73
     0
 90
        0
 40
-0.6
 41
-30.0
 62
     5
 63
     7
 74
     1
 91
        4
 64
     7
 65
   257
 75
     1
175
     1
 42
1.0
 92
       12
 66
     7
 43
1.0
 76
     1
 77
     6
 78
     2
 67
     7
 79
     5
170
     0
171
     0
290
     0
174
     0
 93
        1
 44
0.0
173
     0
291
     1
 45
0.0
1001
ACAD
1000
AcDbSavedByObjectVersion
1070
     0
  0
VISUALSTYLE
  5
9971
102
{ACAD_XDICTIONARY
360
99D0
102
}
102
{ACAD_REACTORS
330
996A
102
}
330
996A
100
AcDbVisualStyle
  2
Wireframe
 70
     5
 71
     0
 72
     2
 73
     0
 90
        0
 40
-0.6
 41
-30.0
 62
     5
 63
     7
 74
     1
 91
        4
 64
     7
 65
   257
 75
     1
175
     1
 42
1.0
 92
        0
 66
   257
 43
1.0
 76
     1
 77
     6
 78
     2
 67
     7
 79
     3
170
     0
171
     0
290
     0
174
     0
 93
        1
 44
0.0
173
     0
291
     0
 45
0.0
1001
ACAD
1000
AcDbSavedByObjectVersion
1070
     0
  0
VISUALSTYLE
  5
997D
102
{ACAD_XDICTIONARY
360
99E8
102
}
102
{ACAD_REACTORS
330
996A
102
}
330
996A
100
AcDbVisualStyle
  2
X-Ray
 70
    25
 71
     2
 72
     2
 73
     1
 90
        1
 40
0.5
 41
-30.0
 62
     5
 63
     7
 74
     1
 91
        0
 64
     7
 65
   257
 75
     1
175
     1
 42
1.0
 92
        8
 66
     7
 43
1.0
 76
     1
 77
     6
 78
     2
 67
     7
 79
     3
170
     0
171
     0
290
     0
174
     0
 93
       13
 44
0.0
173
     0
291
     0
 45
0.0
1001
ACAD
1000
AcDbSavedByObjectVersion
1070
     0
  0
DICTIONARYVAR
  5
99B7
102
{ACAD_REACTORS
330
99B2
102
}
330
99B2
100
DictionaryVariables
280
     0
  1
1:1
  0
DICTIONARYVAR
  5
99B4
102
{ACAD_REACTORS
330
99B2
102
}
330
99B2
100
DictionaryVariables
280
     0
  1
STANDARD
  0
DICTIONARYVAR
  5
99B3
102
{ACAD_REACTORS
330
99B2
102
}
330
99B2
100
DictionaryVariables
280
     0
  1
STANDARD
  0
DICTIONARYVAR
  5
99B5
102
{ACAD_REACTORS
330
99B2
102
}
330
99B2
100
DictionaryVariables
280
     0
  1
Imperial24
  0
DICTIONARYVAR
  5
99B6
102
{ACAD_REACTORS
330
99B2
102
}
330
99B2
100
DictionaryVariables
280
     0
  1
Imperial24
  0
DICTIONARYVAR
  5
99BA
102
{ACAD_REACTORS
330
99B2
102
}
330
99B2
100
DictionaryVariables
280
     0
  1
1
  0
DICTIONARYVAR
  5
99B9
102
{ACAD_REACTORS
330
99B2
102
}
330
99B2
100
DictionaryVariables
280
     0
  1
0
  0
DICTIONARYVAR
  5
99B8
102
{ACAD_REACTORS
330
99B2
102
}
330
99B2
100
DictionaryVariables
280
     0
  1
127
  0
DICTIONARYVAR
  5
99BB
102
{ACAD_REACTORS
330
99B2
102
}
330
99B2
100
DictionaryVariables
280
     0
  1
2
  0
DICTIONARY
  5
99F8
330
999D
100
AcDbDictionary
280
     1
281
     1
  3
ACAD_XREC_ROUNDTRIP
360
99F9
  0
DICTIONARY
  5
99FA
330
999E
100
AcDbDictionary
280
     1
281
     1
  3
ACAD_XREC_ROUNDTRIP
360
99FB
  0
DICTIONARY
  5
99FC
330
999F
100
AcDbDictionary
280
     1
281
     1
  3
ACAD_XREC_ROUNDTRIP
360
99FD
  0
DICTIONARY
  5
995B
330
995A
100
AcDbDictionary
280
     1
281
     1
  3
ACAD_XREC_ROUNDTRIP
360
99C2
  3
BUMPTILE
360
995D
  3
DIFFUSETILE
360
995C
  3
OPACITYTILE
360
9960
  3
REFLECTIONTILE
360
995F
  3
REFRACTIONTILE
360
9961
  3
SPECULARTILE
360
995E
  0
DICTIONARY
  5
9953
330
9952
100
AcDbDictionary
280
     1
281
     1
  3
ACAD_XREC_ROUNDTRIP
360
99C1
  3
BUMPTILE
360
9955
  3
DIFFUSETILE
360
9954
  3
OPACITYTILE
360
9958
  3
REFLECTIONTILE
360
9957
  3
REFRACTIONTILE
360
9959
  3
SPECULARTILE
360
9956
  0
DICTIONARY
  5
9963
330
9962
100
AcDbDictionary
280
     1
281
     1
  3
ACAD_XREC_ROUNDTRIP
360
99C3
  3
BUMPTILE
360
9965
  3
DIFFUSETILE
360
9964
  3
OPACITYTILE
360
9968
  3
REFLECTIONTILE
360
9967
  3
REFRACTIONTILE
360
9969
  3
SPECULARTILE
360
9966
  0
DICTIONARY
  5
99F6
330
999B
100
AcDbDictionary
280
     1
281
     1
  3
ACAD_XREC_ROUNDTRIP
360
99F7
  0
DICTIONARY
  5
99BD
330
9985
100
AcDbDictionary
280
     1
281
     1
  3
ACAD_ROUNDTRIP_2008_TABLESTYLE_CELLSTYLEMAP
360
99BE
  3
ACAD_XREC_ROUNDTRIP
360
99F4
  0
DICTIONARY
  5
99CE
330
9970
100
AcDbDictionary
280
     1
281
     1
  3
ACAD_XREC_ROUNDTRIP
360
99CF
  0
DICTIONARY
  5
99CC
330
996F
100
AcDbDictionary
280
     1
281
     1
  3
ACAD_XREC_ROUNDTRIP
360
99CD
  0
DICTIONARY
  5
99DA
330
9976
100
AcDbDictionary
280
     1
281
     1
  3
ACAD_XREC_ROUNDTRIP
360
99DB
  0
DICTIONARY
  5
99E2
330
997A
100
AcDbDictionary
280
     1
281
     1
  3
ACAD_XREC_ROUNDTRIP
360
99E3
  0
DICTIONARY
  5
99D4
330
9973
100
AcDbDictionary
280
     1
281
     1
  3
ACAD_XREC_ROUNDTRIP
360
99D5
  0
DICTIONARY
  5
99D8
330
9975
100
AcDbDictionary
280
     1
281
     1
  3
ACAD_XREC_ROUNDTRIP
360
99D9
  0
DICTIONARY
  5
99F2
330
9982
100
AcDbDictionary
280
     1
281
     1
  3
ACAD_XREC_ROUNDTRIP
360
99F3
  0
DICTIONARY
  5
99E0
330
9979
100
AcDbDictionary
280
     1
281
     1
  3
ACAD_XREC_ROUNDTRIP
360
99E1
  0
DICTIONARY
  5
99C4
330
996B
100
AcDbDictionary
280
     1
281
     1
  3
ACAD_XREC_ROUNDTRIP
360
99C5
  0
DICTIONARY
  5
99C6
330
996C
100
AcDbDictionary
280
     1
281
     1
  3
ACAD_XREC_ROUNDTRIP
360
99C7
  0
DICTIONARY
  5
99C8
330
996D
100
AcDbDictionary
280
     1
281
     1
  3
ACAD_XREC_ROUNDTRIP
360
99C9
  0
DICTIONARY
  5
99CA
330
996E
100
AcDbDictionary
280
     1
281
     1
  3
ACAD_XREC_ROUNDTRIP
360
99CB
  0
DICTIONARY
  5
99D2
330
9972
100
AcDbDictionary
280
     1
281
     1
  3
ACAD_XREC_ROUNDTRIP
360
99D3
  0
DICTIONARY
  5
99EE
330
9980
100
AcDbDictionary
280
     1
281
     1
  3
ACAD_XREC_ROUNDTRIP
360
99EF
  0
DICTIONARY
  5
99DE
330
9978
100
AcDbDictionary
280
     1
281
     1
  3
ACAD_XREC_ROUNDTRIP
360
99DF
  0
DICTIONARY
  5
99F0
330
9981
100
AcDbDictionary
280
     1
281
     1
  3
ACAD_XREC_ROUNDTRIP
360
99F1
  0
DICTIONARY
  5
99D6
330
9974
100
AcDbDictionary
280
     1
281
     1
  3
ACAD_XREC_ROUNDTRIP
360
99D7
  0
DICTIONARY
  5
99EC
330
997F
100
AcDbDictionary
280
     1
281
     1
  3
ACAD_XREC_ROUNDTRIP
360
99ED
  0
DICTIONARY
  5
99EA
330
997E
100
AcDbDictionary
280
     1
281
     1
  3
ACAD_XREC_ROUNDTRIP
360
99EB
  0
DICTIONARY
  5
99E4
330
997B
100
AcDbDictionary
280
     1
281
     1
  3
ACAD_XREC_ROUNDTRIP
360
99E5
  0
DICTIONARY
  5
99E6
330
997C
100
AcDbDictionary
280
     1
281
     1
  3
ACAD_XREC_ROUNDTRIP
360
99E7
  0
DICTIONARY
  5
99DC
330
9977
100
AcDbDictionary
280
     1
281
     1
  3
ACAD_XREC_ROUNDTRIP
360
99DD
  0
DICTIONARY
  5
99D0
330
9971
100
AcDbDictionary
280
     1
281
     1
  3
ACAD_XREC_ROUNDTRIP
360
99D1
  0
DICTIONARY
  5
99E8
330
997D
100
AcDbDictionary
280
     1
281
     1
  3
ACAD_XREC_ROUNDTRIP
360
99E9
  0
XRECORD
  5
99F9
102
{ACAD_REACTORS
330
99F8
102
}
330
99F8
100
AcDbXrecord
280
     1
102
DISPLAYNAME
  1
Imperial24
102
FLAGS
 90
        0
  0
XRECORD
  5
99FB
102
{ACAD_REACTORS
330
99FA
102
}
330
99FA
100
AcDbXrecord
280
     1
102
SHADEPLOT
 70
     0
102
SHADEPLOTRESLEVEL
 70
     2
102
SHADEPLOTCUSTOMDPI
 70
   300
  0
XRECORD
  5
99FD
102
{ACAD_REACTORS
330
99FC
102
}
330
99FC
100
AcDbXrecord
280
     1
102
SHADEPLOT
 70
     0
102
SHADEPLOTRESLEVEL
 70
     2
102
SHADEPLOTCUSTOMDPI
 70
   300
  0
XRECORD
  5
99C2
102
{ACAD_REACTORS
330
995B
102
}
330
995B
100
AcDbXrecord
280
     1
102
MATERIAL
148
0.0
149
0.0
149
0.0
 93
        0
 94
      127
282
     0
 72
     0
 77
     0
171
     0
175
     0
179
     0
273
     0
  0
XRECORD
  5
995D
102
{ACAD_REACTORS
330
995B
102
}
330
995B
100
AcDbXrecord
280
     1
270
     1
271
     1
  0
XRECORD
  5
995C
102
{ACAD_REACTORS
330
995B
102
}
330
995B
100
AcDbXrecord
280
     1
270
     1
271
     1
  0
XRECORD
  5
9960
102
{ACAD_REACTORS
330
995B
102
}
330
995B
100
AcDbXrecord
280
     1
270
     1
271
     1
  0
XRECORD
  5
995F
102
{ACAD_REACTORS
330
995B
102
}
330
995B
100
AcDbXrecord
280
     1
270
     1
271
     1
  0
XRECORD
  5
9961
102
{ACAD_REACTORS
330
995B
102
}
330
995B
100
AcDbXrecord
280
     1
270
     1
271
     1
  0
XRECORD
  5
995E
102
{ACAD_REACTORS
330
995B
102
}
330
995B
100
AcDbXrecord
280
     1
270
     1
271
     1
  0
XRECORD
  5
99C1
102
{ACAD_REACTORS
330
9953
102
}
330
9953
100
AcDbXrecord
280
     1
102
MATERIAL
148
0.0
149
0.0
149
0.0
 93
        0
 94
      127
282
     0
 72
     0
 77
     0
171
     0
175
     0
179
     0
273
     0
  0
XRECORD
  5
9955
102
{ACAD_REACTORS
330
9953
102
}
330
9953
100
AcDbXrecord
280
     1
270
     1
271
     1
  0
XRECORD
  5
9954
102
{ACAD_REACTORS
330
9953
102
}
330
9953
100
AcDbXrecord
280
     1
270
     1
271
     1
  0
XRECORD
  5
9958
102
{ACAD_REACTORS
330
9953
102
}
330
9953
100
AcDbXrecord
280
     1
270
     1
271
     1
  0
XRECORD
  5
9957
102
{ACAD_REACTORS
330
9953
102
}
330
9953
100
AcDbXrecord
280
     1
270
     1
271
     1
  0
XRECORD
  5
9959
102
{ACAD_REACTORS
330
9953
102
}
330
9953
100
AcDbXrecord
280
     1
270
     1
271
     1
  0
XRECORD
  5
9956
102
{ACAD_REACTORS
330
9953
102
}
330
9953
100
AcDbXrecord
280
     1
270
     1
271
     1
  0
XRECORD
  5
99C3
102
{ACAD_REACTORS
330
9963
102
}
330
9963
100
AcDbXrecord
280
     1
102
MATERIAL
148
0.0
149
0.0
149
0.0
 93
        0
 94
      127
282
     0
 72
     0
 77
     0
171
     0
175
     0
179
     0
273
     0
  0
XRECORD
  5
9965
102
{ACAD_REACTORS
330
9963
102
}
330
9963
100
AcDbXrecord
280
     1
270
     1
271
     1
  0
XRECORD
  5
9964
102
{ACAD_REACTORS
330
9963
102
}
330
9963
100
AcDbXrecord
280
     1
270
     1
271
     1
  0
XRECORD
  5
9968
102
{ACAD_REACTORS
330
9963
102
}
330
9963
100
AcDbXrecord
280
     1
270
     1
271
     1
  0
XRECORD
  5
9967
102
{ACAD_REACTORS
330
9963
102
}
330
9963
100
AcDbXrecord
280
     1
270
     1
271
     1
  0
XRECORD
  5
9969
102
{ACAD_REACTORS
330
9963
102
}
330
9963
100
AcDbXrecord
280
     1
270
     1
271
     1
  0
XRECORD
  5
9966
102
{ACAD_REACTORS
330
9963
102
}
330
9963
100
AcDbXrecord
280
     1
270
     1
271
     1
  0
XRECORD
  5
99F7
102
{ACAD_REACTORS
330
99F6
102
}
330
99F6
100
AcDbXrecord
280
     1
102
DISPLAYNAME
  1
Imperial24
102
FLAGS
 90
        0
  0
CELLSTYLEMAP
  5
99BE
102
{ACAD_REACTORS
330
99BD
102
}
330
99BD
100
AcDbCellStyleMap
 90
        3
300
CELLSTYLE
  1
TABLEFORMAT_BEGIN
 90
        5
170
     1
 91
        0
 92
    32768
 62
   257
 93
        1
300
CONTENTFORMAT
  1
CONTENTFORMAT_BEGIN
 90
        0
 91
        0
 92
      512
 93
        0
300

 40
0.0
140
1.0
 94
        5
 62
     0
340
95C9
144
0.25
309
CONTENTFORMAT_END
171
     0
 94
        0
309
TABLEFORMAT_END
  1
CELLSTYLE_BEGIN
 90
        1
 91
        1
300
_TITLE
309
CELLSTYLE_END
300
CELLSTYLE
  1
TABLEFORMAT_BEGIN
 90
        5
170
     1
 91
        0
 92
        0
 62
   257
 93
        1
300
CONTENTFORMAT
  1
CONTENTFORMAT_BEGIN
 90
        0
 91
        0
 92
      512
 93
        0
300

 40
0.0
140
1.0
 94
        5
 62
     0
340
95C9
144
0.18
309
CONTENTFORMAT_END
171
     0
 94
        0
309
TABLEFORMAT_END
  1
CELLSTYLE_BEGIN
 90
        2
 91
        1
300
_HEADER
309
CELLSTYLE_END
300
CELLSTYLE
  1
TABLEFORMAT_BEGIN
 90
        5
170
     1
 91
        0
 92
        0
 62
   257
 93
        1
300
CONTENTFORMAT
  1
CONTENTFORMAT_BEGIN
 90
        0
 91
        0
 92
      512
 93
        0
300

 40
0.0
140
1.0
 94
        2
 62
     0
340
95C9
144
0.18
309
CONTENTFORMAT_END
171
     0
 94
        0
309
TABLEFORMAT_END
  1
CELLSTYLE_BEGIN
 90
        3
 91
        2
300
_DATA
309
CELLSTYLE_END
  0
XRECORD
  5
99F4
102
{ACAD_REACTORS
330
99BD
102
}
330
99BD
100
AcDbXrecord
280
     1
102
ACAD_ROUNDTRIP_PRE2007_TABLESTYLE
 90
      512
 91
        0
  1

 92
      512
 93
        0
  2

 94
      512
 95
        0
  3

  0
XRECORD
  5
99CF
102
{ACAD_REACTORS
330
99CE
102
}
330
99CE
100
AcDbXrecord
280
     1
102
RTVSPost2010Prop28
280
     1
102
RTVSPost2010PropOp28
 70
     1
102
RTVSPost2010Prop29
280
     1
102
RTVSPost2010PropOp29
 70
     1
102
RTVSPost2010Prop30
280
     0
102
RTVSPost2010PropOp30
 70
     1
102
RTVSPost2010Prop31
280
     0
102
RTVSPost2010PropOp31
 70
     1
102
RTVSPost2010Prop32
280
     0
102
RTVSPost2010PropOp32
 70
     1
102
RTVSPost2010Prop33
280
     0
102
RTVSPost2010PropOp33
 70
     1
102
RTVSPost2010Prop34
280
     0
102
RTVSPost2010PropOp34
 70
     1
102
RTVSPost2010Prop35
280
     0
102
RTVSPost2010PropOp35
 70
     1
102
RTVSPost2010Prop36
280
     0
102
RTVSPost2010PropOp36
 70
     1
102
RTVSPost2010Prop37
 90
       50
102
RTVSPost2010PropOp37
 70
     1
102
RTVSPost2010Prop38
140
0.0
102
RTVSPost2010PropOp38
 70
     1
102
RTVSPost2010Prop39
140
1.0
102
RTVSPost2010PropOp39
 70
     1
102
RTVSPost2010Prop40
 90
        0
102
RTVSPost2010PropOp40
 70
     1
102
RTVSPost2010Prop41ColorIndex
 90
       18
102
RTVSPost2010Prop41ColorRGB
 90
        0
102
RTVSPost2010PropOp41
 70
     1
102
RTVSPost2010Prop42
 90
       50
102
RTVSPost2010PropOp42
 70
     1
102
RTVSPost2010Prop43
 90
        3
102
RTVSPost2010PropOp43
 70
     1
102
RTVSPost2010Prop44ColorIndex
 90
        5
102
RTVSPost2010Prop44ColorRGB
 90
      255
102
RTVSPost2010PropOp44
 70
     1
102
RTVSPost2010Prop45
280
     0
102
RTVSPost2010PropOp45
 70
     1
102
RTVSPost2010Prop46
 90
       50
102
RTVSPost2010PropOp46
 70
     1
102
RTVSPost2010Prop47
 90
       50
102
RTVSPost2010PropOp47
 70
     1
102
RTVSPost2010Prop48
 90
       50
102
RTVSPost2010PropOp48
 70
     1
102
RTVSPost2010Prop49
280
     0
102
RTVSPost2010PropOp49
 70
     1
102
RTVSPost2010Prop50
 90
       50
102
RTVSPost2010PropOp50
 70
     1
102
RTVSPost2010Prop51ColorIndex
 90
      256
102
RTVSPost2010Prop51ColorRGB
 90
-16777216
102
RTVSPost2010PropOp51
 70
     0
102
RTVSPost2010Prop52
140
1.0
102
RTVSPost2010PropOp52
 70
     0
102
RTVSPost2010Prop53
 90
        2
102
RTVSPost2010PropOp53
 70
     1
102
RTVSPost2010Prop54
  1
strokes_ogs.tif
102
RTVSPost2010PropOp54
 70
     1
102
RTVSPost2010Prop55
280
     0
102
RTVSPost2010PropOp55
 70
     1
102
RTVSPost2010Prop56
140
1.0
102
RTVSPost2010PropOp56
 70
     1
102
RTVSPost2010Prop57
140
1.0
102
RTVSPost2010PropOp57
 70
     1
102
RTVSPropertyOp0
 70
     1
102
RTVSPropertyOp1
 70
     1
102
RTVSPropertyOp2
 70
     1
102
RTVSPropertyOp3
 70
     1
102
RTVSPropertyOp4
 70
     1
102
RTVSPropertyOp5
 70
     1
102
RTVSPropertyOp6
 70
     1
102
RTVSPropertyOp7
 70
     1
102
RTVSPropertyOp8
 70
     1
102
RTVSPropertyOp9
 70
     1
102
RTVSPropertyOp10
 70
     1
102
RTVSPropertyOp11
 70
     1
102
RTVSPropertyOp12
 70
     1
102
RTVSPropertyOp13
 70
     1
102
RTVSPropertyOp14
 70
     1
102
RTVSPropertyOp15
 70
     1
102
RTVSPropertyOp16
 70
     1
102
RTVSPropertyOp17
 70
     1
102
RTVSPropertyOp18
 70
     1
102
RTVSPropertyOp19
 70
     1
102
RTVSPropertyOp20
 70
     1
102
RTVSPropertyOp21
 70
     1
102
RTVSPropertyOp22
 70
     1
102
RTVSPropertyOp23
 70
     1
102
RTVSPropertyOp24
 70
     1
102
RTVSPropertyOp25
 70
     1
102
RTVSPropertyOp26
 70
     1
102
RTVSPropertyOp27
 70
     1
102
RTVSPropertyOp28
 70
     1
102
RTVSPropertyOp29
 70
     1
102
RTVSPropertyOp30
 70
     1
102
RTVSPropertyOp31
 70
     1
102
RTVSPropertyOp32
 70
     1
102
RTVSPropertyOp33
 70
     1
102
RTVSPropertyOp34
 70
     1
102
RTVSPropertyOp35
 70
     1
102
RTVSPropertyOp36
 70
     1
102
RTVSPropertyOp37
 70
     1
102
RTVSPropertyOp38
 70
     1
102
RTVSPropertyOp39
 70
     1
102
RTVSPropertyOp40
 70
     1
102
RTVSPropertyOp41
 70
     1
102
RTVSPropertyOp42
 70
     1
102
RTVSPropertyOp43
 70
     1
102
RTVSPropertyOp44
 70
     1
102
RTVSPropertyOp45
 70
     1
102
RTVSPropertyOp46
 70
     1
102
RTVSPropertyOp47
 70
     1
102
RTVSPropertyOp48
 70
     1
102
RTVSPropertyOp49
 70
     1
102
RTVSPropertyOp50
 70
     1
102
RTVSPropertyOp51
 70
     0
102
RTVSPropertyOp52
 70
     0
102
RTVSPropertyOp53
 70
     1
102
RTVSPropertyOp54
 70
     1
102
RTVSPropertyOp55
 70
     1
102
RTVSPropertyOp56
 70
     1
102
RTVSPropertyOp57
 70
     1
102
RTVSPropertyOp58
 70
     1
102
RTVSPropertyOp59
 70
     1
102
RTVSPropertyOp60
 70
     1
102
RTVSPropertyOp61
 70
     1
102
RTVSPropertyOp62
 70
     1
  0
XRECORD
  5
99CD
102
{ACAD_REACTORS
330
99CC
102
}
330
99CC
100
AcDbXrecord
280
     1
102
RTVSPost2010Prop28
280
     0
102
RTVSPost2010PropOp28
 70
     1
102
RTVSPost2010Prop29
280
     1
102
RTVSPost2010PropOp29
 70
     1
102
RTVSPost2010Prop30
280
     1
102
RTVSPost2010PropOp30
 70
     1
102
RTVSPost2010Prop31
280
     0
102
RTVSPost2010PropOp31
 70
     1
102
RTVSPost2010Prop32
280
     0
102
RTVSPost2010PropOp32
 70
     1
102
RTVSPost2010Prop33
280
     0
102
RTVSPost2010PropOp33
 70
     1
102
RTVSPost2010Prop34
280
     0
102
RTVSPost2010PropOp34
 70
     1
102
RTVSPost2010Prop35
280
     0
102
RTVSPost2010PropOp35
 70
     1
102
RTVSPost2010Prop36
280
     0
102
RTVSPost2010PropOp36
 70
     1
102
RTVSPost2010Prop37
 90
       50
102
RTVSPost2010PropOp37
 70
     1
102
RTVSPost2010Prop38
140
0.0
102
RTVSPost2010PropOp38
 70
     1
102
RTVSPost2010Prop39
140
1.0
102
RTVSPost2010PropOp39
 70
     1
102
RTVSPost2010Prop40
 90
        0
102
RTVSPost2010PropOp40
 70
     1
102
RTVSPost2010Prop41ColorIndex
 90
       18
102
RTVSPost2010Prop41ColorRGB
 90
        0
102
RTVSPost2010PropOp41
 70
     1
102
RTVSPost2010Prop42
 90
       50
102
RTVSPost2010PropOp42
 70
     1
102
RTVSPost2010Prop43
 90
        3
102
RTVSPost2010PropOp43
 70
     1
102
RTVSPost2010Prop44ColorIndex
 90
        5
102
RTVSPost2010Prop44ColorRGB
 90
      255
102
RTVSPost2010PropOp44
 70
     1
102
RTVSPost2010Prop45
280
     0
102
RTVSPost2010PropOp45
 70
     1
102
RTVSPost2010Prop46
 90
       50
102
RTVSPost2010PropOp46
 70
     1
102
RTVSPost2010Prop47
 90
       50
102
RTVSPost2010PropOp47
 70
     1
102
RTVSPost2010Prop48
 90
       50
102
RTVSPost2010PropOp48
 70
     1
102
RTVSPost2010Prop49
280
     0
102
RTVSPost2010PropOp49
 70
     1
102
RTVSPost2010Prop50
 90
       50
102
RTVSPost2010PropOp50
 70
     1
102
RTVSPost2010Prop51ColorIndex
 90
      256
102
RTVSPost2010Prop51ColorRGB
 90
-16777216
102
RTVSPost2010PropOp51
 70
     0
102
RTVSPost2010Prop52
140
1.0
102
RTVSPost2010PropOp52
 70
     0
102
RTVSPost2010Prop53
 90
        2
102
RTVSPost2010PropOp53
 70
     1
102
RTVSPost2010Prop54
  1
strokes_ogs.tif
102
RTVSPost2010PropOp54
 70
     1
102
RTVSPost2010Prop55
280
     0
102
RTVSPost2010PropOp55
 70
     1
102
RTVSPost2010Prop56
140
1.0
102
RTVSPost2010PropOp56
 70
     1
102
RTVSPost2010Prop57
140
1.0
102
RTVSPost2010PropOp57
 70
     1
102
RTVSPropertyOp0
 70
     1
102
RTVSPropertyOp1
 70
     1
102
RTVSPropertyOp2
 70
     1
102
RTVSPropertyOp3
 70
     1
102
RTVSPropertyOp4
 70
     1
102
RTVSPropertyOp5
 70
     1
102
RTVSPropertyOp6
 70
     1
102
RTVSPropertyOp7
 70
     1
102
RTVSPropertyOp8
 70
     1
102
RTVSPropertyOp9
 70
     1
102
RTVSPropertyOp10
 70
     1
102
RTVSPropertyOp11
 70
     1
102
RTVSPropertyOp12
 70
     1
102
RTVSPropertyOp13
 70
     1
102
RTVSPropertyOp14
 70
     1
102
RTVSPropertyOp15
 70
     1
102
RTVSPropertyOp16
 70
     1
102
RTVSPropertyOp17
 70
     1
102
RTVSPropertyOp18
 70
     1
102
RTVSPropertyOp19
 70
     1
102
RTVSPropertyOp20
 70
     1
102
RTVSPropertyOp21
 70
     1
102
RTVSPropertyOp22
 70
     1
102
RTVSPropertyOp23
 70
     1
102
RTVSPropertyOp24
 70
     1
102
RTVSPropertyOp25
 70
     1
102
RTVSPropertyOp26
 70
     1
102
RTVSPropertyOp27
 70
     1
102
RTVSPropertyOp28
 70
     1
102
RTVSPropertyOp29
 70
     1
102
RTVSPropertyOp30
 70
     1
102
RTVSPropertyOp31
 70
     1
102
RTVSPropertyOp32
 70
     1
102
RTVSPropertyOp33
 70
     1
102
RTVSPropertyOp34
 70
     1
102
RTVSPropertyOp35
 70
     1
102
RTVSPropertyOp36
 70
     1
102
RTVSPropertyOp37
 70
     1
102
RTVSPropertyOp38
 70
     1
102
RTVSPropertyOp39
 70
     1
102
RTVSPropertyOp40
 70
     1
102
RTVSPropertyOp41
 70
     1
102
RTVSPropertyOp42
 70
     1
102
RTVSPropertyOp43
 70
     1
102
RTVSPropertyOp44
 70
     1
102
RTVSPropertyOp45
 70
     1
102
RTVSPropertyOp46
 70
     1
102
RTVSPropertyOp47
 70
     1
102
RTVSPropertyOp48
 70
     1
102
RTVSPropertyOp49
 70
     1
102
RTVSPropertyOp50
 70
     1
102
RTVSPropertyOp51
 70
     0
102
RTVSPropertyOp52
 70
     0
102
RTVSPropertyOp53
 70
     1
102
RTVSPropertyOp54
 70
     1
102
RTVSPropertyOp55
 70
     1
102
RTVSPropertyOp56
 70
     1
102
RTVSPropertyOp57
 70
     1
102
RTVSPropertyOp58
 70
     1
102
RTVSPropertyOp59
 70
     1
102
RTVSPropertyOp60
 70
     1
102
RTVSPropertyOp61
 70
     1
102
RTVSPropertyOp62
 70
     1
  0
XRECORD
  5
99DB
102
{ACAD_REACTORS
330
99DA
102
}
330
99DA
100
AcDbXrecord
280
     1
102
RTVSPost2010Prop28
280
     0
102
RTVSPost2010PropOp28
 70
     1
102
RTVSPost2010Prop29
280
     1
102
RTVSPost2010PropOp29
 70
     1
102
RTVSPost2010Prop30
280
     1
102
RTVSPost2010PropOp30
 70
     1
102
RTVSPost2010Prop31
280
     0
102
RTVSPost2010PropOp31
 70
     1
102
RTVSPost2010Prop32
280
     0
102
RTVSPost2010PropOp32
 70
     1
102
RTVSPost2010Prop33
280
     0
102
RTVSPost2010PropOp33
 70
     1
102
RTVSPost2010Prop34
280
     0
102
RTVSPost2010PropOp34
 70
     1
102
RTVSPost2010Prop35
280
     0
102
RTVSPost2010PropOp35
 70
     1
102
RTVSPost2010Prop36
280
     0
102
RTVSPost2010PropOp36
 70
     1
102
RTVSPost2010Prop37
 90
       50
102
RTVSPost2010PropOp37
 70
     1
102
RTVSPost2010Prop38
140
0.0
102
RTVSPost2010PropOp38
 70
     1
102
RTVSPost2010Prop39
140
1.0
102
RTVSPost2010PropOp39
 70
     1
102
RTVSPost2010Prop40
 90
        0
102
RTVSPost2010PropOp40
 70
     1
102
RTVSPost2010Prop41ColorIndex
 90
       18
102
RTVSPost2010Prop41ColorRGB
 90
        0
102
RTVSPost2010PropOp41
 70
     1
102
RTVSPost2010Prop42
 90
       50
102
RTVSPost2010PropOp42
 70
     1
102
RTVSPost2010Prop43
 90
        3
102
RTVSPost2010PropOp43
 70
     1
102
RTVSPost2010Prop44ColorIndex
 90
        5
102
RTVSPost2010Prop44ColorRGB
 90
      255
102
RTVSPost2010PropOp44
 70
     1
102
RTVSPost2010Prop45
280
     0
102
RTVSPost2010PropOp45
 70
     1
102
RTVSPost2010Prop46
 90
       50
102
RTVSPost2010PropOp46
 70
     1
102
RTVSPost2010Prop47
 90
       50
102
RTVSPost2010PropOp47
 70
     1
102
RTVSPost2010Prop48
 90
       50
102
RTVSPost2010PropOp48
 70
     1
102
RTVSPost2010Prop49
280
     0
102
RTVSPost2010PropOp49
 70
     1
102
RTVSPost2010Prop50
 90
       50
102
RTVSPost2010PropOp50
 70
     1
102
RTVSPost2010Prop51ColorIndex
 90
      256
102
RTVSPost2010Prop51ColorRGB
 90
-16777216
102
RTVSPost2010PropOp51
 70
     0
102
RTVSPost2010Prop52
140
1.0
102
RTVSPost2010PropOp52
 70
     0
102
RTVSPost2010Prop53
 90
        2
102
RTVSPost2010PropOp53
 70
     1
102
RTVSPost2010Prop54
  1
strokes_ogs.tif
102
RTVSPost2010PropOp54
 70
     1
102
RTVSPost2010Prop55
280
     0
102
RTVSPost2010PropOp55
 70
     1
102
RTVSPost2010Prop56
140
1.0
102
RTVSPost2010PropOp56
 70
     1
102
RTVSPost2010Prop57
140
1.0
102
RTVSPost2010PropOp57
 70
     1
102
RTVSPropertyOp0
 70
     1
102
RTVSPropertyOp1
 70
     1
102
RTVSPropertyOp2
 70
     1
102
RTVSPropertyOp3
 70
     1
102
RTVSPropertyOp4
 70
     1
102
RTVSPropertyOp5
 70
     1
102
RTVSPropertyOp6
 70
     1
102
RTVSPropertyOp7
 70
     1
102
RTVSPropertyOp8
 70
     1
102
RTVSPropertyOp9
 70
     1
102
RTVSPropertyOp10
 70
     1
102
RTVSPropertyOp11
 70
     1
102
RTVSPropertyOp12
 70
     1
102
RTVSPropertyOp13
 70
     1
102
RTVSPropertyOp14
 70
     1
102
RTVSPropertyOp15
 70
     1
102
RTVSPropertyOp16
 70
     1
102
RTVSPropertyOp17
 70
     1
102
RTVSPropertyOp18
 70
     1
102
RTVSPropertyOp19
 70
     1
102
RTVSPropertyOp20
 70
     1
102
RTVSPropertyOp21
 70
     1
102
RTVSPropertyOp22
 70
     1
102
RTVSPropertyOp23
 70
     1
102
RTVSPropertyOp24
 70
     1
102
RTVSPropertyOp25
 70
     1
102
RTVSPropertyOp26
 70
     1
102
RTVSPropertyOp27
 70
     1
102
RTVSPropertyOp28
 70
     1
102
RTVSPropertyOp29
 70
     1
102
RTVSPropertyOp30
 70
     1
102
RTVSPropertyOp31
 70
     1
102
RTVSPropertyOp32
 70
     1
102
RTVSPropertyOp33
 70
     1
102
RTVSPropertyOp34
 70
     1
102
RTVSPropertyOp35
 70
     1
102
RTVSPropertyOp36
 70
     1
102
RTVSPropertyOp37
 70
     1
102
RTVSPropertyOp38
 70
     1
102
RTVSPropertyOp39
 70
     1
102
RTVSPropertyOp40
 70
     1
102
RTVSPropertyOp41
 70
     1
102
RTVSPropertyOp42
 70
     1
102
RTVSPropertyOp43
 70
     1
102
RTVSPropertyOp44
 70
     1
102
RTVSPropertyOp45
 70
     1
102
RTVSPropertyOp46
 70
     1
102
RTVSPropertyOp47
 70
     1
102
RTVSPropertyOp48
 70
     1
102
RTVSPropertyOp49
 70
     1
102
RTVSPropertyOp50
 70
     1
102
RTVSPropertyOp51
 70
     0
102
RTVSPropertyOp52
 70
     0
102
RTVSPropertyOp53
 70
     1
102
RTVSPropertyOp54
 70
     1
102
RTVSPropertyOp55
 70
     1
102
RTVSPropertyOp56
 70
     1
102
RTVSPropertyOp57
 70
     1
102
RTVSPropertyOp58
 70
     1
102
RTVSPropertyOp59
 70
     1
102
RTVSPropertyOp60
 70
     1
102
RTVSPropertyOp61
 70
     1
102
RTVSPropertyOp62
 70
     1
  0
XRECORD
  5
99E3
102
{ACAD_REACTORS
330
99E2
102
}
330
99E2
100
AcDbXrecord
280
     1
102
RTVSPost2010Prop28
280
     0
102
RTVSPost2010PropOp28
 70
     1
102
RTVSPost2010Prop29
280
     1
102
RTVSPost2010PropOp29
 70
     1
102
RTVSPost2010Prop30
280
     1
102
RTVSPost2010PropOp30
 70
     1
102
RTVSPost2010Prop31
280
     0
102
RTVSPost2010PropOp31
 70
     1
102
RTVSPost2010Prop32
280
     0
102
RTVSPost2010PropOp32
 70
     1
102
RTVSPost2010Prop33
280
     0
102
RTVSPost2010PropOp33
 70
     1
102
RTVSPost2010Prop34
280
     0
102
RTVSPost2010PropOp34
 70
     1
102
RTVSPost2010Prop35
280
     0
102
RTVSPost2010PropOp35
 70
     1
102
RTVSPost2010Prop36
280
     0
102
RTVSPost2010PropOp36
 70
     1
102
RTVSPost2010Prop37
 90
       50
102
RTVSPost2010PropOp37
 70
     1
102
RTVSPost2010Prop38
140
0.0
102
RTVSPost2010PropOp38
 70
     1
102
RTVSPost2010Prop39
140
1.0
102
RTVSPost2010PropOp39
 70
     1
102
RTVSPost2010Prop40
 90
        0
102
RTVSPost2010PropOp40
 70
     1
102
RTVSPost2010Prop41ColorIndex
 90
       18
102
RTVSPost2010Prop41ColorRGB
 90
        0
102
RTVSPost2010PropOp41
 70
     1
102
RTVSPost2010Prop42
 90
       50
102
RTVSPost2010PropOp42
 70
     1
102
RTVSPost2010Prop43
 90
        3
102
RTVSPost2010PropOp43
 70
     1
102
RTVSPost2010Prop44ColorIndex
 90
        5
102
RTVSPost2010Prop44ColorRGB
 90
      255
102
RTVSPost2010PropOp44
 70
     1
102
RTVSPost2010Prop45
280
     0
102
RTVSPost2010PropOp45
 70
     1
102
RTVSPost2010Prop46
 90
       50
102
RTVSPost2010PropOp46
 70
     1
102
RTVSPost2010Prop47
 90
       50
102
RTVSPost2010PropOp47
 70
     1
102
RTVSPost2010Prop48
 90
       50
102
RTVSPost2010PropOp48
 70
     1
102
RTVSPost2010Prop49
280
     0
102
RTVSPost2010PropOp49
 70
     1
102
RTVSPost2010Prop50
 90
       50
102
RTVSPost2010PropOp50
 70
     1
102
RTVSPost2010Prop51ColorIndex
 90
      256
102
RTVSPost2010Prop51ColorRGB
 90
-16777216
102
RTVSPost2010PropOp51
 70
     0
102
RTVSPost2010Prop52
140
1.0
102
RTVSPost2010PropOp52
 70
     0
102
RTVSPost2010Prop53
 90
        2
102
RTVSPost2010PropOp53
 70
     1
102
RTVSPost2010Prop54
  1
strokes_ogs.tif
102
RTVSPost2010PropOp54
 70
     1
102
RTVSPost2010Prop55
280
     0
102
RTVSPost2010PropOp55
 70
     1
102
RTVSPost2010Prop56
140
1.0
102
RTVSPost2010PropOp56
 70
     1
102
RTVSPost2010Prop57
140
1.0
102
RTVSPost2010PropOp57
 70
     1
102
RTVSPropertyOp0
 70
     1
102
RTVSPropertyOp1
 70
     1
102
RTVSPropertyOp2
 70
     1
102
RTVSPropertyOp3
 70
     1
102
RTVSPropertyOp4
 70
     1
102
RTVSPropertyOp5
 70
     1
102
RTVSPropertyOp6
 70
     1
102
RTVSPropertyOp7
 70
     1
102
RTVSPropertyOp8
 70
     1
102
RTVSPropertyOp9
 70
     1
102
RTVSPropertyOp10
 70
     1
102
RTVSPropertyOp11
 70
     1
102
RTVSPropertyOp12
 70
     1
102
RTVSPropertyOp13
 70
     1
102
RTVSPropertyOp14
 70
     1
102
RTVSPropertyOp15
 70
     1
102
RTVSPropertyOp16
 70
     1
102
RTVSPropertyOp17
 70
     1
102
RTVSPropertyOp18
 70
     1
102
RTVSPropertyOp19
 70
     1
102
RTVSPropertyOp20
 70
     1
102
RTVSPropertyOp21
 70
     1
102
RTVSPropertyOp22
 70
     1
102
RTVSPropertyOp23
 70
     1
102
RTVSPropertyOp24
 70
     1
102
RTVSPropertyOp25
 70
     1
102
RTVSPropertyOp26
 70
     1
102
RTVSPropertyOp27
 70
     1
102
RTVSPropertyOp28
 70
     1
102
RTVSPropertyOp29
 70
     1
102
RTVSPropertyOp30
 70
     1
102
RTVSPropertyOp31
 70
     1
102
RTVSPropertyOp32
 70
     1
102
RTVSPropertyOp33
 70
     1
102
RTVSPropertyOp34
 70
     1
102
RTVSPropertyOp35
 70
     1
102
RTVSPropertyOp36
 70
     1
102
RTVSPropertyOp37
 70
     1
102
RTVSPropertyOp38
 70
     1
102
RTVSPropertyOp39
 70
     1
102
RTVSPropertyOp40
 70
     1
102
RTVSPropertyOp41
 70
     1
102
RTVSPropertyOp42
 70
     1
102
RTVSPropertyOp43
 70
     1
102
RTVSPropertyOp44
 70
     1
102
RTVSPropertyOp45
 70
     1
102
RTVSPropertyOp46
 70
     1
102
RTVSPropertyOp47
 70
     1
102
RTVSPropertyOp48
 70
     1
102
RTVSPropertyOp49
 70
     1
102
RTVSPropertyOp50
 70
     1
102
RTVSPropertyOp51
 70
     0
102
RTVSPropertyOp52
 70
     0
102
RTVSPropertyOp53
 70
     1
102
RTVSPropertyOp54
 70
     1
102
RTVSPropertyOp55
 70
     1
102
RTVSPropertyOp56
 70
     1
102
RTVSPropertyOp57
 70
     1
102
RTVSPropertyOp58
 70
     1
102
RTVSPropertyOp59
 70
     1
102
RTVSPropertyOp60
 70
     1
102
RTVSPropertyOp61
 70
     1
102
RTVSPropertyOp62
 70
     1
  0
XRECORD
  5
99D5
102
{ACAD_REACTORS
330
99D4
102
}
330
99D4
100
AcDbXrecord
280
     1
102
RTVSPost2010Prop28
280
     0
102
RTVSPost2010PropOp28
 70
     1
102
RTVSPost2010Prop29
280
     1
102
RTVSPost2010PropOp29
 70
     1
102
RTVSPost2010Prop30
280
     1
102
RTVSPost2010PropOp30
 70
     1
102
RTVSPost2010Prop31
280
     0
102
RTVSPost2010PropOp31
 70
     1
102
RTVSPost2010Prop32
280
     0
102
RTVSPost2010PropOp32
 70
     1
102
RTVSPost2010Prop33
280
     0
102
RTVSPost2010PropOp33
 70
     1
102
RTVSPost2010Prop34
280
     0
102
RTVSPost2010PropOp34
 70
     1
102
RTVSPost2010Prop35
280
     0
102
RTVSPost2010PropOp35
 70
     1
102
RTVSPost2010Prop36
280
     0
102
RTVSPost2010PropOp36
 70
     1
102
RTVSPost2010Prop37
 90
       50
102
RTVSPost2010PropOp37
 70
     1
102
RTVSPost2010Prop38
140
0.0
102
RTVSPost2010PropOp38
 70
     1
102
RTVSPost2010Prop39
140
1.0
102
RTVSPost2010PropOp39
 70
     1
102
RTVSPost2010Prop40
 90
        0
102
RTVSPost2010PropOp40
 70
     1
102
RTVSPost2010Prop41ColorIndex
 90
       18
102
RTVSPost2010Prop41ColorRGB
 90
        0
102
RTVSPost2010PropOp41
 70
     1
102
RTVSPost2010Prop42
 90
       50
102
RTVSPost2010PropOp42
 70
     1
102
RTVSPost2010Prop43
 90
        3
102
RTVSPost2010PropOp43
 70
     1
102
RTVSPost2010Prop44ColorIndex
 90
        5
102
RTVSPost2010Prop44ColorRGB
 90
      255
102
RTVSPost2010PropOp44
 70
     1
102
RTVSPost2010Prop45
280
     0
102
RTVSPost2010PropOp45
 70
     1
102
RTVSPost2010Prop46
 90
       50
102
RTVSPost2010PropOp46
 70
     1
102
RTVSPost2010Prop47
 90
       50
102
RTVSPost2010PropOp47
 70
     1
102
RTVSPost2010Prop48
 90
       50
102
RTVSPost2010PropOp48
 70
     1
102
RTVSPost2010Prop49
280
     0
102
RTVSPost2010PropOp49
 70
     1
102
RTVSPost2010Prop50
 90
       50
102
RTVSPost2010PropOp50
 70
     1
102
RTVSPost2010Prop51ColorIndex
 90
      256
102
RTVSPost2010Prop51ColorRGB
 90
-16777216
102
RTVSPost2010PropOp51
 70
     0
102
RTVSPost2010Prop52
140
1.0
102
RTVSPost2010PropOp52
 70
     0
102
RTVSPost2010Prop53
 90
        2
102
RTVSPost2010PropOp53
 70
     1
102
RTVSPost2010Prop54
  1
strokes_ogs.tif
102
RTVSPost2010PropOp54
 70
     1
102
RTVSPost2010Prop55
280
     0
102
RTVSPost2010PropOp55
 70
     1
102
RTVSPost2010Prop56
140
1.0
102
RTVSPost2010PropOp56
 70
     1
102
RTVSPost2010Prop57
140
1.0
102
RTVSPost2010PropOp57
 70
     1
102
RTVSPropertyOp0
 70
     1
102
RTVSPropertyOp1
 70
     1
102
RTVSPropertyOp2
 70
     1
102
RTVSPropertyOp3
 70
     1
102
RTVSPropertyOp4
 70
     1
102
RTVSPropertyOp5
 70
     1
102
RTVSPropertyOp6
 70
     1
102
RTVSPropertyOp7
 70
     1
102
RTVSPropertyOp8
 70
     1
102
RTVSPropertyOp9
 70
     1
102
RTVSPropertyOp10
 70
     1
102
RTVSPropertyOp11
 70
     1
102
RTVSPropertyOp12
 70
     1
102
RTVSPropertyOp13
 70
     1
102
RTVSPropertyOp14
 70
     1
102
RTVSPropertyOp15
 70
     1
102
RTVSPropertyOp16
 70
     1
102
RTVSPropertyOp17
 70
     1
102
RTVSPropertyOp18
 70
     1
102
RTVSPropertyOp19
 70
     1
102
RTVSPropertyOp20
 70
     1
102
RTVSPropertyOp21
 70
     1
102
RTVSPropertyOp22
 70
     1
102
RTVSPropertyOp23
 70
     1
102
RTVSPropertyOp24
 70
     1
102
RTVSPropertyOp25
 70
     1
102
RTVSPropertyOp26
 70
     1
102
RTVSPropertyOp27
 70
     1
102
RTVSPropertyOp28
 70
     1
102
RTVSPropertyOp29
 70
     1
102
RTVSPropertyOp30
 70
     1
102
RTVSPropertyOp31
 70
     1
102
RTVSPropertyOp32
 70
     1
102
RTVSPropertyOp33
 70
     1
102
RTVSPropertyOp34
 70
     1
102
RTVSPropertyOp35
 70
     1
102
RTVSPropertyOp36
 70
     1
102
RTVSPropertyOp37
 70
     1
102
RTVSPropertyOp38
 70
     1
102
RTVSPropertyOp39
 70
     1
102
RTVSPropertyOp40
 70
     1
102
RTVSPropertyOp41
 70
     1
102
RTVSPropertyOp42
 70
     1
102
RTVSPropertyOp43
 70
     1
102
RTVSPropertyOp44
 70
     1
102
RTVSPropertyOp45
 70
     1
102
RTVSPropertyOp46
 70
     1
102
RTVSPropertyOp47
 70
     1
102
RTVSPropertyOp48
 70
     1
102
RTVSPropertyOp49
 70
     1
102
RTVSPropertyOp50
 70
     1
102
RTVSPropertyOp51
 70
     0
102
RTVSPropertyOp52
 70
     0
102
RTVSPropertyOp53
 70
     1
102
RTVSPropertyOp54
 70
     1
102
RTVSPropertyOp55
 70
     1
102
RTVSPropertyOp56
 70
     1
102
RTVSPropertyOp57
 70
     1
102
RTVSPropertyOp58
 70
     1
102
RTVSPropertyOp59
 70
     1
102
RTVSPropertyOp60
 70
     1
102
RTVSPropertyOp61
 70
     1
102
RTVSPropertyOp62
 70
     1
  0
XRECORD
  5
99D9
102
{ACAD_REACTORS
330
99D8
102
}
330
99D8
100
AcDbXrecord
280
     1
102
RTVSPost2010Prop28
280
     0
102
RTVSPost2010PropOp28
 70
     1
102
RTVSPost2010Prop29
280
     1
102
RTVSPost2010PropOp29
 70
     1
102
RTVSPost2010Prop30
280
     1
102
RTVSPost2010PropOp30
 70
     1
102
RTVSPost2010Prop31
280
     0
102
RTVSPost2010PropOp31
 70
     1
102
RTVSPost2010Prop32
280
     0
102
RTVSPost2010PropOp32
 70
     1
102
RTVSPost2010Prop33
280
     0
102
RTVSPost2010PropOp33
 70
     1
102
RTVSPost2010Prop34
280
     0
102
RTVSPost2010PropOp34
 70
     1
102
RTVSPost2010Prop35
280
     0
102
RTVSPost2010PropOp35
 70
     1
102
RTVSPost2010Prop36
280
     0
102
RTVSPost2010PropOp36
 70
     1
102
RTVSPost2010Prop37
 90
       50
102
RTVSPost2010PropOp37
 70
     1
102
RTVSPost2010Prop38
140
0.0
102
RTVSPost2010PropOp38
 70
     1
102
RTVSPost2010Prop39
140
1.0
102
RTVSPost2010PropOp39
 70
     1
102
RTVSPost2010Prop40
 90
        0
102
RTVSPost2010PropOp40
 70
     1
102
RTVSPost2010Prop41ColorIndex
 90
       18
102
RTVSPost2010Prop41ColorRGB
 90
        0
102
RTVSPost2010PropOp41
 70
     1
102
RTVSPost2010Prop42
 90
       50
102
RTVSPost2010PropOp42
 70
     1
102
RTVSPost2010Prop43
 90
        3
102
RTVSPost2010PropOp43
 70
     1
102
RTVSPost2010Prop44ColorIndex
 90
        5
102
RTVSPost2010Prop44ColorRGB
 90
      255
102
RTVSPost2010PropOp44
 70
     1
102
RTVSPost2010Prop45
280
     0
102
RTVSPost2010PropOp45
 70
     1
102
RTVSPost2010Prop46
 90
       50
102
RTVSPost2010PropOp46
 70
     1
102
RTVSPost2010Prop47
 90
       50
102
RTVSPost2010PropOp47
 70
     1
102
RTVSPost2010Prop48
 90
       50
102
RTVSPost2010PropOp48
 70
     1
102
RTVSPost2010Prop49
280
     0
102
RTVSPost2010PropOp49
 70
     1
102
RTVSPost2010Prop50
 90
       50
102
RTVSPost2010PropOp50
 70
     1
102
RTVSPost2010Prop51ColorIndex
 90
      256
102
RTVSPost2010Prop51ColorRGB
 90
-16777216
102
RTVSPost2010PropOp51
 70
     0
102
RTVSPost2010Prop52
140
1.0
102
RTVSPost2010PropOp52
 70
     0
102
RTVSPost2010Prop53
 90
        2
102
RTVSPost2010PropOp53
 70
     1
102
RTVSPost2010Prop54
  1
strokes_ogs.tif
102
RTVSPost2010PropOp54
 70
     1
102
RTVSPost2010Prop55
280
     0
102
RTVSPost2010PropOp55
 70
     1
102
RTVSPost2010Prop56
140
1.0
102
RTVSPost2010PropOp56
 70
     1
102
RTVSPost2010Prop57
140
1.0
102
RTVSPost2010PropOp57
 70
     1
102
RTVSPropertyOp0
 70
     1
102
RTVSPropertyOp1
 70
     1
102
RTVSPropertyOp2
 70
     1
102
RTVSPropertyOp3
 70
     1
102
RTVSPropertyOp4
 70
     1
102
RTVSPropertyOp5
 70
     1
102
RTVSPropertyOp6
 70
     1
102
RTVSPropertyOp7
 70
     1
102
RTVSPropertyOp8
 70
     1
102
RTVSPropertyOp9
 70
     1
102
RTVSPropertyOp10
 70
     1
102
RTVSPropertyOp11
 70
     1
102
RTVSPropertyOp12
 70
     1
102
RTVSPropertyOp13
 70
     1
102
RTVSPropertyOp14
 70
     1
102
RTVSPropertyOp15
 70
     1
102
RTVSPropertyOp16
 70
     1
102
RTVSPropertyOp17
 70
     1
102
RTVSPropertyOp18
 70
     1
102
RTVSPropertyOp19
 70
     1
102
RTVSPropertyOp20
 70
     1
102
RTVSPropertyOp21
 70
     1
102
RTVSPropertyOp22
 70
     1
102
RTVSPropertyOp23
 70
     1
102
RTVSPropertyOp24
 70
     1
102
RTVSPropertyOp25
 70
     1
102
RTVSPropertyOp26
 70
     1
102
RTVSPropertyOp27
 70
     1
102
RTVSPropertyOp28
 70
     1
102
RTVSPropertyOp29
 70
     1
102
RTVSPropertyOp30
 70
     1
102
RTVSPropertyOp31
 70
     1
102
RTVSPropertyOp32
 70
     1
102
RTVSPropertyOp33
 70
     1
102
RTVSPropertyOp34
 70
     1
102
RTVSPropertyOp35
 70
     1
102
RTVSPropertyOp36
 70
     1
102
RTVSPropertyOp37
 70
     1
102
RTVSPropertyOp38
 70
     1
102
RTVSPropertyOp39
 70
     1
102
RTVSPropertyOp40
 70
     1
102
RTVSPropertyOp41
 70
     1
102
RTVSPropertyOp42
 70
     1
102
RTVSPropertyOp43
 70
     1
102
RTVSPropertyOp44
 70
     1
102
RTVSPropertyOp45
 70
     1
102
RTVSPropertyOp46
 70
     1
102
RTVSPropertyOp47
 70
     1
102
RTVSPropertyOp48
 70
     1
102
RTVSPropertyOp49
 70
     1
102
RTVSPropertyOp50
 70
     1
102
RTVSPropertyOp51
 70
     0
102
RTVSPropertyOp52
 70
     0
102
RTVSPropertyOp53
 70
     1
102
RTVSPropertyOp54
 70
     1
102
RTVSPropertyOp55
 70
     1
102
RTVSPropertyOp56
 70
     1
102
RTVSPropertyOp57
 70
     1
102
RTVSPropertyOp58
 70
     1
102
RTVSPropertyOp59
 70
     1
102
RTVSPropertyOp60
 70
     1
102
RTVSPropertyOp61
 70
     1
102
RTVSPropertyOp62
 70
     1
  0
XRECORD
  5
99F3
102
{ACAD_REACTORS
330
99F2
102
}
330
99F2
100
AcDbXrecord
280
     1
102
RTVSPost2010Prop28
280
     0
102
RTVSPost2010PropOp28
 70
     1
102
RTVSPost2010Prop29
280
     1
102
RTVSPost2010PropOp29
 70
     1
102
RTVSPost2010Prop30
280
     1
102
RTVSPost2010PropOp30
 70
     1
102
RTVSPost2010Prop31
280
     0
102
RTVSPost2010PropOp31
 70
     1
102
RTVSPost2010Prop32
280
     0
102
RTVSPost2010PropOp32
 70
     1
102
RTVSPost2010Prop33
280
     0
102
RTVSPost2010PropOp33
 70
     1
102
RTVSPost2010Prop34
280
     0
102
RTVSPost2010PropOp34
 70
     1
102
RTVSPost2010Prop35
280
     0
102
RTVSPost2010PropOp35
 70
     1
102
RTVSPost2010Prop36
280
     0
102
RTVSPost2010PropOp36
 70
     1
102
RTVSPost2010Prop37
 90
       50
102
RTVSPost2010PropOp37
 70
     0
102
RTVSPost2010Prop38
140
0.0
102
RTVSPost2010PropOp38
 70
     0
102
RTVSPost2010Prop39
140
1.0
102
RTVSPost2010PropOp39
 70
     0
102
RTVSPost2010Prop40
 90
        0
102
RTVSPost2010PropOp40
 70
     0
102
RTVSPost2010Prop41ColorIndex
 90
       18
102
RTVSPost2010Prop41ColorRGB
 90
        0
102
RTVSPost2010PropOp41
 70
     0
102
RTVSPost2010Prop42
 90
       50
102
RTVSPost2010PropOp42
 70
     0
102
RTVSPost2010Prop43
 90
        3
102
RTVSPost2010PropOp43
 70
     0
102
RTVSPost2010Prop44ColorIndex
 90
        5
102
RTVSPost2010Prop44ColorRGB
 90
      255
102
RTVSPost2010PropOp44
 70
     0
102
RTVSPost2010Prop45
280
     0
102
RTVSPost2010PropOp45
 70
     1
102
RTVSPost2010Prop46
 90
       50
102
RTVSPost2010PropOp46
 70
     0
102
RTVSPost2010Prop47
 90
       50
102
RTVSPost2010PropOp47
 70
     0
102
RTVSPost2010Prop48
 90
       50
102
RTVSPost2010PropOp48
 70
     0
102
RTVSPost2010Prop49
280
     0
102
RTVSPost2010PropOp49
 70
     1
102
RTVSPost2010Prop50
 90
       50
102
RTVSPost2010PropOp50
 70
     0
102
RTVSPost2010Prop51ColorIndex
 90
      256
102
RTVSPost2010Prop51ColorRGB
 90
-16777216
102
RTVSPost2010PropOp51
 70
     0
102
RTVSPost2010Prop52
140
1.0
102
RTVSPost2010PropOp52
 70
     0
102
RTVSPost2010Prop53
 90
        2
102
RTVSPost2010PropOp53
 70
     0
102
RTVSPost2010Prop54
  1
strokes_ogs.tif
102
RTVSPost2010PropOp54
 70
     0
102
RTVSPost2010Prop55
280
     0
102
RTVSPost2010PropOp55
 70
     1
102
RTVSPost2010Prop56
140
1.0
102
RTVSPost2010PropOp56
 70
     0
102
RTVSPost2010Prop57
140
1.0
102
RTVSPost2010PropOp57
 70
     0
102
RTVSPropertyOp0
 70
     0
102
RTVSPropertyOp1
 70
     0
102
RTVSPropertyOp2
 70
     0
102
RTVSPropertyOp3
 70
     0
102
RTVSPropertyOp4
 70
     0
102
RTVSPropertyOp5
 70
     0
102
RTVSPropertyOp6
 70
     0
102
RTVSPropertyOp7
 70
     0
102
RTVSPropertyOp8
 70
     0
102
RTVSPropertyOp9
 70
     0
102
RTVSPropertyOp10
 70
     0
102
RTVSPropertyOp11
 70
     0
102
RTVSPropertyOp12
 70
     0
102
RTVSPropertyOp13
 70
     0
102
RTVSPropertyOp14
 70
     2
102
RTVSPropertyOp15
 70
     0
102
RTVSPropertyOp16
 70
     0
102
RTVSPropertyOp17
 70
     0
102
RTVSPropertyOp18
 70
     0
102
RTVSPropertyOp19
 70
     0
102
RTVSPropertyOp20
 70
     0
102
RTVSPropertyOp21
 70
     0
102
RTVSPropertyOp22
 70
     0
102
RTVSPropertyOp23
 70
     0
102
RTVSPropertyOp24
 70
     0
102
RTVSPropertyOp25
 70
     0
102
RTVSPropertyOp26
 70
     0
102
RTVSPropertyOp27
 70
     0
102
RTVSPropertyOp28
 70
     1
102
RTVSPropertyOp29
 70
     1
102
RTVSPropertyOp30
 70
     1
102
RTVSPropertyOp31
 70
     1
102
RTVSPropertyOp32
 70
     1
102
RTVSPropertyOp33
 70
     1
102
RTVSPropertyOp34
 70
     1
102
RTVSPropertyOp35
 70
     1
102
RTVSPropertyOp36
 70
     1
102
RTVSPropertyOp37
 70
     0
102
RTVSPropertyOp38
 70
     0
102
RTVSPropertyOp39
 70
     0
102
RTVSPropertyOp40
 70
     0
102
RTVSPropertyOp41
 70
     0
102
RTVSPropertyOp42
 70
     0
102
RTVSPropertyOp43
 70
     0
102
RTVSPropertyOp44
 70
     0
102
RTVSPropertyOp45
 70
     1
102
RTVSPropertyOp46
 70
     0
102
RTVSPropertyOp47
 70
     0
102
RTVSPropertyOp48
 70
     0
102
RTVSPropertyOp49
 70
     1
102
RTVSPropertyOp50
 70
     0
102
RTVSPropertyOp51
 70
     0
102
RTVSPropertyOp52
 70
     0
102
RTVSPropertyOp53
 70
     0
102
RTVSPropertyOp54
 70
     0
102
RTVSPropertyOp55
 70
     1
102
RTVSPropertyOp56
 70
     0
102
RTVSPropertyOp57
 70
     0
102
RTVSPropertyOp58
 70
     0
102
RTVSPropertyOp59
 70
     0
102
RTVSPropertyOp60
 70
     0
102
RTVSPropertyOp61
 70
     0
102
RTVSPropertyOp62
 70
     0
  0
XRECORD
  5
99E1
102
{ACAD_REACTORS
330
99E0
102
}
330
99E0
100
AcDbXrecord
280
     1
102
RTVSPost2010Prop28
280
     0
102
RTVSPost2010PropOp28
 70
     1
102
RTVSPost2010Prop29
280
     1
102
RTVSPost2010PropOp29
 70
     1
102
RTVSPost2010Prop30
280
     1
102
RTVSPost2010PropOp30
 70
     1
102
RTVSPost2010Prop31
280
     0
102
RTVSPost2010PropOp31
 70
     1
102
RTVSPost2010Prop32
280
     0
102
RTVSPost2010PropOp32
 70
     1
102
RTVSPost2010Prop33
280
     0
102
RTVSPost2010PropOp33
 70
     1
102
RTVSPost2010Prop34
280
     0
102
RTVSPost2010PropOp34
 70
     1
102
RTVSPost2010Prop35
280
     0
102
RTVSPost2010PropOp35
 70
     1
102
RTVSPost2010Prop36
280
     0
102
RTVSPost2010PropOp36
 70
     1
102
RTVSPost2010Prop37
 90
       50
102
RTVSPost2010PropOp37
 70
     1
102
RTVSPost2010Prop38
140
0.0
102
RTVSPost2010PropOp38
 70
     1
102
RTVSPost2010Prop39
140
1.0
102
RTVSPost2010PropOp39
 70
     1
102
RTVSPost2010Prop40
 90
        0
102
RTVSPost2010PropOp40
 70
     1
102
RTVSPost2010Prop41ColorIndex
 90
       18
102
RTVSPost2010Prop41ColorRGB
 90
        0
102
RTVSPost2010PropOp41
 70
     1
102
RTVSPost2010Prop42
 90
       50
102
RTVSPost2010PropOp42
 70
     1
102
RTVSPost2010Prop43
 90
        3
102
RTVSPost2010PropOp43
 70
     1
102
RTVSPost2010Prop44ColorIndex
 90
        5
102
RTVSPost2010Prop44ColorRGB
 90
      255
102
RTVSPost2010PropOp44
 70
     1
102
RTVSPost2010Prop45
280
     0
102
RTVSPost2010PropOp45
 70
     1
102
RTVSPost2010Prop46
 90
       50
102
RTVSPost2010PropOp46
 70
     1
102
RTVSPost2010Prop47
 90
       50
102
RTVSPost2010PropOp47
 70
     1
102
RTVSPost2010Prop48
 90
       50
102
RTVSPost2010PropOp48
 70
     1
102
RTVSPost2010Prop49
280
     0
102
RTVSPost2010PropOp49
 70
     1
102
RTVSPost2010Prop50
 90
       50
102
RTVSPost2010PropOp50
 70
     1
102
RTVSPost2010Prop51ColorIndex
 90
      256
102
RTVSPost2010Prop51ColorRGB
 90
-16777216
102
RTVSPost2010PropOp51
 70
     0
102
RTVSPost2010Prop52
140
1.0
102
RTVSPost2010PropOp52
 70
     0
102
RTVSPost2010Prop53
 90
        2
102
RTVSPost2010PropOp53
 70
     1
102
RTVSPost2010Prop54
  1
strokes_ogs.tif
102
RTVSPost2010PropOp54
 70
     1
102
RTVSPost2010Prop55
280
     0
102
RTVSPost2010PropOp55
 70
     1
102
RTVSPost2010Prop56
140
1.0
102
RTVSPost2010PropOp56
 70
     1
102
RTVSPost2010Prop57
140
1.0
102
RTVSPost2010PropOp57
 70
     1
102
RTVSPropertyOp0
 70
     1
102
RTVSPropertyOp1
 70
     1
102
RTVSPropertyOp2
 70
     1
102
RTVSPropertyOp3
 70
     1
102
RTVSPropertyOp4
 70
     1
102
RTVSPropertyOp5
 70
     1
102
RTVSPropertyOp6
 70
     1
102
RTVSPropertyOp7
 70
     1
102
RTVSPropertyOp8
 70
     1
102
RTVSPropertyOp9
 70
     1
102
RTVSPropertyOp10
 70
     1
102
RTVSPropertyOp11
 70
     1
102
RTVSPropertyOp12
 70
     1
102
RTVSPropertyOp13
 70
     1
102
RTVSPropertyOp14
 70
     1
102
RTVSPropertyOp15
 70
     1
102
RTVSPropertyOp16
 70
     1
102
RTVSPropertyOp17
 70
     1
102
RTVSPropertyOp18
 70
     1
102
RTVSPropertyOp19
 70
     1
102
RTVSPropertyOp20
 70
     1
102
RTVSPropertyOp21
 70
     1
102
RTVSPropertyOp22
 70
     1
102
RTVSPropertyOp23
 70
     1
102
RTVSPropertyOp24
 70
     1
102
RTVSPropertyOp25
 70
     1
102
RTVSPropertyOp26
 70
     1
102
RTVSPropertyOp27
 70
     1
102
RTVSPropertyOp28
 70
     1
102
RTVSPropertyOp29
 70
     1
102
RTVSPropertyOp30
 70
     1
102
RTVSPropertyOp31
 70
     1
102
RTVSPropertyOp32
 70
     1
102
RTVSPropertyOp33
 70
     1
102
RTVSPropertyOp34
 70
     1
102
RTVSPropertyOp35
 70
     1
102
RTVSPropertyOp36
 70
     1
102
RTVSPropertyOp37
 70
     1
102
RTVSPropertyOp38
 70
     1
102
RTVSPropertyOp39
 70
     1
102
RTVSPropertyOp40
 70
     1
102
RTVSPropertyOp41
 70
     1
102
RTVSPropertyOp42
 70
     1
102
RTVSPropertyOp43
 70
     1
102
RTVSPropertyOp44
 70
     1
102
RTVSPropertyOp45
 70
     1
102
RTVSPropertyOp46
 70
     1
102
RTVSPropertyOp47
 70
     1
102
RTVSPropertyOp48
 70
     1
102
RTVSPropertyOp49
 70
     1
102
RTVSPropertyOp50
 70
     1
102
RTVSPropertyOp51
 70
     0
102
RTVSPropertyOp52
 70
     0
102
RTVSPropertyOp53
 70
     1
102
RTVSPropertyOp54
 70
     1
102
RTVSPropertyOp55
 70
     1
102
RTVSPropertyOp56
 70
     1
102
RTVSPropertyOp57
 70
     1
102
RTVSPropertyOp58
 70
     1
102
RTVSPropertyOp59
 70
     1
102
RTVSPropertyOp60
 70
     1
102
RTVSPropertyOp61
 70
     1
102
RTVSPropertyOp62
 70
     1
  0
XRECORD
  5
99C5
102
{ACAD_REACTORS
330
99C4
102
}
330
99C4
100
AcDbXrecord
280
     1
102
RTVSPost2010Prop28
280
     0
102
RTVSPost2010PropOp28
 70
     1
102
RTVSPost2010Prop29
280
     1
102
RTVSPost2010PropOp29
 70
     1
102
RTVSPost2010Prop30
280
     1
102
RTVSPost2010PropOp30
 70
     1
102
RTVSPost2010Prop31
280
     0
102
RTVSPost2010PropOp31
 70
     1
102
RTVSPost2010Prop32
280
     0
102
RTVSPost2010PropOp32
 70
     1
102
RTVSPost2010Prop33
280
     0
102
RTVSPost2010PropOp33
 70
     1
102
RTVSPost2010Prop34
280
     0
102
RTVSPost2010PropOp34
 70
     1
102
RTVSPost2010Prop35
280
     0
102
RTVSPost2010PropOp35
 70
     1
102
RTVSPost2010Prop36
280
     0
102
RTVSPost2010PropOp36
 70
     1
102
RTVSPost2010Prop37
 90
       50
102
RTVSPost2010PropOp37
 70
     1
102
RTVSPost2010Prop38
140
0.0
102
RTVSPost2010PropOp38
 70
     1
102
RTVSPost2010Prop39
140
1.0
102
RTVSPost2010PropOp39
 70
     1
102
RTVSPost2010Prop40
 90
        0
102
RTVSPost2010PropOp40
 70
     1
102
RTVSPost2010Prop41ColorIndex
 90
       18
102
RTVSPost2010Prop41ColorRGB
 90
        0
102
RTVSPost2010PropOp41
 70
     1
102
RTVSPost2010Prop42
 90
       50
102
RTVSPost2010PropOp42
 70
     1
102
RTVSPost2010Prop43
 90
        3
102
RTVSPost2010PropOp43
 70
     1
102
RTVSPost2010Prop44ColorIndex
 90
        5
102
RTVSPost2010Prop44ColorRGB
 90
      255
102
RTVSPost2010PropOp44
 70
     1
102
RTVSPost2010Prop45
280
     0
102
RTVSPost2010PropOp45
 70
     1
102
RTVSPost2010Prop46
 90
       50
102
RTVSPost2010PropOp46
 70
     1
102
RTVSPost2010Prop47
 90
       50
102
RTVSPost2010PropOp47
 70
     1
102
RTVSPost2010Prop48
 90
       50
102
RTVSPost2010PropOp48
 70
     1
102
RTVSPost2010Prop49
280
     0
102
RTVSPost2010PropOp49
 70
     1
102
RTVSPost2010Prop50
 90
       50
102
RTVSPost2010PropOp50
 70
     1
102
RTVSPost2010Prop51ColorIndex
 90
      256
102
RTVSPost2010Prop51ColorRGB
 90
-16777216
102
RTVSPost2010PropOp51
 70
     0
102
RTVSPost2010Prop52
140
1.0
102
RTVSPost2010PropOp52
 70
     0
102
RTVSPost2010Prop53
 90
        2
102
RTVSPost2010PropOp53
 70
     1
102
RTVSPost2010Prop54
  1
strokes_ogs.tif
102
RTVSPost2010PropOp54
 70
     1
102
RTVSPost2010Prop55
280
     0
102
RTVSPost2010PropOp55
 70
     1
102
RTVSPost2010Prop56
140
1.0
102
RTVSPost2010PropOp56
 70
     1
102
RTVSPost2010Prop57
140
1.0
102
RTVSPost2010PropOp57
 70
     1
102
RTVSPropertyOp0
 70
     1
102
RTVSPropertyOp1
 70
     1
102
RTVSPropertyOp2
 70
     1
102
RTVSPropertyOp3
 70
     1
102
RTVSPropertyOp4
 70
     1
102
RTVSPropertyOp5
 70
     1
102
RTVSPropertyOp6
 70
     1
102
RTVSPropertyOp7
 70
     1
102
RTVSPropertyOp8
 70
     1
102
RTVSPropertyOp9
 70
     1
102
RTVSPropertyOp10
 70
     1
102
RTVSPropertyOp11
 70
     1
102
RTVSPropertyOp12
 70
     1
102
RTVSPropertyOp13
 70
     1
102
RTVSPropertyOp14
 70
     1
102
RTVSPropertyOp15
 70
     1
102
RTVSPropertyOp16
 70
     1
102
RTVSPropertyOp17
 70
     1
102
RTVSPropertyOp18
 70
     1
102
RTVSPropertyOp19
 70
     1
102
RTVSPropertyOp20
 70
     1
102
RTVSPropertyOp21
 70
     1
102
RTVSPropertyOp22
 70
     1
102
RTVSPropertyOp23
 70
     1
102
RTVSPropertyOp24
 70
     1
102
RTVSPropertyOp25
 70
     1
102
RTVSPropertyOp26
 70
     1
102
RTVSPropertyOp27
 70
     1
102
RTVSPropertyOp28
 70
     1
102
RTVSPropertyOp29
 70
     1
102
RTVSPropertyOp30
 70
     1
102
RTVSPropertyOp31
 70
     1
102
RTVSPropertyOp32
 70
     1
102
RTVSPropertyOp33
 70
     1
102
RTVSPropertyOp34
 70
     1
102
RTVSPropertyOp35
 70
     1
102
RTVSPropertyOp36
 70
     1
102
RTVSPropertyOp37
 70
     1
102
RTVSPropertyOp38
 70
     1
102
RTVSPropertyOp39
 70
     1
102
RTVSPropertyOp40
 70
     1
102
RTVSPropertyOp41
 70
     1
102
RTVSPropertyOp42
 70
     1
102
RTVSPropertyOp43
 70
     1
102
RTVSPropertyOp44
 70
     1
102
RTVSPropertyOp45
 70
     1
102
RTVSPropertyOp46
 70
     1
102
RTVSPropertyOp47
 70
     1
102
RTVSPropertyOp48
 70
     1
102
RTVSPropertyOp49
 70
     1
102
RTVSPropertyOp50
 70
     1
102
RTVSPropertyOp51
 70
     0
102
RTVSPropertyOp52
 70
     0
102
RTVSPropertyOp53
 70
     1
102
RTVSPropertyOp54
 70
     1
102
RTVSPropertyOp55
 70
     1
102
RTVSPropertyOp56
 70
     1
102
RTVSPropertyOp57
 70
     1
102
RTVSPropertyOp58
 70
     1
102
RTVSPropertyOp59
 70
     1
102
RTVSPropertyOp60
 70
     1
102
RTVSPropertyOp61
 70
     1
102
RTVSPropertyOp62
 70
     1
  0
XRECORD
  5
99C7
102
{ACAD_REACTORS
330
99C6
102
}
330
99C6
100
AcDbXrecord
280
     1
102
RTVSPost2010Prop28
280
     0
102
RTVSPost2010PropOp28
 70
     1
102
RTVSPost2010Prop29
280
     1
102
RTVSPost2010PropOp29
 70
     1
102
RTVSPost2010Prop30
280
     1
102
RTVSPost2010PropOp30
 70
     1
102
RTVSPost2010Prop31
280
     0
102
RTVSPost2010PropOp31
 70
     1
102
RTVSPost2010Prop32
280
     0
102
RTVSPost2010PropOp32
 70
     1
102
RTVSPost2010Prop33
280
     0
102
RTVSPost2010PropOp33
 70
     1
102
RTVSPost2010Prop34
280
     0
102
RTVSPost2010PropOp34
 70
     1
102
RTVSPost2010Prop35
280
     0
102
RTVSPost2010PropOp35
 70
     1
102
RTVSPost2010Prop36
280
     0
102
RTVSPost2010PropOp36
 70
     1
102
RTVSPost2010Prop37
 90
       50
102
RTVSPost2010PropOp37
 70
     1
102
RTVSPost2010Prop38
140
0.0
102
RTVSPost2010PropOp38
 70
     1
102
RTVSPost2010Prop39
140
1.0
102
RTVSPost2010PropOp39
 70
     1
102
RTVSPost2010Prop40
 90
        0
102
RTVSPost2010PropOp40
 70
     1
102
RTVSPost2010Prop41ColorIndex
 90
       18
102
RTVSPost2010Prop41ColorRGB
 90
        0
102
RTVSPost2010PropOp41
 70
     1
102
RTVSPost2010Prop42
 90
       50
102
RTVSPost2010PropOp42
 70
     1
102
RTVSPost2010Prop43
 90
        3
102
RTVSPost2010PropOp43
 70
     1
102
RTVSPost2010Prop44ColorIndex
 90
        5
102
RTVSPost2010Prop44ColorRGB
 90
      255
102
RTVSPost2010PropOp44
 70
     1
102
RTVSPost2010Prop45
280
     0
102
RTVSPost2010PropOp45
 70
     1
102
RTVSPost2010Prop46
 90
       50
102
RTVSPost2010PropOp46
 70
     1
102
RTVSPost2010Prop47
 90
       50
102
RTVSPost2010PropOp47
 70
     1
102
RTVSPost2010Prop48
 90
       50
102
RTVSPost2010PropOp48
 70
     1
102
RTVSPost2010Prop49
280
     0
102
RTVSPost2010PropOp49
 70
     1
102
RTVSPost2010Prop50
 90
       50
102
RTVSPost2010PropOp50
 70
     1
102
RTVSPost2010Prop51ColorIndex
 90
      256
102
RTVSPost2010Prop51ColorRGB
 90
-16777216
102
RTVSPost2010PropOp51
 70
     0
102
RTVSPost2010Prop52
140
1.0
102
RTVSPost2010PropOp52
 70
     0
102
RTVSPost2010Prop53
 90
        2
102
RTVSPost2010PropOp53
 70
     1
102
RTVSPost2010Prop54
  1
strokes_ogs.tif
102
RTVSPost2010PropOp54
 70
     1
102
RTVSPost2010Prop55
280
     0
102
RTVSPost2010PropOp55
 70
     1
102
RTVSPost2010Prop56
140
1.0
102
RTVSPost2010PropOp56
 70
     1
102
RTVSPost2010Prop57
140
1.0
102
RTVSPost2010PropOp57
 70
     1
102
RTVSPropertyOp0
 70
     1
102
RTVSPropertyOp1
 70
     1
102
RTVSPropertyOp2
 70
     1
102
RTVSPropertyOp3
 70
     1
102
RTVSPropertyOp4
 70
     1
102
RTVSPropertyOp5
 70
     1
102
RTVSPropertyOp6
 70
     1
102
RTVSPropertyOp7
 70
     1
102
RTVSPropertyOp8
 70
     1
102
RTVSPropertyOp9
 70
     1
102
RTVSPropertyOp10
 70
     1
102
RTVSPropertyOp11
 70
     1
102
RTVSPropertyOp12
 70
     1
102
RTVSPropertyOp13
 70
     1
102
RTVSPropertyOp14
 70
     1
102
RTVSPropertyOp15
 70
     1
102
RTVSPropertyOp16
 70
     1
102
RTVSPropertyOp17
 70
     1
102
RTVSPropertyOp18
 70
     1
102
RTVSPropertyOp19
 70
     1
102
RTVSPropertyOp20
 70
     1
102
RTVSPropertyOp21
 70
     1
102
RTVSPropertyOp22
 70
     1
102
RTVSPropertyOp23
 70
     1
102
RTVSPropertyOp24
 70
     1
102
RTVSPropertyOp25
 70
     1
102
RTVSPropertyOp26
 70
     1
102
RTVSPropertyOp27
 70
     1
102
RTVSPropertyOp28
 70
     1
102
RTVSPropertyOp29
 70
     1
102
RTVSPropertyOp30
 70
     1
102
RTVSPropertyOp31
 70
     1
102
RTVSPropertyOp32
 70
     1
102
RTVSPropertyOp33
 70
     1
102
RTVSPropertyOp34
 70
     1
102
RTVSPropertyOp35
 70
     1
102
RTVSPropertyOp36
 70
     1
102
RTVSPropertyOp37
 70
     1
102
RTVSPropertyOp38
 70
     1
102
RTVSPropertyOp39
 70
     1
102
RTVSPropertyOp40
 70
     1
102
RTVSPropertyOp41
 70
     1
102
RTVSPropertyOp42
 70
     1
102
RTVSPropertyOp43
 70
     1
102
RTVSPropertyOp44
 70
     1
102
RTVSPropertyOp45
 70
     1
102
RTVSPropertyOp46
 70
     1
102
RTVSPropertyOp47
 70
     1
102
RTVSPropertyOp48
 70
     1
102
RTVSPropertyOp49
 70
     1
102
RTVSPropertyOp50
 70
     1
102
RTVSPropertyOp51
 70
     0
102
RTVSPropertyOp52
 70
     0
102
RTVSPropertyOp53
 70
     1
102
RTVSPropertyOp54
 70
     1
102
RTVSPropertyOp55
 70
     1
102
RTVSPropertyOp56
 70
     1
102
RTVSPropertyOp57
 70
     1
102
RTVSPropertyOp58
 70
     1
102
RTVSPropertyOp59
 70
     1
102
RTVSPropertyOp60
 70
     1
102
RTVSPropertyOp61
 70
     1
102
RTVSPropertyOp62
 70
     1
  0
XRECORD
  5
99C9
102
{ACAD_REACTORS
330
99C8
102
}
330
99C8
100
AcDbXrecord
280
     1
102
RTVSPost2010Prop28
280
     0
102
RTVSPost2010PropOp28
 70
     1
102
RTVSPost2010Prop29
280
     1
102
RTVSPost2010PropOp29
 70
     1
102
RTVSPost2010Prop30
280
     1
102
RTVSPost2010PropOp30
 70
     1
102
RTVSPost2010Prop31
280
     0
102
RTVSPost2010PropOp31
 70
     1
102
RTVSPost2010Prop32
280
     0
102
RTVSPost2010PropOp32
 70
     1
102
RTVSPost2010Prop33
280
     0
102
RTVSPost2010PropOp33
 70
     1
102
RTVSPost2010Prop34
280
     0
102
RTVSPost2010PropOp34
 70
     1
102
RTVSPost2010Prop35
280
     0
102
RTVSPost2010PropOp35
 70
     1
102
RTVSPost2010Prop36
280
     0
102
RTVSPost2010PropOp36
 70
     1
102
RTVSPost2010Prop37
 90
       50
102
RTVSPost2010PropOp37
 70
     1
102
RTVSPost2010Prop38
140
0.0
102
RTVSPost2010PropOp38
 70
     1
102
RTVSPost2010Prop39
140
1.0
102
RTVSPost2010PropOp39
 70
     1
102
RTVSPost2010Prop40
 90
        0
102
RTVSPost2010PropOp40
 70
     1
102
RTVSPost2010Prop41ColorIndex
 90
       18
102
RTVSPost2010Prop41ColorRGB
 90
        0
102
RTVSPost2010PropOp41
 70
     1
102
RTVSPost2010Prop42
 90
       50
102
RTVSPost2010PropOp42
 70
     1
102
RTVSPost2010Prop43
 90
        3
102
RTVSPost2010PropOp43
 70
     1
102
RTVSPost2010Prop44ColorIndex
 90
        5
102
RTVSPost2010Prop44ColorRGB
 90
      255
102
RTVSPost2010PropOp44
 70
     1
102
RTVSPost2010Prop45
280
     0
102
RTVSPost2010PropOp45
 70
     1
102
RTVSPost2010Prop46
 90
       50
102
RTVSPost2010PropOp46
 70
     1
102
RTVSPost2010Prop47
 90
       50
102
RTVSPost2010PropOp47
 70
     1
102
RTVSPost2010Prop48
 90
       50
102
RTVSPost2010PropOp48
 70
     1
102
RTVSPost2010Prop49
280
     0
102
RTVSPost2010PropOp49
 70
     1
102
RTVSPost2010Prop50
 90
       50
102
RTVSPost2010PropOp50
 70
     1
102
RTVSPost2010Prop51ColorIndex
 90
      256
102
RTVSPost2010Prop51ColorRGB
 90
-16777216
102
RTVSPost2010PropOp51
 70
     0
102
RTVSPost2010Prop52
140
1.0
102
RTVSPost2010PropOp52
 70
     0
102
RTVSPost2010Prop53
 90
        2
102
RTVSPost2010PropOp53
 70
     1
102
RTVSPost2010Prop54
  1
strokes_ogs.tif
102
RTVSPost2010PropOp54
 70
     1
102
RTVSPost2010Prop55
280
     0
102
RTVSPost2010PropOp55
 70
     1
102
RTVSPost2010Prop56
140
1.0
102
RTVSPost2010PropOp56
 70
     1
102
RTVSPost2010Prop57
140
1.0
102
RTVSPost2010PropOp57
 70
     1
102
RTVSPropertyOp0
 70
     1
102
RTVSPropertyOp1
 70
     1
102
RTVSPropertyOp2
 70
     1
102
RTVSPropertyOp3
 70
     1
102
RTVSPropertyOp4
 70
     1
102
RTVSPropertyOp5
 70
     1
102
RTVSPropertyOp6
 70
     1
102
RTVSPropertyOp7
 70
     1
102
RTVSPropertyOp8
 70
     1
102
RTVSPropertyOp9
 70
     1
102
RTVSPropertyOp10
 70
     1
102
RTVSPropertyOp11
 70
     1
102
RTVSPropertyOp12
 70
     1
102
RTVSPropertyOp13
 70
     1
102
RTVSPropertyOp14
 70
     1
102
RTVSPropertyOp15
 70
     1
102
RTVSPropertyOp16
 70
     1
102
RTVSPropertyOp17
 70
     1
102
RTVSPropertyOp18
 70
     1
102
RTVSPropertyOp19
 70
     1
102
RTVSPropertyOp20
 70
     1
102
RTVSPropertyOp21
 70
     1
102
RTVSPropertyOp22
 70
     1
102
RTVSPropertyOp23
 70
     1
102
RTVSPropertyOp24
 70
     1
102
RTVSPropertyOp25
 70
     1
102
RTVSPropertyOp26
 70
     1
102
RTVSPropertyOp27
 70
     1
102
RTVSPropertyOp28
 70
     1
102
RTVSPropertyOp29
 70
     1
102
RTVSPropertyOp30
 70
     1
102
RTVSPropertyOp31
 70
     1
102
RTVSPropertyOp32
 70
     1
102
RTVSPropertyOp33
 70
     1
102
RTVSPropertyOp34
 70
     1
102
RTVSPropertyOp35
 70
     1
102
RTVSPropertyOp36
 70
     1
102
RTVSPropertyOp37
 70
     1
102
RTVSPropertyOp38
 70
     1
102
RTVSPropertyOp39
 70
     1
102
RTVSPropertyOp40
 70
     1
102
RTVSPropertyOp41
 70
     1
102
RTVSPropertyOp42
 70
     1
102
RTVSPropertyOp43
 70
     1
102
RTVSPropertyOp44
 70
     1
102
RTVSPropertyOp45
 70
     1
102
RTVSPropertyOp46
 70
     1
102
RTVSPropertyOp47
 70
     1
102
RTVSPropertyOp48
 70
     1
102
RTVSPropertyOp49
 70
     1
102
RTVSPropertyOp50
 70
     1
102
RTVSPropertyOp51
 70
     0
102
RTVSPropertyOp52
 70
     0
102
RTVSPropertyOp53
 70
     1
102
RTVSPropertyOp54
 70
     1
102
RTVSPropertyOp55
 70
     1
102
RTVSPropertyOp56
 70
     1
102
RTVSPropertyOp57
 70
     1
102
RTVSPropertyOp58
 70
     1
102
RTVSPropertyOp59
 70
     1
102
RTVSPropertyOp60
 70
     1
102
RTVSPropertyOp61
 70
     1
102
RTVSPropertyOp62
 70
     1
  0
XRECORD
  5
99CB
102
{ACAD_REACTORS
330
99CA
102
}
330
99CA
100
AcDbXrecord
280
     1
102
RTVSPost2010Prop28
280
     0
102
RTVSPost2010PropOp28
 70
     1
102
RTVSPost2010Prop29
280
     1
102
RTVSPost2010PropOp29
 70
     1
102
RTVSPost2010Prop30
280
     1
102
RTVSPost2010PropOp30
 70
     1
102
RTVSPost2010Prop31
280
     0
102
RTVSPost2010PropOp31
 70
     1
102
RTVSPost2010Prop32
280
     0
102
RTVSPost2010PropOp32
 70
     1
102
RTVSPost2010Prop33
280
     0
102
RTVSPost2010PropOp33
 70
     1
102
RTVSPost2010Prop34
280
     0
102
RTVSPost2010PropOp34
 70
     1
102
RTVSPost2010Prop35
280
     0
102
RTVSPost2010PropOp35
 70
     1
102
RTVSPost2010Prop36
280
     0
102
RTVSPost2010PropOp36
 70
     1
102
RTVSPost2010Prop37
 90
       50
102
RTVSPost2010PropOp37
 70
     1
102
RTVSPost2010Prop38
140
0.0
102
RTVSPost2010PropOp38
 70
     1
102
RTVSPost2010Prop39
140
1.0
102
RTVSPost2010PropOp39
 70
     1
102
RTVSPost2010Prop40
 90
        0
102
RTVSPost2010PropOp40
 70
     1
102
RTVSPost2010Prop41ColorIndex
 90
       18
102
RTVSPost2010Prop41ColorRGB
 90
        0
102
RTVSPost2010PropOp41
 70
     1
102
RTVSPost2010Prop42
 90
       50
102
RTVSPost2010PropOp42
 70
     1
102
RTVSPost2010Prop43
 90
        3
102
RTVSPost2010PropOp43
 70
     1
102
RTVSPost2010Prop44ColorIndex
 90
        5
102
RTVSPost2010Prop44ColorRGB
 90
      255
102
RTVSPost2010PropOp44
 70
     1
102
RTVSPost2010Prop45
280
     0
102
RTVSPost2010PropOp45
 70
     1
102
RTVSPost2010Prop46
 90
       50
102
RTVSPost2010PropOp46
 70
     1
102
RTVSPost2010Prop47
 90
       50
102
RTVSPost2010PropOp47
 70
     1
102
RTVSPost2010Prop48
 90
       50
102
RTVSPost2010PropOp48
 70
     1
102
RTVSPost2010Prop49
280
     0
102
RTVSPost2010PropOp49
 70
     1
102
RTVSPost2010Prop50
 90
       50
102
RTVSPost2010PropOp50
 70
     1
102
RTVSPost2010Prop51ColorIndex
 90
      256
102
RTVSPost2010Prop51ColorRGB
 90
-16777216
102
RTVSPost2010PropOp51
 70
     0
102
RTVSPost2010Prop52
140
1.0
102
RTVSPost2010PropOp52
 70
     0
102
RTVSPost2010Prop53
 90
        2
102
RTVSPost2010PropOp53
 70
     1
102
RTVSPost2010Prop54
  1
strokes_ogs.tif
102
RTVSPost2010PropOp54
 70
     1
102
RTVSPost2010Prop55
280
     0
102
RTVSPost2010PropOp55
 70
     1
102
RTVSPost2010Prop56
140
1.0
102
RTVSPost2010PropOp56
 70
     1
102
RTVSPost2010Prop57
140
1.0
102
RTVSPost2010PropOp57
 70
     1
102
RTVSPropertyOp0
 70
     1
102
RTVSPropertyOp1
 70
     1
102
RTVSPropertyOp2
 70
     1
102
RTVSPropertyOp3
 70
     1
102
RTVSPropertyOp4
 70
     1
102
RTVSPropertyOp5
 70
     1
102
RTVSPropertyOp6
 70
     1
102
RTVSPropertyOp7
 70
     1
102
RTVSPropertyOp8
 70
     1
102
RTVSPropertyOp9
 70
     1
102
RTVSPropertyOp10
 70
     1
102
RTVSPropertyOp11
 70
     1
102
RTVSPropertyOp12
 70
     1
102
RTVSPropertyOp13
 70
     1
102
RTVSPropertyOp14
 70
     1
102
RTVSPropertyOp15
 70
     1
102
RTVSPropertyOp16
 70
     1
102
RTVSPropertyOp17
 70
     1
102
RTVSPropertyOp18
 70
     1
102
RTVSPropertyOp19
 70
     1
102
RTVSPropertyOp20
 70
     1
102
RTVSPropertyOp21
 70
     1
102
RTVSPropertyOp22
 70
     1
102
RTVSPropertyOp23
 70
     1
102
RTVSPropertyOp24
 70
     1
102
RTVSPropertyOp25
 70
     1
102
RTVSPropertyOp26
 70
     1
102
RTVSPropertyOp27
 70
     1
102
RTVSPropertyOp28
 70
     1
102
RTVSPropertyOp29
 70
     1
102
RTVSPropertyOp30
 70
     1
102
RTVSPropertyOp31
 70
     1
102
RTVSPropertyOp32
 70
     1
102
RTVSPropertyOp33
 70
     1
102
RTVSPropertyOp34
 70
     1
102
RTVSPropertyOp35
 70
     1
102
RTVSPropertyOp36
 70
     1
102
RTVSPropertyOp37
 70
     1
102
RTVSPropertyOp38
 70
     1
102
RTVSPropertyOp39
 70
     1
102
RTVSPropertyOp40
 70
     1
102
RTVSPropertyOp41
 70
     1
102
RTVSPropertyOp42
 70
     1
102
RTVSPropertyOp43
 70
     1
102
RTVSPropertyOp44
 70
     1
102
RTVSPropertyOp45
 70
     1
102
RTVSPropertyOp46
 70
     1
102
RTVSPropertyOp47
 70
     1
102
RTVSPropertyOp48
 70
     1
102
RTVSPropertyOp49
 70
     1
102
RTVSPropertyOp50
 70
     1
102
RTVSPropertyOp51
 70
     0
102
RTVSPropertyOp52
 70
     0
102
RTVSPropertyOp53
 70
     1
102
RTVSPropertyOp54
 70
     1
102
RTVSPropertyOp55
 70
     1
102
RTVSPropertyOp56
 70
     1
102
RTVSPropertyOp57
 70
     1
102
RTVSPropertyOp58
 70
     1
102
RTVSPropertyOp59
 70
     1
102
RTVSPropertyOp60
 70
     1
102
RTVSPropertyOp61
 70
     1
102
RTVSPropertyOp62
 70
     1
  0
XRECORD
  5
99D3
102
{ACAD_REACTORS
330
99D2
102
}
330
99D2
100
AcDbXrecord
280
     1
102
RTVSPost2010Prop28
280
     0
102
RTVSPost2010PropOp28
 70
     1
102
RTVSPost2010Prop29
280
     1
102
RTVSPost2010PropOp29
 70
     1
102
RTVSPost2010Prop30
280
     1
102
RTVSPost2010PropOp30
 70
     1
102
RTVSPost2010Prop31
280
     0
102
RTVSPost2010PropOp31
 70
     1
102
RTVSPost2010Prop32
280
     0
102
RTVSPost2010PropOp32
 70
     1
102
RTVSPost2010Prop33
280
     0
102
RTVSPost2010PropOp33
 70
     1
102
RTVSPost2010Prop34
280
     0
102
RTVSPost2010PropOp34
 70
     1
102
RTVSPost2010Prop35
280
     0
102
RTVSPost2010PropOp35
 70
     1
102
RTVSPost2010Prop36
280
     0
102
RTVSPost2010PropOp36
 70
     1
102
RTVSPost2010Prop37
 90
       50
102
RTVSPost2010PropOp37
 70
     1
102
RTVSPost2010Prop38
140
0.0
102
RTVSPost2010PropOp38
 70
     1
102
RTVSPost2010Prop39
140
1.0
102
RTVSPost2010PropOp39
 70
     1
102
RTVSPost2010Prop40
 90
        0
102
RTVSPost2010PropOp40
 70
     1
102
RTVSPost2010Prop41ColorIndex
 90
       18
102
RTVSPost2010Prop41ColorRGB
 90
        0
102
RTVSPost2010PropOp41
 70
     1
102
RTVSPost2010Prop42
 90
       50
102
RTVSPost2010PropOp42
 70
     1
102
RTVSPost2010Prop43
 90
        3
102
RTVSPost2010PropOp43
 70
     1
102
RTVSPost2010Prop44ColorIndex
 90
        5
102
RTVSPost2010Prop44ColorRGB
 90
      255
102
RTVSPost2010PropOp44
 70
     1
102
RTVSPost2010Prop45
280
     0
102
RTVSPost2010PropOp45
 70
     1
102
RTVSPost2010Prop46
 90
       50
102
RTVSPost2010PropOp46
 70
     1
102
RTVSPost2010Prop47
 90
       50
102
RTVSPost2010PropOp47
 70
     1
102
RTVSPost2010Prop48
 90
       50
102
RTVSPost2010PropOp48
 70
     1
102
RTVSPost2010Prop49
280
     0
102
RTVSPost2010PropOp49
 70
     1
102
RTVSPost2010Prop50
 90
       50
102
RTVSPost2010PropOp50
 70
     1
102
RTVSPost2010Prop51ColorIndex
 90
      256
102
RTVSPost2010Prop51ColorRGB
 90
-16777216
102
RTVSPost2010PropOp51
 70
     0
102
RTVSPost2010Prop52
140
1.0
102
RTVSPost2010PropOp52
 70
     0
102
RTVSPost2010Prop53
 90
        2
102
RTVSPost2010PropOp53
 70
     1
102
RTVSPost2010Prop54
  1
strokes_ogs.tif
102
RTVSPost2010PropOp54
 70
     1
102
RTVSPost2010Prop55
280
     0
102
RTVSPost2010PropOp55
 70
     1
102
RTVSPost2010Prop56
140
1.0
102
RTVSPost2010PropOp56
 70
     1
102
RTVSPost2010Prop57
140
1.0
102
RTVSPost2010PropOp57
 70
     1
102
RTVSPropertyOp0
 70
     1
102
RTVSPropertyOp1
 70
     1
102
RTVSPropertyOp2
 70
     1
102
RTVSPropertyOp3
 70
     1
102
RTVSPropertyOp4
 70
     1
102
RTVSPropertyOp5
 70
     1
102
RTVSPropertyOp6
 70
     1
102
RTVSPropertyOp7
 70
     1
102
RTVSPropertyOp8
 70
     1
102
RTVSPropertyOp9
 70
     1
102
RTVSPropertyOp10
 70
     1
102
RTVSPropertyOp11
 70
     1
102
RTVSPropertyOp12
 70
     1
102
RTVSPropertyOp13
 70
     1
102
RTVSPropertyOp14
 70
     1
102
RTVSPropertyOp15
 70
     1
102
RTVSPropertyOp16
 70
     1
102
RTVSPropertyOp17
 70
     1
102
RTVSPropertyOp18
 70
     1
102
RTVSPropertyOp19
 70
     1
102
RTVSPropertyOp20
 70
     1
102
RTVSPropertyOp21
 70
     1
102
RTVSPropertyOp22
 70
     1
102
RTVSPropertyOp23
 70
     1
102
RTVSPropertyOp24
 70
     1
102
RTVSPropertyOp25
 70
     1
102
RTVSPropertyOp26
 70
     1
102
RTVSPropertyOp27
 70
     1
102
RTVSPropertyOp28
 70
     1
102
RTVSPropertyOp29
 70
     1
102
RTVSPropertyOp30
 70
     1
102
RTVSPropertyOp31
 70
     1
102
RTVSPropertyOp32
 70
     1
102
RTVSPropertyOp33
 70
     1
102
RTVSPropertyOp34
 70
     1
102
RTVSPropertyOp35
 70
     1
102
RTVSPropertyOp36
 70
     1
102
RTVSPropertyOp37
 70
     1
102
RTVSPropertyOp38
 70
     1
102
RTVSPropertyOp39
 70
     1
102
RTVSPropertyOp40
 70
     1
102
RTVSPropertyOp41
 70
     1
102
RTVSPropertyOp42
 70
     1
102
RTVSPropertyOp43
 70
     1
102
RTVSPropertyOp44
 70
     1
102
RTVSPropertyOp45
 70
     1
102
RTVSPropertyOp46
 70
     1
102
RTVSPropertyOp47
 70
     1
102
RTVSPropertyOp48
 70
     1
102
RTVSPropertyOp49
 70
     1
102
RTVSPropertyOp50
 70
     1
102
RTVSPropertyOp51
 70
     0
102
RTVSPropertyOp52
 70
     0
102
RTVSPropertyOp53
 70
     1
102
RTVSPropertyOp54
 70
     1
102
RTVSPropertyOp55
 70
     1
102
RTVSPropertyOp56
 70
     1
102
RTVSPropertyOp57
 70
     1
102
RTVSPropertyOp58
 70
     1
102
RTVSPropertyOp59
 70
     1
102
RTVSPropertyOp60
 70
     1
102
RTVSPropertyOp61
 70
     1
102
RTVSPropertyOp62
 70
     1
  0
XRECORD
  5
99EF
102
{ACAD_REACTORS
330
99EE
102
}
330
99EE
100
AcDbXrecord
280
     1
102
RTVSPost2010Prop28
280
     0
102
RTVSPost2010PropOp28
 70
     1
102
RTVSPost2010Prop29
280
     1
102
RTVSPost2010PropOp29
 70
     1
102
RTVSPost2010Prop30
280
     1
102
RTVSPost2010PropOp30
 70
     1
102
RTVSPost2010Prop31
280
     0
102
RTVSPost2010PropOp31
 70
     1
102
RTVSPost2010Prop32
280
     0
102
RTVSPost2010PropOp32
 70
     1
102
RTVSPost2010Prop33
280
     0
102
RTVSPost2010PropOp33
 70
     1
102
RTVSPost2010Prop34
280
     0
102
RTVSPost2010PropOp34
 70
     1
102
RTVSPost2010Prop35
280
     0
102
RTVSPost2010PropOp35
 70
     1
102
RTVSPost2010Prop36
280
     0
102
RTVSPost2010PropOp36
 70
     1
102
RTVSPost2010Prop37
 90
       50
102
RTVSPost2010PropOp37
 70
     0
102
RTVSPost2010Prop38
140
0.0
102
RTVSPost2010PropOp38
 70
     0
102
RTVSPost2010Prop39
140
1.0
102
RTVSPost2010PropOp39
 70
     0
102
RTVSPost2010Prop40
 90
        0
102
RTVSPost2010PropOp40
 70
     0
102
RTVSPost2010Prop41ColorIndex
 90
       18
102
RTVSPost2010Prop41ColorRGB
 90
        0
102
RTVSPost2010PropOp41
 70
     0
102
RTVSPost2010Prop42
 90
       50
102
RTVSPost2010PropOp42
 70
     0
102
RTVSPost2010Prop43
 90
        3
102
RTVSPost2010PropOp43
 70
     0
102
RTVSPost2010Prop44ColorIndex
 90
        5
102
RTVSPost2010Prop44ColorRGB
 90
      255
102
RTVSPost2010PropOp44
 70
     0
102
RTVSPost2010Prop45
280
     0
102
RTVSPost2010PropOp45
 70
     1
102
RTVSPost2010Prop46
 90
       50
102
RTVSPost2010PropOp46
 70
     0
102
RTVSPost2010Prop47
 90
       50
102
RTVSPost2010PropOp47
 70
     0
102
RTVSPost2010Prop48
 90
       50
102
RTVSPost2010PropOp48
 70
     0
102
RTVSPost2010Prop49
280
     0
102
RTVSPost2010PropOp49
 70
     1
102
RTVSPost2010Prop50
 90
       50
102
RTVSPost2010PropOp50
 70
     0
102
RTVSPost2010Prop51ColorIndex
 90
      256
102
RTVSPost2010Prop51ColorRGB
 90
-16777216
102
RTVSPost2010PropOp51
 70
     0
102
RTVSPost2010Prop52
140
1.0
102
RTVSPost2010PropOp52
 70
     0
102
RTVSPost2010Prop53
 90
        2
102
RTVSPost2010PropOp53
 70
     0
102
RTVSPost2010Prop54
  1
strokes_ogs.tif
102
RTVSPost2010PropOp54
 70
     0
102
RTVSPost2010Prop55
280
     0
102
RTVSPost2010PropOp55
 70
     1
102
RTVSPost2010Prop56
140
1.0
102
RTVSPost2010PropOp56
 70
     0
102
RTVSPost2010Prop57
140
1.0
102
RTVSPost2010PropOp57
 70
     0
102
RTVSPropertyOp0
 70
     0
102
RTVSPropertyOp1
 70
     0
102
RTVSPropertyOp2
 70
     0
102
RTVSPropertyOp3
 70
     0
102
RTVSPropertyOp4
 70
     0
102
RTVSPropertyOp5
 70
     0
102
RTVSPropertyOp6
 70
     0
102
RTVSPropertyOp7
 70
     0
102
RTVSPropertyOp8
 70
     0
102
RTVSPropertyOp9
 70
     0
102
RTVSPropertyOp10
 70
     0
102
RTVSPropertyOp11
 70
     0
102
RTVSPropertyOp12
 70
     0
102
RTVSPropertyOp13
 70
     0
102
RTVSPropertyOp14
 70
     2
102
RTVSPropertyOp15
 70
     0
102
RTVSPropertyOp16
 70
     0
102
RTVSPropertyOp17
 70
     0
102
RTVSPropertyOp18
 70
     0
102
RTVSPropertyOp19
 70
     0
102
RTVSPropertyOp20
 70
     0
102
RTVSPropertyOp21
 70
     0
102
RTVSPropertyOp22
 70
     0
102
RTVSPropertyOp23
 70
     0
102
RTVSPropertyOp24
 70
     0
102
RTVSPropertyOp25
 70
     0
102
RTVSPropertyOp26
 70
     0
102
RTVSPropertyOp27
 70
     0
102
RTVSPropertyOp28
 70
     1
102
RTVSPropertyOp29
 70
     1
102
RTVSPropertyOp30
 70
     1
102
RTVSPropertyOp31
 70
     1
102
RTVSPropertyOp32
 70
     1
102
RTVSPropertyOp33
 70
     1
102
RTVSPropertyOp34
 70
     1
102
RTVSPropertyOp35
 70
     1
102
RTVSPropertyOp36
 70
     1
102
RTVSPropertyOp37
 70
     0
102
RTVSPropertyOp38
 70
     0
102
RTVSPropertyOp39
 70
     0
102
RTVSPropertyOp40
 70
     0
102
RTVSPropertyOp41
 70
     0
102
RTVSPropertyOp42
 70
     0
102
RTVSPropertyOp43
 70
     0
102
RTVSPropertyOp44
 70
     0
102
RTVSPropertyOp45
 70
     1
102
RTVSPropertyOp46
 70
     0
102
RTVSPropertyOp47
 70
     0
102
RTVSPropertyOp48
 70
     0
102
RTVSPropertyOp49
 70
     1
102
RTVSPropertyOp50
 70
     0
102
RTVSPropertyOp51
 70
     0
102
RTVSPropertyOp52
 70
     0
102
RTVSPropertyOp53
 70
     0
102
RTVSPropertyOp54
 70
     0
102
RTVSPropertyOp55
 70
     1
102
RTVSPropertyOp56
 70
     0
102
RTVSPropertyOp57
 70
     0
102
RTVSPropertyOp58
 70
     0
102
RTVSPropertyOp59
 70
     0
102
RTVSPropertyOp60
 70
     0
102
RTVSPropertyOp61
 70
     0
102
RTVSPropertyOp62
 70
     0
  0
XRECORD
  5
99DF
102
{ACAD_REACTORS
330
99DE
102
}
330
99DE
100
AcDbXrecord
280
     1
102
RTVSPost2010Prop28
280
     0
102
RTVSPost2010PropOp28
 70
     1
102
RTVSPost2010Prop29
280
     1
102
RTVSPost2010PropOp29
 70
     1
102
RTVSPost2010Prop30
280
     1
102
RTVSPost2010PropOp30
 70
     1
102
RTVSPost2010Prop31
280
     0
102
RTVSPost2010PropOp31
 70
     1
102
RTVSPost2010Prop32
280
     0
102
RTVSPost2010PropOp32
 70
     1
102
RTVSPost2010Prop33
280
     0
102
RTVSPost2010PropOp33
 70
     1
102
RTVSPost2010Prop34
280
     0
102
RTVSPost2010PropOp34
 70
     1
102
RTVSPost2010Prop35
280
     0
102
RTVSPost2010PropOp35
 70
     1
102
RTVSPost2010Prop36
280
     0
102
RTVSPost2010PropOp36
 70
     1
102
RTVSPost2010Prop37
 90
       50
102
RTVSPost2010PropOp37
 70
     1
102
RTVSPost2010Prop38
140
0.0
102
RTVSPost2010PropOp38
 70
     1
102
RTVSPost2010Prop39
140
1.0
102
RTVSPost2010PropOp39
 70
     1
102
RTVSPost2010Prop40
 90
        0
102
RTVSPost2010PropOp40
 70
     1
102
RTVSPost2010Prop41ColorIndex
 90
       18
102
RTVSPost2010Prop41ColorRGB
 90
        0
102
RTVSPost2010PropOp41
 70
     1
102
RTVSPost2010Prop42
 90
       50
102
RTVSPost2010PropOp42
 70
     1
102
RTVSPost2010Prop43
 90
        3
102
RTVSPost2010PropOp43
 70
     1
102
RTVSPost2010Prop44ColorIndex
 90
        5
102
RTVSPost2010Prop44ColorRGB
 90
      255
102
RTVSPost2010PropOp44
 70
     1
102
RTVSPost2010Prop45
280
     0
102
RTVSPost2010PropOp45
 70
     1
102
RTVSPost2010Prop46
 90
       50
102
RTVSPost2010PropOp46
 70
     1
102
RTVSPost2010Prop47
 90
       50
102
RTVSPost2010PropOp47
 70
     1
102
RTVSPost2010Prop48
 90
       50
102
RTVSPost2010PropOp48
 70
     1
102
RTVSPost2010Prop49
280
     0
102
RTVSPost2010PropOp49
 70
     1
102
RTVSPost2010Prop50
 90
       50
102
RTVSPost2010PropOp50
 70
     1
102
RTVSPost2010Prop51ColorIndex
 90
      256
102
RTVSPost2010Prop51ColorRGB
 90
-16777216
102
RTVSPost2010PropOp51
 70
     0
102
RTVSPost2010Prop52
140
1.0
102
RTVSPost2010PropOp52
 70
     0
102
RTVSPost2010Prop53
 90
        2
102
RTVSPost2010PropOp53
 70
     1
102
RTVSPost2010Prop54
  1
strokes_ogs.tif
102
RTVSPost2010PropOp54
 70
     1
102
RTVSPost2010Prop55
280
     0
102
RTVSPost2010PropOp55
 70
     1
102
RTVSPost2010Prop56
140
1.0
102
RTVSPost2010PropOp56
 70
     1
102
RTVSPost2010Prop57
140
1.0
102
RTVSPost2010PropOp57
 70
     1
102
RTVSPropertyOp0
 70
     1
102
RTVSPropertyOp1
 70
     1
102
RTVSPropertyOp2
 70
     1
102
RTVSPropertyOp3
 70
     1
102
RTVSPropertyOp4
 70
     1
102
RTVSPropertyOp5
 70
     1
102
RTVSPropertyOp6
 70
     1
102
RTVSPropertyOp7
 70
     1
102
RTVSPropertyOp8
 70
     1
102
RTVSPropertyOp9
 70
     1
102
RTVSPropertyOp10
 70
     1
102
RTVSPropertyOp11
 70
     1
102
RTVSPropertyOp12
 70
     1
102
RTVSPropertyOp13
 70
     1
102
RTVSPropertyOp14
 70
     1
102
RTVSPropertyOp15
 70
     1
102
RTVSPropertyOp16
 70
     1
102
RTVSPropertyOp17
 70
     1
102
RTVSPropertyOp18
 70
     1
102
RTVSPropertyOp19
 70
     1
102
RTVSPropertyOp20
 70
     1
102
RTVSPropertyOp21
 70
     1
102
RTVSPropertyOp22
 70
     1
102
RTVSPropertyOp23
 70
     1
102
RTVSPropertyOp24
 70
     1
102
RTVSPropertyOp25
 70
     1
102
RTVSPropertyOp26
 70
     1
102
RTVSPropertyOp27
 70
     1
102
RTVSPropertyOp28
 70
     1
102
RTVSPropertyOp29
 70
     1
102
RTVSPropertyOp30
 70
     1
102
RTVSPropertyOp31
 70
     1
102
RTVSPropertyOp32
 70
     1
102
RTVSPropertyOp33
 70
     1
102
RTVSPropertyOp34
 70
     1
102
RTVSPropertyOp35
 70
     1
102
RTVSPropertyOp36
 70
     1
102
RTVSPropertyOp37
 70
     1
102
RTVSPropertyOp38
 70
     1
102
RTVSPropertyOp39
 70
     1
102
RTVSPropertyOp40
 70
     1
102
RTVSPropertyOp41
 70
     1
102
RTVSPropertyOp42
 70
     1
102
RTVSPropertyOp43
 70
     1
102
RTVSPropertyOp44
 70
     1
102
RTVSPropertyOp45
 70
     1
102
RTVSPropertyOp46
 70
     1
102
RTVSPropertyOp47
 70
     1
102
RTVSPropertyOp48
 70
     1
102
RTVSPropertyOp49
 70
     1
102
RTVSPropertyOp50
 70
     1
102
RTVSPropertyOp51
 70
     0
102
RTVSPropertyOp52
 70
     0
102
RTVSPropertyOp53
 70
     1
102
RTVSPropertyOp54
 70
     1
102
RTVSPropertyOp55
 70
     1
102
RTVSPropertyOp56
 70
     1
102
RTVSPropertyOp57
 70
     1
102
RTVSPropertyOp58
 70
     1
102
RTVSPropertyOp59
 70
     1
102
RTVSPropertyOp60
 70
     1
102
RTVSPropertyOp61
 70
     1
102
RTVSPropertyOp62
 70
     1
  0
XRECORD
  5
99F1
102
{ACAD_REACTORS
330
99F0
102
}
330
99F0
100
AcDbXrecord
280
     1
102
RTVSPost2010Prop28
280
     0
102
RTVSPost2010PropOp28
 70
     1
102
RTVSPost2010Prop29
280
     1
102
RTVSPost2010PropOp29
 70
     1
102
RTVSPost2010Prop30
280
     1
102
RTVSPost2010PropOp30
 70
     1
102
RTVSPost2010Prop31
280
     0
102
RTVSPost2010PropOp31
 70
     1
102
RTVSPost2010Prop32
280
     0
102
RTVSPost2010PropOp32
 70
     1
102
RTVSPost2010Prop33
280
     0
102
RTVSPost2010PropOp33
 70
     1
102
RTVSPost2010Prop34
280
     0
102
RTVSPost2010PropOp34
 70
     1
102
RTVSPost2010Prop35
280
     0
102
RTVSPost2010PropOp35
 70
     1
102
RTVSPost2010Prop36
280
     0
102
RTVSPost2010PropOp36
 70
     1
102
RTVSPost2010Prop37
 90
       50
102
RTVSPost2010PropOp37
 70
     0
102
RTVSPost2010Prop38
140
0.0
102
RTVSPost2010PropOp38
 70
     0
102
RTVSPost2010Prop39
140
1.0
102
RTVSPost2010PropOp39
 70
     0
102
RTVSPost2010Prop40
 90
        0
102
RTVSPost2010PropOp40
 70
     0
102
RTVSPost2010Prop41ColorIndex
 90
       18
102
RTVSPost2010Prop41ColorRGB
 90
        0
102
RTVSPost2010PropOp41
 70
     0
102
RTVSPost2010Prop42
 90
       50
102
RTVSPost2010PropOp42
 70
     0
102
RTVSPost2010Prop43
 90
        3
102
RTVSPost2010PropOp43
 70
     0
102
RTVSPost2010Prop44ColorIndex
 90
        5
102
RTVSPost2010Prop44ColorRGB
 90
      255
102
RTVSPost2010PropOp44
 70
     0
102
RTVSPost2010Prop45
280
     0
102
RTVSPost2010PropOp45
 70
     1
102
RTVSPost2010Prop46
 90
       50
102
RTVSPost2010PropOp46
 70
     0
102
RTVSPost2010Prop47
 90
       50
102
RTVSPost2010PropOp47
 70
     0
102
RTVSPost2010Prop48
 90
       50
102
RTVSPost2010PropOp48
 70
     0
102
RTVSPost2010Prop49
280
     0
102
RTVSPost2010PropOp49
 70
     1
102
RTVSPost2010Prop50
 90
       50
102
RTVSPost2010PropOp50
 70
     0
102
RTVSPost2010Prop51ColorIndex
 90
      256
102
RTVSPost2010Prop51ColorRGB
 90
-16777216
102
RTVSPost2010PropOp51
 70
     0
102
RTVSPost2010Prop52
140
1.0
102
RTVSPost2010PropOp52
 70
     0
102
RTVSPost2010Prop53
 90
        2
102
RTVSPost2010PropOp53
 70
     0
102
RTVSPost2010Prop54
  1
strokes_ogs.tif
102
RTVSPost2010PropOp54
 70
     0
102
RTVSPost2010Prop55
280
     0
102
RTVSPost2010PropOp55
 70
     1
102
RTVSPost2010Prop56
140
1.0
102
RTVSPost2010PropOp56
 70
     0
102
RTVSPost2010Prop57
140
1.0
102
RTVSPost2010PropOp57
 70
     0
102
RTVSPropertyOp0
 70
     0
102
RTVSPropertyOp1
 70
     0
102
RTVSPropertyOp2
 70
     0
102
RTVSPropertyOp3
 70
     0
102
RTVSPropertyOp4
 70
     0
102
RTVSPropertyOp5
 70
     0
102
RTVSPropertyOp6
 70
     0
102
RTVSPropertyOp7
 70
     0
102
RTVSPropertyOp8
 70
     0
102
RTVSPropertyOp9
 70
     0
102
RTVSPropertyOp10
 70
     0
102
RTVSPropertyOp11
 70
     0
102
RTVSPropertyOp12
 70
     0
102
RTVSPropertyOp13
 70
     0
102
RTVSPropertyOp14
 70
     2
102
RTVSPropertyOp15
 70
     0
102
RTVSPropertyOp16
 70
     0
102
RTVSPropertyOp17
 70
     0
102
RTVSPropertyOp18
 70
     0
102
RTVSPropertyOp19
 70
     0
102
RTVSPropertyOp20
 70
     0
102
RTVSPropertyOp21
 70
     0
102
RTVSPropertyOp22
 70
     0
102
RTVSPropertyOp23
 70
     0
102
RTVSPropertyOp24
 70
     0
102
RTVSPropertyOp25
 70
     0
102
RTVSPropertyOp26
 70
     0
102
RTVSPropertyOp27
 70
     0
102
RTVSPropertyOp28
 70
     1
102
RTVSPropertyOp29
 70
     1
102
RTVSPropertyOp30
 70
     1
102
RTVSPropertyOp31
 70
     1
102
RTVSPropertyOp32
 70
     1
102
RTVSPropertyOp33
 70
     1
102
RTVSPropertyOp34
 70
     1
102
RTVSPropertyOp35
 70
     1
102
RTVSPropertyOp36
 70
     1
102
RTVSPropertyOp37
 70
     0
102
RTVSPropertyOp38
 70
     0
102
RTVSPropertyOp39
 70
     0
102
RTVSPropertyOp40
 70
     0
102
RTVSPropertyOp41
 70
     0
102
RTVSPropertyOp42
 70
     0
102
RTVSPropertyOp43
 70
     0
102
RTVSPropertyOp44
 70
     0
102
RTVSPropertyOp45
 70
     1
102
RTVSPropertyOp46
 70
     0
102
RTVSPropertyOp47
 70
     0
102
RTVSPropertyOp48
 70
     0
102
RTVSPropertyOp49
 70
     1
102
RTVSPropertyOp50
 70
     0
102
RTVSPropertyOp51
 70
     0
102
RTVSPropertyOp52
 70
     0
102
RTVSPropertyOp53
 70
     0
102
RTVSPropertyOp54
 70
     0
102
RTVSPropertyOp55
 70
     1
102
RTVSPropertyOp56
 70
     0
102
RTVSPropertyOp57
 70
     0
102
RTVSPropertyOp58
 70
     0
102
RTVSPropertyOp59
 70
     0
102
RTVSPropertyOp60
 70
     0
102
RTVSPropertyOp61
 70
     0
102
RTVSPropertyOp62
 70
     0
  0
XRECORD
  5
99D7
102
{ACAD_REACTORS
330
99D6
102
}
330
99D6
100
AcDbXrecord
280
     1
102
RTVSPost2010Prop28
280
     0
102
RTVSPost2010PropOp28
 70
     1
102
RTVSPost2010Prop29
280
     1
102
RTVSPost2010PropOp29
 70
     1
102
RTVSPost2010Prop30
280
     1
102
RTVSPost2010PropOp30
 70
     1
102
RTVSPost2010Prop31
280
     0
102
RTVSPost2010PropOp31
 70
     1
102
RTVSPost2010Prop32
280
     0
102
RTVSPost2010PropOp32
 70
     1
102
RTVSPost2010Prop33
280
     0
102
RTVSPost2010PropOp33
 70
     1
102
RTVSPost2010Prop34
280
     0
102
RTVSPost2010PropOp34
 70
     1
102
RTVSPost2010Prop35
280
     0
102
RTVSPost2010PropOp35
 70
     1
102
RTVSPost2010Prop36
280
     0
102
RTVSPost2010PropOp36
 70
     1
102
RTVSPost2010Prop37
 90
       50
102
RTVSPost2010PropOp37
 70
     1
102
RTVSPost2010Prop38
140
0.0
102
RTVSPost2010PropOp38
 70
     1
102
RTVSPost2010Prop39
140
1.0
102
RTVSPost2010PropOp39
 70
     1
102
RTVSPost2010Prop40
 90
        0
102
RTVSPost2010PropOp40
 70
     1
102
RTVSPost2010Prop41ColorIndex
 90
       18
102
RTVSPost2010Prop41ColorRGB
 90
        0
102
RTVSPost2010PropOp41
 70
     1
102
RTVSPost2010Prop42
 90
       50
102
RTVSPost2010PropOp42
 70
     1
102
RTVSPost2010Prop43
 90
        3
102
RTVSPost2010PropOp43
 70
     1
102
RTVSPost2010Prop44ColorIndex
 90
        5
102
RTVSPost2010Prop44ColorRGB
 90
      255
102
RTVSPost2010PropOp44
 70
     1
102
RTVSPost2010Prop45
280
     0
102
RTVSPost2010PropOp45
 70
     1
102
RTVSPost2010Prop46
 90
       50
102
RTVSPost2010PropOp46
 70
     1
102
RTVSPost2010Prop47
 90
       50
102
RTVSPost2010PropOp47
 70
     1
102
RTVSPost2010Prop48
 90
       50
102
RTVSPost2010PropOp48
 70
     1
102
RTVSPost2010Prop49
280
     0
102
RTVSPost2010PropOp49
 70
     1
102
RTVSPost2010Prop50
 90
       50
102
RTVSPost2010PropOp50
 70
     1
102
RTVSPost2010Prop51ColorIndex
 90
      256
102
RTVSPost2010Prop51ColorRGB
 90
-16777216
102
RTVSPost2010PropOp51
 70
     0
102
RTVSPost2010Prop52
140
1.0
102
RTVSPost2010PropOp52
 70
     0
102
RTVSPost2010Prop53
 90
        2
102
RTVSPost2010PropOp53
 70
     1
102
RTVSPost2010Prop54
  1
strokes_ogs.tif
102
RTVSPost2010PropOp54
 70
     1
102
RTVSPost2010Prop55
280
     0
102
RTVSPost2010PropOp55
 70
     1
102
RTVSPost2010Prop56
140
1.0
102
RTVSPost2010PropOp56
 70
     1
102
RTVSPost2010Prop57
140
1.0
102
RTVSPost2010PropOp57
 70
     1
102
RTVSPropertyOp0
 70
     1
102
RTVSPropertyOp1
 70
     1
102
RTVSPropertyOp2
 70
     1
102
RTVSPropertyOp3
 70
     1
102
RTVSPropertyOp4
 70
     1
102
RTVSPropertyOp5
 70
     1
102
RTVSPropertyOp6
 70
     1
102
RTVSPropertyOp7
 70
     1
102
RTVSPropertyOp8
 70
     1
102
RTVSPropertyOp9
 70
     1
102
RTVSPropertyOp10
 70
     1
102
RTVSPropertyOp11
 70
     1
102
RTVSPropertyOp12
 70
     1
102
RTVSPropertyOp13
 70
     1
102
RTVSPropertyOp14
 70
     1
102
RTVSPropertyOp15
 70
     1
102
RTVSPropertyOp16
 70
     1
102
RTVSPropertyOp17
 70
     1
102
RTVSPropertyOp18
 70
     1
102
RTVSPropertyOp19
 70
     1
102
RTVSPropertyOp20
 70
     1
102
RTVSPropertyOp21
 70
     1
102
RTVSPropertyOp22
 70
     1
102
RTVSPropertyOp23
 70
     1
102
RTVSPropertyOp24
 70
     1
102
RTVSPropertyOp25
 70
     1
102
RTVSPropertyOp26
 70
     1
102
RTVSPropertyOp27
 70
     1
102
RTVSPropertyOp28
 70
     1
102
RTVSPropertyOp29
 70
     1
102
RTVSPropertyOp30
 70
     1
102
RTVSPropertyOp31
 70
     1
102
RTVSPropertyOp32
 70
     1
102
RTVSPropertyOp33
 70
     1
102
RTVSPropertyOp34
 70
     1
102
RTVSPropertyOp35
 70
     1
102
RTVSPropertyOp36
 70
     1
102
RTVSPropertyOp37
 70
     1
102
RTVSPropertyOp38
 70
     1
102
RTVSPropertyOp39
 70
     1
102
RTVSPropertyOp40
 70
     1
102
RTVSPropertyOp41
 70
     1
102
RTVSPropertyOp42
 70
     1
102
RTVSPropertyOp43
 70
     1
102
RTVSPropertyOp44
 70
     1
102
RTVSPropertyOp45
 70
     1
102
RTVSPropertyOp46
 70
     1
102
RTVSPropertyOp47
 70
     1
102
RTVSPropertyOp48
 70
     1
102
RTVSPropertyOp49
 70
     1
102
RTVSPropertyOp50
 70
     1
102
RTVSPropertyOp51
 70
     0
102
RTVSPropertyOp52
 70
     0
102
RTVSPropertyOp53
 70
     1
102
RTVSPropertyOp54
 70
     1
102
RTVSPropertyOp55
 70
     1
102
RTVSPropertyOp56
 70
     1
102
RTVSPropertyOp57
 70
     1
102
RTVSPropertyOp58
 70
     1
102
RTVSPropertyOp59
 70
     1
102
RTVSPropertyOp60
 70
     1
102
RTVSPropertyOp61
 70
     1
102
RTVSPropertyOp62
 70
     1
  0
XRECORD
  5
99ED
102
{ACAD_REACTORS
330
99EC
102
}
330
99EC
100
AcDbXrecord
280
     1
102
RTVSPost2010Prop28
280
     0
102
RTVSPost2010PropOp28
 70
     1
102
RTVSPost2010Prop29
280
     1
102
RTVSPost2010PropOp29
 70
     1
102
RTVSPost2010Prop30
280
     1
102
RTVSPost2010PropOp30
 70
     1
102
RTVSPost2010Prop31
280
     0
102
RTVSPost2010PropOp31
 70
     1
102
RTVSPost2010Prop32
280
     0
102
RTVSPost2010PropOp32
 70
     1
102
RTVSPost2010Prop33
280
     0
102
RTVSPost2010PropOp33
 70
     1
102
RTVSPost2010Prop34
280
     0
102
RTVSPost2010PropOp34
 70
     1
102
RTVSPost2010Prop35
280
     0
102
RTVSPost2010PropOp35
 70
     1
102
RTVSPost2010Prop36
280
     0
102
RTVSPost2010PropOp36
 70
     1
102
RTVSPost2010Prop37
 90
       50
102
RTVSPost2010PropOp37
 70
     1
102
RTVSPost2010Prop38
140
0.0
102
RTVSPost2010PropOp38
 70
     1
102
RTVSPost2010Prop39
140
1.0
102
RTVSPost2010PropOp39
 70
     1
102
RTVSPost2010Prop40
 90
        0
102
RTVSPost2010PropOp40
 70
     1
102
RTVSPost2010Prop41ColorIndex
 90
       18
102
RTVSPost2010Prop41ColorRGB
 90
        0
102
RTVSPost2010PropOp41
 70
     1
102
RTVSPost2010Prop42
 90
       50
102
RTVSPost2010PropOp42
 70
     1
102
RTVSPost2010Prop43
 90
        3
102
RTVSPost2010PropOp43
 70
     1
102
RTVSPost2010Prop44ColorIndex
 90
        5
102
RTVSPost2010Prop44ColorRGB
 90
      255
102
RTVSPost2010PropOp44
 70
     1
102
RTVSPost2010Prop45
280
     0
102
RTVSPost2010PropOp45
 70
     1
102
RTVSPost2010Prop46
 90
       50
102
RTVSPost2010PropOp46
 70
     1
102
RTVSPost2010Prop47
 90
       50
102
RTVSPost2010PropOp47
 70
     1
102
RTVSPost2010Prop48
 90
       50
102
RTVSPost2010PropOp48
 70
     1
102
RTVSPost2010Prop49
280
     0
102
RTVSPost2010PropOp49
 70
     1
102
RTVSPost2010Prop50
 90
       50
102
RTVSPost2010PropOp50
 70
     1
102
RTVSPost2010Prop51ColorIndex
 90
      256
102
RTVSPost2010Prop51ColorRGB
 90
-16777216
102
RTVSPost2010PropOp51
 70
     0
102
RTVSPost2010Prop52
140
1.0
102
RTVSPost2010PropOp52
 70
     0
102
RTVSPost2010Prop53
 90
        2
102
RTVSPost2010PropOp53
 70
     1
102
RTVSPost2010Prop54
  1
strokes_ogs.tif
102
RTVSPost2010PropOp54
 70
     1
102
RTVSPost2010Prop55
280
     0
102
RTVSPost2010PropOp55
 70
     1
102
RTVSPost2010Prop56
140
1.0
102
RTVSPost2010PropOp56
 70
     1
102
RTVSPost2010Prop57
140
1.0
102
RTVSPost2010PropOp57
 70
     1
102
RTVSPropertyOp0
 70
     1
102
RTVSPropertyOp1
 70
     1
102
RTVSPropertyOp2
 70
     1
102
RTVSPropertyOp3
 70
     1
102
RTVSPropertyOp4
 70
     1
102
RTVSPropertyOp5
 70
     1
102
RTVSPropertyOp6
 70
     1
102
RTVSPropertyOp7
 70
     1
102
RTVSPropertyOp8
 70
     1
102
RTVSPropertyOp9
 70
     1
102
RTVSPropertyOp10
 70
     1
102
RTVSPropertyOp11
 70
     1
102
RTVSPropertyOp12
 70
     1
102
RTVSPropertyOp13
 70
     1
102
RTVSPropertyOp14
 70
     1
102
RTVSPropertyOp15
 70
     1
102
RTVSPropertyOp16
 70
     1
102
RTVSPropertyOp17
 70
     1
102
RTVSPropertyOp18
 70
     1
102
RTVSPropertyOp19
 70
     1
102
RTVSPropertyOp20
 70
     1
102
RTVSPropertyOp21
 70
     1
102
RTVSPropertyOp22
 70
     1
102
RTVSPropertyOp23
 70
     1
102
RTVSPropertyOp24
 70
     1
102
RTVSPropertyOp25
 70
     1
102
RTVSPropertyOp26
 70
     1
102
RTVSPropertyOp27
 70
     1
102
RTVSPropertyOp28
 70
     1
102
RTVSPropertyOp29
 70
     1
102
RTVSPropertyOp30
 70
     1
102
RTVSPropertyOp31
 70
     1
102
RTVSPropertyOp32
 70
     1
102
RTVSPropertyOp33
 70
     1
102
RTVSPropertyOp34
 70
     1
102
RTVSPropertyOp35
 70
     1
102
RTVSPropertyOp36
 70
     1
102
RTVSPropertyOp37
 70
     1
102
RTVSPropertyOp38
 70
     1
102
RTVSPropertyOp39
 70
     1
102
RTVSPropertyOp40
 70
     1
102
RTVSPropertyOp41
 70
     1
102
RTVSPropertyOp42
 70
     1
102
RTVSPropertyOp43
 70
     1
102
RTVSPropertyOp44
 70
     1
102
RTVSPropertyOp45
 70
     1
102
RTVSPropertyOp46
 70
     1
102
RTVSPropertyOp47
 70
     1
102
RTVSPropertyOp48
 70
     1
102
RTVSPropertyOp49
 70
     1
102
RTVSPropertyOp50
 70
     1
102
RTVSPropertyOp51
 70
     0
102
RTVSPropertyOp52
 70
     0
102
RTVSPropertyOp53
 70
     1
102
RTVSPropertyOp54
 70
     1
102
RTVSPropertyOp55
 70
     1
102
RTVSPropertyOp56
 70
     1
102
RTVSPropertyOp57
 70
     1
102
RTVSPropertyOp58
 70
     1
102
RTVSPropertyOp59
 70
     1
102
RTVSPropertyOp60
 70
     1
102
RTVSPropertyOp61
 70
     1
102
RTVSPropertyOp62
 70
     1
  0
XRECORD
  5
99EB
102
{ACAD_REACTORS
330
99EA
102
}
330
99EA
100
AcDbXrecord
280
     1
102
RTVSPost2010Prop28
280
     0
102
RTVSPost2010PropOp28
 70
     1
102
RTVSPost2010Prop29
280
     1
102
RTVSPost2010PropOp29
 70
     1
102
RTVSPost2010Prop30
280
     1
102
RTVSPost2010PropOp30
 70
     1
102
RTVSPost2010Prop31
280
     0
102
RTVSPost2010PropOp31
 70
     1
102
RTVSPost2010Prop32
280
     0
102
RTVSPost2010PropOp32
 70
     1
102
RTVSPost2010Prop33
280
     0
102
RTVSPost2010PropOp33
 70
     1
102
RTVSPost2010Prop34
280
     0
102
RTVSPost2010PropOp34
 70
     1
102
RTVSPost2010Prop35
280
     0
102
RTVSPost2010PropOp35
 70
     1
102
RTVSPost2010Prop36
280
     0
102
RTVSPost2010PropOp36
 70
     1
102
RTVSPost2010Prop37
 90
       50
102
RTVSPost2010PropOp37
 70
     1
102
RTVSPost2010Prop38
140
0.0
102
RTVSPost2010PropOp38
 70
     1
102
RTVSPost2010Prop39
140
1.0
102
RTVSPost2010PropOp39
 70
     1
102
RTVSPost2010Prop40
 90
        0
102
RTVSPost2010PropOp40
 70
     1
102
RTVSPost2010Prop41ColorIndex
 90
       18
102
RTVSPost2010Prop41ColorRGB
 90
        0
102
RTVSPost2010PropOp41
 70
     1
102
RTVSPost2010Prop42
 90
       50
102
RTVSPost2010PropOp42
 70
     1
102
RTVSPost2010Prop43
 90
        3
102
RTVSPost2010PropOp43
 70
     1
102
RTVSPost2010Prop44ColorIndex
 90
        5
102
RTVSPost2010Prop44ColorRGB
 90
      255
102
RTVSPost2010PropOp44
 70
     1
102
RTVSPost2010Prop45
280
     0
102
RTVSPost2010PropOp45
 70
     1
102
RTVSPost2010Prop46
 90
       50
102
RTVSPost2010PropOp46
 70
     1
102
RTVSPost2010Prop47
 90
       50
102
RTVSPost2010PropOp47
 70
     1
102
RTVSPost2010Prop48
 90
       50
102
RTVSPost2010PropOp48
 70
     1
102
RTVSPost2010Prop49
280
     0
102
RTVSPost2010PropOp49
 70
     1
102
RTVSPost2010Prop50
 90
       50
102
RTVSPost2010PropOp50
 70
     1
102
RTVSPost2010Prop51ColorIndex
 90
      256
102
RTVSPost2010Prop51ColorRGB
 90
-16777216
102
RTVSPost2010PropOp51
 70
     0
102
RTVSPost2010Prop52
140
1.0
102
RTVSPost2010PropOp52
 70
     0
102
RTVSPost2010Prop53
 90
        2
102
RTVSPost2010PropOp53
 70
     1
102
RTVSPost2010Prop54
  1
strokes_ogs.tif
102
RTVSPost2010PropOp54
 70
     1
102
RTVSPost2010Prop55
280
     0
102
RTVSPost2010PropOp55
 70
     1
102
RTVSPost2010Prop56
140
1.0
102
RTVSPost2010PropOp56
 70
     1
102
RTVSPost2010Prop57
140
1.0
102
RTVSPost2010PropOp57
 70
     1
102
RTVSPropertyOp0
 70
     1
102
RTVSPropertyOp1
 70
     1
102
RTVSPropertyOp2
 70
     1
102
RTVSPropertyOp3
 70
     1
102
RTVSPropertyOp4
 70
     1
102
RTVSPropertyOp5
 70
     1
102
RTVSPropertyOp6
 70
     1
102
RTVSPropertyOp7
 70
     1
102
RTVSPropertyOp8
 70
     1
102
RTVSPropertyOp9
 70
     1
102
RTVSPropertyOp10
 70
     1
102
RTVSPropertyOp11
 70
     1
102
RTVSPropertyOp12
 70
     1
102
RTVSPropertyOp13
 70
     1
102
RTVSPropertyOp14
 70
     1
102
RTVSPropertyOp15
 70
     1
102
RTVSPropertyOp16
 70
     1
102
RTVSPropertyOp17
 70
     1
102
RTVSPropertyOp18
 70
     1
102
RTVSPropertyOp19
 70
     1
102
RTVSPropertyOp20
 70
     1
102
RTVSPropertyOp21
 70
     1
102
RTVSPropertyOp22
 70
     1
102
RTVSPropertyOp23
 70
     1
102
RTVSPropertyOp24
 70
     1
102
RTVSPropertyOp25
 70
     1
102
RTVSPropertyOp26
 70
     1
102
RTVSPropertyOp27
 70
     1
102
RTVSPropertyOp28
 70
     1
102
RTVSPropertyOp29
 70
     1
102
RTVSPropertyOp30
 70
     1
102
RTVSPropertyOp31
 70
     1
102
RTVSPropertyOp32
 70
     1
102
RTVSPropertyOp33
 70
     1
102
RTVSPropertyOp34
 70
     1
102
RTVSPropertyOp35
 70
     1
102
RTVSPropertyOp36
 70
     1
102
RTVSPropertyOp37
 70
     1
102
RTVSPropertyOp38
 70
     1
102
RTVSPropertyOp39
 70
     1
102
RTVSPropertyOp40
 70
     1
102
RTVSPropertyOp41
 70
     1
102
RTVSPropertyOp42
 70
     1
102
RTVSPropertyOp43
 70
     1
102
RTVSPropertyOp44
 70
     1
102
RTVSPropertyOp45
 70
     1
102
RTVSPropertyOp46
 70
     1
102
RTVSPropertyOp47
 70
     1
102
RTVSPropertyOp48
 70
     1
102
RTVSPropertyOp49
 70
     1
102
RTVSPropertyOp50
 70
     1
102
RTVSPropertyOp51
 70
     0
102
RTVSPropertyOp52
 70
     0
102
RTVSPropertyOp53
 70
     1
102
RTVSPropertyOp54
 70
     1
102
RTVSPropertyOp55
 70
     1
102
RTVSPropertyOp56
 70
     1
102
RTVSPropertyOp57
 70
     1
102
RTVSPropertyOp58
 70
     1
102
RTVSPropertyOp59
 70
     1
102
RTVSPropertyOp60
 70
     1
102
RTVSPropertyOp61
 70
     1
102
RTVSPropertyOp62
 70
     1
  0
XRECORD
  5
99E5
102
{ACAD_REACTORS
330
99E4
102
}
330
99E4
100
AcDbXrecord
280
     1
102
RTVSPost2010Prop28
280
     0
102
RTVSPost2010PropOp28
 70
     1
102
RTVSPost2010Prop29
280
     1
102
RTVSPost2010PropOp29
 70
     1
102
RTVSPost2010Prop30
280
     1
102
RTVSPost2010PropOp30
 70
     1
102
RTVSPost2010Prop31
280
     0
102
RTVSPost2010PropOp31
 70
     1
102
RTVSPost2010Prop32
280
     0
102
RTVSPost2010PropOp32
 70
     1
102
RTVSPost2010Prop33
280
     0
102
RTVSPost2010PropOp33
 70
     1
102
RTVSPost2010Prop34
280
     0
102
RTVSPost2010PropOp34
 70
     1
102
RTVSPost2010Prop35
280
     0
102
RTVSPost2010PropOp35
 70
     1
102
RTVSPost2010Prop36
280
     0
102
RTVSPost2010PropOp36
 70
     1
102
RTVSPost2010Prop37
 90
       50
102
RTVSPost2010PropOp37
 70
     1
102
RTVSPost2010Prop38
140
0.0
102
RTVSPost2010PropOp38
 70
     1
102
RTVSPost2010Prop39
140
1.0
102
RTVSPost2010PropOp39
 70
     1
102
RTVSPost2010Prop40
 90
        0
102
RTVSPost2010PropOp40
 70
     1
102
RTVSPost2010Prop41ColorIndex
 90
       18
102
RTVSPost2010Prop41ColorRGB
 90
        0
102
RTVSPost2010PropOp41
 70
     1
102
RTVSPost2010Prop42
 90
       50
102
RTVSPost2010PropOp42
 70
     1
102
RTVSPost2010Prop43
 90
        3
102
RTVSPost2010PropOp43
 70
     1
102
RTVSPost2010Prop44ColorIndex
 90
        5
102
RTVSPost2010Prop44ColorRGB
 90
      255
102
RTVSPost2010PropOp44
 70
     1
102
RTVSPost2010Prop45
280
     0
102
RTVSPost2010PropOp45
 70
     1
102
RTVSPost2010Prop46
 90
       50
102
RTVSPost2010PropOp46
 70
     1
102
RTVSPost2010Prop47
 90
       50
102
RTVSPost2010PropOp47
 70
     1
102
RTVSPost2010Prop48
 90
       50
102
RTVSPost2010PropOp48
 70
     1
102
RTVSPost2010Prop49
280
     0
102
RTVSPost2010PropOp49
 70
     1
102
RTVSPost2010Prop50
 90
       50
102
RTVSPost2010PropOp50
 70
     1
102
RTVSPost2010Prop51ColorIndex
 90
      256
102
RTVSPost2010Prop51ColorRGB
 90
-16777216
102
RTVSPost2010PropOp51
 70
     0
102
RTVSPost2010Prop52
140
1.0
102
RTVSPost2010PropOp52
 70
     0
102
RTVSPost2010Prop53
 90
        2
102
RTVSPost2010PropOp53
 70
     1
102
RTVSPost2010Prop54
  1
strokes_ogs.tif
102
RTVSPost2010PropOp54
 70
     1
102
RTVSPost2010Prop55
280
     0
102
RTVSPost2010PropOp55
 70
     1
102
RTVSPost2010Prop56
140
1.0
102
RTVSPost2010PropOp56
 70
     1
102
RTVSPost2010Prop57
140
1.0
102
RTVSPost2010PropOp57
 70
     1
102
RTVSPropertyOp0
 70
     1
102
RTVSPropertyOp1
 70
     1
102
RTVSPropertyOp2
 70
     1
102
RTVSPropertyOp3
 70
     1
102
RTVSPropertyOp4
 70
     1
102
RTVSPropertyOp5
 70
     1
102
RTVSPropertyOp6
 70
     1
102
RTVSPropertyOp7
 70
     1
102
RTVSPropertyOp8
 70
     1
102
RTVSPropertyOp9
 70
     1
102
RTVSPropertyOp10
 70
     1
102
RTVSPropertyOp11
 70
     1
102
RTVSPropertyOp12
 70
     1
102
RTVSPropertyOp13
 70
     1
102
RTVSPropertyOp14
 70
     1
102
RTVSPropertyOp15
 70
     1
102
RTVSPropertyOp16
 70
     1
102
RTVSPropertyOp17
 70
     1
102
RTVSPropertyOp18
 70
     1
102
RTVSPropertyOp19
 70
     1
102
RTVSPropertyOp20
 70
     1
102
RTVSPropertyOp21
 70
     1
102
RTVSPropertyOp22
 70
     1
102
RTVSPropertyOp23
 70
     1
102
RTVSPropertyOp24
 70
     1
102
RTVSPropertyOp25
 70
     1
102
RTVSPropertyOp26
 70
     1
102
RTVSPropertyOp27
 70
     1
102
RTVSPropertyOp28
 70
     1
102
RTVSPropertyOp29
 70
     1
102
RTVSPropertyOp30
 70
     1
102
RTVSPropertyOp31
 70
     1
102
RTVSPropertyOp32
 70
     1
102
RTVSPropertyOp33
 70
     1
102
RTVSPropertyOp34
 70
     1
102
RTVSPropertyOp35
 70
     1
102
RTVSPropertyOp36
 70
     1
102
RTVSPropertyOp37
 70
     1
102
RTVSPropertyOp38
 70
     1
102
RTVSPropertyOp39
 70
     1
102
RTVSPropertyOp40
 70
     1
102
RTVSPropertyOp41
 70
     1
102
RTVSPropertyOp42
 70
     1
102
RTVSPropertyOp43
 70
     1
102
RTVSPropertyOp44
 70
     1
102
RTVSPropertyOp45
 70
     1
102
RTVSPropertyOp46
 70
     1
102
RTVSPropertyOp47
 70
     1
102
RTVSPropertyOp48
 70
     1
102
RTVSPropertyOp49
 70
     1
102
RTVSPropertyOp50
 70
     1
102
RTVSPropertyOp51
 70
     0
102
RTVSPropertyOp52
 70
     0
102
RTVSPropertyOp53
 70
     1
102
RTVSPropertyOp54
 70
     1
102
RTVSPropertyOp55
 70
     1
102
RTVSPropertyOp56
 70
     1
102
RTVSPropertyOp57
 70
     1
102
RTVSPropertyOp58
 70
     1
102
RTVSPropertyOp59
 70
     1
102
RTVSPropertyOp60
 70
     1
102
RTVSPropertyOp61
 70
     1
102
RTVSPropertyOp62
 70
     1
  0
XRECORD
  5
99E7
102
{ACAD_REACTORS
330
99E6
102
}
330
99E6
100
AcDbXrecord
280
     1
102
RTVSPost2010Prop28
280
     0
102
RTVSPost2010PropOp28
 70
     1
102
RTVSPost2010Prop29
280
     1
102
RTVSPost2010PropOp29
 70
     1
102
RTVSPost2010Prop30
280
     1
102
RTVSPost2010PropOp30
 70
     1
102
RTVSPost2010Prop31
280
     0
102
RTVSPost2010PropOp31
 70
     1
102
RTVSPost2010Prop32
280
     0
102
RTVSPost2010PropOp32
 70
     1
102
RTVSPost2010Prop33
280
     0
102
RTVSPost2010PropOp33
 70
     1
102
RTVSPost2010Prop34
280
     0
102
RTVSPost2010PropOp34
 70
     1
102
RTVSPost2010Prop35
280
     0
102
RTVSPost2010PropOp35
 70
     1
102
RTVSPost2010Prop36
280
     0
102
RTVSPost2010PropOp36
 70
     1
102
RTVSPost2010Prop37
 90
       50
102
RTVSPost2010PropOp37
 70
     1
102
RTVSPost2010Prop38
140
0.0
102
RTVSPost2010PropOp38
 70
     1
102
RTVSPost2010Prop39
140
1.0
102
RTVSPost2010PropOp39
 70
     1
102
RTVSPost2010Prop40
 90
        0
102
RTVSPost2010PropOp40
 70
     1
102
RTVSPost2010Prop41ColorIndex
 90
       18
102
RTVSPost2010Prop41ColorRGB
 90
        0
102
RTVSPost2010PropOp41
 70
     1
102
RTVSPost2010Prop42
 90
       50
102
RTVSPost2010PropOp42
 70
     1
102
RTVSPost2010Prop43
 90
        3
102
RTVSPost2010PropOp43
 70
     1
102
RTVSPost2010Prop44ColorIndex
 90
        5
102
RTVSPost2010Prop44ColorRGB
 90
      255
102
RTVSPost2010PropOp44
 70
     1
102
RTVSPost2010Prop45
280
     0
102
RTVSPost2010PropOp45
 70
     1
102
RTVSPost2010Prop46
 90
       50
102
RTVSPost2010PropOp46
 70
     1
102
RTVSPost2010Prop47
 90
       50
102
RTVSPost2010PropOp47
 70
     1
102
RTVSPost2010Prop48
 90
       50
102
RTVSPost2010PropOp48
 70
     1
102
RTVSPost2010Prop49
280
     0
102
RTVSPost2010PropOp49
 70
     1
102
RTVSPost2010Prop50
 90
       50
102
RTVSPost2010PropOp50
 70
     1
102
RTVSPost2010Prop51ColorIndex
 90
      256
102
RTVSPost2010Prop51ColorRGB
 90
-16777216
102
RTVSPost2010PropOp51
 70
     0
102
RTVSPost2010Prop52
140
1.0
102
RTVSPost2010PropOp52
 70
     0
102
RTVSPost2010Prop53
 90
        2
102
RTVSPost2010PropOp53
 70
     1
102
RTVSPost2010Prop54
  1
strokes_ogs.tif
102
RTVSPost2010PropOp54
 70
     1
102
RTVSPost2010Prop55
280
     0
102
RTVSPost2010PropOp55
 70
     1
102
RTVSPost2010Prop56
140
1.0
102
RTVSPost2010PropOp56
 70
     1
102
RTVSPost2010Prop57
140
1.0
102
RTVSPost2010PropOp57
 70
     1
102
RTVSPropertyOp0
 70
     1
102
RTVSPropertyOp1
 70
     1
102
RTVSPropertyOp2
 70
     1
102
RTVSPropertyOp3
 70
     1
102
RTVSPropertyOp4
 70
     1
102
RTVSPropertyOp5
 70
     1
102
RTVSPropertyOp6
 70
     1
102
RTVSPropertyOp7
 70
     1
102
RTVSPropertyOp8
 70
     1
102
RTVSPropertyOp9
 70
     1
102
RTVSPropertyOp10
 70
     1
102
RTVSPropertyOp11
 70
     1
102
RTVSPropertyOp12
 70
     1
102
RTVSPropertyOp13
 70
     1
102
RTVSPropertyOp14
 70
     1
102
RTVSPropertyOp15
 70
     1
102
RTVSPropertyOp16
 70
     1
102
RTVSPropertyOp17
 70
     1
102
RTVSPropertyOp18
 70
     1
102
RTVSPropertyOp19
 70
     1
102
RTVSPropertyOp20
 70
     1
102
RTVSPropertyOp21
 70
     1
102
RTVSPropertyOp22
 70
     1
102
RTVSPropertyOp23
 70
     1
102
RTVSPropertyOp24
 70
     1
102
RTVSPropertyOp25
 70
     1
102
RTVSPropertyOp26
 70
     1
102
RTVSPropertyOp27
 70
     1
102
RTVSPropertyOp28
 70
     1
102
RTVSPropertyOp29
 70
     1
102
RTVSPropertyOp30
 70
     1
102
RTVSPropertyOp31
 70
     1
102
RTVSPropertyOp32
 70
     1
102
RTVSPropertyOp33
 70
     1
102
RTVSPropertyOp34
 70
     1
102
RTVSPropertyOp35
 70
     1
102
RTVSPropertyOp36
 70
     1
102
RTVSPropertyOp37
 70
     1
102
RTVSPropertyOp38
 70
     1
102
RTVSPropertyOp39
 70
     1
102
RTVSPropertyOp40
 70
     1
102
RTVSPropertyOp41
 70
     1
102
RTVSPropertyOp42
 70
     1
102
RTVSPropertyOp43
 70
     1
102
RTVSPropertyOp44
 70
     1
102
RTVSPropertyOp45
 70
     1
102
RTVSPropertyOp46
 70
     1
102
RTVSPropertyOp47
 70
     1
102
RTVSPropertyOp48
 70
     1
102
RTVSPropertyOp49
 70
     1
102
RTVSPropertyOp50
 70
     1
102
RTVSPropertyOp51
 70
     0
102
RTVSPropertyOp52
 70
     0
102
RTVSPropertyOp53
 70
     1
102
RTVSPropertyOp54
 70
     1
102
RTVSPropertyOp55
 70
     1
102
RTVSPropertyOp56
 70
     1
102
RTVSPropertyOp57
 70
     1
102
RTVSPropertyOp58
 70
     1
102
RTVSPropertyOp59
 70
     1
102
RTVSPropertyOp60
 70
     1
102
RTVSPropertyOp61
 70
     1
102
RTVSPropertyOp62
 70
     1
  0
XRECORD
  5
99DD
102
{ACAD_REACTORS
330
99DC
102
}
330
99DC
100
AcDbXrecord
280
     1
102
RTVSPost2010Prop28
280
     0
102
RTVSPost2010PropOp28
 70
     1
102
RTVSPost2010Prop29
280
     1
102
RTVSPost2010PropOp29
 70
     1
102
RTVSPost2010Prop30
280
     1
102
RTVSPost2010PropOp30
 70
     1
102
RTVSPost2010Prop31
280
     0
102
RTVSPost2010PropOp31
 70
     1
102
RTVSPost2010Prop32
280
     0
102
RTVSPost2010PropOp32
 70
     1
102
RTVSPost2010Prop33
280
     0
102
RTVSPost2010PropOp33
 70
     1
102
RTVSPost2010Prop34
280
     0
102
RTVSPost2010PropOp34
 70
     1
102
RTVSPost2010Prop35
280
     0
102
RTVSPost2010PropOp35
 70
     1
102
RTVSPost2010Prop36
280
     0
102
RTVSPost2010PropOp36
 70
     1
102
RTVSPost2010Prop37
 90
       50
102
RTVSPost2010PropOp37
 70
     1
102
RTVSPost2010Prop38
140
0.0
102
RTVSPost2010PropOp38
 70
     1
102
RTVSPost2010Prop39
140
1.0
102
RTVSPost2010PropOp39
 70
     1
102
RTVSPost2010Prop40
 90
        0
102
RTVSPost2010PropOp40
 70
     1
102
RTVSPost2010Prop41ColorIndex
 90
       18
102
RTVSPost2010Prop41ColorRGB
 90
        0
102
RTVSPost2010PropOp41
 70
     1
102
RTVSPost2010Prop42
 90
       50
102
RTVSPost2010PropOp42
 70
     1
102
RTVSPost2010Prop43
 90
        3
102
RTVSPost2010PropOp43
 70
     1
102
RTVSPost2010Prop44ColorIndex
 90
        5
102
RTVSPost2010Prop44ColorRGB
 90
      255
102
RTVSPost2010PropOp44
 70
     1
102
RTVSPost2010Prop45
280
     0
102
RTVSPost2010PropOp45
 70
     1
102
RTVSPost2010Prop46
 90
       50
102
RTVSPost2010PropOp46
 70
     1
102
RTVSPost2010Prop47
 90
       50
102
RTVSPost2010PropOp47
 70
     1
102
RTVSPost2010Prop48
 90
       50
102
RTVSPost2010PropOp48
 70
     1
102
RTVSPost2010Prop49
280
     0
102
RTVSPost2010PropOp49
 70
     1
102
RTVSPost2010Prop50
 90
       50
102
RTVSPost2010PropOp50
 70
     1
102
RTVSPost2010Prop51ColorIndex
 90
      256
102
RTVSPost2010Prop51ColorRGB
 90
-16777216
102
RTVSPost2010PropOp51
 70
     0
102
RTVSPost2010Prop52
140
1.0
102
RTVSPost2010PropOp52
 70
     0
102
RTVSPost2010Prop53
 90
        2
102
RTVSPost2010PropOp53
 70
     1
102
RTVSPost2010Prop54
  1
strokes_ogs.tif
102
RTVSPost2010PropOp54
 70
     1
102
RTVSPost2010Prop55
280
     0
102
RTVSPost2010PropOp55
 70
     1
102
RTVSPost2010Prop56
140
1.0
102
RTVSPost2010PropOp56
 70
     1
102
RTVSPost2010Prop57
140
1.0
102
RTVSPost2010PropOp57
 70
     1
102
RTVSPropertyOp0
 70
     1
102
RTVSPropertyOp1
 70
     1
102
RTVSPropertyOp2
 70
     1
102
RTVSPropertyOp3
 70
     1
102
RTVSPropertyOp4
 70
     1
102
RTVSPropertyOp5
 70
     1
102
RTVSPropertyOp6
 70
     1
102
RTVSPropertyOp7
 70
     1
102
RTVSPropertyOp8
 70
     1
102
RTVSPropertyOp9
 70
     1
102
RTVSPropertyOp10
 70
     1
102
RTVSPropertyOp11
 70
     1
102
RTVSPropertyOp12
 70
     1
102
RTVSPropertyOp13
 70
     1
102
RTVSPropertyOp14
 70
     1
102
RTVSPropertyOp15
 70
     1
102
RTVSPropertyOp16
 70
     1
102
RTVSPropertyOp17
 70
     1
102
RTVSPropertyOp18
 70
     1
102
RTVSPropertyOp19
 70
     1
102
RTVSPropertyOp20
 70
     1
102
RTVSPropertyOp21
 70
     1
102
RTVSPropertyOp22
 70
     1
102
RTVSPropertyOp23
 70
     1
102
RTVSPropertyOp24
 70
     1
102
RTVSPropertyOp25
 70
     1
102
RTVSPropertyOp26
 70
     1
102
RTVSPropertyOp27
 70
     1
102
RTVSPropertyOp28
 70
     1
102
RTVSPropertyOp29
 70
     1
102
RTVSPropertyOp30
 70
     1
102
RTVSPropertyOp31
 70
     1
102
RTVSPropertyOp32
 70
     1
102
RTVSPropertyOp33
 70
     1
102
RTVSPropertyOp34
 70
     1
102
RTVSPropertyOp35
 70
     1
102
RTVSPropertyOp36
 70
     1
102
RTVSPropertyOp37
 70
     1
102
RTVSPropertyOp38
 70
     1
102
RTVSPropertyOp39
 70
     1
102
RTVSPropertyOp40
 70
     1
102
RTVSPropertyOp41
 70
     1
102
RTVSPropertyOp42
 70
     1
102
RTVSPropertyOp43
 70
     1
102
RTVSPropertyOp44
 70
     1
102
RTVSPropertyOp45
 70
     1
102
RTVSPropertyOp46
 70
     1
102
RTVSPropertyOp47
 70
     1
102
RTVSPropertyOp48
 70
     1
102
RTVSPropertyOp49
 70
     1
102
RTVSPropertyOp50
 70
     1
102
RTVSPropertyOp51
 70
     0
102
RTVSPropertyOp52
 70
     0
102
RTVSPropertyOp53
 70
     1
102
RTVSPropertyOp54
 70
     1
102
RTVSPropertyOp55
 70
     1
102
RTVSPropertyOp56
 70
     1
102
RTVSPropertyOp57
 70
     1
102
RTVSPropertyOp58
 70
     1
102
RTVSPropertyOp59
 70
     1
102
RTVSPropertyOp60
 70
     1
102
RTVSPropertyOp61
 70
     1
102
RTVSPropertyOp62
 70
     1
  0
XRECORD
  5
99D1
102
{ACAD_REACTORS
330
99D0
102
}
330
99D0
100
AcDbXrecord
280
     1
102
RTVSPost2010Prop28
280
     0
102
RTVSPost2010PropOp28
 70
     1
102
RTVSPost2010Prop29
280
     1
102
RTVSPost2010PropOp29
 70
     1
102
RTVSPost2010Prop30
280
     1
102
RTVSPost2010PropOp30
 70
     1
102
RTVSPost2010Prop31
280
     0
102
RTVSPost2010PropOp31
 70
     1
102
RTVSPost2010Prop32
280
     0
102
RTVSPost2010PropOp32
 70
     1
102
RTVSPost2010Prop33
280
     0
102
RTVSPost2010PropOp33
 70
     1
102
RTVSPost2010Prop34
280
     0
102
RTVSPost2010PropOp34
 70
     1
102
RTVSPost2010Prop35
280
     0
102
RTVSPost2010PropOp35
 70
     1
102
RTVSPost2010Prop36
280
     0
102
RTVSPost2010PropOp36
 70
     1
102
RTVSPost2010Prop37
 90
       50
102
RTVSPost2010PropOp37
 70
     1
102
RTVSPost2010Prop38
140
0.0
102
RTVSPost2010PropOp38
 70
     1
102
RTVSPost2010Prop39
140
1.0
102
RTVSPost2010PropOp39
 70
     1
102
RTVSPost2010Prop40
 90
        0
102
RTVSPost2010PropOp40
 70
     1
102
RTVSPost2010Prop41ColorIndex
 90
       18
102
RTVSPost2010Prop41ColorRGB
 90
        0
102
RTVSPost2010PropOp41
 70
     1
102
RTVSPost2010Prop42
 90
       50
102
RTVSPost2010PropOp42
 70
     1
102
RTVSPost2010Prop43
 90
        3
102
RTVSPost2010PropOp43
 70
     1
102
RTVSPost2010Prop44ColorIndex
 90
        5
102
RTVSPost2010Prop44ColorRGB
 90
      255
102
RTVSPost2010PropOp44
 70
     1
102
RTVSPost2010Prop45
280
     0
102
RTVSPost2010PropOp45
 70
     1
102
RTVSPost2010Prop46
 90
       50
102
RTVSPost2010PropOp46
 70
     1
102
RTVSPost2010Prop47
 90
       50
102
RTVSPost2010PropOp47
 70
     1
102
RTVSPost2010Prop48
 90
       50
102
RTVSPost2010PropOp48
 70
     1
102
RTVSPost2010Prop49
280
     0
102
RTVSPost2010PropOp49
 70
     1
102
RTVSPost2010Prop50
 90
       50
102
RTVSPost2010PropOp50
 70
     1
102
RTVSPost2010Prop51ColorIndex
 90
      256
102
RTVSPost2010Prop51ColorRGB
 90
-16777216
102
RTVSPost2010PropOp51
 70
     0
102
RTVSPost2010Prop52
140
1.0
102
RTVSPost2010PropOp52
 70
     0
102
RTVSPost2010Prop53
 90
        2
102
RTVSPost2010PropOp53
 70
     1
102
RTVSPost2010Prop54
  1
strokes_ogs.tif
102
RTVSPost2010PropOp54
 70
     1
102
RTVSPost2010Prop55
280
     0
102
RTVSPost2010PropOp55
 70
     1
102
RTVSPost2010Prop56
140
1.0
102
RTVSPost2010PropOp56
 70
     1
102
RTVSPost2010Prop57
140
1.0
102
RTVSPost2010PropOp57
 70
     1
102
RTVSPropertyOp0
 70
     1
102
RTVSPropertyOp1
 70
     1
102
RTVSPropertyOp2
 70
     1
102
RTVSPropertyOp3
 70
     1
102
RTVSPropertyOp4
 70
     1
102
RTVSPropertyOp5
 70
     1
102
RTVSPropertyOp6
 70
     1
102
RTVSPropertyOp7
 70
     1
102
RTVSPropertyOp8
 70
     1
102
RTVSPropertyOp9
 70
     1
102
RTVSPropertyOp10
 70
     1
102
RTVSPropertyOp11
 70
     1
102
RTVSPropertyOp12
 70
     1
102
RTVSPropertyOp13
 70
     1
102
RTVSPropertyOp14
 70
     1
102
RTVSPropertyOp15
 70
     1
102
RTVSPropertyOp16
 70
     1
102
RTVSPropertyOp17
 70
     1
102
RTVSPropertyOp18
 70
     1
102
RTVSPropertyOp19
 70
     1
102
RTVSPropertyOp20
 70
     1
102
RTVSPropertyOp21
 70
     1
102
RTVSPropertyOp22
 70
     1
102
RTVSPropertyOp23
 70
     1
102
RTVSPropertyOp24
 70
     1
102
RTVSPropertyOp25
 70
     1
102
RTVSPropertyOp26
 70
     1
102
RTVSPropertyOp27
 70
     1
102
RTVSPropertyOp28
 70
     1
102
RTVSPropertyOp29
 70
     1
102
RTVSPropertyOp30
 70
     1
102
RTVSPropertyOp31
 70
     1
102
RTVSPropertyOp32
 70
     1
102
RTVSPropertyOp33
 70
     1
102
RTVSPropertyOp34
 70
     1
102
RTVSPropertyOp35
 70
     1
102
RTVSPropertyOp36
 70
     1
102
RTVSPropertyOp37
 70
     1
102
RTVSPropertyOp38
 70
     1
102
RTVSPropertyOp39
 70
     1
102
RTVSPropertyOp40
 70
     1
102
RTVSPropertyOp41
 70
     1
102
RTVSPropertyOp42
 70
     1
102
RTVSPropertyOp43
 70
     1
102
RTVSPropertyOp44
 70
     1
102
RTVSPropertyOp45
 70
     1
102
RTVSPropertyOp46
 70
     1
102
RTVSPropertyOp47
 70
     1
102
RTVSPropertyOp48
 70
     1
102
RTVSPropertyOp49
 70
     1
102
RTVSPropertyOp50
 70
     1
102
RTVSPropertyOp51
 70
     0
102
RTVSPropertyOp52
 70
     0
102
RTVSPropertyOp53
 70
     1
102
RTVSPropertyOp54
 70
     1
102
RTVSPropertyOp55
 70
     1
102
RTVSPropertyOp56
 70
     1
102
RTVSPropertyOp57
 70
     1
102
RTVSPropertyOp58
 70
     1
102
RTVSPropertyOp59
 70
     1
102
RTVSPropertyOp60
 70
     1
102
RTVSPropertyOp61
 70
     1
102
RTVSPropertyOp62
 70
     1
  0
XRECORD
  5
99E9
102
{ACAD_REACTORS
330
99E8
102
}
330
99E8
100
AcDbXrecord
280
     1
102
RTVSPost2010Prop28
280
     0
102
RTVSPost2010PropOp28
 70
     1
102
RTVSPost2010Prop29
280
     1
102
RTVSPost2010PropOp29
 70
     1
102
RTVSPost2010Prop30
280
     1
102
RTVSPost2010PropOp30
 70
     1
102
RTVSPost2010Prop31
280
     0
102
RTVSPost2010PropOp31
 70
     1
102
RTVSPost2010Prop32
280
     0
102
RTVSPost2010PropOp32
 70
     1
102
RTVSPost2010Prop33
280
     0
102
RTVSPost2010PropOp33
 70
     1
102
RTVSPost2010Prop34
280
     0
102
RTVSPost2010PropOp34
 70
     1
102
RTVSPost2010Prop35
280
     0
102
RTVSPost2010PropOp35
 70
     1
102
RTVSPost2010Prop36
280
     0
102
RTVSPost2010PropOp36
 70
     1
102
RTVSPost2010Prop37
 90
       50
102
RTVSPost2010PropOp37
 70
     1
102
RTVSPost2010Prop38
140
0.0
102
RTVSPost2010PropOp38
 70
     1
102
RTVSPost2010Prop39
140
1.0
102
RTVSPost2010PropOp39
 70
     1
102
RTVSPost2010Prop40
 90
        0
102
RTVSPost2010PropOp40
 70
     1
102
RTVSPost2010Prop41ColorIndex
 90
       18
102
RTVSPost2010Prop41ColorRGB
 90
        0
102
RTVSPost2010PropOp41
 70
     1
102
RTVSPost2010Prop42
 90
       50
102
RTVSPost2010PropOp42
 70
     1
102
RTVSPost2010Prop43
 90
        3
102
RTVSPost2010PropOp43
 70
     1
102
RTVSPost2010Prop44ColorIndex
 90
        5
102
RTVSPost2010Prop44ColorRGB
 90
      255
102
RTVSPost2010PropOp44
 70
     1
102
RTVSPost2010Prop45
280
     0
102
RTVSPost2010PropOp45
 70
     1
102
RTVSPost2010Prop46
 90
       50
102
RTVSPost2010PropOp46
 70
     1
102
RTVSPost2010Prop47
 90
       50
102
RTVSPost2010PropOp47
 70
     1
102
RTVSPost2010Prop48
 90
       50
102
RTVSPost2010PropOp48
 70
     1
102
RTVSPost2010Prop49
280
     0
102
RTVSPost2010PropOp49
 70
     1
102
RTVSPost2010Prop50
 90
       50
102
RTVSPost2010PropOp50
 70
     1
102
RTVSPost2010Prop51ColorIndex
 90
      256
102
RTVSPost2010Prop51ColorRGB
 90
-16777216
102
RTVSPost2010PropOp51
 70
     0
102
RTVSPost2010Prop52
140
1.0
102
RTVSPost2010PropOp52
 70
     0
102
RTVSPost2010Prop53
 90
        2
102
RTVSPost2010PropOp53
 70
     1
102
RTVSPost2010Prop54
  1
strokes_ogs.tif
102
RTVSPost2010PropOp54
 70
     1
102
RTVSPost2010Prop55
280
     0
102
RTVSPost2010PropOp55
 70
     1
102
RTVSPost2010Prop56
140
1.0
102
RTVSPost2010PropOp56
 70
     1
102
RTVSPost2010Prop57
140
1.0
102
RTVSPost2010PropOp57
 70
     1
102
RTVSPropertyOp0
 70
     1
102
RTVSPropertyOp1
 70
     1
102
RTVSPropertyOp2
 70
     1
102
RTVSPropertyOp3
 70
     1
102
RTVSPropertyOp4
 70
     1
102
RTVSPropertyOp5
 70
     1
102
RTVSPropertyOp6
 70
     1
102
RTVSPropertyOp7
 70
     1
102
RTVSPropertyOp8
 70
     1
102
RTVSPropertyOp9
 70
     1
102
RTVSPropertyOp10
 70
     1
102
RTVSPropertyOp11
 70
     1
102
RTVSPropertyOp12
 70
     1
102
RTVSPropertyOp13
 70
     1
102
RTVSPropertyOp14
 70
     1
102
RTVSPropertyOp15
 70
     1
102
RTVSPropertyOp16
 70
     1
102
RTVSPropertyOp17
 70
     1
102
RTVSPropertyOp18
 70
     1
102
RTVSPropertyOp19
 70
     1
102
RTVSPropertyOp20
 70
     1
102
RTVSPropertyOp21
 70
     1
102
RTVSPropertyOp22
 70
     1
102
RTVSPropertyOp23
 70
     1
102
RTVSPropertyOp24
 70
     1
102
RTVSPropertyOp25
 70
     1
102
RTVSPropertyOp26
 70
     1
102
RTVSPropertyOp27
 70
     1
102
RTVSPropertyOp28
 70
     1
102
RTVSPropertyOp29
 70
     1
102
RTVSPropertyOp30
 70
     1
102
RTVSPropertyOp31
 70
     1
102
RTVSPropertyOp32
 70
     1
102
RTVSPropertyOp33
 70
     1
102
RTVSPropertyOp34
 70
     1
102
RTVSPropertyOp35
 70
     1
102
RTVSPropertyOp36
 70
     1
102
RTVSPropertyOp37
 70
     1
102
RTVSPropertyOp38
 70
     1
102
RTVSPropertyOp39
 70
     1
102
RTVSPropertyOp40
 70
     1
102
RTVSPropertyOp41
 70
     1
102
RTVSPropertyOp42
 70
     1
102
RTVSPropertyOp43
 70
     1
102
RTVSPropertyOp44
 70
     1
102
RTVSPropertyOp45
 70
     1
102
RTVSPropertyOp46
 70
     1
102
RTVSPropertyOp47
 70
     1
102
RTVSPropertyOp48
 70
     1
102
RTVSPropertyOp49
 70
     1
102
RTVSPropertyOp50
 70
     1
102
RTVSPropertyOp51
 70
     0
102
RTVSPropertyOp52
 70
     0
102
RTVSPropertyOp53
 70
     1
102
RTVSPropertyOp54
 70
     1
102
RTVSPropertyOp55
 70
     1
102
RTVSPropertyOp56
 70
     1
102
RTVSPropertyOp57
 70
     1
102
RTVSPropertyOp58
 70
     1
102
RTVSPropertyOp59
 70
     1
102
RTVSPropertyOp60
 70
     1
102
RTVSPropertyOp61
 70
     1
102
RTVSPropertyOp62
 70
     1
  0
ENDSEC
  0
EOF
