  0
SECTION
  2
HEADER
  9
$ACADVER
  1
AC1015
  9
$ACADMAINTVER
 70
    20
  9
$DWGCODEPAGE
  3
ANSI_932
  9
$INSBASE
 10
0.0
 20
0.0
 30
0.0
  9
$EXTMIN
 10
8.069319999999997
 20
9.999999999999998
 30
0.0
  9
$EXTMAX
 10
497.55432
 20
296.1003589999999
 30
0.0
  9
$LIMMIN
 10
0.0
 20
0.0
  9
$LIMMAX
 10
495.0
 20
341.25
  9
$ORTHOMODE
 70
     1
  9
$REGENMODE
 70
     1
  9
$FILLMODE
 70
     1
  9
$QTEXTMODE
 70
     0
  9
$MIRRTEXT
 70
     1
  9
$LTSCALE
 40
20.0
  9
$ATTMODE
 70
     1
  9
$TEXTSIZE
 40
5.0
  9
$TRACEWID
 40
1.0
  9
$TEXTSTYLE
  7
STANDARD
  9
$CLAYER
  8
0
  9
$CELTYPE
  6
BYLAYER
  9
$CECOLOR
 62
   256
  9
$CELTSCALE
 40
1.0
  9
$DISPSILH
 70
     0
  9
$DIMSCALE
 40
1.0
  9
$DIMASZ
 40
3.0
  9
$DIMEXO
 40
1.0
  9
$DIMDLI
 40
10.0
  9
$DIMRND
 40
0.0
  9
$DIMDLE
 40
0.0
  9
$DIMEXE
 40
1.0
  9
$DIMTP
 40
0.0
  9
$DIMTM
 40
0.0
  9
$DIMTXT
 40
3.2
  9
$DIMCEN
 40
0.0
  9
$DIMTSZ
 40
0.0
  9
$DIMTOL
 70
     0
  9
$DIMLIM
 70
     0
  9
$DIMTIH
 70
     0
  9
$DIMTOH
 70
     0
  9
$DIMSE1
 70
     0
  9
$DIMSE2
 70
     0
  9
$DIMTAD
 70
     3
  9
$DIMZIN
 70
     8
  9
$DIMBLK
  1

  9
$DIMASO
 70
     1
  9
$DIMSHO
 70
     1
  9
$DIMPOST
  1

  9
$DIMAPOST
  1

  9
$DIMALT
 70
     0
  9
$DIMALTD
 70
     2
  9
$DIMALTF
 40
25.4
  9
$DIMLFAC
 40
1.0
  9
$DIMTOFL
 70
     1
  9
$DIMTVP
 40
0.0
  9
$DIMTIX
 70
     0
  9
$DIMSOXD
 70
     0
  9
$DIMSAH
 70
     1
  9
$DIMBLK1
  1

  9
$DIMBLK2
  1

  9
$DIMSTYLE
  2
STANDARD
  9
$DIMCLRD
 70
     0
  9
$DIMCLRE
 70
     0
  9
$DIMCLRT
 70
     0
  9
$DIMTFAC
 40
1.0
  9
$DIMGAP
 40
1.0
  9
$DIMJUST
 70
     0
  9
$DIMSD1
 70
     0
  9
$DIMSD2
 70
     0
  9
$DIMTOLJ
 70
     1
  9
$DIMTZIN
 70
     0
  9
$DIMALTZ
 70
     0
  9
$DIMALTTZ
 70
     0
  9
$DIMUPT
 70
     0
  9
$DIMDEC
 70
     4
  9
$DIMTDEC
 70
     4
  9
$DIMALTU
 70
     2
  9
$DIMALTTD
 70
     2
  9
$DIMTXSTY
  7
STANDARD
  9
$DIMAUNIT
 70
     0
  9
$DIMADEC
 70
     0
  9
$DIMALTRND
 40
0.0
  9
$DIMAZIN
 70
     0
  9
$DIMDSEP
 70
    46
  9
$DIMATFIT
 70
     3
  9
$DIMFRAC
 70
     0
  9
$DIMLDRBLK
  1

  9
$DIMLUNIT
 70
     2
  9
$DIMLWD
 70
    -2
  9
$DIMLWE
 70
    -2
  9
$DIMTMOVE
 70
     0
  9
$LUNITS
 70
     2
  9
$LUPREC
 70
     4
  9
$SKETCHINC
 40
1.0
  9
$FILLETRAD
 40
1.0
  9
$AUNITS
 70
     0
  9
$AUPREC
 70
     2
  9
$MENU
  1
.
  9
$ELEVATION
 40
0.0
  9
$PELEVATION
 40
0.0
  9
$THICKNESS
 40
0.0
  9
$LIMCHECK
 70
     0
  9
$CHAMFERA
 40
10.0
  9
$CHAMFERB
 40
10.0
  9
$CHAMFERC
 40
0.0
  9
$CHAMFERD
 40
0.0
  9
$SKPOLY
 70
     0
  9
$TDCREATE
 40
2450737.497597569
  9
$TDUCREATE
 40
2450737.122597570
  9
$TDUPDATE
 40
2457192.640447245
  9
$TDUUPDATE
 40
2457192.265447246
  9
$TDINDWG
 40
0.0000174884
  9
$TDUSRTIMER
 40
0.0000171875
  9
$USRTIMER
 70
     1
  9
$ANGBASE
 50
0.0
  9
$ANGDIR
 70
     0
  9
$PDMODE
 70
     0
  9
$PDSIZE
 40
0.0
  9
$PLINEWID
 40
0.0
  9
$SPLFRAME
 70
     0
  9
$SPLINETYPE
 70
     6
  9
$SPLINESEGS
 70
     8
  9
$HANDSEED
  5
9D2F
  9
$SURFTAB1
 70
     6
  9
$SURFTAB2
 70
     6
  9
$SURFTYPE
 70
     6
  9
$SURFU
 70
     6
  9
$SURFV
 70
     6
  9
$UCSBASE
  2

  9
$UCSNAME
  2

  9
$UCSORG
 10
0.0
 20
0.0
 30
0.0
  9
$UCSXDIR
 10
1.0
 20
0.0
 30
0.0
  9
$UCSYDIR
 10
0.0
 20
1.0
 30
0.0
  9
$UCSORTHOREF
  2

  9
$UCSORTHOVIEW
 70
     0
  9
$UCSORGTOP
 10
0.0
 20
0.0
 30
0.0
  9
$UCSORGBOTTOM
 10
0.0
 20
0.0
 30
0.0
  9
$UCSORGLEFT
 10
0.0
 20
0.0
 30
0.0
  9
$UCSORGRIGHT
 10
0.0
 20
0.0
 30
0.0
  9
$UCSORGFRONT
 10
0.0
 20
0.0
 30
0.0
  9
$UCSORGBACK
 10
0.0
 20
0.0
 30
0.0
  9
$PUCSBASE
  2

  9
$PUCSNAME
  2

  9
$PUCSORG
 10
0.0
 20
0.0
 30
0.0
  9
$PUCSXDIR
 10
1.0
 20
0.0
 30
0.0
  9
$PUCSYDIR
 10
0.0
 20
1.0
 30
0.0
  9
$PUCSORTHOREF
  2

  9
$PUCSORTHOVIEW
 70
     0
  9
$PUCSORGTOP
 10
0.0
 20
0.0
 30
0.0
  9
$PUCSORGBOTTOM
 10
0.0
 20
0.0
 30
0.0
  9
$PUCSORGLEFT
 10
0.0
 20
0.0
 30
0.0
  9
$PUCSORGRIGHT
 10
0.0
 20
0.0
 30
0.0
  9
$PUCSORGFRONT
 10
0.0
 20
0.0
 30
0.0
  9
$PUCSORGBACK
 10
0.0
 20
0.0
 30
0.0
  9
$USERI1
 70
     0
  9
$USERI2
 70
     0
  9
$USERI3
 70
     0
  9
$USERI4
 70
     0
  9
$USERI5
 70
     0
  9
$USERR1
 40
0.0
  9
$USERR2
 40
0.0
  9
$USERR3
 40
0.0
  9
$USERR4
 40
0.0
  9
$USERR5
 40
0.0
  9
$WORLDVIEW
 70
     1
  9
$SHADEDGE
 70
     3
  9
$SHADEDIF
 70
    70
  9
$TILEMODE
 70
     1
  9
$MAXACTVP
 70
    16
  9
$PINSBASE
 10
0.0
 20
0.0
 30
0.0
  9
$PLIMCHECK
 70
     0
  9
$PEXTMIN
 10
1.000000000000000E+20
 20
1.000000000000000E+20
 30
1.000000000000000E+20
  9
$PEXTMAX
 10
-1.000000000000000E+20
 20
-1.000000000000000E+20
 30
-1.000000000000000E+20
  9
$PLIMMIN
 10
0.0
 20
0.0
  9
$PLIMMAX
 10
420.0
 20
297.0
  9
$UNITMODE
 70
     0
  9
$VISRETAIN
 70
     0
  9
$PLINEGEN
 70
     0
  9
$PSLTSCALE
 70
     0
  9
$TREEDEPTH
 70
  3020
  9
$CMLSTYLE
  2
STANDARD
  9
$CMLJUST
 70
     0
  9
$CMLSCALE
 40
1.0
  9
$PROXYGRAPHICS
 70
     1
  9
$MEASUREMENT
 70
     0
  9
$CELWEIGHT
370
    -1
  9
$ENDCAPS
280
     0
  9
$JOINSTYLE
280
     0
  9
$LWDISPLAY
290
     0
  9
$INSUNITS
 70
     0
  9
$HYPERLINKBASE
  1

  9
$STYLESHEET
  1

  9
$XEDIT
290
     1
  9
$CEPSNTYPE
380
     0
  9
$PSTYLEMODE
290
     1
  9
$FINGERPRINTGUID
  2
{7E50C64D-D852-4046-8A1F-F8BF60D933F1}
  9
$VERSIONGUID
  2
{EB4F2483-D399-4AFB-9CA0-D152C07D9B1E}
  9
$EXTNAMES
290
     1
  9
$PSVPSCALE
 40
0.0
  9
$OLESTARTUP
290
     0
  0
ENDSEC
  0
SECTION
  2
CLASSES
  0
CLASS
  1
ACDBDICTIONARYWDFLT
  2
AcDbDictionaryWithDefault
  3
ObjectDBX Classes
 90
        0
280
     0
281
     0
  0
CLASS
  1
ACDBPLACEHOLDER
  2
AcDbPlaceHolder
  3
ObjectDBX Classes
 90
        0
280
     0
281
     0
  0
CLASS
  1
LAYOUT
  2
AcDbLayout
  3
ObjectDBX Classes
 90
        0
280
     0
281
     0
  0
CLASS
  1
DICTIONARYVAR
  2
AcDbDictionaryVar
  3
ObjectDBX Classes
 90
        0
280
     0
281
     0
  0
CLASS
  1
MATERIAL
  2
AcDbMaterial
  3
ObjectDBX Classes
 90
     1153
280
     0
281
     0
  0
CLASS
  1
VISUALSTYLE
  2
AcDbVisualStyle
  3
ObjectDBX Classes
 90
     4095
280
     0
281
     0
  0
CLASS
  1
TABLESTYLE
  2
AcDbTableStyle
  3
ObjectDBX Classes
 90
     4095
280
     0
281
     0
  0
CLASS
  1
SCALE
  2
AcDbScale
  3
ObjectDBX Classes
 90
     1153
280
     0
281
     0
  0
CLASS
  1
MLEADERSTYLE
  2
AcDbMLeaderStyle
  3
ACDB_MLEADERSTYLE_CLASS
 90
     4095
280
     0
281
     0
  0
CLASS
  1
ACDBSECTIONVIEWSTYLE
  2
AcDbSectionViewStyle
  3
ObjectDBX Classes
 90
     1025
280
     0
281
     0
  0
CLASS
  1
ACDBDETAILVIEWSTYLE
  2
AcDbDetailViewStyle
  3
ObjectDBX Classes
 90
     1025
280
     0
281
     0
  0
CLASS
  1
CELLSTYLEMAP
  2
AcDbCellStyleMap
  3
ObjectDBX Classes
 90
     1152
280
     0
281
     0
  0
ENDSEC
  0
SECTION
  2
TABLES
  0
TABLE
  2
VPORT
  5
9908
330
0
100
AcDbSymbolTable
 70
     1
  0
VPORT
  5
9C78
330
9908
100
AcDbSymbolTableRecord
100
AcDbViewportTableRecord
  2
*ACTIVE
 70
     0
 10
0.0
 20
0.0
 11
1.0
 21
1.0
 12
339.4879586659951
 22
153.0511673084997
 13
0.0
 23
0.0
 14
10.0
 24
10.0
 15
10.0
 25
10.0
 16
0.0
 26
0.0
 36
1.0
 17
0.0
 27
0.0
 37
0.0
 40
289.3282196193022
 41
1.899603698811096
 42
50.0
 43
0.0
 44
0.0
 50
0.0
 51
0.0
 71
     0
 72
   100
 73
     1
 74
     0
 75
     0
 76
     0
 77
     0
 78
     0
281
     0
 65
     1
110
0.0
120
0.0
130
0.0
111
1.0
121
0.0
131
0.0
112
0.0
122
1.0
132
0.0
 79
     0
146
0.0
1001
ACAD_NAV_VCDISPLAY
1070
     3
  0
ENDTAB
  0
TABLE
  2
LTYPE
  5
9905
330
0
100
AcDbSymbolTable
 70
     4
  0
LTYPE
  5
9913
330
9905
100
AcDbSymbolTableRecord
100
AcDbLinetypeTableRecord
  2
BYBLOCK
 70
     0
  3

 72
    65
 73
     0
 40
0.0
  0
LTYPE
  5
9914
330
9905
100
AcDbSymbolTableRecord
100
AcDbLinetypeTableRecord
  2
BYLAYER
 70
     0
  3

 72
    65
 73
     0
 40
0.0
  0
LTYPE
  5
9915
330
9905
100
AcDbSymbolTableRecord
100
AcDbLinetypeTableRecord
  2
CONTINUOUS
 70
     0
  3
Solid line
 72
    65
 73
     0
 40
0.0
  0
LTYPE
  5
9923
330
9905
100
AcDbSymbolTableRecord
100
AcDbLinetypeTableRecord
  2
DASHED
 70
     0
  3
__ __ __ __ __ __ __ __ __ __ __ __ __ __ __ __
 72
    65
 73
     2
 40
0.75
 49
0.5
 74
     0
 49
-0.25
 74
     0
  0
LTYPE
  5
9924
330
9905
100
AcDbSymbolTableRecord
100
AcDbLinetypeTableRecord
  2
CENTER
 70
     0
  3
____ _ ____ _ ____ _ ____ _ ____ _ ____ _ ____ 
 72
    65
 73
     4
 40
2.0
 49
1.25
 74
     0
 49
-0.25
 74
     0
 49
0.25
 74
     0
 49
-0.25
 74
     0
  0
LTYPE
  5
9925
330
9905
100
AcDbSymbolTableRecord
100
AcDbLinetypeTableRecord
  2
PHANTOM
 70
     0
  3
______  __  __  ______  __  __  ______  __  __ 
 72
    65
 73
     6
 40
2.5
 49
1.25
 74
     0
 49
-0.25
 74
     0
 49
0.25
 74
     0
 49
-0.25
 74
     0
 49
0.25
 74
     0
 49
-0.25
 74
     0
  0
ENDTAB
  0
TABLE
  2
LAYER
  5
9902
330
0
100
AcDbSymbolTable
 70
     8
  0
LAYER
  5
9910
102
{ACAD_XDICTIONARY
360
9CD3
102
}
330
9902
100
AcDbSymbolTableRecord
100
AcDbLayerTableRecord
  2
0
 70
     0
 62
     7
  6
CONTINUOUS
370
    -3
390
9C81
  0
LAYER
  5
9926
102
{ACAD_XDICTIONARY
360
9CD5
102
}
330
9902
100
AcDbSymbolTableRecord
100
AcDbLayerTableRecord
  2
4
 70
     0
 62
     1
  6
CENTER
370
    -3
390
9C81
  0
LAYER
  5
9927
102
{ACAD_XDICTIONARY
360
9CD7
102
}
330
9902
100
AcDbSymbolTableRecord
100
AcDbLayerTableRecord
  2
5
 70
     0
 62
     6
  6
PHANTOM
370
    -3
390
9C81
  0
LAYER
  5
9928
102
{ACAD_XDICTIONARY
360
9CD9
102
}
330
9902
100
AcDbSymbolTableRecord
100
AcDbLayerTableRecord
  2
1
 70
     0
 62
     7
  6
CONTINUOUS
370
    -3
390
9C81
  0
LAYER
  5
9929
102
{ACAD_XDICTIONARY
360
9CDB
102
}
330
9902
100
AcDbSymbolTableRecord
100
AcDbLayerTableRecord
  2
2
 70
     0
 62
     4
  6
CONTINUOUS
370
    -3
390
9C81
  0
LAYER
  5
992A
102
{ACAD_XDICTIONARY
360
9CDD
102
}
330
9902
100
AcDbSymbolTableRecord
100
AcDbLayerTableRecord
  2
3
 70
     0
 62
     2
  6
DASHED
370
    -3
390
9C81
  0
LAYER
  5
992B
102
{ACAD_XDICTIONARY
360
9CDF
102
}
330
9902
100
AcDbSymbolTableRecord
100
AcDbLayerTableRecord
  2
6
 70
     0
 62
     5
  6
CONTINUOUS
370
    -3
390
9C81
  0
LAYER
  5
992C
102
{ACAD_XDICTIONARY
360
9CE1
102
}
330
9902
100
AcDbSymbolTableRecord
100
AcDbLayerTableRecord
  2
7
 70
     0
 62
     3
  6
CONTINUOUS
370
    -3
390
9C81
  0
ENDTAB
  0
TABLE
  2
STYLE
  5
9903
330
0
100
AcDbSymbolTable
 70
     1
  0
STYLE
  5
9911
330
9903
100
AcDbSymbolTableRecord
100
AcDbTextStyleTableRecord
  2
STANDARD
 70
     0
 40
0.0
 41
1.0
 50
0.0
 71
     0
 42
5.0
  3
txt
  4

  0
ENDTAB
  0
TABLE
  2
VIEW
  5
9906
330
0
100
AcDbSymbolTable
 70
     0
  0
ENDTAB
  0
TABLE
  2
UCS
  5
9907
330
0
100
AcDbSymbolTable
 70
     0
  0
ENDTAB
  0
TABLE
  2
APPID
  5
9909
330
0
100
AcDbSymbolTable
 70
     3
  0
APPID
  5
9912
330
9909
100
AcDbSymbolTableRecord
100
AcDbRegAppTableRecord
  2
ACAD
 70
     0
  0
APPID
  5
9CED
330
9909
100
AcDbSymbolTableRecord
100
AcDbRegAppTableRecord
  2
ACAD_NAV_VCDISPLAY
 70
     0
  0
APPID
  5
9D26
330
9909
100
AcDbSymbolTableRecord
100
AcDbRegAppTableRecord
  2
ACAD_MLEADERVER
 70
     0
  0
ENDTAB
  0
TABLE
  2
DIMSTYLE
  5
990A
330
0
100
AcDbSymbolTable
 70
     1
100
AcDbDimStyleTable
 71
     0
  0
DIMSTYLE
105
992E
330
990A
100
AcDbSymbolTableRecord
100
AcDbDimStyleTableRecord
  2
STANDARD
 70
     0
 41
3.0
 42
1.0
 43
10.0
 44
1.0
 73
     0
 74
     0
 77
     3
 78
     8
140
3.2
141
0.0
147
1.0
172
     1
173
     1
284
     8
285
     8
286
     8
340
9911
  0
ENDTAB
  0
TABLE
  2
BLOCK_RECORD
  5
9901
330
0
100
AcDbSymbolTable
 70
     0
  0
BLOCK_RECORD
  5
991E
102
{ACAD_XDICTIONARY
360
9C7B
102
}
330
9901
100
AcDbSymbolTableRecord
100
AcDbBlockTableRecord
  2
*MODEL_SPACE
340
9CCF
  0
BLOCK_RECORD
  5
991A
102
{ACAD_XDICTIONARY
360
9C79
102
}
330
9901
100
AcDbSymbolTableRecord
100
AcDbBlockTableRecord
  2
*PAPER_SPACE
340
9CD0
  0
ENDTAB
  0
ENDSEC
  0
SECTION
  2
BLOCKS
  0
BLOCK
  5
991F
330
991E
100
AcDbEntity
  8
0
100
AcDbBlockBegin
  2
*MODEL_SPACE
 70
     0
 10
0.0
 20
0.0
 30
0.0
  3
*MODEL_SPACE
  1

  0
ENDBLK
  5
9920
330
991E
100
AcDbEntity
  8
0
100
AcDbBlockEnd
  0
BLOCK
  5
991B
330
991A
100
AcDbEntity
 67
     1
  8
0
100
AcDbBlockBegin
  2
*PAPER_SPACE
 70
     0
 10
0.0
 20
0.0
 30
0.0
  3
*PAPER_SPACE
  1

  0
ENDBLK
  5
991C
330
991A
100
AcDbEntity
 67
     1
  8
0
100
AcDbBlockEnd
  0
ENDSEC
  0
SECTION
  2
ENTITIES
  0
TEXT
  5
9936
330
991E
100
AcDbEntity
  8
7
  6
Continuous
100
AcDbText
 10
10.0
 20
18.0
 30
0.0
 40
3.0
  1
TYPE No.THA-300JS-1
100
AcDbText
  0
TEXT
  5
9937
330
991E
100
AcDbEntity
  8
7
  6
Continuous
100
AcDbText
 10
10.0
 20
26.0
 30
0.0
 40
3.0
  1
CODE No.3750
100
AcDbText
  0
TEXT
  5
9938
330
991E
100
AcDbEntity
  8
1
  6
Continuous
100
AcDbText
 10
10.0
 20
10.0
 30
0.0
 40
1.399999999999999
  1
LAYER
100
AcDbText
  0
TEXT
  5
9939
330
991E
100
AcDbEntity
  8
1
  6
Continuous
100
AcDbText
 10
17.97951099999998
 20
10.04873699999998
 30
0.0
 40
1.399999999999999
  1
1
100
AcDbText
  0
TEXT
  5
993A
330
991E
100
AcDbEntity
  8
7
  6
Continuous
100
AcDbText
 10
29.97951099999999
 20
10.04873699999998
 30
0.0
 40
1.399999999999999
  1
7
100
AcDbText
  0
TEXT
  5
993B
330
991E
100
AcDbEntity
  8
4
  6
CENTER
100
AcDbText
 10
23.97951099999999
 20
10.04873699999998
 30
0.0
 40
1.399999999999999
  1
4
100
AcDbText
  0
TEXT
  5
993C
330
991E
100
AcDbEntity
  8
3
  6
DASHED
100
AcDbText
 10
21.979511
 20
10.04873699999998
 30
0.0
 40
1.399999999999999
  1
3
100
AcDbText
  0
TEXT
  5
993D
330
991E
100
AcDbEntity
  8
2
  6
Continuous
100
AcDbText
 10
19.97951099999999
 20
10.04873699999998
 30
0.0
 40
1.399999999999999
  1
2
100
AcDbText
  0
TEXT
  5
993E
330
991E
100
AcDbEntity
  8
6
  6
Continuous
100
AcDbText
 10
27.979511
 20
10.04873699999998
 30
0.0
 40
1.399999999999999
  1
6
100
AcDbText
  0
TEXT
  5
993F
330
991E
100
AcDbEntity
  8
5
  6
PHANTOM
100
AcDbText
 10
25.97951099999999
 20
10.04873699999998
 30
0.0
 40
1.399999999999999
  1
5
100
AcDbText
  0
LINE
  5
9940
330
991E
100
AcDbEntity
  8
4
  6
CENTER
100
AcDbLine
 10
82.36431999999998
 20
160.8263589999999
 30
0.0
 11
155.55842
 21
160.8263589999999
 31
0.0
  0
LINE
  5
9941
330
991E
100
AcDbEntity
  8
4
  6
CENTER
100
AcDbLine
 10
151.6759199999999
 20
179.7268589999999
 30
0.0
 11
8.069319999999997
 21
96.81555899999999
 31
0.0
  0
LINE
  5
9942
330
991E
100
AcDbEntity
  8
5
  6
PHANTOM
100
AcDbLine
 10
142.9374199999998
 20
157.938559
 30
0.0
 11
108.8683199999999
 21
138.2689889999997
 31
0.0
  0
LINE
  5
9943
330
991E
100
AcDbEntity
  8
5
  6
PHANTOM
100
AcDbLine
 10
128.43742
 20
183.0532589999999
 30
0.0
 11
94.36832
 21
163.3837589999999
 31
0.0
  0
LINE
  5
9944
330
991E
100
AcDbEntity
  8
1
  6
Continuous
100
AcDbLine
 10
106.9393199999999
 20
178.4331589999999
 30
0.0
 11
106.9393199999999
 21
143.826359
 31
0.0
  0
LINE
  5
9945
330
991E
100
AcDbEntity
  8
1
  6
Continuous
100
AcDbLine
 10
130.93932
 20
178.4331589999999
 30
0.0
 11
130.93932
 21
143.826359
 31
0.0
  0
LINE
  5
9946
330
991E
100
AcDbEntity
  8
4
  6
CENTER
100
AcDbLine
 10
231.08242
 20
160.8263589999999
 30
0.0
 11
323.97732
 21
160.8263589999999
 31
0.0
  0
LINE
  5
9947
330
991E
100
AcDbEntity
  8
5
  6
PHANTOM
100
AcDbLine
 10
11.23631999999999
 20
107.373559
 30
0.0
 11
18.79632
 21
94.27925899999999
 31
0.0
  0
LINE
  5
9948
330
991E
100
AcDbEntity
  8
5
  6
PHANTOM
100
AcDbLine
 10
11.54932
 20
108.706959
 30
0.0
 11
89.11231999999998
 21
160.1283589999999
 31
0.0
  0
LINE
  5
9949
330
991E
100
AcDbEntity
  8
1
  6
Continuous
100
AcDbLine
 10
110.05332
 20
51.98845900000002
 30
0.0
 11
106.99932
 21
140.372399
 31
0.0
  0
LINE
  5
994A
330
991E
100
AcDbEntity
  8
1
  6
Continuous
100
AcDbLine
 10
127.8251199999999
 20
51.988359
 30
0.0
 11
130.8796199999999
 21
140.372399
 31
0.0
  0
LINE
  5
994B
330
991E
100
AcDbEntity
  8
5
  6
PHANTOM
100
AcDbLine
 10
20.10832
 20
93.88395899999999
 30
0.0
 11
103.4213199999998
 21
135.344679
 31
0.0
  0
LINE
  5
994C
330
991E
100
AcDbEntity
  8
1
  6
Continuous
100
AcDbLine
 10
239.75102
 20
181.6190589999999
 30
0.0
 11
239.75102
 21
140.8263589999999
 31
0.0
  0
LINE
  5
994D
330
991E
100
AcDbEntity
  8
1
  6
Continuous
100
AcDbLine
 10
255.75102
 20
186.326359
 30
0.0
 11
255.75102
 21
55.60135899999998
 31
0.0
  0
LINE
  5
994E
330
991E
100
AcDbEntity
  8
1
  6
Continuous
100
AcDbLine
 10
262.7510199999999
 20
45.70185900000001
 30
0.0
 11
262.7510199999999
 21
42.326359
 31
0.0
  0
LINE
  5
994F
330
991E
100
AcDbEntity
  8
1
  6
Continuous
100
AcDbLine
 10
255.75102
 20
186.326359
 30
0.0
 11
240.93052
 21
183.084359
 31
0.0
  0
LINE
  5
9950
330
991E
100
AcDbEntity
  8
1
  6
Continuous
100
AcDbLine
 10
320.25132
 20
273.1013589999998
 30
0.0
 11
320.25132
 21
259.1003589999999
 31
0.0
  0
LINE
  5
9951
330
991E
100
AcDbEntity
  8
1
  6
Continuous
100
AcDbLine
 10
312.2510199999999
 20
273.6003589999999
 30
0.0
 11
312.2510199999999
 21
258.6003589999999
 31
0.0
  0
LINE
  5
9952
330
991E
100
AcDbEntity
  8
4
  6
CENTER
100
AcDbLine
 10
497.55432
 20
160.8263589999999
 30
0.0
 11
423.5813199999998
 21
160.8263589999999
 31
0.0
  0
LINE
  5
9953
330
991E
100
AcDbEntity
  8
4
  6
CENTER
100
AcDbLine
 10
460.56232
 20
197.0342589999999
 30
0.0
 11
460.56232
 21
32.804359
 31
0.0
  0
LINE
  5
9954
330
991E
100
AcDbEntity
  8
1
  6
Continuous
100
AcDbLine
 10
468.1223199999998
 20
40.82635899999998
 30
0.0
 11
453.00232
 21
40.82635899999998
 31
0.0
  0
LINE
  5
9955
330
991E
100
AcDbEntity
  8
1
  6
Continuous
100
AcDbLine
 10
469.1213199999999
 20
41.76455899999999
 30
0.0
 11
474.85932
 21
134.452115
 31
0.0
  0
LINE
  5
9956
330
991E
100
AcDbEntity
  8
1
  6
Continuous
100
AcDbLine
 10
452.0043199999998
 20
41.76455899999999
 30
0.0
 11
446.26632
 21
134.4521159999999
 31
0.0
  0
LINE
  5
9957
330
991E
100
AcDbEntity
  8
1
  6
Continuous
100
AcDbLine
 10
468.37032
 20
46.826359
 30
0.0
 11
467.7537219999998
 21
46.826359
 31
0.0
  0
LINE
  5
9958
330
991E
100
AcDbEntity
  8
1
  6
Continuous
100
AcDbLine
 10
312.2510199999999
 20
259.1003589999999
 30
0.0
 11
320.25132
 21
259.1003589999999
 31
0.0
  0
LINE
  5
9959
330
991E
100
AcDbEntity
  8
1
  6
Continuous
100
AcDbLine
 10
312.2510199999999
 20
273.1013589999998
 30
0.0
 11
320.25132
 21
273.1013589999998
 31
0.0
  0
LINE
  5
995A
330
991E
100
AcDbEntity
  8
1
  6
Continuous
100
AcDbLine
 10
312.2510199999999
 20
266.1003589999999
 30
0.0
 11
320.25132
 21
266.1003589999999
 31
0.0
  0
LINE
  5
995B
330
991E
100
AcDbEntity
  8
2
  6
Continuous
100
AcDbLine
 10
312.25112
 20
273.1013589999998
 30
0.0
 11
320.25132
 21
266.1003589999999
 31
0.0
  0
LINE
  5
995C
330
991E
100
AcDbEntity
  8
2
  6
Continuous
100
AcDbLine
 10
320.25132
 20
273.1013589999998
 30
0.0
 11
312.2510199999999
 21
266.1003589999999
 31
0.0
  0
LINE
  5
995D
330
991E
100
AcDbEntity
  8
2
  6
Continuous
100
AcDbLine
 10
312.25112
 20
266.1003589999999
 30
0.0
 11
320.25132
 21
259.1003589999999
 31
0.0
  0
LINE
  5
995E
330
991E
100
AcDbEntity
  8
2
  6
Continuous
100
AcDbLine
 10
320.25132
 20
266.1003589999999
 30
0.0
 11
312.25112
 21
259.1003589999999
 31
0.0
  0
LINE
  5
995F
330
991E
100
AcDbEntity
  8
1
  6
Continuous
100
AcDbLine
 10
288.7510199999999
 20
189.826359
 30
0.0
 11
288.7510199999999
 21
131.8263589999999
 31
0.0
  0
LINE
  5
9960
330
991E
100
AcDbEntity
  8
1
  6
Continuous
100
AcDbLine
 10
278.7510199999999
 20
190.8263589999999
 30
0.0
 11
278.7510199999999
 21
130.8263589999999
 31
0.0
  0
LINE
  5
9961
330
991E
100
AcDbEntity
  8
1
  6
Continuous
100
AcDbLine
 10
278.7510199999999
 20
130.8263589999999
 30
0.0
 11
287.7510199999999
 21
130.8263589999999
 31
0.0
  0
LINE
  5
9962
330
991E
100
AcDbEntity
  8
1
  6
Continuous
100
AcDbLine
 10
278.7510199999999
 20
190.8263589999999
 30
0.0
 11
287.7510199999999
 21
190.8263589999999
 31
0.0
  0
LINE
  5
9963
330
991E
100
AcDbEntity
  8
1
  6
Continuous
100
AcDbLine
 10
255.75102
 20
186.326359
 30
0.0
 11
278.75112
 21
190.8263589999999
 31
0.0
  0
LINE
  5
9964
330
991E
100
AcDbEntity
  8
1
  6
Continuous
100
AcDbLine
 10
255.75102
 20
135.326359
 30
0.0
 11
278.7510199999999
 21
130.8263589999999
 31
0.0
  0
LINE
  5
9965
330
991E
100
AcDbEntity
  8
1
  6
Continuous
100
AcDbLine
 10
137.93932
 20
182.574959
 30
0.0
 11
137.93932
 21
139.0777989999999
 31
0.0
  0
LINE
  5
9966
330
991E
100
AcDbEntity
  8
1
  6
Continuous
100
AcDbLine
 10
99.93932
 20
182.574959
 30
0.0
 11
99.93932
 21
139.0777989999999
 31
0.0
  0
LINE
  5
9967
330
991E
100
AcDbEntity
  8
1
  6
Continuous
100
AcDbLine
 10
291.7510199999999
 20
184.826359
 30
0.0
 11
291.7510199999999
 21
178.3263589999999
 31
0.0
  0
LINE
  5
9968
330
991E
100
AcDbEntity
  8
1
  6
Continuous
100
AcDbLine
 10
289.7510199999999
 20
184.826359
 30
0.0
 11
291.7510199999999
 21
184.826359
 31
0.0
  0
LINE
  5
9969
330
991E
100
AcDbEntity
  8
1
  6
Continuous
100
AcDbLine
 10
289.7510199999999
 20
136.8263589999999
 30
0.0
 11
291.7510199999999
 21
136.8263589999999
 31
0.0
  0
LINE
  5
996A
330
991E
100
AcDbEntity
  8
1
  6
Continuous
100
AcDbLine
 10
289.7510199999999
 20
178.3263589999999
 30
0.0
 11
291.7510199999999
 21
178.3263589999999
 31
0.0
  0
LINE
  5
996B
330
991E
100
AcDbEntity
  8
1
  6
Continuous
100
AcDbLine
 10
289.7510199999999
 20
143.3263589999999
 30
0.0
 11
291.7510199999999
 21
143.3263589999999
 31
0.0
  0
LINE
  5
996C
330
991E
100
AcDbEntity
  8
1
  6
Continuous
100
AcDbLine
 10
291.7510199999999
 20
143.3263589999999
 30
0.0
 11
291.7510199999999
 21
136.8263589999999
 31
0.0
  0
LINE
  5
996D
330
991E
100
AcDbEntity
  8
1
  6
Continuous
100
AcDbLine
 10
289.7510199999999
 20
255.100359
 30
0.0
 11
311.05112
 21
255.100359
 31
0.0
  0
LINE
  5
996E
330
991E
100
AcDbEntity
  8
1
  6
Continuous
100
AcDbLine
 10
289.7510199999999
 20
277.1003589999998
 30
0.0
 11
311.05112
 21
277.1003589999998
 31
0.0
  0
LINE
  5
996F
330
991E
100
AcDbEntity
  8
2
  6
Continuous
100
AcDbLine
 10
289.7510199999999
 20
275.7473589999999
 30
0.0
 11
312.0511200000001
 21
275.7473589999999
 31
0.0
  0
LINE
  5
9970
330
991E
100
AcDbEntity
  8
2
  6
Continuous
100
AcDbLine
 10
289.7510199999999
 20
256.4533589999999
 30
0.0
 11
312.0511200000001
 21
256.4533589999999
 31
0.0
  0
LINE
  5
9971
330
991E
100
AcDbEntity
  8
1
  6
Continuous
100
AcDbLine
 10
312.0511200000001
 20
276.1003589999999
 30
0.0
 11
312.0511200000001
 21
256.1003589999998
 31
0.0
  0
LINE
  5
9972
330
991E
100
AcDbEntity
  8
1
  6
Continuous
100
AcDbLine
 10
311.05102
 20
255.100359
 30
0.0
 11
312.05102
 21
256.1003589999998
 31
0.0
  0
LINE
  5
9973
330
991E
100
AcDbEntity
  8
1
  6
Continuous
100
AcDbLine
 10
312.05102
 20
276.1003589999999
 30
0.0
 11
311.05102
 21
277.1003589999998
 31
0.0
  0
LINE
  5
9974
330
991E
100
AcDbEntity
  8
1
  6
Continuous
100
AcDbLine
 10
311.05112
 20
277.1003589999998
 30
0.0
 11
311.05112
 21
255.100359
 31
0.0
  0
LINE
  5
9975
330
991E
100
AcDbEntity
  8
1
  6
Continuous
100
AcDbLine
 10
312.0511200000001
 20
258.6003589999999
 30
0.0
 11
312.2510199999999
 21
258.6003589999999
 31
0.0
  0
LINE
  5
9976
330
991E
100
AcDbEntity
  8
1
  6
Continuous
100
AcDbLine
 10
312.0511200000001
 20
273.6003589999999
 30
0.0
 11
312.2510199999999
 21
273.6003589999999
 31
0.0
  0
LINE
  5
9977
330
991E
100
AcDbEntity
  8
1
  6
Continuous
100
AcDbLine
 10
288.7510199999999
 20
188.326359
 30
0.0
 11
289.7510199999999
 21
188.326359
 31
0.0
  0
LINE
  5
9978
330
991E
100
AcDbEntity
  8
1
  6
Continuous
100
AcDbLine
 10
288.7510199999999
 20
133.326359
 30
0.0
 11
289.7510199999999
 21
133.326359
 31
0.0
  0
LINE
  5
9979
330
991E
100
AcDbEntity
  8
1
  6
Continuous
100
AcDbLine
 10
289.7510199999999
 20
188.326359
 30
0.0
 11
289.7510199999999
 21
133.326359
 31
0.0
  0
LINE
  5
997A
330
991E
100
AcDbEntity
  8
1
  6
Continuous
100
AcDbLine
 10
443.06232
 20
170.929959
 30
0.0
 11
460.56232
 21
181.033659
 31
0.0
  0
LINE
  5
997B
330
991E
100
AcDbEntity
  8
1
  6
Continuous
100
AcDbLine
 10
460.56232
 20
140.6190989999998
 30
0.0
 11
478.0623199999998
 21
150.722759
 31
0.0
  0
LINE
  5
997C
330
991E
100
AcDbEntity
  8
1
  6
Continuous
100
AcDbLine
 10
443.06232
 20
170.929959
 30
0.0
 11
443.06232
 21
150.722759
 31
0.0
  0
LINE
  5
997D
330
991E
100
AcDbEntity
  8
1
  6
Continuous
100
AcDbLine
 10
478.0623199999998
 20
170.929959
 30
0.0
 11
478.0623199999998
 21
150.722759
 31
0.0
  0
LINE
  5
997E
330
991E
100
AcDbEntity
  8
1
  6
Continuous
100
AcDbLine
 10
443.06232
 20
150.722759
 30
0.0
 11
460.56232
 21
140.619109
 31
0.0
  0
LINE
  5
997F
330
991E
100
AcDbEntity
  8
1
  6
Continuous
100
AcDbLine
 10
460.56232
 20
181.033659
 30
0.0
 11
478.0623199999998
 21
170.929959
 31
0.0
  0
LINE
  5
9980
330
991E
100
AcDbEntity
  8
1
  6
Continuous
100
AcDbLine
 10
357.88632
 20
283.6003589999999
 30
0.0
 11
357.88632
 21
248.600359
 31
0.0
  0
LINE
  5
9981
330
991E
100
AcDbEntity
  8
1
  6
Continuous
100
AcDbLine
 10
364.88632
 20
283.6003589999999
 30
0.0
 11
364.88632
 21
248.600359
 31
0.0
  0
LINE
  5
9982
330
991E
100
AcDbEntity
  8
1
  6
Continuous
100
AcDbLine
 10
366.38632
 20
282.1003589999999
 30
0.0
 11
366.38632
 21
250.1003589999999
 31
0.0
  0
LINE
  5
9983
330
991E
100
AcDbEntity
  8
1
  6
Continuous
100
AcDbLine
 10
356.38632
 20
282.1003589999999
 30
0.0
 11
356.38632
 21
250.1003589999999
 31
0.0
  0
LINE
  5
9984
330
991E
100
AcDbEntity
  8
1
  6
Continuous
100
AcDbLine
 10
356.38632
 20
250.1003589999999
 30
0.0
 11
357.88632
 21
250.1003589999999
 31
0.0
  0
LINE
  5
9985
330
991E
100
AcDbEntity
  8
1
  6
Continuous
100
AcDbLine
 10
356.38632
 20
282.1003589999999
 30
0.0
 11
357.88632
 21
282.1003589999999
 31
0.0
  0
LINE
  5
9986
330
991E
100
AcDbEntity
  8
1
  6
Continuous
100
AcDbLine
 10
364.88632
 20
282.1003589999999
 30
0.0
 11
366.38632
 21
282.1003589999999
 31
0.0
  0
LINE
  5
9987
330
991E
100
AcDbEntity
  8
1
  6
Continuous
100
AcDbLine
 10
364.88632
 20
250.1003589999999
 30
0.0
 11
366.38632
 21
250.1003589999999
 31
0.0
  0
LINE
  5
9988
330
991E
100
AcDbEntity
  8
4
  6
CENTER
100
AcDbLine
 10
230.8496199999999
 20
266.1003589999999
 30
0.0
 11
323.97732
 21
266.1003589999999
 31
0.0
  0
LINE
  5
9989
330
991E
100
AcDbEntity
  8
1
  6
Continuous
100
AcDbLine
 10
242.1896199999999
 20
278.269359
 30
0.0
 11
255.75102
 21
280.6003589999999
 31
0.0
  0
LINE
  5
998A
330
991E
100
AcDbEntity
  8
1
  6
Continuous
100
AcDbLine
 10
242.1896199999999
 20
253.9323589999999
 30
0.0
 11
255.75102
 21
251.6003589999999
 31
0.0
  0
LINE
  5
998B
330
991E
100
AcDbEntity
  8
1
  6
Continuous
100
AcDbLine
 10
255.75102
 20
280.6003589999999
 30
0.0
 11
255.75102
 21
251.6003589999999
 31
0.0
  0
LINE
  5
998C
330
991E
100
AcDbEntity
  8
1
  6
Continuous
100
AcDbLine
 10
288.7510199999999
 20
295.1003589999999
 30
0.0
 11
288.7510199999999
 21
237.1003589999999
 31
0.0
  0
LINE
  5
998D
330
991E
100
AcDbEntity
  8
1
  6
Continuous
100
AcDbLine
 10
278.7510199999999
 20
293.1003589999999
 30
0.0
 11
278.7510199999999
 21
239.1003589999999
 31
0.0
  0
LINE
  5
998E
330
991E
100
AcDbEntity
  8
1
  6
Continuous
100
AcDbLine
 10
255.75102
 20
251.6003589999999
 30
0.0
 11
277.1351199999999
 21
247.4173589999999
 31
0.0
  0
LINE
  5
998F
330
991E
100
AcDbEntity
  8
1
  6
Continuous
100
AcDbLine
 10
255.7511199999999
 20
280.6003589999999
 30
0.0
 11
277.1351199999999
 21
284.784359
 31
0.0
  0
LINE
  5
9990
330
991E
100
AcDbEntity
  8
1
  6
Continuous
100
AcDbLine
 10
281.75102
 20
296.1003589999999
 30
0.0
 11
287.7510199999999
 21
296.1003589999999
 31
0.0
  0
LINE
  5
9991
330
991E
100
AcDbEntity
  8
1
  6
Continuous
100
AcDbLine
 10
281.75102
 20
236.100359
 30
0.0
 11
287.7510199999999
 21
236.100359
 31
0.0
  0
LINE
  5
9992
330
991E
100
AcDbEntity
  8
1
  6
Continuous
100
AcDbLine
 10
289.7510199999999
 20
293.6003589999998
 30
0.0
 11
289.7510199999999
 21
238.600359
 31
0.0
  0
LINE
  5
9993
330
991E
100
AcDbEntity
  8
1
  6
Continuous
100
AcDbLine
 10
291.7510199999999
 20
270.1003589999999
 30
0.0
 11
291.7510199999999
 21
262.1003589999999
 31
0.0
  0
LINE
  5
9994
330
991E
100
AcDbEntity
  8
1
  6
Continuous
100
AcDbLine
 10
312.0511200000001
 20
168.3263589999999
 30
0.0
 11
312.2510199999999
 21
168.3263589999999
 31
0.0
  0
LINE
  5
9995
330
991E
100
AcDbEntity
  8
1
  6
Continuous
100
AcDbLine
 10
320.25132
 20
167.826759
 30
0.0
 11
320.25132
 21
153.825959
 31
0.0
  0
LINE
  5
9996
330
991E
100
AcDbEntity
  8
1
  6
Continuous
100
AcDbLine
 10
312.2510199999999
 20
168.3263589999999
 30
0.0
 11
312.2510199999999
 21
153.3263589999999
 31
0.0
  0
LINE
  5
9997
330
991E
100
AcDbEntity
  8
1
  6
Continuous
100
AcDbLine
 10
312.2510199999999
 20
153.825959
 30
0.0
 11
320.25132
 21
153.825959
 31
0.0
  0
LINE
  5
9998
330
991E
100
AcDbEntity
  8
1
  6
Continuous
100
AcDbLine
 10
312.2510199999999
 20
167.826759
 30
0.0
 11
320.25132
 21
167.826759
 31
0.0
  0
LINE
  5
9999
330
991E
100
AcDbEntity
  8
1
  6
Continuous
100
AcDbLine
 10
312.2510199999999
 20
160.8263589999999
 30
0.0
 11
320.25132
 21
160.8263589999999
 31
0.0
  0
LINE
  5
999A
330
991E
100
AcDbEntity
  8
2
  6
Continuous
100
AcDbLine
 10
312.2510199999999
 20
167.826759
 30
0.0
 11
320.25132
 21
160.8263589999999
 31
0.0
  0
LINE
  5
999B
330
991E
100
AcDbEntity
  8
2
  6
Continuous
100
AcDbLine
 10
320.25132
 20
167.826759
 30
0.0
 11
312.2510199999999
 21
160.8263589999999
 31
0.0
  0
LINE
  5
999C
330
991E
100
AcDbEntity
  8
2
  6
Continuous
100
AcDbLine
 10
312.2510199999999
 20
160.8263589999999
 30
0.0
 11
320.25132
 21
153.825959
 31
0.0
  0
LINE
  5
999D
330
991E
100
AcDbEntity
  8
2
  6
Continuous
100
AcDbLine
 10
320.25132
 20
160.8263589999999
 30
0.0
 11
312.25112
 21
153.825959
 31
0.0
  0
LINE
  5
999E
330
991E
100
AcDbEntity
  8
1
  6
Continuous
100
AcDbLine
 10
289.7510199999999
 20
149.826359
 30
0.0
 11
311.05112
 21
149.826359
 31
0.0
  0
LINE
  5
999F
330
991E
100
AcDbEntity
  8
1
  6
Continuous
100
AcDbLine
 10
289.7510199999999
 20
171.826359
 30
0.0
 11
311.05112
 21
171.826359
 31
0.0
  0
LINE
  5
99A0
330
991E
100
AcDbEntity
  8
2
  6
Continuous
100
AcDbLine
 10
289.7510199999999
 20
170.473359
 30
0.0
 11
312.0511200000001
 21
170.473359
 31
0.0
  0
LINE
  5
99A1
330
991E
100
AcDbEntity
  8
2
  6
Continuous
100
AcDbLine
 10
289.7510199999999
 20
151.179359
 30
0.0
 11
312.0511200000001
 21
151.179359
 31
0.0
  0
LINE
  5
99A2
330
991E
100
AcDbEntity
  8
1
  6
Continuous
100
AcDbLine
 10
312.0511200000001
 20
170.826359
 30
0.0
 11
312.0511200000001
 21
150.826359
 31
0.0
  0
LINE
  5
99A3
330
991E
100
AcDbEntity
  8
1
  6
Continuous
100
AcDbLine
 10
311.05102
 20
149.826359
 30
0.0
 11
312.05102
 21
150.826359
 31
0.0
  0
LINE
  5
99A4
330
991E
100
AcDbEntity
  8
1
  6
Continuous
100
AcDbLine
 10
312.05102
 20
170.826359
 30
0.0
 11
311.05102
 21
171.826359
 31
0.0
  0
LINE
  5
99A5
330
991E
100
AcDbEntity
  8
1
  6
Continuous
100
AcDbLine
 10
311.05112
 20
171.826359
 30
0.0
 11
311.05112
 21
149.826359
 31
0.0
  0
LINE
  5
99A6
330
991E
100
AcDbEntity
  8
1
  6
Continuous
100
AcDbLine
 10
312.0511200000001
 20
153.3263589999999
 30
0.0
 11
312.2510199999999
 21
153.3263589999999
 31
0.0
  0
LINE
  5
99A7
330
991E
100
AcDbEntity
  8
1
  6
Continuous
100
AcDbLine
 10
289.7510199999999
 20
270.1003589999999
 30
0.0
 11
291.7510199999999
 21
270.1003589999999
 31
0.0
  0
LINE
  5
99A8
330
991E
100
AcDbEntity
  8
1
  6
Continuous
100
AcDbLine
 10
289.7510199999999
 20
262.1003589999999
 30
0.0
 11
291.7510199999999
 21
262.1003589999999
 31
0.0
  0
LINE
  5
99A9
330
991E
100
AcDbEntity
  8
1
  6
Continuous
100
AcDbLine
 10
288.7510199999999
 20
293.6003589999998
 30
0.0
 11
289.7510199999999
 21
293.6003589999998
 31
0.0
  0
LINE
  5
99AA
330
991E
100
AcDbEntity
  8
1
  6
Continuous
100
AcDbLine
 10
288.7510199999999
 20
238.600359
 30
0.0
 11
289.7510199999999
 21
238.600359
 31
0.0
  0
LINE
  5
99AB
330
991E
100
AcDbEntity
  8
1
  6
Continuous
100
AcDbLine
 10
255.75102
 20
92.115059
 30
0.0
 11
262.98802
 21
96.29325900000001
 31
0.0
  0
LINE
  5
99AC
330
991E
100
AcDbEntity
  8
1
  6
Continuous
100
AcDbLine
 10
265.31772
 20
101.9175589999999
 30
0.0
 11
261.95482
 21
114.468059
 31
0.0
  0
LINE
  5
99AD
330
991E
100
AcDbEntity
  8
1
  6
Continuous
100
AcDbLine
 10
260.2510199999999
 20
134.4459239999999
 30
0.0
 11
260.2510199999999
 21
127.4089889999999
 31
0.0
  0
LINE
  5
99AE
330
991E
100
AcDbEntity
  8
1
  6
Continuous
100
AcDbLine
 10
455.56232
 20
91.82635899999999
 30
0.0
 11
465.5623199999998
 21
91.82635899999999
 31
0.0
  0
LINE
  5
99AF
330
991E
100
AcDbEntity
  8
1
  6
Continuous
100
AcDbLine
 10
455.52532
 20
98.211659
 30
0.0
 11
465.6093199999999
 21
98.211659
 31
0.0
  0
LINE
  5
99B0
330
991E
100
AcDbEntity
  8
1
  6
Continuous
100
AcDbLine
 10
466.5623199999997
 20
131.432479
 30
0.0
 11
466.5623199999997
 21
92.826359
 31
0.0
  0
LINE
  5
99B1
330
991E
100
AcDbEntity
  8
1
  6
Continuous
100
AcDbLine
 10
454.56232
 20
131.432479
 30
0.0
 11
454.56232
 21
92.826359
 31
0.0
  0
LINE
  5
99B2
330
991E
100
AcDbEntity
  8
4
  6
CENTER
100
AcDbLine
 10
335.41832
 20
160.8263589999999
 30
0.0
 11
410.0353199999998
 21
160.8263589999999
 31
0.0
  0
LINE
  5
99B3
330
991E
100
AcDbEntity
  8
1
  6
Continuous
100
AcDbLine
 10
358.61232
 20
140.6190989999998
 30
0.0
 11
364.16132
 21
140.6190989999998
 31
0.0
  0
LINE
  5
99B4
330
991E
100
AcDbEntity
  8
1
  6
Continuous
100
AcDbLine
 10
358.61232
 20
150.722759
 30
0.0
 11
364.16132
 21
150.722759
 31
0.0
  0
LINE
  5
99B5
330
991E
100
AcDbEntity
  8
1
  6
Continuous
100
AcDbLine
 10
358.61232
 20
170.929959
 30
0.0
 11
364.16132
 21
170.929959
 31
0.0
  0
LINE
  5
99B6
330
991E
100
AcDbEntity
  8
1
  6
Continuous
100
AcDbLine
 10
358.61232
 20
181.033659
 30
0.0
 11
364.16132
 21
181.033659
 31
0.0
  0
LINE
  5
99B7
330
991E
100
AcDbEntity
  8
1
  6
Continuous
100
AcDbLine
 10
357.88632
 20
178.3263589999999
 30
0.0
 11
357.88632
 21
143.3263589999999
 31
0.0
  0
LINE
  5
99B8
330
991E
100
AcDbEntity
  8
1
  6
Continuous
100
AcDbLine
 10
364.88632
 20
178.3263589999999
 30
0.0
 11
364.88632
 21
143.3263589999999
 31
0.0
  0
LINE
  5
99B9
330
991E
100
AcDbEntity
  8
1
  6
Continuous
100
AcDbLine
 10
364.88632
 20
178.3263589999999
 30
0.0
 11
364.16132
 21
181.033659
 31
0.0
  0
LINE
  5
99BA
330
991E
100
AcDbEntity
  8
1
  6
Continuous
100
AcDbLine
 10
358.61232
 20
140.6190989999998
 30
0.0
 11
357.88632
 21
143.3263589999999
 31
0.0
  0
LINE
  5
99BB
330
991E
100
AcDbEntity
  8
1
  6
Continuous
100
AcDbLine
 10
357.88632
 20
178.3263589999999
 30
0.0
 11
358.61232
 21
181.033659
 31
0.0
  0
LINE
  5
99BC
330
991E
100
AcDbEntity
  8
1
  6
Continuous
100
AcDbLine
 10
364.16132
 20
140.6190989999998
 30
0.0
 11
364.88632
 21
143.3263589999999
 31
0.0
  0
LINE
  5
99BD
330
991E
100
AcDbEntity
  8
1
  6
Continuous
100
AcDbLine
 10
366.38632
 20
176.826359
 30
0.0
 11
366.38632
 21
144.826359
 31
0.0
  0
LINE
  5
99BE
330
991E
100
AcDbEntity
  8
1
  6
Continuous
100
AcDbLine
 10
356.38632
 20
176.826359
 30
0.0
 11
356.38632
 21
144.826359
 31
0.0
  0
LINE
  5
99BF
330
991E
100
AcDbEntity
  8
1
  6
Continuous
100
AcDbLine
 10
356.38632
 20
144.826359
 30
0.0
 11
357.88632
 21
144.826359
 31
0.0
  0
LINE
  5
99C0
330
991E
100
AcDbEntity
  8
1
  6
Continuous
100
AcDbLine
 10
356.38632
 20
176.826359
 30
0.0
 11
357.88632
 21
176.826359
 31
0.0
  0
LINE
  5
99C1
330
991E
100
AcDbEntity
  8
1
  6
Continuous
100
AcDbLine
 10
364.88632
 20
176.826359
 30
0.0
 11
366.38632
 21
176.826359
 31
0.0
  0
LINE
  5
99C2
330
991E
100
AcDbEntity
  8
1
  6
Continuous
100
AcDbLine
 10
364.88632
 20
144.826359
 30
0.0
 11
366.38632
 21
144.826359
 31
0.0
  0
LINE
  5
99C3
330
991E
100
AcDbEntity
  8
1
  6
Continuous
100
AcDbLine
 10
357.88632
 20
283.6003589999999
 30
0.0
 11
364.88632
 21
283.6003589999999
 31
0.0
  0
LINE
  5
99C4
330
991E
100
AcDbEntity
  8
1
  6
Continuous
100
AcDbLine
 10
357.88632
 20
248.600359
 30
0.0
 11
364.88632
 21
248.600359
 31
0.0
  0
LINE
  5
99C5
330
991E
100
AcDbEntity
  8
1
  6
Continuous
100
AcDbLine
 10
358.61232
 20
266.1003589999999
 30
0.0
 11
364.16132
 21
266.1003589999999
 31
0.0
  0
LINE
  5
99C6
330
991E
100
AcDbEntity
  8
1
  6
Continuous
100
AcDbLine
 10
380.99932
 20
171.826359
 30
0.0
 11
380.99932
 21
149.826359
 31
0.0
  0
LINE
  5
99C7
330
991E
100
AcDbEntity
  8
1
  6
Continuous
100
AcDbLine
 10
385.99932
 20
171.826359
 30
0.0
 11
385.99932
 21
149.826359
 31
0.0
  0
LINE
  5
99C8
330
991E
100
AcDbEntity
  8
1
  6
Continuous
100
AcDbLine
 10
380.99932
 20
171.826359
 30
0.0
 11
385.99932
 21
171.826359
 31
0.0
  0
LINE
  5
99C9
330
991E
100
AcDbEntity
  8
1
  6
Continuous
100
AcDbLine
 10
380.99932
 20
149.826359
 30
0.0
 11
385.99932
 21
149.826359
 31
0.0
  0
LINE
  5
99CA
330
991E
100
AcDbEntity
  8
1
  6
Continuous
100
AcDbLine
 10
399.8013199999999
 20
168.826359
 30
0.0
 11
399.8013199999999
 21
152.8263589999999
 31
0.0
  0
LINE
  5
99CB
330
991E
100
AcDbEntity
  8
1
  6
Continuous
100
AcDbLine
 10
398.3013199999999
 20
168.826359
 30
0.0
 11
399.8013199999999
 21
168.826359
 31
0.0
  0
LINE
  5
99CC
330
991E
100
AcDbEntity
  8
1
  6
Continuous
100
AcDbLine
 10
398.3013199999999
 20
152.8263589999999
 30
0.0
 11
399.8013199999999
 21
152.8263589999999
 31
0.0
  0
LINE
  5
99CD
330
991E
100
AcDbEntity
  8
4
  6
CENTER
100
AcDbLine
 10
335.41832
 20
266.1003589999999
 30
0.0
 11
410.0353199999998
 21
266.1003589999999
 31
0.0
  0
LINE
  5
99CE
330
991E
100
AcDbEntity
  8
1
  6
Continuous
100
AcDbLine
 10
380.99932
 20
277.1003589999998
 30
0.0
 11
380.99932
 21
255.100359
 31
0.0
  0
LINE
  5
99CF
330
991E
100
AcDbEntity
  8
1
  6
Continuous
100
AcDbLine
 10
385.99932
 20
277.1003589999998
 30
0.0
 11
385.99932
 21
255.100359
 31
0.0
  0
LINE
  5
99D0
330
991E
100
AcDbEntity
  8
1
  6
Continuous
100
AcDbLine
 10
380.99932
 20
277.1003589999998
 30
0.0
 11
385.99932
 21
277.1003589999998
 31
0.0
  0
LINE
  5
99D1
330
991E
100
AcDbEntity
  8
1
  6
Continuous
100
AcDbLine
 10
380.99932
 20
255.100359
 30
0.0
 11
385.99932
 21
255.100359
 31
0.0
  0
LINE
  5
99D2
330
991E
100
AcDbEntity
  8
1
  6
Continuous
100
AcDbLine
 10
399.8013199999999
 20
274.1003589999999
 30
0.0
 11
399.8013199999999
 21
258.1003589999999
 31
0.0
  0
LINE
  5
99D3
330
991E
100
AcDbEntity
  8
1
  6
Continuous
100
AcDbLine
 10
398.3013199999999
 20
274.1003589999999
 30
0.0
 11
399.8013199999999
 21
274.1003589999999
 31
0.0
  0
LINE
  5
99D4
330
991E
100
AcDbEntity
  8
1
  6
Continuous
100
AcDbLine
 10
398.3013199999999
 20
258.1003589999999
 30
0.0
 11
399.8013199999999
 21
258.1003589999999
 31
0.0
  0
LINE
  5
99D5
330
991E
100
AcDbEntity
  8
1
  6
Continuous
100
AcDbLine
 10
401.3013199999998
 20
272.2013589999999
 30
0.0
 11
401.3013199999998
 21
260.000359
 31
0.0
  0
LINE
  5
99D6
330
991E
100
AcDbEntity
  8
1
  6
Continuous
100
AcDbLine
 10
401.3013199999998
 20
267.601359
 30
0.0
 11
399.8013199999999
 21
266.101359
 31
0.0
  0
LINE
  5
99D7
330
991E
100
AcDbEntity
  8
1
  6
Continuous
100
AcDbLine
 10
401.3013199999998
 20
266.1863589999999
 30
0.0
 11
399.8013199999999
 21
264.6863589999999
 31
0.0
  0
LINE
  5
99D8
330
991E
100
AcDbEntity
  8
1
  6
Continuous
100
AcDbLine
 10
401.3013199999998
 20
260.000359
 30
0.0
 11
399.8013199999999
 21
260.000359
 31
0.0
  0
LINE
  5
99D9
330
991E
100
AcDbEntity
  8
1
  6
Continuous
100
AcDbLine
 10
401.3013199999998
 20
272.2013589999999
 30
0.0
 11
399.8013199999999
 21
272.2013589999999
 31
0.0
  0
LINE
  5
99DA
330
991E
100
AcDbEntity
  8
1
  6
Continuous
100
AcDbLine
 10
405.3013199999998
 20
271.1003589999999
 30
0.0
 11
405.3013199999998
 21
261.1003589999999
 31
0.0
  0
LINE
  5
99DB
330
991E
100
AcDbEntity
  8
1
  6
Continuous
100
AcDbLine
 10
405.3013199999998
 20
271.1013589999998
 30
0.0
 11
401.3013199999998
 21
271.1013589999998
 31
0.0
  0
LINE
  5
99DC
330
991E
100
AcDbEntity
  8
1
  6
Continuous
100
AcDbLine
 10
405.3013199999998
 20
261.1003589999999
 30
0.0
 11
401.3013199999998
 21
261.1003589999999
 31
0.0
  0
LINE
  5
99DD
330
991E
100
AcDbEntity
  8
1
  6
Continuous
100
AcDbLine
 10
404.7563199999998
 20
266.1003589999999
 30
0.0
 11
401.74832
 21
266.1003589999999
 31
0.0
  0
LINE
  5
99DE
330
991E
100
AcDbEntity
  8
1
  6
Continuous
100
AcDbLine
 10
401.3013199999998
 20
166.9263589999999
 30
0.0
 11
401.3013199999998
 21
154.726359
 31
0.0
  0
LINE
  5
99DF
330
991E
100
AcDbEntity
  8
1
  6
Continuous
100
AcDbLine
 10
401.3013199999998
 20
166.9263589999999
 30
0.0
 11
399.8013199999999
 21
166.9263589999999
 31
0.0
  0
LINE
  5
99E0
330
991E
100
AcDbEntity
  8
1
  6
Continuous
100
AcDbLine
 10
401.3013199999998
 20
160.912259
 30
0.0
 11
399.8013199999999
 21
159.412259
 31
0.0
  0
LINE
  5
99E1
330
991E
100
AcDbEntity
  8
1
  6
Continuous
100
AcDbLine
 10
401.3013199999998
 20
162.3262589999999
 30
0.0
 11
399.8013199999999
 21
160.826259
 31
0.0
  0
LINE
  5
99E2
330
991E
100
AcDbEntity
  8
1
  6
Continuous
100
AcDbLine
 10
401.28832
 20
154.726359
 30
0.0
 11
399.8013199999999
 21
154.726359
 31
0.0
  0
LINE
  5
99E3
330
991E
100
AcDbEntity
  8
1
  6
Continuous
100
AcDbLine
 10
404.8553199999998
 20
155.052759
 30
0.0
 11
401.74832
 21
155.052759
 31
0.0
  0
LINE
  5
99E4
330
991E
100
AcDbEntity
  8
1
  6
Continuous
100
AcDbLine
 10
404.8553199999998
 20
157.939559
 30
0.0
 11
401.74832
 21
157.939559
 31
0.0
  0
LINE
  5
99E5
330
991E
100
AcDbEntity
  8
1
  6
Continuous
100
AcDbLine
 10
404.8553199999998
 20
163.7130589999999
 30
0.0
 11
401.74832
 21
163.7130589999999
 31
0.0
  0
LINE
  5
99E6
330
991E
100
AcDbEntity
  8
1
  6
Continuous
100
AcDbLine
 10
404.8553199999998
 20
166.599759
 30
0.0
 11
401.74832
 21
166.599759
 31
0.0
  0
LINE
  5
99E7
330
991E
100
AcDbEntity
  8
1
  6
Continuous
100
AcDbLine
 10
405.3013199999998
 20
165.1565589999999
 30
0.0
 11
405.3013199999998
 21
156.496159
 31
0.0
  0
LINE
  5
99E8
330
991E
100
AcDbEntity
  8
1
  6
Continuous
100
AcDbLine
 10
455.56232
 20
228.413659
 30
0.0
 11
460.56232
 21
231.3004589999999
 31
0.0
  0
LINE
  5
99E9
330
991E
100
AcDbEntity
  8
1
  6
Continuous
100
AcDbLine
 10
460.56232
 20
219.753459
 30
0.0
 11
465.5623199999998
 21
222.640159
 31
0.0
  0
LINE
  5
99EA
330
991E
100
AcDbEntity
  8
1
  6
Continuous
100
AcDbLine
 10
455.56232
 20
228.4135589999999
 30
0.0
 11
455.56232
 21
222.6400589999999
 31
0.0
  0
LINE
  5
99EB
330
991E
100
AcDbEntity
  8
1
  6
Continuous
100
AcDbLine
 10
465.5623199999998
 20
228.4135589999999
 30
0.0
 11
465.5623199999998
 21
222.6400589999999
 31
0.0
  0
LINE
  5
99EC
330
991E
100
AcDbEntity
  8
1
  6
Continuous
100
AcDbLine
 10
455.5633199999999
 20
222.640159
 30
0.0
 11
460.5633199999998
 21
219.7533589999999
 31
0.0
  0
LINE
  5
99ED
330
991E
100
AcDbEntity
  8
1
  6
Continuous
100
AcDbLine
 10
460.5633199999998
 20
231.3004589999999
 30
0.0
 11
465.5633199999998
 21
228.413659
 31
0.0
  0
LINE
  5
99EE
330
991E
100
AcDbEntity
  8
1
  6
Continuous
100
AcDbLine
 10
461.61932
 20
224.4704589999999
 30
0.0
 11
461.63432
 21
224.478459
 31
0.0
  0
LINE
  5
99EF
330
991E
100
AcDbEntity
  8
1
  6
Continuous
100
AcDbLine
 10
461.63432
 20
224.4785589999999
 30
0.0
 11
463.54432
 21
224.511859
 31
0.0
  0
LINE
  5
99F0
330
991E
100
AcDbEntity
  8
1
  6
Continuous
100
AcDbLine
 10
461.61932
 20
226.583259
 30
0.0
 11
461.63432
 21
226.5751589999999
 31
0.0
  0
LINE
  5
99F1
330
991E
100
AcDbEntity
  8
1
  6
Continuous
100
AcDbLine
 10
461.63432
 20
226.5751589999999
 30
0.0
 11
463.5453199999998
 21
226.5418589999999
 31
0.0
  0
LINE
  5
99F2
330
991E
100
AcDbEntity
  8
1
  6
Continuous
100
AcDbLine
 10
459.50632
 20
226.583259
 30
0.0
 11
459.5143199999998
 21
226.5982589999999
 31
0.0
  0
LINE
  5
99F3
330
991E
100
AcDbEntity
  8
1
  6
Continuous
100
AcDbLine
 10
459.5143199999998
 20
226.5982589999999
 30
0.0
 11
459.5473199999998
 21
228.5088589999999
 31
0.0
  0
LINE
  5
99F4
330
991E
100
AcDbEntity
  8
1
  6
Continuous
100
AcDbLine
 10
461.61132
 20
226.5982589999999
 30
0.0
 11
461.5773199999998
 21
228.5088589999999
 31
0.0
  0
LINE
  5
99F5
330
991E
100
AcDbEntity
  8
1
  6
Continuous
100
AcDbLine
 10
461.61932
 20
226.583259
 30
0.0
 11
461.61132
 21
226.5982589999999
 31
0.0
  0
LINE
  5
99F6
330
991E
100
AcDbEntity
  8
1
  6
Continuous
100
AcDbLine
 10
459.50632
 20
224.4704589999999
 30
0.0
 11
459.4913199999998
 21
224.4785589999999
 31
0.0
  0
LINE
  5
99F7
330
991E
100
AcDbEntity
  8
1
  6
Continuous
100
AcDbLine
 10
459.4913199999998
 20
224.478459
 30
0.0
 11
457.58032
 21
224.511859
 31
0.0
  0
LINE
  5
99F8
330
991E
100
AcDbEntity
  8
1
  6
Continuous
100
AcDbLine
 10
459.4913199999998
 20
226.5751589999999
 30
0.0
 11
457.5813199999998
 21
226.5418589999999
 31
0.0
  0
LINE
  5
99F9
330
991E
100
AcDbEntity
  8
1
  6
Continuous
100
AcDbLine
 10
459.50632
 20
226.583259
 30
0.0
 11
459.4913199999998
 21
226.5751589999999
 31
0.0
  0
LINE
  5
99FA
330
991E
100
AcDbEntity
  8
1
  6
Continuous
100
AcDbLine
 10
461.61932
 20
224.4704589999999
 30
0.0
 11
461.61132
 21
224.4554589999999
 31
0.0
  0
LINE
  5
99FB
330
991E
100
AcDbEntity
  8
1
  6
Continuous
100
AcDbLine
 10
461.61132
 20
224.4554589999999
 30
0.0
 11
461.57832
 21
222.5448589999998
 31
0.0
  0
LINE
  5
99FC
330
991E
100
AcDbEntity
  8
1
  6
Continuous
100
AcDbLine
 10
459.5143199999998
 20
224.4554589999999
 30
0.0
 11
459.54832
 21
222.5448589999998
 31
0.0
  0
LINE
  5
99FD
330
991E
100
AcDbEntity
  8
1
  6
Continuous
100
AcDbLine
 10
459.50632
 20
224.4704589999999
 30
0.0
 11
459.5143199999998
 21
224.4554589999999
 31
0.0
  0
LINE
  5
99FE
330
991E
100
AcDbEntity
  8
4
  6
CENTER
100
AcDbLine
 10
474.5623199999998
 20
225.5268589999999
 30
0.0
 11
446.56232
 21
225.5268589999999
 31
0.0
  0
LINE
  5
99FF
330
991E
100
AcDbEntity
  8
4
  6
CENTER
100
AcDbLine
 10
460.56232
 20
239.5263589999999
 30
0.0
 11
460.56232
 21
211.5268589999999
 31
0.0
  0
LINE
  5
9A00
330
991E
100
AcDbEntity
  8
1
  6
Continuous
100
AcDbLine
 10
257.94042
 20
40.82635899999998
 30
0.0
 11
261.25102
 21
40.82635899999998
 31
0.0
  0
LINE
  5
9A01
330
991E
100
AcDbEntity
  8
1
  6
Continuous
100
AcDbLine
 10
133.43932
 20
180.165459
 30
0.0
 11
133.43932
 21
140.8263589999999
 31
0.0
  0
LINE
  5
9A02
330
991E
100
AcDbEntity
  8
1
  6
Continuous
100
AcDbLine
 10
104.43932
 20
180.165459
 30
0.0
 11
104.43932
 21
140.8263589999999
 31
0.0
  0
LINE
  5
9A03
330
991E
100
AcDbEntity
  8
1
  6
Continuous
100
AcDbLine
 10
127.4974199999999
 20
41.76455899999999
 30
0.0
 11
133.24822
 21
134.646699
 31
0.0
  0
LINE
  5
9A04
330
991E
100
AcDbEntity
  8
1
  6
Continuous
100
AcDbLine
 10
110.38132
 20
41.76455899999999
 30
0.0
 11
104.63032
 21
134.646699
 31
0.0
  0
LINE
  5
9A05
330
991E
100
AcDbEntity
  8
1
  6
Continuous
100
AcDbLine
 10
111.3793199999998
 20
40.82635899999998
 30
0.0
 11
126.4993199999999
 21
40.82635899999998
 31
0.0
  0
LINE
  5
9A06
330
991E
100
AcDbEntity
  8
4
  6
CENTER
100
AcDbLine
 10
118.93932
 20
198.627359
 30
0.0
 11
118.93932
 21
32.804359
 31
0.0
  0
LINE
  5
9A07
330
991E
100
AcDbEntity
  8
5
  6
PHANTOM
100
AcDbLine
 10
109.4413199999999
 20
183.0532589999999
 30
0.0
 11
143.5098199999998
 21
163.3837589999999
 31
0.0
  0
LINE
  5
9A08
330
991E
100
AcDbEntity
  8
5
  6
PHANTOM
100
AcDbLine
 10
94.94131999999996
 20
157.938559
 30
0.0
 11
129.0098199999999
 21
138.2689889999997
 31
0.0
  0
LINE
  5
9A09
330
991E
100
AcDbEntity
  8
5
  6
PHANTOM
100
AcDbLine
 10
226.32891
 20
108.706959
 30
0.0
 11
148.76602
 21
160.1283589999999
 31
0.0
  0
LINE
  5
9A0A
330
991E
100
AcDbEntity
  8
5
  6
PHANTOM
100
AcDbLine
 10
217.77082
 20
93.88395899999999
 30
0.0
 11
134.45712
 21
135.344679
 31
0.0
  0
LINE
  5
9A0B
330
991E
100
AcDbEntity
  8
5
  6
PHANTOM
100
AcDbLine
 10
219.0823669999999
 20
94.279159
 30
0.0
 11
226.64237
 21
107.373559
 31
0.0
  0
LINE
  5
9A0C
330
991E
100
AcDbEntity
  8
4
  6
CENTER
100
AcDbLine
 10
86.20231999999999
 20
179.7268589999999
 30
0.0
 11
229.80932
 21
96.81545900000001
 31
0.0
  0
LINE
  5
9A0D
330
991E
100
AcDbEntity
  8
1
  6
Continuous
100
AcDbLine
 10
454.2041689999998
 20
46.70274699999999
 30
0.0
 11
451.59332
 21
88.86475899999997
 31
0.0
  0
LINE
  5
9A0E
330
991E
100
AcDbEntity
  8
1
  6
Continuous
100
AcDbLine
 10
466.921471
 20
46.70274699999999
 30
0.0
 11
469.53232
 21
88.86475899999997
 31
0.0
  0
LINE
  5
9A0F
330
991E
100
AcDbEntity
  8
1
  6
Continuous
100
AcDbLine
 10
454.46232
 20
96.82635900000001
 30
0.0
 11
454.46232
 21
92.826359
 31
0.0
  0
LINE
  5
9A10
330
991E
100
AcDbEntity
  8
1
  6
Continuous
100
AcDbLine
 10
466.66232
 20
96.82635900000001
 30
0.0
 11
466.66232
 21
92.826359
 31
0.0
  0
LINE
  5
9A11
330
991E
100
AcDbEntity
  8
1
  6
Continuous
100
AcDbLine
 10
450.86132
 20
100.6832589999998
 30
0.0
 11
449.74232
 21
118.764559
 31
0.0
  0
LINE
  5
9A12
330
991E
100
AcDbEntity
  8
1
  6
Continuous
100
AcDbLine
 10
470.2643199999998
 20
100.6832589999998
 30
0.0
 11
471.38332
 21
118.764559
 31
0.0
  0
LINE
  5
9A13
330
991E
100
AcDbEntity
  8
1
  6
Continuous
100
AcDbLine
 10
470.63332
 20
121.826359
 30
0.0
 11
467.66232
 21
121.826359
 31
0.0
  0
LINE
  5
9A14
330
991E
100
AcDbEntity
  8
1
  6
Continuous
100
AcDbLine
 10
470.38532
 20
119.826359
 30
0.0
 11
467.66232
 21
119.826359
 31
0.0
  0
LINE
  5
9A15
330
991E
100
AcDbEntity
  8
1
  6
Continuous
100
AcDbLine
 10
453.4623199999998
 20
121.826359
 30
0.0
 11
450.49232
 21
121.826359
 31
0.0
  0
LINE
  5
9A16
330
991E
100
AcDbEntity
  8
1
  6
Continuous
100
AcDbLine
 10
453.4623199999998
 20
119.826359
 30
0.0
 11
450.7403199999997
 21
119.826359
 31
0.0
  0
LINE
  5
9A17
330
991E
100
AcDbEntity
  8
1
  6
Continuous
100
AcDbLine
 10
449.49432
 20
122.764559
 30
0.0
 11
448.84732
 21
133.2082809999998
 31
0.0
  0
LINE
  5
9A18
330
991E
100
AcDbEntity
  8
1
  6
Continuous
100
AcDbLine
 10
471.63132
 20
122.764559
 30
0.0
 11
472.27832
 21
133.2082849999999
 31
0.0
  0
LINE
  5
9A19
330
991E
100
AcDbEntity
  8
1
  6
Continuous
100
AcDbLine
 10
241.21242
 20
178.004559
 30
0.0
 11
241.21242
 21
143.826359
 31
0.0
  0
LINE
  5
9A1A
330
991E
100
AcDbEntity
  8
1
  6
Continuous
100
AcDbLine
 10
239.75102
 20
140.8263589999999
 30
0.0
 11
245.96972
 21
51.98845900000002
 31
0.0
  0
LINE
  5
9A1B
330
991E
100
AcDbEntity
  8
1
  6
Continuous
100
AcDbLine
 10
277.2594199999999
 20
183.897459
 30
0.0
 11
255.75102
 21
181.8025589999998
 31
0.0
  0
LINE
  5
9A1C
330
991E
100
AcDbEntity
  8
1
  6
Continuous
100
AcDbLine
 10
255.75102
 20
181.8025589999998
 30
0.0
 11
242.45452
 21
179.482259
 31
0.0
  0
LINE
  5
9A1D
330
991E
100
AcDbEntity
  8
1
  6
Continuous
100
AcDbLine
 10
277.2172199999999
 20
137.7593789999999
 30
0.0
 11
255.75102
 21
139.850179
 31
0.0
  0
LINE
  5
9A1E
330
991E
100
AcDbEntity
  8
1
  6
Continuous
100
AcDbLine
 10
460.56232
 20
167.8974589999999
 30
0.0
 11
467.6343199999998
 21
160.8263589999999
 31
0.0
  0
LINE
  5
9A1F
330
991E
100
AcDbEntity
  8
1
  6
Continuous
100
AcDbLine
 10
453.49132
 20
160.8263589999999
 30
0.0
 11
460.56232
 21
153.7552589999999
 31
0.0
  0
LINE
  5
9A20
330
991E
100
AcDbEntity
  8
1
  6
Continuous
100
AcDbLine
 10
460.56232
 20
167.8974589999999
 30
0.0
 11
453.49132
 21
160.8263589999999
 31
0.0
  0
LINE
  5
9A21
330
991E
100
AcDbEntity
  8
1
  6
Continuous
100
AcDbLine
 10
467.6343199999998
 20
160.8263589999999
 30
0.0
 11
460.56232
 21
153.7552589999999
 31
0.0
  0
LINE
  5
9A22
330
991E
100
AcDbEntity
  8
1
  6
Continuous
100
AcDbLine
 10
398.3013199999999
 20
168.826359
 30
0.0
 11
398.3013199999999
 21
152.8263589999999
 31
0.0
  0
LINE
  5
9A23
330
991E
100
AcDbEntity
  8
1
  6
Continuous
100
AcDbLine
 10
398.3013199999999
 20
274.1003589999999
 30
0.0
 11
398.3013199999999
 21
258.1003589999999
 31
0.0
  0
LINE
  5
9A24
330
991E
100
AcDbEntity
  8
1
  6
Continuous
100
AcDbLine
 10
382.99932
 20
277.1003589999998
 30
0.0
 11
382.99932
 21
255.100359
 31
0.0
  0
LINE
  5
9A25
330
991E
100
AcDbEntity
  8
1
  6
Continuous
100
AcDbLine
 10
382.99932
 20
171.826359
 30
0.0
 11
382.99932
 21
149.826359
 31
0.0
  0
LINE
  5
9A26
330
991E
100
AcDbEntity
  8
1
  6
Continuous
100
AcDbLine
 10
137.2075199999999
 20
183.678459
 30
0.0
 11
133.43932
 21
181.8025589999998
 31
0.0
  0
LINE
  5
9A27
330
991E
100
AcDbEntity
  8
1
  6
Continuous
100
AcDbLine
 10
100.5773199999999
 20
183.725259
 30
0.0
 11
104.43932
 21
181.8025589999998
 31
0.0
  0
LINE
  5
9A28
330
991E
100
AcDbEntity
  8
1
  6
Continuous
100
AcDbLine
 10
100.5773199999999
 20
137.927499
 30
0.0
 11
104.1583199999999
 21
139.710529
 31
0.0
  0
LINE
  5
9A29
330
991E
100
AcDbEntity
  8
1
  6
Continuous
100
AcDbLine
 10
137.2075199999999
 20
137.9742789999999
 30
0.0
 11
133.62592
 21
139.7573089999999
 31
0.0
  0
LINE
  5
9A2A
330
991E
100
AcDbEntity
  8
1
  6
Continuous
100
AcDbLine
 10
241.21242
 20
143.826359
 30
0.0
 11
246.15032
 21
51.998159
 31
0.0
  0
ARC
  5
9A2B
330
991E
100
AcDbEntity
  8
1
  6
Continuous
100
AcDbCircle
 10
118.93932
 20
160.8263589999999
 30
0.0
 40
22.0
100
AcDbArc
 50
59.18979999999999
 51
120.81
  0
ARC
  5
9A2C
330
991E
100
AcDbEntity
  8
5
  6
PHANTOM
100
AcDbCircle
 10
129.93742
 20
180.455159
 30
0.0
 40
3.0
100
AcDbArc
 50
60.7379
 51
119.9999999999999
  0
ARC
  5
9A2D
330
991E
100
AcDbEntity
  8
5
  6
PHANTOM
100
AcDbCircle
 10
141.43742
 20
160.536559
 30
0.0
 40
3.0
100
AcDbArc
 50
300.0
 51
359.2619999999998
  0
ARC
  5
9A2E
330
991E
100
AcDbEntity
  8
1
  6
Continuous
100
AcDbCircle
 10
108.43932
 20
178.4331589999999
 30
0.0
 40
1.5
100
AcDbArc
 50
120.81
 51
180.0
  0
ARC
  5
9A2F
330
991E
100
AcDbEntity
  8
1
  6
Continuous
100
AcDbCircle
 10
129.43932
 20
178.4331589999999
 30
0.0
 40
1.5
100
AcDbArc
 50
0.0
 51
59.18979999999999
  0
ARC
  5
9A30
330
991E
100
AcDbEntity
  8
5
  6
PHANTOM
100
AcDbCircle
 10
144.3688199999998
 20
76.781159
 30
0.0
 40
100.0
100
AcDbArc
 50
119.9999999999999
 51
123.543
  0
ARC
  5
9A31
330
991E
100
AcDbEntity
  8
5
  6
PHANTOM
100
AcDbCircle
 10
58.86832
 20
224.8715589999999
 30
0.0
 40
100.0
100
AcDbArc
 50
296.457
 51
300.0
  0
ARC
  5
9A32
330
991E
100
AcDbEntity
  8
1
  6
Continuous
100
AcDbCircle
 10
30.93932000000001
 20
143.826359
 30
0.0
 40
100.0
100
AcDbArc
 50
358.0209999999998
 51
0.0
  0
ARC
  5
9A33
330
991E
100
AcDbEntity
  8
1
  6
Continuous
100
AcDbCircle
 10
206.9393199999999
 20
143.826359
 30
0.0
 40
100.0
100
AcDbArc
 50
180.0
 51
181.979
  0
ARC
  5
9A34
330
991E
100
AcDbEntity
  8
1
  6
Continuous
100
AcDbCircle
 10
261.25102
 20
42.326359
 30
0.0
 40
1.5
100
AcDbArc
 50
270.0
 51
0.0
  0
ARC
  5
9A35
330
991E
100
AcDbEntity
  8
1
  6
Continuous
100
AcDbCircle
 10
264.7510199999999
 20
55.60135899999998
 30
0.0
 40
9.0
100
AcDbArc
 50
180.0
 51
250.529
  0
ARC
  5
9A36
330
991E
100
AcDbEntity
  8
1
  6
Continuous
100
AcDbCircle
 10
261.25102
 20
45.70185900000001
 30
0.0
 40
1.5
100
AcDbArc
 50
0.0
 51
70.5288
  0
ARC
  5
9A37
330
991E
100
AcDbEntity
  8
1
  6
Continuous
100
AcDbCircle
 10
241.25102
 20
181.6190589999999
 30
0.0
 40
1.5
100
AcDbArc
 50
102.339
 51
180.0
  0
ARC
  5
9A38
330
991E
100
AcDbEntity
  8
1
  6
Continuous
100
AcDbCircle
 10
453.00232
 20
41.826359
 30
0.0
 40
1.0
100
AcDbArc
 50
183.543
 51
270.0
  0
ARC
  5
9A39
330
991E
100
AcDbEntity
  8
1
  6
Continuous
100
AcDbCircle
 10
468.1223199999998
 20
41.826359
 30
0.0
 40
1.0
100
AcDbArc
 50
270.0
 51
356.4569999999998
  0
ARC
  5
9A3A
330
991E
100
AcDbEntity
  8
1
  6
Continuous
100
AcDbCircle
 10
452.7553199999998
 20
45.82635899999998
 30
0.0
 40
1.0
100
AcDbArc
 50
90.0
 51
183.543
  0
ARC
  5
9A3B
330
991E
100
AcDbEntity
  8
1
  6
Continuous
100
AcDbCircle
 10
468.37032
 20
45.82635899999998
 30
0.0
 40
1.0
100
AcDbArc
 50
356.4569999999998
 51
90.0
  0
ARC
  5
9A3C
330
991E
100
AcDbEntity
  8
5
  6
PHANTOM
100
AcDbCircle
 10
12.10231999999999
 20
107.873559
 30
0.0
 40
1.0
100
AcDbArc
 50
123.543
 51
210.0
  0
ARC
  5
9A3D
330
991E
100
AcDbEntity
  8
5
  6
PHANTOM
100
AcDbCircle
 10
19.66232
 20
94.77915900000001
 30
0.0
 40
1.0
100
AcDbArc
 50
210.0
 51
296.457
  0
CIRCLE
  5
9A3E
330
991E
100
AcDbEntity
  8
2
  6
Continuous
100
AcDbCircle
 10
460.56232
 20
160.8263589999999
 30
0.0
 40
3.0
  0
CIRCLE
  5
9A3F
330
991E
100
AcDbEntity
  8
1
  6
Continuous
100
AcDbCircle
 10
460.56232
 20
160.8263589999999
 30
0.0
 40
2.458499999999999
  0
ARC
  5
9A40
330
991E
100
AcDbEntity
  8
1
  6
Continuous
100
AcDbCircle
 10
287.7510199999999
 20
189.826359
 30
0.0
 40
1.0
100
AcDbArc
 50
0.0
 51
90.0
  0
ARC
  5
9A41
330
991E
100
AcDbEntity
  8
1
  6
Continuous
100
AcDbCircle
 10
287.7510199999999
 20
131.8263589999999
 30
0.0
 40
1.0
100
AcDbArc
 50
270.0
 51
0.0
  0
ARC
  5
9A42
330
991E
100
AcDbEntity
  8
5
  6
PHANTOM
100
AcDbCircle
 10
118.93932
 20
160.8263589999999
 30
0.0
 40
25.5
100
AcDbArc
 50
359.2619999999998
 51
60.7379
  0
ARC
  5
9A43
330
991E
100
AcDbEntity
  8
1
  6
Continuous
100
AcDbCircle
 10
118.93932
 20
160.8263589999999
 30
0.0
 40
30.0
100
AcDbArc
 50
298.4609999999999
 51
241.539
  0
ARC
  5
9A44
330
991E
100
AcDbEntity
  8
1
  6
Continuous
100
AcDbCircle
 10
102.9393199999999
 20
139.0777989999999
 30
0.0
 40
3.0
100
AcDbArc
 50
180.0
 51
233.6590000000001
  0
ARC
  5
9A45
330
991E
100
AcDbEntity
  8
1
  6
Continuous
100
AcDbCircle
 10
102.9393199999999
 20
182.574959
 30
0.0
 40
3.0
100
AcDbArc
 50
126.3409999999999
 51
180.0
  0
ARC
  5
9A46
330
991E
100
AcDbEntity
  8
1
  6
Continuous
100
AcDbCircle
 10
134.93932
 20
139.0777989999999
 30
0.0
 40
3.0
100
AcDbArc
 50
306.341
 51
0.0
  0
ARC
  5
9A47
330
991E
100
AcDbEntity
  8
1
  6
Continuous
100
AcDbCircle
 10
134.93932
 20
182.574959
 30
0.0
 40
3.0
100
AcDbArc
 50
0.0
 51
53.6588
  0
CIRCLE
  5
9A48
330
991E
100
AcDbEntity
  8
1
  6
Continuous
100
AcDbCircle
 10
460.56232
 20
160.8263589999999
 30
0.0
 40
30.0
  0
CIRCLE
  5
9A49
330
991E
100
AcDbEntity
  8
1
  6
Continuous
100
AcDbCircle
 10
460.56232
 20
160.8263589999999
 30
0.0
 40
28.0
  0
CIRCLE
  5
9A4A
330
991E
100
AcDbEntity
  8
1
  6
Continuous
100
AcDbCircle
 10
460.56232
 20
160.8263589999999
 30
0.0
 40
11.0
  0
CIRCLE
  5
9A4B
330
991E
100
AcDbEntity
  8
2
  6
Continuous
100
AcDbCircle
 10
460.56232
 20
160.8263589999999
 30
0.0
 40
9.647
  0
CIRCLE
  5
9A4C
330
991E
100
AcDbEntity
  8
1
  6
Continuous
100
AcDbCircle
 10
460.56232
 20
160.8263589999999
 30
0.0
 40
7.549999999999998
  0
ARC
  5
9A4D
330
991E
100
AcDbEntity
  8
1
  6
Continuous
100
AcDbCircle
 10
460.56232
 20
180.8263589999999
 30
0.0
 40
4.0
100
AcDbArc
 50
332.5719999999999
 51
207.4279999999999
  0
ARC
  5
9A4E
330
991E
100
AcDbEntity
  8
1
  6
Continuous
100
AcDbCircle
 10
460.56232
 20
140.8263589999999
 30
0.0
 40
4.0
100
AcDbArc
 50
152.5719999999998
 51
27.428
  0
CIRCLE
  5
9A4F
330
991E
100
AcDbEntity
  8
1
  6
Continuous
100
AcDbCircle
 10
460.56232
 20
160.8263589999999
 30
0.0
 40
27.5
  0
CIRCLE
  5
9A50
330
991E
100
AcDbEntity
  8
1
  6
Continuous
100
AcDbCircle
 10
460.56232
 20
160.8263589999999
 30
0.0
 40
16.0
  0
CIRCLE
  5
9A51
330
991E
100
AcDbEntity
  8
1
  6
Continuous
100
AcDbCircle
 10
460.56232
 20
160.8263589999999
 30
0.0
 40
17.5
  0
ARC
  5
9A52
330
991E
100
AcDbEntity
  8
1
  6
Continuous
100
AcDbCircle
 10
289.7510199999999
 20
266.1003589999999
 30
0.0
 40
50.0
100
AcDbArc
 50
167.267
 51
192.7329999999998
  0
ARC
  5
9A53
330
991E
100
AcDbEntity
  8
1
  6
Continuous
100
AcDbCircle
 10
242.4438199999999
 20
276.7903589999999
 30
0.0
 40
1.5
100
AcDbArc
 50
99.7569
 51
167.267
  0
ARC
  5
9A54
330
991E
100
AcDbEntity
  8
1
  6
Continuous
100
AcDbCircle
 10
242.4438199999999
 20
255.4113589999999
 30
0.0
 40
1.5
100
AcDbArc
 50
192.7329999999998
 51
260.243
  0
ARC
  5
9A55
330
991E
100
AcDbEntity
  8
1
  6
Continuous
100
AcDbCircle
 10
287.7510199999999
 20
295.1003589999999
 30
0.0
 40
1.0
100
AcDbArc
 50
0.0
 51
90.0
  0
ARC
  5
9A56
330
991E
100
AcDbEntity
  8
1
  6
Continuous
100
AcDbCircle
 10
287.7510199999999
 20
237.1003589999999
 30
0.0
 40
1.0
100
AcDbArc
 50
270.0
 51
0.0
  0
ARC
  5
9A57
330
991E
100
AcDbEntity
  8
1
  6
Continuous
100
AcDbCircle
 10
281.75102
 20
239.1003589999999
 30
0.0
 40
3.0
100
AcDbArc
 50
180.0
 51
270.0
  0
ARC
  5
9A58
330
991E
100
AcDbEntity
  8
1
  6
Continuous
100
AcDbCircle
 10
281.75102
 20
293.1003589999999
 30
0.0
 40
3.0
100
AcDbArc
 50
90.0
 51
180.0
  0
ARC
  5
9A59
330
991E
100
AcDbEntity
  8
1
  6
Continuous
100
AcDbCircle
 10
276.7510199999999
 20
286.7473589999999
 30
0.0
 40
2.0
100
AcDbArc
 50
281.07
 51
0.0
  0
ARC
  5
9A5A
330
991E
100
AcDbEntity
  8
1
  6
Continuous
100
AcDbCircle
 10
276.7510199999999
 20
245.4543589999999
 30
0.0
 40
2.0
100
AcDbArc
 50
0.0
 51
78.9298
  0
ARC
  5
9A5B
330
991E
100
AcDbEntity
  8
1
  6
Continuous
100
AcDbCircle
 10
260.48802
 20
100.623459
 30
0.0
 40
5.0
100
AcDbArc
 50
300.0
 51
15.0
  0
ARC
  5
9A5C
330
991E
100
AcDbEntity
  8
1
  6
Continuous
100
AcDbCircle
 10
310.2510199999999
 20
127.4089889999999
 30
0.0
 40
50.0
100
AcDbArc
 50
180.0
 51
195.0
  0
ARC
  5
9A5D
330
991E
100
AcDbEntity
  8
1
  6
Continuous
100
AcDbCircle
 10
455.56232
 20
92.826359
 30
0.0
 40
1.0
100
AcDbArc
 50
180.0
 51
270.0
  0
ARC
  5
9A5E
330
991E
100
AcDbEntity
  8
1
  6
Continuous
100
AcDbCircle
 10
465.5623199999998
 20
92.826359
 30
0.0
 40
1.0
100
AcDbArc
 50
270.0
 51
0.0
  0
ARC
  5
9A5F
330
991E
100
AcDbEntity
  8
1
  6
Continuous
100
AcDbCircle
 10
346.9333199999999
 20
145.670959
 30
0.0
 40
17.95339999999999
100
AcDbArc
 50
343.6569999999999
 51
16.3429
  0
ARC
  5
9A60
330
991E
100
AcDbEntity
  8
1
  6
Continuous
100
AcDbCircle
 10
375.84032
 20
175.981759
 30
0.0
 40
17.95339999999999
100
AcDbArc
 50
163.657
 51
196.3429999999999
  0
ARC
  5
9A61
330
991E
100
AcDbEntity
  8
1
  6
Continuous
100
AcDbCircle
 10
428.61232
 20
160.8263589999999
 30
0.0
 40
70.72539999999998
100
AcDbArc
 50
171.787
 51
188.213
  0
ARC
  5
9A62
330
991E
100
AcDbEntity
  8
1
  6
Continuous
100
AcDbCircle
 10
375.84032
 20
145.670959
 30
0.0
 40
17.95339999999999
100
AcDbArc
 50
163.657
 51
196.3429999999999
  0
ARC
  5
9A63
330
991E
100
AcDbEntity
  8
1
  6
Continuous
100
AcDbCircle
 10
346.9333199999999
 20
175.981759
 30
0.0
 40
17.95339999999999
100
AcDbArc
 50
343.6569999999999
 51
16.3429
  0
ARC
  5
9A64
330
991E
100
AcDbEntity
  8
1
  6
Continuous
100
AcDbCircle
 10
294.1613199999999
 20
160.8263589999999
 30
0.0
 40
70.72539999999998
100
AcDbArc
 50
351.7869999999998
 51
8.21321
  0
ARC
  5
9A65
330
991E
100
AcDbEntity
  8
1
  6
Continuous
100
AcDbCircle
 10
411.02132
 20
274.8503589999998
 30
0.0
 40
53.1347
100
AcDbArc
 50
170.5219999999999
 51
189.4779999999999
  0
ARC
  5
9A66
330
991E
100
AcDbEntity
  8
1
  6
Continuous
100
AcDbCircle
 10
411.02132
 20
257.3503589999999
 30
0.0
 40
53.1347
100
AcDbArc
 50
170.5219999999999
 51
189.4779999999999
  0
ARC
  5
9A67
330
991E
100
AcDbEntity
  8
1
  6
Continuous
100
AcDbCircle
 10
311.75202
 20
274.8503589999998
 30
0.0
 40
53.1347
100
AcDbArc
 50
350.522
 51
9.4784
  0
ARC
  5
9A68
330
991E
100
AcDbEntity
  8
1
  6
Continuous
100
AcDbCircle
 10
311.75202
 20
257.3503589999999
 30
0.0
 40
53.1347
100
AcDbArc
 50
350.522
 51
9.4784
  0
ARC
  5
9A69
330
991E
100
AcDbEntity
  8
1
  6
Continuous
100
AcDbCircle
 10
408.5223199999998
 20
263.6003589999999
 30
0.0
 40
7.220389999999997
100
AcDbArc
 50
159.7419999999999
 51
200.258
  0
ARC
  5
9A6A
330
991E
100
AcDbEntity
  8
1
  6
Continuous
100
AcDbCircle
 10
398.08132
 20
268.6003589999998
 30
0.0
 40
7.220389999999997
100
AcDbArc
 50
339.7419999999998
 51
20.2576
  0
ARC
  5
9A6B
330
991E
100
AcDbEntity
  8
1
  6
Continuous
100
AcDbCircle
 10
398.08132
 20
263.6003589999999
 30
0.0
 40
7.220389999999997
100
AcDbArc
 50
339.7419999999998
 51
20.2576
  0
ARC
  5
9A6C
330
991E
100
AcDbEntity
  8
1
  6
Continuous
100
AcDbCircle
 10
408.5223199999998
 20
268.6003589999998
 30
0.0
 40
7.220389999999997
100
AcDbArc
 50
159.7419999999999
 51
200.258
  0
ARC
  5
9A6D
330
991E
100
AcDbEntity
  8
1
  6
Continuous
100
AcDbCircle
 10
403.85732
 20
156.496159
 30
0.0
 40
2.55566
100
AcDbArc
 50
145.6129999999998
 51
214.3869999999998
  0
ARC
  5
9A6E
330
991E
100
AcDbEntity
  8
1
  6
Continuous
100
AcDbCircle
 10
395.74932
 20
160.826259
 30
0.0
 40
9.552699999999999
100
AcDbArc
 50
342.411
 51
17.5893
  0
ARC
  5
9A6F
330
991E
100
AcDbEntity
  8
1
  6
Continuous
100
AcDbCircle
 10
402.74632
 20
156.496159
 30
0.0
 40
2.55566
100
AcDbArc
 50
325.613
 51
34.3866
  0
ARC
  5
9A70
330
991E
100
AcDbEntity
  8
1
  6
Continuous
100
AcDbCircle
 10
402.74632
 20
165.1565589999999
 30
0.0
 40
2.55566
100
AcDbArc
 50
325.613
 51
34.3866
  0
ARC
  5
9A71
330
991E
100
AcDbEntity
  8
1
  6
Continuous
100
AcDbCircle
 10
403.85732
 20
165.1565589999999
 30
0.0
 40
2.55566
100
AcDbArc
 50
145.6129999999998
 51
214.3869999999998
  0
ARC
  5
9A72
330
991E
100
AcDbEntity
  8
1
  6
Continuous
100
AcDbCircle
 10
410.8543199999998
 20
160.826259
 30
0.0
 40
9.552699999999999
100
AcDbArc
 50
162.4109999999998
 51
197.589
  0
CIRCLE
  5
9A73
330
991E
100
AcDbEntity
  8
1
  6
Continuous
100
AcDbCircle
 10
460.56232
 20
225.5268589999999
 30
0.0
 40
5.0
  0
CIRCLE
  5
9A74
330
991E
100
AcDbEntity
  8
1
  6
Continuous
100
AcDbCircle
 10
460.56232
 20
225.5268589999999
 30
0.0
 40
6.099999999999997
  0
ARC
  5
9A75
330
991E
100
AcDbEntity
  8
1
  6
Continuous
100
AcDbCircle
 10
460.56232
 20
225.5268589999999
 30
0.0
 40
3.149999999999999
100
AcDbArc
 50
341.2029999999999
 51
18.79739999999999
  0
ARC
  5
9A76
330
991E
100
AcDbEntity
  8
1
  6
Continuous
100
AcDbCircle
 10
460.56232
 20
225.5268589999999
 30
0.0
 40
3.149999999999999
100
AcDbArc
 50
71.2026
 51
108.797
  0
ARC
  5
9A77
330
991E
100
AcDbEntity
  8
1
  6
Continuous
100
AcDbCircle
 10
460.56232
 20
225.5268589999999
 30
0.0
 40
3.149999999999999
100
AcDbArc
 50
161.203
 51
198.7969999999999
  0
ARC
  5
9A78
330
991E
100
AcDbEntity
  8
1
  6
Continuous
100
AcDbCircle
 10
460.56232
 20
225.5268589999999
 30
0.0
 40
3.149999999999999
100
AcDbArc
 50
251.203
 51
288.7970000000001
  0
CIRCLE
  5
9A79
330
991E
100
AcDbEntity
  8
1
  6
Continuous
100
AcDbCircle
 10
460.56232
 20
225.5268589999999
 30
0.0
 40
11.0
  0
CIRCLE
  5
9A7A
330
991E
100
AcDbEntity
  8
1
  6
Continuous
100
AcDbCircle
 10
460.56232
 20
225.5268589999999
 30
0.0
 40
8.0
  0
ARC
  5
9A7B
330
991E
100
AcDbEntity
  8
1
  6
Continuous
100
AcDbCircle
 10
107.43932
 20
180.165459
 30
0.0
 40
3.0
100
AcDbArc
 50
120.738
 51
180.0
  0
ARC
  5
9A7C
330
991E
100
AcDbEntity
  8
1
  6
Continuous
100
AcDbCircle
 10
118.93932
 20
160.8263589999999
 30
0.0
 40
25.5
100
AcDbArc
 50
59.2621
 51
120.738
  0
ARC
  5
9A7D
330
991E
100
AcDbEntity
  8
1
  6
Continuous
100
AcDbCircle
 10
130.43932
 20
180.165459
 30
0.0
 40
3.0
100
AcDbArc
 50
0.0
 51
59.2621
  0
ARC
  5
9A7E
330
991E
100
AcDbEntity
  8
1
  6
Continuous
100
AcDbCircle
 10
204.43932
 20
140.8263589999999
 30
0.0
 40
100.0
100
AcDbArc
 50
180.0
 51
183.543
  0
ARC
  5
9A7F
330
991E
100
AcDbEntity
  8
1
  6
Continuous
100
AcDbCircle
 10
33.43932000000001
 20
140.8263589999999
 30
0.0
 40
100.0
100
AcDbArc
 50
356.4569999999998
 51
0.0
  0
ARC
  5
9A80
330
991E
100
AcDbEntity
  8
1
  6
Continuous
100
AcDbCircle
 10
111.3793199999998
 20
41.826359
 30
0.0
 40
1.0
100
AcDbArc
 50
183.543
 51
270.0
  0
ARC
  5
9A81
330
991E
100
AcDbEntity
  8
1
  6
Continuous
100
AcDbCircle
 10
126.4993199999999
 20
41.826359
 30
0.0
 40
1.0
100
AcDbArc
 50
270.0
 51
356.4569999999998
  0
ARC
  5
9A82
330
991E
100
AcDbEntity
  8
5
  6
PHANTOM
100
AcDbCircle
 10
96.44131999999999
 20
160.536559
 30
0.0
 40
3.0
100
AcDbArc
 50
180.738
 51
239.9999999999999
  0
ARC
  5
9A83
330
991E
100
AcDbEntity
  8
5
  6
PHANTOM
100
AcDbCircle
 10
118.93932
 20
160.8263589999999
 30
0.0
 40
25.5
100
AcDbArc
 50
119.262
 51
180.738
  0
ARC
  5
9A84
330
991E
100
AcDbEntity
  8
5
  6
PHANTOM
100
AcDbCircle
 10
107.9413199999999
 20
180.455159
 30
0.0
 40
3.0
100
AcDbArc
 50
60.0
 51
119.262
  0
ARC
  5
9A85
330
991E
100
AcDbEntity
  8
5
  6
PHANTOM
100
AcDbCircle
 10
179.0098199999999
 20
224.8715589999999
 30
0.0
 40
100.0
100
AcDbArc
 50
239.9999999999999
 51
243.543
  0
ARC
  5
9A86
330
991E
100
AcDbEntity
  8
5
  6
PHANTOM
100
AcDbCircle
 10
93.51032
 20
76.781159
 30
0.0
 40
100.0
100
AcDbArc
 50
56.4571
 51
60.0
  0
ARC
  5
9A87
330
991E
100
AcDbEntity
  8
5
  6
PHANTOM
100
AcDbCircle
 10
218.2163399999998
 20
94.77915900000001
 30
0.0
 40
1.0
100
AcDbArc
 50
243.543
 51
330.0
  0
ARC
  5
9A88
330
991E
100
AcDbEntity
  8
5
  6
PHANTOM
100
AcDbCircle
 10
225.7763399999999
 20
107.873559
 30
0.0
 40
1.0
100
AcDbArc
 50
330.0
 51
56.4571
  0
ARC
  5
9A89
330
991E
100
AcDbEntity
  8
1
  6
Continuous
100
AcDbCircle
 10
468.66232
 20
96.82635900000001
 30
0.0
 40
2.0
100
AcDbArc
 50
95.66620000000002
 51
180.0
  0
ARC
  5
9A8A
330
991E
100
AcDbEntity
  8
1
  6
Continuous
100
AcDbCircle
 10
468.66232
 20
92.826359
 30
0.0
 40
2.0
100
AcDbArc
 50
180.0
 51
253.6399999999999
  0
ARC
  5
9A8B
330
991E
100
AcDbEntity
  8
1
  6
Continuous
100
AcDbCircle
 10
468.26832
 20
100.806859
 30
0.0
 40
2.0
100
AcDbArc
 50
275.666
 51
0.0
  0
ARC
  5
9A8C
330
991E
100
AcDbEntity
  8
1
  6
Continuous
100
AcDbCircle
 10
467.5363199999998
 20
88.98835899999998
 30
0.0
 40
2.0
100
AcDbArc
 50
0.0
 51
73.64029999999998
  0
ARC
  5
9A8D
330
991E
100
AcDbEntity
  8
1
  6
Continuous
100
AcDbCircle
 10
452.4623199999998
 20
92.826359
 30
0.0
 40
2.0
100
AcDbArc
 50
286.36
 51
0.0
  0
ARC
  5
9A8E
330
991E
100
AcDbEntity
  8
1
  6
Continuous
100
AcDbCircle
 10
452.4623199999998
 20
96.82635900000001
 30
0.0
 40
2.0
100
AcDbArc
 50
0.0
 51
84.33369999999998
  0
ARC
  5
9A8F
330
991E
100
AcDbEntity
  8
1
  6
Continuous
100
AcDbCircle
 10
452.85732
 20
100.806859
 30
0.0
 40
2.0
100
AcDbArc
 50
183.543
 51
264.334
  0
ARC
  5
9A90
330
991E
100
AcDbEntity
  8
1
  6
Continuous
100
AcDbCircle
 10
453.58932
 20
88.98835899999998
 30
0.0
 40
2.0
100
AcDbArc
 50
106.36
 51
183.543
  0
ARC
  5
9A91
330
991E
100
AcDbEntity
  8
1
  6
Continuous
100
AcDbCircle
 10
453.4623199999998
 20
120.826359
 30
0.0
 40
1.0
100
AcDbArc
 50
270.0
 51
90.0
  0
ARC
  5
9A92
330
991E
100
AcDbEntity
  8
1
  6
Continuous
100
AcDbCircle
 10
467.66232
 20
120.826359
 30
0.0
 40
1.0
100
AcDbArc
 50
90.0
 51
270.0
  0
ARC
  5
9A93
330
991E
100
AcDbEntity
  8
1
  6
Continuous
100
AcDbCircle
 10
470.63332
 20
122.826359
 30
0.0
 40
1.0
100
AcDbArc
 50
270.0
 51
356.4569999999998
  0
ARC
  5
9A94
330
991E
100
AcDbEntity
  8
1
  6
Continuous
100
AcDbCircle
 10
470.38532
 20
118.826359
 30
0.0
 40
1.0
100
AcDbArc
 50
356.4569999999998
 51
90.0
  0
ARC
  5
9A95
330
991E
100
AcDbEntity
  8
1
  6
Continuous
100
AcDbCircle
 10
450.7403199999997
 20
118.826359
 30
0.0
 40
1.0
100
AcDbArc
 50
90.0
 51
183.543
  0
ARC
  5
9A96
330
991E
100
AcDbEntity
  8
1
  6
Continuous
100
AcDbCircle
 10
450.49232
 20
122.826359
 30
0.0
 40
1.0
100
AcDbArc
 50
183.543
 51
270.0
  0
ARC
  5
9A97
330
991E
100
AcDbEntity
  8
1
  6
Continuous
100
AcDbCircle
 10
257.94042
 20
52.82635899999998
 30
0.0
 40
12.0
100
AcDbArc
 50
184.004
 51
270.0
  0
ARC
  5
9A98
330
991E
100
AcDbEntity
  8
1
  6
Continuous
100
AcDbCircle
 10
242.71242
 20
178.004559
 30
0.0
 40
1.5
100
AcDbArc
 50
99.89879999999999
 51
180.0
  0
ARC
  5
9A99
330
991E
100
AcDbEntity
  8
1
  6
Continuous
100
AcDbCircle
 10
231.67232
 20
178.004559
 30
0.0
 40
9.5401
100
AcDbArc
 50
0.0
 51
26.8992
  0
LINE
  5
9A9A
330
991E
100
AcDbEntity
  8
1
  6
Continuous
100
AcDbLine
 10
458.083638
 20
83.44131500000001
 30
0.0
 11
458.083638
 21
81.50811500000001
 31
0.0
  0
LINE
  5
9A9B
330
991E
100
AcDbEntity
  8
1
  6
Continuous
100
AcDbLine
 10
464.649638
 20
81.73841899999997
 30
0.0
 11
464.649638
 21
79.308419
 31
0.0
  0
LINE
  5
9A9C
330
991E
100
AcDbEntity
  8
1
  6
Continuous
100
AcDbLine
 10
463.749242
 20
75.596513
 30
0.0
 11
463.507376
 21
75.64819099999998
 31
0.0
  0
LINE
  5
9A9D
330
991E
100
AcDbEntity
  8
1
  6
Continuous
100
AcDbLine
 10
463.656308
 20
76.35137900000002
 30
0.0
 11
463.417628
 21
76.30591099999998
 31
0.0
  0
LINE
  5
9A9E
330
991E
100
AcDbEntity
  8
1
  6
Continuous
100
AcDbLine
 10
463.410716
 20
78.79088299999998
 30
0.0
 11
463.649666
 21
78.74644100000002
 31
0.0
  0
LINE
  5
9A9F
330
991E
100
AcDbEntity
  8
1
  6
Continuous
100
AcDbLine
 10
463.712954
 20
68.07647299999999
 30
0.0
 11
463.471088
 21
68.128151
 31
0.0
  0
LINE
  5
9AA0
330
991E
100
AcDbEntity
  8
1
  6
Continuous
100
AcDbLine
 10
464.7090379999998
 20
60.122219
 30
0.0
 11
461.658038
 21
58.99361899999998
 31
0.0
  0
LINE
  5
9AA1
330
991E
100
AcDbEntity
  8
1
  6
Continuous
100
AcDbLine
 10
464.703638
 20
60.122219
 30
0.0
 11
461.658038
 21
61.30481899999999
 31
0.0
  0
LINE
  5
9AA2
330
991E
100
AcDbEntity
  8
1
  6
Continuous
100
AcDbLine
 10
464.649638
 20
64.98761899999999
 30
0.0
 11
461.647238
 21
64.98761899999999
 31
0.0
  0
LINE
  5
9AA3
330
991E
100
AcDbEntity
  8
1
  6
Continuous
100
AcDbLine
 10
463.0512379999998
 20
62.90321899999999
 30
0.0
 11
464.649638
 21
61.980374
 31
0.0
  0
LINE
  5
9AA4
330
991E
100
AcDbEntity
  8
1
  6
Continuous
100
AcDbLine
 10
463.0566379999998
 20
62.90321899999999
 30
0.0
 11
464.649638
 21
63.820092
 31
0.0
  0
LINE
  5
9AA5
330
991E
100
AcDbEntity
  8
1
  6
Continuous
100
AcDbLine
 10
464.649638
 20
72.320819
 30
0.0
 11
461.647238
 21
72.320819
 31
0.0
  0
LINE
  5
9AA6
330
991E
100
AcDbEntity
  8
1
  6
Continuous
100
AcDbLine
 10
464.649638
 20
70.387619
 30
0.0
 11
461.647238
 21
70.387619
 31
0.0
  0
LINE
  5
9AA7
330
991E
100
AcDbEntity
  8
1
  6
Continuous
100
AcDbLine
 10
464.649638
 20
69.340019
 30
0.0
 11
461.647238
 21
69.340019
 31
0.0
  0
LINE
  5
9AA8
330
991E
100
AcDbEntity
  8
1
  6
Continuous
100
AcDbLine
 10
459.6496379999998
 20
81.50811500000001
 30
0.0
 11
456.668838
 21
81.50811500000001
 31
0.0
  0
LINE
  5
9AA9
330
991E
100
AcDbEntity
  8
1
  6
Continuous
100
AcDbLine
 10
456.71837
 20
69.472358
 30
0.0
 11
456.7875639999998
 21
69.32938799999999
 31
0.0
  0
LINE
  5
9AAA
330
991E
100
AcDbEntity
  8
1
  6
Continuous
100
AcDbLine
 10
456.675972
 20
69.624666
 30
0.0
 11
456.71837
 21
69.472358
 31
0.0
  0
LINE
  5
9AAB
330
991E
100
AcDbEntity
  8
1
  6
Continuous
100
AcDbLine
 10
456.6617039999998
 20
69.78178800000001
 30
0.0
 11
456.675972
 21
69.624666
 31
0.0
  0
LINE
  5
9AAC
330
991E
100
AcDbEntity
  8
1
  6
Continuous
100
AcDbLine
 10
456.676146
 20
69.926846
 30
0.0
 11
456.6617039999998
 21
69.78178800000001
 31
0.0
  0
LINE
  5
9AAD
330
991E
100
AcDbEntity
  8
1
  6
Continuous
100
AcDbLine
 10
456.719066
 20
70.06743799999999
 30
0.0
 11
456.676146
 21
69.926846
 31
0.0
  0
LINE
  5
9AAE
330
991E
100
AcDbEntity
  8
1
  6
Continuous
100
AcDbLine
 10
456.78913
 20
70.199388
 30
0.0
 11
456.719066
 21
70.06743799999999
 31
0.0
  0
LINE
  5
9AAF
330
991E
100
AcDbEntity
  8
1
  6
Continuous
100
AcDbLine
 10
459.667438
 20
60.013605
 30
0.0
 11
456.668838
 21
60.013605
 31
0.0
  0
ARC
  5
9AB0
330
991E
100
AcDbEntity
  8
1
  6
Continuous
100
AcDbCircle
 10
457.3056379999998
 20
66.860007
 30
0.0
 40
0.6384
100
AcDbArc
 50
87.990448
 51
270.7026519999998
  0
LINE
  5
9AB1
330
991E
100
AcDbEntity
  8
1
  6
Continuous
100
AcDbLine
 10
459.6496379999998
 20
79.636239
 30
0.0
 11
456.668838
 21
78.53360699999999
 31
0.0
  0
LINE
  5
9AB2
330
991E
100
AcDbEntity
  8
1
  6
Continuous
100
AcDbLine
 10
459.644238
 20
79.636239
 30
0.0
 11
456.668838
 21
80.79158099999999
 31
0.0
  0
LINE
  5
9AB3
330
991E
100
AcDbEntity
  8
1
  6
Continuous
100
AcDbLine
 10
456.760846
 20
74.71930799999999
 30
0.0
 11
456.707198
 21
74.83606800000003
 31
0.0
  0
LINE
  5
9AB4
330
991E
100
AcDbEntity
  8
1
  6
Continuous
100
AcDbLine
 10
456.707198
 20
74.83606800000003
 30
0.0
 11
456.674382
 21
74.96055600000002
 31
0.0
  0
LINE
  5
9AB5
330
991E
100
AcDbEntity
  8
1
  6
Continuous
100
AcDbLine
 10
456.674382
 20
74.96055600000002
 30
0.0
 11
456.6632939999998
 21
75.08890799999999
 31
0.0
  0
LINE
  5
9AB6
330
991E
100
AcDbEntity
  8
1
  6
Continuous
100
AcDbLine
 10
456.78913
 20
73.022701
 30
0.0
 11
456.719066
 21
72.89075099999998
 31
0.0
  0
LINE
  5
9AB7
330
991E
100
AcDbEntity
  8
1
  6
Continuous
100
AcDbLine
 10
456.719066
 20
72.89075099999998
 30
0.0
 11
456.676146
 21
72.75015899999998
 31
0.0
  0
LINE
  5
9AB8
330
991E
100
AcDbEntity
  8
1
  6
Continuous
100
AcDbLine
 10
456.676146
 20
72.75015899999998
 30
0.0
 11
456.6617039999998
 21
72.60510100000002
 31
0.0
  0
LINE
  5
9AB9
330
991E
100
AcDbEntity
  8
1
  6
Continuous
100
AcDbLine
 10
456.6617039999998
 20
72.60510100000002
 30
0.0
 11
456.675972
 21
72.447979
 31
0.0
  0
LINE
  5
9ABA
330
991E
100
AcDbEntity
  8
1
  6
Continuous
100
AcDbLine
 10
456.675972
 20
72.447979
 30
0.0
 11
456.71837
 21
72.295671
 31
0.0
  0
LINE
  5
9ABB
330
991E
100
AcDbEntity
  8
1
  6
Continuous
100
AcDbLine
 10
456.71837
 20
72.295671
 30
0.0
 11
456.7875639999998
 21
72.15270099999997
 31
0.0
  0
LINE
  5
9ABC
330
991E
100
AcDbEntity
  8
1
  6
Continuous
100
AcDbLine
 10
456.6632939999998
 20
75.08890799999999
 30
0.0
 11
456.67455
 21
75.223084
 31
0.0
  0
LINE
  5
9ABD
330
991E
100
AcDbEntity
  8
1
  6
Continuous
100
AcDbLine
 10
456.67455
 20
75.223084
 30
0.0
 11
456.70787
 21
75.353228
 31
0.0
  0
LINE
  5
9ABE
330
991E
100
AcDbEntity
  8
1
  6
Continuous
100
AcDbLine
 10
456.70787
 20
75.353228
 30
0.0
 11
456.762302
 21
75.475308
 31
0.0
  0
LINE
  5
9ABF
330
991E
100
AcDbEntity
  8
1
  6
Continuous
100
AcDbLine
 10
461.830892
 20
74.34824899999998
 30
0.0
 11
461.820038
 21
74.520779
 31
0.0
  0
LINE
  5
9AC0
330
991E
100
AcDbEntity
  8
1
  6
Continuous
100
AcDbLine
 10
461.863022
 20
74.18095699999998
 30
0.0
 11
461.830892
 21
74.34824899999998
 31
0.0
  0
LINE
  5
9AC1
330
991E
100
AcDbEntity
  8
1
  6
Continuous
100
AcDbLine
 10
461.9155639999998
 20
74.02397899999998
 30
0.0
 11
461.863022
 21
74.18095699999998
 31
0.0
  0
LINE
  5
9AC2
330
991E
100
AcDbEntity
  8
1
  6
Continuous
100
AcDbLine
 10
461.98679
 20
73.882121
 30
0.0
 11
461.9155639999998
 21
74.02397899999998
 31
0.0
  0
LINE
  5
9AC3
330
991E
100
AcDbEntity
  8
1
  6
Continuous
100
AcDbLine
 10
462.074648
 20
73.75964899999998
 30
0.0
 11
461.98679
 21
73.882121
 31
0.0
  0
LINE
  5
9AC4
330
991E
100
AcDbEntity
  8
1
  6
Continuous
100
AcDbLine
 10
462.176438
 20
73.660289
 30
0.0
 11
462.074648
 21
73.75964899999998
 31
0.0
  0
LINE
  5
9AC5
330
991E
100
AcDbEntity
  8
1
  6
Continuous
100
AcDbLine
 10
462.289028
 20
73.587119
 30
0.0
 11
462.176438
 21
73.660289
 31
0.0
  0
LINE
  5
9AC6
330
991E
100
AcDbEntity
  8
1
  6
Continuous
100
AcDbLine
 10
462.4090699999999
 20
73.54229899999999
 30
0.0
 11
462.289028
 21
73.587119
 31
0.0
  0
LINE
  5
9AC7
330
991E
100
AcDbEntity
  8
1
  6
Continuous
100
AcDbLine
 10
462.532838
 20
73.527179
 30
0.0
 11
462.4090699999999
 21
73.54229899999999
 31
0.0
  0
LINE
  5
9AC8
330
991E
100
AcDbEntity
  8
1
  6
Continuous
100
AcDbLine
 10
463.007012
 20
75.64819099999998
 30
0.0
 11
463.2564379999998
 21
75.66557899999998
 31
0.0
  0
LINE
  5
9AC9
330
991E
100
AcDbEntity
  8
1
  6
Continuous
100
AcDbLine
 10
462.765146
 20
75.596513
 30
0.0
 11
463.007012
 21
75.64819099999998
 31
0.0
  0
LINE
  5
9ACA
330
991E
100
AcDbEntity
  8
1
  6
Continuous
100
AcDbLine
 10
462.5382379999998
 20
75.51221899999998
 30
0.0
 11
462.765146
 21
75.596513
 31
0.0
  0
LINE
  5
9ACB
330
991E
100
AcDbEntity
  8
1
  6
Continuous
100
AcDbLine
 10
462.3330919999999
 20
75.397739
 30
0.0
 11
462.5382379999998
 21
75.51221899999998
 31
0.0
  0
LINE
  5
9ACC
330
991E
100
AcDbEntity
  8
1
  6
Continuous
100
AcDbLine
 10
462.15608
 20
75.25663699999999
 30
0.0
 11
462.3330919999999
 21
75.397739
 31
0.0
  0
LINE
  5
9ACD
330
991E
100
AcDbEntity
  8
1
  6
Continuous
100
AcDbLine
 10
462.0124940000001
 20
75.093179
 30
0.0
 11
462.15608
 21
75.25663699999999
 31
0.0
  0
LINE
  5
9ACE
330
991E
100
AcDbEntity
  8
1
  6
Continuous
100
AcDbLine
 10
461.906654
 20
74.91233299999997
 30
0.0
 11
462.0124940000001
 21
75.093179
 31
0.0
  0
LINE
  5
9ACF
330
991E
100
AcDbEntity
  8
1
  6
Continuous
100
AcDbLine
 10
461.841854
 20
74.71955300000002
 30
0.0
 11
461.906654
 21
74.91233299999997
 31
0.0
  0
LINE
  5
9AD0
330
991E
100
AcDbEntity
  8
1
  6
Continuous
100
AcDbLine
 10
461.820038
 20
74.520779
 30
0.0
 11
461.841854
 21
74.71955300000002
 31
0.0
  0
LINE
  5
9AD1
330
991E
100
AcDbEntity
  8
1
  6
Continuous
100
AcDbLine
 10
462.970724
 20
68.128151
 30
0.0
 11
463.2201499999998
 21
68.14553899999999
 31
0.0
  0
LINE
  5
9AD2
330
991E
100
AcDbEntity
  8
1
  6
Continuous
100
AcDbLine
 10
462.728858
 20
68.07647299999999
 30
0.0
 11
462.970724
 21
68.128151
 31
0.0
  0
LINE
  5
9AD3
330
991E
100
AcDbEntity
  8
1
  6
Continuous
100
AcDbLine
 10
462.50195
 20
67.99217900000001
 30
0.0
 11
462.728858
 21
68.07647299999999
 31
0.0
  0
LINE
  5
9AD4
330
991E
100
AcDbEntity
  8
1
  6
Continuous
100
AcDbLine
 10
462.2968039999998
 20
67.87769899999999
 30
0.0
 11
462.50195
 21
67.99217900000001
 31
0.0
  0
LINE
  5
9AD5
330
991E
100
AcDbEntity
  8
1
  6
Continuous
100
AcDbLine
 10
462.119792
 20
67.736597
 30
0.0
 11
462.2968039999998
 21
67.87769899999999
 31
0.0
  0
LINE
  5
9AD6
330
991E
100
AcDbEntity
  8
1
  6
Continuous
100
AcDbLine
 10
461.9762059999998
 20
67.57313899999998
 30
0.0
 11
462.119792
 21
67.736597
 31
0.0
  0
LINE
  5
9AD7
330
991E
100
AcDbEntity
  8
1
  6
Continuous
100
AcDbLine
 10
461.870366
 20
67.39229300000001
 30
0.0
 11
461.9762059999998
 21
67.57313899999998
 31
0.0
  0
LINE
  5
9AD8
330
991E
100
AcDbEntity
  8
1
  6
Continuous
100
AcDbLine
 10
461.805566
 20
67.19951299999999
 30
0.0
 11
461.870366
 21
67.39229300000001
 31
0.0
  0
LINE
  5
9AD9
330
991E
100
AcDbEntity
  8
1
  6
Continuous
100
AcDbLine
 10
461.78375
 20
67.00073899999999
 30
0.0
 11
461.805566
 21
67.19951299999999
 31
0.0
  0
LINE
  5
9ADA
330
991E
100
AcDbEntity
  8
1
  6
Continuous
100
AcDbLine
 10
461.799734
 20
66.803045
 30
0.0
 11
461.78375
 21
67.00073899999999
 31
0.0
  0
LINE
  5
9ADB
330
991E
100
AcDbEntity
  8
1
  6
Continuous
100
AcDbLine
 10
461.847146
 20
66.61139900000001
 30
0.0
 11
461.799734
 21
66.803045
 31
0.0
  0
LINE
  5
9ADC
330
991E
100
AcDbEntity
  8
1
  6
Continuous
100
AcDbLine
 10
461.9246359999998
 20
66.431579
 30
0.0
 11
461.847146
 21
66.61139900000001
 31
0.0
  0
LINE
  5
9ADD
330
991E
100
AcDbEntity
  8
1
  6
Continuous
100
AcDbLine
 10
462.0297739999998
 20
66.26903900000001
 30
0.0
 11
461.9246359999998
 21
66.431579
 31
0.0
  0
LINE
  5
9ADE
330
991E
100
AcDbEntity
  8
1
  6
Continuous
100
AcDbLine
 10
462.159374
 20
66.128747
 30
0.0
 11
462.0297739999998
 21
66.26903900000001
 31
0.0
  0
LINE
  5
9ADF
330
991E
100
AcDbEntity
  8
1
  6
Continuous
100
AcDbLine
 10
462.3094939999998
 20
66.014915
 30
0.0
 11
462.159374
 21
66.128747
 31
0.0
  0
LINE
  5
9AE0
330
991E
100
AcDbEntity
  8
1
  6
Continuous
100
AcDbLine
 10
462.4755979999997
 20
65.93105300000001
 30
0.0
 11
462.3094939999998
 21
66.014915
 31
0.0
  0
LINE
  5
9AE1
330
991E
100
AcDbEntity
  8
1
  6
Continuous
100
AcDbLine
 10
462.6526639999998
 20
65.879699
 30
0.0
 11
462.4755979999997
 21
65.93105300000001
 31
0.0
  0
LINE
  5
9AE2
330
991E
100
AcDbEntity
  8
1
  6
Continuous
100
AcDbLine
 10
462.8352379999998
 20
65.86241899999999
 30
0.0
 11
462.6526639999998
 21
65.879699
 31
0.0
  0
LINE
  5
9AE3
330
991E
100
AcDbEntity
  8
1
  6
Continuous
100
AcDbLine
 10
463.507376
 20
75.64819099999998
 30
0.0
 11
463.25795
 21
75.66557899999998
 31
0.0
  0
LINE
  5
9AE4
330
991E
100
AcDbEntity
  8
1
  6
Continuous
100
AcDbLine
 10
461.809562
 20
77.330453
 30
0.0
 11
461.787638
 21
77.54801899999998
 31
0.0
  0
LINE
  5
9AE5
330
991E
100
AcDbEntity
  8
1
  6
Continuous
100
AcDbLine
 10
461.8722019999998
 20
77.125253
 30
0.0
 11
461.809562
 21
77.330453
 31
0.0
  0
LINE
  5
9AE6
330
991E
100
AcDbEntity
  8
1
  6
Continuous
100
AcDbLine
 10
461.973884
 20
76.93214899999998
 30
0.0
 11
461.8722019999998
 21
77.125253
 31
0.0
  0
LINE
  5
9AE7
330
991E
100
AcDbEntity
  8
1
  6
Continuous
100
AcDbLine
 10
462.1115839999998
 20
76.75675699999998
 30
0.0
 11
461.973884
 21
76.93214899999998
 31
0.0
  0
LINE
  5
9AE8
330
991E
100
AcDbEntity
  8
1
  6
Continuous
100
AcDbLine
 10
462.281414
 20
76.60409900000002
 30
0.0
 11
462.1115839999998
 21
76.75675699999998
 31
0.0
  0
LINE
  5
9AE9
330
991E
100
AcDbEntity
  8
1
  6
Continuous
100
AcDbLine
 10
462.4785139999998
 20
76.478549
 30
0.0
 11
462.281414
 21
76.60409900000002
 31
0.0
  0
LINE
  5
9AEA
330
991E
100
AcDbEntity
  8
1
  6
Continuous
100
AcDbLine
 10
462.6971059999998
 20
76.383725
 30
0.0
 11
462.4785139999998
 21
76.478549
 31
0.0
  0
LINE
  5
9AEB
330
991E
100
AcDbEntity
  8
1
  6
Continuous
100
AcDbLine
 10
462.9310339999998
 20
76.322327
 30
0.0
 11
462.6971059999998
 21
76.383725
 31
0.0
  0
LINE
  5
9AEC
330
991E
100
AcDbEntity
  8
1
  6
Continuous
100
AcDbLine
 10
463.1735479999998
 20
76.296137
 30
0.0
 11
462.9310339999998
 21
76.322327
 31
0.0
  0
LINE
  5
9AED
330
991E
100
AcDbEntity
  8
1
  6
Continuous
100
AcDbLine
 10
463.417628
 20
76.30591099999998
 30
0.0
 11
463.1735479999998
 21
76.296137
 31
0.0
  0
LINE
  5
9AEE
330
991E
100
AcDbEntity
  8
1
  6
Continuous
100
AcDbLine
 10
463.166582
 20
78.79963100000002
 30
0.0
 11
463.410716
 21
78.79088299999998
 31
0.0
  0
LINE
  5
9AEF
330
991E
100
AcDbEntity
  8
1
  6
Continuous
100
AcDbLine
 10
462.9242299999998
 20
78.77241500000002
 30
0.0
 11
463.166582
 21
78.79963100000002
 31
0.0
  0
LINE
  5
9AF0
330
991E
100
AcDbEntity
  8
1
  6
Continuous
100
AcDbLine
 10
462.6906259999998
 20
78.71004499999997
 30
0.0
 11
462.9242299999998
 21
78.77241500000002
 31
0.0
  0
LINE
  5
9AF1
330
991E
100
AcDbEntity
  8
1
  6
Continuous
100
AcDbLine
 10
462.4725199999998
 20
78.61430300000002
 30
0.0
 11
462.6906259999998
 21
78.71004499999997
 31
0.0
  0
LINE
  5
9AF2
330
991E
100
AcDbEntity
  8
1
  6
Continuous
100
AcDbLine
 10
462.2761759999998
 20
78.487943
 30
0.0
 11
462.4725199999998
 21
78.61430300000002
 31
0.0
  0
LINE
  5
9AF3
330
991E
100
AcDbEntity
  8
1
  6
Continuous
100
AcDbLine
 10
462.1072099999998
 20
78.33452900000001
 30
0.0
 11
462.2761759999998
 21
78.487943
 31
0.0
  0
LINE
  5
9AF4
330
991E
100
AcDbEntity
  8
1
  6
Continuous
100
AcDbLine
 10
461.9704819999998
 20
78.158597
 30
0.0
 11
462.1072099999998
 21
78.33452900000001
 31
0.0
  0
LINE
  5
9AF5
330
991E
100
AcDbEntity
  8
1
  6
Continuous
100
AcDbLine
 10
461.8698799999998
 20
77.96506099999998
 30
0.0
 11
461.9704819999998
 21
78.158597
 31
0.0
  0
LINE
  5
9AF6
330
991E
100
AcDbEntity
  8
1
  6
Continuous
100
AcDbLine
 10
461.808374
 20
77.759591
 30
0.0
 11
461.8698799999998
 21
77.96506099999998
 31
0.0
  0
LINE
  5
9AF7
330
991E
100
AcDbEntity
  8
1
  6
Continuous
100
AcDbLine
 10
461.787638
 20
77.54801899999998
 30
0.0
 11
461.808374
 21
77.759591
 31
0.0
  0
LINE
  5
9AF8
330
991E
100
AcDbEntity
  8
1
  6
Continuous
100
AcDbLine
 10
463.471088
 20
68.128151
 30
0.0
 11
463.221662
 21
68.14553899999999
 31
0.0
  0
LINE
  5
9AF9
330
991E
100
AcDbEntity
  8
1
  6
Continuous
100
AcDbLine
 10
462.554438
 20
60.94841899999998
 30
0.0
 11
462.554438
 21
59.32301899999998
 31
0.0
  0
LINE
  5
9AFA
330
991E
100
AcDbEntity
  8
1
  6
Continuous
100
AcDbLine
 10
463.0620379999998
 20
66.89921899999998
 30
0.0
 11
463.0620379999998
 21
65.851619
 31
0.0
  0
LINE
  5
9AFB
330
991E
100
AcDbEntity
  8
1
  6
Continuous
100
AcDbLine
 10
463.0512379999998
 20
62.90321899999999
 30
0.0
 11
461.647238
 21
62.90321899999999
 31
0.0
  0
LINE
  5
9AFC
330
991E
100
AcDbEntity
  8
1
  6
Continuous
100
AcDbLine
 10
463.0620379999998
 20
65.851619
 30
0.0
 11
461.668838
 21
65.851619
 31
0.0
  0
LINE
  5
9AFD
330
991E
100
AcDbEntity
  8
1
  6
Continuous
100
AcDbLine
 10
463.2132379999998
 20
72.320819
 30
0.0
 11
463.2132379999998
 21
70.387619
 31
0.0
  0
LINE
  5
9AFE
330
991E
100
AcDbEntity
  8
1
  6
Continuous
100
AcDbLine
 10
457.43815
 20
68.890734
 30
0.0
 11
457.601304
 21
68.87698799999999
 31
0.0
  0
LINE
  5
9AFF
330
991E
100
AcDbEntity
  8
1
  6
Continuous
100
AcDbLine
 10
457.279926
 20
68.93156600000001
 30
0.0
 11
457.43815
 21
68.890734
 31
0.0
  0
LINE
  5
9B00
330
991E
100
AcDbEntity
  8
1
  6
Continuous
100
AcDbLine
 10
457.1315039999998
 20
68.99820799999999
 30
0.0
 11
457.279926
 21
68.93156600000001
 31
0.0
  0
LINE
  5
9B01
330
991E
100
AcDbEntity
  8
1
  6
Continuous
100
AcDbLine
 10
456.9973499999998
 20
69.088688
 30
0.0
 11
457.1315039999998
 21
68.99820799999999
 31
0.0
  0
LINE
  5
9B02
330
991E
100
AcDbEntity
  8
1
  6
Continuous
100
AcDbLine
 10
456.881524
 20
69.200164
 30
0.0
 11
456.9973499999998
 21
69.088688
 31
0.0
  0
LINE
  5
9B03
330
991E
100
AcDbEntity
  8
1
  6
Continuous
100
AcDbLine
 10
456.7875639999998
 20
69.32938799999999
 30
0.0
 11
456.881524
 21
69.200164
 31
0.0
  0
LINE
  5
9B04
330
991E
100
AcDbEntity
  8
1
  6
Continuous
100
AcDbLine
 10
456.88425
 20
70.318636
 30
0.0
 11
456.78913
 21
70.199388
 31
0.0
  0
LINE
  5
9B05
330
991E
100
AcDbEntity
  8
1
  6
Continuous
100
AcDbLine
 10
457.0014679999998
 20
70.42158600000002
 30
0.0
 11
456.88425
 21
70.318636
 31
0.0
  0
LINE
  5
9B06
330
991E
100
AcDbEntity
  8
1
  6
Continuous
100
AcDbLine
 10
457.137304
 20
70.50510600000001
 30
0.0
 11
457.0014679999998
 21
70.42158600000002
 31
0.0
  0
LINE
  5
9B07
330
991E
100
AcDbEntity
  8
1
  6
Continuous
100
AcDbLine
 10
457.287582
 20
70.56664399999998
 30
0.0
 11
457.137304
 21
70.50510600000001
 31
0.0
  0
LINE
  5
9B08
330
991E
100
AcDbEntity
  8
1
  6
Continuous
100
AcDbLine
 10
457.44772
 20
70.604286
 30
0.0
 11
457.287582
 21
70.56664399999998
 31
0.0
  0
LINE
  5
9B09
330
991E
100
AcDbEntity
  8
1
  6
Continuous
100
AcDbLine
 10
457.612904
 20
70.61698800000002
 30
0.0
 11
457.44772
 21
70.604286
 31
0.0
  0
LINE
  5
9B0A
330
991E
100
AcDbEntity
  8
1
  6
Continuous
100
AcDbLine
 10
459.651662
 20
69.926846
 30
0.0
 11
459.6661039999998
 21
69.78178800000001
 31
0.0
  0
LINE
  5
9B0B
330
991E
100
AcDbEntity
  8
1
  6
Continuous
100
AcDbLine
 10
459.6087419999998
 20
70.06743799999999
 30
0.0
 11
459.651662
 21
69.926846
 31
0.0
  0
LINE
  5
9B0C
330
991E
100
AcDbEntity
  8
1
  6
Continuous
100
AcDbLine
 10
459.538678
 20
70.199388
 30
0.0
 11
459.6087419999998
 21
70.06743799999999
 31
0.0
  0
LINE
  5
9B0D
330
991E
100
AcDbEntity
  8
1
  6
Continuous
100
AcDbLine
 10
459.4435579999998
 20
70.318636
 30
0.0
 11
459.538678
 21
70.199388
 31
0.0
  0
LINE
  5
9B0E
330
991E
100
AcDbEntity
  8
1
  6
Continuous
100
AcDbLine
 10
459.32634
 20
70.42158600000002
 30
0.0
 11
459.4435579999998
 21
70.318636
 31
0.0
  0
LINE
  5
9B0F
330
991E
100
AcDbEntity
  8
1
  6
Continuous
100
AcDbLine
 10
459.1905039999998
 20
70.50510600000001
 30
0.0
 11
459.32634
 21
70.42158600000002
 31
0.0
  0
LINE
  5
9B10
330
991E
100
AcDbEntity
  8
1
  6
Continuous
100
AcDbLine
 10
459.0402259999998
 20
70.56664399999998
 30
0.0
 11
459.1905039999998
 21
70.50510600000001
 31
0.0
  0
LINE
  5
9B11
330
991E
100
AcDbEntity
  8
1
  6
Continuous
100
AcDbLine
 10
458.8800879999998
 20
70.604286
 30
0.0
 11
459.0402259999998
 21
70.56664399999998
 31
0.0
  0
LINE
  5
9B12
330
991E
100
AcDbEntity
  8
1
  6
Continuous
100
AcDbLine
 10
458.7149039999998
 20
70.61698800000002
 30
0.0
 11
458.8800879999998
 21
70.604286
 31
0.0
  0
LINE
  5
9B13
330
991E
100
AcDbEntity
  8
1
  6
Continuous
100
AcDbLine
 10
458.889658
 20
68.890734
 30
0.0
 11
458.726504
 21
68.87698799999999
 31
0.0
  0
LINE
  5
9B14
330
991E
100
AcDbEntity
  8
1
  6
Continuous
100
AcDbLine
 10
459.047882
 20
68.93156600000001
 30
0.0
 11
458.889658
 21
68.890734
 31
0.0
  0
LINE
  5
9B15
330
991E
100
AcDbEntity
  8
1
  6
Continuous
100
AcDbLine
 10
459.196304
 20
68.99820799999999
 30
0.0
 11
459.047882
 21
68.93156600000001
 31
0.0
  0
LINE
  5
9B16
330
991E
100
AcDbEntity
  8
1
  6
Continuous
100
AcDbLine
 10
459.330458
 20
69.088688
 30
0.0
 11
459.196304
 21
68.99820799999999
 31
0.0
  0
LINE
  5
9B17
330
991E
100
AcDbEntity
  8
1
  6
Continuous
100
AcDbLine
 10
459.446284
 20
69.200164
 30
0.0
 11
459.330458
 21
69.088688
 31
0.0
  0
LINE
  5
9B18
330
991E
100
AcDbEntity
  8
1
  6
Continuous
100
AcDbLine
 10
459.5402439999999
 20
69.32938799999999
 30
0.0
 11
459.446284
 21
69.200164
 31
0.0
  0
LINE
  5
9B19
330
991E
100
AcDbEntity
  8
1
  6
Continuous
100
AcDbLine
 10
459.609438
 20
69.472358
 30
0.0
 11
459.5402439999999
 21
69.32938799999999
 31
0.0
  0
LINE
  5
9B1A
330
991E
100
AcDbEntity
  8
1
  6
Continuous
100
AcDbLine
 10
459.6518360000001
 20
69.624666
 30
0.0
 11
459.609438
 21
69.472358
 31
0.0
  0
LINE
  5
9B1B
330
991E
100
AcDbEntity
  8
1
  6
Continuous
100
AcDbLine
 10
459.6661039999998
 20
69.78178800000001
 30
0.0
 11
459.6518360000001
 21
69.624666
 31
0.0
  0
LINE
  5
9B1C
330
991E
100
AcDbEntity
  8
1
  6
Continuous
100
AcDbLine
 10
458.738104
 20
68.87698799999999
 30
0.0
 11
457.566504
 21
68.87698799999999
 31
0.0
  0
LINE
  5
9B1D
330
991E
100
AcDbEntity
  8
1
  6
Continuous
100
AcDbLine
 10
458.7149039999998
 20
70.61698800000002
 30
0.0
 11
457.566504
 21
70.61698800000002
 31
0.0
  0
LINE
  5
9B1E
330
991E
100
AcDbEntity
  8
1
  6
Continuous
100
AcDbLine
 10
458.098687
 20
62.67863000000001
 30
0.0
 11
458.098687
 21
61.63010299999999
 31
0.0
  0
LINE
  5
9B1F
330
991E
100
AcDbEntity
  8
1
  6
Continuous
100
AcDbLine
 10
459.667438
 20
60.013605
 30
0.0
 11
459.3468979999998
 21
60.34448499999999
 31
0.0
  0
LINE
  5
9B20
330
991E
100
AcDbEntity
  8
1
  6
Continuous
100
AcDbLine
 10
459.6688379999998
 20
66.22160699999999
 30
0.0
 11
457.3168379999998
 21
66.22160699999999
 31
0.0
  0
LINE
  5
9B21
330
991E
100
AcDbEntity
  8
1
  6
Continuous
100
AcDbLine
 10
459.6688379999998
 20
66.78160699999999
 30
0.0
 11
459.6688379999998
 21
65.66160699999999
 31
0.0
  0
LINE
  5
9B22
330
991E
100
AcDbEntity
  8
1
  6
Continuous
100
AcDbLine
 10
457.4950379999998
 20
80.462439
 30
0.0
 11
457.4950379999998
 21
78.837039
 31
0.0
  0
LINE
  5
9B23
330
991E
100
AcDbEntity
  8
1
  6
Continuous
100
AcDbLine
 10
458.098687
 20
77.86242099999999
 30
0.0
 11
458.098687
 21
76.81389399999997
 31
0.0
  0
LINE
  5
9B24
330
991E
100
AcDbEntity
  8
1
  6
Continuous
100
AcDbLine
 10
458.7149039999998
 20
73.44030100000002
 30
0.0
 11
457.566504
 21
73.44030100000002
 31
0.0
  0
LINE
  5
9B25
330
991E
100
AcDbEntity
  8
1
  6
Continuous
100
AcDbLine
 10
458.738104
 20
71.70030099999998
 30
0.0
 11
457.566504
 21
71.70030099999998
 31
0.0
  0
LINE
  5
9B26
330
991E
100
AcDbEntity
  8
1
  6
Continuous
100
AcDbLine
 10
458.2984940000002
 20
75.04410799999998
 30
0.0
 11
458.2984940000002
 21
75.32410799999998
 31
0.0
  0
LINE
  5
9B27
330
991E
100
AcDbEntity
  8
1
  6
Continuous
100
AcDbLine
 10
458.925694
 20
74.383308
 30
0.0
 11
458.816774
 21
74.39350000000001
 31
0.0
  0
LINE
  5
9B28
330
991E
100
AcDbEntity
  8
1
  6
Continuous
100
AcDbLine
 10
458.816774
 20
74.39350000000001
 30
0.0
 11
458.711158
 21
74.42385199999998
 31
0.0
  0
LINE
  5
9B29
330
991E
100
AcDbEntity
  8
1
  6
Continuous
100
AcDbLine
 10
458.711158
 20
74.42385199999998
 30
0.0
 11
458.6120939999998
 21
74.47335600000002
 31
0.0
  0
LINE
  5
9B2A
330
991E
100
AcDbEntity
  8
1
  6
Continuous
100
AcDbLine
 10
458.6120939999998
 20
74.47335600000002
 30
0.0
 11
458.5225499999999
 21
74.54049999999998
 31
0.0
  0
LINE
  5
9B2B
330
991E
100
AcDbEntity
  8
1
  6
Continuous
100
AcDbLine
 10
458.5225499999999
 20
74.54049999999998
 30
0.0
 11
458.4452139999998
 21
74.62338000000002
 31
0.0
  0
LINE
  5
9B2C
330
991E
100
AcDbEntity
  8
1
  6
Continuous
100
AcDbLine
 10
458.4452139999998
 20
74.62338000000002
 30
0.0
 11
458.3825499999998
 21
74.71930799999999
 31
0.0
  0
LINE
  5
9B2D
330
991E
100
AcDbEntity
  8
1
  6
Continuous
100
AcDbLine
 10
458.3825499999998
 20
74.71930799999999
 30
0.0
 11
458.3362939999998
 21
74.825484
 31
0.0
  0
LINE
  5
9B2E
330
991E
100
AcDbEntity
  8
1
  6
Continuous
100
AcDbLine
 10
458.3362939999998
 20
74.825484
 30
0.0
 11
458.3080139999998
 21
74.93860399999999
 31
0.0
  0
LINE
  5
9B2F
330
991E
100
AcDbEntity
  8
1
  6
Continuous
100
AcDbLine
 10
458.3080139999998
 20
74.93860399999999
 30
0.0
 11
458.2984940000002
 21
75.05530799999998
 31
0.0
  0
LINE
  5
9B30
330
991E
100
AcDbEntity
  8
1
  6
Continuous
100
AcDbLine
 10
457.391294
 20
74.34970799999998
 30
0.0
 11
457.2649019999998
 21
74.36096399999998
 31
0.0
  0
LINE
  5
9B31
330
991E
100
AcDbEntity
  8
1
  6
Continuous
100
AcDbLine
 10
457.2649019999998
 20
74.36096399999998
 30
0.0
 11
457.142318
 21
74.394284
 31
0.0
  0
LINE
  5
9B32
330
991E
100
AcDbEntity
  8
1
  6
Continuous
100
AcDbLine
 10
457.142318
 20
74.394284
 30
0.0
 11
457.0272939999998
 21
74.448716
 31
0.0
  0
LINE
  5
9B33
330
991E
100
AcDbEntity
  8
1
  6
Continuous
100
AcDbLine
 10
457.0272939999998
 20
74.448716
 30
0.0
 11
456.923358
 21
74.52263600000001
 31
0.0
  0
LINE
  5
9B34
330
991E
100
AcDbEntity
  8
1
  6
Continuous
100
AcDbLine
 10
456.923358
 20
74.52263600000001
 30
0.0
 11
456.83359
 21
74.613748
 31
0.0
  0
LINE
  5
9B35
330
991E
100
AcDbEntity
  8
1
  6
Continuous
100
AcDbLine
 10
456.83359
 20
74.613748
 30
0.0
 11
456.760846
 21
74.71930799999999
 31
0.0
  0
LINE
  5
9B36
330
991E
100
AcDbEntity
  8
1
  6
Continuous
100
AcDbLine
 10
458.2984940000002
 20
75.05530799999998
 30
0.0
 11
458.2847179999998
 21
74.93277999999998
 31
0.0
  0
LINE
  5
9B37
330
991E
100
AcDbEntity
  8
1
  6
Continuous
100
AcDbLine
 10
458.2847179999998
 20
74.93277999999998
 30
0.0
 11
458.2437819999998
 21
74.81400399999998
 31
0.0
  0
LINE
  5
9B38
330
991E
100
AcDbEntity
  8
1
  6
Continuous
100
AcDbLine
 10
458.2437819999998
 20
74.81400399999998
 30
0.0
 11
458.1769739999998
 21
74.70250799999998
 31
0.0
  0
LINE
  5
9B39
330
991E
100
AcDbEntity
  8
1
  6
Continuous
100
AcDbLine
 10
458.1769739999998
 20
74.70250799999998
 30
0.0
 11
458.086254
 21
74.601764
 31
0.0
  0
LINE
  5
9B3A
330
991E
100
AcDbEntity
  8
1
  6
Continuous
100
AcDbLine
 10
458.086254
 20
74.601764
 30
0.0
 11
457.9744219999998
 21
74.51479599999998
 31
0.0
  0
LINE
  5
9B3B
330
991E
100
AcDbEntity
  8
1
  6
Continuous
100
AcDbLine
 10
457.9744219999998
 20
74.51479599999998
 30
0.0
 11
457.844894
 21
74.444236
 31
0.0
  0
LINE
  5
9B3C
330
991E
100
AcDbEntity
  8
1
  6
Continuous
100
AcDbLine
 10
457.844894
 20
74.444236
 30
0.0
 11
457.70159
 21
74.392268
 31
0.0
  0
LINE
  5
9B3D
330
991E
100
AcDbEntity
  8
1
  6
Continuous
100
AcDbLine
 10
457.70159
 20
74.392268
 30
0.0
 11
457.5488219999998
 21
74.360404
 31
0.0
  0
LINE
  5
9B3E
330
991E
100
AcDbEntity
  8
1
  6
Continuous
100
AcDbLine
 10
457.5488219999998
 20
74.360404
 30
0.0
 11
457.391294
 21
74.34970799999998
 31
0.0
  0
LINE
  5
9B3F
330
991E
100
AcDbEntity
  8
1
  6
Continuous
100
AcDbLine
 10
459.653694
 20
75.066508
 30
0.0
 11
459.6426619999999
 21
74.9479
 31
0.0
  0
LINE
  5
9B40
330
991E
100
AcDbEntity
  8
1
  6
Continuous
100
AcDbLine
 10
459.6426619999999
 20
74.9479
 30
0.0
 11
459.60979
 21
74.83281999999999
 31
0.0
  0
LINE
  5
9B41
330
991E
100
AcDbEntity
  8
1
  6
Continuous
100
AcDbLine
 10
459.60979
 20
74.83281999999999
 30
0.0
 11
459.556142
 21
74.724908
 31
0.0
  0
LINE
  5
9B42
330
991E
100
AcDbEntity
  8
1
  6
Continuous
100
AcDbLine
 10
459.556142
 20
74.724908
 30
0.0
 11
459.483398
 21
74.62735600000002
 31
0.0
  0
LINE
  5
9B43
330
991E
100
AcDbEntity
  8
1
  6
Continuous
100
AcDbLine
 10
459.483398
 20
74.62735600000002
 30
0.0
 11
459.39363
 21
74.543132
 31
0.0
  0
LINE
  5
9B44
330
991E
100
AcDbEntity
  8
1
  6
Continuous
100
AcDbLine
 10
459.39363
 20
74.543132
 30
0.0
 11
459.2896940000001
 21
74.474868
 31
0.0
  0
LINE
  5
9B45
330
991E
100
AcDbEntity
  8
1
  6
Continuous
100
AcDbLine
 10
459.2896940000001
 20
74.474868
 30
0.0
 11
459.1746699999998
 21
74.424524
 31
0.0
  0
LINE
  5
9B46
330
991E
100
AcDbEntity
  8
1
  6
Continuous
100
AcDbLine
 10
459.1746699999998
 20
74.424524
 30
0.0
 11
459.0520859999998
 21
74.39366800000001
 31
0.0
  0
LINE
  5
9B47
330
991E
100
AcDbEntity
  8
1
  6
Continuous
100
AcDbLine
 10
459.0520859999998
 20
74.39366800000001
 30
0.0
 11
458.925694
 21
74.383308
 31
0.0
  0
LINE
  5
9B48
330
991E
100
AcDbEntity
  8
1
  6
Continuous
100
AcDbLine
 10
459.6661039999998
 20
72.60510100000002
 30
0.0
 11
459.6518360000001
 21
72.447979
 31
0.0
  0
LINE
  5
9B49
330
991E
100
AcDbEntity
  8
1
  6
Continuous
100
AcDbLine
 10
459.6518360000001
 20
72.447979
 30
0.0
 11
459.609438
 21
72.295671
 31
0.0
  0
LINE
  5
9B4A
330
991E
100
AcDbEntity
  8
1
  6
Continuous
100
AcDbLine
 10
459.609438
 20
72.295671
 30
0.0
 11
459.5402439999999
 21
72.15270099999997
 31
0.0
  0
LINE
  5
9B4B
330
991E
100
AcDbEntity
  8
1
  6
Continuous
100
AcDbLine
 10
459.5402439999999
 20
72.15270099999997
 30
0.0
 11
459.446284
 21
72.023477
 31
0.0
  0
LINE
  5
9B4C
330
991E
100
AcDbEntity
  8
1
  6
Continuous
100
AcDbLine
 10
459.446284
 20
72.023477
 30
0.0
 11
459.330458
 21
71.912001
 31
0.0
  0
LINE
  5
9B4D
330
991E
100
AcDbEntity
  8
1
  6
Continuous
100
AcDbLine
 10
459.330458
 20
71.912001
 30
0.0
 11
459.196304
 21
71.82152099999997
 31
0.0
  0
LINE
  5
9B4E
330
991E
100
AcDbEntity
  8
1
  6
Continuous
100
AcDbLine
 10
459.196304
 20
71.82152099999997
 30
0.0
 11
459.047882
 21
71.754879
 31
0.0
  0
LINE
  5
9B4F
330
991E
100
AcDbEntity
  8
1
  6
Continuous
100
AcDbLine
 10
459.047882
 20
71.754879
 30
0.0
 11
458.889658
 21
71.714047
 31
0.0
  0
LINE
  5
9B50
330
991E
100
AcDbEntity
  8
1
  6
Continuous
100
AcDbLine
 10
458.889658
 20
71.714047
 30
0.0
 11
458.726504
 21
71.70030099999998
 31
0.0
  0
LINE
  5
9B51
330
991E
100
AcDbEntity
  8
1
  6
Continuous
100
AcDbLine
 10
458.7149039999998
 20
73.44030100000002
 30
0.0
 11
458.8800879999998
 21
73.427599
 31
0.0
  0
LINE
  5
9B52
330
991E
100
AcDbEntity
  8
1
  6
Continuous
100
AcDbLine
 10
458.8800879999998
 20
73.427599
 30
0.0
 11
459.0402259999998
 21
73.38995699999998
 31
0.0
  0
LINE
  5
9B53
330
991E
100
AcDbEntity
  8
1
  6
Continuous
100
AcDbLine
 10
459.0402259999998
 20
73.38995699999998
 30
0.0
 11
459.1905039999998
 21
73.32841899999998
 31
0.0
  0
LINE
  5
9B54
330
991E
100
AcDbEntity
  8
1
  6
Continuous
100
AcDbLine
 10
459.1905039999998
 20
73.32841899999998
 30
0.0
 11
459.32634
 21
73.244899
 31
0.0
  0
LINE
  5
9B55
330
991E
100
AcDbEntity
  8
1
  6
Continuous
100
AcDbLine
 10
459.32634
 20
73.244899
 30
0.0
 11
459.4435579999998
 21
73.14194899999998
 31
0.0
  0
LINE
  5
9B56
330
991E
100
AcDbEntity
  8
1
  6
Continuous
100
AcDbLine
 10
459.4435579999998
 20
73.14194899999998
 30
0.0
 11
459.538678
 21
73.022701
 31
0.0
  0
LINE
  5
9B57
330
991E
100
AcDbEntity
  8
1
  6
Continuous
100
AcDbLine
 10
459.538678
 20
73.022701
 30
0.0
 11
459.6087419999998
 21
72.89075099999998
 31
0.0
  0
LINE
  5
9B58
330
991E
100
AcDbEntity
  8
1
  6
Continuous
100
AcDbLine
 10
459.6087419999998
 20
72.89075099999998
 30
0.0
 11
459.651662
 21
72.75015899999998
 31
0.0
  0
LINE
  5
9B59
330
991E
100
AcDbEntity
  8
1
  6
Continuous
100
AcDbLine
 10
459.651662
 20
72.75015899999998
 30
0.0
 11
459.6661039999998
 21
72.60510100000002
 31
0.0
  0
LINE
  5
9B5A
330
991E
100
AcDbEntity
  8
1
  6
Continuous
100
AcDbLine
 10
457.612904
 20
73.44030100000002
 30
0.0
 11
457.44772
 21
73.427599
 31
0.0
  0
LINE
  5
9B5B
330
991E
100
AcDbEntity
  8
1
  6
Continuous
100
AcDbLine
 10
457.44772
 20
73.427599
 30
0.0
 11
457.287582
 21
73.38995699999998
 31
0.0
  0
LINE
  5
9B5C
330
991E
100
AcDbEntity
  8
1
  6
Continuous
100
AcDbLine
 10
457.287582
 20
73.38995699999998
 30
0.0
 11
457.137304
 21
73.32841899999998
 31
0.0
  0
LINE
  5
9B5D
330
991E
100
AcDbEntity
  8
1
  6
Continuous
100
AcDbLine
 10
457.137304
 20
73.32841899999998
 30
0.0
 11
457.0014679999998
 21
73.244899
 31
0.0
  0
LINE
  5
9B5E
330
991E
100
AcDbEntity
  8
1
  6
Continuous
100
AcDbLine
 10
457.0014679999998
 20
73.244899
 30
0.0
 11
456.88425
 21
73.14194899999998
 31
0.0
  0
LINE
  5
9B5F
330
991E
100
AcDbEntity
  8
1
  6
Continuous
100
AcDbLine
 10
456.88425
 20
73.14194899999998
 30
0.0
 11
456.78913
 21
73.022701
 31
0.0
  0
LINE
  5
9B60
330
991E
100
AcDbEntity
  8
1
  6
Continuous
100
AcDbLine
 10
456.7875639999998
 20
72.15270099999997
 30
0.0
 11
456.881524
 21
72.023477
 31
0.0
  0
LINE
  5
9B61
330
991E
100
AcDbEntity
  8
1
  6
Continuous
100
AcDbLine
 10
456.881524
 20
72.023477
 30
0.0
 11
456.9973499999998
 21
71.912001
 31
0.0
  0
LINE
  5
9B62
330
991E
100
AcDbEntity
  8
1
  6
Continuous
100
AcDbLine
 10
456.9973499999998
 20
71.912001
 30
0.0
 11
457.1315039999998
 21
71.82152099999997
 31
0.0
  0
LINE
  5
9B63
330
991E
100
AcDbEntity
  8
1
  6
Continuous
100
AcDbLine
 10
457.1315039999998
 20
71.82152099999997
 30
0.0
 11
457.279926
 21
71.754879
 31
0.0
  0
LINE
  5
9B64
330
991E
100
AcDbEntity
  8
1
  6
Continuous
100
AcDbLine
 10
457.279926
 20
71.754879
 30
0.0
 11
457.43815
 21
71.714047
 31
0.0
  0
LINE
  5
9B65
330
991E
100
AcDbEntity
  8
1
  6
Continuous
100
AcDbLine
 10
457.43815
 20
71.714047
 30
0.0
 11
457.601304
 21
71.70030099999998
 31
0.0
  0
LINE
  5
9B66
330
991E
100
AcDbEntity
  8
1
  6
Continuous
100
AcDbLine
 10
456.762302
 20
75.475308
 30
0.0
 11
456.836222
 21
75.585628
 31
0.0
  0
LINE
  5
9B67
330
991E
100
AcDbEntity
  8
1
  6
Continuous
100
AcDbLine
 10
456.836222
 20
75.585628
 30
0.0
 11
456.9273339999998
 21
75.68088399999997
 31
0.0
  0
LINE
  5
9B68
330
991E
100
AcDbEntity
  8
1
  6
Continuous
100
AcDbLine
 10
456.9273339999998
 20
75.68088399999997
 30
0.0
 11
457.032894
 21
75.75816399999998
 31
0.0
  0
LINE
  5
9B69
330
991E
100
AcDbEntity
  8
1
  6
Continuous
100
AcDbLine
 10
457.032894
 20
75.75816399999998
 30
0.0
 11
457.149654
 21
75.815116
 31
0.0
  0
LINE
  5
9B6A
330
991E
100
AcDbEntity
  8
1
  6
Continuous
100
AcDbLine
 10
457.149654
 20
75.815116
 30
0.0
 11
457.2741419999998
 21
75.849948
 31
0.0
  0
LINE
  5
9B6B
330
991E
100
AcDbEntity
  8
1
  6
Continuous
100
AcDbLine
 10
457.2741419999998
 20
75.849948
 30
0.0
 11
457.402494
 21
75.86170799999996
 31
0.0
  0
LINE
  5
9B6C
330
991E
100
AcDbEntity
  8
1
  6
Continuous
100
AcDbLine
 10
458.858494
 20
75.86170799999996
 30
0.0
 11
458.9984939999998
 21
75.84961199999998
 31
0.0
  0
LINE
  5
9B6D
330
991E
100
AcDbEntity
  8
1
  6
Continuous
100
AcDbLine
 10
458.9984939999998
 20
75.84961199999998
 30
0.0
 11
459.134294
 21
75.813772
 31
0.0
  0
LINE
  5
9B6E
330
991E
100
AcDbEntity
  8
1
  6
Continuous
100
AcDbLine
 10
459.134294
 20
75.813772
 30
0.0
 11
459.261694
 21
75.75519599999998
 31
0.0
  0
LINE
  5
9B6F
330
991E
100
AcDbEntity
  8
1
  6
Continuous
100
AcDbLine
 10
459.261694
 20
75.75519599999998
 30
0.0
 11
459.3768299999998
 21
75.67567599999998
 31
0.0
  0
LINE
  5
9B70
330
991E
100
AcDbEntity
  8
1
  6
Continuous
100
AcDbLine
 10
459.3768299999998
 20
75.67567599999998
 30
0.0
 11
459.47623
 21
75.57767599999998
 31
0.0
  0
LINE
  5
9B71
330
991E
100
AcDbEntity
  8
1
  6
Continuous
100
AcDbLine
 10
459.47623
 20
75.57767599999998
 30
0.0
 11
459.55687
 21
75.46410799999998
 31
0.0
  0
LINE
  5
9B72
330
991E
100
AcDbEntity
  8
1
  6
Continuous
100
AcDbLine
 10
459.55687
 20
75.46410799999998
 30
0.0
 11
459.6162299999998
 21
75.33849999999998
 31
0.0
  0
LINE
  5
9B73
330
991E
100
AcDbEntity
  8
1
  6
Continuous
100
AcDbLine
 10
459.6162299999998
 20
75.33849999999998
 30
0.0
 11
459.6526299999998
 21
75.20460400000001
 31
0.0
  0
LINE
  5
9B74
330
991E
100
AcDbEntity
  8
1
  6
Continuous
100
AcDbLine
 10
459.6526299999998
 20
75.20460400000001
 30
0.0
 11
459.664894
 21
75.066508
 31
0.0
  0
LINE
  5
9B75
330
991E
100
AcDbEntity
  8
1
  6
Continuous
100
AcDbLine
 10
464.6834959999998
 20
74.359049
 30
0.0
 11
464.6943499999999
 21
74.53157899999998
 31
0.0
  0
LINE
  5
9B76
330
991E
100
AcDbEntity
  8
1
  6
Continuous
100
AcDbLine
 10
464.651366
 20
74.19175699999998
 30
0.0
 11
464.6834959999998
 21
74.359049
 31
0.0
  0
LINE
  5
9B77
330
991E
100
AcDbEntity
  8
1
  6
Continuous
100
AcDbLine
 10
464.598824
 20
74.034779
 30
0.0
 11
464.651366
 21
74.19175699999998
 31
0.0
  0
LINE
  5
9B78
330
991E
100
AcDbEntity
  8
1
  6
Continuous
100
AcDbLine
 10
464.527598
 20
73.892921
 30
0.0
 11
464.598824
 21
74.034779
 31
0.0
  0
LINE
  5
9B79
330
991E
100
AcDbEntity
  8
1
  6
Continuous
100
AcDbLine
 10
464.4397399999999
 20
73.770449
 30
0.0
 11
464.527598
 21
73.892921
 31
0.0
  0
LINE
  5
9B7A
330
991E
100
AcDbEntity
  8
1
  6
Continuous
100
AcDbLine
 10
464.3379499999999
 20
73.67108899999998
 30
0.0
 11
464.4397399999999
 21
73.770449
 31
0.0
  0
LINE
  5
9B7B
330
991E
100
AcDbEntity
  8
1
  6
Continuous
100
AcDbLine
 10
464.22536
 20
73.59791899999997
 30
0.0
 11
464.3379499999999
 21
73.67108899999998
 31
0.0
  0
LINE
  5
9B7C
330
991E
100
AcDbEntity
  8
1
  6
Continuous
100
AcDbLine
 10
464.1053179999998
 20
73.553099
 30
0.0
 11
464.22536
 21
73.59791899999997
 31
0.0
  0
LINE
  5
9B7D
330
991E
100
AcDbEntity
  8
1
  6
Continuous
100
AcDbLine
 10
463.98155
 20
73.537979
 30
0.0
 11
464.1053179999998
 21
73.553099
 31
0.0
  0
LINE
  5
9B7E
330
991E
100
AcDbEntity
  8
1
  6
Continuous
100
AcDbLine
 10
464.6472079999998
 20
66.83900899999999
 30
0.0
 11
464.6580619999999
 21
67.011539
 31
0.0
  0
LINE
  5
9B7F
330
991E
100
AcDbEntity
  8
1
  6
Continuous
100
AcDbLine
 10
464.615078
 20
66.671717
 30
0.0
 11
464.6472079999998
 21
66.83900899999999
 31
0.0
  0
LINE
  5
9B80
330
991E
100
AcDbEntity
  8
1
  6
Continuous
100
AcDbLine
 10
464.562536
 20
66.514739
 30
0.0
 11
464.615078
 21
66.671717
 31
0.0
  0
LINE
  5
9B81
330
991E
100
AcDbEntity
  8
1
  6
Continuous
100
AcDbLine
 10
464.4913099999998
 20
66.37288100000001
 30
0.0
 11
464.562536
 21
66.514739
 31
0.0
  0
LINE
  5
9B82
330
991E
100
AcDbEntity
  8
1
  6
Continuous
100
AcDbLine
 10
464.4034519999998
 20
66.25040899999999
 30
0.0
 11
464.4913099999998
 21
66.37288100000001
 31
0.0
  0
LINE
  5
9B83
330
991E
100
AcDbEntity
  8
1
  6
Continuous
100
AcDbLine
 10
464.301662
 20
66.151049
 30
0.0
 11
464.4034519999998
 21
66.25040899999999
 31
0.0
  0
LINE
  5
9B84
330
991E
100
AcDbEntity
  8
1
  6
Continuous
100
AcDbLine
 10
464.1890719999998
 20
66.07787900000001
 30
0.0
 11
464.301662
 21
66.151049
 31
0.0
  0
LINE
  5
9B85
330
991E
100
AcDbEntity
  8
1
  6
Continuous
100
AcDbLine
 10
464.06903
 20
66.03305899999999
 30
0.0
 11
464.1890719999998
 21
66.07787900000001
 31
0.0
  0
LINE
  5
9B86
330
991E
100
AcDbEntity
  8
1
  6
Continuous
100
AcDbLine
 10
463.945262
 20
66.017939
 30
0.0
 11
464.06903
 21
66.03305899999999
 31
0.0
  0
LINE
  5
9B87
330
991E
100
AcDbEntity
  8
1
  6
Continuous
100
AcDbLine
 10
463.97615
 20
75.51221899999998
 30
0.0
 11
463.749242
 21
75.596513
 31
0.0
  0
LINE
  5
9B88
330
991E
100
AcDbEntity
  8
1
  6
Continuous
100
AcDbLine
 10
464.181296
 20
75.397739
 30
0.0
 11
463.97615
 21
75.51221899999998
 31
0.0
  0
LINE
  5
9B89
330
991E
100
AcDbEntity
  8
1
  6
Continuous
100
AcDbLine
 10
464.3583079999998
 20
75.25663699999999
 30
0.0
 11
464.181296
 21
75.397739
 31
0.0
  0
LINE
  5
9B8A
330
991E
100
AcDbEntity
  8
1
  6
Continuous
100
AcDbLine
 10
464.5018939999998
 20
75.093179
 30
0.0
 11
464.3583079999998
 21
75.25663699999999
 31
0.0
  0
LINE
  5
9B8B
330
991E
100
AcDbEntity
  8
1
  6
Continuous
100
AcDbLine
 10
464.6077339999997
 20
74.91233299999997
 30
0.0
 11
464.5018939999998
 21
75.093179
 31
0.0
  0
LINE
  5
9B8C
330
991E
100
AcDbEntity
  8
1
  6
Continuous
100
AcDbLine
 10
464.6725339999998
 20
74.71955300000002
 30
0.0
 11
464.6077339999997
 21
74.91233299999997
 31
0.0
  0
LINE
  5
9B8D
330
991E
100
AcDbEntity
  8
1
  6
Continuous
100
AcDbLine
 10
464.6943499999999
 20
74.520779
 30
0.0
 11
464.6725339999998
 21
74.71955300000002
 31
0.0
  0
LINE
  5
9B8E
330
991E
100
AcDbEntity
  8
1
  6
Continuous
100
AcDbLine
 10
463.8827839999998
 20
76.43124499999998
 30
0.0
 11
463.656308
 21
76.35137900000002
 31
0.0
  0
LINE
  5
9B8F
330
991E
100
AcDbEntity
  8
1
  6
Continuous
100
AcDbLine
 10
464.0904139999998
 20
76.54313299999998
 30
0.0
 11
463.8827839999998
 21
76.43124499999998
 31
0.0
  0
LINE
  5
9B90
330
991E
100
AcDbEntity
  8
1
  6
Continuous
100
AcDbLine
 10
464.273366
 20
76.68391099999998
 30
0.0
 11
464.0904139999998
 21
76.54313299999998
 31
0.0
  0
LINE
  5
9B91
330
991E
100
AcDbEntity
  8
1
  6
Continuous
100
AcDbLine
 10
464.4262939999999
 20
76.84947499999998
 30
0.0
 11
464.273366
 21
76.68391099999998
 31
0.0
  0
LINE
  5
9B92
330
991E
100
AcDbEntity
  8
1
  6
Continuous
100
AcDbLine
 10
464.5448779999998
 20
77.035127
 30
0.0
 11
464.4262939999999
 21
76.84947499999998
 31
0.0
  0
LINE
  5
9B93
330
991E
100
AcDbEntity
  8
1
  6
Continuous
100
AcDbLine
 10
464.6256619999999
 20
77.23552099999998
 30
0.0
 11
464.5448779999998
 21
77.035127
 31
0.0
  0
LINE
  5
9B94
330
991E
100
AcDbEntity
  8
1
  6
Continuous
100
AcDbLine
 10
464.6663239999998
 20
77.444879
 30
0.0
 11
464.6256619999999
 21
77.23552099999998
 31
0.0
  0
LINE
  5
9B95
330
991E
100
AcDbEntity
  8
1
  6
Continuous
100
AcDbLine
 10
464.66573
 20
77.657207
 30
0.0
 11
464.6663239999998
 21
77.444879
 31
0.0
  0
LINE
  5
9B96
330
991E
100
AcDbEntity
  8
1
  6
Continuous
100
AcDbLine
 10
464.6238799999999
 20
77.86640300000001
 30
0.0
 11
464.66573
 21
77.657207
 31
0.0
  0
LINE
  5
9B97
330
991E
100
AcDbEntity
  8
1
  6
Continuous
100
AcDbLine
 10
464.5420159999998
 20
78.06641899999998
 30
0.0
 11
464.6238799999999
 21
77.86640300000001
 31
0.0
  0
LINE
  5
9B98
330
991E
100
AcDbEntity
  8
1
  6
Continuous
100
AcDbLine
 10
464.4224059999998
 20
78.25158499999997
 30
0.0
 11
464.5420159999998
 21
78.06641899999998
 31
0.0
  0
LINE
  5
9B99
330
991E
100
AcDbEntity
  8
1
  6
Continuous
100
AcDbLine
 10
464.2685059999998
 20
78.416555
 30
0.0
 11
464.4224059999998
 21
78.25158499999997
 31
0.0
  0
LINE
  5
9B9A
330
991E
100
AcDbEntity
  8
1
  6
Continuous
100
AcDbLine
 10
464.084798
 20
78.556523
 30
0.0
 11
464.2685059999998
 21
78.416555
 31
0.0
  0
LINE
  5
9B9B
330
991E
100
AcDbEntity
  8
1
  6
Continuous
100
AcDbLine
 10
463.87652
 20
78.667547
 30
0.0
 11
464.084798
 21
78.556523
 31
0.0
  0
LINE
  5
9B9C
330
991E
100
AcDbEntity
  8
1
  6
Continuous
100
AcDbLine
 10
463.649666
 20
78.74644100000002
 30
0.0
 11
463.87652
 21
78.667547
 31
0.0
  0
LINE
  5
9B9D
330
991E
100
AcDbEntity
  8
1
  6
Continuous
100
AcDbLine
 10
463.939862
 20
67.99217900000001
 30
0.0
 11
463.712954
 21
68.07647299999999
 31
0.0
  0
LINE
  5
9B9E
330
991E
100
AcDbEntity
  8
1
  6
Continuous
100
AcDbLine
 10
464.145008
 20
67.87769899999999
 30
0.0
 11
463.939862
 21
67.99217900000001
 31
0.0
  0
LINE
  5
9B9F
330
991E
100
AcDbEntity
  8
1
  6
Continuous
100
AcDbLine
 10
464.32202
 20
67.736597
 30
0.0
 11
464.145008
 21
67.87769899999999
 31
0.0
  0
LINE
  5
9BA0
330
991E
100
AcDbEntity
  8
1
  6
Continuous
100
AcDbLine
 10
464.4656059999999
 20
67.57313899999998
 30
0.0
 11
464.32202
 21
67.736597
 31
0.0
  0
LINE
  5
9BA1
330
991E
100
AcDbEntity
  8
1
  6
Continuous
100
AcDbLine
 10
464.5714459999998
 20
67.39229300000001
 30
0.0
 11
464.4656059999999
 21
67.57313899999998
 31
0.0
  0
LINE
  5
9BA2
330
991E
100
AcDbEntity
  8
1
  6
Continuous
100
AcDbLine
 10
464.6362459999998
 20
67.19951299999999
 30
0.0
 11
464.5714459999998
 21
67.39229300000001
 31
0.0
  0
LINE
  5
9BA3
330
991E
100
AcDbEntity
  8
1
  6
Continuous
100
AcDbLine
 10
464.6580619999999
 20
67.00073899999999
 30
0.0
 11
464.6362459999998
 21
67.19951299999999
 31
0.0
  0
LINE
  5
9BA4
330
991E
100
AcDbEntity
  8
1
  6
Continuous
100
AcDbLine
 10
464.649638
 20
80.528819
 30
0.0
 11
461.668838
 21
80.528819
 31
0.0
  0
LINE
  5
9BA5
330
991E
100
AcDbEntity
  8
1
  6
Continuous
100
AcDbLine
 10
459.6496379999998
 20
85.45198399999998
 30
0.0
 11
456.668838
 21
85.45198399999998
 31
0.0
  0
LINE
  5
9BA6
330
991E
100
AcDbEntity
  8
1
  6
Continuous
100
AcDbLine
 10
459.6496379999998
 20
83.44131500000001
 30
0.0
 11
456.668838
 21
83.44131500000001
 31
0.0
  0
LINE
  5
9BA7
330
991E
100
AcDbEntity
  8
1
  6
Continuous
100
AcDbLine
 10
459.6496379999998
 20
86.66698399999999
 30
0.0
 11
459.6496379999998
 21
84.23698399999997
 31
0.0
  0
LWPOLYLINE
  5
9BA8
330
991E
100
AcDbEntity
  8
1
  6
Continuous
100
AcDbPolyline
 90
       30
 70
     0
 43
0.0
 10
458.3578659999998
 20
63.876801
 10
458.3700349999999
 20
64.064373
 10
458.3975429999998
 20
64.180403
 10
458.4425969999998
 20
64.289698
 10
458.5037809999998
 20
64.389087
 10
458.5793989999998
 20
64.475685
 10
458.667242
 20
64.54705799999999
 10
458.7648769999998
 20
64.601111
 10
458.869417
 20
64.63637299999999
 10
458.977863
 20
64.65171099999999
 10
459.0871009999998
 20
64.646787
 10
459.194075
 20
64.62165699999999
 10
459.2955589999998
 20
64.57711299999999
 10
459.388779
 20
64.51445600000001
 10
459.4710189999998
 20
64.435386
 10
459.539844
 20
64.342223
 10
459.593388
 20
64.23768199999999
 10
459.630065
 20
64.12470899999999
 10
459.6487989999998
 20
64.006528
 10
459.649026
 20
63.886649
 10
459.6308569999997
 20
63.768412
 10
459.59469
 20
63.65526800000001
 10
459.541599
 20
63.550389
 10
459.4731689999998
 20
63.456885
 10
459.3913259999998
 20
63.377362
 10
459.298389
 20
63.314197
 10
459.1970179999998
 20
63.269087
 10
459.0902139999998
 20
63.24344700000001
 10
458.980976
 20
63.2379
 10
458.8724739999998
 20
63.252729
  0
LWPOLYLINE
  5
9BC8
330
991E
100
AcDbEntity
  8
1
  6
Continuous
100
AcDbPolyline
 90
       25
 70
     0
 43
0.0
 10
458.3578659999998
 20
63.876801
 10
458.3578659999998
 20
63.876801
 10
458.3578659999998
 20
63.876801
 10
458.3578659999998
 20
63.876801
 10
458.3578659999998
 20
63.876801
 10
458.3578659999998
 20
63.876801
 10
458.3578659999998
 20
63.876801
 10
458.333925
 20
63.75001700000001
 10
458.286324
 20
63.628723
 10
458.216536
 20
63.51631499999999
 10
458.126486
 20
63.416077
 10
458.018719
 20
63.33089399999999
 10
457.8964629999998
 20
63.263144
 10
457.763114
 20
63.21480699999999
 10
457.6225759999998
 20
63.1873
 10
457.478812
 20
63.18135699999999
 10
457.336067
 20
63.19720499999998
 10
457.1983019999998
 20
63.234391
 10
457.069537
 20
63.29178299999998
 10
456.9535069999998
 20
63.36779700000001
 10
456.853495
 20
63.460225
 10
456.772387
 20
63.56640600000001
 10
456.7125609999997
 20
63.683285
 10
456.6756579999998
 20
63.80752199999999
 10
456.6627529999998
 20
63.93923100000001
  0
LWPOLYLINE
  5
9BE3
330
991E
100
AcDbEntity
  8
1
  6
Continuous
100
AcDbPolyline
 90
       10
 70
     0
 43
0.0
 10
456.6627529999998
 20
63.93923100000001
 10
456.674922
 20
64.067316
 10
456.711203
 20
64.19172299999999
 10
456.7704059999998
 20
64.308885
 10
456.850948
 20
64.415406
 10
456.9504509999998
 20
64.50823000000001
 10
457.066028
 20
64.58475400000001
 10
457.194453
 20
64.642712
 10
457.331991
 20
64.680464
 10
457.4747369999998
 20
64.69693499999999
  0
ARC
  5
9BEF
330
991E
100
AcDbEntity
  8
1
  6
Continuous
100
AcDbCircle
 10
467.20892
 20
87.37654499999996
 30
0.0
 40
6.354269999999998
100
AcDbArc
 50
144.462
 51
215.5379999999999
  0
ARC
  5
9BF0
330
991E
100
AcDbEntity
  8
1
  6
Continuous
100
AcDbCircle
 10
458.93392
 20
87.37654499999996
 30
0.0
 40
6.354269999999998
100
AcDbArc
 50
324.4619999999998
 51
35.5377
  0
ARC
  5
9BF1
330
991E
100
AcDbEntity
  8
1
  6
Continuous
100
AcDbCircle
 10
464.60292
 20
88.65754499999999
 30
0.0
 40
0.04927
100
AcDbArc
 50
270.0
 51
12.7289
  0
ARC
  5
9BF2
330
991E
100
AcDbEntity
  8
1
  6
Continuous
100
AcDbCircle
 10
458.93392
 20
87.37654499999996
 30
0.0
 40
5.861699999999999
100
AcDbArc
 50
12.7289
 51
13.2681
  0
ARC
  5
9BF3
330
991E
100
AcDbEntity
  8
1
  6
Continuous
100
AcDbCircle
 10
458.93392
 20
87.37654499999996
 30
0.0
 40
5.861699999999999
100
AcDbArc
 50
13.2681
 51
15.2575
  0
ARC
  5
9BF4
330
991E
100
AcDbEntity
  8
1
  6
Continuous
100
AcDbCircle
 10
464.3509199999998
 20
88.85354499999998
 30
0.0
 40
0.24635
100
AcDbArc
 50
15.2575
 51
90.0
  0
ARC
  5
9BF5
330
991E
100
AcDbEntity
  8
1
  6
Continuous
100
AcDbCircle
 10
464.2869199999998
 20
89.642545
 30
0.0
 40
0.04927
100
AcDbArc
 50
270.0
 51
22.94399999999999
  0
LINE
  5
9BF6
330
991E
100
AcDbEntity
  8
1
  6
Continuous
100
AcDbLine
 10
461.5399199999997
 20
88.607545
 30
0.0
 11
462.48092
 21
88.607545
 31
0.0
  0
ARC
  5
9BF7
330
991E
100
AcDbEntity
  8
1
  6
Continuous
100
AcDbCircle
 10
463.0719199999998
 20
90.331545
 30
0.0
 40
1.269449999999998
100
AcDbArc
 50
90.0
 51
144.462
  0
ARC
  5
9BF8
330
991E
100
AcDbEntity
  8
1
  6
Continuous
100
AcDbCircle
 10
462.16292
 20
89.83954500000001
 30
0.0
 40
0.24635
100
AcDbArc
 50
90.0
 51
153.986
  0
ARC
  5
9BF9
330
991E
100
AcDbEntity
  8
1
  6
Continuous
100
AcDbCircle
 10
461.85692
 20
89.642545
 30
0.0
 40
0.04927
100
AcDbArc
 50
157.056
 51
270.0
  0
ARC
  5
9BFA
330
991E
100
AcDbEntity
  8
1
  6
Continuous
100
AcDbCircle
 10
467.20892
 20
87.37654499999996
 30
0.0
 40
5.861699999999999
100
AcDbArc
 50
153.986
 51
157.056
  0
ARC
  5
9BFB
330
991E
100
AcDbEntity
  8
1
  6
Continuous
100
AcDbCircle
 10
467.20892
 20
87.37654499999996
 30
0.0
 40
5.861699999999999
100
AcDbArc
 50
153.986
 51
154.7719999999999
  0
ARC
  5
9BFC
330
991E
100
AcDbEntity
  8
1
  6
Continuous
100
AcDbCircle
 10
461.79192
 20
88.85354499999998
 30
0.0
 40
0.24635
100
AcDbArc
 50
90.0
 51
164.7419999999999
  0
ARC
  5
9BFD
330
991E
100
AcDbEntity
  8
1
  6
Continuous
100
AcDbCircle
 10
467.20892
 20
87.37654499999996
 30
0.0
 40
5.861699999999999
100
AcDbArc
 50
164.7419999999999
 51
164.794
  0
ARC
  5
9BFE
330
991E
100
AcDbEntity
  8
1
  6
Continuous
100
AcDbCircle
 10
467.20892
 20
87.37654499999996
 30
0.0
 40
5.861699999999999
100
AcDbArc
 50
164.794
 51
167.2709999999999
  0
ARC
  5
9BFF
330
991E
100
AcDbEntity
  8
1
  6
Continuous
100
AcDbCircle
 10
461.5399199999997
 20
88.65754499999999
 30
0.0
 40
0.04927
100
AcDbArc
 50
167.2709999999999
 51
270.0
  0
LINE
  5
9C00
330
991E
100
AcDbEntity
  8
1
  6
Continuous
100
AcDbLine
 10
462.16292
 20
90.085545
 30
0.0
 11
463.9799199999997
 21
90.085545
 31
0.0
  0
LINE
  5
9C01
330
991E
100
AcDbEntity
  8
1
  6
Continuous
100
AcDbLine
 10
463.0719199999998
 20
87.622545
 30
0.0
 11
463.0719199999998
 21
88.11554499999997
 31
0.0
  0
ARC
  5
9C02
330
991E
100
AcDbEntity
  8
1
  6
Continuous
100
AcDbCircle
 10
463.0719199999998
 20
90.331545
 30
0.0
 40
1.269449999999998
100
AcDbArc
 50
35.5377
 51
76.5374
  0
LINE
  5
9C03
330
991E
100
AcDbEntity
  8
1
  6
Continuous
100
AcDbLine
 10
464.2869199999998
 20
89.592545
 30
0.0
 11
461.85692
 21
89.592545
 31
0.0
  0
LINE
  5
9C04
330
991E
100
AcDbEntity
  8
1
  6
Continuous
100
AcDbLine
 10
464.3509199999998
 20
89.10054499999999
 30
0.0
 11
461.79192
 21
89.10054499999999
 31
0.0
  0
LINE
  5
9C05
330
991E
100
AcDbEntity
  8
1
  6
Continuous
100
AcDbLine
 10
464.7489199999998
 20
88.11554499999997
 30
0.0
 11
461.3939199999999
 21
88.11554499999997
 31
0.0
  0
LINE
  5
9C06
330
991E
100
AcDbEntity
  8
1
  6
Continuous
100
AcDbLine
 10
464.78992
 20
87.622545
 30
0.0
 11
461.35292
 21
87.622545
 31
0.0
  0
ARC
  5
9C07
330
991E
100
AcDbEntity
  8
1
  6
Continuous
100
AcDbCircle
 10
463.9799199999997
 20
89.83954500000001
 30
0.0
 40
0.24635
100
AcDbArc
 50
26.0144
 51
90.0
  0
ARC
  5
9C08
330
991E
100
AcDbEntity
  8
1
  6
Continuous
100
AcDbCircle
 10
458.93392
 20
87.37654499999996
 30
0.0
 40
5.861699999999999
100
AcDbArc
 50
22.94399999999999
 51
26.0144
  0
LINE
  5
9C09
330
991E
100
AcDbEntity
  8
1
  6
Continuous
100
AcDbLine
 10
464.4229199999998
 20
90.57854500000001
 30
0.0
 11
462.29892
 21
90.57854500000001
 31
0.0
  0
LINE
  5
9C0A
330
991E
100
AcDbEntity
  8
1
  6
Continuous
100
AcDbLine
 10
463.6629199999998
 20
88.607545
 30
0.0
 11
464.60292
 21
88.607545
 31
0.0
  0
ARC
  5
9C0B
330
991E
100
AcDbEntity
  8
1
  6
Continuous
100
AcDbCircle
 10
464.46192
 20
86.39154499999998
 30
0.0
 40
0.24635
100
AcDbArc
 50
270.0
 51
349.8959999999998
  0
ARC
  5
9C0C
330
991E
100
AcDbEntity
  8
1
  6
Continuous
100
AcDbCircle
 10
458.93392
 20
87.37654499999996
 30
0.0
 40
5.861699999999999
100
AcDbArc
 50
349.8959999999998
 51
352.2069999999998
  0
ARC
  5
9C0D
330
991E
100
AcDbEntity
  8
1
  6
Continuous
100
AcDbCircle
 10
464.69292
 20
86.58854499999998
 30
0.0
 40
0.04927
100
AcDbArc
 50
352.2069999999998
 51
90.0
  0
LINE
  5
9C0E
330
991E
100
AcDbEntity
  8
1
  6
Continuous
100
AcDbLine
 10
461.68092
 20
86.14454499999999
 30
0.0
 11
463.0719199999998
 21
86.14454499999999
 31
0.0
  0
LINE
  5
9C0F
330
991E
100
AcDbEntity
  8
1
  6
Continuous
100
AcDbLine
 10
463.0719199999998
 20
84.91354499999998
 30
0.0
 11
461.88992
 21
84.91354499999998
 31
0.0
  0
ARC
  5
9C10
330
991E
100
AcDbEntity
  8
1
  6
Continuous
100
AcDbCircle
 10
463.0719199999998
 20
84.42054499999997
 30
0.0
 40
1.269449999999998
100
AcDbArc
 50
215.5379999999999
 51
225.699
  0
ARC
  5
9C11
330
991E
100
AcDbEntity
  8
1
  6
Continuous
100
AcDbCircle
 10
461.68092
 20
86.39154499999998
 30
0.0
 40
0.24635
100
AcDbArc
 50
190.1039999999999
 51
270.0
  0
ARC
  5
9C12
330
991E
100
AcDbEntity
  8
1
  6
Continuous
100
AcDbCircle
 10
461.44992
 20
86.58854499999998
 30
0.0
 40
0.04927
100
AcDbArc
 50
90.0
 51
187.793
  0
ARC
  5
9C13
330
991E
100
AcDbEntity
  8
1
  6
Continuous
100
AcDbCircle
 10
467.20892
 20
87.37654499999996
 30
0.0
 40
5.861699999999999
100
AcDbArc
 50
187.793
 51
190.1039999999999
  0
LINE
  5
9C14
330
991E
100
AcDbEntity
  8
1
  6
Continuous
100
AcDbLine
 10
463.0719199999998
 20
86.14454499999999
 30
0.0
 11
463.0719199999998
 21
86.39154499999998
 31
0.0
  0
LINE
  5
9C15
330
991E
100
AcDbEntity
  8
1
  6
Continuous
100
AcDbLine
 10
463.0719199999998
 20
83.151545
 30
0.0
 11
463.0719199999998
 21
84.16954500000001
 31
0.0
  0
ARC
  5
9C16
330
991E
100
AcDbEntity
  8
1
  6
Continuous
100
AcDbCircle
 10
463.3179199999998
 20
84.91354499999998
 30
0.0
 40
0.24635
100
AcDbArc
 50
90.0
 51
270.0
  0
ARC
  5
9C17
330
991E
100
AcDbEntity
  8
1
  6
Continuous
100
AcDbCircle
 10
463.0719199999998
 20
84.42054499999997
 30
0.0
 40
1.269449999999998
100
AcDbArc
 50
242.2499999999998
 51
324.4619999999998
  0
LINE
  5
9C18
330
991E
100
AcDbEntity
  8
1
  6
Continuous
100
AcDbLine
 10
464.78992
 20
87.12954499999998
 30
0.0
 11
461.35292
 21
87.12954499999998
 31
0.0
  0
LINE
  5
9C19
330
991E
100
AcDbEntity
  8
1
  6
Continuous
100
AcDbLine
 10
464.69292
 20
86.63754500000001
 30
0.0
 11
461.44992
 21
86.63754500000001
 31
0.0
  0
LINE
  5
9C1A
330
991E
100
AcDbEntity
  8
1
  6
Continuous
100
AcDbLine
 10
464.69092
 20
85.65254499999998
 30
0.0
 11
461.60692
 21
85.65254499999998
 31
0.0
  0
LINE
  5
9C1B
330
991E
100
AcDbEntity
  8
1
  6
Continuous
100
AcDbLine
 10
462.14992
 20
84.416545
 30
0.0
 11
464.2259199999998
 21
83.85954499999998
 31
0.0
  0
LINE
  5
9C1C
330
991E
100
AcDbEntity
  8
1
  6
Continuous
100
AcDbLine
 10
463.6629199999998
 20
86.14454499999999
 30
0.0
 11
464.46192
 21
86.14454499999999
 31
0.0
  0
LINE
  5
9C1D
330
991E
100
AcDbEntity
  8
1
  6
Continuous
100
AcDbLine
 10
464.4589199999998
 20
85.15954499999997
 30
0.0
 11
463.3179199999998
 21
85.15954499999997
 31
0.0
  0
LINE
  5
9C1E
330
991E
100
AcDbEntity
  8
1
  6
Continuous
100
AcDbLine
 10
463.3179199999998
 20
84.66754499999998
 30
0.0
 11
464.3699199999998
 21
84.66754499999998
 31
0.0
  0
LINE
  5
9C1F
330
991E
100
AcDbEntity
  8
1
  6
Continuous
100
AcDbLine
 10
464.925295
 20
44.826359
 30
0.0
 11
456.200346
 21
44.826359
 31
0.0
  0
LINE
  5
9C20
330
991E
100
AcDbEntity
  8
1
  6
Continuous
100
AcDbLine
 10
453.371919
 20
46.826359
 30
0.0
 11
452.7553199999998
 21
46.826359
 31
0.0
  0
ARC
  5
9C21
330
991E
100
AcDbEntity
  8
1
  6
Continuous
100
AcDbCircle
 10
456.200346
 20
46.826359
 30
0.0
 40
2.0
100
AcDbArc
 50
183.5434709999999
 51
270.0
  0
ARC
  5
9C22
330
991E
100
AcDbEntity
  8
1
  6
Continuous
100
AcDbCircle
 10
464.925295
 20
46.826359
 30
0.0
 40
2.0
100
AcDbArc
 50
270.0
 51
356.4565289999999
  0
ARC
  5
9C23
330
991E
100
AcDbEntity
  8
1
  6
Continuous
100
AcDbCircle
 10
453.371919
 20
45.82635899999998
 30
0.0
 40
1.0
100
AcDbArc
 50
19.47122099999998
 51
90.0
  0
ARC
  5
9C24
330
991E
100
AcDbEntity
  8
1
  6
Continuous
100
AcDbCircle
 10
467.7537219999998
 20
45.82635899999998
 30
0.0
 40
1.0
100
AcDbArc
 50
90.0
 51
160.528779
  0
LINE
  5
9C25
330
991E
100
AcDbEntity
  8
1
  6
Continuous
100
AcDbLine
 10
340.7183199999999
 20
283.6003589999999
 30
0.0
 11
342.1183199999999
 21
283.6003589999999
 31
0.0
  0
LINE
  5
9C26
330
991E
100
AcDbEntity
  8
1
  6
Continuous
100
AcDbLine
 10
340.7183199999999
 20
248.600359
 30
0.0
 11
342.1183199999999
 21
248.600359
 31
0.0
  0
LINE
  5
9C27
330
991E
100
AcDbEntity
  8
1
  6
Continuous
100
AcDbLine
 10
340.7183199999999
 20
283.6003589999999
 30
0.0
 11
340.7183199999999
 21
248.600359
 31
0.0
  0
LWPOLYLINE
  5
9C28
330
991E
100
AcDbEntity
  8
1
  6
Continuous
100
AcDbPolyline
 90
        2
 70
     0
 43
0.0508
 10
340.4183199999998
 20
272.859889
 10
340.7183199999999
 20
272.559889
  0
LWPOLYLINE
  5
9C2C
330
991E
100
AcDbEntity
  8
1
  6
Continuous
100
AcDbPolyline
 90
        2
 70
     0
 43
0.0508
 10
340.4183199999998
 20
272.859889
 10
340.7183199999999
 20
273.159889
  0
LINE
  5
9C30
330
991E
100
AcDbEntity
  8
1
  6
Continuous
100
AcDbLine
 10
340.4183199999998
 20
277.0375089999999
 30
0.0
 11
340.7183199999999
 21
278.1956589999999
 31
0.0
  0
LINE
  5
9C31
330
991E
100
AcDbEntity
  8
1
  6
Continuous
100
AcDbLine
 10
340.7183199999999
 20
277.0375089999999
 30
0.0
 11
340.4183199999998
 21
277.0375089999999
 31
0.0
  0
LINE
  5
9C32
330
991E
100
AcDbEntity
  8
1
  6
Continuous
100
AcDbLine
 10
340.4183199999998
 20
266.110389
 30
0.0
 11
340.7183199999999
 21
265.810389
 31
0.0
  0
LINE
  5
9C33
330
991E
100
AcDbEntity
  8
1
  6
Continuous
100
AcDbLine
 10
340.4183199999998
 20
259.3408489999999
 30
0.0
 11
340.7183199999999
 21
259.6408589999999
 31
0.0
  0
LINE
  5
9C34
330
991E
100
AcDbEntity
  8
1
  6
Continuous
100
AcDbLine
 10
340.4183199999998
 20
259.3408489999999
 30
0.0
 11
340.7183199999999
 21
259.0408489999999
 31
0.0
  0
LINE
  5
9C35
330
991E
100
AcDbEntity
  8
1
  6
Continuous
100
AcDbLine
 10
340.7183199999999
 20
255.163209
 30
0.0
 11
340.4183199999998
 21
255.163209
 31
0.0
  0
LINE
  5
9C36
330
991E
100
AcDbEntity
  8
1
  6
Continuous
100
AcDbLine
 10
340.4183199999998
 20
255.163209
 30
0.0
 11
340.7183199999999
 21
254.0050589999999
 31
0.0
  0
LINE
  5
9C37
330
991E
100
AcDbEntity
  8
1
  6
Continuous
100
AcDbLine
 10
340.4183199999998
 20
266.110389
 30
0.0
 11
340.7183199999999
 21
266.410389
 31
0.0
  0
LINE
  5
9C38
330
991E
100
AcDbEntity
  8
1
  6
Continuous
100
AcDbLine
 10
342.1183199999999
 20
283.6003589999999
 30
0.0
 11
342.1183199999999
 21
248.600359
 31
0.0
  0
LWPOLYLINE
  5
9C39
330
991E
100
AcDbEntity
  8
1
  6
Continuous
100
AcDbPolyline
 90
        2
 70
     0
 43
0.0508
 10
342.1183199999999
 20
273.159889
 10
342.4183199999998
 20
272.859889
  0
LWPOLYLINE
  5
9C3D
330
991E
100
AcDbEntity
  8
1
  6
Continuous
100
AcDbPolyline
 90
        2
 70
     0
 43
0.0508
 10
342.4183199999998
 20
272.859889
 10
342.1183199999999
 20
272.559889
  0
LINE
  5
9C41
330
991E
100
AcDbEntity
  8
1
  6
Continuous
100
AcDbLine
 10
342.4183199999998
 20
277.0375089999999
 30
0.0
 11
342.1183199999999
 21
278.1956589999999
 31
0.0
  0
LINE
  5
9C42
330
991E
100
AcDbEntity
  8
1
  6
Continuous
100
AcDbLine
 10
342.1183199999999
 20
277.0375089999999
 30
0.0
 11
342.4183199999998
 21
277.0375089999999
 31
0.0
  0
LINE
  5
9C43
330
991E
100
AcDbEntity
  8
1
  6
Continuous
100
AcDbLine
 10
342.4183199999998
 20
266.090309
 30
0.0
 11
342.1183199999999
 21
265.790309
 31
0.0
  0
LINE
  5
9C44
330
991E
100
AcDbEntity
  8
1
  6
Continuous
100
AcDbLine
 10
342.1183199999999
 20
259.0408489999999
 30
0.0
 11
342.4183199999998
 21
259.3408489999999
 31
0.0
  0
LINE
  5
9C45
330
991E
100
AcDbEntity
  8
1
  6
Continuous
100
AcDbLine
 10
342.4183199999998
 20
259.3408489999999
 30
0.0
 11
342.1183199999999
 21
259.6408589999999
 31
0.0
  0
LINE
  5
9C46
330
991E
100
AcDbEntity
  8
1
  6
Continuous
100
AcDbLine
 10
342.1183199999999
 20
255.163209
 30
0.0
 11
342.4183199999998
 21
255.163209
 31
0.0
  0
LINE
  5
9C47
330
991E
100
AcDbEntity
  8
1
  6
Continuous
100
AcDbLine
 10
342.4183199999998
 20
255.163209
 30
0.0
 11
342.1183199999999
 21
254.0050589999999
 31
0.0
  0
LINE
  5
9C48
330
991E
100
AcDbEntity
  8
1
  6
Continuous
100
AcDbLine
 10
342.1183199999999
 20
266.390309
 30
0.0
 11
342.4183199999998
 21
266.090309
 31
0.0
  0
LINE
  5
9C49
330
991E
100
AcDbEntity
  8
1
  6
Continuous
100
AcDbLine
 10
340.7183199999999
 20
178.3263589999999
 30
0.0
 11
340.7183199999999
 21
143.3263589999999
 31
0.0
  0
LINE
  5
9C4A
330
991E
100
AcDbEntity
  8
1
  6
Continuous
100
AcDbLine
 10
342.1183199999999
 20
178.3263589999999
 30
0.0
 11
342.1183199999999
 21
143.3263589999999
 31
0.0
  0
LINE
  5
9C4B
330
991E
100
AcDbEntity
  8
1
  6
Continuous
100
AcDbLine
 10
340.4183199999998
 20
154.0668489999999
 30
0.0
 11
340.7183199999999
 21
154.366859
 31
0.0
  0
LINE
  5
9C4C
330
991E
100
AcDbEntity
  8
1
  6
Continuous
100
AcDbLine
 10
340.4183199999998
 20
154.0668489999999
 30
0.0
 11
340.7183199999999
 21
153.766849
 31
0.0
  0
LINE
  5
9C4D
330
991E
100
AcDbEntity
  8
1
  6
Continuous
100
AcDbLine
 10
340.7183199999999
 20
149.889209
 30
0.0
 11
340.4183199999998
 21
149.889209
 31
0.0
  0
LINE
  5
9C4E
330
991E
100
AcDbEntity
  8
1
  6
Continuous
100
AcDbLine
 10
340.4183199999998
 20
149.889209
 30
0.0
 11
340.7183199999999
 21
148.7310589999999
 31
0.0
  0
LINE
  5
9C4F
330
991E
100
AcDbEntity
  8
1
  6
Continuous
100
AcDbLine
 10
342.1183199999999
 20
153.766849
 30
0.0
 11
342.4183199999998
 21
154.0668489999999
 31
0.0
  0
LINE
  5
9C50
330
991E
100
AcDbEntity
  8
1
  6
Continuous
100
AcDbLine
 10
342.4183199999998
 20
154.0668489999999
 30
0.0
 11
342.1183199999999
 21
154.366859
 31
0.0
  0
LINE
  5
9C51
330
991E
100
AcDbEntity
  8
1
  6
Continuous
100
AcDbLine
 10
342.1183199999999
 20
149.889209
 30
0.0
 11
342.4183199999998
 21
149.889209
 31
0.0
  0
LINE
  5
9C52
330
991E
100
AcDbEntity
  8
1
  6
Continuous
100
AcDbLine
 10
342.4183199999998
 20
149.889209
 30
0.0
 11
342.1183199999999
 21
148.7310589999999
 31
0.0
  0
LINE
  5
9C53
330
991E
100
AcDbEntity
  8
1
  6
Continuous
100
AcDbLine
 10
340.7183199999999
 20
143.3263589999999
 30
0.0
 11
342.1183199999999
 21
143.3263589999999
 31
0.0
  0
LINE
  5
9C54
330
991E
100
AcDbEntity
  8
1
  6
Continuous
100
AcDbLine
 10
340.7183199999999
 20
178.3263589999999
 30
0.0
 11
342.1183199999999
 21
178.3263589999999
 31
0.0
  0
LWPOLYLINE
  5
9C55
330
991E
100
AcDbEntity
  8
1
  6
Continuous
100
AcDbPolyline
 90
        2
 70
     0
 43
0.0508
 10
340.4183199999998
 20
167.5858889999998
 10
340.7183199999999
 20
167.285889
  0
LWPOLYLINE
  5
9C59
330
991E
100
AcDbEntity
  8
1
  6
Continuous
100
AcDbPolyline
 90
        2
 70
     0
 43
0.0508
 10
340.4183199999998
 20
167.5858889999998
 10
340.7183199999999
 20
167.8858889999998
  0
LINE
  5
9C5D
330
991E
100
AcDbEntity
  8
1
  6
Continuous
100
AcDbLine
 10
340.4183199999998
 20
171.7635089999999
 30
0.0
 11
340.7183199999999
 21
172.921659
 31
0.0
  0
LINE
  5
9C5E
330
991E
100
AcDbEntity
  8
1
  6
Continuous
100
AcDbLine
 10
340.7183199999999
 20
171.7635089999999
 30
0.0
 11
340.4183199999998
 21
171.7635089999999
 31
0.0
  0
LWPOLYLINE
  5
9C5F
330
991E
100
AcDbEntity
  8
1
  6
Continuous
100
AcDbPolyline
 90
        2
 70
     0
 43
0.0508
 10
342.1183199999999
 20
167.8858889999998
 10
342.4183199999998
 20
167.5858889999998
  0
LWPOLYLINE
  5
9C63
330
991E
100
AcDbEntity
  8
1
  6
Continuous
100
AcDbPolyline
 90
        2
 70
     0
 43
0.0508
 10
342.4183199999998
 20
167.5858889999998
 10
342.1183199999999
 20
167.285889
  0
LINE
  5
9C67
330
991E
100
AcDbEntity
  8
1
  6
Continuous
100
AcDbLine
 10
342.4183199999998
 20
171.7635089999999
 30
0.0
 11
342.1183199999999
 21
172.921659
 31
0.0
  0
LINE
  5
9C68
330
991E
100
AcDbEntity
  8
1
  6
Continuous
100
AcDbLine
 10
342.1183199999999
 20
171.7635089999999
 30
0.0
 11
342.4183199999998
 21
171.7635089999999
 31
0.0
  0
LINE
  5
9C69
330
991E
100
AcDbEntity
  8
1
  6
Continuous
100
AcDbLine
 10
340.4183199999998
 20
160.8363889999999
 30
0.0
 11
340.7183199999999
 21
160.5363889999999
 31
0.0
  0
LINE
  5
9C6A
330
991E
100
AcDbEntity
  8
1
  6
Continuous
100
AcDbLine
 10
340.4183199999998
 20
160.8363889999999
 30
0.0
 11
340.7183199999999
 21
161.1363889999998
 31
0.0
  0
LINE
  5
9C6B
330
991E
100
AcDbEntity
  8
1
  6
Continuous
100
AcDbLine
 10
342.4183199999998
 20
160.8163089999999
 30
0.0
 11
342.1183199999999
 21
160.516309
 31
0.0
  0
LINE
  5
9C6C
330
991E
100
AcDbEntity
  8
1
  6
Continuous
100
AcDbLine
 10
342.1183199999999
 20
161.1163089999998
 30
0.0
 11
342.4183199999998
 21
160.8163089999999
 31
0.0
  0
ENDSEC
  0
SECTION
  2
OBJECTS
  0
DICTIONARY
  5
990C
330
0
100
AcDbDictionary
281
     1
  3
ACAD_CIP_PREVIOUS_PRODUCT_INFO
350
9CD2
  3
ACAD_COLOR
350
9CB4
  3
ACAD_DETAILVIEWSTYLE
350
9CCD
  3
ACAD_GROUP
350
990D
  3
ACAD_LAYOUT
350
9919
  3
ACAD_MATERIAL
350
9C82
  3
ACAD_MLEADERSTYLE
350
9CC9
  3
ACAD_MLINESTYLE
350
9916
  3
ACAD_PLOTSETTINGS
350
9918
  3
ACAD_PLOTSTYLENAME
350
9C80
  3
ACAD_SCALELIST
350
9CB7
  3
ACAD_SECTIONVIEWSTYLE
350
9CCB
  3
ACAD_TABLESTYLE
350
9CB5
  3
ACAD_VISUALSTYLE
350
9C9B
  3
ACDB_RECOMPOSE_DATA
350
9CF0
  3
AcDbVariableDictionary
350
9CE3
  3
DWGPROPS
350
9CF1
  0
DICTIONARY
  5
9CD3
330
9910
100
AcDbDictionary
280
     1
281
     1
  3
ADSK_XREC_LAYER_RECONCILED
360
9CD4
  0
DICTIONARY
  5
9CD5
330
9926
100
AcDbDictionary
280
     1
281
     1
  3
ADSK_XREC_LAYER_RECONCILED
360
9CD6
  0
DICTIONARY
  5
9CD7
330
9927
100
AcDbDictionary
280
     1
281
     1
  3
ADSK_XREC_LAYER_RECONCILED
360
9CD8
  0
DICTIONARY
  5
9CD9
330
9928
100
AcDbDictionary
280
     1
281
     1
  3
ADSK_XREC_LAYER_RECONCILED
360
9CDA
  0
DICTIONARY
  5
9CDB
330
9929
100
AcDbDictionary
280
     1
281
     1
  3
ADSK_XREC_LAYER_RECONCILED
360
9CDC
  0
DICTIONARY
  5
9CDD
330
992A
100
AcDbDictionary
280
     1
281
     1
  3
ADSK_XREC_LAYER_RECONCILED
360
9CDE
  0
DICTIONARY
  5
9CDF
330
992B
100
AcDbDictionary
280
     1
281
     1
  3
ADSK_XREC_LAYER_RECONCILED
360
9CE0
  0
DICTIONARY
  5
9CE1
330
992C
100
AcDbDictionary
280
     1
281
     1
  3
ADSK_XREC_LAYER_RECONCILED
360
9CE2
  0
DICTIONARY
  5
9C7B
330
991E
100
AcDbDictionary
281
     1
  3
ACAD_LAYOUTSELFREF
350
9C7C
  0
DICTIONARY
  5
9C79
330
991A
100
AcDbDictionary
281
     1
  3
ACAD_LAYOUTSELFREF
350
9C7A
  0
XRECORD
  5
9CD2
102
{ACAD_REACTORS
330
990C
102
}
330
990C
100
AcDbXrecord
280
     1
300
ACDLT
300
2014
300
ACDLT_F_S
  0
DICTIONARY
  5
9CB4
102
{ACAD_REACTORS
330
990C
102
}
330
990C
100
AcDbDictionary
281
     1
  0
DICTIONARY
  5
9CCD
102
{ACAD_REACTORS
330
990C
102
}
330
990C
100
AcDbDictionary
281
     1
  3
Imperial24
350
9CCE
  0
DICTIONARY
  5
990D
102
{ACAD_REACTORS
330
990C
102
}
330
990C
100
AcDbDictionary
281
     1
  0
DICTIONARY
  5
9919
102
{ACAD_REACTORS
330
990C
102
}
330
990C
100
AcDbDictionary
281
     1
  3
Model
350
9CCF
  3
レイアウト1
350
9CD0
  0
DICTIONARY
  5
9C82
102
{ACAD_REACTORS
330
990C
102
}
330
990C
100
AcDbDictionary
281
     1
  3
ByBlock
350
9C8B
  3
ByLayer
350
9C83
  3
Global
350
9C93
  0
DICTIONARY
  5
9CC9
102
{ACAD_REACTORS
330
990C
102
}
330
990C
100
AcDbDictionary
281
     1
  3
Standard
350
9CCA
  0
DICTIONARY
  5
9916
102
{ACAD_REACTORS
330
990C
102
}
330
990C
100
AcDbDictionary
281
     1
  3
STANDARD
350
9917
  0
DICTIONARY
  5
9918
102
{ACAD_REACTORS
330
990C
102
}
330
990C
100
AcDbDictionary
281
     1
  0
ACDBDICTIONARYWDFLT
  5
9C80
102
{ACAD_REACTORS
330
990C
102
}
330
990C
100
AcDbDictionary
281
     1
  3
Normal
350
9C81
100
AcDbDictionaryWithDefault
340
9C81
  0
DICTIONARY
  5
9CB7
102
{ACAD_REACTORS
330
990C
102
}
330
990C
100
AcDbDictionary
281
     1
  3
A0
350
9CB8
  3
A1
350
9CB9
  3
A2
350
9CBA
  3
A3
350
9CBB
  3
A4
350
9CBC
  3
A5
350
9CBD
  3
A6
350
9CBE
  3
A7
350
9CBF
  3
A8
350
9CC0
  3
A9
350
9CC1
  3
B0
350
9CC2
  3
B1
350
9CC3
  3
B2
350
9CC4
  3
B3
350
9CC5
  3
B4
350
9CC6
  3
B5
350
9CC7
  3
B6
350
9CC8
  0
DICTIONARY
  5
9CCB
102
{ACAD_REACTORS
330
990C
102
}
330
990C
100
AcDbDictionary
281
     1
  3
Imperial24
350
9CCC
  0
DICTIONARY
  5
9CB5
102
{ACAD_REACTORS
330
990C
102
}
330
990C
100
AcDbDictionary
281
     1
  3
Standard
350
9CB6
  0
DICTIONARY
  5
9C9B
102
{ACAD_REACTORS
330
990C
102
}
330
990C
100
AcDbDictionary
281
     1
  3
2dWireframe
350
9CA1
  3
Basic
350
9CA0
  3
Brighten
350
9CA7
  3
ColorChange
350
9CAB
  3
Conceptual
350
9CA4
  3
Dim
350
9CA6
  3
EdgeColorOff
350
9CB3
  3
Facepattern
350
9CAA
  3
Flat
350
9C9C
  3
FlatWithEdges
350
9C9D
  3
Gouraud
350
9C9E
  3
GouraudWithEdges
350
9C9F
  3
Hidden
350
9CA3
  3
JitterOff
350
9CB1
  3
Linepattern
350
9CA9
  3
OverhangOff
350
9CB2
  3
Realistic
350
9CA5
  3
Shaded
350
9CB0
  3
Shaded with edges
350
9CAF
  3
Shades of Gray
350
9CAC
  3
Sketchy
350
9CAD
  3
Thicken
350
9CA8
  3
Wireframe
350
9CA2
  3
X-Ray
350
9CAE
  0
XRECORD
  5
9CF0
102
{ACAD_REACTORS
330
990C
102
}
330
990C
100
AcDbXrecord
280
     1
 90
        1
330
9CB6
  0
DICTIONARY
  5
9CE3
102
{ACAD_REACTORS
330
990C
102
}
330
990C
100
AcDbDictionary
281
     1
  3
CANNOSCALE
350
9CE8
  3
CMLEADERSTYLE
350
9CE5
  3
CTABLESTYLE
350
9CE4
  3
CVIEWDETAILSTYLE
350
9CE6
  3
CVIEWSECTIONSTYLE
350
9CE7
  3
DIMASSOC
350
9CEB
  3
INDEXCTL
350
9CEA
  3
SORTENTS
350
9CE9
  3
XCLIPFRAME
350
9CEC
  0
XRECORD
  5
9CF1
102
{ACAD_REACTORS
330
990C
102
}
330
990C
100
AcDbXrecord
280
     1
  1
DWGPROPS COOKIE
  2

  3

  4

  6

  7

  8
Yoshitsune
  9

300
=
301
=
302
=
303
=
304
=
305
=
306
=
307
=
308
=
309
=
 40
0.0000168055555556
 41
2450737.497597569
 42
2457192.640447245
  1

 90
        0
  0
XRECORD
  5
9CD4
102
{ACAD_REACTORS
330
9CD3
102
}
330
9CD3
100
AcDbXrecord
280
     1
290
     1
  0
XRECORD
  5
9CD6
102
{ACAD_REACTORS
330
9CD5
102
}
330
9CD5
100
AcDbXrecord
280
     1
290
     1
  0
XRECORD
  5
9CD8
102
{ACAD_REACTORS
330
9CD7
102
}
330
9CD7
100
AcDbXrecord
280
     1
290
     1
  0
XRECORD
  5
9CDA
102
{ACAD_REACTORS
330
9CD9
102
}
330
9CD9
100
AcDbXrecord
280
     1
290
     1
  0
XRECORD
  5
9CDC
102
{ACAD_REACTORS
330
9CDB
102
}
330
9CDB
100
AcDbXrecord
280
     1
290
     1
  0
XRECORD
  5
9CDE
102
{ACAD_REACTORS
330
9CDD
102
}
330
9CDD
100
AcDbXrecord
280
     1
290
     1
  0
XRECORD
  5
9CE0
102
{ACAD_REACTORS
330
9CDF
102
}
330
9CDF
100
AcDbXrecord
280
     1
290
     1
  0
XRECORD
  5
9CE2
102
{ACAD_REACTORS
330
9CE1
102
}
330
9CE1
100
AcDbXrecord
280
     1
290
     1
  0
XRECORD
  5
9C7C
102
{ACAD_REACTORS
330
9C7B
102
}
330
9C7B
100
AcDbXrecord
280
     1
340
991E
  0
XRECORD
  5
9C7A
102
{ACAD_REACTORS
330
9C79
102
}
330
9C79
100
AcDbXrecord
280
     1
340
991A
  0
ACDBDETAILVIEWSTYLE
  5
9CCE
102
{ACAD_XDICTIONARY
360
9D29
102
}
102
{ACAD_REACTORS
330
9CCD
102
}
330
9CCD
100
AcDbModelDocViewStyle
 70
     0
  3
Imperial24
290
     0
100
AcDbDetailViewStyle
 70
     0
 71
     0
 90
        3
 71
     1
340
9911
 40
0.24
340
0
 40
0.24
300

 40
0.36
280
     3
 71
     2
340
9915
 90
       25
 71
     3
340
9911
 40
0.24
 90
        1
 40
0.75
 90
        1
300
%<\AcVar ViewType \f "%tc1">% %<\AcVar ViewDetailId>%\PSCALE %<\AcVar ViewScale \f "%sn">%
 71
     4
340
9915
 90
       25
340
9915
 90
       25
280
     0
  0
LAYOUT
  5
9CCF
102
{ACAD_XDICTIONARY
360
9D2B
102
}
102
{ACAD_REACTORS
330
9919
102
}
330
9919
100
AcDbPlotSettings
  1

  2
Canon LBP9100C
  4

  6

 40
0.0
 41
0.0
 42
0.0
 43
0.0
 44
0.0
 45
0.0
 46
0.0
 47
0.0
 48
0.0
 49
0.0
140
0.0
141
0.0
142
1.0
143
1.0
 70
  1712
 72
     0
 73
     0
 74
     0
  7

 75
     0
147
1.0
148
0.0
149
0.0
100
AcDbLayout
  1
Model
 70
     1
 71
     0
 10
0.0
 20
0.0
 11
12.0
 21
9.0
 12
0.0
 22
0.0
 32
0.0
 14
0.0
 24
0.0
 34
0.0
 15
0.0
 25
0.0
 35
0.0
146
0.0
 13
0.0
 23
0.0
 33
0.0
 16
1.0
 26
0.0
 36
0.0
 17
0.0
 27
1.0
 37
0.0
 76
     0
330
991E
331
9C78
  0
LAYOUT
  5
9CD0
102
{ACAD_XDICTIONARY
360
9D2D
102
}
102
{ACAD_REACTORS
330
9919
102
}
330
9919
100
AcDbPlotSettings
  1

  2
Canon LBP9100C
  4

  6

 40
0.0
 41
0.0
 42
0.0
 43
0.0
 44
0.0
 45
0.0
 46
0.0
 47
0.0
 48
0.0
 49
0.0
140
0.0
141
0.0
142
1.0
143
1.0
 70
   688
 72
     0
 73
     0
 74
     5
  7

 75
    16
147
1.0
148
0.0
149
0.0
100
AcDbLayout
  1
レイアウト1
 70
     0
 71
     1
 10
0.0
 20
0.0
 11
420.0
 21
297.0
 12
0.0
 22
0.0
 32
0.0
 14
1.000000000000000E+20
 24
1.000000000000000E+20
 34
1.000000000000000E+20
 15
-1.000000000000000E+20
 25
-1.000000000000000E+20
 35
-1.000000000000000E+20
146
0.0
 13
0.0
 23
0.0
 33
0.0
 16
1.0
 26
0.0
 36
0.0
 17
0.0
 27
1.0
 37
0.0
 76
     0
330
991A
  0
MATERIAL
  5
9C8B
102
{ACAD_XDICTIONARY
360
9C8C
102
}
102
{ACAD_REACTORS
330
9C82
102
}
330
9C82
100
AcDbMaterial
  1
ByBlock
 72
     0
 43
0.0208333333333333
 43
0.0
 43
0.0
 43
0.0
 43
0.0
 43
0.0208333333333333
 43
0.0
 43
0.0
 43
0.0
 43
0.0
 43
1.0
 43
0.0
 43
0.0
 43
0.0
 43
0.0
 43
1.0
 77
     0
 47
0.0208333333333333
 47
0.0
 47
0.0
 47
0.0
 47
0.0
 47
0.0208333333333333
 47
0.0
 47
0.0
 47
0.0
 47
0.0
 47
1.0
 47
0.0
 47
0.0
 47
0.0
 47
0.0
 47
1.0
171
     0
 49
0.0208333333333333
 49
0.0
 49
0.0
 49
0.0
 49
0.0
 49
0.0208333333333333
 49
0.0
 49
0.0
 49
0.0
 49
0.0
 49
1.0
 49
0.0
 49
0.0
 49
0.0
 49
0.0
 49
1.0
175
     0
142
0.0208333333333333
142
0.0
142
0.0
142
0.0
142
0.0
142
0.0208333333333333
142
0.0
142
0.0
142
0.0
142
0.0
142
1.0
142
0.0
142
0.0
142
0.0
142
0.0
142
1.0
179
     0
144
0.0208333333333333
144
0.0
144
0.0
144
0.0
144
0.0
144
0.0208333333333333
144
0.0
144
0.0
144
0.0
144
0.0
144
1.0
144
0.0
144
0.0
144
0.0
144
0.0
144
1.0
147
0.0208333333333333
147
0.0
147
0.0
147
0.0
147
0.0
147
0.0208333333333333
147
0.0
147
0.0
147
0.0
147
0.0
147
1.0
147
0.0
147
0.0
147
0.0
147
0.0
147
1.0
  0
MATERIAL
  5
9C83
102
{ACAD_XDICTIONARY
360
9C84
102
}
102
{ACAD_REACTORS
330
9C82
102
}
330
9C82
100
AcDbMaterial
  1
ByLayer
 72
     0
 43
0.0208333333333333
 43
0.0
 43
0.0
 43
0.0
 43
0.0
 43
0.0208333333333333
 43
0.0
 43
0.0
 43
0.0
 43
0.0
 43
1.0
 43
0.0
 43
0.0
 43
0.0
 43
0.0
 43
1.0
 77
     0
 47
0.0208333333333333
 47
0.0
 47
0.0
 47
0.0
 47
0.0
 47
0.0208333333333333
 47
0.0
 47
0.0
 47
0.0
 47
0.0
 47
1.0
 47
0.0
 47
0.0
 47
0.0
 47
0.0
 47
1.0
171
     0
 49
0.0208333333333333
 49
0.0
 49
0.0
 49
0.0
 49
0.0
 49
0.0208333333333333
 49
0.0
 49
0.0
 49
0.0
 49
0.0
 49
1.0
 49
0.0
 49
0.0
 49
0.0
 49
0.0
 49
1.0
175
     0
142
0.0208333333333333
142
0.0
142
0.0
142
0.0
142
0.0
142
0.0208333333333333
142
0.0
142
0.0
142
0.0
142
0.0
142
1.0
142
0.0
142
0.0
142
0.0
142
0.0
142
1.0
179
     0
144
0.0208333333333333
144
0.0
144
0.0
144
0.0
144
0.0
144
0.0208333333333333
144
0.0
144
0.0
144
0.0
144
0.0
144
1.0
144
0.0
144
0.0
144
0.0
144
0.0
144
1.0
147
0.0208333333333333
147
0.0
147
0.0
147
0.0
147
0.0
147
0.0208333333333333
147
0.0
147
0.0
147
0.0
147
0.0
147
1.0
147
0.0
147
0.0
147
0.0
147
0.0
147
1.0
  0
MATERIAL
  5
9C93
102
{ACAD_XDICTIONARY
360
9C94
102
}
102
{ACAD_REACTORS
330
9C82
102
}
330
9C82
100
AcDbMaterial
  1
Global
 72
     0
 43
0.0208333333333333
 43
0.0
 43
0.0
 43
0.0
 43
0.0
 43
0.0208333333333333
 43
0.0
 43
0.0
 43
0.0
 43
0.0
 43
1.0
 43
0.0
 43
0.0
 43
0.0
 43
0.0
 43
1.0
 77
     0
 47
0.0208333333333333
 47
0.0
 47
0.0
 47
0.0
 47
0.0
 47
0.0208333333333333
 47
0.0
 47
0.0
 47
0.0
 47
0.0
 47
1.0
 47
0.0
 47
0.0
 47
0.0
 47
0.0
 47
1.0
171
     0
 49
0.0208333333333333
 49
0.0
 49
0.0
 49
0.0
 49
0.0
 49
0.0208333333333333
 49
0.0
 49
0.0
 49
0.0
 49
0.0
 49
1.0
 49
0.0
 49
0.0
 49
0.0
 49
0.0
 49
1.0
175
     0
142
0.0208333333333333
142
0.0
142
0.0
142
0.0
142
0.0
142
0.0208333333333333
142
0.0
142
0.0
142
0.0
142
0.0
142
1.0
142
0.0
142
0.0
142
0.0
142
0.0
142
1.0
179
     0
144
0.0208333333333333
144
0.0
144
0.0
144
0.0
144
0.0
144
0.0208333333333333
144
0.0
144
0.0
144
0.0
144
0.0
144
1.0
144
0.0
144
0.0
144
0.0
144
0.0
144
1.0
147
0.0208333333333333
147
0.0
147
0.0
147
0.0
147
0.0
147
0.0208333333333333
147
0.0
147
0.0
147
0.0
147
0.0
147
1.0
147
0.0
147
0.0
147
0.0
147
0.0
147
1.0
  0
MLEADERSTYLE
  5
9CCA
102
{ACAD_REACTORS
330
9CC9
102
}
330
9CC9
100
AcDbMLeaderStyle
170
     2
171
     1
172
     0
 90
        2
 40
0.0
 41
0.0
173
     1
 91
-1056964608
340
9913
 92
       -2
290
     1
 42
0.09
291
     1
 43
0.36
  3
Standard
 44
0.18
300

342
9911
174
     1
178
     6
175
     1
176
     0
 93
-1056964608
 45
0.18
292
     0
297
     0
 46
0.18
 94
-1056964608
 47
1.0
 49
1.0
140
1.0
293
     1
141
0.0
294
     1
177
     0
142
1.0
295
     0
296
     0
143
0.125
1001
ACAD_MLEADERVER
1070
     2
  0
MLINESTYLE
  5
9917
102
{ACAD_REACTORS
330
9916
102
}
330
9916
100
AcDbMlineStyle
  2
STANDARD
 70
     0
  3

 62
   256
 51
90.0
 52
90.0
 71
     2
 49
0.5
 62
   256
  6
BYLAYER
 49
-0.5
 62
   256
  6
BYLAYER
  0
ACDBPLACEHOLDER
  5
9C81
102
{ACAD_REACTORS
330
9C80
102
}
330
9C80
  0
SCALE
  5
9CB8
102
{ACAD_REACTORS
330
9CB7
102
}
330
9CB7
100
AcDbScale
 70
     0
300
1:1
140
1.0
141
1.0
290
     1
  0
SCALE
  5
9CB9
102
{ACAD_REACTORS
330
9CB7
102
}
330
9CB7
100
AcDbScale
 70
     0
300
1/128" = 1'-0"
140
0.0078125
141
12.0
290
     0
  0
SCALE
  5
9CBA
102
{ACAD_REACTORS
330
9CB7
102
}
330
9CB7
100
AcDbScale
 70
     0
300
1/64" = 1'-0"
140
0.015625
141
12.0
290
     0
  0
SCALE
  5
9CBB
102
{ACAD_REACTORS
330
9CB7
102
}
330
9CB7
100
AcDbScale
 70
     0
300
1/32" = 1'-0"
140
0.03125
141
12.0
290
     0
  0
SCALE
  5
9CBC
102
{ACAD_REACTORS
330
9CB7
102
}
330
9CB7
100
AcDbScale
 70
     0
300
1/16" = 1'-0"
140
0.0625
141
12.0
290
     0
  0
SCALE
  5
9CBD
102
{ACAD_REACTORS
330
9CB7
102
}
330
9CB7
100
AcDbScale
 70
     0
300
3/32" = 1'-0"
140
0.09375
141
12.0
290
     0
  0
SCALE
  5
9CBE
102
{ACAD_REACTORS
330
9CB7
102
}
330
9CB7
100
AcDbScale
 70
     0
300
1/8" = 1'-0"
140
0.125
141
12.0
290
     0
  0
SCALE
  5
9CBF
102
{ACAD_REACTORS
330
9CB7
102
}
330
9CB7
100
AcDbScale
 70
     0
300
3/16" = 1'-0"
140
0.1875
141
12.0
290
     0
  0
SCALE
  5
9CC0
102
{ACAD_REACTORS
330
9CB7
102
}
330
9CB7
100
AcDbScale
 70
     0
300
1/4" = 1'-0"
140
0.25
141
12.0
290
     0
  0
SCALE
  5
9CC1
102
{ACAD_REACTORS
330
9CB7
102
}
330
9CB7
100
AcDbScale
 70
     0
300
3/8" = 1'-0"
140
0.375
141
12.0
290
     0
  0
SCALE
  5
9CC2
102
{ACAD_REACTORS
330
9CB7
102
}
330
9CB7
100
AcDbScale
 70
     0
300
1/2" = 1'-0"
140
0.5
141
12.0
290
     0
  0
SCALE
  5
9CC3
102
{ACAD_REACTORS
330
9CB7
102
}
330
9CB7
100
AcDbScale
 70
     0
300
3/4" = 1'-0"
140
0.75
141
12.0
290
     0
  0
SCALE
  5
9CC4
102
{ACAD_REACTORS
330
9CB7
102
}
330
9CB7
100
AcDbScale
 70
     0
300
1" = 1'-0"
140
1.0
141
12.0
290
     0
  0
SCALE
  5
9CC5
102
{ACAD_REACTORS
330
9CB7
102
}
330
9CB7
100
AcDbScale
 70
     0
300
1-1/2" = 1'-0"
140
1.5
141
12.0
290
     0
  0
SCALE
  5
9CC6
102
{ACAD_REACTORS
330
9CB7
102
}
330
9CB7
100
AcDbScale
 70
     0
300
3" = 1'-0"
140
3.0
141
12.0
290
     0
  0
SCALE
  5
9CC7
102
{ACAD_REACTORS
330
9CB7
102
}
330
9CB7
100
AcDbScale
 70
     0
300
6" = 1'-0"
140
6.0
141
12.0
290
     0
  0
SCALE
  5
9CC8
102
{ACAD_REACTORS
330
9CB7
102
}
330
9CB7
100
AcDbScale
 70
     0
300
1'-0" = 1'-0"
140
12.0
141
12.0
290
     0
  0
ACDBSECTIONVIEWSTYLE
  5
9CCC
102
{ACAD_XDICTIONARY
360
9D27
102
}
102
{ACAD_REACTORS
330
9CCB
102
}
330
9CCB
100
AcDbModelDocViewStyle
 70
     0
  3
Imperial24
290
     0
100
AcDbSectionViewStyle
 70
     0
 71
     0
 90
       78
 71
     1
340
9911
 40
0.24
340
0
340
0
 40
0.24
300
I, O, Q, S, X, Z
 40
0.48
 90
        3
 40
0.18
 90
        1
 71
     2
340
9915
 90
       25
340
9915
 90
       50
 40
0.24
 40
0.0
 40
0.24
 71
     3
340
9911
 40
0.24
 90
        1
 40
0.75
 90
        1
300
%<\AcVar ViewType \f "%tc1">% %<\AcVar ViewSectionStartId>%-%<\AcVar ViewSectionEndId>%\PSCALE %<\AcVar ViewScale \f "%sn">%
 71
     4
300
ANSI31
 40
1.0
 90
        0
290
     0
290
     0
 90
        6
 40
0.0
 40
1.570796326794896
 40
0.2617993877991494
 40
1.308996938995747
 40
-0.2617993877991494
 40
1.832595714594046
  0
TABLESTYLE
  5
9CB6
102
{ACAD_XDICTIONARY
360
9CEE
102
}
102
{ACAD_REACTORS
330
9CB5
102
}
330
9CB5
100
AcDbTableStyle
  3
Standard
 70
     0
 71
     0
 40
0.06
 41
0.06
280
     0
281
     0
  7
STANDARD
140
0.18
170
     2
 62
     0
 63
     7
283
     0
274
    -2
284
     1
 64
     0
275
    -2
285
     1
 65
     0
276
    -2
286
     1
 66
     0
277
    -2
287
     1
 67
     0
278
    -2
288
     1
 68
     0
279
    -2
289
     1
 69
     0
  7
STANDARD
140
0.25
170
     5
 62
     0
 63
     7
283
     0
274
    -2
284
     1
 64
     0
275
    -2
285
     1
 65
     0
276
    -2
286
     1
 66
     0
277
    -2
287
     1
 67
     0
278
    -2
288
     1
 68
     0
279
    -2
289
     1
 69
     0
  7
STANDARD
140
0.18
170
     5
 62
     0
 63
     7
283
     0
274
    -2
284
     1
 64
     0
275
    -2
285
     1
 65
     0
276
    -2
286
     1
 66
     0
277
    -2
287
     1
 67
     0
278
    -2
288
     1
 68
     0
279
    -2
289
     1
 69
     0
  0
VISUALSTYLE
  5
9CA1
102
{ACAD_XDICTIONARY
360
9CFF
102
}
102
{ACAD_REACTORS
330
9C9B
102
}
330
9C9B
100
AcDbVisualStyle
  2
2dWireframe
 70
     4
 71
     0
 72
     2
 73
     0
 90
        0
 40
-0.6
 41
-30.0
 62
     5
 63
     7
 74
     1
 91
        4
 64
     7
 65
   257
 75
     1
175
     1
 42
1.0
 92
        0
 66
   257
 43
1.0
 76
     1
 77
     6
 78
     2
 67
     7
 79
     5
170
     0
171
     0
290
     0
174
     0
 93
        1
 44
0.0
173
     0
291
     0
 45
0.0
1001
ACAD
1000
AcDbSavedByObjectVersion
1070
     0
  0
VISUALSTYLE
  5
9CA0
102
{ACAD_XDICTIONARY
360
9CFD
102
}
102
{ACAD_REACTORS
330
9C9B
102
}
330
9C9B
100
AcDbVisualStyle
  2
Basic
 70
     7
 71
     1
 72
     0
 73
     1
 90
        0
 40
-0.6
 41
-30.0
 62
     5
 63
     7
 74
     0
 91
        4
 64
     7
 65
   257
 75
     1
175
     1
 42
1.0
 92
        8
 66
     7
 43
1.0
 76
     1
 77
     6
 78
     2
 67
     7
 79
     5
170
     0
171
     0
290
     0
174
     0
 93
        1
 44
0.0
173
     0
291
     1
 45
0.0
1001
ACAD
1000
AcDbSavedByObjectVersion
1070
     0
  0
VISUALSTYLE
  5
9CA7
102
{ACAD_XDICTIONARY
360
9D0B
102
}
102
{ACAD_REACTORS
330
9C9B
102
}
330
9C9B
100
AcDbVisualStyle
  2
Brighten
 70
    12
 71
     2
 72
     2
 73
     0
 90
        0
 40
-0.6
 41
-30.0
 62
     5
 63
     7
 74
     1
 91
        4
 64
     7
 65
   257
 75
     1
175
     1
 42
1.0
 92
        8
 66
     7
 43
1.0
 76
     1
 77
     6
 78
     2
 67
     7
 79
     5
170
     0
171
     0
290
     0
174
     0
 93
        1
 44
50.0
173
     0
291
     1
 45
0.0
1001
ACAD
1000
AcDbSavedByObjectVersion
1070
     0
  0
VISUALSTYLE
  5
9CAB
102
{ACAD_XDICTIONARY
360
9D13
102
}
102
{ACAD_REACTORS
330
9C9B
102
}
330
9C9B
100
AcDbVisualStyle
  2
ColorChange
 70
    16
 71
     2
 72
     2
 73
     3
 90
        0
 40
-0.6
 41
-30.0
 62
     5
 63
     8
 74
     1
 91
        4
 64
     7
 65
   257
 75
     1
175
     1
 42
1.0
 92
        8
 66
     8
 43
1.0
 76
     1
 77
     6
 78
     2
 67
     7
 79
     5
170
     0
171
     0
290
     0
174
     0
 93
        1
 44
0.0
173
     0
291
     1
 45
0.0
1001
ACAD
1000
AcDbSavedByObjectVersion
1070
     0
  0
VISUALSTYLE
  5
9CA4
102
{ACAD_XDICTIONARY
360
9D05
102
}
102
{ACAD_REACTORS
330
9C9B
102
}
330
9C9B
100
AcDbVisualStyle
  2
Conceptual
 70
     9
 71
     3
 72
     2
 73
     0
 90
        0
 40
-0.6
 41
-30.0
 62
     5
 63
     7
 74
     2
 91
        2
 64
     7
 65
   257
 75
     1
175
     1
 42
179.0
 92
        8
 66
     7
 43
1.0
 76
     1
 77
     6
 78
     2
 67
     7
 79
     3
170
     0
171
     0
290
     0
174
     0
 93
        1
 44
0.0
173
     0
291
     0
 45
0.0
1001
ACAD
1000
AcDbSavedByObjectVersion
1070
     0
  0
VISUALSTYLE
  5
9CA6
102
{ACAD_XDICTIONARY
360
9D09
102
}
102
{ACAD_REACTORS
330
9C9B
102
}
330
9C9B
100
AcDbVisualStyle
  2
Dim
 70
    11
 71
     2
 72
     2
 73
     0
 90
        0
 40
-0.6
 41
-30.0
 62
     5
 63
     7
 74
     1
 91
        4
 64
     7
 65
   257
 75
     1
175
     1
 42
1.0
 92
        8
 66
     7
 43
1.0
 76
     1
 77
     6
 78
     2
 67
     7
 79
     5
170
     0
171
     0
290
     0
174
     0
 93
        1
 44
-50.0
173
     0
291
     1
 45
0.0
1001
ACAD
1000
AcDbSavedByObjectVersion
1070
     0
  0
VISUALSTYLE
  5
9CB3
102
{ACAD_XDICTIONARY
360
9D23
102
}
102
{ACAD_REACTORS
330
9C9B
102
}
330
9C9B
100
AcDbVisualStyle
  2
EdgeColorOff
 70
    22
 71
     2
 72
     2
 73
     0
 90
        0
 40
-0.6
 41
-30.0
 62
     5
 63
     7
 74
     1
 91
        4
 64
     7
 65
   257
 75
     1
175
     1
 42
1.0
 92
        8
 66
     7
 43
1.0
 76
     1
 77
     6
 78
     2
 67
     7
 79
     5
170
     0
171
     0
290
     0
174
     0
 93
        1
 44
0.0
173
     0
291
     1
 45
0.0
1001
ACAD
1000
AcDbSavedByObjectVersion
1070
     0
  0
VISUALSTYLE
  5
9CAA
102
{ACAD_XDICTIONARY
360
9D11
102
}
102
{ACAD_REACTORS
330
9C9B
102
}
330
9C9B
100
AcDbVisualStyle
  2
Facepattern
 70
    15
 71
     2
 72
     2
 73
     0
 90
        0
 40
-0.6
 41
-30.0
 62
     5
 63
     7
 74
     1
 91
        4
 64
     7
 65
   257
 75
     1
175
     1
 42
1.0
 92
        8
 66
     7
 43
1.0
 76
     1
 77
     6
 78
     2
 67
     7
 79
     5
170
     0
171
     0
290
     0
174
     0
 93
        1
 44
0.0
173
     0
291
     1
 45
0.0
1001
ACAD
1000
AcDbSavedByObjectVersion
1070
     0
  0
VISUALSTYLE
  5
9C9C
102
{ACAD_XDICTIONARY
360
9CF5
102
}
102
{ACAD_REACTORS
330
9C9B
102
}
330
9C9B
100
AcDbVisualStyle
  2
Flat
 70
     0
 71
     2
 72
     1
 73
     1
 90
        2
 40
-0.6
 41
30.0
 62
     5
 63
     7
 74
     0
 91
        0
 64
     7
 65
   257
 75
     1
175
     1
 42
1.0
 92
        8
 66
     7
 43
1.0
 76
     1
 77
     6
 78
     2
 67
     7
 79
     5
170
     0
171
     0
290
     0
174
     0
 93
       13
 44
0.0
173
     0
291
     1
 45
0.0
1001
ACAD
1000
AcDbSavedByObjectVersion
1070
     0
  0
VISUALSTYLE
  5
9C9D
102
{ACAD_XDICTIONARY
360
9CF7
102
}
102
{ACAD_REACTORS
330
9C9B
102
}
330
9C9B
100
AcDbVisualStyle
  2
FlatWithEdges
 70
     1
 71
     2
 72
     1
 73
     1
 90
        2
 40
-0.6
 41
30.0
 62
     5
 63
     7
 74
     1
 91
        0
 64
     7
 65
   257
 75
     1
175
     1
 42
1.0
 92
        0
 66
   257
 43
1.0
 76
     1
 77
     6
 78
     2
 67
     7
 79
     5
170
     0
171
     0
290
     0
174
     0
 93
       13
 44
0.0
173
     0
291
     1
 45
0.0
1001
ACAD
1000
AcDbSavedByObjectVersion
1070
     0
  0
VISUALSTYLE
  5
9C9E
102
{ACAD_XDICTIONARY
360
9CF9
102
}
102
{ACAD_REACTORS
330
9C9B
102
}
330
9C9B
100
AcDbVisualStyle
  2
Gouraud
 70
     2
 71
     2
 72
     2
 73
     1
 90
        2
 40
-0.6
 41
30.0
 62
     5
 63
     7
 74
     0
 91
        0
 64
     7
 65
   257
 75
     1
175
     1
 42
1.0
 92
        0
 66
     7
 43
1.0
 76
     1
 77
     6
 78
     2
 67
     7
 79
     5
170
     0
171
     0
290
     0
174
     0
 93
       13
 44
0.0
173
     0
291
     1
 45
0.0
1001
ACAD
1000
AcDbSavedByObjectVersion
1070
     0
  0
VISUALSTYLE
  5
9C9F
102
{ACAD_XDICTIONARY
360
9CFB
102
}
102
{ACAD_REACTORS
330
9C9B
102
}
330
9C9B
100
AcDbVisualStyle
  2
GouraudWithEdges
 70
     3
 71
     2
 72
     2
 73
     1
 90
        2
 40
-0.6
 41
30.0
 62
     5
 63
     7
 74
     1
 91
        0
 64
     7
 65
   257
 75
     1
175
     1
 42
1.0
 92
        0
 66
   257
 43
1.0
 76
     1
 77
     6
 78
     2
 67
     7
 79
     5
170
     0
171
     0
290
     0
174
     0
 93
       13
 44
0.0
173
     0
291
     1
 45
0.0
1001
ACAD
1000
AcDbSavedByObjectVersion
1070
     0
  0
VISUALSTYLE
  5
9CA3
102
{ACAD_XDICTIONARY
360
9D03
102
}
102
{ACAD_REACTORS
330
9C9B
102
}
330
9C9B
100
AcDbVisualStyle
  2
Hidden
 70
     6
 71
     1
 72
     2
 73
     2
 90
        0
 40
-0.6
 41
-30.0
 62
     5
 63
     7
 74
     2
 91
        2
 64
     7
 65
   257
 75
     2
175
     1
 42
40.0
 92
        0
 66
   257
 43
1.0
 76
     1
 77
     6
 78
     2
 67
     7
 79
     3
170
     0
171
     0
290
     0
174
     0
 93
        1
 44
0.0
173
     0
291
     0
 45
0.0
1001
ACAD
1000
AcDbSavedByObjectVersion
1070
     0
  0
VISUALSTYLE
  5
9CB1
102
{ACAD_XDICTIONARY
360
9D1F
102
}
102
{ACAD_REACTORS
330
9C9B
102
}
330
9C9B
100
AcDbVisualStyle
  2
JitterOff
 70
    20
 71
     2
 72
     2
 73
     0
 90
        0
 40
-0.6
 41
-30.0
 62
     5
 63
     7
 74
     1
 91
        4
 64
     7
 65
   257
 75
     1
175
     1
 42
1.0
 92
       10
 66
     7
 43
1.0
 76
     1
 77
     6
 78
     2
 67
     7
 79
     5
170
     0
171
     0
290
     0
174
     0
 93
        1
 44
0.0
173
     0
291
     1
 45
0.0
1001
ACAD
1000
AcDbSavedByObjectVersion
1070
     0
  0
VISUALSTYLE
  5
9CA9
102
{ACAD_XDICTIONARY
360
9D0F
102
}
102
{ACAD_REACTORS
330
9C9B
102
}
330
9C9B
100
AcDbVisualStyle
  2
Linepattern
 70
    14
 71
     2
 72
     2
 73
     0
 90
        0
 40
-0.6
 41
-30.0
 62
     5
 63
     7
 74
     1
 91
        4
 64
     7
 65
   257
 75
     7
175
     7
 42
1.0
 92
        8
 66
     7
 43
1.0
 76
     1
 77
     6
 78
     2
 67
     7
 79
     5
170
     0
171
     0
290
     0
174
     0
 93
        1
 44
0.0
173
     0
291
     1
 45
0.0
1001
ACAD
1000
AcDbSavedByObjectVersion
1070
     0
  0
VISUALSTYLE
  5
9CB2
102
{ACAD_XDICTIONARY
360
9D21
102
}
102
{ACAD_REACTORS
330
9C9B
102
}
330
9C9B
100
AcDbVisualStyle
  2
OverhangOff
 70
    21
 71
     2
 72
     2
 73
     0
 90
        0
 40
-0.6
 41
-30.0
 62
     5
 63
     7
 74
     1
 91
        4
 64
     7
 65
   257
 75
     1
175
     1
 42
1.0
 92
        9
 66
     7
 43
1.0
 76
     1
 77
     6
 78
     2
 67
     7
 79
     5
170
     0
171
     0
290
     0
174
     0
 93
        1
 44
0.0
173
     0
291
     1
 45
0.0
1001
ACAD
1000
AcDbSavedByObjectVersion
1070
     0
  0
VISUALSTYLE
  5
9CA5
102
{ACAD_XDICTIONARY
360
9D07
102
}
102
{ACAD_REACTORS
330
9C9B
102
}
330
9C9B
100
AcDbVisualStyle
  2
Realistic
 70
     8
 71
     2
 72
     3
 73
     0
 90
        2
 40
-0.6
 41
30.0
 62
     5
 63
     7
 74
     0
 91
        0
 64
     7
 65
   257
 75
     1
175
     1
 42
1.0
 92
        8
 66
   257
 43
1.0
 76
     1
 77
     6
 78
     2
 67
     7
 79
     3
170
     0
171
     0
290
     0
174
     0
 93
       13
 44
0.0
173
     0
291
     0
 45
0.0
1001
ACAD
1000
AcDbSavedByObjectVersion
1070
     0
  0
VISUALSTYLE
  5
9CB0
102
{ACAD_XDICTIONARY
360
9D1D
102
}
102
{ACAD_REACTORS
330
9C9B
102
}
330
9C9B
100
AcDbVisualStyle
  2
Shaded
 70
    27
 71
     2
 72
     2
 73
     1
 90
        2
 40
-0.6
 41
30.0
 62
     5
 63
     7
 74
     0
 91
        4
 64
     7
 65
   257
 75
     1
175
     1
 42
1.0
 92
        8
 66
   257
 43
1.0
 76
     1
 77
     6
 78
     2
 67
     8
 79
     3
170
     0
171
     0
290
     0
174
     0
 93
        5
 44
0.0
173
     0
291
     0
 45
0.0
1001
ACAD
1000
AcDbSavedByObjectVersion
1070
     0
  0
VISUALSTYLE
  5
9CAF
102
{ACAD_XDICTIONARY
360
9D1B
102
}
102
{ACAD_REACTORS
330
9C9B
102
}
330
9C9B
100
AcDbVisualStyle
  2
Shaded with edges
 70
    26
 71
     2
 72
     2
 73
     1
 90
        2
 40
-0.6
 41
30.0
 62
     5
 63
     7
 74
     1
 91
       10
 64
     7
 65
   257
 75
     2
175
     1
 42
1.0
 92
        8
 66
   257
 43
1.0
 76
     1
 77
     6
 78
     2
 67
     7
 79
     3
170
     0
171
     0
290
     0
174
     0
 93
        5
 44
0.0
173
     0
291
     0
 45
0.0
1001
ACAD
1000
AcDbSavedByObjectVersion
1070
     0
  0
VISUALSTYLE
  5
9CAC
102
{ACAD_XDICTIONARY
360
9D15
102
}
102
{ACAD_REACTORS
330
9C9B
102
}
330
9C9B
100
AcDbVisualStyle
  2
Shades of Gray
 70
    23
 71
     2
 72
     2
 73
     3
 90
        0
 40
-0.6
 41
-30.0
 62
     5
 63
     7
 74
     2
 91
        2
 64
     7
 65
     7
 75
     1
175
     1
 42
40.0
 92
        8
 66
     7
 43
1.0
 76
     1
 77
     6
 78
     2
 67
     7
 79
     3
170
     0
171
     0
290
     0
174
     0
 93
        1
 44
0.0
173
     0
291
     0
 45
0.0
1001
ACAD
1000
AcDbSavedByObjectVersion
1070
     0
  0
VISUALSTYLE
  5
9CAD
102
{ACAD_XDICTIONARY
360
9D17
102
}
102
{ACAD_REACTORS
330
9C9B
102
}
330
9C9B
100
AcDbVisualStyle
  2
Sketchy
 70
    24
 71
     1
 72
     2
 73
     2
 90
        0
 40
-0.6
 41
-30.0
 62
     5
 63
     7
 74
     2
 91
        2
 64
     7
 65
     7
 75
     1
175
     1
 42
40.0
 92
       11
 66
     7
 43
1.0
 76
     1
 77
     6
 78
     2
 67
     7
 79
     6
170
     0
171
     0
290
     0
174
     0
 93
        1
 44
0.0
173
     0
291
     0
 45
0.0
1001
ACAD
1000
AcDbSavedByObjectVersion
1070
     0
  0
VISUALSTYLE
  5
9CA8
102
{ACAD_XDICTIONARY
360
9D0D
102
}
102
{ACAD_REACTORS
330
9C9B
102
}
330
9C9B
100
AcDbVisualStyle
  2
Thicken
 70
    13
 71
     2
 72
     2
 73
     0
 90
        0
 40
-0.6
 41
-30.0
 62
     5
 63
     7
 74
     1
 91
        4
 64
     7
 65
   257
 75
     1
175
     1
 42
1.0
 92
       12
 66
     7
 43
1.0
 76
     1
 77
     6
 78
     2
 67
     7
 79
     5
170
     0
171
     0
290
     0
174
     0
 93
        1
 44
0.0
173
     0
291
     1
 45
0.0
1001
ACAD
1000
AcDbSavedByObjectVersion
1070
     0
  0
VISUALSTYLE
  5
9CA2
102
{ACAD_XDICTIONARY
360
9D01
102
}
102
{ACAD_REACTORS
330
9C9B
102
}
330
9C9B
100
AcDbVisualStyle
  2
Wireframe
 70
     5
 71
     0
 72
     2
 73
     0
 90
        0
 40
-0.6
 41
-30.0
 62
     5
 63
     7
 74
     1
 91
        4
 64
     7
 65
   257
 75
     1
175
     1
 42
1.0
 92
        0
 66
   257
 43
1.0
 76
     1
 77
     6
 78
     2
 67
     7
 79
     3
170
     0
171
     0
290
     0
174
     0
 93
        1
 44
0.0
173
     0
291
     0
 45
0.0
1001
ACAD
1000
AcDbSavedByObjectVersion
1070
     0
  0
VISUALSTYLE
  5
9CAE
102
{ACAD_XDICTIONARY
360
9D19
102
}
102
{ACAD_REACTORS
330
9C9B
102
}
330
9C9B
100
AcDbVisualStyle
  2
X-Ray
 70
    25
 71
     2
 72
     2
 73
     1
 90
        1
 40
0.5
 41
-30.0
 62
     5
 63
     7
 74
     1
 91
        0
 64
     7
 65
   257
 75
     1
175
     1
 42
1.0
 92
        8
 66
     7
 43
1.0
 76
     1
 77
     6
 78
     2
 67
     7
 79
     3
170
     0
171
     0
290
     0
174
     0
 93
       13
 44
0.0
173
     0
291
     0
 45
0.0
1001
ACAD
1000
AcDbSavedByObjectVersion
1070
     0
  0
DICTIONARYVAR
  5
9CE8
102
{ACAD_REACTORS
330
9CE3
102
}
330
9CE3
100
DictionaryVariables
280
     0
  1
1:1
  0
DICTIONARYVAR
  5
9CE5
102
{ACAD_REACTORS
330
9CE3
102
}
330
9CE3
100
DictionaryVariables
280
     0
  1
STANDARD
  0
DICTIONARYVAR
  5
9CE4
102
{ACAD_REACTORS
330
9CE3
102
}
330
9CE3
100
DictionaryVariables
280
     0
  1
STANDARD
  0
DICTIONARYVAR
  5
9CE6
102
{ACAD_REACTORS
330
9CE3
102
}
330
9CE3
100
DictionaryVariables
280
     0
  1
Imperial24
  0
DICTIONARYVAR
  5
9CE7
102
{ACAD_REACTORS
330
9CE3
102
}
330
9CE3
100
DictionaryVariables
280
     0
  1
Imperial24
  0
DICTIONARYVAR
  5
9CEB
102
{ACAD_REACTORS
330
9CE3
102
}
330
9CE3
100
DictionaryVariables
280
     0
  1
1
  0
DICTIONARYVAR
  5
9CEA
102
{ACAD_REACTORS
330
9CE3
102
}
330
9CE3
100
DictionaryVariables
280
     0
  1
0
  0
DICTIONARYVAR
  5
9CE9
102
{ACAD_REACTORS
330
9CE3
102
}
330
9CE3
100
DictionaryVariables
280
     0
  1
127
  0
DICTIONARYVAR
  5
9CEC
102
{ACAD_REACTORS
330
9CE3
102
}
330
9CE3
100
DictionaryVariables
280
     0
  1
2
  0
DICTIONARY
  5
9D29
330
9CCE
100
AcDbDictionary
280
     1
281
     1
  3
ACAD_XREC_ROUNDTRIP
360
9D2A
  0
DICTIONARY
  5
9D2B
330
9CCF
100
AcDbDictionary
280
     1
281
     1
  3
ACAD_XREC_ROUNDTRIP
360
9D2C
  0
DICTIONARY
  5
9D2D
330
9CD0
100
AcDbDictionary
280
     1
281
     1
  3
ACAD_XREC_ROUNDTRIP
360
9D2E
  0
DICTIONARY
  5
9C8C
330
9C8B
100
AcDbDictionary
280
     1
281
     1
  3
ACAD_XREC_ROUNDTRIP
360
9CF3
  3
BUMPTILE
360
9C8E
  3
DIFFUSETILE
360
9C8D
  3
OPACITYTILE
360
9C91
  3
REFLECTIONTILE
360
9C90
  3
REFRACTIONTILE
360
9C92
  3
SPECULARTILE
360
9C8F
  0
DICTIONARY
  5
9C84
330
9C83
100
AcDbDictionary
280
     1
281
     1
  3
ACAD_XREC_ROUNDTRIP
360
9CF2
  3
BUMPTILE
360
9C86
  3
DIFFUSETILE
360
9C85
  3
OPACITYTILE
360
9C89
  3
REFLECTIONTILE
360
9C88
  3
REFRACTIONTILE
360
9C8A
  3
SPECULARTILE
360
9C87
  0
DICTIONARY
  5
9C94
330
9C93
100
AcDbDictionary
280
     1
281
     1
  3
ACAD_XREC_ROUNDTRIP
360
9CF4
  3
BUMPTILE
360
9C96
  3
DIFFUSETILE
360
9C95
  3
OPACITYTILE
360
9C99
  3
REFLECTIONTILE
360
9C98
  3
REFRACTIONTILE
360
9C9A
  3
SPECULARTILE
360
9C97
  0
DICTIONARY
  5
9D27
330
9CCC
100
AcDbDictionary
280
     1
281
     1
  3
ACAD_XREC_ROUNDTRIP
360
9D28
  0
DICTIONARY
  5
9CEE
330
9CB6
100
AcDbDictionary
280
     1
281
     1
  3
ACAD_ROUNDTRIP_2008_TABLESTYLE_CELLSTYLEMAP
360
9CEF
  3
ACAD_XREC_ROUNDTRIP
360
9D25
  0
DICTIONARY
  5
9CFF
330
9CA1
100
AcDbDictionary
280
     1
281
     1
  3
ACAD_XREC_ROUNDTRIP
360
9D00
  0
DICTIONARY
  5
9CFD
330
9CA0
100
AcDbDictionary
280
     1
281
     1
  3
ACAD_XREC_ROUNDTRIP
360
9CFE
  0
DICTIONARY
  5
9D0B
330
9CA7
100
AcDbDictionary
280
     1
281
     1
  3
ACAD_XREC_ROUNDTRIP
360
9D0C
  0
DICTIONARY
  5
9D13
330
9CAB
100
AcDbDictionary
280
     1
281
     1
  3
ACAD_XREC_ROUNDTRIP
360
9D14
  0
DICTIONARY
  5
9D05
330
9CA4
100
AcDbDictionary
280
     1
281
     1
  3
ACAD_XREC_ROUNDTRIP
360
9D06
  0
DICTIONARY
  5
9D09
330
9CA6
100
AcDbDictionary
280
     1
281
     1
  3
ACAD_XREC_ROUNDTRIP
360
9D0A
  0
DICTIONARY
  5
9D23
330
9CB3
100
AcDbDictionary
280
     1
281
     1
  3
ACAD_XREC_ROUNDTRIP
360
9D24
  0
DICTIONARY
  5
9D11
330
9CAA
100
AcDbDictionary
280
     1
281
     1
  3
ACAD_XREC_ROUNDTRIP
360
9D12
  0
DICTIONARY
  5
9CF5
330
9C9C
100
AcDbDictionary
280
     1
281
     1
  3
ACAD_XREC_ROUNDTRIP
360
9CF6
  0
DICTIONARY
  5
9CF7
330
9C9D
100
AcDbDictionary
280
     1
281
     1
  3
ACAD_XREC_ROUNDTRIP
360
9CF8
  0
DICTIONARY
  5
9CF9
330
9C9E
100
AcDbDictionary
280
     1
281
     1
  3
ACAD_XREC_ROUNDTRIP
360
9CFA
  0
DICTIONARY
  5
9CFB
330
9C9F
100
AcDbDictionary
280
     1
281
     1
  3
ACAD_XREC_ROUNDTRIP
360
9CFC
  0
DICTIONARY
  5
9D03
330
9CA3
100
AcDbDictionary
280
     1
281
     1
  3
ACAD_XREC_ROUNDTRIP
360
9D04
  0
DICTIONARY
  5
9D1F
330
9CB1
100
AcDbDictionary
280
     1
281
     1
  3
ACAD_XREC_ROUNDTRIP
360
9D20
  0
DICTIONARY
  5
9D0F
330
9CA9
100
AcDbDictionary
280
     1
281
     1
  3
ACAD_XREC_ROUNDTRIP
360
9D10
  0
DICTIONARY
  5
9D21
330
9CB2
100
AcDbDictionary
280
     1
281
     1
  3
ACAD_XREC_ROUNDTRIP
360
9D22
  0
DICTIONARY
  5
9D07
330
9CA5
100
AcDbDictionary
280
     1
281
     1
  3
ACAD_XREC_ROUNDTRIP
360
9D08
  0
DICTIONARY
  5
9D1D
330
9CB0
100
AcDbDictionary
280
     1
281
     1
  3
ACAD_XREC_ROUNDTRIP
360
9D1E
  0
DICTIONARY
  5
9D1B
330
9CAF
100
AcDbDictionary
280
     1
281
     1
  3
ACAD_XREC_ROUNDTRIP
360
9D1C
  0
DICTIONARY
  5
9D15
330
9CAC
100
AcDbDictionary
280
     1
281
     1
  3
ACAD_XREC_ROUNDTRIP
360
9D16
  0
DICTIONARY
  5
9D17
330
9CAD
100
AcDbDictionary
280
     1
281
     1
  3
ACAD_XREC_ROUNDTRIP
360
9D18
  0
DICTIONARY
  5
9D0D
330
9CA8
100
AcDbDictionary
280
     1
281
     1
  3
ACAD_XREC_ROUNDTRIP
360
9D0E
  0
DICTIONARY
  5
9D01
330
9CA2
100
AcDbDictionary
280
     1
281
     1
  3
ACAD_XREC_ROUNDTRIP
360
9D02
  0
DICTIONARY
  5
9D19
330
9CAE
100
AcDbDictionary
280
     1
281
     1
  3
ACAD_XREC_ROUNDTRIP
360
9D1A
  0
XRECORD
  5
9D2A
102
{ACAD_REACTORS
330
9D29
102
}
330
9D29
100
AcDbXrecord
280
     1
102
DISPLAYNAME
  1
Imperial24
102
FLAGS
 90
        0
  0
XRECORD
  5
9D2C
102
{ACAD_REACTORS
330
9D2B
102
}
330
9D2B
100
AcDbXrecord
280
     1
102
SHADEPLOT
 70
     0
102
SHADEPLOTRESLEVEL
 70
     2
102
SHADEPLOTCUSTOMDPI
 70
   300
  0
XRECORD
  5
9D2E
102
{ACAD_REACTORS
330
9D2D
102
}
330
9D2D
100
AcDbXrecord
280
     1
102
SHADEPLOT
 70
     0
102
SHADEPLOTRESLEVEL
 70
     2
102
SHADEPLOTCUSTOMDPI
 70
   300
  0
XRECORD
  5
9CF3
102
{ACAD_REACTORS
330
9C8C
102
}
330
9C8C
100
AcDbXrecord
280
     1
102
MATERIAL
148
0.0
149
0.0
149
0.0
 93
        0
 94
      127
282
     0
 72
     0
 77
     0
171
     0
175
     0
179
     0
273
     0
  0
XRECORD
  5
9C8E
102
{ACAD_REACTORS
330
9C8C
102
}
330
9C8C
100
AcDbXrecord
280
     1
270
     1
271
     1
  0
XRECORD
  5
9C8D
102
{ACAD_REACTORS
330
9C8C
102
}
330
9C8C
100
AcDbXrecord
280
     1
270
     1
271
     1
  0
XRECORD
  5
9C91
102
{ACAD_REACTORS
330
9C8C
102
}
330
9C8C
100
AcDbXrecord
280
     1
270
     1
271
     1
  0
XRECORD
  5
9C90
102
{ACAD_REACTORS
330
9C8C
102
}
330
9C8C
100
AcDbXrecord
280
     1
270
     1
271
     1
  0
XRECORD
  5
9C92
102
{ACAD_REACTORS
330
9C8C
102
}
330
9C8C
100
AcDbXrecord
280
     1
270
     1
271
     1
  0
XRECORD
  5
9C8F
102
{ACAD_REACTORS
330
9C8C
102
}
330
9C8C
100
AcDbXrecord
280
     1
270
     1
271
     1
  0
XRECORD
  5
9CF2
102
{ACAD_REACTORS
330
9C84
102
}
330
9C84
100
AcDbXrecord
280
     1
102
MATERIAL
148
0.0
149
0.0
149
0.0
 93
        0
 94
      127
282
     0
 72
     0
 77
     0
171
     0
175
     0
179
     0
273
     0
  0
XRECORD
  5
9C86
102
{ACAD_REACTORS
330
9C84
102
}
330
9C84
100
AcDbXrecord
280
     1
270
     1
271
     1
  0
XRECORD
  5
9C85
102
{ACAD_REACTORS
330
9C84
102
}
330
9C84
100
AcDbXrecord
280
     1
270
     1
271
     1
  0
XRECORD
  5
9C89
102
{ACAD_REACTORS
330
9C84
102
}
330
9C84
100
AcDbXrecord
280
     1
270
     1
271
     1
  0
XRECORD
  5
9C88
102
{ACAD_REACTORS
330
9C84
102
}
330
9C84
100
AcDbXrecord
280
     1
270
     1
271
     1
  0
XRECORD
  5
9C8A
102
{ACAD_REACTORS
330
9C84
102
}
330
9C84
100
AcDbXrecord
280
     1
270
     1
271
     1
  0
XRECORD
  5
9C87
102
{ACAD_REACTORS
330
9C84
102
}
330
9C84
100
AcDbXrecord
280
     1
270
     1
271
     1
  0
XRECORD
  5
9CF4
102
{ACAD_REACTORS
330
9C94
102
}
330
9C94
100
AcDbXrecord
280
     1
102
MATERIAL
148
0.0
149
0.0
149
0.0
 93
        0
 94
      127
282
     0
 72
     0
 77
     0
171
     0
175
     0
179
     0
273
     0
  0
XRECORD
  5
9C96
102
{ACAD_REACTORS
330
9C94
102
}
330
9C94
100
AcDbXrecord
280
     1
270
     1
271
     1
  0
XRECORD
  5
9C95
102
{ACAD_REACTORS
330
9C94
102
}
330
9C94
100
AcDbXrecord
280
     1
270
     1
271
     1
  0
XRECORD
  5
9C99
102
{ACAD_REACTORS
330
9C94
102
}
330
9C94
100
AcDbXrecord
280
     1
270
     1
271
     1
  0
XRECORD
  5
9C98
102
{ACAD_REACTORS
330
9C94
102
}
330
9C94
100
AcDbXrecord
280
     1
270
     1
271
     1
  0
XRECORD
  5
9C9A
102
{ACAD_REACTORS
330
9C94
102
}
330
9C94
100
AcDbXrecord
280
     1
270
     1
271
     1
  0
XRECORD
  5
9C97
102
{ACAD_REACTORS
330
9C94
102
}
330
9C94
100
AcDbXrecord
280
     1
270
     1
271
     1
  0
XRECORD
  5
9D28
102
{ACAD_REACTORS
330
9D27
102
}
330
9D27
100
AcDbXrecord
280
     1
102
DISPLAYNAME
  1
Imperial24
102
FLAGS
 90
        0
  0
CELLSTYLEMAP
  5
9CEF
102
{ACAD_REACTORS
330
9CEE
102
}
330
9CEE
100
AcDbCellStyleMap
 90
        3
300
CELLSTYLE
  1
TABLEFORMAT_BEGIN
 90
        5
170
     1
 91
        0
 92
    32768
 62
   257
 93
        1
300
CONTENTFORMAT
  1
CONTENTFORMAT_BEGIN
 90
        0
 91
        0
 92
      512
 93
        0
300

 40
0.0
140
1.0
 94
        5
 62
     0
340
9911
144
0.25
309
CONTENTFORMAT_END
171
     0
 94
        0
309
TABLEFORMAT_END
  1
CELLSTYLE_BEGIN
 90
        1
 91
        1
300
_TITLE
309
CELLSTYLE_END
300
CELLSTYLE
  1
TABLEFORMAT_BEGIN
 90
        5
170
     1
 91
        0
 92
        0
 62
   257
 93
        1
300
CONTENTFORMAT
  1
CONTENTFORMAT_BEGIN
 90
        0
 91
        0
 92
      512
 93
        0
300

 40
0.0
140
1.0
 94
        5
 62
     0
340
9911
144
0.18
309
CONTENTFORMAT_END
171
     0
 94
        0
309
TABLEFORMAT_END
  1
CELLSTYLE_BEGIN
 90
        2
 91
        1
300
_HEADER
309
CELLSTYLE_END
300
CELLSTYLE
  1
TABLEFORMAT_BEGIN
 90
        5
170
     1
 91
        0
 92
        0
 62
   257
 93
        1
300
CONTENTFORMAT
  1
CONTENTFORMAT_BEGIN
 90
        0
 91
        0
 92
      512
 93
        0
300

 40
0.0
140
1.0
 94
        2
 62
     0
340
9911
144
0.18
309
CONTENTFORMAT_END
171
     0
 94
        0
309
TABLEFORMAT_END
  1
CELLSTYLE_BEGIN
 90
        3
 91
        2
300
_DATA
309
CELLSTYLE_END
  0
XRECORD
  5
9D25
102
{ACAD_REACTORS
330
9CEE
102
}
330
9CEE
100
AcDbXrecord
280
     1
102
ACAD_ROUNDTRIP_PRE2007_TABLESTYLE
 90
      512
 91
        0
  1

 92
      512
 93
        0
  2

 94
      512
 95
        0
  3

  0
XRECORD
  5
9D00
102
{ACAD_REACTORS
330
9CFF
102
}
330
9CFF
100
AcDbXrecord
280
     1
102
RTVSPost2010Prop28
280
     1
102
RTVSPost2010PropOp28
 70
     1
102
RTVSPost2010Prop29
280
     1
102
RTVSPost2010PropOp29
 70
     1
102
RTVSPost2010Prop30
280
     0
102
RTVSPost2010PropOp30
 70
     1
102
RTVSPost2010Prop31
280
     0
102
RTVSPost2010PropOp31
 70
     1
102
RTVSPost2010Prop32
280
     0
102
RTVSPost2010PropOp32
 70
     1
102
RTVSPost2010Prop33
280
     0
102
RTVSPost2010PropOp33
 70
     1
102
RTVSPost2010Prop34
280
     0
102
RTVSPost2010PropOp34
 70
     1
102
RTVSPost2010Prop35
280
     0
102
RTVSPost2010PropOp35
 70
     1
102
RTVSPost2010Prop36
280
     0
102
RTVSPost2010PropOp36
 70
     1
102
RTVSPost2010Prop37
 90
       50
102
RTVSPost2010PropOp37
 70
     1
102
RTVSPost2010Prop38
140
0.0
102
RTVSPost2010PropOp38
 70
     1
102
RTVSPost2010Prop39
140
1.0
102
RTVSPost2010PropOp39
 70
     1
102
RTVSPost2010Prop40
 90
        0
102
RTVSPost2010PropOp40
 70
     1
102
RTVSPost2010Prop41ColorIndex
 90
       18
102
RTVSPost2010Prop41ColorRGB
 90
        0
102
RTVSPost2010PropOp41
 70
     1
102
RTVSPost2010Prop42
 90
       50
102
RTVSPost2010PropOp42
 70
     1
102
RTVSPost2010Prop43
 90
        3
102
RTVSPost2010PropOp43
 70
     1
102
RTVSPost2010Prop44ColorIndex
 90
        5
102
RTVSPost2010Prop44ColorRGB
 90
      255
102
RTVSPost2010PropOp44
 70
     1
102
RTVSPost2010Prop45
280
     0
102
RTVSPost2010PropOp45
 70
     1
102
RTVSPost2010Prop46
 90
       50
102
RTVSPost2010PropOp46
 70
     1
102
RTVSPost2010Prop47
 90
       50
102
RTVSPost2010PropOp47
 70
     1
102
RTVSPost2010Prop48
 90
       50
102
RTVSPost2010PropOp48
 70
     1
102
RTVSPost2010Prop49
280
     0
102
RTVSPost2010PropOp49
 70
     1
102
RTVSPost2010Prop50
 90
       50
102
RTVSPost2010PropOp50
 70
     1
102
RTVSPost2010Prop51ColorIndex
 90
      256
102
RTVSPost2010Prop51ColorRGB
 90
-16777216
102
RTVSPost2010PropOp51
 70
     0
102
RTVSPost2010Prop52
140
1.0
102
RTVSPost2010PropOp52
 70
     0
102
RTVSPost2010Prop53
 90
        2
102
RTVSPost2010PropOp53
 70
     1
102
RTVSPost2010Prop54
  1
strokes_ogs.tif
102
RTVSPost2010PropOp54
 70
     1
102
RTVSPost2010Prop55
280
     0
102
RTVSPost2010PropOp55
 70
     1
102
RTVSPost2010Prop56
140
1.0
102
RTVSPost2010PropOp56
 70
     1
102
RTVSPost2010Prop57
140
1.0
102
RTVSPost2010PropOp57
 70
     1
102
RTVSPropertyOp0
 70
     1
102
RTVSPropertyOp1
 70
     1
102
RTVSPropertyOp2
 70
     1
102
RTVSPropertyOp3
 70
     1
102
RTVSPropertyOp4
 70
     1
102
RTVSPropertyOp5
 70
     1
102
RTVSPropertyOp6
 70
     1
102
RTVSPropertyOp7
 70
     1
102
RTVSPropertyOp8
 70
     1
102
RTVSPropertyOp9
 70
     1
102
RTVSPropertyOp10
 70
     1
102
RTVSPropertyOp11
 70
     1
102
RTVSPropertyOp12
 70
     1
102
RTVSPropertyOp13
 70
     1
102
RTVSPropertyOp14
 70
     1
102
RTVSPropertyOp15
 70
     1
102
RTVSPropertyOp16
 70
     1
102
RTVSPropertyOp17
 70
     1
102
RTVSPropertyOp18
 70
     1
102
RTVSPropertyOp19
 70
     1
102
RTVSPropertyOp20
 70
     1
102
RTVSPropertyOp21
 70
     1
102
RTVSPropertyOp22
 70
     1
102
RTVSPropertyOp23
 70
     1
102
RTVSPropertyOp24
 70
     1
102
RTVSPropertyOp25
 70
     1
102
RTVSPropertyOp26
 70
     1
102
RTVSPropertyOp27
 70
     1
102
RTVSPropertyOp28
 70
     1
102
RTVSPropertyOp29
 70
     1
102
RTVSPropertyOp30
 70
     1
102
RTVSPropertyOp31
 70
     1
102
RTVSPropertyOp32
 70
     1
102
RTVSPropertyOp33
 70
     1
102
RTVSPropertyOp34
 70
     1
102
RTVSPropertyOp35
 70
     1
102
RTVSPropertyOp36
 70
     1
102
RTVSPropertyOp37
 70
     1
102
RTVSPropertyOp38
 70
     1
102
RTVSPropertyOp39
 70
     1
102
RTVSPropertyOp40
 70
     1
102
RTVSPropertyOp41
 70
     1
102
RTVSPropertyOp42
 70
     1
102
RTVSPropertyOp43
 70
     1
102
RTVSPropertyOp44
 70
     1
102
RTVSPropertyOp45
 70
     1
102
RTVSPropertyOp46
 70
     1
102
RTVSPropertyOp47
 70
     1
102
RTVSPropertyOp48
 70
     1
102
RTVSPropertyOp49
 70
     1
102
RTVSPropertyOp50
 70
     1
102
RTVSPropertyOp51
 70
     0
102
RTVSPropertyOp52
 70
     0
102
RTVSPropertyOp53
 70
     1
102
RTVSPropertyOp54
 70
     1
102
RTVSPropertyOp55
 70
     1
102
RTVSPropertyOp56
 70
     1
102
RTVSPropertyOp57
 70
     1
102
RTVSPropertyOp58
 70
     1
102
RTVSPropertyOp59
 70
     1
102
RTVSPropertyOp60
 70
     1
102
RTVSPropertyOp61
 70
     1
102
RTVSPropertyOp62
 70
     1
  0
XRECORD
  5
9CFE
102
{ACAD_REACTORS
330
9CFD
102
}
330
9CFD
100
AcDbXrecord
280
     1
102
RTVSPost2010Prop28
280
     0
102
RTVSPost2010PropOp28
 70
     1
102
RTVSPost2010Prop29
280
     1
102
RTVSPost2010PropOp29
 70
     1
102
RTVSPost2010Prop30
280
     1
102
RTVSPost2010PropOp30
 70
     1
102
RTVSPost2010Prop31
280
     0
102
RTVSPost2010PropOp31
 70
     1
102
RTVSPost2010Prop32
280
     0
102
RTVSPost2010PropOp32
 70
     1
102
RTVSPost2010Prop33
280
     0
102
RTVSPost2010PropOp33
 70
     1
102
RTVSPost2010Prop34
280
     0
102
RTVSPost2010PropOp34
 70
     1
102
RTVSPost2010Prop35
280
     0
102
RTVSPost2010PropOp35
 70
     1
102
RTVSPost2010Prop36
280
     0
102
RTVSPost2010PropOp36
 70
     1
102
RTVSPost2010Prop37
 90
       50
102
RTVSPost2010PropOp37
 70
     1
102
RTVSPost2010Prop38
140
0.0
102
RTVSPost2010PropOp38
 70
     1
102
RTVSPost2010Prop39
140
1.0
102
RTVSPost2010PropOp39
 70
     1
102
RTVSPost2010Prop40
 90
        0
102
RTVSPost2010PropOp40
 70
     1
102
RTVSPost2010Prop41ColorIndex
 90
       18
102
RTVSPost2010Prop41ColorRGB
 90
        0
102
RTVSPost2010PropOp41
 70
     1
102
RTVSPost2010Prop42
 90
       50
102
RTVSPost2010PropOp42
 70
     1
102
RTVSPost2010Prop43
 90
        3
102
RTVSPost2010PropOp43
 70
     1
102
RTVSPost2010Prop44ColorIndex
 90
        5
102
RTVSPost2010Prop44ColorRGB
 90
      255
102
RTVSPost2010PropOp44
 70
     1
102
RTVSPost2010Prop45
280
     0
102
RTVSPost2010PropOp45
 70
     1
102
RTVSPost2010Prop46
 90
       50
102
RTVSPost2010PropOp46
 70
     1
102
RTVSPost2010Prop47
 90
       50
102
RTVSPost2010PropOp47
 70
     1
102
RTVSPost2010Prop48
 90
       50
102
RTVSPost2010PropOp48
 70
     1
102
RTVSPost2010Prop49
280
     0
102
RTVSPost2010PropOp49
 70
     1
102
RTVSPost2010Prop50
 90
       50
102
RTVSPost2010PropOp50
 70
     1
102
RTVSPost2010Prop51ColorIndex
 90
      256
102
RTVSPost2010Prop51ColorRGB
 90
-16777216
102
RTVSPost2010PropOp51
 70
     0
102
RTVSPost2010Prop52
140
1.0
102
RTVSPost2010PropOp52
 70
     0
102
RTVSPost2010Prop53
 90
        2
102
RTVSPost2010PropOp53
 70
     1
102
RTVSPost2010Prop54
  1
strokes_ogs.tif
102
RTVSPost2010PropOp54
 70
     1
102
RTVSPost2010Prop55
280
     0
102
RTVSPost2010PropOp55
 70
     1
102
RTVSPost2010Prop56
140
1.0
102
RTVSPost2010PropOp56
 70
     1
102
RTVSPost2010Prop57
140
1.0
102
RTVSPost2010PropOp57
 70
     1
102
RTVSPropertyOp0
 70
     1
102
RTVSPropertyOp1
 70
     1
102
RTVSPropertyOp2
 70
     1
102
RTVSPropertyOp3
 70
     1
102
RTVSPropertyOp4
 70
     1
102
RTVSPropertyOp5
 70
     1
102
RTVSPropertyOp6
 70
     1
102
RTVSPropertyOp7
 70
     1
102
RTVSPropertyOp8
 70
     1
102
RTVSPropertyOp9
 70
     1
102
RTVSPropertyOp10
 70
     1
102
RTVSPropertyOp11
 70
     1
102
RTVSPropertyOp12
 70
     1
102
RTVSPropertyOp13
 70
     1
102
RTVSPropertyOp14
 70
     1
102
RTVSPropertyOp15
 70
     1
102
RTVSPropertyOp16
 70
     1
102
RTVSPropertyOp17
 70
     1
102
RTVSPropertyOp18
 70
     1
102
RTVSPropertyOp19
 70
     1
102
RTVSPropertyOp20
 70
     1
102
RTVSPropertyOp21
 70
     1
102
RTVSPropertyOp22
 70
     1
102
RTVSPropertyOp23
 70
     1
102
RTVSPropertyOp24
 70
     1
102
RTVSPropertyOp25
 70
     1
102
RTVSPropertyOp26
 70
     1
102
RTVSPropertyOp27
 70
     1
102
RTVSPropertyOp28
 70
     1
102
RTVSPropertyOp29
 70
     1
102
RTVSPropertyOp30
 70
     1
102
RTVSPropertyOp31
 70
     1
102
RTVSPropertyOp32
 70
     1
102
RTVSPropertyOp33
 70
     1
102
RTVSPropertyOp34
 70
     1
102
RTVSPropertyOp35
 70
     1
102
RTVSPropertyOp36
 70
     1
102
RTVSPropertyOp37
 70
     1
102
RTVSPropertyOp38
 70
     1
102
RTVSPropertyOp39
 70
     1
102
RTVSPropertyOp40
 70
     1
102
RTVSPropertyOp41
 70
     1
102
RTVSPropertyOp42
 70
     1
102
RTVSPropertyOp43
 70
     1
102
RTVSPropertyOp44
 70
     1
102
RTVSPropertyOp45
 70
     1
102
RTVSPropertyOp46
 70
     1
102
RTVSPropertyOp47
 70
     1
102
RTVSPropertyOp48
 70
     1
102
RTVSPropertyOp49
 70
     1
102
RTVSPropertyOp50
 70
     1
102
RTVSPropertyOp51
 70
     0
102
RTVSPropertyOp52
 70
     0
102
RTVSPropertyOp53
 70
     1
102
RTVSPropertyOp54
 70
     1
102
RTVSPropertyOp55
 70
     1
102
RTVSPropertyOp56
 70
     1
102
RTVSPropertyOp57
 70
     1
102
RTVSPropertyOp58
 70
     1
102
RTVSPropertyOp59
 70
     1
102
RTVSPropertyOp60
 70
     1
102
RTVSPropertyOp61
 70
     1
102
RTVSPropertyOp62
 70
     1
  0
XRECORD
  5
9D0C
102
{ACAD_REACTORS
330
9D0B
102
}
330
9D0B
100
AcDbXrecord
280
     1
102
RTVSPost2010Prop28
280
     0
102
RTVSPost2010PropOp28
 70
     1
102
RTVSPost2010Prop29
280
     1
102
RTVSPost2010PropOp29
 70
     1
102
RTVSPost2010Prop30
280
     1
102
RTVSPost2010PropOp30
 70
     1
102
RTVSPost2010Prop31
280
     0
102
RTVSPost2010PropOp31
 70
     1
102
RTVSPost2010Prop32
280
     0
102
RTVSPost2010PropOp32
 70
     1
102
RTVSPost2010Prop33
280
     0
102
RTVSPost2010PropOp33
 70
     1
102
RTVSPost2010Prop34
280
     0
102
RTVSPost2010PropOp34
 70
     1
102
RTVSPost2010Prop35
280
     0
102
RTVSPost2010PropOp35
 70
     1
102
RTVSPost2010Prop36
280
     0
102
RTVSPost2010PropOp36
 70
     1
102
RTVSPost2010Prop37
 90
       50
102
RTVSPost2010PropOp37
 70
     1
102
RTVSPost2010Prop38
140
0.0
102
RTVSPost2010PropOp38
 70
     1
102
RTVSPost2010Prop39
140
1.0
102
RTVSPost2010PropOp39
 70
     1
102
RTVSPost2010Prop40
 90
        0
102
RTVSPost2010PropOp40
 70
     1
102
RTVSPost2010Prop41ColorIndex
 90
       18
102
RTVSPost2010Prop41ColorRGB
 90
        0
102
RTVSPost2010PropOp41
 70
     1
102
RTVSPost2010Prop42
 90
       50
102
RTVSPost2010PropOp42
 70
     1
102
RTVSPost2010Prop43
 90
        3
102
RTVSPost2010PropOp43
 70
     1
102
RTVSPost2010Prop44ColorIndex
 90
        5
102
RTVSPost2010Prop44ColorRGB
 90
      255
102
RTVSPost2010PropOp44
 70
     1
102
RTVSPost2010Prop45
280
     0
102
RTVSPost2010PropOp45
 70
     1
102
RTVSPost2010Prop46
 90
       50
102
RTVSPost2010PropOp46
 70
     1
102
RTVSPost2010Prop47
 90
       50
102
RTVSPost2010PropOp47
 70
     1
102
RTVSPost2010Prop48
 90
       50
102
RTVSPost2010PropOp48
 70
     1
102
RTVSPost2010Prop49
280
     0
102
RTVSPost2010PropOp49
 70
     1
102
RTVSPost2010Prop50
 90
       50
102
RTVSPost2010PropOp50
 70
     1
102
RTVSPost2010Prop51ColorIndex
 90
      256
102
RTVSPost2010Prop51ColorRGB
 90
-16777216
102
RTVSPost2010PropOp51
 70
     0
102
RTVSPost2010Prop52
140
1.0
102
RTVSPost2010PropOp52
 70
     0
102
RTVSPost2010Prop53
 90
        2
102
RTVSPost2010PropOp53
 70
     1
102
RTVSPost2010Prop54
  1
strokes_ogs.tif
102
RTVSPost2010PropOp54
 70
     1
102
RTVSPost2010Prop55
280
     0
102
RTVSPost2010PropOp55
 70
     1
102
RTVSPost2010Prop56
140
1.0
102
RTVSPost2010PropOp56
 70
     1
102
RTVSPost2010Prop57
140
1.0
102
RTVSPost2010PropOp57
 70
     1
102
RTVSPropertyOp0
 70
     1
102
RTVSPropertyOp1
 70
     1
102
RTVSPropertyOp2
 70
     1
102
RTVSPropertyOp3
 70
     1
102
RTVSPropertyOp4
 70
     1
102
RTVSPropertyOp5
 70
     1
102
RTVSPropertyOp6
 70
     1
102
RTVSPropertyOp7
 70
     1
102
RTVSPropertyOp8
 70
     1
102
RTVSPropertyOp9
 70
     1
102
RTVSPropertyOp10
 70
     1
102
RTVSPropertyOp11
 70
     1
102
RTVSPropertyOp12
 70
     1
102
RTVSPropertyOp13
 70
     1
102
RTVSPropertyOp14
 70
     1
102
RTVSPropertyOp15
 70
     1
102
RTVSPropertyOp16
 70
     1
102
RTVSPropertyOp17
 70
     1
102
RTVSPropertyOp18
 70
     1
102
RTVSPropertyOp19
 70
     1
102
RTVSPropertyOp20
 70
     1
102
RTVSPropertyOp21
 70
     1
102
RTVSPropertyOp22
 70
     1
102
RTVSPropertyOp23
 70
     1
102
RTVSPropertyOp24
 70
     1
102
RTVSPropertyOp25
 70
     1
102
RTVSPropertyOp26
 70
     1
102
RTVSPropertyOp27
 70
     1
102
RTVSPropertyOp28
 70
     1
102
RTVSPropertyOp29
 70
     1
102
RTVSPropertyOp30
 70
     1
102
RTVSPropertyOp31
 70
     1
102
RTVSPropertyOp32
 70
     1
102
RTVSPropertyOp33
 70
     1
102
RTVSPropertyOp34
 70
     1
102
RTVSPropertyOp35
 70
     1
102
RTVSPropertyOp36
 70
     1
102
RTVSPropertyOp37
 70
     1
102
RTVSPropertyOp38
 70
     1
102
RTVSPropertyOp39
 70
     1
102
RTVSPropertyOp40
 70
     1
102
RTVSPropertyOp41
 70
     1
102
RTVSPropertyOp42
 70
     1
102
RTVSPropertyOp43
 70
     1
102
RTVSPropertyOp44
 70
     1
102
RTVSPropertyOp45
 70
     1
102
RTVSPropertyOp46
 70
     1
102
RTVSPropertyOp47
 70
     1
102
RTVSPropertyOp48
 70
     1
102
RTVSPropertyOp49
 70
     1
102
RTVSPropertyOp50
 70
     1
102
RTVSPropertyOp51
 70
     0
102
RTVSPropertyOp52
 70
     0
102
RTVSPropertyOp53
 70
     1
102
RTVSPropertyOp54
 70
     1
102
RTVSPropertyOp55
 70
     1
102
RTVSPropertyOp56
 70
     1
102
RTVSPropertyOp57
 70
     1
102
RTVSPropertyOp58
 70
     1
102
RTVSPropertyOp59
 70
     1
102
RTVSPropertyOp60
 70
     1
102
RTVSPropertyOp61
 70
     1
102
RTVSPropertyOp62
 70
     1
  0
XRECORD
  5
9D14
102
{ACAD_REACTORS
330
9D13
102
}
330
9D13
100
AcDbXrecord
280
     1
102
RTVSPost2010Prop28
280
     0
102
RTVSPost2010PropOp28
 70
     1
102
RTVSPost2010Prop29
280
     1
102
RTVSPost2010PropOp29
 70
     1
102
RTVSPost2010Prop30
280
     1
102
RTVSPost2010PropOp30
 70
     1
102
RTVSPost2010Prop31
280
     0
102
RTVSPost2010PropOp31
 70
     1
102
RTVSPost2010Prop32
280
     0
102
RTVSPost2010PropOp32
 70
     1
102
RTVSPost2010Prop33
280
     0
102
RTVSPost2010PropOp33
 70
     1
102
RTVSPost2010Prop34
280
     0
102
RTVSPost2010PropOp34
 70
     1
102
RTVSPost2010Prop35
280
     0
102
RTVSPost2010PropOp35
 70
     1
102
RTVSPost2010Prop36
280
     0
102
RTVSPost2010PropOp36
 70
     1
102
RTVSPost2010Prop37
 90
       50
102
RTVSPost2010PropOp37
 70
     1
102
RTVSPost2010Prop38
140
0.0
102
RTVSPost2010PropOp38
 70
     1
102
RTVSPost2010Prop39
140
1.0
102
RTVSPost2010PropOp39
 70
     1
102
RTVSPost2010Prop40
 90
        0
102
RTVSPost2010PropOp40
 70
     1
102
RTVSPost2010Prop41ColorIndex
 90
       18
102
RTVSPost2010Prop41ColorRGB
 90
        0
102
RTVSPost2010PropOp41
 70
     1
102
RTVSPost2010Prop42
 90
       50
102
RTVSPost2010PropOp42
 70
     1
102
RTVSPost2010Prop43
 90
        3
102
RTVSPost2010PropOp43
 70
     1
102
RTVSPost2010Prop44ColorIndex
 90
        5
102
RTVSPost2010Prop44ColorRGB
 90
      255
102
RTVSPost2010PropOp44
 70
     1
102
RTVSPost2010Prop45
280
     0
102
RTVSPost2010PropOp45
 70
     1
102
RTVSPost2010Prop46
 90
       50
102
RTVSPost2010PropOp46
 70
     1
102
RTVSPost2010Prop47
 90
       50
102
RTVSPost2010PropOp47
 70
     1
102
RTVSPost2010Prop48
 90
       50
102
RTVSPost2010PropOp48
 70
     1
102
RTVSPost2010Prop49
280
     0
102
RTVSPost2010PropOp49
 70
     1
102
RTVSPost2010Prop50
 90
       50
102
RTVSPost2010PropOp50
 70
     1
102
RTVSPost2010Prop51ColorIndex
 90
      256
102
RTVSPost2010Prop51ColorRGB
 90
-16777216
102
RTVSPost2010PropOp51
 70
     0
102
RTVSPost2010Prop52
140
1.0
102
RTVSPost2010PropOp52
 70
     0
102
RTVSPost2010Prop53
 90
        2
102
RTVSPost2010PropOp53
 70
     1
102
RTVSPost2010Prop54
  1
strokes_ogs.tif
102
RTVSPost2010PropOp54
 70
     1
102
RTVSPost2010Prop55
280
     0
102
RTVSPost2010PropOp55
 70
     1
102
RTVSPost2010Prop56
140
1.0
102
RTVSPost2010PropOp56
 70
     1
102
RTVSPost2010Prop57
140
1.0
102
RTVSPost2010PropOp57
 70
     1
102
RTVSPropertyOp0
 70
     1
102
RTVSPropertyOp1
 70
     1
102
RTVSPropertyOp2
 70
     1
102
RTVSPropertyOp3
 70
     1
102
RTVSPropertyOp4
 70
     1
102
RTVSPropertyOp5
 70
     1
102
RTVSPropertyOp6
 70
     1
102
RTVSPropertyOp7
 70
     1
102
RTVSPropertyOp8
 70
     1
102
RTVSPropertyOp9
 70
     1
102
RTVSPropertyOp10
 70
     1
102
RTVSPropertyOp11
 70
     1
102
RTVSPropertyOp12
 70
     1
102
RTVSPropertyOp13
 70
     1
102
RTVSPropertyOp14
 70
     1
102
RTVSPropertyOp15
 70
     1
102
RTVSPropertyOp16
 70
     1
102
RTVSPropertyOp17
 70
     1
102
RTVSPropertyOp18
 70
     1
102
RTVSPropertyOp19
 70
     1
102
RTVSPropertyOp20
 70
     1
102
RTVSPropertyOp21
 70
     1
102
RTVSPropertyOp22
 70
     1
102
RTVSPropertyOp23
 70
     1
102
RTVSPropertyOp24
 70
     1
102
RTVSPropertyOp25
 70
     1
102
RTVSPropertyOp26
 70
     1
102
RTVSPropertyOp27
 70
     1
102
RTVSPropertyOp28
 70
     1
102
RTVSPropertyOp29
 70
     1
102
RTVSPropertyOp30
 70
     1
102
RTVSPropertyOp31
 70
     1
102
RTVSPropertyOp32
 70
     1
102
RTVSPropertyOp33
 70
     1
102
RTVSPropertyOp34
 70
     1
102
RTVSPropertyOp35
 70
     1
102
RTVSPropertyOp36
 70
     1
102
RTVSPropertyOp37
 70
     1
102
RTVSPropertyOp38
 70
     1
102
RTVSPropertyOp39
 70
     1
102
RTVSPropertyOp40
 70
     1
102
RTVSPropertyOp41
 70
     1
102
RTVSPropertyOp42
 70
     1
102
RTVSPropertyOp43
 70
     1
102
RTVSPropertyOp44
 70
     1
102
RTVSPropertyOp45
 70
     1
102
RTVSPropertyOp46
 70
     1
102
RTVSPropertyOp47
 70
     1
102
RTVSPropertyOp48
 70
     1
102
RTVSPropertyOp49
 70
     1
102
RTVSPropertyOp50
 70
     1
102
RTVSPropertyOp51
 70
     0
102
RTVSPropertyOp52
 70
     0
102
RTVSPropertyOp53
 70
     1
102
RTVSPropertyOp54
 70
     1
102
RTVSPropertyOp55
 70
     1
102
RTVSPropertyOp56
 70
     1
102
RTVSPropertyOp57
 70
     1
102
RTVSPropertyOp58
 70
     1
102
RTVSPropertyOp59
 70
     1
102
RTVSPropertyOp60
 70
     1
102
RTVSPropertyOp61
 70
     1
102
RTVSPropertyOp62
 70
     1
  0
XRECORD
  5
9D06
102
{ACAD_REACTORS
330
9D05
102
}
330
9D05
100
AcDbXrecord
280
     1
102
RTVSPost2010Prop28
280
     0
102
RTVSPost2010PropOp28
 70
     1
102
RTVSPost2010Prop29
280
     1
102
RTVSPost2010PropOp29
 70
     1
102
RTVSPost2010Prop30
280
     1
102
RTVSPost2010PropOp30
 70
     1
102
RTVSPost2010Prop31
280
     0
102
RTVSPost2010PropOp31
 70
     1
102
RTVSPost2010Prop32
280
     0
102
RTVSPost2010PropOp32
 70
     1
102
RTVSPost2010Prop33
280
     0
102
RTVSPost2010PropOp33
 70
     1
102
RTVSPost2010Prop34
280
     0
102
RTVSPost2010PropOp34
 70
     1
102
RTVSPost2010Prop35
280
     0
102
RTVSPost2010PropOp35
 70
     1
102
RTVSPost2010Prop36
280
     0
102
RTVSPost2010PropOp36
 70
     1
102
RTVSPost2010Prop37
 90
       50
102
RTVSPost2010PropOp37
 70
     1
102
RTVSPost2010Prop38
140
0.0
102
RTVSPost2010PropOp38
 70
     1
102
RTVSPost2010Prop39
140
1.0
102
RTVSPost2010PropOp39
 70
     1
102
RTVSPost2010Prop40
 90
        0
102
RTVSPost2010PropOp40
 70
     1
102
RTVSPost2010Prop41ColorIndex
 90
       18
102
RTVSPost2010Prop41ColorRGB
 90
        0
102
RTVSPost2010PropOp41
 70
     1
102
RTVSPost2010Prop42
 90
       50
102
RTVSPost2010PropOp42
 70
     1
102
RTVSPost2010Prop43
 90
        3
102
RTVSPost2010PropOp43
 70
     1
102
RTVSPost2010Prop44ColorIndex
 90
        5
102
RTVSPost2010Prop44ColorRGB
 90
      255
102
RTVSPost2010PropOp44
 70
     1
102
RTVSPost2010Prop45
280
     0
102
RTVSPost2010PropOp45
 70
     1
102
RTVSPost2010Prop46
 90
       50
102
RTVSPost2010PropOp46
 70
     1
102
RTVSPost2010Prop47
 90
       50
102
RTVSPost2010PropOp47
 70
     1
102
RTVSPost2010Prop48
 90
       50
102
RTVSPost2010PropOp48
 70
     1
102
RTVSPost2010Prop49
280
     0
102
RTVSPost2010PropOp49
 70
     1
102
RTVSPost2010Prop50
 90
       50
102
RTVSPost2010PropOp50
 70
     1
102
RTVSPost2010Prop51ColorIndex
 90
      256
102
RTVSPost2010Prop51ColorRGB
 90
-16777216
102
RTVSPost2010PropOp51
 70
     0
102
RTVSPost2010Prop52
140
1.0
102
RTVSPost2010PropOp52
 70
     0
102
RTVSPost2010Prop53
 90
        2
102
RTVSPost2010PropOp53
 70
     1
102
RTVSPost2010Prop54
  1
strokes_ogs.tif
102
RTVSPost2010PropOp54
 70
     1
102
RTVSPost2010Prop55
280
     0
102
RTVSPost2010PropOp55
 70
     1
102
RTVSPost2010Prop56
140
1.0
102
RTVSPost2010PropOp56
 70
     1
102
RTVSPost2010Prop57
140
1.0
102
RTVSPost2010PropOp57
 70
     1
102
RTVSPropertyOp0
 70
     1
102
RTVSPropertyOp1
 70
     1
102
RTVSPropertyOp2
 70
     1
102
RTVSPropertyOp3
 70
     1
102
RTVSPropertyOp4
 70
     1
102
RTVSPropertyOp5
 70
     1
102
RTVSPropertyOp6
 70
     1
102
RTVSPropertyOp7
 70
     1
102
RTVSPropertyOp8
 70
     1
102
RTVSPropertyOp9
 70
     1
102
RTVSPropertyOp10
 70
     1
102
RTVSPropertyOp11
 70
     1
102
RTVSPropertyOp12
 70
     1
102
RTVSPropertyOp13
 70
     1
102
RTVSPropertyOp14
 70
     1
102
RTVSPropertyOp15
 70
     1
102
RTVSPropertyOp16
 70
     1
102
RTVSPropertyOp17
 70
     1
102
RTVSPropertyOp18
 70
     1
102
RTVSPropertyOp19
 70
     1
102
RTVSPropertyOp20
 70
     1
102
RTVSPropertyOp21
 70
     1
102
RTVSPropertyOp22
 70
     1
102
RTVSPropertyOp23
 70
     1
102
RTVSPropertyOp24
 70
     1
102
RTVSPropertyOp25
 70
     1
102
RTVSPropertyOp26
 70
     1
102
RTVSPropertyOp27
 70
     1
102
RTVSPropertyOp28
 70
     1
102
RTVSPropertyOp29
 70
     1
102
RTVSPropertyOp30
 70
     1
102
RTVSPropertyOp31
 70
     1
102
RTVSPropertyOp32
 70
     1
102
RTVSPropertyOp33
 70
     1
102
RTVSPropertyOp34
 70
     1
102
RTVSPropertyOp35
 70
     1
102
RTVSPropertyOp36
 70
     1
102
RTVSPropertyOp37
 70
     1
102
RTVSPropertyOp38
 70
     1
102
RTVSPropertyOp39
 70
     1
102
RTVSPropertyOp40
 70
     1
102
RTVSPropertyOp41
 70
     1
102
RTVSPropertyOp42
 70
     1
102
RTVSPropertyOp43
 70
     1
102
RTVSPropertyOp44
 70
     1
102
RTVSPropertyOp45
 70
     1
102
RTVSPropertyOp46
 70
     1
102
RTVSPropertyOp47
 70
     1
102
RTVSPropertyOp48
 70
     1
102
RTVSPropertyOp49
 70
     1
102
RTVSPropertyOp50
 70
     1
102
RTVSPropertyOp51
 70
     0
102
RTVSPropertyOp52
 70
     0
102
RTVSPropertyOp53
 70
     1
102
RTVSPropertyOp54
 70
     1
102
RTVSPropertyOp55
 70
     1
102
RTVSPropertyOp56
 70
     1
102
RTVSPropertyOp57
 70
     1
102
RTVSPropertyOp58
 70
     1
102
RTVSPropertyOp59
 70
     1
102
RTVSPropertyOp60
 70
     1
102
RTVSPropertyOp61
 70
     1
102
RTVSPropertyOp62
 70
     1
  0
XRECORD
  5
9D0A
102
{ACAD_REACTORS
330
9D09
102
}
330
9D09
100
AcDbXrecord
280
     1
102
RTVSPost2010Prop28
280
     0
102
RTVSPost2010PropOp28
 70
     1
102
RTVSPost2010Prop29
280
     1
102
RTVSPost2010PropOp29
 70
     1
102
RTVSPost2010Prop30
280
     1
102
RTVSPost2010PropOp30
 70
     1
102
RTVSPost2010Prop31
280
     0
102
RTVSPost2010PropOp31
 70
     1
102
RTVSPost2010Prop32
280
     0
102
RTVSPost2010PropOp32
 70
     1
102
RTVSPost2010Prop33
280
     0
102
RTVSPost2010PropOp33
 70
     1
102
RTVSPost2010Prop34
280
     0
102
RTVSPost2010PropOp34
 70
     1
102
RTVSPost2010Prop35
280
     0
102
RTVSPost2010PropOp35
 70
     1
102
RTVSPost2010Prop36
280
     0
102
RTVSPost2010PropOp36
 70
     1
102
RTVSPost2010Prop37
 90
       50
102
RTVSPost2010PropOp37
 70
     1
102
RTVSPost2010Prop38
140
0.0
102
RTVSPost2010PropOp38
 70
     1
102
RTVSPost2010Prop39
140
1.0
102
RTVSPost2010PropOp39
 70
     1
102
RTVSPost2010Prop40
 90
        0
102
RTVSPost2010PropOp40
 70
     1
102
RTVSPost2010Prop41ColorIndex
 90
       18
102
RTVSPost2010Prop41ColorRGB
 90
        0
102
RTVSPost2010PropOp41
 70
     1
102
RTVSPost2010Prop42
 90
       50
102
RTVSPost2010PropOp42
 70
     1
102
RTVSPost2010Prop43
 90
        3
102
RTVSPost2010PropOp43
 70
     1
102
RTVSPost2010Prop44ColorIndex
 90
        5
102
RTVSPost2010Prop44ColorRGB
 90
      255
102
RTVSPost2010PropOp44
 70
     1
102
RTVSPost2010Prop45
280
     0
102
RTVSPost2010PropOp45
 70
     1
102
RTVSPost2010Prop46
 90
       50
102
RTVSPost2010PropOp46
 70
     1
102
RTVSPost2010Prop47
 90
       50
102
RTVSPost2010PropOp47
 70
     1
102
RTVSPost2010Prop48
 90
       50
102
RTVSPost2010PropOp48
 70
     1
102
RTVSPost2010Prop49
280
     0
102
RTVSPost2010PropOp49
 70
     1
102
RTVSPost2010Prop50
 90
       50
102
RTVSPost2010PropOp50
 70
     1
102
RTVSPost2010Prop51ColorIndex
 90
      256
102
RTVSPost2010Prop51ColorRGB
 90
-16777216
102
RTVSPost2010PropOp51
 70
     0
102
RTVSPost2010Prop52
140
1.0
102
RTVSPost2010PropOp52
 70
     0
102
RTVSPost2010Prop53
 90
        2
102
RTVSPost2010PropOp53
 70
     1
102
RTVSPost2010Prop54
  1
strokes_ogs.tif
102
RTVSPost2010PropOp54
 70
     1
102
RTVSPost2010Prop55
280
     0
102
RTVSPost2010PropOp55
 70
     1
102
RTVSPost2010Prop56
140
1.0
102
RTVSPost2010PropOp56
 70
     1
102
RTVSPost2010Prop57
140
1.0
102
RTVSPost2010PropOp57
 70
     1
102
RTVSPropertyOp0
 70
     1
102
RTVSPropertyOp1
 70
     1
102
RTVSPropertyOp2
 70
     1
102
RTVSPropertyOp3
 70
     1
102
RTVSPropertyOp4
 70
     1
102
RTVSPropertyOp5
 70
     1
102
RTVSPropertyOp6
 70
     1
102
RTVSPropertyOp7
 70
     1
102
RTVSPropertyOp8
 70
     1
102
RTVSPropertyOp9
 70
     1
102
RTVSPropertyOp10
 70
     1
102
RTVSPropertyOp11
 70
     1
102
RTVSPropertyOp12
 70
     1
102
RTVSPropertyOp13
 70
     1
102
RTVSPropertyOp14
 70
     1
102
RTVSPropertyOp15
 70
     1
102
RTVSPropertyOp16
 70
     1
102
RTVSPropertyOp17
 70
     1
102
RTVSPropertyOp18
 70
     1
102
RTVSPropertyOp19
 70
     1
102
RTVSPropertyOp20
 70
     1
102
RTVSPropertyOp21
 70
     1
102
RTVSPropertyOp22
 70
     1
102
RTVSPropertyOp23
 70
     1
102
RTVSPropertyOp24
 70
     1
102
RTVSPropertyOp25
 70
     1
102
RTVSPropertyOp26
 70
     1
102
RTVSPropertyOp27
 70
     1
102
RTVSPropertyOp28
 70
     1
102
RTVSPropertyOp29
 70
     1
102
RTVSPropertyOp30
 70
     1
102
RTVSPropertyOp31
 70
     1
102
RTVSPropertyOp32
 70
     1
102
RTVSPropertyOp33
 70
     1
102
RTVSPropertyOp34
 70
     1
102
RTVSPropertyOp35
 70
     1
102
RTVSPropertyOp36
 70
     1
102
RTVSPropertyOp37
 70
     1
102
RTVSPropertyOp38
 70
     1
102
RTVSPropertyOp39
 70
     1
102
RTVSPropertyOp40
 70
     1
102
RTVSPropertyOp41
 70
     1
102
RTVSPropertyOp42
 70
     1
102
RTVSPropertyOp43
 70
     1
102
RTVSPropertyOp44
 70
     1
102
RTVSPropertyOp45
 70
     1
102
RTVSPropertyOp46
 70
     1
102
RTVSPropertyOp47
 70
     1
102
RTVSPropertyOp48
 70
     1
102
RTVSPropertyOp49
 70
     1
102
RTVSPropertyOp50
 70
     1
102
RTVSPropertyOp51
 70
     0
102
RTVSPropertyOp52
 70
     0
102
RTVSPropertyOp53
 70
     1
102
RTVSPropertyOp54
 70
     1
102
RTVSPropertyOp55
 70
     1
102
RTVSPropertyOp56
 70
     1
102
RTVSPropertyOp57
 70
     1
102
RTVSPropertyOp58
 70
     1
102
RTVSPropertyOp59
 70
     1
102
RTVSPropertyOp60
 70
     1
102
RTVSPropertyOp61
 70
     1
102
RTVSPropertyOp62
 70
     1
  0
XRECORD
  5
9D24
102
{ACAD_REACTORS
330
9D23
102
}
330
9D23
100
AcDbXrecord
280
     1
102
RTVSPost2010Prop28
280
     0
102
RTVSPost2010PropOp28
 70
     1
102
RTVSPost2010Prop29
280
     1
102
RTVSPost2010PropOp29
 70
     1
102
RTVSPost2010Prop30
280
     1
102
RTVSPost2010PropOp30
 70
     1
102
RTVSPost2010Prop31
280
     0
102
RTVSPost2010PropOp31
 70
     1
102
RTVSPost2010Prop32
280
     0
102
RTVSPost2010PropOp32
 70
     1
102
RTVSPost2010Prop33
280
     0
102
RTVSPost2010PropOp33
 70
     1
102
RTVSPost2010Prop34
280
     0
102
RTVSPost2010PropOp34
 70
     1
102
RTVSPost2010Prop35
280
     0
102
RTVSPost2010PropOp35
 70
     1
102
RTVSPost2010Prop36
280
     0
102
RTVSPost2010PropOp36
 70
     1
102
RTVSPost2010Prop37
 90
       50
102
RTVSPost2010PropOp37
 70
     0
102
RTVSPost2010Prop38
140
0.0
102
RTVSPost2010PropOp38
 70
     0
102
RTVSPost2010Prop39
140
1.0
102
RTVSPost2010PropOp39
 70
     0
102
RTVSPost2010Prop40
 90
        0
102
RTVSPost2010PropOp40
 70
     0
102
RTVSPost2010Prop41ColorIndex
 90
       18
102
RTVSPost2010Prop41ColorRGB
 90
        0
102
RTVSPost2010PropOp41
 70
     0
102
RTVSPost2010Prop42
 90
       50
102
RTVSPost2010PropOp42
 70
     0
102
RTVSPost2010Prop43
 90
        3
102
RTVSPost2010PropOp43
 70
     0
102
RTVSPost2010Prop44ColorIndex
 90
        5
102
RTVSPost2010Prop44ColorRGB
 90
      255
102
RTVSPost2010PropOp44
 70
     0
102
RTVSPost2010Prop45
280
     0
102
RTVSPost2010PropOp45
 70
     1
102
RTVSPost2010Prop46
 90
       50
102
RTVSPost2010PropOp46
 70
     0
102
RTVSPost2010Prop47
 90
       50
102
RTVSPost2010PropOp47
 70
     0
102
RTVSPost2010Prop48
 90
       50
102
RTVSPost2010PropOp48
 70
     0
102
RTVSPost2010Prop49
280
     0
102
RTVSPost2010PropOp49
 70
     1
102
RTVSPost2010Prop50
 90
       50
102
RTVSPost2010PropOp50
 70
     0
102
RTVSPost2010Prop51ColorIndex
 90
      256
102
RTVSPost2010Prop51ColorRGB
 90
-16777216
102
RTVSPost2010PropOp51
 70
     0
102
RTVSPost2010Prop52
140
1.0
102
RTVSPost2010PropOp52
 70
     0
102
RTVSPost2010Prop53
 90
        2
102
RTVSPost2010PropOp53
 70
     0
102
RTVSPost2010Prop54
  1
strokes_ogs.tif
102
RTVSPost2010PropOp54
 70
     0
102
RTVSPost2010Prop55
280
     0
102
RTVSPost2010PropOp55
 70
     1
102
RTVSPost2010Prop56
140
1.0
102
RTVSPost2010PropOp56
 70
     0
102
RTVSPost2010Prop57
140
1.0
102
RTVSPost2010PropOp57
 70
     0
102
RTVSPropertyOp0
 70
     0
102
RTVSPropertyOp1
 70
     0
102
RTVSPropertyOp2
 70
     0
102
RTVSPropertyOp3
 70
     0
102
RTVSPropertyOp4
 70
     0
102
RTVSPropertyOp5
 70
     0
102
RTVSPropertyOp6
 70
     0
102
RTVSPropertyOp7
 70
     0
102
RTVSPropertyOp8
 70
     0
102
RTVSPropertyOp9
 70
     0
102
RTVSPropertyOp10
 70
     0
102
RTVSPropertyOp11
 70
     0
102
RTVSPropertyOp12
 70
     0
102
RTVSPropertyOp13
 70
     0
102
RTVSPropertyOp14
 70
     2
102
RTVSPropertyOp15
 70
     0
102
RTVSPropertyOp16
 70
     0
102
RTVSPropertyOp17
 70
     0
102
RTVSPropertyOp18
 70
     0
102
RTVSPropertyOp19
 70
     0
102
RTVSPropertyOp20
 70
     0
102
RTVSPropertyOp21
 70
     0
102
RTVSPropertyOp22
 70
     0
102
RTVSPropertyOp23
 70
     0
102
RTVSPropertyOp24
 70
     0
102
RTVSPropertyOp25
 70
     0
102
RTVSPropertyOp26
 70
     0
102
RTVSPropertyOp27
 70
     0
102
RTVSPropertyOp28
 70
     1
102
RTVSPropertyOp29
 70
     1
102
RTVSPropertyOp30
 70
     1
102
RTVSPropertyOp31
 70
     1
102
RTVSPropertyOp32
 70
     1
102
RTVSPropertyOp33
 70
     1
102
RTVSPropertyOp34
 70
     1
102
RTVSPropertyOp35
 70
     1
102
RTVSPropertyOp36
 70
     1
102
RTVSPropertyOp37
 70
     0
102
RTVSPropertyOp38
 70
     0
102
RTVSPropertyOp39
 70
     0
102
RTVSPropertyOp40
 70
     0
102
RTVSPropertyOp41
 70
     0
102
RTVSPropertyOp42
 70
     0
102
RTVSPropertyOp43
 70
     0
102
RTVSPropertyOp44
 70
     0
102
RTVSPropertyOp45
 70
     1
102
RTVSPropertyOp46
 70
     0
102
RTVSPropertyOp47
 70
     0
102
RTVSPropertyOp48
 70
     0
102
RTVSPropertyOp49
 70
     1
102
RTVSPropertyOp50
 70
     0
102
RTVSPropertyOp51
 70
     0
102
RTVSPropertyOp52
 70
     0
102
RTVSPropertyOp53
 70
     0
102
RTVSPropertyOp54
 70
     0
102
RTVSPropertyOp55
 70
     1
102
RTVSPropertyOp56
 70
     0
102
RTVSPropertyOp57
 70
     0
102
RTVSPropertyOp58
 70
     0
102
RTVSPropertyOp59
 70
     0
102
RTVSPropertyOp60
 70
     0
102
RTVSPropertyOp61
 70
     0
102
RTVSPropertyOp62
 70
     0
  0
XRECORD
  5
9D12
102
{ACAD_REACTORS
330
9D11
102
}
330
9D11
100
AcDbXrecord
280
     1
102
RTVSPost2010Prop28
280
     0
102
RTVSPost2010PropOp28
 70
     1
102
RTVSPost2010Prop29
280
     1
102
RTVSPost2010PropOp29
 70
     1
102
RTVSPost2010Prop30
280
     1
102
RTVSPost2010PropOp30
 70
     1
102
RTVSPost2010Prop31
280
     0
102
RTVSPost2010PropOp31
 70
     1
102
RTVSPost2010Prop32
280
     0
102
RTVSPost2010PropOp32
 70
     1
102
RTVSPost2010Prop33
280
     0
102
RTVSPost2010PropOp33
 70
     1
102
RTVSPost2010Prop34
280
     0
102
RTVSPost2010PropOp34
 70
     1
102
RTVSPost2010Prop35
280
     0
102
RTVSPost2010PropOp35
 70
     1
102
RTVSPost2010Prop36
280
     0
102
RTVSPost2010PropOp36
 70
     1
102
RTVSPost2010Prop37
 90
       50
102
RTVSPost2010PropOp37
 70
     1
102
RTVSPost2010Prop38
140
0.0
102
RTVSPost2010PropOp38
 70
     1
102
RTVSPost2010Prop39
140
1.0
102
RTVSPost2010PropOp39
 70
     1
102
RTVSPost2010Prop40
 90
        0
102
RTVSPost2010PropOp40
 70
     1
102
RTVSPost2010Prop41ColorIndex
 90
       18
102
RTVSPost2010Prop41ColorRGB
 90
        0
102
RTVSPost2010PropOp41
 70
     1
102
RTVSPost2010Prop42
 90
       50
102
RTVSPost2010PropOp42
 70
     1
102
RTVSPost2010Prop43
 90
        3
102
RTVSPost2010PropOp43
 70
     1
102
RTVSPost2010Prop44ColorIndex
 90
        5
102
RTVSPost2010Prop44ColorRGB
 90
      255
102
RTVSPost2010PropOp44
 70
     1
102
RTVSPost2010Prop45
280
     0
102
RTVSPost2010PropOp45
 70
     1
102
RTVSPost2010Prop46
 90
       50
102
RTVSPost2010PropOp46
 70
     1
102
RTVSPost2010Prop47
 90
       50
102
RTVSPost2010PropOp47
 70
     1
102
RTVSPost2010Prop48
 90
       50
102
RTVSPost2010PropOp48
 70
     1
102
RTVSPost2010Prop49
280
     0
102
RTVSPost2010PropOp49
 70
     1
102
RTVSPost2010Prop50
 90
       50
102
RTVSPost2010PropOp50
 70
     1
102
RTVSPost2010Prop51ColorIndex
 90
      256
102
RTVSPost2010Prop51ColorRGB
 90
-16777216
102
RTVSPost2010PropOp51
 70
     0
102
RTVSPost2010Prop52
140
1.0
102
RTVSPost2010PropOp52
 70
     0
102
RTVSPost2010Prop53
 90
        2
102
RTVSPost2010PropOp53
 70
     1
102
RTVSPost2010Prop54
  1
strokes_ogs.tif
102
RTVSPost2010PropOp54
 70
     1
102
RTVSPost2010Prop55
280
     0
102
RTVSPost2010PropOp55
 70
     1
102
RTVSPost2010Prop56
140
1.0
102
RTVSPost2010PropOp56
 70
     1
102
RTVSPost2010Prop57
140
1.0
102
RTVSPost2010PropOp57
 70
     1
102
RTVSPropertyOp0
 70
     1
102
RTVSPropertyOp1
 70
     1
102
RTVSPropertyOp2
 70
     1
102
RTVSPropertyOp3
 70
     1
102
RTVSPropertyOp4
 70
     1
102
RTVSPropertyOp5
 70
     1
102
RTVSPropertyOp6
 70
     1
102
RTVSPropertyOp7
 70
     1
102
RTVSPropertyOp8
 70
     1
102
RTVSPropertyOp9
 70
     1
102
RTVSPropertyOp10
 70
     1
102
RTVSPropertyOp11
 70
     1
102
RTVSPropertyOp12
 70
     1
102
RTVSPropertyOp13
 70
     1
102
RTVSPropertyOp14
 70
     1
102
RTVSPropertyOp15
 70
     1
102
RTVSPropertyOp16
 70
     1
102
RTVSPropertyOp17
 70
     1
102
RTVSPropertyOp18
 70
     1
102
RTVSPropertyOp19
 70
     1
102
RTVSPropertyOp20
 70
     1
102
RTVSPropertyOp21
 70
     1
102
RTVSPropertyOp22
 70
     1
102
RTVSPropertyOp23
 70
     1
102
RTVSPropertyOp24
 70
     1
102
RTVSPropertyOp25
 70
     1
102
RTVSPropertyOp26
 70
     1
102
RTVSPropertyOp27
 70
     1
102
RTVSPropertyOp28
 70
     1
102
RTVSPropertyOp29
 70
     1
102
RTVSPropertyOp30
 70
     1
102
RTVSPropertyOp31
 70
     1
102
RTVSPropertyOp32
 70
     1
102
RTVSPropertyOp33
 70
     1
102
RTVSPropertyOp34
 70
     1
102
RTVSPropertyOp35
 70
     1
102
RTVSPropertyOp36
 70
     1
102
RTVSPropertyOp37
 70
     1
102
RTVSPropertyOp38
 70
     1
102
RTVSPropertyOp39
 70
     1
102
RTVSPropertyOp40
 70
     1
102
RTVSPropertyOp41
 70
     1
102
RTVSPropertyOp42
 70
     1
102
RTVSPropertyOp43
 70
     1
102
RTVSPropertyOp44
 70
     1
102
RTVSPropertyOp45
 70
     1
102
RTVSPropertyOp46
 70
     1
102
RTVSPropertyOp47
 70
     1
102
RTVSPropertyOp48
 70
     1
102
RTVSPropertyOp49
 70
     1
102
RTVSPropertyOp50
 70
     1
102
RTVSPropertyOp51
 70
     0
102
RTVSPropertyOp52
 70
     0
102
RTVSPropertyOp53
 70
     1
102
RTVSPropertyOp54
 70
     1
102
RTVSPropertyOp55
 70
     1
102
RTVSPropertyOp56
 70
     1
102
RTVSPropertyOp57
 70
     1
102
RTVSPropertyOp58
 70
     1
102
RTVSPropertyOp59
 70
     1
102
RTVSPropertyOp60
 70
     1
102
RTVSPropertyOp61
 70
     1
102
RTVSPropertyOp62
 70
     1
  0
XRECORD
  5
9CF6
102
{ACAD_REACTORS
330
9CF5
102
}
330
9CF5
100
AcDbXrecord
280
     1
102
RTVSPost2010Prop28
280
     0
102
RTVSPost2010PropOp28
 70
     1
102
RTVSPost2010Prop29
280
     1
102
RTVSPost2010PropOp29
 70
     1
102
RTVSPost2010Prop30
280
     1
102
RTVSPost2010PropOp30
 70
     1
102
RTVSPost2010Prop31
280
     0
102
RTVSPost2010PropOp31
 70
     1
102
RTVSPost2010Prop32
280
     0
102
RTVSPost2010PropOp32
 70
     1
102
RTVSPost2010Prop33
280
     0
102
RTVSPost2010PropOp33
 70
     1
102
RTVSPost2010Prop34
280
     0
102
RTVSPost2010PropOp34
 70
     1
102
RTVSPost2010Prop35
280
     0
102
RTVSPost2010PropOp35
 70
     1
102
RTVSPost2010Prop36
280
     0
102
RTVSPost2010PropOp36
 70
     1
102
RTVSPost2010Prop37
 90
       50
102
RTVSPost2010PropOp37
 70
     1
102
RTVSPost2010Prop38
140
0.0
102
RTVSPost2010PropOp38
 70
     1
102
RTVSPost2010Prop39
140
1.0
102
RTVSPost2010PropOp39
 70
     1
102
RTVSPost2010Prop40
 90
        0
102
RTVSPost2010PropOp40
 70
     1
102
RTVSPost2010Prop41ColorIndex
 90
       18
102
RTVSPost2010Prop41ColorRGB
 90
        0
102
RTVSPost2010PropOp41
 70
     1
102
RTVSPost2010Prop42
 90
       50
102
RTVSPost2010PropOp42
 70
     1
102
RTVSPost2010Prop43
 90
        3
102
RTVSPost2010PropOp43
 70
     1
102
RTVSPost2010Prop44ColorIndex
 90
        5
102
RTVSPost2010Prop44ColorRGB
 90
      255
102
RTVSPost2010PropOp44
 70
     1
102
RTVSPost2010Prop45
280
     0
102
RTVSPost2010PropOp45
 70
     1
102
RTVSPost2010Prop46
 90
       50
102
RTVSPost2010PropOp46
 70
     1
102
RTVSPost2010Prop47
 90
       50
102
RTVSPost2010PropOp47
 70
     1
102
RTVSPost2010Prop48
 90
       50
102
RTVSPost2010PropOp48
 70
     1
102
RTVSPost2010Prop49
280
     0
102
RTVSPost2010PropOp49
 70
     1
102
RTVSPost2010Prop50
 90
       50
102
RTVSPost2010PropOp50
 70
     1
102
RTVSPost2010Prop51ColorIndex
 90
      256
102
RTVSPost2010Prop51ColorRGB
 90
-16777216
102
RTVSPost2010PropOp51
 70
     0
102
RTVSPost2010Prop52
140
1.0
102
RTVSPost2010PropOp52
 70
     0
102
RTVSPost2010Prop53
 90
        2
102
RTVSPost2010PropOp53
 70
     1
102
RTVSPost2010Prop54
  1
strokes_ogs.tif
102
RTVSPost2010PropOp54
 70
     1
102
RTVSPost2010Prop55
280
     0
102
RTVSPost2010PropOp55
 70
     1
102
RTVSPost2010Prop56
140
1.0
102
RTVSPost2010PropOp56
 70
     1
102
RTVSPost2010Prop57
140
1.0
102
RTVSPost2010PropOp57
 70
     1
102
RTVSPropertyOp0
 70
     1
102
RTVSPropertyOp1
 70
     1
102
RTVSPropertyOp2
 70
     1
102
RTVSPropertyOp3
 70
     1
102
RTVSPropertyOp4
 70
     1
102
RTVSPropertyOp5
 70
     1
102
RTVSPropertyOp6
 70
     1
102
RTVSPropertyOp7
 70
     1
102
RTVSPropertyOp8
 70
     1
102
RTVSPropertyOp9
 70
     1
102
RTVSPropertyOp10
 70
     1
102
RTVSPropertyOp11
 70
     1
102
RTVSPropertyOp12
 70
     1
102
RTVSPropertyOp13
 70
     1
102
RTVSPropertyOp14
 70
     1
102
RTVSPropertyOp15
 70
     1
102
RTVSPropertyOp16
 70
     1
102
RTVSPropertyOp17
 70
     1
102
RTVSPropertyOp18
 70
     1
102
RTVSPropertyOp19
 70
     1
102
RTVSPropertyOp20
 70
     1
102
RTVSPropertyOp21
 70
     1
102
RTVSPropertyOp22
 70
     1
102
RTVSPropertyOp23
 70
     1
102
RTVSPropertyOp24
 70
     1
102
RTVSPropertyOp25
 70
     1
102
RTVSPropertyOp26
 70
     1
102
RTVSPropertyOp27
 70
     1
102
RTVSPropertyOp28
 70
     1
102
RTVSPropertyOp29
 70
     1
102
RTVSPropertyOp30
 70
     1
102
RTVSPropertyOp31
 70
     1
102
RTVSPropertyOp32
 70
     1
102
RTVSPropertyOp33
 70
     1
102
RTVSPropertyOp34
 70
     1
102
RTVSPropertyOp35
 70
     1
102
RTVSPropertyOp36
 70
     1
102
RTVSPropertyOp37
 70
     1
102
RTVSPropertyOp38
 70
     1
102
RTVSPropertyOp39
 70
     1
102
RTVSPropertyOp40
 70
     1
102
RTVSPropertyOp41
 70
     1
102
RTVSPropertyOp42
 70
     1
102
RTVSPropertyOp43
 70
     1
102
RTVSPropertyOp44
 70
     1
102
RTVSPropertyOp45
 70
     1
102
RTVSPropertyOp46
 70
     1
102
RTVSPropertyOp47
 70
     1
102
RTVSPropertyOp48
 70
     1
102
RTVSPropertyOp49
 70
     1
102
RTVSPropertyOp50
 70
     1
102
RTVSPropertyOp51
 70
     0
102
RTVSPropertyOp52
 70
     0
102
RTVSPropertyOp53
 70
     1
102
RTVSPropertyOp54
 70
     1
102
RTVSPropertyOp55
 70
     1
102
RTVSPropertyOp56
 70
     1
102
RTVSPropertyOp57
 70
     1
102
RTVSPropertyOp58
 70
     1
102
RTVSPropertyOp59
 70
     1
102
RTVSPropertyOp60
 70
     1
102
RTVSPropertyOp61
 70
     1
102
RTVSPropertyOp62
 70
     1
  0
XRECORD
  5
9CF8
102
{ACAD_REACTORS
330
9CF7
102
}
330
9CF7
100
AcDbXrecord
280
     1
102
RTVSPost2010Prop28
280
     0
102
RTVSPost2010PropOp28
 70
     1
102
RTVSPost2010Prop29
280
     1
102
RTVSPost2010PropOp29
 70
     1
102
RTVSPost2010Prop30
280
     1
102
RTVSPost2010PropOp30
 70
     1
102
RTVSPost2010Prop31
280
     0
102
RTVSPost2010PropOp31
 70
     1
102
RTVSPost2010Prop32
280
     0
102
RTVSPost2010PropOp32
 70
     1
102
RTVSPost2010Prop33
280
     0
102
RTVSPost2010PropOp33
 70
     1
102
RTVSPost2010Prop34
280
     0
102
RTVSPost2010PropOp34
 70
     1
102
RTVSPost2010Prop35
280
     0
102
RTVSPost2010PropOp35
 70
     1
102
RTVSPost2010Prop36
280
     0
102
RTVSPost2010PropOp36
 70
     1
102
RTVSPost2010Prop37
 90
       50
102
RTVSPost2010PropOp37
 70
     1
102
RTVSPost2010Prop38
140
0.0
102
RTVSPost2010PropOp38
 70
     1
102
RTVSPost2010Prop39
140
1.0
102
RTVSPost2010PropOp39
 70
     1
102
RTVSPost2010Prop40
 90
        0
102
RTVSPost2010PropOp40
 70
     1
102
RTVSPost2010Prop41ColorIndex
 90
       18
102
RTVSPost2010Prop41ColorRGB
 90
        0
102
RTVSPost2010PropOp41
 70
     1
102
RTVSPost2010Prop42
 90
       50
102
RTVSPost2010PropOp42
 70
     1
102
RTVSPost2010Prop43
 90
        3
102
RTVSPost2010PropOp43
 70
     1
102
RTVSPost2010Prop44ColorIndex
 90
        5
102
RTVSPost2010Prop44ColorRGB
 90
      255
102
RTVSPost2010PropOp44
 70
     1
102
RTVSPost2010Prop45
280
     0
102
RTVSPost2010PropOp45
 70
     1
102
RTVSPost2010Prop46
 90
       50
102
RTVSPost2010PropOp46
 70
     1
102
RTVSPost2010Prop47
 90
       50
102
RTVSPost2010PropOp47
 70
     1
102
RTVSPost2010Prop48
 90
       50
102
RTVSPost2010PropOp48
 70
     1
102
RTVSPost2010Prop49
280
     0
102
RTVSPost2010PropOp49
 70
     1
102
RTVSPost2010Prop50
 90
       50
102
RTVSPost2010PropOp50
 70
     1
102
RTVSPost2010Prop51ColorIndex
 90
      256
102
RTVSPost2010Prop51ColorRGB
 90
-16777216
102
RTVSPost2010PropOp51
 70
     0
102
RTVSPost2010Prop52
140
1.0
102
RTVSPost2010PropOp52
 70
     0
102
RTVSPost2010Prop53
 90
        2
102
RTVSPost2010PropOp53
 70
     1
102
RTVSPost2010Prop54
  1
strokes_ogs.tif
102
RTVSPost2010PropOp54
 70
     1
102
RTVSPost2010Prop55
280
     0
102
RTVSPost2010PropOp55
 70
     1
102
RTVSPost2010Prop56
140
1.0
102
RTVSPost2010PropOp56
 70
     1
102
RTVSPost2010Prop57
140
1.0
102
RTVSPost2010PropOp57
 70
     1
102
RTVSPropertyOp0
 70
     1
102
RTVSPropertyOp1
 70
     1
102
RTVSPropertyOp2
 70
     1
102
RTVSPropertyOp3
 70
     1
102
RTVSPropertyOp4
 70
     1
102
RTVSPropertyOp5
 70
     1
102
RTVSPropertyOp6
 70
     1
102
RTVSPropertyOp7
 70
     1
102
RTVSPropertyOp8
 70
     1
102
RTVSPropertyOp9
 70
     1
102
RTVSPropertyOp10
 70
     1
102
RTVSPropertyOp11
 70
     1
102
RTVSPropertyOp12
 70
     1
102
RTVSPropertyOp13
 70
     1
102
RTVSPropertyOp14
 70
     1
102
RTVSPropertyOp15
 70
     1
102
RTVSPropertyOp16
 70
     1
102
RTVSPropertyOp17
 70
     1
102
RTVSPropertyOp18
 70
     1
102
RTVSPropertyOp19
 70
     1
102
RTVSPropertyOp20
 70
     1
102
RTVSPropertyOp21
 70
     1
102
RTVSPropertyOp22
 70
     1
102
RTVSPropertyOp23
 70
     1
102
RTVSPropertyOp24
 70
     1
102
RTVSPropertyOp25
 70
     1
102
RTVSPropertyOp26
 70
     1
102
RTVSPropertyOp27
 70
     1
102
RTVSPropertyOp28
 70
     1
102
RTVSPropertyOp29
 70
     1
102
RTVSPropertyOp30
 70
     1
102
RTVSPropertyOp31
 70
     1
102
RTVSPropertyOp32
 70
     1
102
RTVSPropertyOp33
 70
     1
102
RTVSPropertyOp34
 70
     1
102
RTVSPropertyOp35
 70
     1
102
RTVSPropertyOp36
 70
     1
102
RTVSPropertyOp37
 70
     1
102
RTVSPropertyOp38
 70
     1
102
RTVSPropertyOp39
 70
     1
102
RTVSPropertyOp40
 70
     1
102
RTVSPropertyOp41
 70
     1
102
RTVSPropertyOp42
 70
     1
102
RTVSPropertyOp43
 70
     1
102
RTVSPropertyOp44
 70
     1
102
RTVSPropertyOp45
 70
     1
102
RTVSPropertyOp46
 70
     1
102
RTVSPropertyOp47
 70
     1
102
RTVSPropertyOp48
 70
     1
102
RTVSPropertyOp49
 70
     1
102
RTVSPropertyOp50
 70
     1
102
RTVSPropertyOp51
 70
     0
102
RTVSPropertyOp52
 70
     0
102
RTVSPropertyOp53
 70
     1
102
RTVSPropertyOp54
 70
     1
102
RTVSPropertyOp55
 70
     1
102
RTVSPropertyOp56
 70
     1
102
RTVSPropertyOp57
 70
     1
102
RTVSPropertyOp58
 70
     1
102
RTVSPropertyOp59
 70
     1
102
RTVSPropertyOp60
 70
     1
102
RTVSPropertyOp61
 70
     1
102
RTVSPropertyOp62
 70
     1
  0
XRECORD
  5
9CFA
102
{ACAD_REACTORS
330
9CF9
102
}
330
9CF9
100
AcDbXrecord
280
     1
102
RTVSPost2010Prop28
280
     0
102
RTVSPost2010PropOp28
 70
     1
102
RTVSPost2010Prop29
280
     1
102
RTVSPost2010PropOp29
 70
     1
102
RTVSPost2010Prop30
280
     1
102
RTVSPost2010PropOp30
 70
     1
102
RTVSPost2010Prop31
280
     0
102
RTVSPost2010PropOp31
 70
     1
102
RTVSPost2010Prop32
280
     0
102
RTVSPost2010PropOp32
 70
     1
102
RTVSPost2010Prop33
280
     0
102
RTVSPost2010PropOp33
 70
     1
102
RTVSPost2010Prop34
280
     0
102
RTVSPost2010PropOp34
 70
     1
102
RTVSPost2010Prop35
280
     0
102
RTVSPost2010PropOp35
 70
     1
102
RTVSPost2010Prop36
280
     0
102
RTVSPost2010PropOp36
 70
     1
102
RTVSPost2010Prop37
 90
       50
102
RTVSPost2010PropOp37
 70
     1
102
RTVSPost2010Prop38
140
0.0
102
RTVSPost2010PropOp38
 70
     1
102
RTVSPost2010Prop39
140
1.0
102
RTVSPost2010PropOp39
 70
     1
102
RTVSPost2010Prop40
 90
        0
102
RTVSPost2010PropOp40
 70
     1
102
RTVSPost2010Prop41ColorIndex
 90
       18
102
RTVSPost2010Prop41ColorRGB
 90
        0
102
RTVSPost2010PropOp41
 70
     1
102
RTVSPost2010Prop42
 90
       50
102
RTVSPost2010PropOp42
 70
     1
102
RTVSPost2010Prop43
 90
        3
102
RTVSPost2010PropOp43
 70
     1
102
RTVSPost2010Prop44ColorIndex
 90
        5
102
RTVSPost2010Prop44ColorRGB
 90
      255
102
RTVSPost2010PropOp44
 70
     1
102
RTVSPost2010Prop45
280
     0
102
RTVSPost2010PropOp45
 70
     1
102
RTVSPost2010Prop46
 90
       50
102
RTVSPost2010PropOp46
 70
     1
102
RTVSPost2010Prop47
 90
       50
102
RTVSPost2010PropOp47
 70
     1
102
RTVSPost2010Prop48
 90
       50
102
RTVSPost2010PropOp48
 70
     1
102
RTVSPost2010Prop49
280
     0
102
RTVSPost2010PropOp49
 70
     1
102
RTVSPost2010Prop50
 90
       50
102
RTVSPost2010PropOp50
 70
     1
102
RTVSPost2010Prop51ColorIndex
 90
      256
102
RTVSPost2010Prop51ColorRGB
 90
-16777216
102
RTVSPost2010PropOp51
 70
     0
102
RTVSPost2010Prop52
140
1.0
102
RTVSPost2010PropOp52
 70
     0
102
RTVSPost2010Prop53
 90
        2
102
RTVSPost2010PropOp53
 70
     1
102
RTVSPost2010Prop54
  1
strokes_ogs.tif
102
RTVSPost2010PropOp54
 70
     1
102
RTVSPost2010Prop55
280
     0
102
RTVSPost2010PropOp55
 70
     1
102
RTVSPost2010Prop56
140
1.0
102
RTVSPost2010PropOp56
 70
     1
102
RTVSPost2010Prop57
140
1.0
102
RTVSPost2010PropOp57
 70
     1
102
RTVSPropertyOp0
 70
     1
102
RTVSPropertyOp1
 70
     1
102
RTVSPropertyOp2
 70
     1
102
RTVSPropertyOp3
 70
     1
102
RTVSPropertyOp4
 70
     1
102
RTVSPropertyOp5
 70
     1
102
RTVSPropertyOp6
 70
     1
102
RTVSPropertyOp7
 70
     1
102
RTVSPropertyOp8
 70
     1
102
RTVSPropertyOp9
 70
     1
102
RTVSPropertyOp10
 70
     1
102
RTVSPropertyOp11
 70
     1
102
RTVSPropertyOp12
 70
     1
102
RTVSPropertyOp13
 70
     1
102
RTVSPropertyOp14
 70
     1
102
RTVSPropertyOp15
 70
     1
102
RTVSPropertyOp16
 70
     1
102
RTVSPropertyOp17
 70
     1
102
RTVSPropertyOp18
 70
     1
102
RTVSPropertyOp19
 70
     1
102
RTVSPropertyOp20
 70
     1
102
RTVSPropertyOp21
 70
     1
102
RTVSPropertyOp22
 70
     1
102
RTVSPropertyOp23
 70
     1
102
RTVSPropertyOp24
 70
     1
102
RTVSPropertyOp25
 70
     1
102
RTVSPropertyOp26
 70
     1
102
RTVSPropertyOp27
 70
     1
102
RTVSPropertyOp28
 70
     1
102
RTVSPropertyOp29
 70
     1
102
RTVSPropertyOp30
 70
     1
102
RTVSPropertyOp31
 70
     1
102
RTVSPropertyOp32
 70
     1
102
RTVSPropertyOp33
 70
     1
102
RTVSPropertyOp34
 70
     1
102
RTVSPropertyOp35
 70
     1
102
RTVSPropertyOp36
 70
     1
102
RTVSPropertyOp37
 70
     1
102
RTVSPropertyOp38
 70
     1
102
RTVSPropertyOp39
 70
     1
102
RTVSPropertyOp40
 70
     1
102
RTVSPropertyOp41
 70
     1
102
RTVSPropertyOp42
 70
     1
102
RTVSPropertyOp43
 70
     1
102
RTVSPropertyOp44
 70
     1
102
RTVSPropertyOp45
 70
     1
102
RTVSPropertyOp46
 70
     1
102
RTVSPropertyOp47
 70
     1
102
RTVSPropertyOp48
 70
     1
102
RTVSPropertyOp49
 70
     1
102
RTVSPropertyOp50
 70
     1
102
RTVSPropertyOp51
 70
     0
102
RTVSPropertyOp52
 70
     0
102
RTVSPropertyOp53
 70
     1
102
RTVSPropertyOp54
 70
     1
102
RTVSPropertyOp55
 70
     1
102
RTVSPropertyOp56
 70
     1
102
RTVSPropertyOp57
 70
     1
102
RTVSPropertyOp58
 70
     1
102
RTVSPropertyOp59
 70
     1
102
RTVSPropertyOp60
 70
     1
102
RTVSPropertyOp61
 70
     1
102
RTVSPropertyOp62
 70
     1
  0
XRECORD
  5
9CFC
102
{ACAD_REACTORS
330
9CFB
102
}
330
9CFB
100
AcDbXrecord
280
     1
102
RTVSPost2010Prop28
280
     0
102
RTVSPost2010PropOp28
 70
     1
102
RTVSPost2010Prop29
280
     1
102
RTVSPost2010PropOp29
 70
     1
102
RTVSPost2010Prop30
280
     1
102
RTVSPost2010PropOp30
 70
     1
102
RTVSPost2010Prop31
280
     0
102
RTVSPost2010PropOp31
 70
     1
102
RTVSPost2010Prop32
280
     0
102
RTVSPost2010PropOp32
 70
     1
102
RTVSPost2010Prop33
280
     0
102
RTVSPost2010PropOp33
 70
     1
102
RTVSPost2010Prop34
280
     0
102
RTVSPost2010PropOp34
 70
     1
102
RTVSPost2010Prop35
280
     0
102
RTVSPost2010PropOp35
 70
     1
102
RTVSPost2010Prop36
280
     0
102
RTVSPost2010PropOp36
 70
     1
102
RTVSPost2010Prop37
 90
       50
102
RTVSPost2010PropOp37
 70
     1
102
RTVSPost2010Prop38
140
0.0
102
RTVSPost2010PropOp38
 70
     1
102
RTVSPost2010Prop39
140
1.0
102
RTVSPost2010PropOp39
 70
     1
102
RTVSPost2010Prop40
 90
        0
102
RTVSPost2010PropOp40
 70
     1
102
RTVSPost2010Prop41ColorIndex
 90
       18
102
RTVSPost2010Prop41ColorRGB
 90
        0
102
RTVSPost2010PropOp41
 70
     1
102
RTVSPost2010Prop42
 90
       50
102
RTVSPost2010PropOp42
 70
     1
102
RTVSPost2010Prop43
 90
        3
102
RTVSPost2010PropOp43
 70
     1
102
RTVSPost2010Prop44ColorIndex
 90
        5
102
RTVSPost2010Prop44ColorRGB
 90
      255
102
RTVSPost2010PropOp44
 70
     1
102
RTVSPost2010Prop45
280
     0
102
RTVSPost2010PropOp45
 70
     1
102
RTVSPost2010Prop46
 90
       50
102
RTVSPost2010PropOp46
 70
     1
102
RTVSPost2010Prop47
 90
       50
102
RTVSPost2010PropOp47
 70
     1
102
RTVSPost2010Prop48
 90
       50
102
RTVSPost2010PropOp48
 70
     1
102
RTVSPost2010Prop49
280
     0
102
RTVSPost2010PropOp49
 70
     1
102
RTVSPost2010Prop50
 90
       50
102
RTVSPost2010PropOp50
 70
     1
102
RTVSPost2010Prop51ColorIndex
 90
      256
102
RTVSPost2010Prop51ColorRGB
 90
-16777216
102
RTVSPost2010PropOp51
 70
     0
102
RTVSPost2010Prop52
140
1.0
102
RTVSPost2010PropOp52
 70
     0
102
RTVSPost2010Prop53
 90
        2
102
RTVSPost2010PropOp53
 70
     1
102
RTVSPost2010Prop54
  1
strokes_ogs.tif
102
RTVSPost2010PropOp54
 70
     1
102
RTVSPost2010Prop55
280
     0
102
RTVSPost2010PropOp55
 70
     1
102
RTVSPost2010Prop56
140
1.0
102
RTVSPost2010PropOp56
 70
     1
102
RTVSPost2010Prop57
140
1.0
102
RTVSPost2010PropOp57
 70
     1
102
RTVSPropertyOp0
 70
     1
102
RTVSPropertyOp1
 70
     1
102
RTVSPropertyOp2
 70
     1
102
RTVSPropertyOp3
 70
     1
102
RTVSPropertyOp4
 70
     1
102
RTVSPropertyOp5
 70
     1
102
RTVSPropertyOp6
 70
     1
102
RTVSPropertyOp7
 70
     1
102
RTVSPropertyOp8
 70
     1
102
RTVSPropertyOp9
 70
     1
102
RTVSPropertyOp10
 70
     1
102
RTVSPropertyOp11
 70
     1
102
RTVSPropertyOp12
 70
     1
102
RTVSPropertyOp13
 70
     1
102
RTVSPropertyOp14
 70
     1
102
RTVSPropertyOp15
 70
     1
102
RTVSPropertyOp16
 70
     1
102
RTVSPropertyOp17
 70
     1
102
RTVSPropertyOp18
 70
     1
102
RTVSPropertyOp19
 70
     1
102
RTVSPropertyOp20
 70
     1
102
RTVSPropertyOp21
 70
     1
102
RTVSPropertyOp22
 70
     1
102
RTVSPropertyOp23
 70
     1
102
RTVSPropertyOp24
 70
     1
102
RTVSPropertyOp25
 70
     1
102
RTVSPropertyOp26
 70
     1
102
RTVSPropertyOp27
 70
     1
102
RTVSPropertyOp28
 70
     1
102
RTVSPropertyOp29
 70
     1
102
RTVSPropertyOp30
 70
     1
102
RTVSPropertyOp31
 70
     1
102
RTVSPropertyOp32
 70
     1
102
RTVSPropertyOp33
 70
     1
102
RTVSPropertyOp34
 70
     1
102
RTVSPropertyOp35
 70
     1
102
RTVSPropertyOp36
 70
     1
102
RTVSPropertyOp37
 70
     1
102
RTVSPropertyOp38
 70
     1
102
RTVSPropertyOp39
 70
     1
102
RTVSPropertyOp40
 70
     1
102
RTVSPropertyOp41
 70
     1
102
RTVSPropertyOp42
 70
     1
102
RTVSPropertyOp43
 70
     1
102
RTVSPropertyOp44
 70
     1
102
RTVSPropertyOp45
 70
     1
102
RTVSPropertyOp46
 70
     1
102
RTVSPropertyOp47
 70
     1
102
RTVSPropertyOp48
 70
     1
102
RTVSPropertyOp49
 70
     1
102
RTVSPropertyOp50
 70
     1
102
RTVSPropertyOp51
 70
     0
102
RTVSPropertyOp52
 70
     0
102
RTVSPropertyOp53
 70
     1
102
RTVSPropertyOp54
 70
     1
102
RTVSPropertyOp55
 70
     1
102
RTVSPropertyOp56
 70
     1
102
RTVSPropertyOp57
 70
     1
102
RTVSPropertyOp58
 70
     1
102
RTVSPropertyOp59
 70
     1
102
RTVSPropertyOp60
 70
     1
102
RTVSPropertyOp61
 70
     1
102
RTVSPropertyOp62
 70
     1
  0
XRECORD
  5
9D04
102
{ACAD_REACTORS
330
9D03
102
}
330
9D03
100
AcDbXrecord
280
     1
102
RTVSPost2010Prop28
280
     0
102
RTVSPost2010PropOp28
 70
     1
102
RTVSPost2010Prop29
280
     1
102
RTVSPost2010PropOp29
 70
     1
102
RTVSPost2010Prop30
280
     1
102
RTVSPost2010PropOp30
 70
     1
102
RTVSPost2010Prop31
280
     0
102
RTVSPost2010PropOp31
 70
     1
102
RTVSPost2010Prop32
280
     0
102
RTVSPost2010PropOp32
 70
     1
102
RTVSPost2010Prop33
280
     0
102
RTVSPost2010PropOp33
 70
     1
102
RTVSPost2010Prop34
280
     0
102
RTVSPost2010PropOp34
 70
     1
102
RTVSPost2010Prop35
280
     0
102
RTVSPost2010PropOp35
 70
     1
102
RTVSPost2010Prop36
280
     0
102
RTVSPost2010PropOp36
 70
     1
102
RTVSPost2010Prop37
 90
       50
102
RTVSPost2010PropOp37
 70
     1
102
RTVSPost2010Prop38
140
0.0
102
RTVSPost2010PropOp38
 70
     1
102
RTVSPost2010Prop39
140
1.0
102
RTVSPost2010PropOp39
 70
     1
102
RTVSPost2010Prop40
 90
        0
102
RTVSPost2010PropOp40
 70
     1
102
RTVSPost2010Prop41ColorIndex
 90
       18
102
RTVSPost2010Prop41ColorRGB
 90
        0
102
RTVSPost2010PropOp41
 70
     1
102
RTVSPost2010Prop42
 90
       50
102
RTVSPost2010PropOp42
 70
     1
102
RTVSPost2010Prop43
 90
        3
102
RTVSPost2010PropOp43
 70
     1
102
RTVSPost2010Prop44ColorIndex
 90
        5
102
RTVSPost2010Prop44ColorRGB
 90
      255
102
RTVSPost2010PropOp44
 70
     1
102
RTVSPost2010Prop45
280
     0
102
RTVSPost2010PropOp45
 70
     1
102
RTVSPost2010Prop46
 90
       50
102
RTVSPost2010PropOp46
 70
     1
102
RTVSPost2010Prop47
 90
       50
102
RTVSPost2010PropOp47
 70
     1
102
RTVSPost2010Prop48
 90
       50
102
RTVSPost2010PropOp48
 70
     1
102
RTVSPost2010Prop49
280
     0
102
RTVSPost2010PropOp49
 70
     1
102
RTVSPost2010Prop50
 90
       50
102
RTVSPost2010PropOp50
 70
     1
102
RTVSPost2010Prop51ColorIndex
 90
      256
102
RTVSPost2010Prop51ColorRGB
 90
-16777216
102
RTVSPost2010PropOp51
 70
     0
102
RTVSPost2010Prop52
140
1.0
102
RTVSPost2010PropOp52
 70
     0
102
RTVSPost2010Prop53
 90
        2
102
RTVSPost2010PropOp53
 70
     1
102
RTVSPost2010Prop54
  1
strokes_ogs.tif
102
RTVSPost2010PropOp54
 70
     1
102
RTVSPost2010Prop55
280
     0
102
RTVSPost2010PropOp55
 70
     1
102
RTVSPost2010Prop56
140
1.0
102
RTVSPost2010PropOp56
 70
     1
102
RTVSPost2010Prop57
140
1.0
102
RTVSPost2010PropOp57
 70
     1
102
RTVSPropertyOp0
 70
     1
102
RTVSPropertyOp1
 70
     1
102
RTVSPropertyOp2
 70
     1
102
RTVSPropertyOp3
 70
     1
102
RTVSPropertyOp4
 70
     1
102
RTVSPropertyOp5
 70
     1
102
RTVSPropertyOp6
 70
     1
102
RTVSPropertyOp7
 70
     1
102
RTVSPropertyOp8
 70
     1
102
RTVSPropertyOp9
 70
     1
102
RTVSPropertyOp10
 70
     1
102
RTVSPropertyOp11
 70
     1
102
RTVSPropertyOp12
 70
     1
102
RTVSPropertyOp13
 70
     1
102
RTVSPropertyOp14
 70
     1
102
RTVSPropertyOp15
 70
     1
102
RTVSPropertyOp16
 70
     1
102
RTVSPropertyOp17
 70
     1
102
RTVSPropertyOp18
 70
     1
102
RTVSPropertyOp19
 70
     1
102
RTVSPropertyOp20
 70
     1
102
RTVSPropertyOp21
 70
     1
102
RTVSPropertyOp22
 70
     1
102
RTVSPropertyOp23
 70
     1
102
RTVSPropertyOp24
 70
     1
102
RTVSPropertyOp25
 70
     1
102
RTVSPropertyOp26
 70
     1
102
RTVSPropertyOp27
 70
     1
102
RTVSPropertyOp28
 70
     1
102
RTVSPropertyOp29
 70
     1
102
RTVSPropertyOp30
 70
     1
102
RTVSPropertyOp31
 70
     1
102
RTVSPropertyOp32
 70
     1
102
RTVSPropertyOp33
 70
     1
102
RTVSPropertyOp34
 70
     1
102
RTVSPropertyOp35
 70
     1
102
RTVSPropertyOp36
 70
     1
102
RTVSPropertyOp37
 70
     1
102
RTVSPropertyOp38
 70
     1
102
RTVSPropertyOp39
 70
     1
102
RTVSPropertyOp40
 70
     1
102
RTVSPropertyOp41
 70
     1
102
RTVSPropertyOp42
 70
     1
102
RTVSPropertyOp43
 70
     1
102
RTVSPropertyOp44
 70
     1
102
RTVSPropertyOp45
 70
     1
102
RTVSPropertyOp46
 70
     1
102
RTVSPropertyOp47
 70
     1
102
RTVSPropertyOp48
 70
     1
102
RTVSPropertyOp49
 70
     1
102
RTVSPropertyOp50
 70
     1
102
RTVSPropertyOp51
 70
     0
102
RTVSPropertyOp52
 70
     0
102
RTVSPropertyOp53
 70
     1
102
RTVSPropertyOp54
 70
     1
102
RTVSPropertyOp55
 70
     1
102
RTVSPropertyOp56
 70
     1
102
RTVSPropertyOp57
 70
     1
102
RTVSPropertyOp58
 70
     1
102
RTVSPropertyOp59
 70
     1
102
RTVSPropertyOp60
 70
     1
102
RTVSPropertyOp61
 70
     1
102
RTVSPropertyOp62
 70
     1
  0
XRECORD
  5
9D20
102
{ACAD_REACTORS
330
9D1F
102
}
330
9D1F
100
AcDbXrecord
280
     1
102
RTVSPost2010Prop28
280
     0
102
RTVSPost2010PropOp28
 70
     1
102
RTVSPost2010Prop29
280
     1
102
RTVSPost2010PropOp29
 70
     1
102
RTVSPost2010Prop30
280
     1
102
RTVSPost2010PropOp30
 70
     1
102
RTVSPost2010Prop31
280
     0
102
RTVSPost2010PropOp31
 70
     1
102
RTVSPost2010Prop32
280
     0
102
RTVSPost2010PropOp32
 70
     1
102
RTVSPost2010Prop33
280
     0
102
RTVSPost2010PropOp33
 70
     1
102
RTVSPost2010Prop34
280
     0
102
RTVSPost2010PropOp34
 70
     1
102
RTVSPost2010Prop35
280
     0
102
RTVSPost2010PropOp35
 70
     1
102
RTVSPost2010Prop36
280
     0
102
RTVSPost2010PropOp36
 70
     1
102
RTVSPost2010Prop37
 90
       50
102
RTVSPost2010PropOp37
 70
     0
102
RTVSPost2010Prop38
140
0.0
102
RTVSPost2010PropOp38
 70
     0
102
RTVSPost2010Prop39
140
1.0
102
RTVSPost2010PropOp39
 70
     0
102
RTVSPost2010Prop40
 90
        0
102
RTVSPost2010PropOp40
 70
     0
102
RTVSPost2010Prop41ColorIndex
 90
       18
102
RTVSPost2010Prop41ColorRGB
 90
        0
102
RTVSPost2010PropOp41
 70
     0
102
RTVSPost2010Prop42
 90
       50
102
RTVSPost2010PropOp42
 70
     0
102
RTVSPost2010Prop43
 90
        3
102
RTVSPost2010PropOp43
 70
     0
102
RTVSPost2010Prop44ColorIndex
 90
        5
102
RTVSPost2010Prop44ColorRGB
 90
      255
102
RTVSPost2010PropOp44
 70
     0
102
RTVSPost2010Prop45
280
     0
102
RTVSPost2010PropOp45
 70
     1
102
RTVSPost2010Prop46
 90
       50
102
RTVSPost2010PropOp46
 70
     0
102
RTVSPost2010Prop47
 90
       50
102
RTVSPost2010PropOp47
 70
     0
102
RTVSPost2010Prop48
 90
       50
102
RTVSPost2010PropOp48
 70
     0
102
RTVSPost2010Prop49
280
     0
102
RTVSPost2010PropOp49
 70
     1
102
RTVSPost2010Prop50
 90
       50
102
RTVSPost2010PropOp50
 70
     0
102
RTVSPost2010Prop51ColorIndex
 90
      256
102
RTVSPost2010Prop51ColorRGB
 90
-16777216
102
RTVSPost2010PropOp51
 70
     0
102
RTVSPost2010Prop52
140
1.0
102
RTVSPost2010PropOp52
 70
     0
102
RTVSPost2010Prop53
 90
        2
102
RTVSPost2010PropOp53
 70
     0
102
RTVSPost2010Prop54
  1
strokes_ogs.tif
102
RTVSPost2010PropOp54
 70
     0
102
RTVSPost2010Prop55
280
     0
102
RTVSPost2010PropOp55
 70
     1
102
RTVSPost2010Prop56
140
1.0
102
RTVSPost2010PropOp56
 70
     0
102
RTVSPost2010Prop57
140
1.0
102
RTVSPost2010PropOp57
 70
     0
102
RTVSPropertyOp0
 70
     0
102
RTVSPropertyOp1
 70
     0
102
RTVSPropertyOp2
 70
     0
102
RTVSPropertyOp3
 70
     0
102
RTVSPropertyOp4
 70
     0
102
RTVSPropertyOp5
 70
     0
102
RTVSPropertyOp6
 70
     0
102
RTVSPropertyOp7
 70
     0
102
RTVSPropertyOp8
 70
     0
102
RTVSPropertyOp9
 70
     0
102
RTVSPropertyOp10
 70
     0
102
RTVSPropertyOp11
 70
     0
102
RTVSPropertyOp12
 70
     0
102
RTVSPropertyOp13
 70
     0
102
RTVSPropertyOp14
 70
     2
102
RTVSPropertyOp15
 70
     0
102
RTVSPropertyOp16
 70
     0
102
RTVSPropertyOp17
 70
     0
102
RTVSPropertyOp18
 70
     0
102
RTVSPropertyOp19
 70
     0
102
RTVSPropertyOp20
 70
     0
102
RTVSPropertyOp21
 70
     0
102
RTVSPropertyOp22
 70
     0
102
RTVSPropertyOp23
 70
     0
102
RTVSPropertyOp24
 70
     0
102
RTVSPropertyOp25
 70
     0
102
RTVSPropertyOp26
 70
     0
102
RTVSPropertyOp27
 70
     0
102
RTVSPropertyOp28
 70
     1
102
RTVSPropertyOp29
 70
     1
102
RTVSPropertyOp30
 70
     1
102
RTVSPropertyOp31
 70
     1
102
RTVSPropertyOp32
 70
     1
102
RTVSPropertyOp33
 70
     1
102
RTVSPropertyOp34
 70
     1
102
RTVSPropertyOp35
 70
     1
102
RTVSPropertyOp36
 70
     1
102
RTVSPropertyOp37
 70
     0
102
RTVSPropertyOp38
 70
     0
102
RTVSPropertyOp39
 70
     0
102
RTVSPropertyOp40
 70
     0
102
RTVSPropertyOp41
 70
     0
102
RTVSPropertyOp42
 70
     0
102
RTVSPropertyOp43
 70
     0
102
RTVSPropertyOp44
 70
     0
102
RTVSPropertyOp45
 70
     1
102
RTVSPropertyOp46
 70
     0
102
RTVSPropertyOp47
 70
     0
102
RTVSPropertyOp48
 70
     0
102
RTVSPropertyOp49
 70
     1
102
RTVSPropertyOp50
 70
     0
102
RTVSPropertyOp51
 70
     0
102
RTVSPropertyOp52
 70
     0
102
RTVSPropertyOp53
 70
     0
102
RTVSPropertyOp54
 70
     0
102
RTVSPropertyOp55
 70
     1
102
RTVSPropertyOp56
 70
     0
102
RTVSPropertyOp57
 70
     0
102
RTVSPropertyOp58
 70
     0
102
RTVSPropertyOp59
 70
     0
102
RTVSPropertyOp60
 70
     0
102
RTVSPropertyOp61
 70
     0
102
RTVSPropertyOp62
 70
     0
  0
XRECORD
  5
9D10
102
{ACAD_REACTORS
330
9D0F
102
}
330
9D0F
100
AcDbXrecord
280
     1
102
RTVSPost2010Prop28
280
     0
102
RTVSPost2010PropOp28
 70
     1
102
RTVSPost2010Prop29
280
     1
102
RTVSPost2010PropOp29
 70
     1
102
RTVSPost2010Prop30
280
     1
102
RTVSPost2010PropOp30
 70
     1
102
RTVSPost2010Prop31
280
     0
102
RTVSPost2010PropOp31
 70
     1
102
RTVSPost2010Prop32
280
     0
102
RTVSPost2010PropOp32
 70
     1
102
RTVSPost2010Prop33
280
     0
102
RTVSPost2010PropOp33
 70
     1
102
RTVSPost2010Prop34
280
     0
102
RTVSPost2010PropOp34
 70
     1
102
RTVSPost2010Prop35
280
     0
102
RTVSPost2010PropOp35
 70
     1
102
RTVSPost2010Prop36
280
     0
102
RTVSPost2010PropOp36
 70
     1
102
RTVSPost2010Prop37
 90
       50
102
RTVSPost2010PropOp37
 70
     1
102
RTVSPost2010Prop38
140
0.0
102
RTVSPost2010PropOp38
 70
     1
102
RTVSPost2010Prop39
140
1.0
102
RTVSPost2010PropOp39
 70
     1
102
RTVSPost2010Prop40
 90
        0
102
RTVSPost2010PropOp40
 70
     1
102
RTVSPost2010Prop41ColorIndex
 90
       18
102
RTVSPost2010Prop41ColorRGB
 90
        0
102
RTVSPost2010PropOp41
 70
     1
102
RTVSPost2010Prop42
 90
       50
102
RTVSPost2010PropOp42
 70
     1
102
RTVSPost2010Prop43
 90
        3
102
RTVSPost2010PropOp43
 70
     1
102
RTVSPost2010Prop44ColorIndex
 90
        5
102
RTVSPost2010Prop44ColorRGB
 90
      255
102
RTVSPost2010PropOp44
 70
     1
102
RTVSPost2010Prop45
280
     0
102
RTVSPost2010PropOp45
 70
     1
102
RTVSPost2010Prop46
 90
       50
102
RTVSPost2010PropOp46
 70
     1
102
RTVSPost2010Prop47
 90
       50
102
RTVSPost2010PropOp47
 70
     1
102
RTVSPost2010Prop48
 90
       50
102
RTVSPost2010PropOp48
 70
     1
102
RTVSPost2010Prop49
280
     0
102
RTVSPost2010PropOp49
 70
     1
102
RTVSPost2010Prop50
 90
       50
102
RTVSPost2010PropOp50
 70
     1
102
RTVSPost2010Prop51ColorIndex
 90
      256
102
RTVSPost2010Prop51ColorRGB
 90
-16777216
102
RTVSPost2010PropOp51
 70
     0
102
RTVSPost2010Prop52
140
1.0
102
RTVSPost2010PropOp52
 70
     0
102
RTVSPost2010Prop53
 90
        2
102
RTVSPost2010PropOp53
 70
     1
102
RTVSPost2010Prop54
  1
strokes_ogs.tif
102
RTVSPost2010PropOp54
 70
     1
102
RTVSPost2010Prop55
280
     0
102
RTVSPost2010PropOp55
 70
     1
102
RTVSPost2010Prop56
140
1.0
102
RTVSPost2010PropOp56
 70
     1
102
RTVSPost2010Prop57
140
1.0
102
RTVSPost2010PropOp57
 70
     1
102
RTVSPropertyOp0
 70
     1
102
RTVSPropertyOp1
 70
     1
102
RTVSPropertyOp2
 70
     1
102
RTVSPropertyOp3
 70
     1
102
RTVSPropertyOp4
 70
     1
102
RTVSPropertyOp5
 70
     1
102
RTVSPropertyOp6
 70
     1
102
RTVSPropertyOp7
 70
     1
102
RTVSPropertyOp8
 70
     1
102
RTVSPropertyOp9
 70
     1
102
RTVSPropertyOp10
 70
     1
102
RTVSPropertyOp11
 70
     1
102
RTVSPropertyOp12
 70
     1
102
RTVSPropertyOp13
 70
     1
102
RTVSPropertyOp14
 70
     1
102
RTVSPropertyOp15
 70
     1
102
RTVSPropertyOp16
 70
     1
102
RTVSPropertyOp17
 70
     1
102
RTVSPropertyOp18
 70
     1
102
RTVSPropertyOp19
 70
     1
102
RTVSPropertyOp20
 70
     1
102
RTVSPropertyOp21
 70
     1
102
RTVSPropertyOp22
 70
     1
102
RTVSPropertyOp23
 70
     1
102
RTVSPropertyOp24
 70
     1
102
RTVSPropertyOp25
 70
     1
102
RTVSPropertyOp26
 70
     1
102
RTVSPropertyOp27
 70
     1
102
RTVSPropertyOp28
 70
     1
102
RTVSPropertyOp29
 70
     1
102
RTVSPropertyOp30
 70
     1
102
RTVSPropertyOp31
 70
     1
102
RTVSPropertyOp32
 70
     1
102
RTVSPropertyOp33
 70
     1
102
RTVSPropertyOp34
 70
     1
102
RTVSPropertyOp35
 70
     1
102
RTVSPropertyOp36
 70
     1
102
RTVSPropertyOp37
 70
     1
102
RTVSPropertyOp38
 70
     1
102
RTVSPropertyOp39
 70
     1
102
RTVSPropertyOp40
 70
     1
102
RTVSPropertyOp41
 70
     1
102
RTVSPropertyOp42
 70
     1
102
RTVSPropertyOp43
 70
     1
102
RTVSPropertyOp44
 70
     1
102
RTVSPropertyOp45
 70
     1
102
RTVSPropertyOp46
 70
     1
102
RTVSPropertyOp47
 70
     1
102
RTVSPropertyOp48
 70
     1
102
RTVSPropertyOp49
 70
     1
102
RTVSPropertyOp50
 70
     1
102
RTVSPropertyOp51
 70
     0
102
RTVSPropertyOp52
 70
     0
102
RTVSPropertyOp53
 70
     1
102
RTVSPropertyOp54
 70
     1
102
RTVSPropertyOp55
 70
     1
102
RTVSPropertyOp56
 70
     1
102
RTVSPropertyOp57
 70
     1
102
RTVSPropertyOp58
 70
     1
102
RTVSPropertyOp59
 70
     1
102
RTVSPropertyOp60
 70
     1
102
RTVSPropertyOp61
 70
     1
102
RTVSPropertyOp62
 70
     1
  0
XRECORD
  5
9D22
102
{ACAD_REACTORS
330
9D21
102
}
330
9D21
100
AcDbXrecord
280
     1
102
RTVSPost2010Prop28
280
     0
102
RTVSPost2010PropOp28
 70
     1
102
RTVSPost2010Prop29
280
     1
102
RTVSPost2010PropOp29
 70
     1
102
RTVSPost2010Prop30
280
     1
102
RTVSPost2010PropOp30
 70
     1
102
RTVSPost2010Prop31
280
     0
102
RTVSPost2010PropOp31
 70
     1
102
RTVSPost2010Prop32
280
     0
102
RTVSPost2010PropOp32
 70
     1
102
RTVSPost2010Prop33
280
     0
102
RTVSPost2010PropOp33
 70
     1
102
RTVSPost2010Prop34
280
     0
102
RTVSPost2010PropOp34
 70
     1
102
RTVSPost2010Prop35
280
     0
102
RTVSPost2010PropOp35
 70
     1
102
RTVSPost2010Prop36
280
     0
102
RTVSPost2010PropOp36
 70
     1
102
RTVSPost2010Prop37
 90
       50
102
RTVSPost2010PropOp37
 70
     0
102
RTVSPost2010Prop38
140
0.0
102
RTVSPost2010PropOp38
 70
     0
102
RTVSPost2010Prop39
140
1.0
102
RTVSPost2010PropOp39
 70
     0
102
RTVSPost2010Prop40
 90
        0
102
RTVSPost2010PropOp40
 70
     0
102
RTVSPost2010Prop41ColorIndex
 90
       18
102
RTVSPost2010Prop41ColorRGB
 90
        0
102
RTVSPost2010PropOp41
 70
     0
102
RTVSPost2010Prop42
 90
       50
102
RTVSPost2010PropOp42
 70
     0
102
RTVSPost2010Prop43
 90
        3
102
RTVSPost2010PropOp43
 70
     0
102
RTVSPost2010Prop44ColorIndex
 90
        5
102
RTVSPost2010Prop44ColorRGB
 90
      255
102
RTVSPost2010PropOp44
 70
     0
102
RTVSPost2010Prop45
280
     0
102
RTVSPost2010PropOp45
 70
     1
102
RTVSPost2010Prop46
 90
       50
102
RTVSPost2010PropOp46
 70
     0
102
RTVSPost2010Prop47
 90
       50
102
RTVSPost2010PropOp47
 70
     0
102
RTVSPost2010Prop48
 90
       50
102
RTVSPost2010PropOp48
 70
     0
102
RTVSPost2010Prop49
280
     0
102
RTVSPost2010PropOp49
 70
     1
102
RTVSPost2010Prop50
 90
       50
102
RTVSPost2010PropOp50
 70
     0
102
RTVSPost2010Prop51ColorIndex
 90
      256
102
RTVSPost2010Prop51ColorRGB
 90
-16777216
102
RTVSPost2010PropOp51
 70
     0
102
RTVSPost2010Prop52
140
1.0
102
RTVSPost2010PropOp52
 70
     0
102
RTVSPost2010Prop53
 90
        2
102
RTVSPost2010PropOp53
 70
     0
102
RTVSPost2010Prop54
  1
strokes_ogs.tif
102
RTVSPost2010PropOp54
 70
     0
102
RTVSPost2010Prop55
280
     0
102
RTVSPost2010PropOp55
 70
     1
102
RTVSPost2010Prop56
140
1.0
102
RTVSPost2010PropOp56
 70
     0
102
RTVSPost2010Prop57
140
1.0
102
RTVSPost2010PropOp57
 70
     0
102
RTVSPropertyOp0
 70
     0
102
RTVSPropertyOp1
 70
     0
102
RTVSPropertyOp2
 70
     0
102
RTVSPropertyOp3
 70
     0
102
RTVSPropertyOp4
 70
     0
102
RTVSPropertyOp5
 70
     0
102
RTVSPropertyOp6
 70
     0
102
RTVSPropertyOp7
 70
     0
102
RTVSPropertyOp8
 70
     0
102
RTVSPropertyOp9
 70
     0
102
RTVSPropertyOp10
 70
     0
102
RTVSPropertyOp11
 70
     0
102
RTVSPropertyOp12
 70
     0
102
RTVSPropertyOp13
 70
     0
102
RTVSPropertyOp14
 70
     2
102
RTVSPropertyOp15
 70
     0
102
RTVSPropertyOp16
 70
     0
102
RTVSPropertyOp17
 70
     0
102
RTVSPropertyOp18
 70
     0
102
RTVSPropertyOp19
 70
     0
102
RTVSPropertyOp20
 70
     0
102
RTVSPropertyOp21
 70
     0
102
RTVSPropertyOp22
 70
     0
102
RTVSPropertyOp23
 70
     0
102
RTVSPropertyOp24
 70
     0
102
RTVSPropertyOp25
 70
     0
102
RTVSPropertyOp26
 70
     0
102
RTVSPropertyOp27
 70
     0
102
RTVSPropertyOp28
 70
     1
102
RTVSPropertyOp29
 70
     1
102
RTVSPropertyOp30
 70
     1
102
RTVSPropertyOp31
 70
     1
102
RTVSPropertyOp32
 70
     1
102
RTVSPropertyOp33
 70
     1
102
RTVSPropertyOp34
 70
     1
102
RTVSPropertyOp35
 70
     1
102
RTVSPropertyOp36
 70
     1
102
RTVSPropertyOp37
 70
     0
102
RTVSPropertyOp38
 70
     0
102
RTVSPropertyOp39
 70
     0
102
RTVSPropertyOp40
 70
     0
102
RTVSPropertyOp41
 70
     0
102
RTVSPropertyOp42
 70
     0
102
RTVSPropertyOp43
 70
     0
102
RTVSPropertyOp44
 70
     0
102
RTVSPropertyOp45
 70
     1
102
RTVSPropertyOp46
 70
     0
102
RTVSPropertyOp47
 70
     0
102
RTVSPropertyOp48
 70
     0
102
RTVSPropertyOp49
 70
     1
102
RTVSPropertyOp50
 70
     0
102
RTVSPropertyOp51
 70
     0
102
RTVSPropertyOp52
 70
     0
102
RTVSPropertyOp53
 70
     0
102
RTVSPropertyOp54
 70
     0
102
RTVSPropertyOp55
 70
     1
102
RTVSPropertyOp56
 70
     0
102
RTVSPropertyOp57
 70
     0
102
RTVSPropertyOp58
 70
     0
102
RTVSPropertyOp59
 70
     0
102
RTVSPropertyOp60
 70
     0
102
RTVSPropertyOp61
 70
     0
102
RTVSPropertyOp62
 70
     0
  0
XRECORD
  5
9D08
102
{ACAD_REACTORS
330
9D07
102
}
330
9D07
100
AcDbXrecord
280
     1
102
RTVSPost2010Prop28
280
     0
102
RTVSPost2010PropOp28
 70
     1
102
RTVSPost2010Prop29
280
     1
102
RTVSPost2010PropOp29
 70
     1
102
RTVSPost2010Prop30
280
     1
102
RTVSPost2010PropOp30
 70
     1
102
RTVSPost2010Prop31
280
     0
102
RTVSPost2010PropOp31
 70
     1
102
RTVSPost2010Prop32
280
     0
102
RTVSPost2010PropOp32
 70
     1
102
RTVSPost2010Prop33
280
     0
102
RTVSPost2010PropOp33
 70
     1
102
RTVSPost2010Prop34
280
     0
102
RTVSPost2010PropOp34
 70
     1
102
RTVSPost2010Prop35
280
     0
102
RTVSPost2010PropOp35
 70
     1
102
RTVSPost2010Prop36
280
     0
102
RTVSPost2010PropOp36
 70
     1
102
RTVSPost2010Prop37
 90
       50
102
RTVSPost2010PropOp37
 70
     1
102
RTVSPost2010Prop38
140
0.0
102
RTVSPost2010PropOp38
 70
     1
102
RTVSPost2010Prop39
140
1.0
102
RTVSPost2010PropOp39
 70
     1
102
RTVSPost2010Prop40
 90
        0
102
RTVSPost2010PropOp40
 70
     1
102
RTVSPost2010Prop41ColorIndex
 90
       18
102
RTVSPost2010Prop41ColorRGB
 90
        0
102
RTVSPost2010PropOp41
 70
     1
102
RTVSPost2010Prop42
 90
       50
102
RTVSPost2010PropOp42
 70
     1
102
RTVSPost2010Prop43
 90
        3
102
RTVSPost2010PropOp43
 70
     1
102
RTVSPost2010Prop44ColorIndex
 90
        5
102
RTVSPost2010Prop44ColorRGB
 90
      255
102
RTVSPost2010PropOp44
 70
     1
102
RTVSPost2010Prop45
280
     0
102
RTVSPost2010PropOp45
 70
     1
102
RTVSPost2010Prop46
 90
       50
102
RTVSPost2010PropOp46
 70
     1
102
RTVSPost2010Prop47
 90
       50
102
RTVSPost2010PropOp47
 70
     1
102
RTVSPost2010Prop48
 90
       50
102
RTVSPost2010PropOp48
 70
     1
102
RTVSPost2010Prop49
280
     0
102
RTVSPost2010PropOp49
 70
     1
102
RTVSPost2010Prop50
 90
       50
102
RTVSPost2010PropOp50
 70
     1
102
RTVSPost2010Prop51ColorIndex
 90
      256
102
RTVSPost2010Prop51ColorRGB
 90
-16777216
102
RTVSPost2010PropOp51
 70
     0
102
RTVSPost2010Prop52
140
1.0
102
RTVSPost2010PropOp52
 70
     0
102
RTVSPost2010Prop53
 90
        2
102
RTVSPost2010PropOp53
 70
     1
102
RTVSPost2010Prop54
  1
strokes_ogs.tif
102
RTVSPost2010PropOp54
 70
     1
102
RTVSPost2010Prop55
280
     0
102
RTVSPost2010PropOp55
 70
     1
102
RTVSPost2010Prop56
140
1.0
102
RTVSPost2010PropOp56
 70
     1
102
RTVSPost2010Prop57
140
1.0
102
RTVSPost2010PropOp57
 70
     1
102
RTVSPropertyOp0
 70
     1
102
RTVSPropertyOp1
 70
     1
102
RTVSPropertyOp2
 70
     1
102
RTVSPropertyOp3
 70
     1
102
RTVSPropertyOp4
 70
     1
102
RTVSPropertyOp5
 70
     1
102
RTVSPropertyOp6
 70
     1
102
RTVSPropertyOp7
 70
     1
102
RTVSPropertyOp8
 70
     1
102
RTVSPropertyOp9
 70
     1
102
RTVSPropertyOp10
 70
     1
102
RTVSPropertyOp11
 70
     1
102
RTVSPropertyOp12
 70
     1
102
RTVSPropertyOp13
 70
     1
102
RTVSPropertyOp14
 70
     1
102
RTVSPropertyOp15
 70
     1
102
RTVSPropertyOp16
 70
     1
102
RTVSPropertyOp17
 70
     1
102
RTVSPropertyOp18
 70
     1
102
RTVSPropertyOp19
 70
     1
102
RTVSPropertyOp20
 70
     1
102
RTVSPropertyOp21
 70
     1
102
RTVSPropertyOp22
 70
     1
102
RTVSPropertyOp23
 70
     1
102
RTVSPropertyOp24
 70
     1
102
RTVSPropertyOp25
 70
     1
102
RTVSPropertyOp26
 70
     1
102
RTVSPropertyOp27
 70
     1
102
RTVSPropertyOp28
 70
     1
102
RTVSPropertyOp29
 70
     1
102
RTVSPropertyOp30
 70
     1
102
RTVSPropertyOp31
 70
     1
102
RTVSPropertyOp32
 70
     1
102
RTVSPropertyOp33
 70
     1
102
RTVSPropertyOp34
 70
     1
102
RTVSPropertyOp35
 70
     1
102
RTVSPropertyOp36
 70
     1
102
RTVSPropertyOp37
 70
     1
102
RTVSPropertyOp38
 70
     1
102
RTVSPropertyOp39
 70
     1
102
RTVSPropertyOp40
 70
     1
102
RTVSPropertyOp41
 70
     1
102
RTVSPropertyOp42
 70
     1
102
RTVSPropertyOp43
 70
     1
102
RTVSPropertyOp44
 70
     1
102
RTVSPropertyOp45
 70
     1
102
RTVSPropertyOp46
 70
     1
102
RTVSPropertyOp47
 70
     1
102
RTVSPropertyOp48
 70
     1
102
RTVSPropertyOp49
 70
     1
102
RTVSPropertyOp50
 70
     1
102
RTVSPropertyOp51
 70
     0
102
RTVSPropertyOp52
 70
     0
102
RTVSPropertyOp53
 70
     1
102
RTVSPropertyOp54
 70
     1
102
RTVSPropertyOp55
 70
     1
102
RTVSPropertyOp56
 70
     1
102
RTVSPropertyOp57
 70
     1
102
RTVSPropertyOp58
 70
     1
102
RTVSPropertyOp59
 70
     1
102
RTVSPropertyOp60
 70
     1
102
RTVSPropertyOp61
 70
     1
102
RTVSPropertyOp62
 70
     1
  0
XRECORD
  5
9D1E
102
{ACAD_REACTORS
330
9D1D
102
}
330
9D1D
100
AcDbXrecord
280
     1
102
RTVSPost2010Prop28
280
     0
102
RTVSPost2010PropOp28
 70
     1
102
RTVSPost2010Prop29
280
     1
102
RTVSPost2010PropOp29
 70
     1
102
RTVSPost2010Prop30
280
     1
102
RTVSPost2010PropOp30
 70
     1
102
RTVSPost2010Prop31
280
     0
102
RTVSPost2010PropOp31
 70
     1
102
RTVSPost2010Prop32
280
     0
102
RTVSPost2010PropOp32
 70
     1
102
RTVSPost2010Prop33
280
     0
102
RTVSPost2010PropOp33
 70
     1
102
RTVSPost2010Prop34
280
     0
102
RTVSPost2010PropOp34
 70
     1
102
RTVSPost2010Prop35
280
     0
102
RTVSPost2010PropOp35
 70
     1
102
RTVSPost2010Prop36
280
     0
102
RTVSPost2010PropOp36
 70
     1
102
RTVSPost2010Prop37
 90
       50
102
RTVSPost2010PropOp37
 70
     1
102
RTVSPost2010Prop38
140
0.0
102
RTVSPost2010PropOp38
 70
     1
102
RTVSPost2010Prop39
140
1.0
102
RTVSPost2010PropOp39
 70
     1
102
RTVSPost2010Prop40
 90
        0
102
RTVSPost2010PropOp40
 70
     1
102
RTVSPost2010Prop41ColorIndex
 90
       18
102
RTVSPost2010Prop41ColorRGB
 90
        0
102
RTVSPost2010PropOp41
 70
     1
102
RTVSPost2010Prop42
 90
       50
102
RTVSPost2010PropOp42
 70
     1
102
RTVSPost2010Prop43
 90
        3
102
RTVSPost2010PropOp43
 70
     1
102
RTVSPost2010Prop44ColorIndex
 90
        5
102
RTVSPost2010Prop44ColorRGB
 90
      255
102
RTVSPost2010PropOp44
 70
     1
102
RTVSPost2010Prop45
280
     0
102
RTVSPost2010PropOp45
 70
     1
102
RTVSPost2010Prop46
 90
       50
102
RTVSPost2010PropOp46
 70
     1
102
RTVSPost2010Prop47
 90
       50
102
RTVSPost2010PropOp47
 70
     1
102
RTVSPost2010Prop48
 90
       50
102
RTVSPost2010PropOp48
 70
     1
102
RTVSPost2010Prop49
280
     0
102
RTVSPost2010PropOp49
 70
     1
102
RTVSPost2010Prop50
 90
       50
102
RTVSPost2010PropOp50
 70
     1
102
RTVSPost2010Prop51ColorIndex
 90
      256
102
RTVSPost2010Prop51ColorRGB
 90
-16777216
102
RTVSPost2010PropOp51
 70
     0
102
RTVSPost2010Prop52
140
1.0
102
RTVSPost2010PropOp52
 70
     0
102
RTVSPost2010Prop53
 90
        2
102
RTVSPost2010PropOp53
 70
     1
102
RTVSPost2010Prop54
  1
strokes_ogs.tif
102
RTVSPost2010PropOp54
 70
     1
102
RTVSPost2010Prop55
280
     0
102
RTVSPost2010PropOp55
 70
     1
102
RTVSPost2010Prop56
140
1.0
102
RTVSPost2010PropOp56
 70
     1
102
RTVSPost2010Prop57
140
1.0
102
RTVSPost2010PropOp57
 70
     1
102
RTVSPropertyOp0
 70
     1
102
RTVSPropertyOp1
 70
     1
102
RTVSPropertyOp2
 70
     1
102
RTVSPropertyOp3
 70
     1
102
RTVSPropertyOp4
 70
     1
102
RTVSPropertyOp5
 70
     1
102
RTVSPropertyOp6
 70
     1
102
RTVSPropertyOp7
 70
     1
102
RTVSPropertyOp8
 70
     1
102
RTVSPropertyOp9
 70
     1
102
RTVSPropertyOp10
 70
     1
102
RTVSPropertyOp11
 70
     1
102
RTVSPropertyOp12
 70
     1
102
RTVSPropertyOp13
 70
     1
102
RTVSPropertyOp14
 70
     1
102
RTVSPropertyOp15
 70
     1
102
RTVSPropertyOp16
 70
     1
102
RTVSPropertyOp17
 70
     1
102
RTVSPropertyOp18
 70
     1
102
RTVSPropertyOp19
 70
     1
102
RTVSPropertyOp20
 70
     1
102
RTVSPropertyOp21
 70
     1
102
RTVSPropertyOp22
 70
     1
102
RTVSPropertyOp23
 70
     1
102
RTVSPropertyOp24
 70
     1
102
RTVSPropertyOp25
 70
     1
102
RTVSPropertyOp26
 70
     1
102
RTVSPropertyOp27
 70
     1
102
RTVSPropertyOp28
 70
     1
102
RTVSPropertyOp29
 70
     1
102
RTVSPropertyOp30
 70
     1
102
RTVSPropertyOp31
 70
     1
102
RTVSPropertyOp32
 70
     1
102
RTVSPropertyOp33
 70
     1
102
RTVSPropertyOp34
 70
     1
102
RTVSPropertyOp35
 70
     1
102
RTVSPropertyOp36
 70
     1
102
RTVSPropertyOp37
 70
     1
102
RTVSPropertyOp38
 70
     1
102
RTVSPropertyOp39
 70
     1
102
RTVSPropertyOp40
 70
     1
102
RTVSPropertyOp41
 70
     1
102
RTVSPropertyOp42
 70
     1
102
RTVSPropertyOp43
 70
     1
102
RTVSPropertyOp44
 70
     1
102
RTVSPropertyOp45
 70
     1
102
RTVSPropertyOp46
 70
     1
102
RTVSPropertyOp47
 70
     1
102
RTVSPropertyOp48
 70
     1
102
RTVSPropertyOp49
 70
     1
102
RTVSPropertyOp50
 70
     1
102
RTVSPropertyOp51
 70
     0
102
RTVSPropertyOp52
 70
     0
102
RTVSPropertyOp53
 70
     1
102
RTVSPropertyOp54
 70
     1
102
RTVSPropertyOp55
 70
     1
102
RTVSPropertyOp56
 70
     1
102
RTVSPropertyOp57
 70
     1
102
RTVSPropertyOp58
 70
     1
102
RTVSPropertyOp59
 70
     1
102
RTVSPropertyOp60
 70
     1
102
RTVSPropertyOp61
 70
     1
102
RTVSPropertyOp62
 70
     1
  0
XRECORD
  5
9D1C
102
{ACAD_REACTORS
330
9D1B
102
}
330
9D1B
100
AcDbXrecord
280
     1
102
RTVSPost2010Prop28
280
     0
102
RTVSPost2010PropOp28
 70
     1
102
RTVSPost2010Prop29
280
     1
102
RTVSPost2010PropOp29
 70
     1
102
RTVSPost2010Prop30
280
     1
102
RTVSPost2010PropOp30
 70
     1
102
RTVSPost2010Prop31
280
     0
102
RTVSPost2010PropOp31
 70
     1
102
RTVSPost2010Prop32
280
     0
102
RTVSPost2010PropOp32
 70
     1
102
RTVSPost2010Prop33
280
     0
102
RTVSPost2010PropOp33
 70
     1
102
RTVSPost2010Prop34
280
     0
102
RTVSPost2010PropOp34
 70
     1
102
RTVSPost2010Prop35
280
     0
102
RTVSPost2010PropOp35
 70
     1
102
RTVSPost2010Prop36
280
     0
102
RTVSPost2010PropOp36
 70
     1
102
RTVSPost2010Prop37
 90
       50
102
RTVSPost2010PropOp37
 70
     1
102
RTVSPost2010Prop38
140
0.0
102
RTVSPost2010PropOp38
 70
     1
102
RTVSPost2010Prop39
140
1.0
102
RTVSPost2010PropOp39
 70
     1
102
RTVSPost2010Prop40
 90
        0
102
RTVSPost2010PropOp40
 70
     1
102
RTVSPost2010Prop41ColorIndex
 90
       18
102
RTVSPost2010Prop41ColorRGB
 90
        0
102
RTVSPost2010PropOp41
 70
     1
102
RTVSPost2010Prop42
 90
       50
102
RTVSPost2010PropOp42
 70
     1
102
RTVSPost2010Prop43
 90
        3
102
RTVSPost2010PropOp43
 70
     1
102
RTVSPost2010Prop44ColorIndex
 90
        5
102
RTVSPost2010Prop44ColorRGB
 90
      255
102
RTVSPost2010PropOp44
 70
     1
102
RTVSPost2010Prop45
280
     0
102
RTVSPost2010PropOp45
 70
     1
102
RTVSPost2010Prop46
 90
       50
102
RTVSPost2010PropOp46
 70
     1
102
RTVSPost2010Prop47
 90
       50
102
RTVSPost2010PropOp47
 70
     1
102
RTVSPost2010Prop48
 90
       50
102
RTVSPost2010PropOp48
 70
     1
102
RTVSPost2010Prop49
280
     0
102
RTVSPost2010PropOp49
 70
     1
102
RTVSPost2010Prop50
 90
       50
102
RTVSPost2010PropOp50
 70
     1
102
RTVSPost2010Prop51ColorIndex
 90
      256
102
RTVSPost2010Prop51ColorRGB
 90
-16777216
102
RTVSPost2010PropOp51
 70
     0
102
RTVSPost2010Prop52
140
1.0
102
RTVSPost2010PropOp52
 70
     0
102
RTVSPost2010Prop53
 90
        2
102
RTVSPost2010PropOp53
 70
     1
102
RTVSPost2010Prop54
  1
strokes_ogs.tif
102
RTVSPost2010PropOp54
 70
     1
102
RTVSPost2010Prop55
280
     0
102
RTVSPost2010PropOp55
 70
     1
102
RTVSPost2010Prop56
140
1.0
102
RTVSPost2010PropOp56
 70
     1
102
RTVSPost2010Prop57
140
1.0
102
RTVSPost2010PropOp57
 70
     1
102
RTVSPropertyOp0
 70
     1
102
RTVSPropertyOp1
 70
     1
102
RTVSPropertyOp2
 70
     1
102
RTVSPropertyOp3
 70
     1
102
RTVSPropertyOp4
 70
     1
102
RTVSPropertyOp5
 70
     1
102
RTVSPropertyOp6
 70
     1
102
RTVSPropertyOp7
 70
     1
102
RTVSPropertyOp8
 70
     1
102
RTVSPropertyOp9
 70
     1
102
RTVSPropertyOp10
 70
     1
102
RTVSPropertyOp11
 70
     1
102
RTVSPropertyOp12
 70
     1
102
RTVSPropertyOp13
 70
     1
102
RTVSPropertyOp14
 70
     1
102
RTVSPropertyOp15
 70
     1
102
RTVSPropertyOp16
 70
     1
102
RTVSPropertyOp17
 70
     1
102
RTVSPropertyOp18
 70
     1
102
RTVSPropertyOp19
 70
     1
102
RTVSPropertyOp20
 70
     1
102
RTVSPropertyOp21
 70
     1
102
RTVSPropertyOp22
 70
     1
102
RTVSPropertyOp23
 70
     1
102
RTVSPropertyOp24
 70
     1
102
RTVSPropertyOp25
 70
     1
102
RTVSPropertyOp26
 70
     1
102
RTVSPropertyOp27
 70
     1
102
RTVSPropertyOp28
 70
     1
102
RTVSPropertyOp29
 70
     1
102
RTVSPropertyOp30
 70
     1
102
RTVSPropertyOp31
 70
     1
102
RTVSPropertyOp32
 70
     1
102
RTVSPropertyOp33
 70
     1
102
RTVSPropertyOp34
 70
     1
102
RTVSPropertyOp35
 70
     1
102
RTVSPropertyOp36
 70
     1
102
RTVSPropertyOp37
 70
     1
102
RTVSPropertyOp38
 70
     1
102
RTVSPropertyOp39
 70
     1
102
RTVSPropertyOp40
 70
     1
102
RTVSPropertyOp41
 70
     1
102
RTVSPropertyOp42
 70
     1
102
RTVSPropertyOp43
 70
     1
102
RTVSPropertyOp44
 70
     1
102
RTVSPropertyOp45
 70
     1
102
RTVSPropertyOp46
 70
     1
102
RTVSPropertyOp47
 70
     1
102
RTVSPropertyOp48
 70
     1
102
RTVSPropertyOp49
 70
     1
102
RTVSPropertyOp50
 70
     1
102
RTVSPropertyOp51
 70
     0
102
RTVSPropertyOp52
 70
     0
102
RTVSPropertyOp53
 70
     1
102
RTVSPropertyOp54
 70
     1
102
RTVSPropertyOp55
 70
     1
102
RTVSPropertyOp56
 70
     1
102
RTVSPropertyOp57
 70
     1
102
RTVSPropertyOp58
 70
     1
102
RTVSPropertyOp59
 70
     1
102
RTVSPropertyOp60
 70
     1
102
RTVSPropertyOp61
 70
     1
102
RTVSPropertyOp62
 70
     1
  0
XRECORD
  5
9D16
102
{ACAD_REACTORS
330
9D15
102
}
330
9D15
100
AcDbXrecord
280
     1
102
RTVSPost2010Prop28
280
     0
102
RTVSPost2010PropOp28
 70
     1
102
RTVSPost2010Prop29
280
     1
102
RTVSPost2010PropOp29
 70
     1
102
RTVSPost2010Prop30
280
     1
102
RTVSPost2010PropOp30
 70
     1
102
RTVSPost2010Prop31
280
     0
102
RTVSPost2010PropOp31
 70
     1
102
RTVSPost2010Prop32
280
     0
102
RTVSPost2010PropOp32
 70
     1
102
RTVSPost2010Prop33
280
     0
102
RTVSPost2010PropOp33
 70
     1
102
RTVSPost2010Prop34
280
     0
102
RTVSPost2010PropOp34
 70
     1
102
RTVSPost2010Prop35
280
     0
102
RTVSPost2010PropOp35
 70
     1
102
RTVSPost2010Prop36
280
     0
102
RTVSPost2010PropOp36
 70
     1
102
RTVSPost2010Prop37
 90
       50
102
RTVSPost2010PropOp37
 70
     1
102
RTVSPost2010Prop38
140
0.0
102
RTVSPost2010PropOp38
 70
     1
102
RTVSPost2010Prop39
140
1.0
102
RTVSPost2010PropOp39
 70
     1
102
RTVSPost2010Prop40
 90
        0
102
RTVSPost2010PropOp40
 70
     1
102
RTVSPost2010Prop41ColorIndex
 90
       18
102
RTVSPost2010Prop41ColorRGB
 90
        0
102
RTVSPost2010PropOp41
 70
     1
102
RTVSPost2010Prop42
 90
       50
102
RTVSPost2010PropOp42
 70
     1
102
RTVSPost2010Prop43
 90
        3
102
RTVSPost2010PropOp43
 70
     1
102
RTVSPost2010Prop44ColorIndex
 90
        5
102
RTVSPost2010Prop44ColorRGB
 90
      255
102
RTVSPost2010PropOp44
 70
     1
102
RTVSPost2010Prop45
280
     0
102
RTVSPost2010PropOp45
 70
     1
102
RTVSPost2010Prop46
 90
       50
102
RTVSPost2010PropOp46
 70
     1
102
RTVSPost2010Prop47
 90
       50
102
RTVSPost2010PropOp47
 70
     1
102
RTVSPost2010Prop48
 90
       50
102
RTVSPost2010PropOp48
 70
     1
102
RTVSPost2010Prop49
280
     0
102
RTVSPost2010PropOp49
 70
     1
102
RTVSPost2010Prop50
 90
       50
102
RTVSPost2010PropOp50
 70
     1
102
RTVSPost2010Prop51ColorIndex
 90
      256
102
RTVSPost2010Prop51ColorRGB
 90
-16777216
102
RTVSPost2010PropOp51
 70
     0
102
RTVSPost2010Prop52
140
1.0
102
RTVSPost2010PropOp52
 70
     0
102
RTVSPost2010Prop53
 90
        2
102
RTVSPost2010PropOp53
 70
     1
102
RTVSPost2010Prop54
  1
strokes_ogs.tif
102
RTVSPost2010PropOp54
 70
     1
102
RTVSPost2010Prop55
280
     0
102
RTVSPost2010PropOp55
 70
     1
102
RTVSPost2010Prop56
140
1.0
102
RTVSPost2010PropOp56
 70
     1
102
RTVSPost2010Prop57
140
1.0
102
RTVSPost2010PropOp57
 70
     1
102
RTVSPropertyOp0
 70
     1
102
RTVSPropertyOp1
 70
     1
102
RTVSPropertyOp2
 70
     1
102
RTVSPropertyOp3
 70
     1
102
RTVSPropertyOp4
 70
     1
102
RTVSPropertyOp5
 70
     1
102
RTVSPropertyOp6
 70
     1
102
RTVSPropertyOp7
 70
     1
102
RTVSPropertyOp8
 70
     1
102
RTVSPropertyOp9
 70
     1
102
RTVSPropertyOp10
 70
     1
102
RTVSPropertyOp11
 70
     1
102
RTVSPropertyOp12
 70
     1
102
RTVSPropertyOp13
 70
     1
102
RTVSPropertyOp14
 70
     1
102
RTVSPropertyOp15
 70
     1
102
RTVSPropertyOp16
 70
     1
102
RTVSPropertyOp17
 70
     1
102
RTVSPropertyOp18
 70
     1
102
RTVSPropertyOp19
 70
     1
102
RTVSPropertyOp20
 70
     1
102
RTVSPropertyOp21
 70
     1
102
RTVSPropertyOp22
 70
     1
102
RTVSPropertyOp23
 70
     1
102
RTVSPropertyOp24
 70
     1
102
RTVSPropertyOp25
 70
     1
102
RTVSPropertyOp26
 70
     1
102
RTVSPropertyOp27
 70
     1
102
RTVSPropertyOp28
 70
     1
102
RTVSPropertyOp29
 70
     1
102
RTVSPropertyOp30
 70
     1
102
RTVSPropertyOp31
 70
     1
102
RTVSPropertyOp32
 70
     1
102
RTVSPropertyOp33
 70
     1
102
RTVSPropertyOp34
 70
     1
102
RTVSPropertyOp35
 70
     1
102
RTVSPropertyOp36
 70
     1
102
RTVSPropertyOp37
 70
     1
102
RTVSPropertyOp38
 70
     1
102
RTVSPropertyOp39
 70
     1
102
RTVSPropertyOp40
 70
     1
102
RTVSPropertyOp41
 70
     1
102
RTVSPropertyOp42
 70
     1
102
RTVSPropertyOp43
 70
     1
102
RTVSPropertyOp44
 70
     1
102
RTVSPropertyOp45
 70
     1
102
RTVSPropertyOp46
 70
     1
102
RTVSPropertyOp47
 70
     1
102
RTVSPropertyOp48
 70
     1
102
RTVSPropertyOp49
 70
     1
102
RTVSPropertyOp50
 70
     1
102
RTVSPropertyOp51
 70
     0
102
RTVSPropertyOp52
 70
     0
102
RTVSPropertyOp53
 70
     1
102
RTVSPropertyOp54
 70
     1
102
RTVSPropertyOp55
 70
     1
102
RTVSPropertyOp56
 70
     1
102
RTVSPropertyOp57
 70
     1
102
RTVSPropertyOp58
 70
     1
102
RTVSPropertyOp59
 70
     1
102
RTVSPropertyOp60
 70
     1
102
RTVSPropertyOp61
 70
     1
102
RTVSPropertyOp62
 70
     1
  0
XRECORD
  5
9D18
102
{ACAD_REACTORS
330
9D17
102
}
330
9D17
100
AcDbXrecord
280
     1
102
RTVSPost2010Prop28
280
     0
102
RTVSPost2010PropOp28
 70
     1
102
RTVSPost2010Prop29
280
     1
102
RTVSPost2010PropOp29
 70
     1
102
RTVSPost2010Prop30
280
     1
102
RTVSPost2010PropOp30
 70
     1
102
RTVSPost2010Prop31
280
     0
102
RTVSPost2010PropOp31
 70
     1
102
RTVSPost2010Prop32
280
     0
102
RTVSPost2010PropOp32
 70
     1
102
RTVSPost2010Prop33
280
     0
102
RTVSPost2010PropOp33
 70
     1
102
RTVSPost2010Prop34
280
     0
102
RTVSPost2010PropOp34
 70
     1
102
RTVSPost2010Prop35
280
     0
102
RTVSPost2010PropOp35
 70
     1
102
RTVSPost2010Prop36
280
     0
102
RTVSPost2010PropOp36
 70
     1
102
RTVSPost2010Prop37
 90
       50
102
RTVSPost2010PropOp37
 70
     1
102
RTVSPost2010Prop38
140
0.0
102
RTVSPost2010PropOp38
 70
     1
102
RTVSPost2010Prop39
140
1.0
102
RTVSPost2010PropOp39
 70
     1
102
RTVSPost2010Prop40
 90
        0
102
RTVSPost2010PropOp40
 70
     1
102
RTVSPost2010Prop41ColorIndex
 90
       18
102
RTVSPost2010Prop41ColorRGB
 90
        0
102
RTVSPost2010PropOp41
 70
     1
102
RTVSPost2010Prop42
 90
       50
102
RTVSPost2010PropOp42
 70
     1
102
RTVSPost2010Prop43
 90
        3
102
RTVSPost2010PropOp43
 70
     1
102
RTVSPost2010Prop44ColorIndex
 90
        5
102
RTVSPost2010Prop44ColorRGB
 90
      255
102
RTVSPost2010PropOp44
 70
     1
102
RTVSPost2010Prop45
280
     0
102
RTVSPost2010PropOp45
 70
     1
102
RTVSPost2010Prop46
 90
       50
102
RTVSPost2010PropOp46
 70
     1
102
RTVSPost2010Prop47
 90
       50
102
RTVSPost2010PropOp47
 70
     1
102
RTVSPost2010Prop48
 90
       50
102
RTVSPost2010PropOp48
 70
     1
102
RTVSPost2010Prop49
280
     0
102
RTVSPost2010PropOp49
 70
     1
102
RTVSPost2010Prop50
 90
       50
102
RTVSPost2010PropOp50
 70
     1
102
RTVSPost2010Prop51ColorIndex
 90
      256
102
RTVSPost2010Prop51ColorRGB
 90
-16777216
102
RTVSPost2010PropOp51
 70
     0
102
RTVSPost2010Prop52
140
1.0
102
RTVSPost2010PropOp52
 70
     0
102
RTVSPost2010Prop53
 90
        2
102
RTVSPost2010PropOp53
 70
     1
102
RTVSPost2010Prop54
  1
strokes_ogs.tif
102
RTVSPost2010PropOp54
 70
     1
102
RTVSPost2010Prop55
280
     0
102
RTVSPost2010PropOp55
 70
     1
102
RTVSPost2010Prop56
140
1.0
102
RTVSPost2010PropOp56
 70
     1
102
RTVSPost2010Prop57
140
1.0
102
RTVSPost2010PropOp57
 70
     1
102
RTVSPropertyOp0
 70
     1
102
RTVSPropertyOp1
 70
     1
102
RTVSPropertyOp2
 70
     1
102
RTVSPropertyOp3
 70
     1
102
RTVSPropertyOp4
 70
     1
102
RTVSPropertyOp5
 70
     1
102
RTVSPropertyOp6
 70
     1
102
RTVSPropertyOp7
 70
     1
102
RTVSPropertyOp8
 70
     1
102
RTVSPropertyOp9
 70
     1
102
RTVSPropertyOp10
 70
     1
102
RTVSPropertyOp11
 70
     1
102
RTVSPropertyOp12
 70
     1
102
RTVSPropertyOp13
 70
     1
102
RTVSPropertyOp14
 70
     1
102
RTVSPropertyOp15
 70
     1
102
RTVSPropertyOp16
 70
     1
102
RTVSPropertyOp17
 70
     1
102
RTVSPropertyOp18
 70
     1
102
RTVSPropertyOp19
 70
     1
102
RTVSPropertyOp20
 70
     1
102
RTVSPropertyOp21
 70
     1
102
RTVSPropertyOp22
 70
     1
102
RTVSPropertyOp23
 70
     1
102
RTVSPropertyOp24
 70
     1
102
RTVSPropertyOp25
 70
     1
102
RTVSPropertyOp26
 70
     1
102
RTVSPropertyOp27
 70
     1
102
RTVSPropertyOp28
 70
     1
102
RTVSPropertyOp29
 70
     1
102
RTVSPropertyOp30
 70
     1
102
RTVSPropertyOp31
 70
     1
102
RTVSPropertyOp32
 70
     1
102
RTVSPropertyOp33
 70
     1
102
RTVSPropertyOp34
 70
     1
102
RTVSPropertyOp35
 70
     1
102
RTVSPropertyOp36
 70
     1
102
RTVSPropertyOp37
 70
     1
102
RTVSPropertyOp38
 70
     1
102
RTVSPropertyOp39
 70
     1
102
RTVSPropertyOp40
 70
     1
102
RTVSPropertyOp41
 70
     1
102
RTVSPropertyOp42
 70
     1
102
RTVSPropertyOp43
 70
     1
102
RTVSPropertyOp44
 70
     1
102
RTVSPropertyOp45
 70
     1
102
RTVSPropertyOp46
 70
     1
102
RTVSPropertyOp47
 70
     1
102
RTVSPropertyOp48
 70
     1
102
RTVSPropertyOp49
 70
     1
102
RTVSPropertyOp50
 70
     1
102
RTVSPropertyOp51
 70
     0
102
RTVSPropertyOp52
 70
     0
102
RTVSPropertyOp53
 70
     1
102
RTVSPropertyOp54
 70
     1
102
RTVSPropertyOp55
 70
     1
102
RTVSPropertyOp56
 70
     1
102
RTVSPropertyOp57
 70
     1
102
RTVSPropertyOp58
 70
     1
102
RTVSPropertyOp59
 70
     1
102
RTVSPropertyOp60
 70
     1
102
RTVSPropertyOp61
 70
     1
102
RTVSPropertyOp62
 70
     1
  0
XRECORD
  5
9D0E
102
{ACAD_REACTORS
330
9D0D
102
}
330
9D0D
100
AcDbXrecord
280
     1
102
RTVSPost2010Prop28
280
     0
102
RTVSPost2010PropOp28
 70
     1
102
RTVSPost2010Prop29
280
     1
102
RTVSPost2010PropOp29
 70
     1
102
RTVSPost2010Prop30
280
     1
102
RTVSPost2010PropOp30
 70
     1
102
RTVSPost2010Prop31
280
     0
102
RTVSPost2010PropOp31
 70
     1
102
RTVSPost2010Prop32
280
     0
102
RTVSPost2010PropOp32
 70
     1
102
RTVSPost2010Prop33
280
     0
102
RTVSPost2010PropOp33
 70
     1
102
RTVSPost2010Prop34
280
     0
102
RTVSPost2010PropOp34
 70
     1
102
RTVSPost2010Prop35
280
     0
102
RTVSPost2010PropOp35
 70
     1
102
RTVSPost2010Prop36
280
     0
102
RTVSPost2010PropOp36
 70
     1
102
RTVSPost2010Prop37
 90
       50
102
RTVSPost2010PropOp37
 70
     1
102
RTVSPost2010Prop38
140
0.0
102
RTVSPost2010PropOp38
 70
     1
102
RTVSPost2010Prop39
140
1.0
102
RTVSPost2010PropOp39
 70
     1
102
RTVSPost2010Prop40
 90
        0
102
RTVSPost2010PropOp40
 70
     1
102
RTVSPost2010Prop41ColorIndex
 90
       18
102
RTVSPost2010Prop41ColorRGB
 90
        0
102
RTVSPost2010PropOp41
 70
     1
102
RTVSPost2010Prop42
 90
       50
102
RTVSPost2010PropOp42
 70
     1
102
RTVSPost2010Prop43
 90
        3
102
RTVSPost2010PropOp43
 70
     1
102
RTVSPost2010Prop44ColorIndex
 90
        5
102
RTVSPost2010Prop44ColorRGB
 90
      255
102
RTVSPost2010PropOp44
 70
     1
102
RTVSPost2010Prop45
280
     0
102
RTVSPost2010PropOp45
 70
     1
102
RTVSPost2010Prop46
 90
       50
102
RTVSPost2010PropOp46
 70
     1
102
RTVSPost2010Prop47
 90
       50
102
RTVSPost2010PropOp47
 70
     1
102
RTVSPost2010Prop48
 90
       50
102
RTVSPost2010PropOp48
 70
     1
102
RTVSPost2010Prop49
280
     0
102
RTVSPost2010PropOp49
 70
     1
102
RTVSPost2010Prop50
 90
       50
102
RTVSPost2010PropOp50
 70
     1
102
RTVSPost2010Prop51ColorIndex
 90
      256
102
RTVSPost2010Prop51ColorRGB
 90
-16777216
102
RTVSPost2010PropOp51
 70
     0
102
RTVSPost2010Prop52
140
1.0
102
RTVSPost2010PropOp52
 70
     0
102
RTVSPost2010Prop53
 90
        2
102
RTVSPost2010PropOp53
 70
     1
102
RTVSPost2010Prop54
  1
strokes_ogs.tif
102
RTVSPost2010PropOp54
 70
     1
102
RTVSPost2010Prop55
280
     0
102
RTVSPost2010PropOp55
 70
     1
102
RTVSPost2010Prop56
140
1.0
102
RTVSPost2010PropOp56
 70
     1
102
RTVSPost2010Prop57
140
1.0
102
RTVSPost2010PropOp57
 70
     1
102
RTVSPropertyOp0
 70
     1
102
RTVSPropertyOp1
 70
     1
102
RTVSPropertyOp2
 70
     1
102
RTVSPropertyOp3
 70
     1
102
RTVSPropertyOp4
 70
     1
102
RTVSPropertyOp5
 70
     1
102
RTVSPropertyOp6
 70
     1
102
RTVSPropertyOp7
 70
     1
102
RTVSPropertyOp8
 70
     1
102
RTVSPropertyOp9
 70
     1
102
RTVSPropertyOp10
 70
     1
102
RTVSPropertyOp11
 70
     1
102
RTVSPropertyOp12
 70
     1
102
RTVSPropertyOp13
 70
     1
102
RTVSPropertyOp14
 70
     1
102
RTVSPropertyOp15
 70
     1
102
RTVSPropertyOp16
 70
     1
102
RTVSPropertyOp17
 70
     1
102
RTVSPropertyOp18
 70
     1
102
RTVSPropertyOp19
 70
     1
102
RTVSPropertyOp20
 70
     1
102
RTVSPropertyOp21
 70
     1
102
RTVSPropertyOp22
 70
     1
102
RTVSPropertyOp23
 70
     1
102
RTVSPropertyOp24
 70
     1
102
RTVSPropertyOp25
 70
     1
102
RTVSPropertyOp26
 70
     1
102
RTVSPropertyOp27
 70
     1
102
RTVSPropertyOp28
 70
     1
102
RTVSPropertyOp29
 70
     1
102
RTVSPropertyOp30
 70
     1
102
RTVSPropertyOp31
 70
     1
102
RTVSPropertyOp32
 70
     1
102
RTVSPropertyOp33
 70
     1
102
RTVSPropertyOp34
 70
     1
102
RTVSPropertyOp35
 70
     1
102
RTVSPropertyOp36
 70
     1
102
RTVSPropertyOp37
 70
     1
102
RTVSPropertyOp38
 70
     1
102
RTVSPropertyOp39
 70
     1
102
RTVSPropertyOp40
 70
     1
102
RTVSPropertyOp41
 70
     1
102
RTVSPropertyOp42
 70
     1
102
RTVSPropertyOp43
 70
     1
102
RTVSPropertyOp44
 70
     1
102
RTVSPropertyOp45
 70
     1
102
RTVSPropertyOp46
 70
     1
102
RTVSPropertyOp47
 70
     1
102
RTVSPropertyOp48
 70
     1
102
RTVSPropertyOp49
 70
     1
102
RTVSPropertyOp50
 70
     1
102
RTVSPropertyOp51
 70
     0
102
RTVSPropertyOp52
 70
     0
102
RTVSPropertyOp53
 70
     1
102
RTVSPropertyOp54
 70
     1
102
RTVSPropertyOp55
 70
     1
102
RTVSPropertyOp56
 70
     1
102
RTVSPropertyOp57
 70
     1
102
RTVSPropertyOp58
 70
     1
102
RTVSPropertyOp59
 70
     1
102
RTVSPropertyOp60
 70
     1
102
RTVSPropertyOp61
 70
     1
102
RTVSPropertyOp62
 70
     1
  0
XRECORD
  5
9D02
102
{ACAD_REACTORS
330
9D01
102
}
330
9D01
100
AcDbXrecord
280
     1
102
RTVSPost2010Prop28
280
     0
102
RTVSPost2010PropOp28
 70
     1
102
RTVSPost2010Prop29
280
     1
102
RTVSPost2010PropOp29
 70
     1
102
RTVSPost2010Prop30
280
     1
102
RTVSPost2010PropOp30
 70
     1
102
RTVSPost2010Prop31
280
     0
102
RTVSPost2010PropOp31
 70
     1
102
RTVSPost2010Prop32
280
     0
102
RTVSPost2010PropOp32
 70
     1
102
RTVSPost2010Prop33
280
     0
102
RTVSPost2010PropOp33
 70
     1
102
RTVSPost2010Prop34
280
     0
102
RTVSPost2010PropOp34
 70
     1
102
RTVSPost2010Prop35
280
     0
102
RTVSPost2010PropOp35
 70
     1
102
RTVSPost2010Prop36
280
     0
102
RTVSPost2010PropOp36
 70
     1
102
RTVSPost2010Prop37
 90
       50
102
RTVSPost2010PropOp37
 70
     1
102
RTVSPost2010Prop38
140
0.0
102
RTVSPost2010PropOp38
 70
     1
102
RTVSPost2010Prop39
140
1.0
102
RTVSPost2010PropOp39
 70
     1
102
RTVSPost2010Prop40
 90
        0
102
RTVSPost2010PropOp40
 70
     1
102
RTVSPost2010Prop41ColorIndex
 90
       18
102
RTVSPost2010Prop41ColorRGB
 90
        0
102
RTVSPost2010PropOp41
 70
     1
102
RTVSPost2010Prop42
 90
       50
102
RTVSPost2010PropOp42
 70
     1
102
RTVSPost2010Prop43
 90
        3
102
RTVSPost2010PropOp43
 70
     1
102
RTVSPost2010Prop44ColorIndex
 90
        5
102
RTVSPost2010Prop44ColorRGB
 90
      255
102
RTVSPost2010PropOp44
 70
     1
102
RTVSPost2010Prop45
280
     0
102
RTVSPost2010PropOp45
 70
     1
102
RTVSPost2010Prop46
 90
       50
102
RTVSPost2010PropOp46
 70
     1
102
RTVSPost2010Prop47
 90
       50
102
RTVSPost2010PropOp47
 70
     1
102
RTVSPost2010Prop48
 90
       50
102
RTVSPost2010PropOp48
 70
     1
102
RTVSPost2010Prop49
280
     0
102
RTVSPost2010PropOp49
 70
     1
102
RTVSPost2010Prop50
 90
       50
102
RTVSPost2010PropOp50
 70
     1
102
RTVSPost2010Prop51ColorIndex
 90
      256
102
RTVSPost2010Prop51ColorRGB
 90
-16777216
102
RTVSPost2010PropOp51
 70
     0
102
RTVSPost2010Prop52
140
1.0
102
RTVSPost2010PropOp52
 70
     0
102
RTVSPost2010Prop53
 90
        2
102
RTVSPost2010PropOp53
 70
     1
102
RTVSPost2010Prop54
  1
strokes_ogs.tif
102
RTVSPost2010PropOp54
 70
     1
102
RTVSPost2010Prop55
280
     0
102
RTVSPost2010PropOp55
 70
     1
102
RTVSPost2010Prop56
140
1.0
102
RTVSPost2010PropOp56
 70
     1
102
RTVSPost2010Prop57
140
1.0
102
RTVSPost2010PropOp57
 70
     1
102
RTVSPropertyOp0
 70
     1
102
RTVSPropertyOp1
 70
     1
102
RTVSPropertyOp2
 70
     1
102
RTVSPropertyOp3
 70
     1
102
RTVSPropertyOp4
 70
     1
102
RTVSPropertyOp5
 70
     1
102
RTVSPropertyOp6
 70
     1
102
RTVSPropertyOp7
 70
     1
102
RTVSPropertyOp8
 70
     1
102
RTVSPropertyOp9
 70
     1
102
RTVSPropertyOp10
 70
     1
102
RTVSPropertyOp11
 70
     1
102
RTVSPropertyOp12
 70
     1
102
RTVSPropertyOp13
 70
     1
102
RTVSPropertyOp14
 70
     1
102
RTVSPropertyOp15
 70
     1
102
RTVSPropertyOp16
 70
     1
102
RTVSPropertyOp17
 70
     1
102
RTVSPropertyOp18
 70
     1
102
RTVSPropertyOp19
 70
     1
102
RTVSPropertyOp20
 70
     1
102
RTVSPropertyOp21
 70
     1
102
RTVSPropertyOp22
 70
     1
102
RTVSPropertyOp23
 70
     1
102
RTVSPropertyOp24
 70
     1
102
RTVSPropertyOp25
 70
     1
102
RTVSPropertyOp26
 70
     1
102
RTVSPropertyOp27
 70
     1
102
RTVSPropertyOp28
 70
     1
102
RTVSPropertyOp29
 70
     1
102
RTVSPropertyOp30
 70
     1
102
RTVSPropertyOp31
 70
     1
102
RTVSPropertyOp32
 70
     1
102
RTVSPropertyOp33
 70
     1
102
RTVSPropertyOp34
 70
     1
102
RTVSPropertyOp35
 70
     1
102
RTVSPropertyOp36
 70
     1
102
RTVSPropertyOp37
 70
     1
102
RTVSPropertyOp38
 70
     1
102
RTVSPropertyOp39
 70
     1
102
RTVSPropertyOp40
 70
     1
102
RTVSPropertyOp41
 70
     1
102
RTVSPropertyOp42
 70
     1
102
RTVSPropertyOp43
 70
     1
102
RTVSPropertyOp44
 70
     1
102
RTVSPropertyOp45
 70
     1
102
RTVSPropertyOp46
 70
     1
102
RTVSPropertyOp47
 70
     1
102
RTVSPropertyOp48
 70
     1
102
RTVSPropertyOp49
 70
     1
102
RTVSPropertyOp50
 70
     1
102
RTVSPropertyOp51
 70
     0
102
RTVSPropertyOp52
 70
     0
102
RTVSPropertyOp53
 70
     1
102
RTVSPropertyOp54
 70
     1
102
RTVSPropertyOp55
 70
     1
102
RTVSPropertyOp56
 70
     1
102
RTVSPropertyOp57
 70
     1
102
RTVSPropertyOp58
 70
     1
102
RTVSPropertyOp59
 70
     1
102
RTVSPropertyOp60
 70
     1
102
RTVSPropertyOp61
 70
     1
102
RTVSPropertyOp62
 70
     1
  0
XRECORD
  5
9D1A
102
{ACAD_REACTORS
330
9D19
102
}
330
9D19
100
AcDbXrecord
280
     1
102
RTVSPost2010Prop28
280
     0
102
RTVSPost2010PropOp28
 70
     1
102
RTVSPost2010Prop29
280
     1
102
RTVSPost2010PropOp29
 70
     1
102
RTVSPost2010Prop30
280
     1
102
RTVSPost2010PropOp30
 70
     1
102
RTVSPost2010Prop31
280
     0
102
RTVSPost2010PropOp31
 70
     1
102
RTVSPost2010Prop32
280
     0
102
RTVSPost2010PropOp32
 70
     1
102
RTVSPost2010Prop33
280
     0
102
RTVSPost2010PropOp33
 70
     1
102
RTVSPost2010Prop34
280
     0
102
RTVSPost2010PropOp34
 70
     1
102
RTVSPost2010Prop35
280
     0
102
RTVSPost2010PropOp35
 70
     1
102
RTVSPost2010Prop36
280
     0
102
RTVSPost2010PropOp36
 70
     1
102
RTVSPost2010Prop37
 90
       50
102
RTVSPost2010PropOp37
 70
     1
102
RTVSPost2010Prop38
140
0.0
102
RTVSPost2010PropOp38
 70
     1
102
RTVSPost2010Prop39
140
1.0
102
RTVSPost2010PropOp39
 70
     1
102
RTVSPost2010Prop40
 90
        0
102
RTVSPost2010PropOp40
 70
     1
102
RTVSPost2010Prop41ColorIndex
 90
       18
102
RTVSPost2010Prop41ColorRGB
 90
        0
102
RTVSPost2010PropOp41
 70
     1
102
RTVSPost2010Prop42
 90
       50
102
RTVSPost2010PropOp42
 70
     1
102
RTVSPost2010Prop43
 90
        3
102
RTVSPost2010PropOp43
 70
     1
102
RTVSPost2010Prop44ColorIndex
 90
        5
102
RTVSPost2010Prop44ColorRGB
 90
      255
102
RTVSPost2010PropOp44
 70
     1
102
RTVSPost2010Prop45
280
     0
102
RTVSPost2010PropOp45
 70
     1
102
RTVSPost2010Prop46
 90
       50
102
RTVSPost2010PropOp46
 70
     1
102
RTVSPost2010Prop47
 90
       50
102
RTVSPost2010PropOp47
 70
     1
102
RTVSPost2010Prop48
 90
       50
102
RTVSPost2010PropOp48
 70
     1
102
RTVSPost2010Prop49
280
     0
102
RTVSPost2010PropOp49
 70
     1
102
RTVSPost2010Prop50
 90
       50
102
RTVSPost2010PropOp50
 70
     1
102
RTVSPost2010Prop51ColorIndex
 90
      256
102
RTVSPost2010Prop51ColorRGB
 90
-16777216
102
RTVSPost2010PropOp51
 70
     0
102
RTVSPost2010Prop52
140
1.0
102
RTVSPost2010PropOp52
 70
     0
102
RTVSPost2010Prop53
 90
        2
102
RTVSPost2010PropOp53
 70
     1
102
RTVSPost2010Prop54
  1
strokes_ogs.tif
102
RTVSPost2010PropOp54
 70
     1
102
RTVSPost2010Prop55
280
     0
102
RTVSPost2010PropOp55
 70
     1
102
RTVSPost2010Prop56
140
1.0
102
RTVSPost2010PropOp56
 70
     1
102
RTVSPost2010Prop57
140
1.0
102
RTVSPost2010PropOp57
 70
     1
102
RTVSPropertyOp0
 70
     1
102
RTVSPropertyOp1
 70
     1
102
RTVSPropertyOp2
 70
     1
102
RTVSPropertyOp3
 70
     1
102
RTVSPropertyOp4
 70
     1
102
RTVSPropertyOp5
 70
     1
102
RTVSPropertyOp6
 70
     1
102
RTVSPropertyOp7
 70
     1
102
RTVSPropertyOp8
 70
     1
102
RTVSPropertyOp9
 70
     1
102
RTVSPropertyOp10
 70
     1
102
RTVSPropertyOp11
 70
     1
102
RTVSPropertyOp12
 70
     1
102
RTVSPropertyOp13
 70
     1
102
RTVSPropertyOp14
 70
     1
102
RTVSPropertyOp15
 70
     1
102
RTVSPropertyOp16
 70
     1
102
RTVSPropertyOp17
 70
     1
102
RTVSPropertyOp18
 70
     1
102
RTVSPropertyOp19
 70
     1
102
RTVSPropertyOp20
 70
     1
102
RTVSPropertyOp21
 70
     1
102
RTVSPropertyOp22
 70
     1
102
RTVSPropertyOp23
 70
     1
102
RTVSPropertyOp24
 70
     1
102
RTVSPropertyOp25
 70
     1
102
RTVSPropertyOp26
 70
     1
102
RTVSPropertyOp27
 70
     1
102
RTVSPropertyOp28
 70
     1
102
RTVSPropertyOp29
 70
     1
102
RTVSPropertyOp30
 70
     1
102
RTVSPropertyOp31
 70
     1
102
RTVSPropertyOp32
 70
     1
102
RTVSPropertyOp33
 70
     1
102
RTVSPropertyOp34
 70
     1
102
RTVSPropertyOp35
 70
     1
102
RTVSPropertyOp36
 70
     1
102
RTVSPropertyOp37
 70
     1
102
RTVSPropertyOp38
 70
     1
102
RTVSPropertyOp39
 70
     1
102
RTVSPropertyOp40
 70
     1
102
RTVSPropertyOp41
 70
     1
102
RTVSPropertyOp42
 70
     1
102
RTVSPropertyOp43
 70
     1
102
RTVSPropertyOp44
 70
     1
102
RTVSPropertyOp45
 70
     1
102
RTVSPropertyOp46
 70
     1
102
RTVSPropertyOp47
 70
     1
102
RTVSPropertyOp48
 70
     1
102
RTVSPropertyOp49
 70
     1
102
RTVSPropertyOp50
 70
     1
102
RTVSPropertyOp51
 70
     0
102
RTVSPropertyOp52
 70
     0
102
RTVSPropertyOp53
 70
     1
102
RTVSPropertyOp54
 70
     1
102
RTVSPropertyOp55
 70
     1
102
RTVSPropertyOp56
 70
     1
102
RTVSPropertyOp57
 70
     1
102
RTVSPropertyOp58
 70
     1
102
RTVSPropertyOp59
 70
     1
102
RTVSPropertyOp60
 70
     1
102
RTVSPropertyOp61
 70
     1
102
RTVSPropertyOp62
 70
     1
  0
ENDSEC
  0
EOF
