  0
SECTION
  2
HEADER
  9
$ACADVER
  1
AC1024
  9
$DWGCODEPAGE
  3
ANSI_932
  9
$LTSCALE
 40
20.0
  9
$FILLMODE
 70
     1
  9
$CLAYER
  8
0
  9
$PDMODE
 70
     0
  9
$SPLFRAME
 70
     0
  9
$SPLINETYPE
 70
     6
  9
$SPLINESEGS
 70
     8
  9
$DIMASZ
 40
2.000000
  9
$DIMEXE
 40
1.500000
  9
$DIMEXO
 40
0.800000
  9
$DIMTAD
 70
     1
  9
$DIMTIH
 70
     0
  9
$DIMTOH
 70
     0
  9
$DIMTVP
 40
0.500000
  9
$DIMTXT
 40
3.100000
  9
$EXTMIN
 10
0.000000
 20
0.000000
 30
0.000000
  9
$EXTMAX
 10
297.000000
 20
420.000000
 30
0.000000
  9
$MEASUREMENT
 70
  1
  9
$LIMMIN
 10
0.000000
 20
0.000000
  9
$LIMMAX
 10
297.000000
 20
420.000000
  9
$HANDSEED
  5
29B
  9
$LWDISPLAY
290
     0
  9
$DIMBLK
  1
_OPEN
  9
$DIMDEC
 70
     2
  9
$DIMADEC
 70
     2
  9
$DIMAUNIT
 70
     0
  9
$DIMZIN
 70
     8
  9
$DIMAZIN
 70
     2
  9
$DIMTOFL
 70
     1
  0
ENDSEC
  0
SECTION
  2
CLASSES
  0
ENDSEC
  0
SECTION
  2
TABLES
  0
TABLE
  2
VPORT
  5
26B
100
AcDbSymbolTable
 70
     1
  0
VPORT
  5
26C
100
AcDbSymbolTableRecord
100
AcDbViewportTableRecord
  2
*ACTIVE
 70
     0
 12
267.777137
 22
191.218914
 40
362.437827
 41
1.444563
  0
ENDTAB
  0
TABLE
  2
LTYPE
  5
26D
100
AcDbSymbolTable
 70
     2
  0
LTYPE
  5
26E
100
AcDbSymbolTableRecord
100
AcDbLinetypeTableRecord
  2
BYBLOCK
 70
     0
  3

 72
    65
 73
     0
 40
0.0
  0
LTYPE
  5
26F
100
AcDbSymbolTableRecord
100
AcDbLinetypeTableRecord
  2
BYLAYER
 70
     0
  3

 72
    65
 73
     0
 40
0.0
  0
LTYPE
  5
270
100
AcDbSymbolTableRecord
100
AcDbLinetypeTableRecord
  2
CONTINUOUS
 70
     0
  3
Solid line (NEC CAE2D for Win R18.0 : 2026.01.23)
 72
    65
 73
     0
 40
0.0
  0
LTYPE
  5
271
100
AcDbSymbolTableRecord
100
AcDbLinetypeTableRecord
  2
CENTER
 70
     0
  3
____ _ ____ _ ____ _ ____ _ ____ _ ____
 72
    65
 73
     4
 40
2.0
 49
1.25
 74
     0
 49
-0.25
 74
     0
 49
0.25
 74
     0
 49
-0.25
 74
     0
  0
ENDTAB
  0
TABLE
  2
LAYER
  5
272
100
AcDbSymbolTable
 70
    10
  0
LAYER
  5
273
100
AcDbSymbolTableRecord
100
AcDbLayerTableRecord
  2
0
 70
     0
 62
     7
  6
CONTINUOUS
370
    -3
390

  0
LAYER
  5
274
100
AcDbSymbolTableRecord
100
AcDbLayerTableRecord
  2
DXF0
 70
     0
 62
     7
  6
CONTINUOUS
370
    -3
390

  0
LAYER
  5
275
100
AcDbSymbolTableRecord
100
AcDbLayerTableRecord
  2
4
 70
     0
 62
     1
  6
CONTINUOUS
370
    -3
390

  0
LAYER
  5
276
100
AcDbSymbolTableRecord
100
AcDbLayerTableRecord
  2
5
 70
     0
 62
     6
  6
CONTINUOUS
370
    -3
390

  0
LAYER
  5
277
100
AcDbSymbolTableRecord
100
AcDbLayerTableRecord
  2
1
 70
     0
 62
     7
  6
CONTINUOUS
370
    -3
390

  0
LAYER
  5
278
100
AcDbSymbolTableRecord
100
AcDbLayerTableRecord
  2
2
 70
     0
 62
     4
  6
CONTINUOUS
370
    -3
390

  0
LAYER
  5
279
100
AcDbSymbolTableRecord
100
AcDbLayerTableRecord
  2
3
 70
     0
 62
     2
  6
CONTINUOUS
370
    -3
390

  0
LAYER
  5
27A
100
AcDbSymbolTableRecord
100
AcDbLayerTableRecord
  2
6
 70
     0
 62
     5
  6
CONTINUOUS
370
    -3
390

  0
LAYER
  5
27B
100
AcDbSymbolTableRecord
100
AcDbLayerTableRecord
  2
7
 70
     0
 62
     3
  6
CONTINUOUS
370
    -3
390

  0
LAYER
  5
27C
100
AcDbSymbolTableRecord
100
AcDbLayerTableRecord
  2
DXF1023
 70
     0
 62
    16
  6
CONTINUOUS
370
    -3
390

  0
ENDTAB
  0
TABLE
  2
STYLE
  5
27D
100
AcDbSymbolTable
 70
     4
  0
STYLE
  5
27E
100
AcDbSymbolTableRecord
100
AcDbTextStyleTableRecord
  2
STANDARD
 70
    64
 40
0.0
 41
1.0
 50
0.0
 71
     0
 42
1.399999976158142
  3
TXT
  4

  0
STYLE
  5
27F
100
AcDbSymbolTableRecord
100
AcDbTextStyleTableRecord
  2
ANKTATE
 70
    68
 40
0.0
 41
1.0
 50
0.0
 71
     0
 42
1.399999976158142
  3
TXT
  4

  0
STYLE
  5
280
100
AcDbSymbolTableRecord
100
AcDbTextStyleTableRecord
  2
KNJYOKO
 70
    64
 40
0.0
 41
1.0
 50
0.0
 71
     0
 42
1.399999976158142
  3
TXT
  4
BIGFONT
  0
STYLE
  5
281
100
AcDbSymbolTableRecord
100
AcDbTextStyleTableRecord
  2
KNJTATE
 70
    68
 40
0.0
 41
1.0
 50
0.0
 71
     0
 42
1.399999976158142
  3
TXT
  4
BIGFONT
  0
ENDTAB
  0
TABLE
  2
VIEW
  5
282
100
AcDbSymbolTable
 70
     0
  0
ENDTAB
  0
TABLE
  2
UCS
  5
283
100
AcDbSymbolTable
 70
     0
  0
ENDTAB
  0
TABLE
  2
APPID
  5
284
100
AcDbSymbolTable
 70
     1
  0
APPID
  5
285
100
AcDbSymbolTableRecord
100
AcDbRegAppTableRecord
  2
ACAD
 70
     0
  0
ENDTAB
  0
TABLE
  2
DIMSTYLE
  5
286
100
AcDbSymbolTable
 70
     2
100
AcDbDimStyleTable
  0
DIMSTYLE
105
287
100
AcDbSymbolTableRecord
100
AcDbDimStyleTableRecord
  2
STANDARD
 70
     0
 41
2.000000
 44
1.500000
 42
0.800000
145
0.661290
140
3.100000
144
1.000000
146
0.645161
340
27E
  0
DIMSTYLE
105
288
100
AcDbSymbolTableRecord
100
AcDbDimStyleTableRecord
  2
DXF001
 70
     0
 41
2.000000
 44
1.500000
 42
0.800000
145
0.661290
140
3.100000
144
1.000000
146
0.645161
 77
     1
 73
     0
 74
     0
271
     2
179
     2
275
     0
 78
     8
 79
     2
172
     1
340
27E
  0
ENDTAB
  0
TABLE
  2
BLOCK_RECORD
  5
289
100
AcDbSymbolTable
 70
    12
  0
BLOCK_RECORD
  5
28A
100
AcDbSymbolTableRecord
100
AcDbBlockTableRecord
  2
*MODEL_SPACE
  0
BLOCK_RECORD
  5
28B
100
AcDbSymbolTableRecord
100
AcDbBlockTableRecord
  2
*PAPER_SPACE
  0
BLOCK_RECORD
  5
28C
100
AcDbSymbolTableRecord
100
AcDbBlockTableRecord
  2
*PAPER_SPACE0
  0
BLOCK_RECORD
  5
1
100
AcDbSymbolTableRecord
100
AcDbBlockTableRecord
  2
_NONE
  0
BLOCK_RECORD
  5
4
100
AcDbSymbolTableRecord
100
AcDbBlockTableRecord
  2
_CLOSED
  0
BLOCK_RECORD
  5
B
100
AcDbSymbolTableRecord
100
AcDbBlockTableRecord
  2
_DOT
  0
BLOCK_RECORD
  5
13
100
AcDbSymbolTableRecord
100
AcDbBlockTableRecord
  2
_OPEN
  0
BLOCK_RECORD
  5
19
100
AcDbSymbolTableRecord
100
AcDbBlockTableRecord
  2
_ORIGIN
  0
BLOCK_RECORD
  5
1E
100
AcDbSymbolTableRecord
100
AcDbBlockTableRecord
  2
_OPEN30
  0
BLOCK_RECORD
  5
24
100
AcDbSymbolTableRecord
100
AcDbBlockTableRecord
  2
_BOXFILLED
  0
BLOCK_RECORD
  5
29
100
AcDbSymbolTableRecord
100
AcDbBlockTableRecord
  2
_BOXBLANK
  0
BLOCK_RECORD
  5
31
100
AcDbSymbolTableRecord
100
AcDbBlockTableRecord
  2
_OBLIQUE
  0
BLOCK_RECORD
  5
35
100
AcDbSymbolTableRecord
100
AcDbBlockTableRecord
  2
_OPEN90
  0
BLOCK_RECORD
  5
3B
100
AcDbSymbolTableRecord
100
AcDbBlockTableRecord
  2
_CLOSEDBLANK
  0
BLOCK_RECORD
  5
41
100
AcDbSymbolTableRecord
100
AcDbBlockTableRecord
  2
_DOTBLANK
  0
ENDTAB
  0
ENDSEC
  0
SECTION
  2
BLOCKS
  0
BLOCK
  5
28D
100
AcDbEntity
  8
0
100
AcDbBlockBegin
  2
*MODEL_SPACE
 70
     0
 10
0.0
 20
0.0
 30
0.0
  3
*MODEL_SPACE
  1

  0
ENDBLK
  5
28E
100
AcDbEntity
  8
0
100
AcDbBlockEnd
  0
BLOCK
  5
28F
100
AcDbEntity
  8
0
100
AcDbBlockBegin
  2
*PAPER_SPACE
 70
     0
 10
0.0
 20
0.0
 30
0.0
  3
*PAPER_SPACE
  1

  0
ENDBLK
  5
290
100
AcDbEntity
  8
0
100
AcDbBlockEnd
  0
BLOCK
  5
291
100
AcDbEntity
  8
0
100
AcDbBlockBegin
  2
*PAPER_SPACE0
 70
     0
 10
0.0
 20
0.0
 30
0.0
  3
*PAPER_SPACE0
  1

  0
ENDBLK
  5
292
100
AcDbEntity
  8
0
100
AcDbBlockEnd
  0
BLOCK
  5
2
330
1
100
AcDbEntity
  8
0
100
AcDbBlockBegin
  2
_NONE
 70
     0
 10
0.0
 20
0.0
 30
0.0
  3
_NONE
  1

  0
ENDBLK
  5
3
330
1
100
AcDbEntity
  8
0
100
AcDbBlockEnd
  0
BLOCK
  5
5
330
4
100
AcDbEntity
  8
0
100
AcDbBlockBegin
  2
_CLOSED
 70
     0
 10
0.0
 20
0.0
 30
0.0
  3
_CLOSED
  1

  0
LINE
  5
6
330
4
100
AcDbEntity
  8
0
  6
BYBLOCK
 62
     0
370
    -2
100
AcDbLine
 10
-1.0
 20
0.166667
 30
0.0
 11
0.0
 21
0.0
 31
0.0
  0
LINE
  5
7
330
4
100
AcDbEntity
  8
0
  6
BYBLOCK
 62
     0
370
    -2
100
AcDbLine
 10
0.0
 20
0.0
 30
0.0
 11
-1.0
 21
-0.166667
 31
0.0
  0
LINE
  5
8
330
4
100
AcDbEntity
  8
0
  6
BYBLOCK
 62
     0
370
    -2
100
AcDbLine
 10
-1.0
 20
0.166667
 30
0.0
 11
-1.0
 21
-0.166667
 31
0.0
  0
LINE
  5
9
330
4
100
AcDbEntity
  8
0
  6
BYBLOCK
 62
     0
370
    -2
100
AcDbLine
 10
0.0
 20
0.0
 30
0.0
 11
-1.0
 21
0.0
 31
0.0
  0
ENDBLK
  5
A
330
4
100
AcDbEntity
  8
0
100
AcDbBlockEnd
  0
BLOCK
  5
C
330
B
100
AcDbEntity
  8
0
100
AcDbBlockBegin
  2
_DOT
 70
     0
 10
0.0
 20
0.0
 30
0.0
  3
_DOT
  1

  0
POLYLINE
  5
D
330
B
100
AcDbEntity
  8
0
  6
BYBLOCK
 62
     0
370
    -2
100
AcDb2dPolyline
 66
     1
 10
0.0
 20
0.0
 30
0.0
 70
     1
 40
0.5
 41
0.5
  0
VERTEX
  5
E
330
B
100
AcDbEntity
  8
0
  6
BYBLOCK
 62
     0
370
    -2
100
AcDbVertex
100
AcDb2dVertex
 10
-0.25
 20
0.0
 30
0.0
 42
1.0
  0
VERTEX
  5
F
330
B
100
AcDbEntity
  8
0
  6
BYBLOCK
 62
     0
370
    -2
100
AcDbVertex
100
AcDb2dVertex
 10
0.25
 20
0.0
 30
0.0
 42
1.0
  0
SEQEND
  5
10
330
B
100
AcDbEntity
  8
0
  6
BYBLOCK
 62
     0
370
    -2
  0
LINE
  5
11
330
B
100
AcDbEntity
  8
0
  6
BYBLOCK
 62
     0
370
    -2
100
AcDbLine
 10
-0.5
 20
0.0
 30
0.0
 11
-1.0
 21
0.0
 31
0.0
  0
ENDBLK
  5
12
330
B
100
AcDbEntity
  8
0
100
AcDbBlockEnd
  0
BLOCK
  5
14
330
13
100
AcDbEntity
  8
0
100
AcDbBlockBegin
  2
_OPEN
 70
     0
 10
0.0
 20
0.0
 30
0.0
  3
_OPEN
  1

  0
LINE
  5
15
330
13
100
AcDbEntity
  8
0
  6
BYBLOCK
 62
     0
370
    -2
100
AcDbLine
 10
-1.0
 20
0.166667
 30
0.0
 11
0.0
 21
0.0
 31
0.0
  0
LINE
  5
16
330
13
100
AcDbEntity
  8
0
  6
BYBLOCK
 62
     0
370
    -2
100
AcDbLine
 10
0.0
 20
0.0
 30
0.0
 11
-1.0
 21
-0.166667
 31
0.0
  0
LINE
  5
17
330
13
100
AcDbEntity
  8
0
  6
BYBLOCK
 62
     0
370
    -2
100
AcDbLine
 10
0.0
 20
0.0
 30
0.0
 11
-1.0
 21
0.0
 31
0.0
  0
ENDBLK
  5
18
330
13
100
AcDbEntity
  8
0
100
AcDbBlockEnd
  0
BLOCK
  5
1A
330
19
100
AcDbEntity
  8
0
100
AcDbBlockBegin
  2
_ORIGIN
 70
     0
 10
0.0
 20
0.0
 30
0.0
  3
_ORIGIN
  1

  0
CIRCLE
  5
1B
330
19
100
AcDbEntity
  8
0
  6
BYBLOCK
 62
     0
370
    -2
100
AcDbCircle
 10
0.0
 20
0.0
 30
0.0
 40
0.5
  0
LINE
  5
1C
330
19
100
AcDbEntity
  8
0
  6
BYBLOCK
 62
     0
370
    -2
100
AcDbLine
 10
0.0
 20
0.0
 30
0.0
 11
-1.0
 21
0.0
 31
0.0
  0
ENDBLK
  5
1D
330
19
100
AcDbEntity
  8
0
100
AcDbBlockEnd
  0
BLOCK
  5
1F
330
1E
100
AcDbEntity
  8
0
100
AcDbBlockBegin
  2
_OPEN30
 70
     0
 10
0.0
 20
0.0
 30
0.0
  3
_OPEN30
  1

  0
LINE
  5
20
330
1E
100
AcDbEntity
  8
0
  6
BYBLOCK
 62
     0
370
    -2
100
AcDbLine
 10
-1.0
 20
0.267949
 30
0.0
 11
0.0
 21
0.0
 31
0.0
  0
LINE
  5
21
330
1E
100
AcDbEntity
  8
0
  6
BYBLOCK
 62
     0
370
    -2
100
AcDbLine
 10
0.0
 20
0.0
 30
0.0
 11
-1.0
 21
-0.267949
 31
0.0
  0
LINE
  5
22
330
1E
100
AcDbEntity
  8
0
  6
BYBLOCK
 62
     0
370
    -2
100
AcDbLine
 10
0.0
 20
0.0
 30
0.0
 11
-1.0
 21
0.0
 31
0.0
  0
ENDBLK
  5
23
330
1E
100
AcDbEntity
  8
0
100
AcDbBlockEnd
  0
BLOCK
  5
25
330
24
100
AcDbEntity
  8
0
100
AcDbBlockBegin
  2
_BOXFILLED
 70
     0
 10
0.0
 20
0.0
 30
0.0
  3
_BOXFILLED
  1

  0
SOLID
  5
26
330
24
100
AcDbEntity
  8
0
  6
BYBLOCK
 62
     0
370
    -2
100
AcDbTrace
 10
-0.5
 20
0.5
 30
0.0
 11
0.5
 21
0.5
 31
0.0
 12
-0.5
 22
-0.5
 32
0.0
 13
0.5
 23
-0.5
 33
0.0
  0
LINE
  5
27
330
24
100
AcDbEntity
  8
0
  6
BYBLOCK
 62
     0
370
    -2
100
AcDbLine
 10
-0.5
 20
0.0
 30
0.0
 11
-1.0
 21
0.0
 31
0.0
  0
ENDBLK
  5
28
330
24
100
AcDbEntity
  8
0
100
AcDbBlockEnd
  0
BLOCK
  5
2A
330
29
100
AcDbEntity
  8
0
100
AcDbBlockBegin
  2
_BOXBLANK
 70
     0
 10
0.0
 20
0.0
 30
0.0
  3
_BOXBLANK
  1

  0
LINE
  5
2B
330
29
100
AcDbEntity
  8
0
  6
BYBLOCK
 62
     0
370
    -2
100
AcDbLine
 10
-0.5
 20
-0.5
 30
0.0
 11
0.5
 21
-0.5
 31
0.0
  0
LINE
  5
2C
330
29
100
AcDbEntity
  8
0
  6
BYBLOCK
 62
     0
370
    -2
100
AcDbLine
 10
0.5
 20
-0.5
 30
0.0
 11
0.5
 21
0.5
 31
0.0
  0
LINE
  5
2D
330
29
100
AcDbEntity
  8
0
  6
BYBLOCK
 62
     0
370
    -2
100
AcDbLine
 10
0.5
 20
0.5
 30
0.0
 11
-0.5
 21
0.5
 31
0.0
  0
LINE
  5
2E
330
29
100
AcDbEntity
  8
0
  6
BYBLOCK
 62
     0
370
    -2
100
AcDbLine
 10
-0.5
 20
0.5
 30
0.0
 11
-0.5
 21
-0.5
 31
0.0
  0
LINE
  5
2F
330
29
100
AcDbEntity
  8
0
  6
BYBLOCK
 62
     0
370
    -2
100
AcDbLine
 10
-0.5
 20
0.0
 30
0.0
 11
-1.0
 21
0.0
 31
0.0
  0
ENDBLK
  5
30
330
29
100
AcDbEntity
  8
0
100
AcDbBlockEnd
  0
BLOCK
  5
32
330
31
100
AcDbEntity
  8
0
100
AcDbBlockBegin
  2
_OBLIQUE
 70
     0
 10
0.0
 20
0.0
 30
0.0
  3
_OBLIQUE
  1

  0
LINE
  5
33
330
31
100
AcDbEntity
  8
0
  6
BYBLOCK
 62
     0
370
    -2
100
AcDbLine
 10
-0.5
 20
-0.5
 30
0.0
 11
0.5
 21
0.5
 31
0.0
  0
ENDBLK
  5
34
330
31
100
AcDbEntity
  8
0
100
AcDbBlockEnd
  0
BLOCK
  5
36
330
35
100
AcDbEntity
  8
0
100
AcDbBlockBegin
  2
_OPEN90
 70
     0
 10
0.0
 20
0.0
 30
0.0
  3
_OPEN90
  1

  0
LINE
  5
37
330
35
100
AcDbEntity
  8
0
  6
BYBLOCK
 62
     0
370
    -2
100
AcDbLine
 10
-0.5
 20
0.5
 30
0.0
 11
0.0
 21
0.0
 31
0.0
  0
LINE
  5
38
330
35
100
AcDbEntity
  8
0
  6
BYBLOCK
 62
     0
370
    -2
100
AcDbLine
 10
0.0
 20
0.0
 30
0.0
 11
-0.5
 21
-0.5
 31
0.0
  0
LINE
  5
39
330
35
100
AcDbEntity
  8
0
  6
BYBLOCK
 62
     0
370
    -2
100
AcDbLine
 10
0.0
 20
0.0
 30
0.0
 11
-1.0
 21
0.0
 31
0.0
  0
ENDBLK
  5
3A
330
35
100
AcDbEntity
  8
0
100
AcDbBlockEnd
  0
BLOCK
  5
3C
330
3B
100
AcDbEntity
  8
0
100
AcDbBlockBegin
  2
_CLOSEDBLANK
 70
     0
 10
0.0
 20
0.0
 30
0.0
  3
_CLOSEDBLANK
  1

  0
LINE
  5
3D
330
3B
100
AcDbEntity
  8
0
  6
BYBLOCK
 62
     0
370
    -2
100
AcDbLine
 10
-1.0
 20
0.1666666666666666
 30
0.0
 11
0.0
 21
0.0
 31
0.0
  0
LINE
  5
3E
330
3B
100
AcDbEntity
  8
0
  6
BYBLOCK
 62
     0
370
    -2
100
AcDbLine
 10
0.0
 20
0.0
 30
0.0
 11
-1.0
 21
-0.1666666666666666
 31
0.0
  0
LINE
  5
3F
330
3B
100
AcDbEntity
  8
0
  6
BYBLOCK
 62
     0
370
    -2
100
AcDbLine
 10
-1.0
 20
0.1666666666666666
 30
0.0
 11
-1.0
 21
-0.1666666666666666
 31
0.0
  0
ENDBLK
  5
40
330
3B
100
AcDbEntity
  8
0
100
AcDbBlockEnd
  0
BLOCK
  5
42
330
41
100
AcDbEntity
  8
0
100
AcDbBlockBegin
  2
_DOTBLANK
 70
     0
 10
0.0
 20
0.0
 30
0.0
  3
_DOTBLANK
  1

  0
CIRCLE
  5
43
330
41
100
AcDbEntity
  8
0
  6
BYBLOCK
 62
     0
370
    -2
100
AcDbCircle
 10
0.0
 20
0.0
 30
0.0
 40
0.5
  0
LINE
  5
44
330
41
100
AcDbEntity
  8
0
  6
BYBLOCK
 62
     0
370
    -2
100
AcDbLine
 10
-0.5
 20
0.0
 30
0.0
 11
-1.0
 21
0.0
 31
0.0
  0
ENDBLK
  5
45
330
41
100
AcDbEntity
  8
0
100
AcDbBlockEnd
  0
ENDSEC
  0
SECTION
  2
ENTITIES
  0
MTEXT
  5
46
100
AcDbEntity
  8
4
  6
CONTINUOUS
 62
1
100
AcDbMText
 10
23.97950852663849
 20
10.00000000000000
 30
0.000000000000000
 40
1.399999976158142
 41
0.000000000000000
 44
0.6728571767952983
 71
     7
 72
     1
  1
{\H0.82x;{4}}
 11
1.000000000000000
 21
0.000000000000000
 31
0.000000000000000
  7
STANDARD
  0
MTEXT
  5
47
100
AcDbEntity
  8
7
  6
CONTINUOUS
 62
3
100
AcDbMText
 10
9.999997526638502
 20
26.00000076076890
 30
0.000000000000000
 40
3.000000000000000
 41
0.000000000000000
 44
0.6739999771118164
 71
     7
 72
     1
  1
{\H0.93x;{CODE No.13852}}
 11
1.000000000000000
 21
0.000000000000000
 31
0.000000000000000
  7
STANDARD
  0
MTEXT
  5
48
100
AcDbEntity
  8
7
  6
CONTINUOUS
 62
3
100
AcDbMText
 10
9.999997526638502
 20
18.00000076076889
 30
0.000000000000000
 40
3.000000000000000
 41
0.000000000000000
 44
0.6739999771118164
 71
     7
 72
     1
  1
{\H0.94x;{TYPE No.THA-317-1-BK}}
 11
1.000000000000000
 21
0.000000000000000
 31
0.000000000000000
  7
STANDARD
  0
MTEXT
  5
49
100
AcDbEntity
  8
1
  6
CONTINUOUS
 62
7
100
AcDbMText
 10
9.999997526638502
 20
10.00000076076889
 30
0.000000000000000
 40
1.399999976158142
 41
0.000000000000000
 44
0.6728571767952983
 71
     7
 72
     1
  1
{\H0.92x;{LAYER}}
 11
1.000000000000000
 21
0.000000000000000
 31
0.000000000000000
  7
STANDARD
  0
MTEXT
  5
4A
100
AcDbEntity
  8
2
  6
CONTINUOUS
 62
4
100
AcDbMText
 10
19.97950852663850
 20
10.00000000000000
 30
0.000000000000000
 40
1.399999976158142
 41
0.000000000000000
 44
0.6728571767952983
 71
     7
 72
     1
  1
{\H0.82x;{2}}
 11
1.000000000000000
 21
0.000000000000000
 31
0.000000000000000
  7
STANDARD
  0
MTEXT
  5
4B
100
AcDbEntity
  8
3
  6
CONTINUOUS
 62
2
100
AcDbMText
 10
21.97950852663850
 20
10.00000000000000
 30
0.000000000000000
 40
1.399999976158142
 41
0.000000000000000
 44
0.6728571767952983
 71
     7
 72
     1
  1
{\H0.82x;{3}}
 11
1.000000000000000
 21
0.000000000000000
 31
0.000000000000000
  7
STANDARD
  0
MTEXT
  5
4C
100
AcDbEntity
  8
1
  6
CONTINUOUS
 62
7
100
AcDbMText
 10
17.97950852663850
 20
10.00000000000000
 30
0.000000000000000
 40
1.399999976158142
 41
0.000000000000000
 44
0.6728571767952983
 71
     7
 72
     1
  1
{\H0.82x;{1}}
 11
1.000000000000000
 21
0.000000000000000
 31
0.000000000000000
  7
STANDARD
  0
MTEXT
  5
4D
100
AcDbEntity
  8
5
  6
CONTINUOUS
 62
6
100
AcDbMText
 10
25.97950852663850
 20
10.00000000000000
 30
0.000000000000000
 40
1.399999976158142
 41
0.000000000000000
 44
0.6728571767952983
 71
     7
 72
     1
  1
{\H0.82x;{5}}
 11
1.000000000000000
 21
0.000000000000000
 31
0.000000000000000
  7
STANDARD
  0
MTEXT
  5
4E
100
AcDbEntity
  8
6
  6
CONTINUOUS
 62
5
100
AcDbMText
 10
27.97950852663850
 20
10.00000000000000
 30
0.000000000000000
 40
1.399999976158142
 41
0.000000000000000
 44
0.6728571767952983
 71
     7
 72
     1
  1
{\H0.82x;{6}}
 11
1.000000000000000
 21
0.000000000000000
 31
0.000000000000000
  7
STANDARD
  0
MTEXT
  5
4F
100
AcDbEntity
  8
7
  6
CONTINUOUS
 62
3
100
AcDbMText
 10
29.97950852663850
 20
10.00000000000000
 30
0.000000000000000
 40
1.399999976158142
 41
0.000000000000000
 44
0.6728571767952983
 71
     7
 72
     1
  1
{\H0.82x;{7}}
 11
1.000000000000000
 21
0.000000000000000
 31
0.000000000000000
  7
STANDARD
  0
LINE
  5
50
100
AcDbEntity
  8
1
  6
CONTINUOUS
 62
7
100
AcDbLine
 10
381.8037988040597
 20
259.5172958773361
 30
0.000000000000000
 11
382.1164061952293
 21
258.9758439930088
 31
0.000000000000000
  0
ARC
  5
51
100
AcDbEntity
  8
1
  6
CONTINUOUS
 62
7
100
AcDbCircle
 10
380.6013415962970
 20
258.5069329062540
 30
0.000000000000000
 40
1.515064598932305
100
AcDbArc
 50
318.1734519104793
 51
360.0000000005683
  0
ARC
  5
52
100
AcDbEntity
  8
1
  6
CONTINUOUS
 62
7
100
AcDbCircle
 10
376.6352803012837
 20
255.4758439930086
 30
0.000000000000000
 40
5.481125893945623
100
AcDbArc
 50
338.3663922326431
 51
381.6336077673493
  0
ARC
  5
53
100
AcDbEntity
  8
1
  6
CONTINUOUS
 62
7
100
AcDbCircle
 10
380.6013415962977
 20
252.4447550797630
 30
0.000000000000000
 40
1.515064598931414
100
AcDbArc
 50
5.683270000000000e-10
 51
41.82654808952734
  0
LINE
  5
54
100
AcDbEntity
  8
1
  6
CONTINUOUS
 62
7
100
AcDbLine
 10
381.8037988040593
 20
251.4343921086813
 30
0.000000000000000
 11
382.1164061952290
 21
251.9758439930087
 31
0.000000000000000
  0
LINE
  5
55
100
AcDbEntity
  8
1
  6
CONTINUOUS
 62
7
100
AcDbLine
 10
381.8037988040705
 20
141.4343921089780
 30
0.000000000000000
 11
382.1164061952398
 21
141.9758439933054
 31
0.000000000000000
  0
ARC
  5
56
100
AcDbEntity
  8
1
  6
CONTINUOUS
 62
7
100
AcDbCircle
 10
380.6013415963075
 20
142.4447550800598
 30
0.000000000000000
 40
1.515064598932305
100
AcDbArc
 50
359.9999999994430
 51
401.8265480895310
  0
ARC
  5
57
100
AcDbEntity
  8
1
  6
CONTINUOUS
 62
7
100
AcDbCircle
 10
376.6352803012937
 20
145.4758439933044
 30
0.000000000000000
 40
5.481125893945623
100
AcDbArc
 50
338.3663922326622
 51
381.6336077673683
  0
ARC
  5
58
100
AcDbEntity
  8
1
  6
CONTINUOUS
 62
7
100
AcDbCircle
 10
380.6013415963072
 20
148.5069329065507
 30
0.000000000000000
 40
1.515064598931414
100
AcDbArc
 50
318.1734519104832
 51
359.9999999994430
  0
LINE
  5
59
100
AcDbEntity
  8
1
  6
CONTINUOUS
 62
7
100
AcDbLine
 10
381.8037988040685
 20
149.5172958776327
 30
0.000000000000000
 11
382.1164061952384
 21
148.9758439933055
 31
0.000000000000000
  0
LINE
  5
5A
100
AcDbEntity
  8
4
  6
CENTER
 62
1
100
AcDbLine
 10
318.0952929098063
 20
255.4758439930375
 30
0.000000000000000
 11
337.9102581832628
 21
255.4758439930282
 31
0.000000000000000
  0
LINE
  5
5B
100
AcDbEntity
  8
4
  6
CENTER
 62
1
100
AcDbLine
 10
310.9607852631077
 20
200.4758439931494
 30
0.000000000000000
 11
350.4586801716336
 21
200.4758439931570
 31
0.000000000000000
  0
LINE
  5
5C
100
AcDbEntity
  8
4
  6
CENTER
 62
1
100
AcDbLine
 10
195.5556780344366
 20
273.2777245433776
 30
0.000000000000000
 11
195.5556780344366
 21
128.4758439931870
 31
0.000000000000000
  0
LINE
  5
5D
100
AcDbEntity
  8
4
  6
CENTER
 62
1
100
AcDbLine
 10
228.0556780344152
 20
152.3442439930091
 30
0.000000000000000
 11
228.0556780344152
 21
138.6074439930090
 31
0.000000000000000
  0
LINE
  5
5E
100
AcDbEntity
  8
4
  6
CENTER
 62
1
100
AcDbLine
 10
163.0556780344152
 20
152.3442439930573
 30
0.000000000000000
 11
163.0556780344152
 21
138.6074439930572
 31
0.000000000000000
  0
LINE
  5
5F
100
AcDbEntity
  8
1
  6
CONTINUOUS
 62
7
100
AcDbLine
 10
235.1836609859234
 20
139.4758439931870
 30
0.000000000000000
 11
235.1836609859234
 21
157.9758439933901
 31
0.000000000000000
  0
LINE
  5
60
100
AcDbEntity
  8
1
  6
CONTINUOUS
 62
7
100
AcDbLine
 10
155.9276950829119
 20
139.4758439931870
 30
0.000000000000000
 11
155.9276950829119
 21
261.4758439931848
 31
0.000000000000000
  0
LINE
  5
61
100
AcDbEntity
  8
1
  6
CONTINUOUS
 62
7
100
AcDbLine
 10
239.5556780346114
 20
261.4758439931645
 30
0.000000000000000
 11
239.5556780346114
 21
139.4758439931870
 31
0.000000000000000
  0
LINE
  5
62
100
AcDbEntity
  8
1
  6
CONTINUOUS
 62
7
100
AcDbLine
 10
151.5556780346114
 20
261.4758439931848
 30
0.000000000000000
 11
151.5556780346114
 21
139.4758439931870
 31
0.000000000000000
  0
LINE
  5
63
100
AcDbEntity
  8
1
  6
CONTINUOUS
 62
7
100
AcDbLine
 10
325.0952783839220
 20
132.5512569386976
 30
0.000000000000000
 11
325.0952783839081
 21
268.4004310471253
 31
0.000000000000000
  0
LINE
  5
64
100
AcDbEntity
  8
1
  6
CONTINUOUS
 62
7
100
AcDbLine
 10
324.0452929098455
 20
131.4758439929221
 30
0.000000000000000
 11
324.0452929098455
 21
269.4758439929007
 31
0.000000000000000
  0
LINE
  5
65
100
AcDbEntity
  8
1
  6
CONTINUOUS
 62
7
100
AcDbLine
 10
319.5952929098455
 20
136.9827815923310
 30
0.000000000000000
 11
319.5952929098455
 21
263.9689063934920
 31
0.000000000000000
  0
LINE
  5
66
100
AcDbEntity
  8
1
  6
CONTINUOUS
 62
7
100
AcDbLine
 10
175.0556780354818
 20
65.56723642780703
 30
0.000000000000000
 11
205.0556780341902
 21
65.56723642780703
 31
0.000000000000000
  0
LINE
  5
67
100
AcDbEntity
  8
1
  6
CONTINUOUS
 62
7
100
AcDbLine
 10
174.0556780354818
 20
57.56723642780702
 30
0.000000000000000
 11
207.0556780341902
 21
57.56723642780702
 31
0.000000000000000
  0
LINE
  5
68
100
AcDbEntity
  8
1
  6
CONTINUOUS
 62
7
100
AcDbLine
 10
159.5556780346114
 20
135.8478610414873
 30
0.000000000000000
 11
231.5556780346113
 21
135.8478610414873
 31
0.000000000000000
  0
LINE
  5
69
100
AcDbEntity
  8
1
  6
CONTINUOUS
 62
7
100
AcDbLine
 10
159.5556780346114
 20
131.4758439931870
 30
0.000000000000000
 11
231.5556780346113
 21
131.4758439931870
 31
0.000000000000000
  0
LINE
  5
6A
100
AcDbEntity
  8
1
  6
CONTINUOUS
 62
7
100
AcDbLine
 10
151.5556780347068
 20
79.12789659987281
 30
0.000000000000000
 11
239.5556780347069
 21
79.12789659987281
 31
0.000000000000000
  0
LINE
  5
6B
100
AcDbEntity
  8
1
  6
CONTINUOUS
 62
7
100
AcDbLine
 10
152.6163382067641
 20
78.06723642781320
 30
0.000000000000000
 11
238.4950178626493
 21
78.06723642781320
 31
0.000000000000000
  0
LINE
  5
6C
100
AcDbEntity
  8
1
  6
CONTINUOUS
 62
7
100
AcDbLine
 10
156.5557394812815
 20
83.56723642781321
 30
0.000000000000000
 11
234.5556165877836
 21
83.56723642781321
 31
0.000000000000000
  0
LINE
  5
6D
100
AcDbEntity
  8
1
  6
CONTINUOUS
 62
7
100
AcDbLine
 10
173.5556780354819
 20
78.06723642781320
 30
0.000000000000000
 11
173.5556780354819
 21
67.06723642780700
 31
0.000000000000000
  0
LINE
  5
6E
100
AcDbEntity
  8
1
  6
CONTINUOUS
 62
7
100
AcDbLine
 10
165.5556780354819
 20
78.06723642781320
 30
0.000000000000000
 11
165.5556780354819
 21
66.06723642780703
 31
0.000000000000000
  0
LINE
  5
6F
100
AcDbEntity
  8
1
  6
CONTINUOUS
 62
7
100
AcDbLine
 10
165.0556780346465
 20
78.06723642781320
 30
0.000000000000000
 11
165.0556780346420
 21
68.66725095376472
 31
0.000000000000000
  0
LINE
  5
70
100
AcDbEntity
  8
2
  6
CONTINUOUS
 62
4
100
AcDbLine
 10
164.6766780346465
 20
78.06723642781320
 30
0.000000000000000
 11
164.6766780346420
 21
68.66725095376492
 31
0.000000000000000
  0
LINE
  5
71
100
AcDbEntity
  8
1
  6
CONTINUOUS
 62
7
100
AcDbLine
 10
161.0556780346465
 20
78.06723642781320
 30
0.000000000000000
 11
161.0556780346420
 21
68.66725095376671
 31
0.000000000000000
  0
LINE
  5
72
100
AcDbEntity
  8
2
  6
CONTINUOUS
 62
4
100
AcDbLine
 10
161.4346780346464
 20
78.06723642781320
 30
0.000000000000000
 11
161.4346780346419
 21
68.66725095376654
 31
0.000000000000000
  0
LINE
  5
73
100
AcDbEntity
  8
4
  6
CENTER
 62
1
100
AcDbLine
 10
163.0556780345320
 20
65.66725095376563
 30
0.000000000000000
 11
163.0556780345320
 21
85.06723642781321
 31
0.000000000000000
  0
ARC
  5
74
100
AcDbEntity
  8
1
  6
CONTINUOUS
 62
7
100
AcDbCircle
 10
174.0556780354819
 20
66.06723642780703
 30
0.000000000000000
 40
8.500000000000000
100
AcDbArc
 50
180.0000000000000
 51
270.0000000000000
  0
LINE
  5
75
100
AcDbEntity
  8
1
  6
CONTINUOUS
 62
7
100
AcDbLine
 10
161.0556780346419
 20
68.66725095376661
 30
0.000000000000000
 11
165.0556780346419
 21
68.66725095376472
 31
0.000000000000000
  0
LINE
  5
76
100
AcDbEntity
  8
1
  6
CONTINUOUS
 62
7
100
AcDbLine
 10
151.5556780347068
 20
79.12789659987283
 30
0.000000000000000
 11
155.4870065767346
 21
83.11976195184512
 31
0.000000000000000
  0
LINE
  5
77
100
AcDbEntity
  8
1
  6
CONTINUOUS
 62
7
100
AcDbLine
 10
151.5556780347068
 20
79.12789659987294
 30
0.000000000000000
 11
152.6163382067641
 21
78.06723642781311
 31
0.000000000000000
  0
ARC
  5
78
100
AcDbEntity
  8
1
  6
CONTINUOUS
 62
7
100
AcDbCircle
 10
156.5557394812815
 20
82.06723642781319
 30
0.000000000000000
 40
1.500000000000000
100
AcDbArc
 50
90.00000000000000
 51
135.4377573325431
  0
LINE
  5
79
100
AcDbEntity
  8
4
  6
CENTER
 62
1
100
AcDbLine
 10
169.9240780344151
 20
145.4758439930572
 30
0.000000000000000
 11
156.1872780344151
 21
145.4758439930572
 31
0.000000000000000
  0
ARC
  5
7A
100
AcDbEntity
  8
1
  6
CONTINUOUS
 62
7
100
AcDbCircle
 10
159.5556780346114
 20
139.4758439931870
 30
0.000000000000000
 40
3.627999999999998
100
AcDbArc
 50
180.0000000000000
 51
270.0000000000000
  0
ARC
  5
7B
100
AcDbEntity
  8
1
  6
CONTINUOUS
 62
7
100
AcDbCircle
 10
159.5556780346114
 20
139.4758439931870
 30
0.000000000000000
 40
8.000000000000000
100
AcDbArc
 50
180.0000000000000
 51
270.0000000000000
  0
ARC
  5
7C
100
AcDbEntity
  8
1
  6
CONTINUOUS
 62
7
100
AcDbCircle
 10
207.0556780341902
 20
77.56723642780702
 30
0.000000000000000
 40
20.00000000000000
100
AcDbArc
 50
270.0000000000000
 51
341.8051276653903
  0
ARC
  5
7D
100
AcDbEntity
  8
1
  6
CONTINUOUS
 62
7
100
AcDbCircle
 10
207.0556780341902
 20
77.56723642780702
 30
0.000000000000000
 40
12.00000000000000
100
AcDbArc
 50
270.0000000000000
 51
358.5492055928876
  0
LINE
  5
7E
100
AcDbEntity
  8
1
  6
CONTINUOUS
 62
7
100
AcDbLine
 10
230.0556780346466
 20
78.06723642781320
 30
0.000000000000000
 11
230.0556780346420
 21
68.66725095376464
 31
0.000000000000000
  0
LINE
  5
7F
100
AcDbEntity
  8
2
  6
CONTINUOUS
 62
4
100
AcDbLine
 10
229.6766780346465
 20
78.06723642781320
 30
0.000000000000000
 11
229.6766780346420
 21
68.66725095376492
 31
0.000000000000000
  0
LINE
  5
80
100
AcDbEntity
  8
1
  6
CONTINUOUS
 62
7
100
AcDbLine
 10
226.0556780346466
 20
78.06723642781320
 30
0.000000000000000
 11
226.0556780346420
 21
68.66725095376661
 31
0.000000000000000
  0
LINE
  5
81
100
AcDbEntity
  8
2
  6
CONTINUOUS
 62
4
100
AcDbLine
 10
226.4346780346464
 20
78.06723642781320
 30
0.000000000000000
 11
226.4346780346420
 21
68.66725095376654
 31
0.000000000000000
  0
LINE
  5
82
100
AcDbEntity
  8
4
  6
CENTER
 62
1
100
AcDbLine
 10
195.5556780345319
 20
56.07503676241315
 30
0.000000000000000
 11
195.5556780345319
 21
86.56723642781321
 31
0.000000000000000
  0
LINE
  5
83
100
AcDbEntity
  8
4
  6
CENTER
 62
1
100
AcDbLine
 10
228.0556780345319
 20
65.66725095376563
 30
0.000000000000000
 11
228.0556780345319
 21
85.06723642780702
 31
0.000000000000000
  0
LINE
  5
84
100
AcDbEntity
  8
1
  6
CONTINUOUS
 62
7
100
AcDbLine
 10
226.0556780346420
 20
68.66725095376661
 30
0.000000000000000
 11
230.0556780346420
 21
68.66725095376472
 31
0.000000000000000
  0
LINE
  5
85
100
AcDbEntity
  8
4
  6
CENTER
 62
1
100
AcDbLine
 10
234.9240780344152
 20
145.4758439930090
 30
0.000000000000000
 11
221.1872780344153
 21
145.4758439930090
 31
0.000000000000000
  0
ARC
  5
86
100
AcDbEntity
  8
1
  6
CONTINUOUS
 62
7
100
AcDbCircle
 10
234.5556165877836
 20
82.06723642781319
 30
0.000000000000000
 40
1.500000000000000
100
AcDbArc
 50
44.56224266999370
 51
90.00000000000000
  0
LINE
  5
87
100
AcDbEntity
  8
1
  6
CONTINUOUS
 62
7
100
AcDbLine
 10
235.6243494922839
 20
83.11976195189243
 30
0.000000000000000
 11
239.5556780347069
 21
79.12789659987273
 31
0.000000000000000
  0
LINE
  5
88
100
AcDbEntity
  8
1
  6
CONTINUOUS
 62
7
100
AcDbLine
 10
239.5556780347067
 20
79.12789659987271
 30
0.000000000000000
 11
238.4950178626493
 21
78.06723642781304
 31
0.000000000000000
  0
ARC
  5
89
100
AcDbEntity
  8
1
  6
CONTINUOUS
 62
7
100
AcDbCircle
 10
231.5556780346113
 20
139.4758439931870
 30
0.000000000000000
 40
8.000000000000000
100
AcDbArc
 50
270.0000000000000
 51
360.0000000000000
  0
ARC
  5
8A
100
AcDbEntity
  8
1
  6
CONTINUOUS
 62
7
100
AcDbCircle
 10
231.5556780346113
 20
139.4758439931870
 30
0.000000000000000
 40
3.627999999999998
100
AcDbArc
 50
270.0000000000000
 51
360.0000000000000
  0
LINE
  5
8B
100
AcDbEntity
  8
1
  6
CONTINUOUS
 62
7
100
AcDbLine
 10
325.0952783839212
 20
143.4758439931084
 30
0.000000000000000
 11
334.4952783838921
 21
143.4758439931037
 31
0.000000000000000
  0
LINE
  5
8C
100
AcDbEntity
  8
2
  6
CONTINUOUS
 62
4
100
AcDbLine
 10
325.0952783839208
 20
143.8548439931084
 30
0.000000000000000
 11
334.4952783838921
 21
143.8548439931038
 31
0.000000000000000
  0
LINE
  5
8D
100
AcDbEntity
  8
1
  6
CONTINUOUS
 62
7
100
AcDbLine
 10
325.0952783839206
 20
147.4758439931084
 30
0.000000000000000
 11
334.4952783838941
 21
147.4758439931037
 31
0.000000000000000
  0
LINE
  5
8E
100
AcDbEntity
  8
2
  6
CONTINUOUS
 62
4
100
AcDbLine
 10
325.0952783839206
 20
147.0968439931084
 30
0.000000000000000
 11
334.4952783838939
 21
147.0968439931037
 31
0.000000000000000
  0
LINE
  5
8F
100
AcDbEntity
  8
1
  6
CONTINUOUS
 62
7
100
AcDbLine
 10
319.9818038040502
 20
135.9777233794522
 30
0.000000000000000
 11
324.0452929098456
 21
131.4758439929221
 31
0.000000000000000
  0
LINE
  5
90
100
AcDbEntity
  8
1
  6
CONTINUOUS
 62
7
100
AcDbLine
 10
324.0452929098456
 20
131.4758439929222
 30
0.000000000000000
 11
325.0952783839085
 21
132.5512569386976
 31
0.000000000000000
  0
ARC
  5
91
100
AcDbEntity
  8
1
  6
CONTINUOUS
 62
7
100
AcDbCircle
 10
321.0952929098455
 20
136.9827815923310
 30
0.000000000000000
 40
1.500000000000000
100
AcDbArc
 50
180.0000000000000
 51
222.0700601381101
  0
LINE
  5
92
100
AcDbEntity
  8
1
  6
CONTINUOUS
 62
7
100
AcDbLine
 10
334.4952783838921
 20
143.4758439931037
 30
0.000000000000000
 11
334.4952783838941
 21
147.4758439931037
 31
0.000000000000000
  0
LINE
  5
93
100
AcDbEntity
  8
1
  6
CONTINUOUS
 62
7
100
AcDbLine
 10
371.9546767917540
 20
141.6758439933021
 30
0.000000000000000
 11
371.9546767917527
 21
149.2758439933021
 31
0.000000000000000
  0
LINE
  5
94
100
AcDbEntity
  8
1
  6
CONTINUOUS
 62
7
100
AcDbLine
 10
370.9546767917525
 20
149.2758439933018
 30
0.000000000000000
 11
370.9546767917426
 21
141.6758439933020
 31
0.000000000000000
  0
LINE
  5
95
100
AcDbEntity
  8
1
  6
CONTINUOUS
 62
7
100
AcDbLine
 10
370.9546767917540
 20
141.6758439933019
 30
0.000000000000000
 11
371.9546767917540
 21
141.6758439933021
 31
0.000000000000000
  0
LINE
  5
96
100
AcDbEntity
  8
1
  6
CONTINUOUS
 62
7
100
AcDbLine
 10
370.9546767917532
 20
144.6367443617763
 30
0.000000000000000
 11
371.9546767917535
 21
145.4758439929535
 31
0.000000000000000
  0
LINE
  5
97
100
AcDbEntity
  8
1
  6
CONTINUOUS
 62
7
100
AcDbLine
 10
370.9546767917525
 20
149.2758439933018
 30
0.000000000000000
 11
371.9546767917524
 21
149.2758439933021
 31
0.000000000000000
  0
LINE
  5
98
100
AcDbEntity
  8
1
  6
CONTINUOUS
 62
7
100
AcDbLine
 10
378.9164061952387
 20
148.9758439933044
 30
0.000000000000000
 11
378.9164061952400
 21
141.9758439933049
 31
0.000000000000000
  0
ARC
  5
99
100
AcDbEntity
  8
1
  6
CONTINUOUS
 62
7
100
AcDbCircle
 10
380.4314707941723
 20
142.4447550800596
 30
0.000000000000000
 40
1.515064598932305
100
AcDbArc
 50
138.1734519104934
 51
180.0000000005845
  0
LINE
  5
9A
100
AcDbEntity
  8
1
  6
CONTINUOUS
 62
7
100
AcDbLine
 10
379.2290135864098
 20
141.4343921089775
 30
0.000000000000000
 11
378.9164061952400
 21
141.9758439933048
 31
0.000000000000000
  0
LINE
  5
9B
100
AcDbEntity
  8
1
  6
CONTINUOUS
 62
7
100
AcDbLine
 10
379.2290135864099
 20
141.4343921089776
 30
0.000000000000000
 11
381.8037988040702
 21
141.4343921089780
 31
0.000000000000000
  0
ARC
  5
9C
100
AcDbEntity
  8
1
  6
CONTINUOUS
 62
7
100
AcDbCircle
 10
380.4314707941703
 20
148.5069329065507
 30
0.000000000000000
 40
1.515064598931414
100
AcDbArc
 50
180.0000000005845
 51
221.8265480895457
  0
ARC
  5
9D
100
AcDbEntity
  8
1
  6
CONTINUOUS
 62
7
100
AcDbCircle
 10
384.3975320891850
 20
145.4758439933057
 30
0.000000000000000
 40
5.481125893945623
100
AcDbArc
 50
158.3663922326605
 51
201.6336077673668
  0
LINE
  5
9E
100
AcDbEntity
  8
1
  6
CONTINUOUS
 62
7
100
AcDbLine
 10
379.2290135864083
 20
149.5172958776322
 30
0.000000000000000
 11
378.9164061952388
 21
148.9758439933047
 31
0.000000000000000
  0
LINE
  5
9F
100
AcDbEntity
  8
1
  6
CONTINUOUS
 62
7
100
AcDbLine
 10
379.3024945297606
 20
143.4551180511416
 30
0.000000000000000
 11
381.7303178607187
 21
143.4551180511419
 31
0.000000000000000
  0
LINE
  5
A0
100
AcDbEntity
  8
1
  6
CONTINUOUS
 62
7
100
AcDbLine
 10
379.3024945297600
 20
147.4965699354688
 30
0.000000000000000
 11
381.7303178607180
 21
147.4965699354693
 31
0.000000000000000
  0
LINE
  5
A1
100
AcDbEntity
  8
1
  6
CONTINUOUS
 62
7
100
AcDbLine
 10
379.2290135864082
 20
149.5172958776322
 30
0.000000000000000
 11
381.8037988040686
 21
149.5172958776327
 31
0.000000000000000
  0
LINE
  5
A2
100
AcDbEntity
  8
4
  6
CENTER
 62
1
100
AcDbLine
 10
148.5556780346114
 20
200.4758439933407
 30
0.000000000000000
 11
242.9231572602516
 21
200.4758439934100
 31
0.000000000000000
  0
LINE
  5
A3
100
AcDbEntity
  8
1
  6
CONTINUOUS
 62
7
100
AcDbLine
 10
159.5556780346114
 20
265.1038269444744
 30
0.000000000000000
 11
231.5556780346114
 21
265.1038269444744
 31
0.000000000000000
  0
LINE
  5
A4
100
AcDbEntity
  8
1
  6
CONTINUOUS
 62
7
100
AcDbLine
 10
159.5556780346137
 20
269.4758439931848
 30
0.000000000000000
 11
231.5556780346136
 21
269.4758439931646
 31
0.000000000000000
  0
LINE
  5
A5
100
AcDbEntity
  8
4
  6
CENTER
 62
1
100
AcDbLine
 10
163.0556780344152
 20
262.3442439930573
 30
0.000000000000000
 11
163.0556780344152
 21
248.6074439930570
 31
0.000000000000000
  0
LINE
  5
A6
100
AcDbEntity
  8
4
  6
CENTER
 62
1
100
AcDbLine
 10
169.9240780344151
 20
255.4758439930572
 30
0.000000000000000
 11
156.1872780344151
 21
255.4758439930572
 31
0.000000000000000
  0
ARC
  5
A7
100
AcDbEntity
  8
1
  6
CONTINUOUS
 62
7
100
AcDbCircle
 10
159.5556780346114
 20
261.4758439931848
 30
0.000000000000000
 40
3.627999999999998
100
AcDbArc
 50
90.00000000000000
 51
180.0000000000000
  0
ARC
  5
A8
100
AcDbEntity
  8
1
  6
CONTINUOUS
 62
7
100
AcDbCircle
 10
159.5556780346114
 20
261.4758439931848
 30
0.000000000000000
 40
8.000000000000000
100
AcDbArc
 50
90.00000000000000
 51
180.0000000000000
  0
LINE
  5
A9
100
AcDbEntity
  8
1
  6
CONTINUOUS
 62
7
100
AcDbLine
 10
224.5556780346114
 20
154.9758439931542
 30
0.000000000000000
 11
224.5556780346114
 21
245.9758439932002
 31
0.000000000000000
  0
LINE
  5
AA
100
AcDbEntity
  8
1
  6
CONTINUOUS
 62
7
100
AcDbLine
 10
237.6429451297615
 20
158.9758439933888
 30
0.000000000000000
 11
237.6429451297615
 21
241.9758439932140
 31
0.000000000000000
  0
LINE
  5
AB
100
AcDbEntity
  8
1
  6
CONTINUOUS
 62
7
100
AcDbLine
 10
189.0556780340207
 20
245.9758439932187
 30
0.000000000000000
 11
189.0556780340207
 21
154.9758439931729
 31
0.000000000000000
  0
LINE
  5
AC
100
AcDbEntity
  8
1
  6
CONTINUOUS
 62
7
100
AcDbLine
 10
224.5556780346114
 20
157.9758439933961
 30
0.000000000000000
 11
239.5556780341930
 21
157.9758439933877
 31
0.000000000000000
  0
LINE
  5
AD
100
AcDbEntity
  8
1
  6
CONTINUOUS
 62
7
100
AcDbLine
 10
189.0556780340207
 20
155.2258439930559
 30
0.000000000000000
 11
224.5556780346114
 21
155.2258439930255
 31
0.000000000000000
  0
LINE
  5
AE
100
AcDbEntity
  8
1
  6
CONTINUOUS
 62
7
100
AcDbLine
 10
223.0556780345900
 20
163.7258439931929
 30
0.000000000000000
 11
192.5556780339993
 21
163.7258439931929
 31
0.000000000000000
  0
LINE
  5
AF
100
AcDbEntity
  8
1
  6
CONTINUOUS
 62
7
100
AcDbLine
 10
190.0556780340201
 20
153.9758439931729
 30
0.000000000000000
 11
223.5556780346108
 21
153.9758439931542
 31
0.000000000000000
  0
ARC
  5
B0
100
AcDbEntity
  8
1
  6
CONTINUOUS
 62
7
100
AcDbCircle
 10
190.0556780340207
 20
154.9758439931729
 30
0.000000000000000
 40
1.000000000000000
100
AcDbArc
 50
180.0000000000000
 51
270.0000000000000
  0
ARC
  5
B1
100
AcDbEntity
  8
1
  6
CONTINUOUS
 62
7
100
AcDbCircle
 10
223.5556780346114
 20
154.9758439931542
 30
0.000000000000000
 40
1.000000000000000
100
AcDbArc
 50
270.0000000000000
 51
360.0000000000000
  0
LINE
  5
B2
100
AcDbEntity
  8
4
  6
CENTER
 62
1
100
AcDbLine
 10
234.9240780344152
 20
255.4758439930090
 30
0.000000000000000
 11
221.1872780344151
 21
255.4758439930090
 31
0.000000000000000
  0
LINE
  5
B3
100
AcDbEntity
  8
1
  6
CONTINUOUS
 62
7
100
AcDbLine
 10
224.5556780346113
 20
242.9758439932212
 30
0.000000000000000
 11
239.5556780341915
 21
242.9758439932129
 31
0.000000000000000
  0
LINE
  5
B4
100
AcDbEntity
  8
4
  6
CENTER
 62
1
100
AcDbLine
 10
228.0556780344152
 20
262.3442439930089
 30
0.000000000000000
 11
228.0556780344152
 21
248.6074439930088
 31
0.000000000000000
  0
LINE
  5
B5
100
AcDbEntity
  8
1
  6
CONTINUOUS
 62
7
100
AcDbLine
 10
189.0556780340207
 20
245.7258439932215
 30
0.000000000000000
 11
224.5556780346114
 21
245.7258439931912
 31
0.000000000000000
  0
LINE
  5
B6
100
AcDbEntity
  8
1
  6
CONTINUOUS
 62
7
100
AcDbLine
 10
223.0556780345900
 20
237.2258439931400
 30
0.000000000000000
 11
192.5556780339993
 21
237.2258439931400
 31
0.000000000000000
  0
LINE
  5
B7
100
AcDbEntity
  8
1
  6
CONTINUOUS
 62
7
100
AcDbLine
 10
190.0556780340211
 20
246.9758439932187
 30
0.000000000000000
 11
223.5556780346119
 21
246.9758439932002
 31
0.000000000000000
  0
ARC
  5
B8
100
AcDbEntity
  8
1
  6
CONTINUOUS
 62
7
100
AcDbCircle
 10
190.0556780340207
 20
245.9758439932187
 30
0.000000000000000
 40
1.000000000000000
100
AcDbArc
 50
90.00000000000000
 51
180.0000000000000
  0
ARC
  5
B9
100
AcDbEntity
  8
1
  6
CONTINUOUS
 62
7
100
AcDbCircle
 10
223.5556780346114
 20
245.9758439932002
 30
0.000000000000000
 40
1.000000000000000
100
AcDbArc
 50
0.000000000000000
 51
90.00000000000000
  0
LINE
  5
BA
100
AcDbEntity
  8
1
  6
CONTINUOUS
 62
7
100
AcDbLine
 10
235.1836609859234
 20
242.9758439932153
 30
0.000000000000000
 11
235.1836609859234
 21
261.4758439931645
 31
0.000000000000000
  0
ARC
  5
BB
100
AcDbEntity
  8
1
  6
CONTINUOUS
 62
7
100
AcDbCircle
 10
231.5556780346114
 20
261.4758439931645
 30
0.000000000000000
 40
3.627999999999998
100
AcDbArc
 50
0.000000000000000
 51
90.00000000000000
  0
ARC
  5
BC
100
AcDbEntity
  8
1
  6
CONTINUOUS
 62
7
100
AcDbCircle
 10
231.5556780346114
 20
261.4758439931645
 30
0.000000000000000
 40
8.000000000000000
100
AcDbArc
 50
0.000000000000000
 51
90.00000000000000
  0
LINE
  5
BD
100
AcDbEntity
  8
1
  6
CONTINUOUS
 62
7
100
AcDbLine
 10
322.0952783839198
 20
157.9758439931546
 30
0.000000000000000
 11
322.0952783839111
 21
242.9758439931497
 31
0.000000000000000
  0
LINE
  5
BE
100
AcDbEntity
  8
1
  6
CONTINUOUS
 62
7
100
AcDbLine
 10
345.5952929100080
 20
163.2258439931496
 30
0.000000000000000
 11
345.5952929099435
 21
237.7258439931715
 31
0.000000000000000
  0
LINE
  5
BF
100
AcDbEntity
  8
1
  6
CONTINUOUS
 62
7
100
AcDbLine
 10
343.5952929099435
 20
163.7258439931813
 30
0.000000000000000
 11
326.5952929099435
 21
163.7258439931813
 31
0.000000000000000
  0
LINE
  5
C0
100
AcDbEntity
  8
1
  6
CONTINUOUS
 62
7
100
AcDbLine
 10
325.0952783839196
 20
154.7258439931495
 30
0.000000000000000
 11
337.0952929099576
 21
154.7258439931698
 31
0.000000000000000
  0
ARC
  5
C1
100
AcDbEntity
  8
1
  6
CONTINUOUS
 62
7
100
AcDbCircle
 10
324.0453042397782
 20
153.9758439934031
 30
0.000000000000000
 40
4.450011329932578
100
AcDbArc
 50
115.9895328259176
 51
180.0000000000000
  0
ARC
  5
C2
100
AcDbEntity
  8
1
  6
CONTINUOUS
 62
7
100
AcDbCircle
 10
337.0952929099435
 20
163.2258439931771
 30
0.000000000000000
 40
8.500000000000000
100
AcDbArc
 50
270.0000000000000
 51
360.0000000000000
  0
LINE
  5
C3
100
AcDbEntity
  8
1
  6
CONTINUOUS
 62
7
100
AcDbLine
 10
343.5952929098796
 20
237.2258439931365
 30
0.000000000000000
 11
326.5952929098796
 21
237.2258439931070
 31
0.000000000000000
  0
LINE
  5
C4
100
AcDbEntity
  8
1
  6
CONTINUOUS
 62
7
100
AcDbLine
 10
325.0952929098064
 20
246.2258439931722
 30
0.000000000000000
 11
337.0952929098844
 21
246.2258439931641
 31
0.000000000000000
  0
ARC
  5
C5
100
AcDbEntity
  8
1
  6
CONTINUOUS
 62
7
100
AcDbCircle
 10
324.0453042397782
 20
246.9758439928968
 30
0.000000000000000
 40
4.450011329932578
100
AcDbArc
 50
180.0000000000000
 51
244.0104671740816
  0
ARC
  5
C6
100
AcDbEntity
  8
1
  6
CONTINUOUS
 62
7
100
AcDbCircle
 10
337.0952929098787
 20
237.7258439931293
 30
0.000000000000000
 40
8.500000000000000
100
AcDbArc
 50
9.933510000000000e-11
 51
90.00000000009769
  0
LINE
  5
C7
100
AcDbEntity
  8
1
  6
CONTINUOUS
 62
7
100
AcDbLine
 10
325.0952783839093
 20
257.4758439931943
 30
0.000000000000000
 11
334.4952783838689
 21
257.4758439932028
 31
0.000000000000000
  0
LINE
  5
C8
100
AcDbEntity
  8
2
  6
CONTINUOUS
 62
4
100
AcDbLine
 10
325.0952783839095
 20
257.0968439931945
 30
0.000000000000000
 11
334.4952783838691
 21
257.0968439932028
 31
0.000000000000000
  0
LINE
  5
C9
100
AcDbEntity
  8
1
  6
CONTINUOUS
 62
7
100
AcDbLine
 10
325.0952783839100
 20
253.4758439931943
 30
0.000000000000000
 11
334.4952783838725
 21
253.4758439932028
 31
0.000000000000000
  0
LINE
  5
CA
100
AcDbEntity
  8
2
  6
CONTINUOUS
 62
4
100
AcDbLine
 10
325.0952783839097
 20
253.8548439931943
 30
0.000000000000000
 11
334.4952783838721
 21
253.8548439932028
 31
0.000000000000000
  0
LINE
  5
CB
100
AcDbEntity
  8
1
  6
CONTINUOUS
 62
7
100
AcDbLine
 10
319.9818038040502
 20
264.9739646063705
 30
0.000000000000000
 11
324.0452929098456
 21
269.4758439929005
 31
0.000000000000000
  0
ARC
  5
CC
100
AcDbEntity
  8
1
  6
CONTINUOUS
 62
7
100
AcDbCircle
 10
321.0952929098455
 20
263.9689063934920
 30
0.000000000000000
 40
1.500000000000000
100
AcDbArc
 50
137.9299398618899
 51
180.0000000000000
  0
LINE
  5
CD
100
AcDbEntity
  8
1
  6
CONTINUOUS
 62
7
100
AcDbLine
 10
324.0452929098454
 20
269.4758439929008
 30
0.000000000000000
 11
325.0952783839084
 21
268.4004310471252
 31
0.000000000000000
  0
LINE
  5
CE
100
AcDbEntity
  8
1
  6
CONTINUOUS
 62
7
100
AcDbLine
 10
334.4952783838689
 20
257.4758439932029
 30
0.000000000000000
 11
334.4952783838725
 21
253.4758439932029
 31
0.000000000000000
  0
LINE
  5
CF
100
AcDbEntity
  8
1
  6
CONTINUOUS
 62
7
100
AcDbLine
 10
371.9546767917431
 20
259.2758439930085
 30
0.000000000000000
 11
371.9546767917431
 21
251.6758439930085
 31
0.000000000000000
  0
LINE
  5
D0
100
AcDbEntity
  8
1
  6
CONTINUOUS
 62
7
100
AcDbLine
 10
370.9546767917431
 20
251.6758439930085
 30
0.000000000000000
 11
370.9546767917318
 21
259.2758439930085
 31
0.000000000000000
  0
LINE
  5
D1
100
AcDbEntity
  8
1
  6
CONTINUOUS
 62
7
100
AcDbLine
 10
370.9546767917431
 20
254.6367443618296
 30
0.000000000000000
 11
371.9546767917431
 21
255.4758439930070
 31
0.000000000000000
  0
LINE
  5
D2
100
AcDbEntity
  8
1
  6
CONTINUOUS
 62
7
100
AcDbLine
 10
370.9546767917431
 20
251.6758439930085
 30
0.000000000000000
 11
371.9546767917431
 21
251.6758439930085
 31
0.000000000000000
  0
LINE
  5
D3
100
AcDbEntity
  8
1
  6
CONTINUOUS
 62
7
100
AcDbLine
 10
370.9546767917431
 20
259.2758439930085
 30
0.000000000000000
 11
371.9546767917431
 21
259.2758439930085
 31
0.000000000000000
  0
LINE
  5
D4
100
AcDbEntity
  8
1
  6
CONTINUOUS
 62
7
100
AcDbLine
 10
378.9164061952292
 20
251.9758439930089
 30
0.000000000000000
 11
378.9164061952291
 21
258.9758439930087
 31
0.000000000000000
  0
ARC
  5
D5
100
AcDbEntity
  8
1
  6
CONTINUOUS
 62
7
100
AcDbCircle
 10
384.3975320891747
 20
255.4758439930086
 30
0.000000000000000
 40
5.481125893945623
100
AcDbArc
 50
158.3663922326446
 51
201.6336077673508
  0
ARC
  5
D6
100
AcDbEntity
  8
1
  6
CONTINUOUS
 62
7
100
AcDbCircle
 10
380.4314707941607
 20
252.4447550797630
 30
0.000000000000000
 40
1.515064598931414
100
AcDbArc
 50
138.1734519104689
 51
179.9999999994251
  0
LINE
  5
D7
100
AcDbEntity
  8
1
  6
CONTINUOUS
 62
7
100
AcDbLine
 10
379.2290135863991
 20
251.4343921086813
 30
0.000000000000000
 11
378.9164061952292
 21
251.9758439930088
 31
0.000000000000000
  0
LINE
  5
D8
100
AcDbEntity
  8
1
  6
CONTINUOUS
 62
7
100
AcDbLine
 10
379.3024945297502
 20
253.4551180508445
 30
0.000000000000000
 11
381.7303178607082
 21
253.4551180508445
 31
0.000000000000000
  0
LINE
  5
D9
100
AcDbEntity
  8
1
  6
CONTINUOUS
 62
7
100
AcDbLine
 10
379.2290135863991
 20
251.4343921086811
 30
0.000000000000000
 11
381.8037988040594
 21
251.4343921086811
 31
0.000000000000000
  0
ARC
  5
DA
100
AcDbEntity
  8
1
  6
CONTINUOUS
 62
7
100
AcDbCircle
 10
380.4314707941616
 20
258.5069329062540
 30
0.000000000000000
 40
1.515064598932305
100
AcDbArc
 50
179.9999999994251
 51
221.8265480895169
  0
LINE
  5
DB
100
AcDbEntity
  8
1
  6
CONTINUOUS
 62
7
100
AcDbLine
 10
379.2290135863990
 20
259.5172958773360
 30
0.000000000000000
 11
378.9164061952291
 21
258.9758439930087
 31
0.000000000000000
  0
LINE
  5
DC
100
AcDbEntity
  8
1
  6
CONTINUOUS
 62
7
100
AcDbLine
 10
379.3024945297502
 20
257.4965699351718
 30
0.000000000000000
 11
381.7303178607082
 21
257.4965699351718
 31
0.000000000000000
  0
LINE
  5
DD
100
AcDbEntity
  8
1
  6
CONTINUOUS
 62
7
100
AcDbLine
 10
379.2290135863991
 20
259.5172958773360
 30
0.000000000000000
 11
381.8037988040594
 21
259.5172958773360
 31
0.000000000000000
  0
CIRCLE
  5
DE
100
AcDbEntity
  8
1
  6
CONTINUOUS
 62
7
100
AcDbCircle
 10
445.5593243868360
 20
150.4758439933486
 30
0.000000000000000
 40
1.250000000000000
  0
LINE
  5
DF
100
AcDbEntity
  8
4
  6
CENTER
 62
1
100
AcDbLine
 10
450.0593243867988
 20
138.6074439933383
 30
0.000000000000000
 11
450.0593243868418
 21
152.3442439933383
 31
0.000000000000000
  0
CIRCLE
  5
E0
100
AcDbEntity
  8
1
  6
CONTINUOUS
 62
7
100
AcDbCircle
 10
450.0593243868202
 20
145.4758439933383
 30
0.000000000000000
 40
5.368399999999998
  0
LINE
  5
E1
100
AcDbEntity
  8
4
  6
CENTER
 62
1
100
AcDbLine
 10
515.0593243867986
 20
138.6074439930863
 30
0.000000000000000
 11
515.0593243868414
 21
152.3442439930863
 31
0.000000000000000
  0
CIRCLE
  5
E2
100
AcDbEntity
  8
1
  6
CONTINUOUS
 62
7
100
AcDbCircle
 10
515.0593243868200
 20
145.4758439930864
 30
0.000000000000000
 40
5.368399999999998
  0
LINE
  5
E3
100
AcDbEntity
  8
1
  6
CONTINUOUS
 62
7
100
AcDbLine
 10
443.5593243870977
 20
138.9758439932093
 30
0.000000000000000
 11
443.5593243870977
 21
152.9758439930992
 31
0.000000000000000
  0
LINE
  5
E4
100
AcDbEntity
  8
1
  6
CONTINUOUS
 62
7
100
AcDbLine
 10
521.5593243870978
 20
138.9758439930949
 30
0.000000000000000
 11
521.5593243870978
 21
261.9758439930949
 31
0.000000000000000
  0
LINE
  5
E5
100
AcDbEntity
  8
4
  6
CENTER
 62
1
100
AcDbLine
 10
482.5593243870978
 20
128.4758439929248
 30
0.000000000000000
 11
482.5593243870978
 21
272.4758439929124
 31
0.000000000000000
  0
LINE
  5
E6
100
AcDbEntity
  8
1
  6
CONTINUOUS
 62
7
100
AcDbLine
 10
439.6200243869230
 20
139.4758439929248
 30
0.000000000000000
 11
439.6200243869230
 21
261.4758439929024
 31
0.000000000000000
  0
LINE
  5
E7
100
AcDbEntity
  8
1
  6
CONTINUOUS
 62
7
100
AcDbLine
 10
525.4986243869230
 20
261.4758439929226
 30
0.000000000000000
 11
525.4986243869230
 21
139.4758439929248
 31
0.000000000000000
  0
LINE
  5
E8
100
AcDbEntity
  8
1
  6
CONTINUOUS
 62
7
100
AcDbLine
 10
438.5593243869229
 20
261.4758439929024
 30
0.000000000000000
 11
438.5593243869229
 21
139.4758439929248
 31
0.000000000000000
  0
LINE
  5
E9
100
AcDbEntity
  8
1
  6
CONTINUOUS
 62
7
100
AcDbLine
 10
526.5593243869228
 20
261.4758439929226
 30
0.000000000000000
 11
526.5593243869228
 21
139.4758439929248
 31
0.000000000000000
  0
LINE
  5
EA
100
AcDbEntity
  8
1
  6
CONTINUOUS
 62
7
100
AcDbLine
 10
446.0593243870938
 20
136.4758439932093
 30
0.000000000000000
 11
519.0593243870940
 21
136.4758439930949
 31
0.000000000000000
  0
LINE
  5
EB
100
AcDbEntity
  8
1
  6
CONTINUOUS
 62
7
100
AcDbLine
 10
446.5593243869228
 20
132.5365041652083
 30
0.000000000000000
 11
518.5593243869228
 21
132.5365041652083
 31
0.000000000000000
  0
LINE
  5
EC
100
AcDbEntity
  8
1
  6
CONTINUOUS
 62
7
100
AcDbLine
 10
518.5593243869228
 20
131.4758439929248
 30
0.000000000000000
 11
446.5593243869228
 21
131.4758439929248
 31
0.000000000000000
  0
LINE
  5
ED
100
AcDbEntity
  8
1
  6
CONTINUOUS
 62
7
100
AcDbLine
 10
518.5593243865225
 20
137.4758439932707
 30
0.000000000000000
 11
446.5593243865225
 21
137.4758439931592
 31
0.000000000000000
  0
LINE
  5
EE
100
AcDbEntity
  8
1
  6
CONTINUOUS
 62
7
100
AcDbLine
 10
382.1164061952385
 20
148.9758439933055
 30
0.000000000000000
 11
382.1164061952398
 21
141.9758439933055
 31
0.000000000000000
  0
ARC
  5
EF
100
AcDbEntity
  8
1
  6
CONTINUOUS
 62
7
100
AcDbCircle
 10
446.5593243869228
 20
139.4758439929248
 30
0.000000000000000
 40
8.000000000000000
100
AcDbArc
 50
180.0000000000000
 51
270.0000000000000
  0
ARC
  5
F0
100
AcDbEntity
  8
1
  6
CONTINUOUS
 62
7
100
AcDbCircle
 10
446.5593243869228
 20
139.4758439929248
 30
0.000000000000000
 40
6.939299999999997
100
AcDbArc
 50
180.0000000000000
 51
270.0000000000000
  0
LINE
  5
F1
100
AcDbEntity
  8
1
  6
CONTINUOUS
 62
7
100
AcDbLine
 10
447.9808634177488
 20
149.0758439933448
 30
0.000000000000000
 11
452.1377853559140
 21
149.0758439933319
 31
0.000000000000000
  0
LINE
  5
F2
100
AcDbEntity
  8
4
  6
CENTER
 62
1
100
AcDbLine
 10
443.1909243868203
 20
145.4758439933599
 30
0.000000000000000
 11
456.9277243868202
 21
145.4758439933168
 31
0.000000000000000
  0
LINE
  5
F3
100
AcDbEntity
  8
1
  6
CONTINUOUS
 62
7
100
AcDbLine
 10
447.9808634177262
 20
141.8758439933449
 30
0.000000000000000
 11
452.1377853558915
 21
141.8758439933316
 31
0.000000000000000
  0
CIRCLE
  5
F4
100
AcDbEntity
  8
1
  6
CONTINUOUS
 62
7
100
AcDbCircle
 10
450.0593243868202
 20
145.4758439933383
 30
0.000000000000000
 40
2.250000000000000
  0
LINE
  5
F5
100
AcDbEntity
  8
1
  6
CONTINUOUS
 62
7
100
AcDbLine
 10
445.9024024486549
 20
145.4758439933516
 30
0.000000000000000
 11
447.9808634177265
 21
141.8758439933450
 31
0.000000000000000
  0
ARC
  5
F6
100
AcDbEntity
  8
1
  6
CONTINUOUS
 62
7
100
AcDbCircle
 10
446.0593243870980
 20
138.9758439932093
 30
0.000000000000000
 40
2.500000000000000
100
AcDbArc
 50
180.0000000000000
 51
270.0000000000000
  0
ARC
  5
F7
100
AcDbEntity
  8
1
  6
CONTINUOUS
 62
7
100
AcDbCircle
 10
446.5593243865180
 20
140.4758439932027
 30
0.000000000000000
 40
3.000000000000000
100
AcDbArc
 50
180.0000000000000
 51
270.0000000000000
  0
CIRCLE
  5
F8
100
AcDbEntity
  8
1
  6
CONTINUOUS
 62
7
100
AcDbCircle
 10
445.5593243868015
 20
139.4758439933455
 30
0.000000000000000
 40
1.250000000000000
  0
LINE
  5
F9
100
AcDbEntity
  8
1
  6
CONTINUOUS
 62
7
100
AcDbLine
 10
445.9024024486548
 20
145.4758439933512
 30
0.000000000000000
 11
447.9808634177485
 21
149.0758439933447
 31
0.000000000000000
  0
LINE
  5
FA
100
AcDbEntity
  8
1
  6
CONTINUOUS
 62
7
100
AcDbLine
 10
452.1377853558913
 20
141.8758439933320
 30
0.000000000000000
 11
454.2162463249851
 21
145.4758439933253
 31
0.000000000000000
  0
LINE
  5
FB
100
AcDbEntity
  8
1
  6
CONTINUOUS
 62
7
100
AcDbLine
 10
452.1377853559140
 20
149.0758439933319
 30
0.000000000000000
 11
454.2162463249850
 21
145.4758439933255
 31
0.000000000000000
  0
CIRCLE
  5
FC
100
AcDbEntity
  8
1
  6
CONTINUOUS
 62
7
100
AcDbCircle
 10
458.5593243868329
 20
149.4758439933251
 30
0.000000000000000
 40
1.250000000000000
  0
CIRCLE
  5
FD
100
AcDbEntity
  8
1
  6
CONTINUOUS
 62
7
100
AcDbCircle
 10
506.5593243870428
 20
149.4758439931745
 30
0.000000000000000
 40
1.250000000000000
  0
ARC
  5
FE
100
AcDbEntity
  8
1
  6
CONTINUOUS
 62
7
100
AcDbCircle
 10
518.5593243869228
 20
139.4758439929248
 30
0.000000000000000
 40
6.939299999999997
100
AcDbArc
 50
270.0000000000000
 51
360.0000000000000
  0
ARC
  5
FF
100
AcDbEntity
  8
1
  6
CONTINUOUS
 62
7
100
AcDbCircle
 10
518.5593243869228
 20
139.4758439929248
 30
0.000000000000000
 40
8.000000000000000
100
AcDbArc
 50
270.0000000000000
 51
360.0000000000000
  0
CIRCLE
  5
100
100
AcDbEntity
  8
1
  6
CONTINUOUS
 62
7
100
AcDbCircle
 10
519.5593243870113
 20
139.4758439931134
 30
0.000000000000000
 40
1.250000000000000
  0
LINE
  5
101
100
AcDbEntity
  8
1
  6
CONTINUOUS
 62
7
100
AcDbLine
 10
517.1377853558915
 20
141.8758439930797
 30
0.000000000000000
 11
519.2162463249851
 21
145.4758439930731
 31
0.000000000000000
  0
LINE
  5
102
100
AcDbEntity
  8
1
  6
CONTINUOUS
 62
7
100
AcDbLine
 10
517.1377853559142
 20
149.0758439930800
 30
0.000000000000000
 11
519.2162463249853
 21
145.4758439930735
 31
0.000000000000000
  0
LINE
  5
103
100
AcDbEntity
  8
4
  6
CENTER
 62
1
100
AcDbLine
 10
508.1909243868203
 20
145.4758439931079
 30
0.000000000000000
 11
521.9277243868202
 21
145.4758439930648
 31
0.000000000000000
  0
ARC
  5
104
100
AcDbEntity
  8
1
  6
CONTINUOUS
 62
7
100
AcDbCircle
 10
518.5593243865180
 20
140.4758439932707
 30
0.000000000000000
 40
3.000000000000000
100
AcDbArc
 50
270.0000000000000
 51
360.0000000000000
  0
LINE
  5
105
100
AcDbEntity
  8
1
  6
CONTINUOUS
 62
7
100
AcDbLine
 10
510.9024024486548
 20
145.4758439930995
 30
0.000000000000000
 11
512.9808634177264
 21
141.8758439930930
 31
0.000000000000000
  0
LINE
  5
106
100
AcDbEntity
  8
1
  6
CONTINUOUS
 62
7
100
AcDbLine
 10
512.9808634177261
 20
141.8758439930928
 30
0.000000000000000
 11
517.1377853558915
 21
141.8758439930797
 31
0.000000000000000
  0
LINE
  5
107
100
AcDbEntity
  8
1
  6
CONTINUOUS
 62
7
100
AcDbLine
 10
512.9808634177487
 20
149.0758439930928
 30
0.000000000000000
 11
517.1377853559140
 21
149.0758439930796
 31
0.000000000000000
  0
CIRCLE
  5
108
100
AcDbEntity
  8
1
  6
CONTINUOUS
 62
7
100
AcDbCircle
 10
515.0593243868200
 20
145.4758439930863
 30
0.000000000000000
 40
2.250000000000000
  0
LINE
  5
109
100
AcDbEntity
  8
1
  6
CONTINUOUS
 62
7
100
AcDbLine
 10
510.9024024486549
 20
145.4758439930995
 30
0.000000000000000
 11
512.9808634177487
 21
149.0758439930928
 31
0.000000000000000
  0
ARC
  5
10A
100
AcDbEntity
  8
1
  6
CONTINUOUS
 62
7
100
AcDbCircle
 10
519.0593243870978
 20
138.9758439930949
 30
0.000000000000000
 40
2.500000000000000
100
AcDbArc
 50
270.0000000000000
 51
360.0000000000000
  0
LINE
  5
10B
100
AcDbEntity
  8
4
  6
CENTER
 62
1
100
AcDbLine
 10
435.5593243869232
 20
200.4758439932257
 30
0.000000000000000
 11
529.5593243869229
 21
200.4758439930784
 31
0.000000000000000
  0
LINE
  5
10C
100
AcDbEntity
  8
1
  6
CONTINUOUS
 62
7
100
AcDbLine
 10
446.0593243871016
 20
264.4758439932093
 30
0.000000000000000
 11
519.0593243871017
 21
264.4758439930948
 31
0.000000000000000
  0
LINE
  5
10D
100
AcDbEntity
  8
1
  6
CONTINUOUS
 62
7
100
AcDbLine
 10
446.5593243869228
 20
268.4151838210685
 30
0.000000000000000
 11
518.5593243869228
 21
268.4151838210685
 31
0.000000000000000
  0
LINE
  5
10E
100
AcDbEntity
  8
1
  6
CONTINUOUS
 62
7
100
AcDbLine
 10
518.5593243869207
 20
269.4758439929226
 30
0.000000000000000
 11
446.5593243869206
 21
269.4758439929024
 31
0.000000000000000
  0
LINE
  5
10F
100
AcDbEntity
  8
1
  6
CONTINUOUS
 62
7
100
AcDbLine
 10
504.0593243861553
 20
246.2258439933038
 30
0.000000000000000
 11
459.5593243875921
 21
246.2258439933420
 31
0.000000000000000
  0
LINE
  5
110
100
AcDbEntity
  8
1
  6
CONTINUOUS
 62
7
100
AcDbLine
 10
504.0593243861406
 20
154.7258439931381
 30
0.000000000000000
 11
459.5593243875772
 21
154.7258439931763
 31
0.000000000000000
  0
LINE
  5
111
100
AcDbEntity
  8
1
  6
CONTINUOUS
 62
7
100
AcDbLine
 10
454.5593243870546
 20
163.7258439933018
 30
0.000000000000000
 11
504.0593243861499
 21
163.7258439933017
 31
0.000000000000000
  0
LINE
  5
112
100
AcDbEntity
  8
1
  6
CONTINUOUS
 62
7
100
AcDbLine
 10
454.5593243870547
 20
237.2258439932438
 30
0.000000000000000
 11
504.0593243862328
 21
237.2258439932435
 31
0.000000000000000
  0
LINE
  5
113
100
AcDbEntity
  8
1
  6
CONTINUOUS
 62
7
100
AcDbLine
 10
518.5593243865183
 20
263.4758439932753
 30
0.000000000000000
 11
446.5593243865182
 21
263.4758439932755
 31
0.000000000000000
  0
LINE
  5
114
100
AcDbEntity
  8
1
  6
CONTINUOUS
 62
7
100
AcDbLine
 10
441.1017243869229
 20
246.9758439932170
 30
0.000000000000000
 11
441.1017243869229
 21
153.9758439932171
 31
0.000000000000000
  0
CIRCLE
  5
115
100
AcDbEntity
  8
1
  6
CONTINUOUS
 62
7
100
AcDbCircle
 10
443.5593243870981
 20
215.4758439932061
 30
0.000000000000000
 40
1.250000000000000
  0
LINE
  5
116
100
AcDbEntity
  8
1
  6
CONTINUOUS
 62
7
100
AcDbLine
 10
451.0593243875846
 20
163.2258439931721
 30
0.000000000000000
 11
451.0593243875848
 21
237.7258439933378
 31
0.000000000000000
  0
LINE
  5
117
100
AcDbEntity
  8
1
  6
CONTINUOUS
 62
7
100
AcDbLine
 10
442.0593243873586
 20
247.9758439935461
 30
0.000000000000000
 11
442.0593243871643
 21
152.9758439931023
 31
0.000000000000000
  0
LINE
  5
118
100
AcDbEntity
  8
1
  6
CONTINUOUS
 62
7
100
AcDbLine
 10
442.0593243871726
 20
156.9758439932155
 30
0.000000000000000
 11
453.7984650766558
 21
156.9758439931971
 31
0.000000000000000
  0
LINE
  5
119
100
AcDbEntity
  8
1
  6
CONTINUOUS
 62
7
100
AcDbLine
 10
443.5593243870977
 20
152.9758439930992
 30
0.000000000000000
 11
442.0593243872531
 21
152.9758439931026
 31
0.000000000000000
  0
LINE
  5
11A
100
AcDbEntity
  8
1
  6
CONTINUOUS
 62
7
100
AcDbLine
 10
441.1017243869229
 20
153.9758439932171
 30
0.000000000000000
 11
442.0593243871667
 21
153.9758439932155
 31
0.000000000000000
  0
ARC
  5
11B
100
AcDbEntity
  8
1
  6
CONTINUOUS
 62
7
100
AcDbCircle
 10
459.5593243875846
 20
163.2258439931721
 30
0.000000000000000
 40
8.500000000000000
100
AcDbArc
 50
180.0000000000000
 51
270.0000000000000
  0
CIRCLE
  5
11C
100
AcDbEntity
  8
1
  6
CONTINUOUS
 62
7
100
AcDbCircle
 10
443.5593243870506
 20
185.4758439932203
 30
0.000000000000000
 40
1.250000000000000
  0
LINE
  5
11D
100
AcDbEntity
  8
1
  6
CONTINUOUS
 62
7
100
AcDbLine
 10
382.1164061952290
 20
251.9758439930086
 30
0.000000000000000
 11
382.1164061952290
 21
258.9758439930085
 31
0.000000000000000
  0
LINE
  5
11E
100
AcDbEntity
  8
4
  6
CENTER
 62
1
100
AcDbLine
 10
450.0593243869928
 20
262.3442439930677
 30
0.000000000000000
 11
450.0593243869928
 21
248.6074439930675
 31
0.000000000000000
  0
LINE
  5
11F
100
AcDbEntity
  8
1
  6
CONTINUOUS
 62
7
100
AcDbLine
 10
443.5593243870977
 20
247.9758439935461
 30
0.000000000000000
 11
443.5593243870977
 21
261.9758439932092
 31
0.000000000000000
  0
LINE
  5
120
100
AcDbEntity
  8
1
  6
CONTINUOUS
 62
7
100
AcDbLine
 10
442.0593243873506
 20
243.9758439932156
 30
0.000000000000000
 11
453.7984650765308
 21
243.9758439931972
 31
0.000000000000000
  0
LINE
  5
121
100
AcDbEntity
  8
1
  6
CONTINUOUS
 62
7
100
AcDbLine
 10
443.5593243870981
 20
247.9758439935461
 30
0.000000000000000
 11
442.0593243873586
 21
247.9758439935461
 31
0.000000000000000
  0
LINE
  5
122
100
AcDbEntity
  8
1
  6
CONTINUOUS
 62
7
100
AcDbLine
 10
441.1017243869229
 20
246.9758439932170
 30
0.000000000000000
 11
442.0593243873566
 21
246.9758439932156
 31
0.000000000000000
  0
ARC
  5
123
100
AcDbEntity
  8
1
  6
CONTINUOUS
 62
7
100
AcDbCircle
 10
459.5593243875848
 20
237.7258439933378
 30
0.000000000000000
 40
8.500000000000000
100
AcDbArc
 50
90.00000000000000
 51
180.0000000000000
  0
ARC
  5
124
100
AcDbEntity
  8
1
  6
CONTINUOUS
 62
7
100
AcDbCircle
 10
446.5593243869228
 20
261.4758439929024
 30
0.000000000000000
 40
8.000000000000000
100
AcDbArc
 50
90.00000000000000
 51
180.0000000000000
  0
ARC
  5
125
100
AcDbEntity
  8
1
  6
CONTINUOUS
 62
7
100
AcDbCircle
 10
446.5593243869228
 20
261.4758439929024
 30
0.000000000000000
 40
6.939299999999997
100
AcDbArc
 50
90.00000000000000
 51
180.0000000000000
  0
LINE
  5
126
100
AcDbEntity
  8
1
  6
CONTINUOUS
 62
7
100
AcDbLine
 10
447.9808634179099
 20
251.8758439930676
 30
0.000000000000000
 11
452.1377853560752
 21
251.8758439930676
 31
0.000000000000000
  0
LINE
  5
127
100
AcDbEntity
  8
4
  6
CENTER
 62
1
100
AcDbLine
 10
443.1909243869927
 20
255.4758439930677
 30
0.000000000000000
 11
456.9277243869928
 21
255.4758439930677
 31
0.000000000000000
  0
CIRCLE
  5
128
100
AcDbEntity
  8
1
  6
CONTINUOUS
 62
7
100
AcDbCircle
 10
450.0593243869928
 20
255.4758439930677
 30
0.000000000000000
 40
5.368399999999998
  0
LINE
  5
129
100
AcDbEntity
  8
1
  6
CONTINUOUS
 62
7
100
AcDbLine
 10
447.9808634179099
 20
259.0758439930676
 30
0.000000000000000
 11
452.1377853560752
 21
259.0758439930676
 31
0.000000000000000
  0
CIRCLE
  5
12A
100
AcDbEntity
  8
1
  6
CONTINUOUS
 62
7
100
AcDbCircle
 10
450.0593243869928
 20
255.4758439930677
 30
0.000000000000000
 40
2.250000000000000
  0
LINE
  5
12B
100
AcDbEntity
  8
1
  6
CONTINUOUS
 62
7
100
AcDbLine
 10
445.9024024488277
 20
255.4758439930677
 30
0.000000000000000
 11
447.9808634179101
 21
259.0758439930677
 31
0.000000000000000
  0
CIRCLE
  5
12C
100
AcDbEntity
  8
1
  6
CONTINUOUS
 62
7
100
AcDbCircle
 10
445.5593243869928
 20
250.4758439930717
 30
0.000000000000000
 40
1.250000000000000
  0
LINE
  5
12D
100
AcDbEntity
  8
1
  6
CONTINUOUS
 62
7
100
AcDbLine
 10
445.9024024488272
 20
255.4758439930678
 30
0.000000000000000
 11
447.9808634179100
 21
251.8758439930675
 31
0.000000000000000
  0
ARC
  5
12E
100
AcDbEntity
  8
1
  6
CONTINUOUS
 62
7
100
AcDbCircle
 10
446.0593243870977
 20
261.9758439932092
 30
0.000000000000000
 40
2.500000000000000
100
AcDbArc
 50
90.00000000000000
 51
180.0000000000000
  0
ARC
  5
12F
100
AcDbEntity
  8
1
  6
CONTINUOUS
 62
7
100
AcDbCircle
 10
446.5593243865182
 20
260.4758439932817
 30
0.000000000000000
 40
3.000000000000000
100
AcDbArc
 50
90.00000000000000
 51
180.0000000000000
  0
CIRCLE
  5
130
100
AcDbEntity
  8
1
  6
CONTINUOUS
 62
7
100
AcDbCircle
 10
445.5593243869928
 20
261.4758439930748
 30
0.000000000000000
 40
1.250000000000000
  0
LINE
  5
131
100
AcDbEntity
  8
1
  6
CONTINUOUS
 62
7
100
AcDbLine
 10
452.1377853560751
 20
259.0758439930674
 30
0.000000000000000
 11
454.2162463251576
 21
255.4758439930674
 31
0.000000000000000
  0
LINE
  5
132
100
AcDbEntity
  8
1
  6
CONTINUOUS
 62
7
100
AcDbLine
 10
452.1377853560753
 20
251.8758439930678
 30
0.000000000000000
 11
454.2162463251578
 21
255.4758439930678
 31
0.000000000000000
  0
CIRCLE
  5
133
100
AcDbEntity
  8
1
  6
CONTINUOUS
 62
7
100
AcDbCircle
 10
458.5593243869928
 20
251.4758439930544
 30
0.000000000000000
 40
1.250000000000000
  0
CIRCLE
  5
134
100
AcDbEntity
  8
1
  6
CONTINUOUS
 62
7
100
AcDbCircle
 10
517.5593243870978
 20
215.4758439930981
 30
0.000000000000000
 40
1.250000000000000
  0
LINE
  5
135
100
AcDbEntity
  8
1
  6
CONTINUOUS
 62
7
100
AcDbLine
 10
512.5593243861479
 20
163.2258439931381
 30
0.000000000000000
 11
512.5593243861479
 21
237.7258439933038
 31
0.000000000000000
  0
LINE
  5
136
100
AcDbEntity
  8
1
  6
CONTINUOUS
 62
7
100
AcDbLine
 10
504.0593243862304
 20
235.7258439933461
 30
0.000000000000000
 11
504.0593243861521
 21
165.2258439931804
 31
0.000000000000000
  0
ARC
  5
137
100
AcDbEntity
  8
1
  6
CONTINUOUS
 62
7
100
AcDbCircle
 10
504.0593243861478
 20
163.2258439931381
 30
0.000000000000000
 40
8.500000000000000
100
AcDbArc
 50
270.0000000000000
 51
360.0000000000000
  0
CIRCLE
  5
138
100
AcDbEntity
  8
1
  6
CONTINUOUS
 62
7
100
AcDbCircle
 10
519.5593243870521
 20
152.4758439931165
 30
0.000000000000000
 40
1.250000000000000
  0
CIRCLE
  5
139
100
AcDbEntity
  8
1
  6
CONTINUOUS
 62
7
100
AcDbCircle
 10
517.5593243870507
 20
185.4758439930964
 30
0.000000000000000
 40
1.250000000000000
  0
CIRCLE
  5
13A
100
AcDbEntity
  8
1
  6
CONTINUOUS
 62
7
100
AcDbCircle
 10
506.5593243872026
 20
251.4758439930544
 30
0.000000000000000
 40
1.250000000000000
  0
ARC
  5
13B
100
AcDbEntity
  8
1
  6
CONTINUOUS
 62
7
100
AcDbCircle
 10
504.0593243861479
 20
237.7258439933038
 30
0.000000000000000
 40
8.500000000000000
100
AcDbArc
 50
0.000000000000000
 51
90.00000000000000
  0
CIRCLE
  5
13C
100
AcDbEntity
  8
1
  6
CONTINUOUS
 62
7
100
AcDbCircle
 10
519.5593243872027
 20
248.4758439930716
 30
0.000000000000000
 40
1.250000000000000
  0
LINE
  5
13D
100
AcDbEntity
  8
4
  6
CENTER
 62
1
100
AcDbLine
 10
515.0593243869924
 20
262.3442439931160
 30
0.000000000000000
 11
515.0593243869924
 21
248.6074439931160
 31
0.000000000000000
  0
ARC
  5
13E
100
AcDbEntity
  8
1
  6
CONTINUOUS
 62
7
100
AcDbCircle
 10
518.5593243869228
 20
261.4758439929226
 30
0.000000000000000
 40
6.939299999999997
100
AcDbArc
 50
0.000000000000000
 51
90.00000000000000
  0
ARC
  5
13F
100
AcDbEntity
  8
1
  6
CONTINUOUS
 62
7
100
AcDbCircle
 10
518.5593243869228
 20
261.4758439929226
 30
0.000000000000000
 40
8.000000000000000
100
AcDbArc
 50
0.000000000000000
 51
90.00000000000000
  0
CIRCLE
  5
140
100
AcDbEntity
  8
1
  6
CONTINUOUS
 62
7
100
AcDbCircle
 10
519.5593243872027
 20
261.4758439930748
 30
0.000000000000000
 40
1.250000000000000
  0
LINE
  5
141
100
AcDbEntity
  8
1
  6
CONTINUOUS
 62
7
100
AcDbLine
 10
517.1377853560754
 20
259.0758439931161
 30
0.000000000000000
 11
519.2162463251578
 21
255.4758439931161
 31
0.000000000000000
  0
LINE
  5
142
100
AcDbEntity
  8
1
  6
CONTINUOUS
 62
7
100
AcDbLine
 10
517.1377853560754
 20
251.8758439931160
 30
0.000000000000000
 11
519.2162463251578
 21
255.4758439931157
 31
0.000000000000000
  0
LINE
  5
143
100
AcDbEntity
  8
4
  6
CENTER
 62
1
100
AcDbLine
 10
508.1909243869927
 20
255.4758439931158
 30
0.000000000000000
 11
521.9277243869928
 21
255.4758439931158
 31
0.000000000000000
  0
CIRCLE
  5
144
100
AcDbEntity
  8
1
  6
CONTINUOUS
 62
7
100
AcDbCircle
 10
515.0593243869924
 20
255.4758439931158
 30
0.000000000000000
 40
5.368399999999998
  0
ARC
  5
145
100
AcDbEntity
  8
1
  6
CONTINUOUS
 62
7
100
AcDbCircle
 10
518.5593243865183
 20
260.4758439932753
 30
0.000000000000000
 40
3.000000000000000
100
AcDbArc
 50
0.000000000000000
 51
90.00000000000000
  0
LINE
  5
146
100
AcDbEntity
  8
1
  6
CONTINUOUS
 62
7
100
AcDbLine
 10
510.9024024488274
 20
255.4758439931158
 30
0.000000000000000
 11
512.9808634179100
 21
259.0758439931159
 31
0.000000000000000
  0
CIRCLE
  5
147
100
AcDbEntity
  8
1
  6
CONTINUOUS
 62
7
100
AcDbCircle
 10
515.0593243869924
 20
255.4758439931160
 30
0.000000000000000
 40
2.250000000000000
  0
LINE
  5
148
100
AcDbEntity
  8
1
  6
CONTINUOUS
 62
7
100
AcDbLine
 10
512.9808634179097
 20
251.8758439931159
 30
0.000000000000000
 11
517.1377853560753
 21
251.8758439931159
 31
0.000000000000000
  0
LINE
  5
149
100
AcDbEntity
  8
1
  6
CONTINUOUS
 62
7
100
AcDbLine
 10
510.9024024488269
 20
255.4758439931155
 30
0.000000000000000
 11
512.9808634179095
 21
251.8758439931157
 31
0.000000000000000
  0
LINE
  5
14A
100
AcDbEntity
  8
1
  6
CONTINUOUS
 62
7
100
AcDbLine
 10
512.9808634179097
 20
259.0758439931158
 30
0.000000000000000
 11
517.1377853560753
 21
259.0758439931158
 31
0.000000000000000
  0
ARC
  5
14B
100
AcDbEntity
  8
1
  6
CONTINUOUS
 62
7
100
AcDbCircle
 10
519.0593243870978
 20
261.9758439930949
 30
0.000000000000000
 40
2.500000000000000
100
AcDbArc
 50
0.000000000000000
 51
90.00000000000000
  0
LINE
  5
14C
100
AcDbEntity
  8
1
  6
CONTINUOUS
 62
7
100
AcDbLine
 10
199.6266033153058
 20
211.6009329051880
 30
0.000000000000000
 11
200.4114888825272
 21
211.2349347544173
 31
0.000000000000000
  0
LINE
  5
14D
100
AcDbEntity
  8
1
  6
CONTINUOUS
 62
7
100
AcDbLine
 10
199.6266033153058
 20
211.6009329051880
 30
0.000000000000000
 11
202.6266033153058
 21
211.6009329051880
 31
0.000000000000000
  0
ARC
  5
14E
100
AcDbEntity
  8
1
  6
CONTINUOUS
 62
7
100
AcDbCircle
 10
201.8766033153058
 20
201.9665769198530
 30
0.000000000000000
 40
0.7500000000000006
100
AcDbArc
 50
270.0000000000000
 51
540.0000000000000
  0
ARC
  5
14F
100
AcDbEntity
  8
1
  6
CONTINUOUS
 62
7
100
AcDbCircle
 10
200.3766033153058
 20
201.9665769198530
 30
0.000000000000000
 40
0.7500000000000000
100
AcDbArc
 50
0.000000000000000
 51
270.0000000000000
  0
LINE
  5
150
100
AcDbEntity
  8
1
  6
CONTINUOUS
 62
7
100
AcDbLine
 10
201.1266033153058
 20
201.9665769198529
 30
0.000000000000000
 11
201.1266033153058
 21
201.7413319414685
 31
0.000000000000000
  0
LINE
  5
151
100
AcDbEntity
  8
1
  6
CONTINUOUS
 62
7
100
AcDbLine
 10
199.6266033153058
 20
207.8136381184224
 30
0.000000000000000
 11
199.6266033153058
 21
206.3136381184224
 31
0.000000000000000
  0
LINE
  5
152
100
AcDbEntity
  8
1
  6
CONTINUOUS
 62
7
100
AcDbLine
 10
199.6266033153058
 20
207.8136381184224
 30
0.000000000000000
 11
202.6266033153058
 21
206.6886381184224
 31
0.000000000000000
  0
ARC
  5
153
100
AcDbEntity
  8
1
  6
CONTINUOUS
 62
7
100
AcDbCircle
 10
196.3443726836104
 20
193.8450017208861
 30
0.000000000000000
 40
0.7113053508261391
100
AcDbArc
 50
302.0053832080841
 51
417.9946167919157
  0
ARC
  5
154
100
AcDbEntity
  8
1
  6
CONTINUOUS
 62
7
100
AcDbCircle
 10
194.7669833852627
 20
193.8450017208861
 30
0.000000000000000
 40
0.7113053508261391
100
AcDbArc
 50
122.0053832080841
 51
237.9946167919158
  0
LINE
  5
155
100
AcDbEntity
  8
1
  6
CONTINUOUS
 62
7
100
AcDbLine
 10
194.0556780344365
 20
192.1528230805794
 30
0.000000000000000
 11
194.0556780344365
 21
190.3528230805794
 31
0.000000000000000
  0
LINE
  5
156
100
AcDbEntity
  8
1
  6
CONTINUOUS
 62
7
100
AcDbLine
 10
194.0556780344365
 20
191.2528230805794
 30
0.000000000000000
 11
197.0556780344366
 21
191.2528230805794
 31
0.000000000000000
  0
ARC
  5
157
100
AcDbEntity
  8
1
  6
CONTINUOUS
 62
7
100
AcDbCircle
 10
195.5556780344366
 20
195.1069131595643
 30
0.000000000000000
 40
2.199411438678189
100
AcDbArc
 50
237.9946167919158
 51
302.0053832080841
  0
ARC
  5
158
100
AcDbEntity
  8
1
  6
CONTINUOUS
 62
7
100
AcDbCircle
 10
195.5556780344366
 20
192.5830902822079
 30
0.000000000000000
 40
2.199411438678189
100
AcDbArc
 50
57.99461679191577
 51
122.0053832080841
  0
ARC
  5
159
100
AcDbEntity
  8
1
  6
CONTINUOUS
 62
7
100
AcDbCircle
 10
195.5556780344366
 20
197.8909803077420
 30
0.000000000000000
 40
2.199411438678189
100
AcDbArc
 50
237.9946167919158
 51
302.0053832080841
  0
ARC
  5
15A
100
AcDbEntity
  8
1
  6
CONTINUOUS
 62
7
100
AcDbCircle
 10
196.3443726836104
 20
196.6290688690638
 30
0.000000000000000
 40
0.7113053508261391
100
AcDbArc
 50
302.0053832080841
 51
417.9946167919157
  0
ARC
  5
15B
100
AcDbEntity
  8
1
  6
CONTINUOUS
 62
7
100
AcDbCircle
 10
194.7669833852627
 20
196.6290688690638
 30
0.000000000000000
 40
0.7113053508261391
100
AcDbArc
 50
122.0053832080841
 51
237.9946167919158
  0
LINE
  5
15C
100
AcDbEntity
  8
1
  6
CONTINUOUS
 62
7
100
AcDbLine
 10
195.5556780344366
 20
198.2253405266455
 30
0.000000000000000
 11
195.5556780344366
 21
199.9503405266456
 31
0.000000000000000
  0
LINE
  5
15D
100
AcDbEntity
  8
1
  6
CONTINUOUS
 62
7
100
AcDbLine
 10
194.0556780344365
 20
201.2253405266455
 30
0.000000000000000
 11
197.0556780344366
 21
201.2253405266455
 31
0.000000000000000
  0
LINE
  5
15E
100
AcDbEntity
  8
1
  6
CONTINUOUS
 62
7
100
AcDbLine
 10
194.0556780344365
 20
199.9503405266456
 30
0.000000000000000
 11
197.0556780344366
 21
199.9503405266456
 31
0.000000000000000
  0
LINE
  5
15F
100
AcDbEntity
  8
1
  6
CONTINUOUS
 62
7
100
AcDbLine
 10
194.0556780344365
 20
198.2253405266455
 30
0.000000000000000
 11
197.0556780344366
 21
198.2253405266455
 31
0.000000000000000
  0
LINE
  5
160
100
AcDbEntity
  8
1
  6
CONTINUOUS
 62
7
100
AcDbLine
 10
197.0556780344366
 20
208.9048596319248
 30
0.000000000000000
 11
194.0556780344365
 21
209.8048596319248
 31
0.000000000000000
  0
ARC
  5
161
100
AcDbEntity
  8
1
  6
CONTINUOUS
 62
7
100
AcDbCircle
 10
194.8367458575503
 20
203.5165575933155
 30
0.000000000000000
 40
0.7810678231137820
100
AcDbArc
 50
124.8882680994094
 51
235.1117319005905
  0
ARC
  5
162
100
AcDbEntity
  8
1
  6
CONTINUOUS
 62
7
100
AcDbCircle
 10
196.2746102113228
 20
203.5165575933155
 30
0.000000000000000
 40
0.7810678231137820
100
AcDbArc
 50
304.8882680994093
 51
415.1117319005906
  0
ARC
  5
163
100
AcDbEntity
  8
1
  6
CONTINUOUS
 62
7
100
AcDbCircle
 10
195.5556780344366
 20
204.7409690319937
 30
0.000000000000000
 40
2.199411438678189
100
AcDbArc
 50
237.9946167919158
 51
302.0053832080841
  0
ARC
  5
164
100
AcDbEntity
  8
1
  6
CONTINUOUS
 62
7
100
AcDbCircle
 10
195.4109820418575
 20
202.2899432116451
 30
0.000000000000000
 40
2.281208007415607
100
AcDbArc
 50
54.94066185634650
 51
86.36331323835951
  0
LINE
  5
165
100
AcDbEntity
  8
1
  6
CONTINUOUS
 62
7
100
AcDbLine
 10
195.5556780344366
 20
204.5665575933155
 30
0.000000000000000
 11
196.9103158052950
 21
204.5665575933155
 31
0.000000000000000
  0
LINE
  5
166
100
AcDbEntity
  8
1
  6
CONTINUOUS
 62
7
100
AcDbLine
 10
195.5556780344366
 20
204.5665575933155
 30
0.000000000000000
 11
195.5556780344366
 21
203.5328797766173
 31
0.000000000000000
  0
ARC
  5
167
100
AcDbEntity
  8
1
  6
CONTINUOUS
 62
7
100
AcDbCircle
 10
195.7003740270156
 20
202.2899432116451
 30
0.000000000000000
 40
2.281208007415607
100
AcDbArc
 50
115.7201063039170
 51
125.0593381436535
  0
LINE
  5
168
100
AcDbEntity
  8
1
  6
CONTINUOUS
 62
7
100
AcDbLine
 10
195.5556780344366
 20
207.6819733321438
 30
0.000000000000000
 11
197.0556780344366
 21
207.6819733321438
 31
0.000000000000000
  0
LINE
  5
169
100
AcDbEntity
  8
1
  6
CONTINUOUS
 62
7
100
AcDbLine
 10
194.0556780344365
 20
205.7509018496100
 30
0.000000000000000
 11
197.0556780344366
 21
205.7509018496100
 31
0.000000000000000
  0
LINE
  5
16A
100
AcDbEntity
  8
1
  6
CONTINUOUS
 62
7
100
AcDbLine
 10
194.0556780344365
 20
206.7819733321438
 30
0.000000000000000
 11
195.5556780344366
 21
207.6819733321438
 31
0.000000000000000
  0
LINE
  5
16B
100
AcDbEntity
  8
1
  6
CONTINUOUS
 62
7
100
AcDbLine
 10
195.5556780344366
 20
207.6819733321438
 30
0.000000000000000
 11
194.0556780344365
 21
208.5819733321437
 31
0.000000000000000
  0
LINE
  5
16C
100
AcDbEntity
  8
1
  6
CONTINUOUS
 62
7
100
AcDbLine
 10
195.9306780344365
 20
209.2423596319248
 30
0.000000000000000
 11
195.9306780344365
 21
210.3673596319248
 31
0.000000000000000
  0
LINE
  5
16D
100
AcDbEntity
  8
1
  6
CONTINUOUS
 62
7
100
AcDbLine
 10
194.0556780344365
 20
209.8048596319248
 30
0.000000000000000
 11
197.0556780344366
 21
210.7048596319248
 31
0.000000000000000
  0
LINE
  5
16E
100
AcDbEntity
  8
1
  6
CONTINUOUS
 62
7
100
AcDbLine
 10
202.6266033153059
 20
195.6633725657404
 30
0.000000000000000
 11
199.6266033153059
 21
196.5633725657405
 31
0.000000000000000
  0
LINE
  5
16F
100
AcDbEntity
  8
1
  6
CONTINUOUS
 62
7
100
AcDbLine
 10
201.5016033153058
 20
196.0008725657404
 30
0.000000000000000
 11
201.5016033153058
 21
197.1258725657404
 31
0.000000000000000
  0
LINE
  5
170
100
AcDbEntity
  8
1
  6
CONTINUOUS
 62
7
100
AcDbLine
 10
199.6266033153058
 20
194.7205109479776
 30
0.000000000000000
 11
202.6266033153058
 21
194.7205109479776
 31
0.000000000000000
  0
LINE
  5
171
100
AcDbEntity
  8
1
  6
CONTINUOUS
 62
7
100
AcDbLine
 10
199.6266033153058
 20
192.9955109479776
 30
0.000000000000000
 11
202.6266033153058
 21
192.9955109479776
 31
0.000000000000000
  0
LINE
  5
172
100
AcDbEntity
  8
1
  6
CONTINUOUS
 62
7
100
AcDbLine
 10
201.1266033153058
 20
192.9955109479776
 30
0.000000000000000
 11
201.1266033153058
 21
194.7205109479776
 31
0.000000000000000
  0
LINE
  5
173
100
AcDbEntity
  8
1
  6
CONTINUOUS
 62
7
100
AcDbLine
 10
199.6266033153058
 20
191.2528230805794
 30
0.000000000000000
 11
202.6266033153058
 21
191.2528230805794
 31
0.000000000000000
  0
LINE
  5
174
100
AcDbEntity
  8
1
  6
CONTINUOUS
 62
7
100
AcDbLine
 10
199.6266033153058
 20
192.1528230805794
 30
0.000000000000000
 11
199.6266033153058
 21
190.3528230805794
 31
0.000000000000000
  0
LINE
  5
175
100
AcDbEntity
  8
1
  6
CONTINUOUS
 62
7
100
AcDbLine
 10
201.1266033153058
 20
199.7673681644032
 30
0.000000000000000
 11
201.1266033153058
 21
198.3586903477050
 31
0.000000000000000
  0
LINE
  5
176
100
AcDbEntity
  8
1
  6
CONTINUOUS
 62
7
100
AcDbLine
 10
199.6266033153058
 20
196.5633725657404
 30
0.000000000000000
 11
202.6266033153058
 21
197.4633725657404
 31
0.000000000000000
  0
LINE
  5
177
100
AcDbEntity
  8
1
  6
CONTINUOUS
 62
7
100
AcDbLine
 10
199.6266033153058
 20
204.3502657172274
 30
0.000000000000000
 11
200.4114888825272
 21
203.9842675664568
 31
0.000000000000000
  0
LINE
  5
178
100
AcDbEntity
  8
1
  6
CONTINUOUS
 62
7
100
AcDbLine
 10
199.6266033153058
 20
204.3502657172275
 30
0.000000000000000
 11
202.6266033153058
 21
204.3502657172275
 31
0.000000000000000
  0
LINE
  5
179
100
AcDbEntity
  8
1
  6
CONTINUOUS
 62
7
100
AcDbLine
 10
201.1266033153058
 20
209.9720104919701
 30
0.000000000000000
 11
201.1266033153058
 21
208.5633326752720
 31
0.000000000000000
  0
LINE
  5
17A
100
AcDbEntity
  8
4
  6
CENTER
 62
1
100
AcDbLine
 10
366.5230641824987
 20
255.4758439930107
 30
0.000000000000000
 11
385.1164061952291
 21
255.4758439929981
 31
0.000000000000000
  0
LINE
  5
17B
100
AcDbEntity
  8
4
  6
CENTER
 62
1
100
AcDbLine
 10
318.0952929098063
 20
145.4758439930018
 30
0.000000000000000
 11
337.9102581832628
 21
145.4758439929925
 31
0.000000000000000
  0
LINE
  5
17C
100
AcDbEntity
  8
4
  6
CENTER
 62
1
100
AcDbLine
 10
366.5230641824987
 20
145.4758439929749
 30
0.000000000000000
 11
385.1164061952291
 21
145.4758439929624
 31
0.000000000000000
  0
LINE
  5
17D
100
AcDbEntity
  8
1
  6
CONTINUOUS
 62
7
100
AcDbLine
 10
370.9546767917375
 20
255.4758439930077
 30
0.000000000000000
 11
371.9546767917374
 21
256.3149436241851
 31
0.000000000000000
  0
LINE
  5
17E
100
AcDbEntity
  8
1
  6
CONTINUOUS
 62
7
100
AcDbLine
 10
370.9546767917476
 20
145.4758439929529
 30
0.000000000000000
 11
371.9546767917478
 21
146.3149436241301
 31
0.000000000000000
  0
LINE
  5
17F
100
AcDbEntity
  8
4
  6
CENTER
 62
1
100
AcDbLine
 10
228.0556780345128
 20
47.10720262167021
 30
0.000000000000000
 11
228.0556780345002
 21
28.51386060893989
 31
0.000000000000000
  0
LINE
  5
180
100
AcDbEntity
  8
1
  6
CONTINUOUS
 62
7
100
AcDbLine
 10
228.0556780345098
 20
42.67559001243143
 30
0.000000000000000
 11
228.8947776656872
 21
41.67559001243143
 31
0.000000000000000
  0
LINE
  5
181
100
AcDbEntity
  8
1
  6
CONTINUOUS
 62
7
100
AcDbLine
 10
227.2165784033317
 20
42.67559001242576
 30
0.000000000000000
 11
228.0556780345091
 21
41.67559001242576
 31
0.000000000000000
  0
LINE
  5
182
100
AcDbEntity
  8
1
  6
CONTINUOUS
 62
7
100
AcDbLine
 10
231.8556780345106
 20
41.67559001242577
 30
0.000000000000000
 11
224.2556780345106
 21
41.67559001242577
 31
0.000000000000000
  0
LINE
  5
183
100
AcDbEntity
  8
1
  6
CONTINUOUS
 62
7
100
AcDbLine
 10
224.2556780345106
 20
42.67559001242577
 30
0.000000000000000
 11
231.8556780345106
 21
42.67559001243713
 31
0.000000000000000
  0
LINE
  5
184
100
AcDbEntity
  8
1
  6
CONTINUOUS
 62
7
100
AcDbLine
 10
224.2556780345106
 20
42.67559001242577
 30
0.000000000000000
 11
224.2556780345106
 21
41.67559001242577
 31
0.000000000000000
  0
LINE
  5
185
100
AcDbEntity
  8
1
  6
CONTINUOUS
 62
7
100
AcDbLine
 10
231.8556780345106
 20
42.67559001242577
 30
0.000000000000000
 11
231.8556780345106
 21
41.67559001242577
 31
0.000000000000000
  0
LINE
  5
186
100
AcDbEntity
  8
1
  6
CONTINUOUS
 62
7
100
AcDbLine
 10
224.5556780345003
 20
31.51386060893989
 30
0.000000000000000
 11
231.5556780345002
 21
31.51386060893989
 31
0.000000000000000
  0
ARC
  5
187
100
AcDbEntity
  8
1
  6
CONTINUOUS
 62
7
100
AcDbCircle
 10
229.8056780345013
 20
35.67296607122479
 30
0.000000000000000
 40
4.159105462284903
100
AcDbArc
 50
245.1171967047658
 51
294.8828032952342
  0
LINE
  5
188
100
AcDbEntity
  8
1
  6
CONTINUOUS
 62
7
100
AcDbLine
 10
224.5556780345002
 20
34.71386060893970
 30
0.000000000000000
 11
231.5556780345003
 21
34.71386060893976
 31
0.000000000000000
  0
LINE
  5
189
100
AcDbEntity
  8
1
  6
CONTINUOUS
 62
7
100
AcDbLine
 10
228.0556780345023
 20
34.32777227441736
 30
0.000000000000000
 11
228.0556780345023
 21
31.89994894345929
 31
0.000000000000000
  0
ARC
  5
18A
100
AcDbEntity
  8
1
  6
CONTINUOUS
 62
7
100
AcDbCircle
 10
450.0593243869928
 20
279.3772758040180
 30
0.000000000000000
 40
3.799999999999998
100
AcDbArc
 50
37.08045784877992
 51
82.91954215121996
  0
ARC
  5
18B
100
AcDbEntity
  8
1
  6
CONTINUOUS
 62
7
100
AcDbCircle
 10
450.0593243869928
 20
279.3772758040180
 30
0.000000000000000
 40
3.799999999999998
100
AcDbArc
 50
277.0804578487787
 51
322.9195421512212
  0
CIRCLE
  5
18C
100
AcDbEntity
  8
1
  6
CONTINUOUS
 62
7
100
AcDbCircle
 10
450.0593243869928
 20
279.3772758040180
 30
0.000000000000000
 40
2.000000000000000
  0
LINE
  5
18D
100
AcDbEntity
  8
1
  6
CONTINUOUS
 62
7
100
AcDbLine
 10
453.5593243869928
 20
277.3565498618439
 30
0.000000000000000
 11
450.0593243869929
 21
275.3358239196802
 31
0.000000000000000
  0
LINE
  5
18E
100
AcDbEntity
  8
1
  6
CONTINUOUS
 62
7
100
AcDbLine
 10
453.5593243869927
 20
281.3980017461921
 30
0.000000000000000
 11
450.0593243869928
 21
283.4187276883555
 31
0.000000000000000
  0
LINE
  5
18F
100
AcDbEntity
  8
4
  6
CENTER
 62
1
100
AcDbLine
 10
444.9937431998064
 20
279.3772758040180
 30
0.000000000000000
 11
455.1249055741791
 21
279.3772758040180
 31
0.000000000000000
  0
ARC
  5
190
100
AcDbEntity
  8
1
  6
CONTINUOUS
 62
7
100
AcDbCircle
 10
450.0593243869928
 20
279.3772758040180
 30
0.000000000000000
 40
3.799999999999998
100
AcDbArc
 50
337.0804578484308
 51
382.9195421515697
  0
LINE
  5
191
100
AcDbEntity
  8
1
  6
CONTINUOUS
 62
7
100
AcDbLine
 10
453.5593243869928
 20
277.3565498618439
 30
0.000000000000000
 11
453.5593243869928
 21
281.3980017461921
 31
0.000000000000000
  0
ARC
  5
192
100
AcDbEntity
  8
1
  6
CONTINUOUS
 62
7
100
AcDbCircle
 10
450.0593243869928
 20
279.3772758040180
 30
0.000000000000000
 40
3.799999999999998
100
AcDbArc
 50
217.0804578487778
 51
262.9195421512221
  0
ARC
  5
193
100
AcDbEntity
  8
1
  6
CONTINUOUS
 62
7
100
AcDbCircle
 10
450.0593243869928
 20
279.3772758040180
 30
0.000000000000000
 40
3.799999999999998
100
AcDbArc
 50
157.0804578484303
 51
202.9195421515692
  0
ARC
  5
194
100
AcDbEntity
  8
1
  6
CONTINUOUS
 62
7
100
AcDbCircle
 10
450.0593243869928
 20
279.3772758040180
 30
0.000000000000000
 40
3.799999999999998
100
AcDbArc
 50
97.08045784877883
 51
142.9195421512211
  0
LINE
  5
195
100
AcDbEntity
  8
1
  6
CONTINUOUS
 62
7
100
AcDbLine
 10
446.5593243869927
 20
277.3565498618439
 30
0.000000000000000
 11
446.5593243869927
 21
281.3980017461921
 31
0.000000000000000
  0
LINE
  5
196
100
AcDbEntity
  8
1
  6
CONTINUOUS
 62
7
100
AcDbLine
 10
446.5593243869927
 20
277.3565498618438
 30
0.000000000000000
 11
450.0593243869928
 21
275.3358239196801
 31
0.000000000000000
  0
LINE
  5
197
100
AcDbEntity
  8
1
  6
CONTINUOUS
 62
7
100
AcDbLine
 10
446.5593243869927
 20
281.3980017461921
 30
0.000000000000000
 11
450.0593243869927
 21
283.4187276883555
 31
0.000000000000000
  0
LINE
  5
198
100
AcDbEntity
  8
4
  6
CENTER
 62
1
100
AcDbLine
 10
450.0593243869928
 20
274.3116946168316
 30
0.000000000000000
 11
450.0593243869928
 21
284.4428569912043
 31
0.000000000000000
  0
LINE
  5
199
100
AcDbEntity
  8
1
  6
CONTINUOUS
 62
7
100
AcDbLine
 10
231.5556780345002
 20
31.51386060893989
 30
0.000000000000000
 11
231.5556780345003
 21
34.71386060893976
 31
0.000000000000000
  0
LINE
  5
19A
100
AcDbEntity
  8
1
  6
CONTINUOUS
 62
7
100
AcDbLine
 10
224.5556780345003
 20
31.51386060893989
 30
0.000000000000000
 11
224.5556780345002
 21
34.71386060893970
 31
0.000000000000000
  0
ARC
  5
19B
100
AcDbEntity
  8
1
  6
CONTINUOUS
 62
7
100
AcDbCircle
 10
229.8056780345013
 20
30.55475514665487
 30
0.000000000000000
 40
4.159105462284903
100
AcDbArc
 50
65.11719670476572
 51
114.8828032952341
  0
ARC
  5
19C
100
AcDbEntity
  8
1
  6
CONTINUOUS
 62
7
100
AcDbCircle
 10
226.3056780345075
 20
35.67296607122479
 30
0.000000000000000
 40
4.159105462284903
100
AcDbArc
 50
245.1171967047656
 51
294.8828032952342
  0
ARC
  5
19D
100
AcDbEntity
  8
1
  6
CONTINUOUS
 62
7
100
AcDbCircle
 10
226.3056780345075
 20
30.55475514665487
 30
0.000000000000000
 40
4.159105462284903
100
AcDbArc
 50
65.11719670476587
 51
114.8828032952342
  0
LINE
  5
19E
100
AcDbEntity
  8
4
  6
CENTER
 62
1
100
AcDbLine
 10
163.0556780345129
 20
47.10720262167021
 30
0.000000000000000
 11
163.0556780345003
 21
28.51386060893989
 31
0.000000000000000
  0
LINE
  5
19F
100
AcDbEntity
  8
1
  6
CONTINUOUS
 62
7
100
AcDbLine
 10
163.0556780345025
 20
34.32777227441736
 30
0.000000000000000
 11
163.0556780345025
 21
31.89994894345929
 31
0.000000000000000
  0
LINE
  5
1A0
100
AcDbEntity
  8
1
  6
CONTINUOUS
 62
7
100
AcDbLine
 10
159.5556780345004
 20
31.51386060893989
 30
0.000000000000000
 11
159.5556780345004
 21
34.71386060893970
 31
0.000000000000000
  0
LINE
  5
1A1
100
AcDbEntity
  8
1
  6
CONTINUOUS
 62
7
100
AcDbLine
 10
166.5556780345004
 20
31.51386060893989
 30
0.000000000000000
 11
166.5556780345004
 21
34.71386060893976
 31
0.000000000000000
  0
LINE
  5
1A2
100
AcDbEntity
  8
1
  6
CONTINUOUS
 62
7
100
AcDbLine
 10
159.5556780345004
 20
31.51386060893989
 30
0.000000000000000
 11
166.5556780345004
 21
31.51386060893989
 31
0.000000000000000
  0
ARC
  5
1A3
100
AcDbEntity
  8
1
  6
CONTINUOUS
 62
7
100
AcDbCircle
 10
164.8056780345014
 20
35.67296607122479
 30
0.000000000000000
 40
4.159105462284903
100
AcDbArc
 50
245.1171967047658
 51
294.8828032952342
  0
ARC
  5
1A4
100
AcDbEntity
  8
1
  6
CONTINUOUS
 62
7
100
AcDbCircle
 10
161.3056780345076
 20
35.67296607122479
 30
0.000000000000000
 40
4.159105462284903
100
AcDbArc
 50
245.1171967047656
 51
294.8828032952342
  0
LINE
  5
1A5
100
AcDbEntity
  8
1
  6
CONTINUOUS
 62
7
100
AcDbLine
 10
159.2556780345107
 20
42.67559001242577
 30
0.000000000000000
 11
166.8556780345107
 21
42.67559001243713
 31
0.000000000000000
  0
LINE
  5
1A6
100
AcDbEntity
  8
1
  6
CONTINUOUS
 62
7
100
AcDbLine
 10
166.8556780345107
 20
41.67559001242577
 30
0.000000000000000
 11
159.2556780345107
 21
41.67559001242577
 31
0.000000000000000
  0
LINE
  5
1A7
100
AcDbEntity
  8
1
  6
CONTINUOUS
 62
7
100
AcDbLine
 10
159.2556780345107
 20
42.67559001242577
 30
0.000000000000000
 11
159.2556780345107
 21
41.67559001242577
 31
0.000000000000000
  0
LINE
  5
1A8
100
AcDbEntity
  8
1
  6
CONTINUOUS
 62
7
100
AcDbLine
 10
166.8556780345107
 20
42.67559001242577
 30
0.000000000000000
 11
166.8556780345107
 21
41.67559001242577
 31
0.000000000000000
  0
LINE
  5
1A9
100
AcDbEntity
  8
1
  6
CONTINUOUS
 62
7
100
AcDbLine
 10
162.2165784033318
 20
42.67559001242578
 30
0.000000000000000
 11
163.0556780345092
 21
41.67559001242577
 31
0.000000000000000
  0
LINE
  5
1AA
100
AcDbEntity
  8
1
  6
CONTINUOUS
 62
7
100
AcDbLine
 10
163.0556780345099
 20
42.67559001243146
 30
0.000000000000000
 11
163.8947776656873
 21
41.67559001243146
 31
0.000000000000000
  0
LINE
  5
1AB
100
AcDbEntity
  8
1
  6
CONTINUOUS
 62
7
100
AcDbLine
 10
159.5556780345004
 20
34.71386060893970
 30
0.000000000000000
 11
166.5556780345004
 21
34.71386060893976
 31
0.000000000000000
  0
ARC
  5
1AC
100
AcDbEntity
  8
1
  6
CONTINUOUS
 62
7
100
AcDbCircle
 10
164.8056780345014
 20
30.55475514665487
 30
0.000000000000000
 40
4.159105462284903
100
AcDbArc
 50
65.11719670476572
 51
114.8828032952341
  0
ARC
  5
1AD
100
AcDbEntity
  8
1
  6
CONTINUOUS
 62
7
100
AcDbCircle
 10
161.3056780345076
 20
30.55475514665487
 30
0.000000000000000
 40
4.159105462284903
100
AcDbArc
 50
65.11719670476587
 51
114.8828032952342
  0
LINE
  5
1AE
100
AcDbEntity
  8
4
  6
CENTER
 62
1
100
AcDbLine
 10
515.0593243869924
 20
274.3116946168799
 30
0.000000000000000
 11
515.0593243869924
 21
284.4428569912527
 31
0.000000000000000
  0
LINE
  5
1AF
100
AcDbEntity
  8
1
  6
CONTINUOUS
 62
7
100
AcDbLine
 10
518.5593243869924
 20
277.3565498618922
 30
0.000000000000000
 11
518.5593243869924
 21
281.3980017462404
 31
0.000000000000000
  0
LINE
  5
1B0
100
AcDbEntity
  8
1
  6
CONTINUOUS
 62
7
100
AcDbLine
 10
511.5593243869924
 20
277.3565498618922
 30
0.000000000000000
 11
511.5593243869924
 21
281.3980017462404
 31
0.000000000000000
  0
CIRCLE
  5
1B1
100
AcDbEntity
  8
1
  6
CONTINUOUS
 62
7
100
AcDbCircle
 10
515.0593243869924
 20
279.3772758040663
 30
0.000000000000000
 40
2.000000000000000
  0
LINE
  5
1B2
100
AcDbEntity
  8
1
  6
CONTINUOUS
 62
7
100
AcDbLine
 10
518.5593243869923
 20
277.3565498618921
 30
0.000000000000000
 11
515.0593243869923
 21
275.3358239197285
 31
0.000000000000000
  0
ARC
  5
1B3
100
AcDbEntity
  8
1
  6
CONTINUOUS
 62
7
100
AcDbCircle
 10
515.0593243869924
 20
279.3772758040663
 30
0.000000000000000
 40
3.799999999999998
100
AcDbArc
 50
277.0804578487787
 51
322.9195421512212
  0
LINE
  5
1B4
100
AcDbEntity
  8
4
  6
CENTER
 62
1
100
AcDbLine
 10
509.9937431998061
 20
279.3772758040663
 30
0.000000000000000
 11
520.1249055741787
 21
279.3772758040663
 31
0.000000000000000
  0
ARC
  5
1B5
100
AcDbEntity
  8
1
  6
CONTINUOUS
 62
7
100
AcDbCircle
 10
515.0593243869924
 20
279.3772758040663
 30
0.000000000000000
 40
3.799999999999998
100
AcDbArc
 50
157.0804578484303
 51
202.9195421515692
  0
LINE
  5
1B6
100
AcDbEntity
  8
1
  6
CONTINUOUS
 62
7
100
AcDbLine
 10
511.5593243869924
 20
277.3565498618921
 30
0.000000000000000
 11
515.0593243869924
 21
275.3358239197285
 31
0.000000000000000
  0
ARC
  5
1B7
100
AcDbEntity
  8
1
  6
CONTINUOUS
 62
7
100
AcDbCircle
 10
515.0593243869924
 20
279.3772758040663
 30
0.000000000000000
 40
3.799999999999998
100
AcDbArc
 50
217.0804578487778
 51
262.9195421512221
  0
ARC
  5
1B8
100
AcDbEntity
  8
1
  6
CONTINUOUS
 62
7
100
AcDbCircle
 10
515.0593243869924
 20
279.3772758040663
 30
0.000000000000000
 40
3.799999999999998
100
AcDbArc
 50
337.0804578484308
 51
382.9195421515697
  0
LINE
  5
1B9
100
AcDbEntity
  8
1
  6
CONTINUOUS
 62
7
100
AcDbLine
 10
518.5593243869923
 20
281.3980017462404
 30
0.000000000000000
 11
515.0593243869923
 21
283.4187276884041
 31
0.000000000000000
  0
ARC
  5
1BA
100
AcDbEntity
  8
1
  6
CONTINUOUS
 62
7
100
AcDbCircle
 10
515.0593243869924
 20
279.3772758040663
 30
0.000000000000000
 40
3.799999999999998
100
AcDbArc
 50
37.08045784877992
 51
82.91954215121996
  0
LINE
  5
1BB
100
AcDbEntity
  8
1
  6
CONTINUOUS
 62
7
100
AcDbLine
 10
511.5593243869924
 20
281.3980017462404
 30
0.000000000000000
 11
515.0593243869923
 21
283.4187276884041
 31
0.000000000000000
  0
ARC
  5
1BC
100
AcDbEntity
  8
1
  6
CONTINUOUS
 62
7
100
AcDbCircle
 10
515.0593243869924
 20
279.3772758040663
 30
0.000000000000000
 40
3.799999999999998
100
AcDbArc
 50
97.08045784877883
 51
142.9195421512211
  0
CIRCLE
  5
1BD
100
AcDbEntity
  8
2
  6
CONTINUOUS
 62
4
100
AcDbCircle
 10
450.0593243869928
 20
255.4758439930677
 30
0.000000000000000
 40
1.621000000131630
  0
CIRCLE
  5
1BE
100
AcDbEntity
  8
1
  6
CONTINUOUS
 62
7
100
AcDbCircle
 10
450.0593243869928
 20
255.4758439930677
 30
0.000000000000000
 40
2.000000000131592
  0
CIRCLE
  5
1BF
100
AcDbEntity
  8
2
  6
CONTINUOUS
 62
4
100
AcDbCircle
 10
515.0593243869924
 20
255.4758439931158
 30
0.000000000000000
 40
1.621000000131630
  0
CIRCLE
  5
1C0
100
AcDbEntity
  8
1
  6
CONTINUOUS
 62
7
100
AcDbCircle
 10
515.0593243869924
 20
255.4758439931158
 30
0.000000000000000
 40
2.000000000131592
  0
CIRCLE
  5
1C1
100
AcDbEntity
  8
2
  6
CONTINUOUS
 62
4
100
AcDbCircle
 10
515.0593243868200
 20
145.4758439930863
 30
0.000000000000000
 40
1.621000000131630
  0
CIRCLE
  5
1C2
100
AcDbEntity
  8
1
  6
CONTINUOUS
 62
7
100
AcDbCircle
 10
515.0593243868200
 20
145.4758439930863
 30
0.000000000000000
 40
2.000000000131592
  0
CIRCLE
  5
1C3
100
AcDbEntity
  8
2
  6
CONTINUOUS
 62
4
100
AcDbCircle
 10
450.0593243868203
 20
145.4758439933383
 30
0.000000000000000
 40
1.621000000131630
  0
CIRCLE
  5
1C4
100
AcDbEntity
  8
1
  6
CONTINUOUS
 62
7
100
AcDbCircle
 10
450.0593243868203
 20
145.4758439933383
 30
0.000000000000000
 40
2.000000000131592
  0
LINE
  5
1C5
100
AcDbEntity
  8
1
  6
CONTINUOUS
 62
7
100
AcDbLine
 10
45.51606315886511
 20
163.2258439931496
 30
0.000000000000000
 11
45.51606315892968
 21
237.7258439931715
 31
0.000000000000000
  0
LINE
  5
1C6
100
AcDbEntity
  8
1
  6
CONTINUOUS
 62
7
100
AcDbLine
 10
66.01607768495114
 20
132.5512569386976
 30
0.000000000000000
 11
66.01607768496501
 21
268.4004310471253
 31
0.000000000000000
  0
LINE
  5
1C7
100
AcDbEntity
  8
1
  6
CONTINUOUS
 62
7
100
AcDbLine
 10
67.06606315902765
 20
131.4758439929221
 30
0.000000000000000
 11
67.06606315902765
 21
269.4758439929007
 31
0.000000000000000
  0
LINE
  5
1C8
100
AcDbEntity
  8
1
  6
CONTINUOUS
 62
7
100
AcDbLine
 10
71.51606315902769
 20
136.9827815923310
 30
0.000000000000000
 11
71.51606315902769
 21
263.9689063934920
 31
0.000000000000000
  0
LINE
  5
1C9
100
AcDbEntity
  8
4
  6
CENTER
 62
1
100
AcDbLine
 10
24.58829188637446
 20
145.4758439929749
 30
0.000000000000000
 11
5.994949873644144
 21
145.4758439929624
 31
0.000000000000000
  0
LINE
  5
1CA
100
AcDbEntity
  8
1
  6
CONTINUOUS
 62
7
100
AcDbLine
 10
20.15667927712070
 20
149.2758439933018
 30
0.000000000000000
 11
20.15667927713047
 21
141.6758439933020
 31
0.000000000000000
  0
LINE
  5
1CB
100
AcDbEntity
  8
1
  6
CONTINUOUS
 62
7
100
AcDbLine
 10
19.15667927711911
 20
141.6758439933021
 30
0.000000000000000
 11
19.15667927712046
 21
149.2758439933021
 31
0.000000000000000
  0
LINE
  5
1CC
100
AcDbEntity
  8
1
  6
CONTINUOUS
 62
7
100
AcDbLine
 10
20.15667927712558
 20
145.4758439929719
 30
0.000000000000000
 11
19.15667927712536
 21
144.6367443617947
 31
0.000000000000000
  0
LINE
  5
1CD
100
AcDbEntity
  8
1
  6
CONTINUOUS
 62
7
100
AcDbLine
 10
56.61607768498106
 20
143.4758439931037
 30
0.000000000000000
 11
56.61607768497901
 21
147.4758439931037
 31
0.000000000000000
  0
LINE
  5
1CE
100
AcDbEntity
  8
1
  6
CONTINUOUS
 62
7
100
AcDbLine
 10
67.06606315902765
 20
131.4758439929222
 30
0.000000000000000
 11
66.01607768496478
 21
132.5512569386976
 31
0.000000000000000
  0
LINE
  5
1CF
100
AcDbEntity
  8
1
  6
CONTINUOUS
 62
7
100
AcDbLine
 10
71.12955226482291
 20
135.9777233794522
 30
0.000000000000000
 11
67.06606315902766
 21
131.4758439929221
 31
0.000000000000000
  0
ARC
  5
1D0
100
AcDbEntity
  8
1
  6
CONTINUOUS
 62
7
100
AcDbCircle
 10
70.01606315902768
 20
136.9827815923310
 30
0.000000000000000
 40
1.500000000000000
100
AcDbArc
 50
317.9299398618898
 51
360.0000000000000
  0
LINE
  5
1D1
100
AcDbEntity
  8
2
  6
CONTINUOUS
 62
4
100
AcDbLine
 10
66.01607768495226
 20
143.8548439931084
 30
0.000000000000000
 11
56.61607768498106
 21
143.8548439931038
 31
0.000000000000000
  0
LINE
  5
1D2
100
AcDbEntity
  8
1
  6
CONTINUOUS
 62
7
100
AcDbLine
 10
66.01607768495205
 20
143.4758439931084
 30
0.000000000000000
 11
56.61607768498106
 21
143.4758439931037
 31
0.000000000000000
  0
LINE
  5
1D3
100
AcDbEntity
  8
1
  6
CONTINUOUS
 62
7
100
AcDbLine
 10
20.15667927711910
 20
141.6758439933019
 30
0.000000000000000
 11
19.15667927711911
 21
141.6758439933021
 31
0.000000000000000
  0
LINE
  5
1D4
100
AcDbEntity
  8
4
  6
CENTER
 62
1
100
AcDbLine
 10
73.01606315906680
 20
145.4758439930018
 30
0.000000000000000
 11
53.20109788561030
 21
145.4758439929925
 31
0.000000000000000
  0
ARC
  5
1D5
100
AcDbEntity
  8
1
  6
CONTINUOUS
 62
7
100
AcDbCircle
 10
54.01606315892968
 20
163.2258439931771
 30
0.000000000000000
 40
8.500000000000000
100
AcDbArc
 50
180.0000000000000
 51
270.0000000000000
  0
LINE
  5
1D6
100
AcDbEntity
  8
2
  6
CONTINUOUS
 62
4
100
AcDbLine
 10
66.01607768495249
 20
147.0968439931084
 30
0.000000000000000
 11
56.61607768497924
 21
147.0968439931037
 31
0.000000000000000
  0
LINE
  5
1D7
100
AcDbEntity
  8
1
  6
CONTINUOUS
 62
7
100
AcDbLine
 10
66.01607768495249
 20
147.4758439931084
 30
0.000000000000000
 11
56.61607768497901
 21
147.4758439931037
 31
0.000000000000000
  0
LINE
  5
1D8
100
AcDbEntity
  8
1
  6
CONTINUOUS
 62
7
100
AcDbLine
 10
66.01607768495340
 20
154.7258439931495
 30
0.000000000000000
 11
54.01606315891559
 21
154.7258439931698
 31
0.000000000000000
  0
LINE
  5
1D9
100
AcDbEntity
  8
1
  6
CONTINUOUS
 62
7
100
AcDbLine
 10
47.51606315892968
 20
163.7258439931813
 30
0.000000000000000
 11
64.51606315892968
 21
163.7258439931813
 31
0.000000000000000
  0
LINE
  5
1DA
100
AcDbEntity
  8
1
  6
CONTINUOUS
 62
7
100
AcDbLine
 10
20.15667927712070
 20
149.2758439933018
 30
0.000000000000000
 11
19.15667927712070
 21
149.2758439933021
 31
0.000000000000000
  0
LINE
  5
1DB
100
AcDbEntity
  8
1
  6
CONTINUOUS
 62
7
100
AcDbLine
 10
20.15667927712001
 20
146.3149436241485
 30
0.000000000000000
 11
19.15667927711979
 21
145.4758439929713
 31
0.000000000000000
  0
ARC
  5
1DC
100
AcDbEntity
  8
1
  6
CONTINUOUS
 62
7
100
AcDbCircle
 10
14.47607576757945
 20
145.4758439933044
 30
0.000000000000000
 40
5.481125893945623
100
AcDbArc
 50
158.3663922326316
 51
201.6336077673378
  0
ARC
  5
1DD
100
AcDbEntity
  8
1
  6
CONTINUOUS
 62
7
100
AcDbCircle
 10
6.713823979688186
 20
145.4758439933057
 30
0.000000000000000
 40
5.481125893945623
100
AcDbArc
 50
338.3663922326330
 51
381.6336077673393
  0
LINE
  5
1DE
100
AcDbEntity
  8
1
  6
CONTINUOUS
 62
7
100
AcDbLine
 10
8.994949873634596
 20
148.9758439933055
 30
0.000000000000000
 11
8.994949873633232
 21
141.9758439933055
 31
0.000000000000000
  0
LINE
  5
1DF
100
AcDbEntity
  8
1
  6
CONTINUOUS
 62
7
100
AcDbLine
 10
12.19494987363458
 20
148.9758439933044
 30
0.000000000000000
 11
12.19494987363310
 21
141.9758439933049
 31
0.000000000000000
  0
LINE
  5
1E0
100
AcDbEntity
  8
1
  6
CONTINUOUS
 62
7
100
AcDbLine
 10
11.88234248246340
 20
141.4343921089776
 30
0.000000000000000
 11
9.307557264802881
 21
141.4343921089780
 31
0.000000000000000
  0
LINE
  5
1E1
100
AcDbEntity
  8
1
  6
CONTINUOUS
 62
7
100
AcDbLine
 10
11.80886153911251
 20
143.4551180511416
 30
0.000000000000000
 11
9.381038208154450
 21
143.4551180511419
 31
0.000000000000000
  0
LINE
  5
1E2
100
AcDbEntity
  8
1
  6
CONTINUOUS
 62
7
100
AcDbLine
 10
11.88234248246340
 20
141.4343921089776
 30
0.000000000000000
 11
12.19494987363304
 21
141.9758439933048
 31
0.000000000000000
  0
ARC
  5
1E3
100
AcDbEntity
  8
1
  6
CONTINUOUS
 62
7
100
AcDbCircle
 10
10.67988527470083
 20
142.4447550800596
 30
0.000000000000000
 40
1.515064598932305
100
AcDbArc
 50
359.9999999994153
 51
401.8265480895065
  0
LINE
  5
1E4
100
AcDbEntity
  8
1
  6
CONTINUOUS
 62
7
100
AcDbLine
 10
9.307557264802654
 20
141.4343921089780
 30
0.000000000000000
 11
8.994949873633232
 21
141.9758439933054
 31
0.000000000000000
  0
ARC
  5
1E5
100
AcDbEntity
  8
1
  6
CONTINUOUS
 62
7
100
AcDbCircle
 10
10.51001447256567
 20
142.4447550800598
 30
0.000000000000000
 40
1.515064598932305
100
AcDbArc
 50
138.1734519104689
 51
180.0000000005569
  0
LINE
  5
1E6
100
AcDbEntity
  8
1
  6
CONTINUOUS
 62
7
100
AcDbLine
 10
11.80886153911319
 20
147.4965699354688
 30
0.000000000000000
 11
9.381038208155132
 21
147.4965699354693
 31
0.000000000000000
  0
LINE
  5
1E7
100
AcDbEntity
  8
1
  6
CONTINUOUS
 62
7
100
AcDbLine
 10
11.88234248246499
 20
149.5172958776322
 30
0.000000000000000
 11
9.307557264804473
 21
149.5172958776327
 31
0.000000000000000
  0
ARC
  5
1E8
100
AcDbEntity
  8
1
  6
CONTINUOUS
 62
7
100
AcDbCircle
 10
10.67988527470288
 20
148.5069329065507
 30
0.000000000000000
 40
1.515064598931414
100
AcDbArc
 50
318.1734519104542
 51
359.9999999994153
  0
LINE
  5
1E9
100
AcDbEntity
  8
1
  6
CONTINUOUS
 62
7
100
AcDbLine
 10
11.88234248246499
 20
149.5172958776322
 30
0.000000000000000
 11
12.19494987363442
 21
148.9758439933047
 31
0.000000000000000
  0
ARC
  5
1EA
100
AcDbEntity
  8
1
  6
CONTINUOUS
 62
7
100
AcDbCircle
 10
10.51001447256590
 20
148.5069329065507
 30
0.000000000000000
 40
1.515064598931414
100
AcDbArc
 50
180.0000000005569
 51
221.8265480895169
  0
LINE
  5
1EB
100
AcDbEntity
  8
1
  6
CONTINUOUS
 62
7
100
AcDbLine
 10
9.307557264804473
 20
149.5172958776327
 30
0.000000000000000
 11
8.994949873634610
 21
148.9758439933055
 31
0.000000000000000
  0
LINE
  5
1EC
100
AcDbEntity
  8
4
  6
CENTER
 62
1
100
AcDbLine
 10
24.58829188637446
 20
255.4758439930107
 30
0.000000000000000
 11
5.994949873644144
 21
255.4758439929981
 31
0.000000000000000
  0
LINE
  5
1ED
100
AcDbEntity
  8
4
  6
CENTER
 62
1
100
AcDbLine
 10
80.15057080576548
 20
200.4758439931494
 30
0.000000000000000
 11
40.65267589723953
 21
200.4758439931570
 31
0.000000000000000
  0
LINE
  5
1EE
100
AcDbEntity
  8
1
  6
CONTINUOUS
 62
7
100
AcDbLine
 10
67.06606315902766
 20
269.4758439929008
 30
0.000000000000000
 11
66.01607768496478
 21
268.4004310471251
 31
0.000000000000000
  0
LINE
  5
1EF
100
AcDbEntity
  8
4
  6
CENTER
 62
1
100
AcDbLine
 10
73.01606315906680
 20
255.4758439930375
 30
0.000000000000000
 11
53.20109788561030
 21
255.4758439930282
 31
0.000000000000000
  0
ARC
  5
1F0
100
AcDbEntity
  8
1
  6
CONTINUOUS
 62
7
100
AcDbCircle
 10
70.01606315902768
 20
263.9689063934920
 30
0.000000000000000
 40
1.500000000000000
100
AcDbArc
 50
6.999999999999999e-15
 51
42.07006013811009
  0
LINE
  5
1F1
100
AcDbEntity
  8
1
  6
CONTINUOUS
 62
7
100
AcDbLine
 10
71.12955226482291
 20
264.9739646063705
 30
0.000000000000000
 11
67.06606315902764
 21
269.4758439929005
 31
0.000000000000000
  0
ARC
  5
1F2
100
AcDbEntity
  8
1
  6
CONTINUOUS
 62
7
100
AcDbCircle
 10
54.01606315899448
 20
237.7258439931293
 30
0.000000000000000
 40
8.500000000000000
100
AcDbArc
 50
89.99999999990230
 51
179.9999999999006
  0
LINE
  5
1F3
100
AcDbEntity
  8
1
  6
CONTINUOUS
 62
7
100
AcDbLine
 10
47.51606315899358
 20
237.2258439931365
 30
0.000000000000000
 11
64.51606315899357
 21
237.2258439931070
 31
0.000000000000000
  0
LINE
  5
1F4
100
AcDbEntity
  8
1
  6
CONTINUOUS
 62
7
100
AcDbLine
 10
66.01606315906677
 20
246.2258439931722
 30
0.000000000000000
 11
54.01606315898880
 21
246.2258439931641
 31
0.000000000000000
  0
LINE
  5
1F5
100
AcDbEntity
  8
1
  6
CONTINUOUS
 62
7
100
AcDbLine
 10
56.61607768500426
 20
257.4758439932029
 30
0.000000000000000
 11
56.61607768500061
 21
253.4758439932029
 31
0.000000000000000
  0
LINE
  5
1F6
100
AcDbEntity
  8
2
  6
CONTINUOUS
 62
4
100
AcDbLine
 10
66.01607768496363
 20
257.0968439931945
 30
0.000000000000000
 11
56.61607768500402
 21
257.0968439932028
 31
0.000000000000000
  0
LINE
  5
1F7
100
AcDbEntity
  8
2
  6
CONTINUOUS
 62
4
100
AcDbLine
 10
66.01607768496342
 20
253.8548439931943
 30
0.000000000000000
 11
56.61607768500108
 21
253.8548439932028
 31
0.000000000000000
  0
LINE
  5
1F8
100
AcDbEntity
  8
1
  6
CONTINUOUS
 62
7
100
AcDbLine
 10
66.01607768496386
 20
257.4758439931943
 30
0.000000000000000
 11
56.61607768500426
 21
257.4758439932028
 31
0.000000000000000
  0
LINE
  5
1F9
100
AcDbEntity
  8
1
  6
CONTINUOUS
 62
7
100
AcDbLine
 10
66.01607768496319
 20
253.4758439931943
 30
0.000000000000000
 11
56.61607768500061
 21
253.4758439932028
 31
0.000000000000000
  0
LINE
  5
1FA
100
AcDbEntity
  8
1
  6
CONTINUOUS
 62
7
100
AcDbLine
 10
20.15667927713002
 20
259.2758439930085
 30
0.000000000000000
 11
19.15667927713002
 21
259.2758439930085
 31
0.000000000000000
  0
LINE
  5
1FB
100
AcDbEntity
  8
1
  6
CONTINUOUS
 62
7
100
AcDbLine
 10
20.15667927713002
 20
251.6758439930085
 30
0.000000000000000
 11
19.15667927713002
 21
251.6758439930085
 31
0.000000000000000
  0
LINE
  5
1FC
100
AcDbEntity
  8
1
  6
CONTINUOUS
 62
7
100
AcDbLine
 10
20.15667927713002
 20
251.6758439930085
 30
0.000000000000000
 11
20.15667927714139
 21
259.2758439930085
 31
0.000000000000000
  0
LINE
  5
1FD
100
AcDbEntity
  8
1
  6
CONTINUOUS
 62
7
100
AcDbLine
 10
19.15667927713002
 20
259.2758439930085
 30
0.000000000000000
 11
19.15667927713002
 21
251.6758439930085
 31
0.000000000000000
  0
LINE
  5
1FE
100
AcDbEntity
  8
1
  6
CONTINUOUS
 62
7
100
AcDbLine
 10
20.15667927713000
 20
256.3149436241919
 30
0.000000000000000
 11
19.15667927713000
 21
255.4758439930143
 31
0.000000000000000
  0
LINE
  5
1FF
100
AcDbEntity
  8
1
  6
CONTINUOUS
 62
7
100
AcDbLine
 10
20.15667927713571
 20
255.4758439930137
 30
0.000000000000000
 11
19.15667927713571
 21
254.6367443618362
 31
0.000000000000000
  0
LINE
  5
200
100
AcDbEntity
  8
1
  6
CONTINUOUS
 62
7
100
AcDbLine
 10
9.307557264813795
 20
251.4343921086812
 30
0.000000000000000
 11
8.994949873643932
 21
251.9758439930087
 31
0.000000000000000
  0
LINE
  5
201
100
AcDbEntity
  8
1
  6
CONTINUOUS
 62
7
100
AcDbLine
 10
11.88234248247409
 20
251.4343921086813
 30
0.000000000000000
 11
12.19494987364396
 21
251.9758439930088
 31
0.000000000000000
  0
LINE
  5
202
100
AcDbEntity
  8
1
  6
CONTINUOUS
 62
7
100
AcDbLine
 10
11.88234248247408
 20
251.4343921086811
 30
0.000000000000000
 11
9.307557264813793
 21
251.4343921086811
 31
0.000000000000000
  0
LINE
  5
203
100
AcDbEntity
  8
1
  6
CONTINUOUS
 62
7
100
AcDbLine
 10
11.80886153912297
 20
253.4551180508445
 30
0.000000000000000
 11
9.381038208164908
 21
253.4551180508445
 31
0.000000000000000
  0
LINE
  5
204
100
AcDbEntity
  8
1
  6
CONTINUOUS
 62
7
100
AcDbLine
 10
11.80886153912297
 20
257.4965699351718
 30
0.000000000000000
 11
9.381038208164908
 21
257.4965699351718
 31
0.000000000000000
  0
LINE
  5
205
100
AcDbEntity
  8
1
  6
CONTINUOUS
 62
7
100
AcDbLine
 10
11.88234248247408
 20
259.5172958773360
 30
0.000000000000000
 11
9.307557264813793
 21
259.5172958773360
 31
0.000000000000000
  0
ARC
  5
206
100
AcDbEntity
  8
1
  6
CONTINUOUS
 62
7
100
AcDbCircle
 10
6.713823979698418
 20
255.4758439930086
 30
0.000000000000000
 40
5.481125893945623
100
AcDbArc
 50
338.3663922326491
 51
381.6336077673554
  0
ARC
  5
207
100
AcDbEntity
  8
1
  6
CONTINUOUS
 62
7
100
AcDbCircle
 10
10.67988527471243
 20
252.4447550797630
 30
0.000000000000000
 40
1.515064598931414
100
AcDbArc
 50
5.748477000000000e-10
 51
41.82654808953099
  0
ARC
  5
208
100
AcDbEntity
  8
1
  6
CONTINUOUS
 62
7
100
AcDbCircle
 10
10.67988527471152
 20
258.5069329062540
 30
0.000000000000000
 40
1.515064598932305
100
AcDbArc
 50
318.1734519104832
 51
360.0000000005749
  0
LINE
  5
209
100
AcDbEntity
  8
1
  6
CONTINUOUS
 62
7
100
AcDbLine
 10
11.88234248247407
 20
259.5172958773360
 30
0.000000000000000
 11
12.19494987364395
 21
258.9758439930087
 31
0.000000000000000
  0
LINE
  5
20A
100
AcDbEntity
  8
1
  6
CONTINUOUS
 62
7
100
AcDbLine
 10
12.19494987364396
 20
251.9758439930089
 30
0.000000000000000
 11
12.19494987364402
 21
258.9758439930087
 31
0.000000000000000
  0
LINE
  5
20B
100
AcDbEntity
  8
1
  6
CONTINUOUS
 62
7
100
AcDbLine
 10
9.307557264813596
 20
259.5172958773360
 30
0.000000000000000
 11
8.994949873643932
 21
258.9758439930087
 31
0.000000000000000
  0
ARC
  5
20C
100
AcDbEntity
  8
1
  6
CONTINUOUS
 62
7
100
AcDbCircle
 10
10.51001447257613
 20
258.5069329062540
 30
0.000000000000000
 40
1.515064598932305
100
AcDbArc
 50
179.9999999994316
 51
221.8265480895206
  0
ARC
  5
20D
100
AcDbEntity
  8
1
  6
CONTINUOUS
 62
7
100
AcDbCircle
 10
14.47607576758946
 20
255.4758439930086
 30
0.000000000000000
 40
5.481125893945623
100
AcDbArc
 50
158.3663922326507
 51
201.6336077673569
  0
ARC
  5
20E
100
AcDbEntity
  8
1
  6
CONTINUOUS
 62
7
100
AcDbCircle
 10
10.51001447257544
 20
252.4447550797630
 30
0.000000000000000
 40
1.515064598931414
100
AcDbArc
 50
138.1734519104726
 51
179.9999999994316
  0
LINE
  5
20F
100
AcDbEntity
  8
1
  6
CONTINUOUS
 62
7
100
AcDbLine
 10
8.994949873644144
 20
251.9758439930086
 30
0.000000000000000
 11
8.994949873644144
 21
258.9758439930085
 31
0.000000000000000
  0
LINE
  5
210
100
AcDbEntity
  8
1
  6
CONTINUOUS
 62
7
100
AcDbLine
 10
156.5557394812815
 20
317.3844515588682
 30
0.000000000000000
 11
234.5556165877836
 21
317.3844515588682
 31
0.000000000000000
  0
LINE
  5
211
100
AcDbEntity
  8
1
  6
CONTINUOUS
 62
7
100
AcDbLine
 10
152.6163382067641
 20
322.8844515588682
 30
0.000000000000000
 11
238.4950178626493
 21
322.8844515588682
 31
0.000000000000000
  0
LINE
  5
212
100
AcDbEntity
  8
1
  6
CONTINUOUS
 62
7
100
AcDbLine
 10
151.5556780347068
 20
321.8237913868086
 30
0.000000000000000
 11
239.5556780347069
 21
321.8237913868086
 31
0.000000000000000
  0
ARC
  5
213
100
AcDbEntity
  8
1
  6
CONTINUOUS
 62
7
100
AcDbCircle
 10
174.0556780354819
 20
334.8844515588743
 30
0.000000000000000
 40
8.500000000000000
100
AcDbArc
 50
90.00000000000006
 51
180.0000000000000
  0
LINE
  5
214
100
AcDbEntity
  8
4
  6
CENTER
 62
1
100
AcDbLine
 10
163.0556780345129
 20
353.8444853650112
 30
0.000000000000000
 11
163.0556780345003
 21
372.4378273777415
 31
0.000000000000000
  0
LINE
  5
215
100
AcDbEntity
  8
1
  6
CONTINUOUS
 62
7
100
AcDbLine
 10
159.5556780345004
 20
366.2378273777417
 30
0.000000000000000
 11
166.5556780345004
 21
366.2378273777417
 31
0.000000000000000
  0
ARC
  5
216
100
AcDbEntity
  8
1
  6
CONTINUOUS
 62
7
100
AcDbCircle
 10
164.8056780345014
 20
370.3969328400265
 30
0.000000000000000
 40
4.159105462284903
100
AcDbArc
 50
245.1171967047658
 51
294.8828032952342
  0
ARC
  5
217
100
AcDbEntity
  8
1
  6
CONTINUOUS
 62
7
100
AcDbCircle
 10
161.3056780345076
 20
370.3969328400265
 30
0.000000000000000
 40
4.159105462284903
100
AcDbArc
 50
245.1171967047656
 51
294.8828032952342
  0
LINE
  5
218
100
AcDbEntity
  8
1
  6
CONTINUOUS
 62
7
100
AcDbLine
 10
159.5556780345004
 20
369.4378273777415
 30
0.000000000000000
 11
166.5556780345004
 21
369.4378273777415
 31
0.000000000000000
  0
ARC
  5
219
100
AcDbEntity
  8
1
  6
CONTINUOUS
 62
7
100
AcDbCircle
 10
164.8056780345014
 20
365.2787219154566
 30
0.000000000000000
 40
4.159105462284903
100
AcDbArc
 50
65.11719670476572
 51
114.8828032952341
  0
ARC
  5
21A
100
AcDbEntity
  8
1
  6
CONTINUOUS
 62
7
100
AcDbCircle
 10
161.3056780345076
 20
365.2787219154566
 30
0.000000000000000
 40
4.159105462284903
100
AcDbArc
 50
65.11719670476587
 51
114.8828032952342
  0
LINE
  5
21B
100
AcDbEntity
  8
1
  6
CONTINUOUS
 62
7
100
AcDbLine
 10
163.0556780345025
 20
366.6239157122640
 30
0.000000000000000
 11
163.0556780345025
 21
369.0517390432221
 31
0.000000000000000
  0
LINE
  5
21C
100
AcDbEntity
  8
1
  6
CONTINUOUS
 62
7
100
AcDbLine
 10
159.5556780345004
 20
369.4378273777415
 30
0.000000000000000
 11
159.5556780345004
 21
366.2378273777417
 31
0.000000000000000
  0
LINE
  5
21D
100
AcDbEntity
  8
1
  6
CONTINUOUS
 62
7
100
AcDbLine
 10
166.5556780345004
 20
369.4378273777415
 30
0.000000000000000
 11
166.5556780345004
 21
366.2378273777417
 31
0.000000000000000
  0
LINE
  5
21E
100
AcDbEntity
  8
1
  6
CONTINUOUS
 62
7
100
AcDbLine
 10
159.2556780345107
 20
358.2760979742556
 30
0.000000000000000
 11
166.8556780345107
 21
358.2760979742443
 31
0.000000000000000
  0
LINE
  5
21F
100
AcDbEntity
  8
1
  6
CONTINUOUS
 62
7
100
AcDbLine
 10
166.8556780345107
 20
359.2760979742556
 30
0.000000000000000
 11
159.2556780345107
 21
359.2760979742556
 31
0.000000000000000
  0
LINE
  5
220
100
AcDbEntity
  8
1
  6
CONTINUOUS
 62
7
100
AcDbLine
 10
159.2556780345107
 20
358.2760979742556
 30
0.000000000000000
 11
159.2556780345107
 21
359.2760979742556
 31
0.000000000000000
  0
LINE
  5
221
100
AcDbEntity
  8
1
  6
CONTINUOUS
 62
7
100
AcDbLine
 10
166.8556780345107
 20
358.2760979742556
 30
0.000000000000000
 11
166.8556780345107
 21
359.2760979742556
 31
0.000000000000000
  0
LINE
  5
222
100
AcDbEntity
  8
1
  6
CONTINUOUS
 62
7
100
AcDbLine
 10
163.8947776656689
 20
358.2760979742555
 30
0.000000000000000
 11
163.0556780344915
 21
359.2760979742555
 31
0.000000000000000
  0
LINE
  5
223
100
AcDbEntity
  8
1
  6
CONTINUOUS
 62
7
100
AcDbLine
 10
163.0556780344908
 20
358.2760979742499
 30
0.000000000000000
 11
162.2165784033133
 21
359.2760979742499
 31
0.000000000000000
  0
LINE
  5
224
100
AcDbEntity
  8
1
  6
CONTINUOUS
 62
7
100
AcDbLine
 10
151.5556780347068
 20
321.8237913868086
 30
0.000000000000000
 11
155.4870065767346
 21
317.8319260348363
 31
0.000000000000000
  0
LINE
  5
225
100
AcDbEntity
  8
4
  6
CENTER
 62
1
100
AcDbLine
 10
163.0556780345320
 20
335.2844370329158
 30
0.000000000000000
 11
163.0556780345320
 21
315.8844515588682
 31
0.000000000000000
  0
LINE
  5
226
100
AcDbEntity
  8
1
  6
CONTINUOUS
 62
7
100
AcDbLine
 10
161.0556780346465
 20
322.8844515588682
 30
0.000000000000000
 11
161.0556780346420
 21
332.2844370329147
 31
0.000000000000000
  0
LINE
  5
227
100
AcDbEntity
  8
2
  6
CONTINUOUS
 62
4
100
AcDbLine
 10
161.4346780346464
 20
322.8844515588682
 30
0.000000000000000
 11
161.4346780346419
 21
332.2844370329149
 31
0.000000000000000
  0
LINE
  5
228
100
AcDbEntity
  8
2
  6
CONTINUOUS
 62
4
100
AcDbLine
 10
164.6766780346465
 20
322.8844515588682
 30
0.000000000000000
 11
164.6766780346420
 21
332.2844370329165
 31
0.000000000000000
  0
LINE
  5
229
100
AcDbEntity
  8
1
  6
CONTINUOUS
 62
7
100
AcDbLine
 10
165.0556780346465
 20
322.8844515588682
 30
0.000000000000000
 11
165.0556780346420
 21
332.2844370329167
 31
0.000000000000000
  0
LINE
  5
22A
100
AcDbEntity
  8
1
  6
CONTINUOUS
 62
7
100
AcDbLine
 10
165.5556780354819
 20
322.8844515588682
 30
0.000000000000000
 11
165.5556780354819
 21
334.8844515588743
 31
0.000000000000000
  0
LINE
  5
22B
100
AcDbEntity
  8
1
  6
CONTINUOUS
 62
7
100
AcDbLine
 10
161.0556780346419
 20
332.2844370329148
 30
0.000000000000000
 11
165.0556780346419
 21
332.2844370329167
 31
0.000000000000000
  0
LINE
  5
22C
100
AcDbEntity
  8
1
  6
CONTINUOUS
 62
7
100
AcDbLine
 10
151.5556780347068
 20
321.8237913868085
 30
0.000000000000000
 11
152.6163382067641
 21
322.8844515588682
 31
0.000000000000000
  0
ARC
  5
22D
100
AcDbEntity
  8
1
  6
CONTINUOUS
 62
7
100
AcDbCircle
 10
156.5557394812815
 20
318.8844515588682
 30
0.000000000000000
 40
1.500000000000000
100
AcDbArc
 50
224.5622426674569
 51
270.0000000000000
  0
ARC
  5
22E
100
AcDbEntity
  8
1
  6
CONTINUOUS
 62
7
100
AcDbCircle
 10
207.0556780341902
 20
323.3844515588743
 30
0.000000000000000
 40
20.00000000000000
100
AcDbArc
 50
18.19487233460964
 51
90.00000000000006
  0
LINE
  5
22F
100
AcDbEntity
  8
4
  6
CENTER
 62
1
100
AcDbLine
 10
195.5556780345319
 20
344.8766512242682
 30
0.000000000000000
 11
195.5556780345319
 21
314.3844515588682
 31
0.000000000000000
  0
LINE
  5
230
100
AcDbEntity
  8
1
  6
CONTINUOUS
 62
7
100
AcDbLine
 10
174.0556780354818
 20
343.3844515588743
 30
0.000000000000000
 11
207.0556780341902
 21
343.3844515588743
 31
0.000000000000000
  0
LINE
  5
231
100
AcDbEntity
  8
4
  6
CENTER
 62
1
100
AcDbLine
 10
228.0556780345128
 20
353.8444853650112
 30
0.000000000000000
 11
228.0556780345002
 21
372.4378273777415
 31
0.000000000000000
  0
ARC
  5
232
100
AcDbEntity
  8
1
  6
CONTINUOUS
 62
7
100
AcDbCircle
 10
226.3056780345075
 20
370.3969328400265
 30
0.000000000000000
 40
4.159105462284903
100
AcDbArc
 50
245.1171967047656
 51
294.8828032952342
  0
ARC
  5
233
100
AcDbEntity
  8
1
  6
CONTINUOUS
 62
7
100
AcDbCircle
 10
229.8056780345013
 20
370.3969328400265
 30
0.000000000000000
 40
4.159105462284903
100
AcDbArc
 50
245.1171967047658
 51
294.8828032952342
  0
LINE
  5
234
100
AcDbEntity
  8
1
  6
CONTINUOUS
 62
7
100
AcDbLine
 10
224.5556780345002
 20
366.2378273777417
 30
0.000000000000000
 11
231.5556780345003
 21
366.2378273777417
 31
0.000000000000000
  0
ARC
  5
235
100
AcDbEntity
  8
1
  6
CONTINUOUS
 62
7
100
AcDbCircle
 10
226.3056780345075
 20
365.2787219154566
 30
0.000000000000000
 40
4.159105462284903
100
AcDbArc
 50
65.11719670476587
 51
114.8828032952342
  0
ARC
  5
236
100
AcDbEntity
  8
1
  6
CONTINUOUS
 62
7
100
AcDbCircle
 10
229.8056780345013
 20
365.2787219154566
 30
0.000000000000000
 40
4.159105462284903
100
AcDbArc
 50
65.11719670476572
 51
114.8828032952341
  0
LINE
  5
237
100
AcDbEntity
  8
1
  6
CONTINUOUS
 62
7
100
AcDbLine
 10
224.5556780345003
 20
369.4378273777415
 30
0.000000000000000
 11
231.5556780345002
 21
369.4378273777415
 31
0.000000000000000
  0
LINE
  5
238
100
AcDbEntity
  8
1
  6
CONTINUOUS
 62
7
100
AcDbLine
 10
231.5556780345002
 20
369.4378273777415
 30
0.000000000000000
 11
231.5556780345003
 21
366.2378273777417
 31
0.000000000000000
  0
LINE
  5
239
100
AcDbEntity
  8
1
  6
CONTINUOUS
 62
7
100
AcDbLine
 10
224.5556780345003
 20
369.4378273777415
 30
0.000000000000000
 11
224.5556780345002
 21
366.2378273777417
 31
0.000000000000000
  0
LINE
  5
23A
100
AcDbEntity
  8
1
  6
CONTINUOUS
 62
7
100
AcDbLine
 10
228.0556780345023
 20
366.6239157122640
 30
0.000000000000000
 11
228.0556780345023
 21
369.0517390432221
 31
0.000000000000000
  0
LINE
  5
23B
100
AcDbEntity
  8
1
  6
CONTINUOUS
 62
7
100
AcDbLine
 10
228.0556780344908
 20
358.2760979742500
 30
0.000000000000000
 11
227.2165784033133
 21
359.2760979742500
 31
0.000000000000000
  0
LINE
  5
23C
100
AcDbEntity
  8
1
  6
CONTINUOUS
 62
7
100
AcDbLine
 10
228.8947776656688
 20
358.2760979742556
 30
0.000000000000000
 11
228.0556780344913
 21
359.2760979742556
 31
0.000000000000000
  0
LINE
  5
23D
100
AcDbEntity
  8
1
  6
CONTINUOUS
 62
7
100
AcDbLine
 10
231.8556780345106
 20
358.2760979742556
 30
0.000000000000000
 11
231.8556780345106
 21
359.2760979742556
 31
0.000000000000000
  0
LINE
  5
23E
100
AcDbEntity
  8
1
  6
CONTINUOUS
 62
7
100
AcDbLine
 10
224.2556780345106
 20
358.2760979742556
 30
0.000000000000000
 11
224.2556780345106
 21
359.2760979742556
 31
0.000000000000000
  0
LINE
  5
23F
100
AcDbEntity
  8
1
  6
CONTINUOUS
 62
7
100
AcDbLine
 10
231.8556780345106
 20
359.2760979742556
 30
0.000000000000000
 11
224.2556780345106
 21
359.2760979742556
 31
0.000000000000000
  0
LINE
  5
240
100
AcDbEntity
  8
1
  6
CONTINUOUS
 62
7
100
AcDbLine
 10
224.2556780345106
 20
358.2760979742556
 30
0.000000000000000
 11
231.8556780345106
 21
358.2760979742443
 31
0.000000000000000
  0
ARC
  5
241
100
AcDbEntity
  8
1
  6
CONTINUOUS
 62
7
100
AcDbCircle
 10
207.0556780341902
 20
323.3844515588743
 30
0.000000000000000
 40
12.00000000000000
100
AcDbArc
 50
1.450794407112230
 51
90.00000000000006
  0
LINE
  5
242
100
AcDbEntity
  8
1
  6
CONTINUOUS
 62
7
100
AcDbLine
 10
175.0556780354818
 20
335.3844515588743
 30
0.000000000000000
 11
205.0556780341902
 21
335.3844515588743
 31
0.000000000000000
  0
LINE
  5
243
100
AcDbEntity
  8
1
  6
CONTINUOUS
 62
7
100
AcDbLine
 10
173.5556780354819
 20
322.8844515588682
 30
0.000000000000000
 11
173.5556780354819
 21
333.8844515588743
 31
0.000000000000000
  0
LINE
  5
244
100
AcDbEntity
  8
1
  6
CONTINUOUS
 62
7
100
AcDbLine
 10
235.6243494922839
 20
317.8319260347890
 30
0.000000000000000
 11
239.5556780347069
 21
321.8237913868087
 31
0.000000000000000
  0
LINE
  5
245
100
AcDbEntity
  8
4
  6
CENTER
 62
1
100
AcDbLine
 10
228.0556780345319
 20
335.2844370329158
 30
0.000000000000000
 11
228.0556780345319
 21
315.8844515588743
 31
0.000000000000000
  0
LINE
  5
246
100
AcDbEntity
  8
1
  6
CONTINUOUS
 62
7
100
AcDbLine
 10
226.0556780346466
 20
322.8844515588682
 30
0.000000000000000
 11
226.0556780346420
 21
332.2844370329148
 31
0.000000000000000
  0
LINE
  5
247
100
AcDbEntity
  8
2
  6
CONTINUOUS
 62
4
100
AcDbLine
 10
226.4346780346464
 20
322.8844515588682
 30
0.000000000000000
 11
226.4346780346420
 21
332.2844370329149
 31
0.000000000000000
  0
LINE
  5
248
100
AcDbEntity
  8
1
  6
CONTINUOUS
 62
7
100
AcDbLine
 10
230.0556780346466
 20
322.8844515588682
 30
0.000000000000000
 11
230.0556780346420
 21
332.2844370329168
 31
0.000000000000000
  0
LINE
  5
249
100
AcDbEntity
  8
2
  6
CONTINUOUS
 62
4
100
AcDbLine
 10
229.6766780346465
 20
322.8844515588682
 30
0.000000000000000
 11
229.6766780346420
 21
332.2844370329165
 31
0.000000000000000
  0
LINE
  5
24A
100
AcDbEntity
  8
1
  6
CONTINUOUS
 62
7
100
AcDbLine
 10
226.0556780346420
 20
332.2844370329148
 30
0.000000000000000
 11
230.0556780346420
 21
332.2844370329167
 31
0.000000000000000
  0
LINE
  5
24B
100
AcDbEntity
  8
1
  6
CONTINUOUS
 62
7
100
AcDbLine
 10
239.5556780347067
 20
321.8237913868088
 30
0.000000000000000
 11
238.4950178626493
 21
322.8844515588685
 31
0.000000000000000
  0
ARC
  5
24C
100
AcDbEntity
  8
1
  6
CONTINUOUS
 62
7
100
AcDbCircle
 10
234.5556165877836
 20
318.8844515588682
 30
0.000000000000000
 40
1.500000000000000
100
AcDbArc
 50
270.0000000000000
 51
315.4377573300064
  0
LINE
  5
24D
100
AcDbEntity
  8
1
  6
CONTINUOUS
 62
7
100
AcDbLine
 10
453.5593243869927
 20
121.0314430954660
 30
0.000000000000000
 11
450.0593243869927
 21
119.0107171533024
 31
0.000000000000000
  0
ARC
  5
24E
100
AcDbEntity
  8
1
  6
CONTINUOUS
 62
7
100
AcDbCircle
 10
450.0593243869928
 20
123.0521690376402
 30
0.000000000000000
 40
3.799999999999998
100
AcDbArc
 50
277.0804578487787
 51
322.9195421512212
  0
LINE
  5
24F
100
AcDbEntity
  8
4
  6
CENTER
 62
1
100
AcDbLine
 10
444.9937431998064
 20
123.0521690376402
 30
0.000000000000000
 11
455.1249055741791
 21
123.0521690376402
 31
0.000000000000000
  0
LINE
  5
250
100
AcDbEntity
  8
1
  6
CONTINUOUS
 62
7
100
AcDbLine
 10
453.5593243869929
 20
125.0728949798143
 30
0.000000000000000
 11
450.0593243869929
 21
127.0936209219780
 31
0.000000000000000
  0
ARC
  5
251
100
AcDbEntity
  8
1
  6
CONTINUOUS
 62
7
100
AcDbCircle
 10
450.0593243869928
 20
123.0521690376402
 30
0.000000000000000
 40
3.799999999999998
100
AcDbArc
 50
37.08045784877992
 51
82.91954215121996
  0
LINE
  5
252
100
AcDbEntity
  8
4
  6
CENTER
 62
1
100
AcDbLine
 10
450.0593243869928
 20
117.9865878504538
 30
0.000000000000000
 11
450.0593243869928
 21
128.1177502248265
 31
0.000000000000000
  0
ARC
  5
253
100
AcDbEntity
  8
1
  6
CONTINUOUS
 62
7
100
AcDbCircle
 10
450.0593243869928
 20
123.0521690376402
 30
0.000000000000000
 40
3.799999999999998
100
AcDbArc
 50
97.08045784877883
 51
142.9195421512211
  0
LINE
  5
254
100
AcDbEntity
  8
1
  6
CONTINUOUS
 62
7
100
AcDbLine
 10
446.5593243869927
 20
121.0314430954661
 30
0.000000000000000
 11
446.5593243869927
 21
125.0728949798143
 31
0.000000000000000
  0
CIRCLE
  5
255
100
AcDbEntity
  8
1
  6
CONTINUOUS
 62
7
100
AcDbCircle
 10
450.0593243869928
 20
123.0521690376402
 30
0.000000000000000
 40
2.000000000000000
  0
ARC
  5
256
100
AcDbEntity
  8
1
  6
CONTINUOUS
 62
7
100
AcDbCircle
 10
450.0593243869928
 20
123.0521690376402
 30
0.000000000000000
 40
3.799999999999998
100
AcDbArc
 50
157.0804578484303
 51
202.9195421515692
  0
LINE
  5
257
100
AcDbEntity
  8
1
  6
CONTINUOUS
 62
7
100
AcDbLine
 10
446.5593243869927
 20
121.0314430954660
 30
0.000000000000000
 11
450.0593243869927
 21
119.0107171533024
 31
0.000000000000000
  0
ARC
  5
258
100
AcDbEntity
  8
1
  6
CONTINUOUS
 62
7
100
AcDbCircle
 10
450.0593243869928
 20
123.0521690376402
 30
0.000000000000000
 40
3.799999999999998
100
AcDbArc
 50
217.0804578487778
 51
262.9195421512221
  0
LINE
  5
259
100
AcDbEntity
  8
1
  6
CONTINUOUS
 62
7
100
AcDbLine
 10
446.5593243869927
 20
125.0728949798143
 30
0.000000000000000
 11
450.0593243869928
 21
127.0936209219780
 31
0.000000000000000
  0
LINE
  5
25A
100
AcDbEntity
  8
1
  6
CONTINUOUS
 62
7
100
AcDbLine
 10
453.5593243869928
 20
121.0314430954661
 30
0.000000000000000
 11
453.5593243869928
 21
125.0728949798143
 31
0.000000000000000
  0
ARC
  5
25B
100
AcDbEntity
  8
1
  6
CONTINUOUS
 62
7
100
AcDbCircle
 10
450.0593243869928
 20
123.0521690376402
 30
0.000000000000000
 40
3.799999999999998
100
AcDbArc
 50
337.0804578484308
 51
382.9195421515697
  0
LINE
  5
25C
100
AcDbEntity
  8
4
  6
CENTER
 62
1
100
AcDbLine
 10
515.0593243869924
 20
117.9865878505022
 30
0.000000000000000
 11
515.0593243869924
 21
128.1177502248749
 31
0.000000000000000
  0
ARC
  5
25D
100
AcDbEntity
  8
1
  6
CONTINUOUS
 62
7
100
AcDbCircle
 10
515.0593243869924
 20
123.0521690376885
 30
0.000000000000000
 40
3.799999999999998
100
AcDbArc
 50
37.08045784877992
 51
82.91954215121996
  0
LINE
  5
25E
100
AcDbEntity
  8
4
  6
CENTER
 62
1
100
AcDbLine
 10
509.9937431998061
 20
123.0521690376885
 30
0.000000000000000
 11
520.1249055741787
 21
123.0521690376885
 31
0.000000000000000
  0
ARC
  5
25F
100
AcDbEntity
  8
1
  6
CONTINUOUS
 62
7
100
AcDbCircle
 10
515.0593243869924
 20
123.0521690376885
 30
0.000000000000000
 40
3.799999999999998
100
AcDbArc
 50
277.0804578487787
 51
322.9195421512212
  0
LINE
  5
260
100
AcDbEntity
  8
1
  6
CONTINUOUS
 62
7
100
AcDbLine
 10
518.5593243869926
 20
121.0314430955145
 30
0.000000000000000
 11
515.0593243869926
 21
119.0107171533508
 31
0.000000000000000
  0
LINE
  5
261
100
AcDbEntity
  8
1
  6
CONTINUOUS
 62
7
100
AcDbLine
 10
518.5593243869926
 20
125.0728949798626
 30
0.000000000000000
 11
515.0593243869926
 21
127.0936209220263
 31
0.000000000000000
  0
ARC
  5
262
100
AcDbEntity
  8
1
  6
CONTINUOUS
 62
7
100
AcDbCircle
 10
515.0593243869924
 20
123.0521690376885
 30
0.000000000000000
 40
3.799999999999998
100
AcDbArc
 50
97.08045784877883
 51
142.9195421512211
  0
CIRCLE
  5
263
100
AcDbEntity
  8
1
  6
CONTINUOUS
 62
7
100
AcDbCircle
 10
515.0593243869924
 20
123.0521690376885
 30
0.000000000000000
 40
2.000000000000000
  0
LINE
  5
264
100
AcDbEntity
  8
1
  6
CONTINUOUS
 62
7
100
AcDbLine
 10
511.5593243869924
 20
121.0314430955144
 30
0.000000000000000
 11
511.5593243869924
 21
125.0728949798626
 31
0.000000000000000
  0
ARC
  5
265
100
AcDbEntity
  8
1
  6
CONTINUOUS
 62
7
100
AcDbCircle
 10
515.0593243869924
 20
123.0521690376885
 30
0.000000000000000
 40
3.799999999999998
100
AcDbArc
 50
217.0804578487778
 51
262.9195421512221
  0
LINE
  5
266
100
AcDbEntity
  8
1
  6
CONTINUOUS
 62
7
100
AcDbLine
 10
511.5593243869923
 20
121.0314430955144
 30
0.000000000000000
 11
515.0593243869924
 21
119.0107171533507
 31
0.000000000000000
  0
ARC
  5
267
100
AcDbEntity
  8
1
  6
CONTINUOUS
 62
7
100
AcDbCircle
 10
515.0593243869924
 20
123.0521690376885
 30
0.000000000000000
 40
3.799999999999998
100
AcDbArc
 50
157.0804578484303
 51
202.9195421515692
  0
LINE
  5
268
100
AcDbEntity
  8
1
  6
CONTINUOUS
 62
7
100
AcDbLine
 10
511.5593243869924
 20
125.0728949798626
 30
0.000000000000000
 11
515.0593243869924
 21
127.0936209220263
 31
0.000000000000000
  0
LINE
  5
269
100
AcDbEntity
  8
1
  6
CONTINUOUS
 62
7
100
AcDbLine
 10
518.5593243869924
 20
121.0314430955144
 30
0.000000000000000
 11
518.5593243869924
 21
125.0728949798626
 31
0.000000000000000
  0
ARC
  5
26A
100
AcDbEntity
  8
1
  6
CONTINUOUS
 62
7
100
AcDbCircle
 10
515.0593243869924
 20
123.0521690376885
 30
0.000000000000000
 40
3.799999999999998
100
AcDbArc
 50
337.0804578484308
 51
382.9195421515697
  0
ENDSEC
  0
SECTION
  2
OBJECTS
  0
DICTIONARY
  5
293
100
AcDbDictionary
  3
ACAD_GROUP
350
294
  3
ACAD_LAYOUT
350
295
  3
ACAD_MLINESTYLE
350
296
  0
DICTIONARY
  5
294
102
{ACAD_REACTORS
330
293
102
}
330
293
100
AcDbDictionary
  0
DICTIONARY
  5
295
102
{ACAD_REACTORS
330
293
102
}
330
293
100
AcDbDictionary
  3
Model
350
297
  3
ﾚｲｱｳﾄ1
350
298
  3
ﾚｲｱｳﾄ2
350
299
  0
DICTIONARY
  5
296
102
{ACAD_REACTORS
330
293
102
}
330
293
100
AcDbDictionary
  3
STANDARD
350
29A
  0
LAYOUT
  5
297
102
{ACAD_REACTORS
330
295
102
}
330
295
100
AcDbPlotSettings
 70
11952
  4
A3
 44
297.000000
 45
420.000000
 73
  1
 72
  1
100
AcDbLayout
  1
Model
 71
0
330
28A
  0
LAYOUT
  5
298
102
{ACAD_REACTORS
330
295
102
}
330
295
100
AcDbPlotSettings
100
AcDbLayout
  1
ﾚｲｱｳﾄ1
 71
1
330
28B
  0
LAYOUT
  5
299
102
{ACAD_REACTORS
330
295
102
}
330
295
100
AcDbPlotSettings
100
AcDbLayout
  1
ﾚｲｱｳﾄ2
 71
2
330
28C
  0
MLINESTYLE
  5
29A
102
{ACAD_REACTORS
330
296
102
}
330
296
100
AcDbMlineStyle
  2
STANDARD
 70
     0
  3

 62
   256
 51
90.00
 52
90.00
 71
     2
 49
0.50
 62
   256
  6
BYLAYER
 49
-0.50
 62
   256
  6
BYLAYER
  0
ENDSEC
  0
EOF
