  0
SECTION
  2
HEADER
  9
$ACADVER
  1
AC1015
  9
$ACADMAINTVER
 70
    20
  9
$DWGCODEPAGE
  3
ANSI_932
  9
$INSBASE
 10
0.0
 20
0.0
 30
0.0
  9
$EXTMIN
 10
9.999997999999997
 20
10.0
 30
0.0
  9
$EXTMAX
 10
736.1358299999997
 20
503.0
 30
0.0
  9
$LIMMIN
 10
0.000002
 20
0.0
  9
$LIMMAX
 10
792.0000019999998
 20
546.0
  9
$ORTHOMODE
 70
     0
  9
$REGENMODE
 70
     1
  9
$FILLMODE
 70
     1
  9
$QTEXTMODE
 70
     0
  9
$MIRRTEXT
 70
     1
  9
$LTSCALE
 40
1.0
  9
$ATTMODE
 70
     1
  9
$TEXTSIZE
 40
2.5
  9
$TRACEWID
 40
1.0
  9
$TEXTSTYLE
  7
STANDARD
  9
$CLAYER
  8
0
  9
$CELTYPE
  6
BYLAYER
  9
$CECOLOR
 62
   256
  9
$CELTSCALE
 40
1.0
  9
$DISPSILH
 70
     0
  9
$DIMSCALE
 40
1.0
  9
$DIMASZ
 40
3.0
  9
$DIMEXO
 40
1.0
  9
$DIMDLI
 40
10.0
  9
$DIMRND
 40
0.0
  9
$DIMDLE
 40
0.0
  9
$DIMEXE
 40
1.0
  9
$DIMTP
 40
0.0
  9
$DIMTM
 40
0.0
  9
$DIMTXT
 40
3.2
  9
$DIMCEN
 40
0.0
  9
$DIMTSZ
 40
0.0
  9
$DIMTOL
 70
     0
  9
$DIMLIM
 70
     0
  9
$DIMTIH
 70
     0
  9
$DIMTOH
 70
     0
  9
$DIMSE1
 70
     0
  9
$DIMSE2
 70
     0
  9
$DIMTAD
 70
     3
  9
$DIMZIN
 70
     8
  9
$DIMBLK
  1

  9
$DIMASO
 70
     1
  9
$DIMSHO
 70
     1
  9
$DIMPOST
  1

  9
$DIMAPOST
  1

  9
$DIMALT
 70
     0
  9
$DIMALTD
 70
     2
  9
$DIMALTF
 40
25.4
  9
$DIMLFAC
 40
1.0
  9
$DIMTOFL
 70
     1
  9
$DIMTVP
 40
0.0
  9
$DIMTIX
 70
     0
  9
$DIMSOXD
 70
     0
  9
$DIMSAH
 70
     1
  9
$DIMBLK1
  1
OPEN
  9
$DIMBLK2
  1
OPEN
  9
$DIMSTYLE
  2
STANDARD
  9
$DIMCLRD
 70
     0
  9
$DIMCLRE
 70
     0
  9
$DIMCLRT
 70
     0
  9
$DIMTFAC
 40
1.0
  9
$DIMGAP
 40
1.0
  9
$DIMJUST
 70
     0
  9
$DIMSD1
 70
     0
  9
$DIMSD2
 70
     0
  9
$DIMTOLJ
 70
     1
  9
$DIMTZIN
 70
     0
  9
$DIMALTZ
 70
     0
  9
$DIMALTTZ
 70
     0
  9
$DIMUPT
 70
     0
  9
$DIMDEC
 70
     4
  9
$DIMTDEC
 70
     4
  9
$DIMALTU
 70
     2
  9
$DIMALTTD
 70
     2
  9
$DIMTXSTY
  7
STANDARD
  9
$DIMAUNIT
 70
     0
  9
$DIMADEC
 70
     0
  9
$DIMALTRND
 40
0.0
  9
$DIMAZIN
 70
     0
  9
$DIMDSEP
 70
    46
  9
$DIMATFIT
 70
     3
  9
$DIMFRAC
 70
     0
  9
$DIMLDRBLK
  1
OPEN
  9
$DIMLUNIT
 70
     2
  9
$DIMLWD
 70
    -2
  9
$DIMLWE
 70
    -2
  9
$DIMTMOVE
 70
     0
  9
$LUNITS
 70
     2
  9
$LUPREC
 70
     4
  9
$SKETCHINC
 40
1.0
  9
$FILLETRAD
 40
0.0
  9
$AUNITS
 70
     0
  9
$AUPREC
 70
     0
  9
$MENU
  1
.
  9
$ELEVATION
 40
0.0
  9
$PELEVATION
 40
0.0
  9
$THICKNESS
 40
0.0
  9
$LIMCHECK
 70
     0
  9
$CHAMFERA
 40
10.0
  9
$CHAMFERB
 40
10.0
  9
$CHAMFERC
 40
0.0
  9
$CHAMFERD
 40
0.0
  9
$SKPOLY
 70
     0
  9
$TDCREATE
 40
2452065.479644005
  9
$TDUCREATE
 40
2452065.104644005
  9
$TDUPDATE
 40
2457192.641492419
  9
$TDUUPDATE
 40
2457192.266492419
  9
$TDINDWG
 40
0.0391203356
  9
$TDUSRTIMER
 40
0.0391196528
  9
$USRTIMER
 70
     1
  9
$ANGBASE
 50
0.0
  9
$ANGDIR
 70
     0
  9
$PDMODE
 70
     0
  9
$PDSIZE
 40
0.0
  9
$PLINEWID
 40
0.0
  9
$SPLFRAME
 70
     0
  9
$SPLINETYPE
 70
     6
  9
$SPLINESEGS
 70
     8
  9
$HANDSEED
  5
1663
  9
$SURFTAB1
 70
     6
  9
$SURFTAB2
 70
     6
  9
$SURFTYPE
 70
     6
  9
$SURFU
 70
     6
  9
$SURFV
 70
     6
  9
$UCSBASE
  2

  9
$UCSNAME
  2

  9
$UCSORG
 10
0.0
 20
0.0
 30
0.0
  9
$UCSXDIR
 10
1.0
 20
0.0
 30
0.0
  9
$UCSYDIR
 10
0.0
 20
1.0
 30
0.0
  9
$UCSORTHOREF
  2

  9
$UCSORTHOVIEW
 70
     0
  9
$UCSORGTOP
 10
0.0
 20
0.0
 30
0.0
  9
$UCSORGBOTTOM
 10
0.0
 20
0.0
 30
0.0
  9
$UCSORGLEFT
 10
0.0
 20
0.0
 30
0.0
  9
$UCSORGRIGHT
 10
0.0
 20
0.0
 30
0.0
  9
$UCSORGFRONT
 10
0.0
 20
0.0
 30
0.0
  9
$UCSORGBACK
 10
0.0
 20
0.0
 30
0.0
  9
$PUCSBASE
  2

  9
$PUCSNAME
  2

  9
$PUCSORG
 10
0.0
 20
0.0
 30
0.0
  9
$PUCSXDIR
 10
1.0
 20
0.0
 30
0.0
  9
$PUCSYDIR
 10
0.0
 20
1.0
 30
0.0
  9
$PUCSORTHOREF
  2

  9
$PUCSORTHOVIEW
 70
     0
  9
$PUCSORGTOP
 10
0.0
 20
0.0
 30
0.0
  9
$PUCSORGBOTTOM
 10
0.0
 20
0.0
 30
0.0
  9
$PUCSORGLEFT
 10
0.0
 20
0.0
 30
0.0
  9
$PUCSORGRIGHT
 10
0.0
 20
0.0
 30
0.0
  9
$PUCSORGFRONT
 10
0.0
 20
0.0
 30
0.0
  9
$PUCSORGBACK
 10
0.0
 20
0.0
 30
0.0
  9
$USERI1
 70
     0
  9
$USERI2
 70
     0
  9
$USERI3
 70
     0
  9
$USERI4
 70
     0
  9
$USERI5
 70
     0
  9
$USERR1
 40
0.0
  9
$USERR2
 40
0.0
  9
$USERR3
 40
0.0
  9
$USERR4
 40
0.0
  9
$USERR5
 40
0.0
  9
$WORLDVIEW
 70
     1
  9
$SHADEDGE
 70
     3
  9
$SHADEDIF
 70
    70
  9
$TILEMODE
 70
     1
  9
$MAXACTVP
 70
    48
  9
$PINSBASE
 10
0.0
 20
0.0
 30
0.0
  9
$PLIMCHECK
 70
     0
  9
$PEXTMIN
 10
1.000000000000000E+20
 20
1.000000000000000E+20
 30
1.000000000000000E+20
  9
$PEXTMAX
 10
-1.000000000000000E+20
 20
-1.000000000000000E+20
 30
-1.000000000000000E+20
  9
$PLIMMIN
 10
0.0
 20
0.0
  9
$PLIMMAX
 10
420.0
 20
297.0
  9
$UNITMODE
 70
     0
  9
$VISRETAIN
 70
     1
  9
$PLINEGEN
 70
     0
  9
$PSLTSCALE
 70
     1
  9
$TREEDEPTH
 70
  3020
  9
$CMLSTYLE
  2
STANDARD
  9
$CMLJUST
 70
     0
  9
$CMLSCALE
 40
1.0
  9
$PROXYGRAPHICS
 70
     1
  9
$MEASUREMENT
 70
     0
  9
$CELWEIGHT
370
    -1
  9
$ENDCAPS
280
     0
  9
$JOINSTYLE
280
     0
  9
$LWDISPLAY
290
     0
  9
$INSUNITS
 70
     0
  9
$HYPERLINKBASE
  1

  9
$STYLESHEET
  1

  9
$XEDIT
290
     1
  9
$CEPSNTYPE
380
     0
  9
$PSTYLEMODE
290
     1
  9
$FINGERPRINTGUID
  2
{7FBA76E6-8CAC-4625-8D14-89A025D091A4}
  9
$VERSIONGUID
  2
{5E456D28-9604-4F55-B189-6941D4D4F55F}
  9
$EXTNAMES
290
     1
  9
$PSVPSCALE
 40
0.0
  9
$OLESTARTUP
290
     0
  0
ENDSEC
  0
SECTION
  2
CLASSES
  0
CLASS
  1
ACDBDICTIONARYWDFLT
  2
AcDbDictionaryWithDefault
  3
ObjectDBX Classes
 90
        0
280
     0
281
     0
  0
CLASS
  1
ACDBPLACEHOLDER
  2
AcDbPlaceHolder
  3
ObjectDBX Classes
 90
        0
280
     0
281
     0
  0
CLASS
  1
LAYOUT
  2
AcDbLayout
  3
ObjectDBX Classes
 90
        0
280
     0
281
     0
  0
CLASS
  1
DICTIONARYVAR
  2
AcDbDictionaryVar
  3
ObjectDBX Classes
 90
        0
280
     0
281
     0
  0
CLASS
  1
MATERIAL
  2
AcDbMaterial
  3
ObjectDBX Classes
 90
     1153
280
     0
281
     0
  0
CLASS
  1
VISUALSTYLE
  2
AcDbVisualStyle
  3
ObjectDBX Classes
 90
     4095
280
     0
281
     0
  0
CLASS
  1
TABLESTYLE
  2
AcDbTableStyle
  3
ObjectDBX Classes
 90
     4095
280
     0
281
     0
  0
CLASS
  1
SCALE
  2
AcDbScale
  3
ObjectDBX Classes
 90
     1153
280
     0
281
     0
  0
CLASS
  1
MLEADERSTYLE
  2
AcDbMLeaderStyle
  3
ACDB_MLEADERSTYLE_CLASS
 90
     4095
280
     0
281
     0
  0
CLASS
  1
ACDBSECTIONVIEWSTYLE
  2
AcDbSectionViewStyle
  3
ObjectDBX Classes
 90
     1025
280
     0
281
     0
  0
CLASS
  1
ACDBDETAILVIEWSTYLE
  2
AcDbDetailViewStyle
  3
ObjectDBX Classes
 90
     1025
280
     0
281
     0
  0
CLASS
  1
CELLSTYLEMAP
  2
AcDbCellStyleMap
  3
ObjectDBX Classes
 90
     1152
280
     0
281
     0
  0
ENDSEC
  0
SECTION
  2
TABLES
  0
TABLE
  2
VPORT
  5
1230
330
0
100
AcDbSymbolTable
 70
     1
  0
VPORT
  5
15AD
330
1230
100
AcDbSymbolTableRecord
100
AcDbViewportTableRecord
  2
*ACTIVE
 70
     0
 10
0.0
 20
0.0
 11
1.0
 21
1.0
 12
522.4036073542645
 22
256.5040295723639
 13
0.0
 23
0.0
 14
10.0
 24
10.0
 15
10.0
 25
10.0
 16
0.0
 26
0.0
 36
1.0
 17
0.0
 27
0.0
 37
0.0
 40
498.5606999459737
 41
1.899603698811096
 42
50.0
 43
0.0
 44
0.0
 50
0.0
 51
0.0
 71
     0
 72
   100
 73
     1
 74
     0
 75
     0
 76
     0
 77
     0
 78
     0
281
     0
 65
     1
110
0.0
120
0.0
130
0.0
111
1.0
121
0.0
131
0.0
112
0.0
122
1.0
132
0.0
 79
     0
146
0.0
1001
ACAD_NAV_VCDISPLAY
1070
     3
  0
ENDTAB
  0
TABLE
  2
LTYPE
  5
122D
330
0
100
AcDbSymbolTable
 70
     4
  0
LTYPE
  5
123B
330
122D
100
AcDbSymbolTableRecord
100
AcDbLinetypeTableRecord
  2
BYBLOCK
 70
     0
  3

 72
    65
 73
     0
 40
0.0
  0
LTYPE
  5
123C
330
122D
100
AcDbSymbolTableRecord
100
AcDbLinetypeTableRecord
  2
BYLAYER
 70
     0
  3

 72
    65
 73
     0
 40
0.0
  0
LTYPE
  5
123D
330
122D
100
AcDbSymbolTableRecord
100
AcDbLinetypeTableRecord
  2
CONTINUOUS
 70
     0
  3
Solid line
 72
    65
 73
     0
 40
0.0
  0
LTYPE
  5
124B
330
122D
100
AcDbSymbolTableRecord
100
AcDbLinetypeTableRecord
  2
DASHED
 70
     0
  3
Dashed __ __ __ __ __ __ __ __ __ __ __ __ __ _
 72
    65
 73
     2
 40
19.05
 49
12.7
 74
     0
 49
-6.349999999999997
 74
     0
  0
LTYPE
  5
124C
330
122D
100
AcDbSymbolTableRecord
100
AcDbLinetypeTableRecord
  2
CENTER
 70
     0
  3
Center ____ _ ____ _ ____ _ ____ _ ____ _ ____
 72
    65
 73
     4
 40
50.8
 49
31.75
 74
     0
 49
-6.349999999999997
 74
     0
 49
6.349999999999997
 74
     0
 49
-6.349999999999997
 74
     0
  0
LTYPE
  5
124D
330
122D
100
AcDbSymbolTableRecord
100
AcDbLinetypeTableRecord
  2
PHANTOM
 70
     0
  3
Phantom ______  __  __  ______  __  __  ______
 72
    65
 73
     6
 40
63.5
 49
31.75
 74
     0
 49
-6.349999999999997
 74
     0
 49
6.349999999999997
 74
     0
 49
-6.349999999999997
 74
     0
 49
6.349999999999997
 74
     0
 49
-6.349999999999997
 74
     0
  0
ENDTAB
  0
TABLE
  2
LAYER
  5
122A
330
0
100
AcDbSymbolTable
 70
     8
  0
LAYER
  5
1238
102
{ACAD_XDICTIONARY
360
1607
102
}
330
122A
100
AcDbSymbolTableRecord
100
AcDbLayerTableRecord
  2
0
 70
     0
 62
     7
  6
CONTINUOUS
370
    -3
390
15B6
  0
LAYER
  5
124E
102
{ACAD_XDICTIONARY
360
1609
102
}
330
122A
100
AcDbSymbolTableRecord
100
AcDbLayerTableRecord
  2
4
 70
     0
 62
     1
  6
CENTER
370
    -3
390
15B6
  0
LAYER
  5
124F
102
{ACAD_XDICTIONARY
360
160B
102
}
330
122A
100
AcDbSymbolTableRecord
100
AcDbLayerTableRecord
  2
5
 70
     0
 62
     6
  6
PHANTOM
370
    -3
390
15B6
  0
LAYER
  5
1250
102
{ACAD_XDICTIONARY
360
160D
102
}
330
122A
100
AcDbSymbolTableRecord
100
AcDbLayerTableRecord
  2
1
 70
     0
 62
     7
  6
CONTINUOUS
370
    -3
390
15B6
  0
LAYER
  5
1251
102
{ACAD_XDICTIONARY
360
160F
102
}
330
122A
100
AcDbSymbolTableRecord
100
AcDbLayerTableRecord
  2
2
 70
     0
 62
     4
  6
CONTINUOUS
370
    -3
390
15B6
  0
LAYER
  5
1252
102
{ACAD_XDICTIONARY
360
1611
102
}
330
122A
100
AcDbSymbolTableRecord
100
AcDbLayerTableRecord
  2
3
 70
     0
 62
     2
  6
DASHED
370
    -3
390
15B6
  0
LAYER
  5
1253
102
{ACAD_XDICTIONARY
360
1613
102
}
330
122A
100
AcDbSymbolTableRecord
100
AcDbLayerTableRecord
  2
6
 70
     0
 62
     5
  6
CONTINUOUS
370
    -3
390
15B6
  0
LAYER
  5
1254
102
{ACAD_XDICTIONARY
360
1615
102
}
330
122A
100
AcDbSymbolTableRecord
100
AcDbLayerTableRecord
  2
7
 70
     0
 62
     3
  6
CONTINUOUS
370
    -3
390
15B6
  0
ENDTAB
  0
TABLE
  2
STYLE
  5
122B
330
0
100
AcDbSymbolTable
 70
     1
  0
STYLE
  5
1239
330
122B
100
AcDbSymbolTableRecord
100
AcDbTextStyleTableRecord
  2
STANDARD
 70
     0
 40
0.0
 41
1.0
 50
0.0
 71
     0
 42
2.5
  3
simplex.shx
  4

  0
ENDTAB
  0
TABLE
  2
VIEW
  5
122E
330
0
100
AcDbSymbolTable
 70
     0
  0
ENDTAB
  0
TABLE
  2
UCS
  5
122F
330
0
100
AcDbSymbolTable
 70
     0
  0
ENDTAB
  0
TABLE
  2
APPID
  5
1231
330
0
100
AcDbSymbolTable
 70
     5
  0
APPID
  5
123A
330
1231
100
AcDbSymbolTableRecord
100
AcDbRegAppTableRecord
  2
ACAD
 70
     0
  0
APPID
  5
1255
330
1231
100
AcDbSymbolTableRecord
100
AcDbRegAppTableRecord
  2
CONTENTTABDATA
 70
     0
  0
APPID
  5
1256
330
1231
100
AcDbSymbolTableRecord
100
AcDbRegAppTableRecord
  2
CONTENTCURRENTTAB
 70
     0
  0
APPID
  5
1621
330
1231
100
AcDbSymbolTableRecord
100
AcDbRegAppTableRecord
  2
ACAD_NAV_VCDISPLAY
 70
     0
  0
APPID
  5
165A
330
1231
100
AcDbSymbolTableRecord
100
AcDbRegAppTableRecord
  2
ACAD_MLEADERVER
 70
     0
  0
ENDTAB
  0
TABLE
  2
DIMSTYLE
  5
1232
330
0
100
AcDbSymbolTable
 70
     1
100
AcDbDimStyleTable
 71
     0
  0
DIMSTYLE
105
1257
330
1232
100
AcDbSymbolTableRecord
100
AcDbDimStyleTableRecord
  2
STANDARD
 70
     0
 41
3.0
 42
1.0
 43
10.0
 44
1.0
 73
     0
 74
     0
 77
     3
 78
     8
140
3.2
141
0.0
147
1.0
172
     1
173
     1
284
     8
285
     8
286
     8
340
1239
  0
ENDTAB
  0
TABLE
  2
BLOCK_RECORD
  5
1229
330
0
100
AcDbSymbolTable
 70
     1
  0
BLOCK_RECORD
  5
1246
102
{ACAD_XDICTIONARY
360
15B0
102
}
330
1229
100
AcDbSymbolTableRecord
100
AcDbBlockTableRecord
  2
*MODEL_SPACE
340
1604
  0
BLOCK_RECORD
  5
1242
102
{ACAD_XDICTIONARY
360
15AE
102
}
330
1229
100
AcDbSymbolTableRecord
100
AcDbBlockTableRecord
  2
*PAPER_SPACE
340
1605
  0
BLOCK_RECORD
  5
125F
330
1229
100
AcDbSymbolTableRecord
100
AcDbBlockTableRecord
  2
_OPEN
340
0
  0
ENDTAB
  0
ENDSEC
  0
SECTION
  2
BLOCKS
  0
BLOCK
  5
1247
330
1246
100
AcDbEntity
  8
0
100
AcDbBlockBegin
  2
*MODEL_SPACE
 70
     0
 10
0.0
 20
0.0
 30
0.0
  3
*MODEL_SPACE
  1

  0
ENDBLK
  5
1248
330
1246
100
AcDbEntity
  8
0
100
AcDbBlockEnd
  0
BLOCK
  5
1243
330
1242
100
AcDbEntity
 67
     1
  8
0
100
AcDbBlockBegin
  2
*PAPER_SPACE
 70
     0
 10
0.0
 20
0.0
 30
0.0
  3
*PAPER_SPACE
  1

  0
ENDBLK
  5
1244
330
1242
100
AcDbEntity
 67
     1
  8
0
100
AcDbBlockEnd
  0
BLOCK
  5
1260
330
125F
100
AcDbEntity
  8
0
100
AcDbBlockBegin
  2
_OPEN
 70
     0
 10
0.0
 20
0.0
 30
0.0
  3
_OPEN
  1

  0
LINE
  5
1261
330
125F
100
AcDbEntity
  8
0
  6
ByBlock
 62
     0
100
AcDbLine
 10
-1.0
 20
0.166667
 30
0.0
 11
0.0
 21
0.0
 31
0.0
  0
LINE
  5
1262
330
125F
100
AcDbEntity
  8
0
  6
ByBlock
 62
     0
100
AcDbLine
 10
0.0
 20
0.0
 30
0.0
 11
-1.0
 21
-0.166667
 31
0.0
  0
LINE
  5
1263
330
125F
100
AcDbEntity
  8
0
  6
ByBlock
 62
     0
100
AcDbLine
 10
0.0
 20
0.0
 30
0.0
 11
-1.0
 21
0.0
 31
0.0
  0
ENDBLK
  5
1264
330
125F
100
AcDbEntity
  8
0
100
AcDbBlockEnd
  0
ENDSEC
  0
SECTION
  2
ENTITIES
  0
TEXT
  5
1265
330
1246
100
AcDbEntity
  8
4
  6
CENTER
100
AcDbText
 10
23.979509
 20
10.0
 30
0.0
 40
1.399999999999999
  1
4
100
AcDbText
  0
TEXT
  5
1266
330
1246
100
AcDbEntity
  8
7
  6
Continuous
100
AcDbText
 10
9.999997999999999
 20
26.000001
 30
0.0
 40
3.0
  1
CODE No.13163
100
AcDbText
  0
TEXT
  5
1267
330
1246
100
AcDbEntity
  8
7
  6
Continuous
100
AcDbText
 10
9.999997999999999
 20
18.000001
 30
0.0
 40
3.0
  1
TYPE No.THA-330F-1
100
AcDbText
  0
TEXT
  5
1268
330
1246
100
AcDbEntity
  8
1
  6
Continuous
100
AcDbText
 10
9.999997999999999
 20
10.000001
 30
0.0
 40
1.399999999999999
  1
LAYER
100
AcDbText
  0
TEXT
  5
1269
330
1246
100
AcDbEntity
  8
2
  6
Continuous
100
AcDbText
 10
19.979509
 20
10.0
 30
0.0
 40
1.399999999999999
  1
2
100
AcDbText
  0
TEXT
  5
126A
330
1246
100
AcDbEntity
  8
3
  6
DASHED
100
AcDbText
 10
21.97950899999999
 20
10.0
 30
0.0
 40
1.399999999999999
  1
3
100
AcDbText
  0
TEXT
  5
126B
330
1246
100
AcDbEntity
  8
1
  6
Continuous
100
AcDbText
 10
17.979509
 20
10.0
 30
0.0
 40
1.399999999999999
  1
1
100
AcDbText
  0
TEXT
  5
126C
330
1246
100
AcDbEntity
  8
5
  6
PHANTOM
100
AcDbText
 10
25.979509
 20
10.0
 30
0.0
 40
1.399999999999999
  1
5
100
AcDbText
  0
TEXT
  5
126D
330
1246
100
AcDbEntity
  8
6
  6
Continuous
100
AcDbText
 10
27.979509
 20
10.0
 30
0.0
 40
1.399999999999999
  1
6
100
AcDbText
  0
TEXT
  5
126E
330
1246
100
AcDbEntity
  8
7
  6
Continuous
100
AcDbText
 10
29.97950900000001
 20
10.0
 30
0.0
 40
1.399999999999999
  1
7
100
AcDbText
  0
LINE
  5
126F
330
1246
100
AcDbEntity
  8
1
  6
Continuous
100
AcDbLine
 10
229.4759439999999
 20
294.468049
 30
0.0
 11
229.4759439999999
 21
213.682531
 31
0.0
  0
LINE
  5
1270
330
1246
100
AcDbEntity
  8
1
  6
Continuous
100
AcDbLine
 10
215.187965
 20
277.75022
 30
0.0
 11
222.320995
 21
193.442851
 31
0.0
  0
LINE
  5
1271
330
1246
100
AcDbEntity
  8
1
  6
Continuous
100
AcDbLine
 10
257.575944
 20
45.0
 30
0.0
 11
257.575944
 21
101.0
 31
0.0
  0
LINE
  5
1272
330
1246
100
AcDbEntity
  8
1
  6
Continuous
100
AcDbLine
 10
262.5759439999999
 20
43.0
 30
0.0
 11
262.5759439999999
 21
103.0
 31
0.0
  0
LINE
  5
1273
330
1246
100
AcDbEntity
  8
1
  6
Continuous
100
AcDbLine
 10
261.575944
 20
43.0
 30
0.0
 11
261.575944
 21
103.0
 31
0.0
  0
LINE
  5
1274
330
1246
100
AcDbEntity
  8
1
  6
Continuous
100
AcDbLine
 10
247.975944
 20
86.5
 30
0.0
 11
216.815299
 21
86.5
 31
0.0
  0
ARC
  5
1275
330
1246
100
AcDbEntity
  8
1
  6
Continuous
100
AcDbCircle
 10
228.475944
 20
71.82550000000002
 30
0.0
 40
7.0
100
AcDbArc
 50
270.0
 51
0.0
  0
ARC
  5
1276
330
1246
100
AcDbEntity
  8
1
  6
Continuous
100
AcDbCircle
 10
228.475944
 20
74.17449999999998
 30
0.0
 40
7.0
100
AcDbArc
 50
0.0
 51
90.0
  0
LINE
  5
1277
330
1246
100
AcDbEntity
  8
1
  6
Continuous
100
AcDbLine
 10
247.975944
 20
59.5
 30
0.0
 11
216.815299
 21
59.5
 31
0.0
  0
LINE
  5
1278
330
1246
100
AcDbEntity
  8
4
  6
CENTER
100
AcDbLine
 10
307.14945
 20
73.0
 30
0.0
 11
208.875944
 21
73.0
 31
0.0
  0
ARC
  5
1279
330
1246
100
AcDbEntity
  8
1
  6
Continuous
100
AcDbCircle
 10
274.4759439999999
 20
73.0
 30
0.0
 40
60.0
100
AcDbArc
 50
167.7683659999999
 51
192.231634
  0
ARC
  5
127A
330
1246
100
AcDbEntity
  8
1
  6
Continuous
100
AcDbCircle
 10
282.4759439999999
 20
73.0
 30
0.0
 40
60.0
100
AcDbArc
 50
173.0154499999999
 51
186.98455
  0
ARC
  5
127B
330
1246
100
AcDbEntity
  8
1
  6
Continuous
100
AcDbCircle
 10
274.4759439999999
 20
73.0
 30
0.0
 40
61.0
100
AcDbArc
 50
172.4640909999999
 51
187.535909
  0
ARC
  5
127C
330
1246
100
AcDbEntity
  8
1
  6
Continuous
100
AcDbCircle
 10
274.4759439999999
 20
73.0
 30
0.0
 40
60.5
100
AcDbArc
 50
169.042393
 51
190.957607
  0
LINE
  5
127D
330
1246
100
AcDbEntity
  8
1
  6
Continuous
100
AcDbLine
 10
229.4759439999999
 20
78.0
 30
0.0
 11
229.4759439999999
 21
68.0
 31
0.0
  0
LINE
  5
127E
330
1246
100
AcDbEntity
  8
1
  6
Continuous
100
AcDbLine
 10
223.2510629999999
 20
65.076633
 30
0.0
 11
216.1875499999999
 21
59.721583
 31
0.0
  0
ARC
  5
127F
330
1246
100
AcDbEntity
  8
1
  6
Continuous
100
AcDbCircle
 10
216.815299
 20
60.5
 30
0.0
 40
1.0
100
AcDbArc
 50
192.231634
 51
270.0
  0
LINE
  5
1280
330
1246
100
AcDbEntity
  8
1
  6
Continuous
100
AcDbLine
 10
214.507202
 20
65.0
 30
0.0
 11
214.0028089999999
 21
65.0
 31
0.0
  0
LINE
  5
1281
330
1246
100
AcDbEntity
  8
1
  6
Continuous
100
AcDbLine
 10
215.588339
 20
61.5
 30
0.0
 11
215.078974
 21
61.5
 31
0.0
  0
LINE
  5
1282
330
1246
100
AcDbEntity
  8
1
  6
Continuous
100
AcDbLine
 10
228.475944
 20
64.8255
 30
0.0
 11
223.913784
 21
64.8255
 31
0.0
  0
ARC
  5
1283
330
1246
100
AcDbEntity
  8
1
  6
Continuous
100
AcDbCircle
 10
223.913784
 20
65.82550000000001
 30
0.0
 40
1.0
100
AcDbArc
 50
186.98455
 51
270.0
  0
LINE
  5
1284
330
1246
100
AcDbEntity
  8
1
  6
Continuous
100
AcDbLine
 10
229.4759439999999
 20
64.897296
 30
0.0
 11
229.4759439999999
 21
59.5
 31
0.0
  0
LINE
  5
1285
330
1246
100
AcDbEntity
  8
1
  6
Continuous
100
AcDbLine
 10
223.2510629999999
 20
80.92336600000001
 30
0.0
 11
216.1875499999999
 21
86.27841600000001
 31
0.0
  0
ARC
  5
1286
330
1246
100
AcDbEntity
  8
1
  6
Continuous
100
AcDbCircle
 10
216.815299
 20
85.5
 30
0.0
 40
1.0
100
AcDbArc
 50
90.0
 51
167.7683659999999
  0
LINE
  5
1287
330
1246
100
AcDbEntity
  8
1
  6
Continuous
100
AcDbLine
 10
215.588339
 20
84.50000000000001
 30
0.0
 11
215.078974
 21
84.50000000000001
 31
0.0
  0
LINE
  5
1288
330
1246
100
AcDbEntity
  8
1
  6
Continuous
100
AcDbLine
 10
214.507202
 20
81.0
 30
0.0
 11
214.0028089999999
 21
81.0
 31
0.0
  0
LINE
  5
1289
330
1246
100
AcDbEntity
  8
1
  6
Continuous
100
AcDbLine
 10
235.475944
 20
74.17449999999998
 30
0.0
 11
235.475944
 21
71.82550000000002
 31
0.0
  0
LINE
  5
128A
330
1246
100
AcDbEntity
  8
1
  6
Continuous
100
AcDbLine
 10
228.475944
 20
81.17449999999998
 30
0.0
 11
223.913784
 21
81.17449999999998
 31
0.0
  0
ARC
  5
128B
330
1246
100
AcDbEntity
  8
1
  6
Continuous
100
AcDbCircle
 10
223.913784
 20
80.17449999999998
 30
0.0
 40
1.0
100
AcDbArc
 50
90.0
 51
173.0154499999999
  0
LINE
  5
128C
330
1246
100
AcDbEntity
  8
1
  6
Continuous
100
AcDbLine
 10
229.4759439999999
 20
86.5
 30
0.0
 11
229.4759439999999
 21
81.10270300000001
 31
0.0
  0
LINE
  5
128D
330
1246
100
AcDbEntity
  8
1
  6
Continuous
100
AcDbLine
 10
262.5759439999999
 20
43.0
 30
0.0
 11
259.575944
 21
43.0
 31
0.0
  0
ARC
  5
128E
330
1246
100
AcDbEntity
  8
1
  6
Continuous
100
AcDbCircle
 10
259.575944
 20
45.0
 30
0.0
 40
2.0
100
AcDbArc
 50
180.0
 51
270.0
  0
LINE
  5
128F
330
1246
100
AcDbEntity
  8
1
  6
Continuous
100
AcDbLine
 10
283.375944
 20
84.0
 30
0.0
 11
262.5759439999999
 21
84.0
 31
0.0
  0
LINE
  5
1290
330
1246
100
AcDbEntity
  8
1
  6
Continuous
100
AcDbLine
 10
283.375944
 20
62.0
 30
0.0
 11
262.5759439999999
 21
62.0
 31
0.0
  0
LINE
  5
1291
330
1246
100
AcDbEntity
  8
2
  6
Continuous
100
AcDbLine
 10
284.1879439999999
 20
83.18800000000001
 30
0.0
 11
266.982369
 21
83.18800000000001
 31
0.0
  0
LINE
  5
1292
330
1246
100
AcDbEntity
  8
2
  6
Continuous
100
AcDbLine
 10
284.1879439999999
 20
62.812
 30
0.0
 11
266.982369
 21
62.812
 31
0.0
  0
LINE
  5
1293
330
1246
100
AcDbEntity
  8
1
  6
Continuous
100
AcDbLine
 10
283.375944
 20
78.0929
 30
0.0
 11
262.5759439999999
 21
78.0929
 31
0.0
  0
LINE
  5
1294
330
1246
100
AcDbEntity
  8
1
  6
Continuous
100
AcDbLine
 10
283.375944
 20
67.9071
 30
0.0
 11
262.5759439999999
 21
67.9071
 31
0.0
  0
LINE
  5
1295
330
1246
100
AcDbEntity
  8
2
  6
Continuous
100
AcDbLine
 10
267.0759439999998
 20
75.99513799999998
 30
0.0
 11
283.375944
 21
67.9071
 31
0.0
  0
LINE
  5
1296
330
1246
100
AcDbEntity
  8
2
  6
Continuous
100
AcDbLine
 10
283.375944
 20
78.0929
 30
0.0
 11
267.0759439999998
 21
70.004862
 31
0.0
  0
LINE
  5
1297
330
1246
100
AcDbEntity
  8
1
  6
Continuous
100
AcDbLine
 10
247.975944
 20
59.5
 30
0.0
 11
247.975944
 21
86.5
 31
0.0
  0
LINE
  5
1298
330
1246
100
AcDbEntity
  8
1
  6
Continuous
100
AcDbLine
 10
248.0259439999999
 20
59.5
 30
0.0
 11
248.0259439999999
 21
86.5
 31
0.0
  0
LINE
  5
1299
330
1246
100
AcDbEntity
  8
1
  6
Continuous
100
AcDbLine
 10
248.0259439999999
 20
59.5
 30
0.0
 11
257.575944
 21
56.0
 31
0.0
  0
LINE
  5
129A
330
1246
100
AcDbEntity
  8
1
  6
Continuous
100
AcDbLine
 10
266.982369
 20
67.9071
 30
0.0
 11
266.982369
 21
62.0
 31
0.0
  0
LINE
  5
129B
330
1246
100
AcDbEntity
  8
2
  6
Continuous
100
AcDbLine
 10
265.575944
 20
62.0
 30
0.0
 11
266.982369
 21
62.812
 31
0.0
  0
LINE
  5
129C
330
1246
100
AcDbEntity
  8
1
  6
Continuous
100
AcDbLine
 10
248.0259439999999
 20
86.5
 30
0.0
 11
257.575944
 21
90.0
 31
0.0
  0
LINE
  5
129D
330
1246
100
AcDbEntity
  8
1
  6
Continuous
100
AcDbLine
 10
266.982369
 20
84.0
 30
0.0
 11
266.982369
 21
78.0929
 31
0.0
  0
LINE
  5
129E
330
1246
100
AcDbEntity
  8
1
  6
Continuous
100
AcDbLine
 10
267.0759439999998
 20
76.25
 30
0.0
 11
267.0759439999998
 21
69.75
 31
0.0
  0
LINE
  5
129F
330
1246
100
AcDbEntity
  8
1
  6
Continuous
100
AcDbLine
 10
262.5759439999999
 20
76.25
 30
0.0
 11
267.0759439999998
 21
76.25
 31
0.0
  0
LINE
  5
12A0
330
1246
100
AcDbEntity
  8
1
  6
Continuous
100
AcDbLine
 10
262.5759439999999
 20
69.75
 30
0.0
 11
267.0759439999998
 21
69.75
 31
0.0
  0
LINE
  5
12A1
330
1246
100
AcDbEntity
  8
2
  6
Continuous
100
AcDbLine
 10
265.575944
 20
84.0
 30
0.0
 11
266.982369
 21
83.18800000000001
 31
0.0
  0
LINE
  5
12A2
330
1246
100
AcDbEntity
  8
1
  6
Continuous
100
AcDbLine
 10
284.925944
 20
83.0
 30
0.0
 11
284.925944
 21
63.0
 31
0.0
  0
ARC
  5
12A3
330
1246
100
AcDbEntity
  8
1
  6
Continuous
100
AcDbCircle
 10
273.1685979999999
 20
73.0
 30
0.0
 40
11.407346
100
AcDbArc
 50
333.483346
 51
26.516654
  0
LINE
  5
12A4
330
1246
100
AcDbEntity
  8
1
  6
Continuous
100
AcDbLine
 10
283.375944
 20
62.0
 30
0.0
 11
284.925944
 21
63.55
 31
0.0
  0
LINE
  5
12A5
330
1246
100
AcDbEntity
  8
1
  6
Continuous
100
AcDbLine
 10
283.375944
 20
67.9071
 30
0.0
 11
283.375944
 21
62.0
 31
0.0
  0
LINE
  5
12A6
330
1246
100
AcDbEntity
  8
1
  6
Continuous
100
AcDbLine
 10
283.375944
 20
84.0
 30
0.0
 11
283.375944
 21
78.0929
 31
0.0
  0
LINE
  5
12A7
330
1246
100
AcDbEntity
  8
1
  6
Continuous
100
AcDbLine
 10
283.375944
 20
84.0
 30
0.0
 11
284.925944
 21
82.45
 31
0.0
  0
ARC
  5
12A8
330
1246
100
AcDbEntity
  8
1
  6
Continuous
100
AcDbCircle
 10
309.4618179999998
 20
64.25
 30
0.0
 40
34.52106099999999
100
AcDbArc
 50
345.317147
 51
14.68285299999999
  0
ARC
  5
12A9
330
1246
100
AcDbEntity
  8
1
  6
Continuous
100
AcDbCircle
 10
371.50394
 20
64.25
 30
0.0
 40
34.52106099999999
100
AcDbArc
 50
165.317147
 51
194.6828529999999
  0
LINE
  5
12AA
330
1246
100
AcDbEntity
  8
1
  6
Continuous
100
AcDbLine
 10
336.9828790000001
 20
90.5
 30
0.0
 11
336.9828790000001
 21
55.5
 31
0.0
  0
LINE
  5
12AB
330
1246
100
AcDbEntity
  8
1
  6
Continuous
100
AcDbLine
 10
343.982879
 20
90.5
 30
0.0
 11
343.982879
 21
55.5
 31
0.0
  0
LINE
  5
12AC
330
1246
100
AcDbEntity
  8
1
  6
Continuous
100
AcDbLine
 10
345.482879
 20
89.0
 30
0.0
 11
345.482879
 21
57.0
 31
0.0
  0
LINE
  5
12AD
330
1246
100
AcDbEntity
  8
1
  6
Continuous
100
AcDbLine
 10
335.182879
 20
55.5
 30
0.0
 11
335.182879
 21
90.5
 31
0.0
  0
LINE
  5
12AE
330
1246
100
AcDbEntity
  8
1
  6
Continuous
100
AcDbLine
 10
333.7828789999999
 20
90.5
 30
0.0
 11
333.7828789999999
 21
55.5
 31
0.0
  0
LINE
  5
12AF
330
1246
100
AcDbEntity
  8
1
  6
Continuous
100
AcDbLine
 10
335.482879
 20
89.0
 30
0.0
 11
335.482879
 21
57.0
 31
0.0
  0
LINE
  5
12B0
330
1246
100
AcDbEntity
  8
1
  6
Continuous
100
AcDbLine
 10
336.9828790000001
 20
55.5
 30
0.0
 11
343.982879
 21
55.5
 31
0.0
  0
LINE
  5
12B1
330
1246
100
AcDbEntity
  8
1
  6
Continuous
100
AcDbLine
 10
335.482879
 20
57.0
 30
0.0
 11
336.9828790000001
 21
57.0
 31
0.0
  0
LINE
  5
12B2
330
1246
100
AcDbEntity
  8
1
  6
Continuous
100
AcDbLine
 10
333.7828789999999
 20
55.5
 30
0.0
 11
335.182879
 21
55.5
 31
0.0
  0
LINE
  5
12B3
330
1246
100
AcDbEntity
  8
1
  6
Continuous
100
AcDbLine
 10
335.182879
 20
65.94049
 30
0.0
 11
335.482879
 21
66.24049000000001
 31
0.0
  0
LINE
  5
12B4
330
1246
100
AcDbEntity
  8
1
  6
Continuous
100
AcDbLine
 10
335.482879
 20
66.24049000000001
 30
0.0
 11
335.182879
 21
66.54049999999999
 31
0.0
  0
LINE
  5
12B5
330
1246
100
AcDbEntity
  8
1
  6
Continuous
100
AcDbLine
 10
335.182879
 20
62.06285
 30
0.0
 11
335.482879
 21
62.06285
 31
0.0
  0
LINE
  5
12B6
330
1246
100
AcDbEntity
  8
1
  6
Continuous
100
AcDbLine
 10
335.482879
 20
62.06285
 30
0.0
 11
335.182879
 21
60.90469999999999
 31
0.0
  0
LINE
  5
12B7
330
1246
100
AcDbEntity
  8
1
  6
Continuous
100
AcDbLine
 10
333.482879
 20
66.24049000000001
 30
0.0
 11
333.7828789999999
 21
66.54049999999999
 31
0.0
  0
LINE
  5
12B8
330
1246
100
AcDbEntity
  8
1
  6
Continuous
100
AcDbLine
 10
333.482879
 20
66.24049000000001
 30
0.0
 11
333.7828789999999
 21
65.94049
 31
0.0
  0
LINE
  5
12B9
330
1246
100
AcDbEntity
  8
1
  6
Continuous
100
AcDbLine
 10
333.7828789999999
 20
62.06285
 30
0.0
 11
333.482879
 21
62.06285
 31
0.0
  0
LINE
  5
12BA
330
1246
100
AcDbEntity
  8
1
  6
Continuous
100
AcDbLine
 10
333.482879
 20
62.06285
 30
0.0
 11
333.7828789999999
 21
60.90469999999999
 31
0.0
  0
LINE
  5
12BB
330
1246
100
AcDbEntity
  8
1
  6
Continuous
100
AcDbLine
 10
345.482879
 20
57.0
 30
0.0
 11
343.982879
 21
57.0
 31
0.0
  0
LINE
  5
12BC
330
1246
100
AcDbEntity
  8
1
  6
Continuous
100
AcDbLine
 10
336.9828790000001
 20
90.5
 30
0.0
 11
343.982879
 21
90.5
 31
0.0
  0
LINE
  5
12BD
330
1246
100
AcDbEntity
  8
1
  6
Continuous
100
AcDbLine
 10
338.110211
 20
73.0
 30
0.0
 11
342.855547
 21
73.0
 31
0.0
  0
LINE
  5
12BE
330
1246
100
AcDbEntity
  8
4
  6
CENTER
100
AcDbLine
 10
328.932875
 20
73.0
 30
0.0
 11
350.482879
 21
73.0
 31
0.0
  0
LINE
  5
12BF
330
1246
100
AcDbEntity
  8
1
  6
Continuous
100
AcDbLine
 10
335.182879
 20
80.05953000000003
 30
0.0
 11
335.482879
 21
79.75953
 31
0.0
  0
LINE
  5
12C0
330
1246
100
AcDbEntity
  8
1
  6
Continuous
100
AcDbLine
 10
333.482879
 20
79.75953
 30
0.0
 11
333.7828789999999
 21
80.05953000000003
 31
0.0
  0
ARC
  5
12C1
330
1246
100
AcDbEntity
  8
1
  6
Continuous
100
AcDbCircle
 10
371.50394
 20
81.75
 30
0.0
 40
34.52106099999999
100
AcDbArc
 50
165.317147
 51
194.6828529999999
  0
LINE
  5
12C2
330
1246
100
AcDbEntity
  8
1
  6
Continuous
100
AcDbLine
 10
335.482879
 20
79.75953
 30
0.0
 11
335.182879
 21
79.45953
 31
0.0
  0
LINE
  5
12C3
330
1246
100
AcDbEntity
  8
1
  6
Continuous
100
AcDbLine
 10
335.182879
 20
73.28995
 30
0.0
 11
335.482879
 21
72.98994999999997
 31
0.0
  0
LINE
  5
12C4
330
1246
100
AcDbEntity
  8
1
  6
Continuous
100
AcDbLine
 10
335.482879
 20
72.98994999999997
 30
0.0
 11
335.182879
 21
72.68994999999998
 31
0.0
  0
LINE
  5
12C5
330
1246
100
AcDbEntity
  8
1
  6
Continuous
100
AcDbLine
 10
333.482879
 20
79.75953
 30
0.0
 11
333.7828789999999
 21
79.45953
 31
0.0
  0
LINE
  5
12C6
330
1246
100
AcDbEntity
  8
1
  6
Continuous
100
AcDbLine
 10
333.482879
 20
73.01003
 30
0.0
 11
333.7828789999999
 21
72.71003
 31
0.0
  0
LINE
  5
12C7
330
1246
100
AcDbEntity
  8
1
  6
Continuous
100
AcDbLine
 10
333.482879
 20
73.01003
 30
0.0
 11
333.7828789999999
 21
73.31002999999999
 31
0.0
  0
LINE
  5
12C8
330
1246
100
AcDbEntity
  8
1
  6
Continuous
100
AcDbLine
 10
335.482879
 20
89.0
 30
0.0
 11
336.9828790000001
 21
89.0
 31
0.0
  0
LINE
  5
12C9
330
1246
100
AcDbEntity
  8
1
  6
Continuous
100
AcDbLine
 10
335.482879
 20
83.93715
 30
0.0
 11
335.182879
 21
85.09529999999998
 31
0.0
  0
LINE
  5
12CA
330
1246
100
AcDbEntity
  8
1
  6
Continuous
100
AcDbLine
 10
335.182879
 20
83.93715
 30
0.0
 11
335.482879
 21
83.93715
 31
0.0
  0
LINE
  5
12CB
330
1246
100
AcDbEntity
  8
1
  6
Continuous
100
AcDbLine
 10
333.482879
 20
83.93715
 30
0.0
 11
333.7828789999999
 21
85.09529999999998
 31
0.0
  0
LINE
  5
12CC
330
1246
100
AcDbEntity
  8
1
  6
Continuous
100
AcDbLine
 10
333.7828789999999
 20
83.93715
 30
0.0
 11
333.482879
 21
83.93715
 31
0.0
  0
LINE
  5
12CD
330
1246
100
AcDbEntity
  8
1
  6
Continuous
100
AcDbLine
 10
333.7828789999999
 20
90.5
 30
0.0
 11
335.182879
 21
90.5
 31
0.0
  0
ARC
  5
12CE
330
1246
100
AcDbEntity
  8
1
  6
Continuous
100
AcDbCircle
 10
309.4618179999998
 20
81.75
 30
0.0
 40
34.52106099999999
100
AcDbArc
 50
345.317147
 51
14.68285299999999
  0
LINE
  5
12CF
330
1246
100
AcDbEntity
  8
1
  6
Continuous
100
AcDbLine
 10
345.482879
 20
89.0
 30
0.0
 11
343.982879
 21
89.0
 31
0.0
  0
LINE
  5
12D0
330
1246
100
AcDbEntity
  8
1
  6
Continuous
100
AcDbLine
 10
295.925944
 20
63.5
 30
0.0
 11
295.925944
 21
82.5
 31
0.0
  0
LINE
  5
12D1
330
1246
100
AcDbEntity
  8
1
  6
Continuous
100
AcDbLine
 10
295.425944
 20
63.0
 30
0.0
 11
284.925944
 21
63.0
 31
0.0
  0
ARC
  5
12D2
330
1246
100
AcDbEntity
  8
1
  6
Continuous
100
AcDbCircle
 10
295.425944
 20
63.5
 30
0.0
 40
0.5
100
AcDbArc
 50
270.0
 51
0.0
  0
LINE
  5
12D3
330
1246
100
AcDbEntity
  8
1
  6
Continuous
100
AcDbLine
 10
295.425944
 20
83.0
 30
0.0
 11
284.925944
 21
83.0
 31
0.0
  0
ARC
  5
12D4
330
1246
100
AcDbEntity
  8
1
  6
Continuous
100
AcDbCircle
 10
295.425944
 20
82.5
 30
0.0
 40
0.5
100
AcDbArc
 50
0.0
 51
90.0
  0
LINE
  5
12D5
330
1246
100
AcDbEntity
  8
1
  6
Continuous
100
AcDbLine
 10
297.5259439999998
 20
81.0
 30
0.0
 11
297.5259439999998
 21
65.0
 31
0.0
  0
LINE
  5
12D6
330
1246
100
AcDbEntity
  8
1
  6
Continuous
100
AcDbLine
 10
299.0259439999999
 20
66.90000000000001
 30
0.0
 11
299.0259439999999
 21
79.09999999999998
 31
0.0
  0
ARC
  5
12D7
330
1246
100
AcDbEntity
  8
1
  6
Continuous
100
AcDbCircle
 10
306.2512359999999
 20
70.5
 30
0.0
 40
7.225291999999996
100
AcDbArc
 50
159.7567339999999
 51
200.243266
  0
LINE
  5
12D8
330
1246
100
AcDbEntity
  8
1
  6
Continuous
100
AcDbLine
 10
303.025944
 20
78.0
 30
0.0
 11
303.025944
 21
68.0
 31
0.0
  0
ARC
  5
12D9
330
1246
100
AcDbEntity
  8
1
  6
Continuous
100
AcDbCircle
 10
295.8006519999999
 20
70.5
 30
0.0
 40
7.225291999999996
100
AcDbArc
 50
339.756734
 51
20.24326599999999
  0
LINE
  5
12DA
330
1246
100
AcDbEntity
  8
1
  6
Continuous
100
AcDbLine
 10
295.925944
 20
65.0
 30
0.0
 11
297.5259439999998
 21
65.0
 31
0.0
  0
LINE
  5
12DB
330
1246
100
AcDbEntity
  8
1
  6
Continuous
100
AcDbLine
 10
299.0259439999999
 20
66.90000000000001
 30
0.0
 11
297.5259439999998
 21
66.90000000000001
 31
0.0
  0
LINE
  5
12DC
330
1246
100
AcDbEntity
  8
1
  6
Continuous
100
AcDbLine
 10
303.025944
 20
68.0
 30
0.0
 11
299.0259439999999
 21
68.0
 31
0.0
  0
LINE
  5
12DD
330
1246
100
AcDbEntity
  8
1
  6
Continuous
100
AcDbLine
 10
297.5259439999998
 20
73.0
 30
0.0
 11
299.0259439999999
 21
74.5
 31
0.0
  0
LINE
  5
12DE
330
1246
100
AcDbEntity
  8
1
  6
Continuous
100
AcDbLine
 10
297.5259439999998
 20
71.496043
 30
0.0
 11
299.0259439999999
 21
72.996043
 31
0.0
  0
LINE
  5
12DF
330
1246
100
AcDbEntity
  8
1
  6
Continuous
100
AcDbLine
 10
299.0259439999999
 20
79.09999999999998
 30
0.0
 11
297.5259439999998
 21
79.09999999999998
 31
0.0
  0
LINE
  5
12E0
330
1246
100
AcDbEntity
  8
1
  6
Continuous
100
AcDbLine
 10
299.472236
 20
73.0
 30
0.0
 11
302.579652
 21
73.0
 31
0.0
  0
LINE
  5
12E1
330
1246
100
AcDbEntity
  8
1
  6
Continuous
100
AcDbLine
 10
303.025944
 20
78.0
 30
0.0
 11
299.0259439999999
 21
78.0
 31
0.0
  0
ARC
  5
12E2
330
1246
100
AcDbEntity
  8
1
  6
Continuous
100
AcDbCircle
 10
306.2512359999999
 20
75.5
 30
0.0
 40
7.225291999999996
100
AcDbArc
 50
159.7567339999999
 51
200.243266
  0
ARC
  5
12E3
330
1246
100
AcDbEntity
  8
1
  6
Continuous
100
AcDbCircle
 10
295.8006519999999
 20
75.5
 30
0.0
 40
7.225291999999996
100
AcDbArc
 50
339.756734
 51
20.24326599999999
  0
LINE
  5
12E4
330
1246
100
AcDbEntity
  8
1
  6
Continuous
100
AcDbLine
 10
295.925944
 20
81.0
 30
0.0
 11
297.5259439999998
 21
81.0
 31
0.0
  0
ARC
  5
12E5
330
1246
100
AcDbEntity
  8
1
  6
Continuous
100
AcDbCircle
 10
259.575944
 20
101.0
 30
0.0
 40
2.0
100
AcDbArc
 50
90.0
 51
180.0
  0
LINE
  5
12E6
330
1246
100
AcDbEntity
  8
1
  6
Continuous
100
AcDbLine
 10
262.5759439999999
 20
103.0
 30
0.0
 11
259.575944
 21
103.0
 31
0.0
  0
ARC
  5
12E7
330
1246
100
AcDbEntity
  8
1
  6
Continuous
100
AcDbCircle
 10
227.4759439999999
 20
199.6114629999999
 30
0.0
 40
8.0
100
AcDbArc
 50
270.0
 51
0.0
  0
ARC
  5
12E8
330
1246
100
AcDbEntity
  8
1
  6
Continuous
100
AcDbCircle
 10
227.4759439999999
 20
202.2977549999999
 30
0.0
 40
8.0
100
AcDbArc
 50
0.0
 51
45.0
  0
LINE
  5
12E9
330
1246
100
AcDbEntity
  8
1
  6
Continuous
100
AcDbLine
 10
224.3138749999999
 20
191.6114629999999
 30
0.0
 11
227.4759439999999
 21
191.6114629999999
 31
0.0
  0
ARC
  5
12EA
330
1246
100
AcDbEntity
  8
1
  6
Continuous
100
AcDbCircle
 10
224.3138749999999
 20
193.6114629999999
 30
0.0
 40
2.0
100
AcDbArc
 50
184.8361309999999
 51
270.0
  0
LINE
  5
12EB
330
1246
100
AcDbEntity
  8
1
  6
Continuous
100
AcDbLine
 10
235.475944
 20
202.2977549999999
 30
0.0
 11
235.475944
 21
199.6114629999999
 31
0.0
  0
LINE
  5
12EC
330
1246
100
AcDbEntity
  8
1
  6
Continuous
100
AcDbLine
 10
233.132798
 20
207.954609
 30
0.0
 11
230.94041
 21
210.146997
 31
0.0
  0
ARC
  5
12ED
330
1246
100
AcDbEntity
  8
1
  6
Continuous
100
AcDbCircle
 10
234.475944
 20
213.682531
 30
0.0
 40
5.0
100
AcDbArc
 50
180.0
 51
225.0
  0
LINE
  5
12EE
330
1246
100
AcDbEntity
  8
1
  6
Continuous
100
AcDbLine
 10
257.575944
 20
340.5733769999998
 30
0.0
 11
257.575944
 21
336.1738609999998
 31
0.0
  0
LINE
  5
12EF
330
1246
100
AcDbEntity
  8
1
  6
Continuous
100
AcDbLine
 10
261.575944
 20
341.611463
 30
0.0
 11
261.575944
 21
281.611463
 31
0.0
  0
LINE
  5
12F0
330
1246
100
AcDbEntity
  8
1
  6
Continuous
100
AcDbLine
 10
262.5759439999999
 20
341.611463
 30
0.0
 11
262.5759439999999
 21
281.611463
 31
0.0
  0
LINE
  5
12F1
330
1246
100
AcDbEntity
  8
1
  6
Continuous
100
AcDbLine
 10
248.0870069999999
 20
325.722773
 30
0.0
 11
257.0042199999999
 21
340.569246
 31
0.0
  0
LINE
  5
12F2
330
1246
100
AcDbEntity
  8
1
  6
Continuous
100
AcDbLine
 10
229.0243729999999
 20
328.4974889999999
 30
0.0
 11
247.975944
 21
325.611463
 31
0.0
  0
LINE
  5
12F3
330
1246
100
AcDbEntity
  8
1
  6
Continuous
100
AcDbLine
 10
228.435237
 20
324.628831
 30
0.0
 11
247.3868079999999
 21
321.7428049999999
 31
0.0
  0
LINE
  5
12F4
330
1246
100
AcDbEntity
  8
1
  6
Continuous
100
AcDbLine
 10
247.975944
 20
301.611463
 30
0.0
 11
234.940772
 21
300.4441339999999
 31
0.0
  0
LINE
  5
12F5
330
1246
100
AcDbEntity
  8
1
  6
Continuous
100
AcDbLine
 10
247.975944
 20
297.611463
 30
0.0
 11
231.134196
 21
296.103247
 31
0.0
  0
LINE
  5
12F6
330
1246
100
AcDbEntity
  8
4
  6
CENTER
100
AcDbLine
 10
210.52865
 20
311.611463
 30
0.0
 11
307.0618679999999
 21
311.611463
 31
0.0
  0
ARC
  5
12F7
330
1246
100
AcDbEntity
  8
1
  6
Continuous
100
AcDbCircle
 10
414.4759439999998
 20
294.611463
 30
0.0
 40
200.0
100
AcDbArc
 50
180.0
 51
184.8361309999999
  0
LINE
  5
12F8
330
1246
100
AcDbEntity
  8
1
  6
Continuous
100
AcDbLine
 10
213.975944
 20
327.611463
 30
0.0
 11
213.975944
 21
309.611463
 31
0.0
  0
LINE
  5
12F9
330
1246
100
AcDbEntity
  8
1
  6
Continuous
100
AcDbLine
 10
215.588339
 20
325.929911
 30
0.0
 11
215.588339
 21
294.611463
 31
0.0
  0
LINE
  5
12FA
330
1246
100
AcDbEntity
  8
1
  6
Continuous
100
AcDbLine
 10
215.078974
 20
325.929911
 30
0.0
 11
215.078974
 21
294.611463
 31
0.0
  0
LINE
  5
12FB
330
1246
100
AcDbEntity
  8
1
  6
Continuous
100
AcDbLine
 10
213.975944
 20
304.611463
 30
0.0
 11
213.4759439999999
 21
304.111463
 31
0.0
  0
LINE
  5
12FC
330
1246
100
AcDbEntity
  8
1
  6
Continuous
100
AcDbLine
 10
213.975944
 20
297.611463
 30
0.0
 11
213.975944
 21
294.611463
 31
0.0
  0
LINE
  5
12FD
330
1246
100
AcDbEntity
  8
1
  6
Continuous
100
AcDbLine
 10
213.975944
 20
294.611463
 30
0.0
 11
215.588339
 21
294.611463
 31
0.0
  0
LINE
  5
12FE
330
1246
100
AcDbEntity
  8
1
  6
Continuous
100
AcDbLine
 10
213.4759439999999
 20
298.111463
 30
0.0
 11
213.975944
 21
297.611463
 31
0.0
  0
LINE
  5
12FF
330
1246
100
AcDbEntity
  8
1
  6
Continuous
100
AcDbLine
 10
213.975944
 20
298.611463
 30
0.0
 11
213.4759439999999
 21
298.111463
 31
0.0
  0
LINE
  5
1300
330
1246
100
AcDbEntity
  8
1
  6
Continuous
100
AcDbLine
 10
213.4759439999999
 20
299.111463
 30
0.0
 11
213.975944
 21
298.611463
 31
0.0
  0
LINE
  5
1301
330
1246
100
AcDbEntity
  8
1
  6
Continuous
100
AcDbLine
 10
213.975944
 20
299.611463
 30
0.0
 11
213.4759439999999
 21
299.111463
 31
0.0
  0
LINE
  5
1302
330
1246
100
AcDbEntity
  8
1
  6
Continuous
100
AcDbLine
 10
213.4759439999999
 20
300.111463
 30
0.0
 11
213.975944
 21
299.611463
 31
0.0
  0
LINE
  5
1303
330
1246
100
AcDbEntity
  8
1
  6
Continuous
100
AcDbLine
 10
213.975944
 20
300.611463
 30
0.0
 11
213.4759439999999
 21
300.111463
 31
0.0
  0
LINE
  5
1304
330
1246
100
AcDbEntity
  8
1
  6
Continuous
100
AcDbLine
 10
213.4759439999999
 20
301.111463
 30
0.0
 11
213.975944
 21
300.611463
 31
0.0
  0
LINE
  5
1305
330
1246
100
AcDbEntity
  8
1
  6
Continuous
100
AcDbLine
 10
213.975944
 20
301.611463
 30
0.0
 11
213.4759439999999
 21
301.111463
 31
0.0
  0
LINE
  5
1306
330
1246
100
AcDbEntity
  8
1
  6
Continuous
100
AcDbLine
 10
213.4759439999999
 20
302.111463
 30
0.0
 11
213.975944
 21
301.611463
 31
0.0
  0
LINE
  5
1307
330
1246
100
AcDbEntity
  8
1
  6
Continuous
100
AcDbLine
 10
213.975944
 20
302.611463
 30
0.0
 11
213.4759439999999
 21
302.111463
 31
0.0
  0
LINE
  5
1308
330
1246
100
AcDbEntity
  8
1
  6
Continuous
100
AcDbLine
 10
213.4759439999999
 20
303.111463
 30
0.0
 11
213.975944
 21
302.611463
 31
0.0
  0
LINE
  5
1309
330
1246
100
AcDbEntity
  8
1
  6
Continuous
100
AcDbLine
 10
213.975944
 20
303.611463
 30
0.0
 11
213.4759439999999
 21
303.111463
 31
0.0
  0
LINE
  5
130A
330
1246
100
AcDbEntity
  8
1
  6
Continuous
100
AcDbLine
 10
213.4759439999999
 20
304.111463
 30
0.0
 11
213.975944
 21
303.611463
 31
0.0
  0
LINE
  5
130B
330
1246
100
AcDbEntity
  8
1
  6
Continuous
100
AcDbLine
 10
213.4759439999999
 20
305.111463
 30
0.0
 11
213.975944
 21
304.611463
 31
0.0
  0
LINE
  5
130C
330
1246
100
AcDbEntity
  8
1
  6
Continuous
100
AcDbLine
 10
213.975944
 20
305.611463
 30
0.0
 11
213.4759439999999
 21
305.111463
 31
0.0
  0
LINE
  5
130D
330
1246
100
AcDbEntity
  8
1
  6
Continuous
100
AcDbLine
 10
213.4759439999999
 20
306.111463
 30
0.0
 11
213.975944
 21
305.611463
 31
0.0
  0
LINE
  5
130E
330
1246
100
AcDbEntity
  8
1
  6
Continuous
100
AcDbLine
 10
213.975944
 20
306.611463
 30
0.0
 11
213.4759439999999
 21
306.111463
 31
0.0
  0
LINE
  5
130F
330
1246
100
AcDbEntity
  8
1
  6
Continuous
100
AcDbLine
 10
213.4759439999999
 20
307.111463
 30
0.0
 11
213.975944
 21
306.611463
 31
0.0
  0
LINE
  5
1310
330
1246
100
AcDbEntity
  8
1
  6
Continuous
100
AcDbLine
 10
213.975944
 20
307.611463
 30
0.0
 11
213.4759439999999
 21
307.111463
 31
0.0
  0
LINE
  5
1311
330
1246
100
AcDbEntity
  8
1
  6
Continuous
100
AcDbLine
 10
213.4759439999999
 20
308.111463
 30
0.0
 11
213.975944
 21
307.611463
 31
0.0
  0
LINE
  5
1312
330
1246
100
AcDbEntity
  8
1
  6
Continuous
100
AcDbLine
 10
213.975944
 20
308.611463
 30
0.0
 11
213.4759439999999
 21
308.111463
 31
0.0
  0
LINE
  5
1313
330
1246
100
AcDbEntity
  8
1
  6
Continuous
100
AcDbLine
 10
213.4759439999999
 20
309.111463
 30
0.0
 11
213.975944
 21
308.611463
 31
0.0
  0
LINE
  5
1314
330
1246
100
AcDbEntity
  8
1
  6
Continuous
100
AcDbLine
 10
213.975944
 20
309.611463
 30
0.0
 11
213.4759439999999
 21
309.111463
 31
0.0
  0
ARC
  5
1315
330
1246
100
AcDbEntity
  8
1
  6
Continuous
100
AcDbCircle
 10
235.475944
 20
294.468049
 30
0.0
 40
6.0
100
AcDbArc
 50
95.11731500000001
 51
180.0
  0
ARC
  5
1316
330
1246
100
AcDbEntity
  8
1
  6
Continuous
100
AcDbCircle
 10
232.472126
 20
281.1630349999999
 30
0.0
 40
15.0
100
AcDbArc
 50
95.11731500000001
 51
100.851964
  0
LINE
  5
1317
330
1246
100
AcDbEntity
  8
1
  6
Continuous
100
AcDbLine
 10
217.014418
 20
324.6982039999999
 30
0.0
 11
227.5188859999999
 21
324.6982039999999
 31
0.0
  0
LINE
  5
1318
330
1246
100
AcDbEntity
  8
1
  6
Continuous
100
AcDbLine
 10
214.9759439999999
 20
328.611463
 30
0.0
 11
227.5188859999999
 21
328.611463
 31
0.0
  0
LINE
  5
1319
330
1246
100
AcDbEntity
  8
1
  6
Continuous
100
AcDbLine
 10
215.078974
 20
325.929911
 30
0.0
 11
214.6603869999999
 21
327.746119
 31
0.0
  0
LINE
  5
131A
330
1246
100
AcDbEntity
  8
1
  6
Continuous
100
AcDbLine
 10
215.078974
 20
325.929911
 30
0.0
 11
215.588339
 21
325.929911
 31
0.0
  0
ARC
  5
131B
330
1246
100
AcDbEntity
  8
1
  6
Continuous
100
AcDbCircle
 10
217.014418
 20
323.698204
 30
0.0
 40
1.0
100
AcDbArc
 50
90.0
 51
180.0
  0
LINE
  5
131C
330
1246
100
AcDbEntity
  8
1
  6
Continuous
100
AcDbLine
 10
215.588339
 20
325.929911
 30
0.0
 11
216.384462
 21
324.7756109999999
 31
0.0
  0
ARC
  5
131D
330
1246
100
AcDbEntity
  8
1
  6
Continuous
100
AcDbCircle
 10
214.9759439999999
 20
327.611463
 30
0.0
 40
1.0
100
AcDbArc
 50
90.0
 51
180.0
  0
ARC
  5
131E
330
1246
100
AcDbEntity
  8
1
  6
Continuous
100
AcDbCircle
 10
227.5188859999999
 20
318.611463
 30
0.0
 40
6.086740999999999
100
AcDbArc
 50
81.34127900000001
 51
90.0
  0
ARC
  5
131F
330
1246
100
AcDbEntity
  8
1
  6
Continuous
100
AcDbCircle
 10
227.5188859999999
 20
318.611463
 30
0.0
 40
10.0
100
AcDbArc
 50
81.34127900000001
 51
90.0
  0
LINE
  5
1320
330
1246
100
AcDbEntity
  8
1
  6
Continuous
100
AcDbLine
 10
267.0759439999998
 20
294.111463
 30
0.0
 11
267.0759439999998
 21
287.611463
 31
0.0
  0
LINE
  5
1321
330
1246
100
AcDbEntity
  8
1
  6
Continuous
100
AcDbLine
 10
257.0064789999999
 20
287.9010349999999
 30
0.0
 11
248.037572
 21
301.319321
 31
0.0
  0
LINE
  5
1322
330
1246
100
AcDbEntity
  8
1
  6
Continuous
100
AcDbLine
 10
248.0869429999999
 20
297.510626
 30
0.0
 11
257.003965
 21
282.654147
 31
0.0
  0
LINE
  5
1323
330
1246
100
AcDbEntity
  8
1
  6
Continuous
100
AcDbLine
 10
257.575944
 20
335.3218909999998
 30
0.0
 11
257.575944
 21
287.9010349999999
 31
0.0
  0
ARC
  5
1324
330
1246
100
AcDbEntity
  8
1
  6
Continuous
100
AcDbCircle
 10
258.759968
 20
283.611463
 30
0.0
 40
2.0
100
AcDbArc
 50
208.597786
 51
270.0
  0
LINE
  5
1325
330
1246
100
AcDbEntity
  8
1
  6
Continuous
100
AcDbLine
 10
258.759968
 20
281.611463
 30
0.0
 11
262.5759439999999
 21
281.611463
 31
0.0
  0
LINE
  5
1326
330
1246
100
AcDbEntity
  8
1
  6
Continuous
100
AcDbLine
 10
257.575944
 20
282.6495489999999
 30
0.0
 11
257.575944
 21
287.0490649999999
 31
0.0
  0
LINE
  5
1327
330
1246
100
AcDbEntity
  8
1
  6
Continuous
100
AcDbLine
 10
262.5759439999999
 20
287.611463
 30
0.0
 11
267.0759439999998
 21
287.611463
 31
0.0
  0
LINE
  5
1328
330
1246
100
AcDbEntity
  8
1
  6
Continuous
100
AcDbLine
 10
262.5759439999999
 20
301.861463
 30
0.0
 11
284.625944
 21
301.861463
 31
0.0
  0
LINE
  5
1329
330
1246
100
AcDbEntity
  8
1
  6
Continuous
100
AcDbLine
 10
262.5759439999999
 20
321.361463
 30
0.0
 11
284.625944
 21
321.361463
 31
0.0
  0
LINE
  5
132A
330
1246
100
AcDbEntity
  8
1
  6
Continuous
100
AcDbLine
 10
248.0259439999999
 20
297.749955
 30
0.0
 11
248.0259439999999
 21
325.4833269999999
 31
0.0
  0
LINE
  5
132B
330
1246
100
AcDbEntity
  8
1
  6
Continuous
100
AcDbLine
 10
247.975944
 20
297.611463
 30
0.0
 11
247.975944
 21
325.611463
 31
0.0
  0
ARC
  5
132C
330
1246
100
AcDbEntity
  8
1
  6
Continuous
100
AcDbCircle
 10
248.5259439999999
 20
297.749955
 30
0.0
 40
0.5
100
AcDbArc
 50
180.0
 51
210.963757
  0
LINE
  5
132D
330
1246
100
AcDbEntity
  8
1
  6
Continuous
100
AcDbLine
 10
247.975944
 20
301.611463
 30
0.0
 11
248.0259439999999
 21
301.611463
 31
0.0
  0
LINE
  5
132E
330
1246
100
AcDbEntity
  8
1
  6
Continuous
100
AcDbLine
 10
262.5759439999999
 20
294.111463
 30
0.0
 11
267.0759439999998
 21
294.111463
 31
0.0
  0
LINE
  5
132F
330
1246
100
AcDbEntity
  8
1
  6
Continuous
100
AcDbLine
 10
257.0064789999999
 20
335.3218909999998
 30
0.0
 11
248.037572
 21
321.9036049999999
 31
0.0
  0
ARC
  5
1330
330
1246
100
AcDbEntity
  8
1
  6
Continuous
100
AcDbCircle
 10
248.5259439999999
 20
325.4833269999999
 30
0.0
 40
0.5
100
AcDbArc
 50
151.2520859999999
 51
180.0
  0
LINE
  5
1331
330
1246
100
AcDbEntity
  8
1
  6
Continuous
100
AcDbLine
 10
247.975944
 20
324.111463
 30
0.0
 11
248.0259439999999
 21
324.111463
 31
0.0
  0
LINE
  5
1332
330
1246
100
AcDbEntity
  8
1
  6
Continuous
100
AcDbLine
 10
247.975944
 20
321.2808739999999
 30
0.0
 11
248.0259439999999
 21
321.2808739999999
 31
0.0
  0
LINE
  5
1333
330
1246
100
AcDbEntity
  8
1
  6
Continuous
100
AcDbLine
 10
262.5759439999999
 20
335.611463
 30
0.0
 11
267.0759439999998
 21
335.611463
 31
0.0
  0
LINE
  5
1334
330
1246
100
AcDbEntity
  8
1
  6
Continuous
100
AcDbLine
 10
262.5759439999999
 20
329.111463
 30
0.0
 11
267.0759439999998
 21
329.111463
 31
0.0
  0
LINE
  5
1335
330
1246
100
AcDbEntity
  8
1
  6
Continuous
100
AcDbLine
 10
267.0759439999998
 20
335.611463
 30
0.0
 11
267.0759439999998
 21
329.111463
 31
0.0
  0
LINE
  5
1336
330
1246
100
AcDbEntity
  8
1
  6
Continuous
100
AcDbLine
 10
284.925944
 20
321.611441
 30
0.0
 11
284.925944
 21
301.611441
 31
0.0
  0
LINE
  5
1337
330
1246
100
AcDbEntity
  8
1
  6
Continuous
100
AcDbLine
 10
284.625944
 20
301.861463
 30
0.0
 11
284.925944
 21
302.1614629999999
 31
0.0
  0
LINE
  5
1338
330
1246
100
AcDbEntity
  8
1
  6
Continuous
100
AcDbLine
 10
284.625944
 20
321.361463
 30
0.0
 11
284.925944
 21
321.061463
 31
0.0
  0
LINE
  5
1339
330
1246
100
AcDbEntity
  8
1
  6
Continuous
100
AcDbLine
 10
258.759968
 20
341.611463
 30
0.0
 11
262.5759439999999
 21
341.611463
 31
0.0
  0
ARC
  5
133A
330
1246
100
AcDbEntity
  8
1
  6
Continuous
100
AcDbCircle
 10
258.759968
 20
339.611463
 30
0.0
 40
2.0
100
AcDbArc
 50
90.0
 51
151.386961
  0
LINE
  5
133B
330
1246
100
AcDbEntity
  8
1
  6
Continuous
100
AcDbLine
 10
336.9828769999998
 20
294.111463
 30
0.0
 11
338.545914
 21
291.404203
 31
0.0
  0
LINE
  5
133C
330
1246
100
AcDbEntity
  8
1
  6
Continuous
100
AcDbLine
 10
343.9828769999999
 20
294.111463
 30
0.0
 11
342.4198399999997
 21
291.404203
 31
0.0
  0
ARC
  5
133D
330
1246
100
AcDbEntity
  8
1
  6
Continuous
100
AcDbCircle
 10
348.865673
 20
296.4560189999999
 30
0.0
 40
11.882796
100
AcDbArc
 50
154.840673
 51
194.726372
  0
ARC
  5
133E
330
1246
100
AcDbEntity
  8
1
  6
Continuous
100
AcDbCircle
 10
332.100081
 20
296.4560189999999
 30
0.0
 40
11.882796
100
AcDbArc
 50
345.2736279999998
 51
25.159327
  0
LINE
  5
133F
330
1246
100
AcDbEntity
  8
1
  6
Continuous
100
AcDbLine
 10
342.4198399999997
 20
291.404204
 30
0.0
 11
338.545914
 21
291.404204
 31
0.0
  0
LINE
  5
1340
330
1246
100
AcDbEntity
  8
1
  6
Continuous
100
AcDbLine
 10
345.4828769999999
 20
295.611463
 30
0.0
 11
345.4828769999999
 21
327.611463
 31
0.0
  0
LINE
  5
1341
330
1246
100
AcDbEntity
  8
1
  6
Continuous
100
AcDbLine
 10
343.9828769999999
 20
294.111463
 30
0.0
 11
343.9828769999999
 21
329.111463
 31
0.0
  0
LINE
  5
1342
330
1246
100
AcDbEntity
  8
1
  6
Continuous
100
AcDbLine
 10
336.9828769999998
 20
294.111463
 30
0.0
 11
336.9828769999998
 21
329.111463
 31
0.0
  0
LINE
  5
1343
330
1246
100
AcDbEntity
  8
1
  6
Continuous
100
AcDbLine
 10
335.182877
 20
294.111463
 30
0.0
 11
335.182877
 21
329.111463
 31
0.0
  0
ARC
  5
1344
330
1246
100
AcDbEntity
  8
1
  6
Continuous
100
AcDbCircle
 10
382.8230709999999
 20
311.611463
 30
0.0
 40
45.84019399999998
100
AcDbArc
 50
167.266894
 51
192.733106
  0
ARC
  5
1345
330
1246
100
AcDbEntity
  8
1
  6
Continuous
100
AcDbCircle
 10
298.1426819999999
 20
311.611463
 30
0.0
 40
45.84019399999998
100
AcDbArc
 50
347.266894
 51
12.733106
  0
LINE
  5
1346
330
1246
100
AcDbEntity
  8
1
  6
Continuous
100
AcDbLine
 10
335.4828769999999
 20
327.611463
 30
0.0
 11
335.4828769999999
 21
295.611463
 31
0.0
  0
LINE
  5
1347
330
1246
100
AcDbEntity
  8
1
  6
Continuous
100
AcDbLine
 10
333.7828769999999
 20
329.111463
 30
0.0
 11
333.7828769999999
 21
294.111463
 31
0.0
  0
LINE
  5
1348
330
1246
100
AcDbEntity
  8
1
  6
Continuous
100
AcDbLine
 10
342.855545
 20
301.507833
 30
0.0
 11
338.110209
 21
301.507833
 31
0.0
  0
LINE
  5
1349
330
1246
100
AcDbEntity
  8
4
  6
CENTER
100
AcDbLine
 10
328.882877
 20
311.611463
 30
0.0
 11
350.4828769999999
 21
311.611463
 31
0.0
  0
LINE
  5
134A
330
1246
100
AcDbEntity
  8
1
  6
Continuous
100
AcDbLine
 10
335.4828769999999
 20
295.611463
 30
0.0
 11
336.9828769999998
 21
295.611463
 31
0.0
  0
LINE
  5
134B
330
1246
100
AcDbEntity
  8
1
  6
Continuous
100
AcDbLine
 10
335.4828769999999
 20
300.6743129999999
 30
0.0
 11
335.182877
 21
299.516163
 31
0.0
  0
LINE
  5
134C
330
1246
100
AcDbEntity
  8
1
  6
Continuous
100
AcDbLine
 10
335.182877
 20
300.6743129999999
 30
0.0
 11
335.4828769999999
 21
300.6743129999999
 31
0.0
  0
LINE
  5
134D
330
1246
100
AcDbEntity
  8
1
  6
Continuous
100
AcDbLine
 10
333.4828769999999
 20
300.6743129999999
 30
0.0
 11
333.7828769999999
 21
299.516163
 31
0.0
  0
LINE
  5
134E
330
1246
100
AcDbEntity
  8
1
  6
Continuous
100
AcDbLine
 10
333.7828769999999
 20
300.6743129999999
 30
0.0
 11
333.4828769999999
 21
300.6743129999999
 31
0.0
  0
LINE
  5
134F
330
1246
100
AcDbEntity
  8
1
  6
Continuous
100
AcDbLine
 10
333.7828769999999
 20
294.111463
 30
0.0
 11
335.182877
 21
294.111463
 31
0.0
  0
LINE
  5
1350
330
1246
100
AcDbEntity
  8
1
  6
Continuous
100
AcDbLine
 10
335.4828769999999
 20
311.6014129999999
 30
0.0
 11
335.182877
 21
311.3014129999999
 31
0.0
  0
LINE
  5
1351
330
1246
100
AcDbEntity
  8
1
  6
Continuous
100
AcDbLine
 10
335.182877
 20
311.901413
 30
0.0
 11
335.4828769999999
 21
311.6014129999999
 31
0.0
  0
LINE
  5
1352
330
1246
100
AcDbEntity
  8
1
  6
Continuous
100
AcDbLine
 10
335.4828769999999
 20
304.851953
 30
0.0
 11
335.182877
 21
305.1519629999999
 31
0.0
  0
LINE
  5
1353
330
1246
100
AcDbEntity
  8
1
  6
Continuous
100
AcDbLine
 10
335.182877
 20
304.5519529999999
 30
0.0
 11
335.4828769999999
 21
304.851953
 31
0.0
  0
LINE
  5
1354
330
1246
100
AcDbEntity
  8
1
  6
Continuous
100
AcDbLine
 10
333.4828769999999
 20
311.6214929999998
 30
0.0
 11
333.7828769999999
 21
311.921493
 31
0.0
  0
LINE
  5
1355
330
1246
100
AcDbEntity
  8
1
  6
Continuous
100
AcDbLine
 10
333.4828769999999
 20
311.6214929999998
 30
0.0
 11
333.7828769999999
 21
311.3214929999998
 31
0.0
  0
LINE
  5
1356
330
1246
100
AcDbEntity
  8
1
  6
Continuous
100
AcDbLine
 10
333.4828769999999
 20
304.851953
 30
0.0
 11
333.7828769999999
 21
304.5519529999999
 31
0.0
  0
LINE
  5
1357
330
1246
100
AcDbEntity
  8
1
  6
Continuous
100
AcDbLine
 10
333.4828769999999
 20
304.851953
 30
0.0
 11
333.7828769999999
 21
305.1519629999999
 31
0.0
  0
LINE
  5
1358
330
1246
100
AcDbEntity
  8
1
  6
Continuous
100
AcDbLine
 10
345.4828769999999
 20
295.611463
 30
0.0
 11
343.9828769999999
 21
295.611463
 31
0.0
  0
LINE
  5
1359
330
1246
100
AcDbEntity
  8
1
  6
Continuous
100
AcDbLine
 10
342.4198399999997
 20
331.8187229999999
 30
0.0
 11
338.545914
 21
331.8187229999999
 31
0.0
  0
LINE
  5
135A
330
1246
100
AcDbEntity
  8
1
  6
Continuous
100
AcDbLine
 10
342.855545
 20
321.715093
 30
0.0
 11
338.110209
 21
321.715093
 31
0.0
  0
ARC
  5
135B
330
1246
100
AcDbEntity
  8
1
  6
Continuous
100
AcDbCircle
 10
348.865673
 20
326.766908
 30
0.0
 40
11.882796
100
AcDbArc
 50
165.2736289999998
 51
205.159327
  0
LINE
  5
135C
330
1246
100
AcDbEntity
  8
1
  6
Continuous
100
AcDbLine
 10
335.182877
 20
322.548613
 30
0.0
 11
335.4828769999999
 21
322.548613
 31
0.0
  0
LINE
  5
135D
330
1246
100
AcDbEntity
  8
1
  6
Continuous
100
AcDbLine
 10
335.4828769999999
 20
322.548613
 30
0.0
 11
335.182877
 21
323.7067629999998
 31
0.0
  0
LINE
  5
135E
330
1246
100
AcDbEntity
  8
1
  6
Continuous
100
AcDbLine
 10
335.182877
 20
318.670993
 30
0.0
 11
335.4828769999999
 21
318.370993
 31
0.0
  0
LINE
  5
135F
330
1246
100
AcDbEntity
  8
1
  6
Continuous
100
AcDbLine
 10
335.4828769999999
 20
318.370993
 30
0.0
 11
335.182877
 21
318.0709929999999
 31
0.0
  0
LINE
  5
1360
330
1246
100
AcDbEntity
  8
1
  6
Continuous
100
AcDbLine
 10
333.7828769999999
 20
322.548613
 30
0.0
 11
333.4828769999999
 21
322.548613
 31
0.0
  0
LINE
  5
1361
330
1246
100
AcDbEntity
  8
1
  6
Continuous
100
AcDbLine
 10
333.4828769999999
 20
322.548613
 30
0.0
 11
333.7828769999999
 21
323.7067629999998
 31
0.0
  0
LINE
  5
1362
330
1246
100
AcDbEntity
  8
1
  6
Continuous
100
AcDbLine
 10
333.4828769999999
 20
318.370993
 30
0.0
 11
333.7828769999999
 21
318.0709929999999
 31
0.0
  0
LINE
  5
1363
330
1246
100
AcDbEntity
  8
1
  6
Continuous
100
AcDbLine
 10
333.4828769999999
 20
318.370993
 30
0.0
 11
333.7828769999999
 21
318.670993
 31
0.0
  0
LINE
  5
1364
330
1246
100
AcDbEntity
  8
1
  6
Continuous
100
AcDbLine
 10
335.4828769999999
 20
327.611463
 30
0.0
 11
336.9828769999998
 21
327.611463
 31
0.0
  0
LINE
  5
1365
330
1246
100
AcDbEntity
  8
1
  6
Continuous
100
AcDbLine
 10
333.7828769999999
 20
329.111463
 30
0.0
 11
335.182877
 21
329.111463
 31
0.0
  0
LINE
  5
1366
330
1246
100
AcDbEntity
  8
1
  6
Continuous
100
AcDbLine
 10
336.9828769999998
 20
329.111463
 30
0.0
 11
338.545914
 21
331.8187229999999
 31
0.0
  0
ARC
  5
1367
330
1246
100
AcDbEntity
  8
1
  6
Continuous
100
AcDbCircle
 10
332.100081
 20
326.766908
 30
0.0
 40
11.882796
100
AcDbArc
 50
334.8406729999999
 51
14.726371
  0
LINE
  5
1368
330
1246
100
AcDbEntity
  8
1
  6
Continuous
100
AcDbLine
 10
345.4828769999999
 20
327.611463
 30
0.0
 11
343.9828769999999
 21
327.611463
 31
0.0
  0
LINE
  5
1369
330
1246
100
AcDbEntity
  8
1
  6
Continuous
100
AcDbLine
 10
343.9828769999999
 20
329.111463
 30
0.0
 11
342.4198399999997
 21
331.8187229999999
 31
0.0
  0
LINE
  5
136A
330
1246
100
AcDbEntity
  8
1
  6
Continuous
100
AcDbLine
 10
295.925944
 20
302.111441
 30
0.0
 11
295.925944
 21
321.111441
 31
0.0
  0
LINE
  5
136B
330
1246
100
AcDbEntity
  8
1
  6
Continuous
100
AcDbLine
 10
295.425944
 20
301.611441
 30
0.0
 11
284.925944
 21
301.611441
 31
0.0
  0
ARC
  5
136C
330
1246
100
AcDbEntity
  8
1
  6
Continuous
100
AcDbCircle
 10
295.425944
 20
302.111441
 30
0.0
 40
0.5
100
AcDbArc
 50
270.0
 51
0.0
  0
LINE
  5
136D
330
1246
100
AcDbEntity
  8
1
  6
Continuous
100
AcDbLine
 10
295.425944
 20
321.611441
 30
0.0
 11
284.925944
 21
321.611441
 31
0.0
  0
ARC
  5
136E
330
1246
100
AcDbEntity
  8
1
  6
Continuous
100
AcDbCircle
 10
295.425944
 20
321.111441
 30
0.0
 40
0.5
100
AcDbArc
 50
0.0
 51
90.0
  0
ARC
  5
136F
330
1246
100
AcDbEntity
  8
1
  6
Continuous
100
AcDbCircle
 10
301.581924
 20
315.937964
 30
0.0
 40
2.555979999999999
100
AcDbArc
 50
154.371637
 51
214.371637
  0
ARC
  5
1370
330
1246
100
AcDbEntity
  8
1
  6
Continuous
100
AcDbCircle
 10
300.469964
 20
315.937964
 30
0.0
 40
2.555979999999999
100
AcDbArc
 50
325.6283629999999
 51
25.628363
  0
LINE
  5
1371
330
1246
100
AcDbEntity
  8
1
  6
Continuous
100
AcDbLine
 10
297.5259439999998
 20
319.611421
 30
0.0
 11
297.5259439999998
 21
303.611421
 31
0.0
  0
LINE
  5
1372
330
1246
100
AcDbEntity
  8
1
  6
Continuous
100
AcDbLine
 10
299.0259439999999
 20
305.5114209999999
 30
0.0
 11
299.0259439999999
 21
317.7114209999999
 31
0.0
  0
LINE
  5
1373
330
1246
100
AcDbEntity
  8
1
  6
Continuous
100
AcDbLine
 10
299.0259439999999
 20
305.837918
 30
0.0
 11
299.0259439999999
 21
317.384924
 31
0.0
  0
LINE
  5
1374
330
1246
100
AcDbEntity
  8
1
  6
Continuous
100
AcDbLine
 10
303.025944
 20
316.6079639999999
 30
0.0
 11
303.025944
 21
306.606964
 31
0.0
  0
LINE
  5
1375
330
1246
100
AcDbEntity
  8
1
  6
Continuous
100
AcDbLine
 10
295.925944
 20
303.611421
 30
0.0
 11
297.5259439999998
 21
303.611421
 31
0.0
  0
LINE
  5
1376
330
1246
100
AcDbEntity
  8
1
  6
Continuous
100
AcDbLine
 10
297.5259439999998
 20
310.107464
 30
0.0
 11
299.0259439999999
 21
311.6074639999999
 31
0.0
  0
LINE
  5
1377
330
1246
100
AcDbEntity
  8
1
  6
Continuous
100
AcDbLine
 10
297.5259439999998
 20
311.611421
 30
0.0
 11
299.0259439999999
 21
313.111421
 31
0.0
  0
LINE
  5
1378
330
1246
100
AcDbEntity
  8
1
  6
Continuous
100
AcDbLine
 10
299.472236
 20
314.494964
 30
0.0
 11
302.579652
 21
314.494964
 31
0.0
  0
LINE
  5
1379
330
1246
100
AcDbEntity
  8
1
  6
Continuous
100
AcDbLine
 10
299.0259439999999
 20
305.5114209999999
 30
0.0
 11
297.5259439999998
 21
305.5114209999999
 31
0.0
  0
LINE
  5
137A
330
1246
100
AcDbEntity
  8
1
  6
Continuous
100
AcDbLine
 10
299.472236
 20
308.7209639999999
 30
0.0
 11
302.579652
 21
308.7209639999999
 31
0.0
  0
LINE
  5
137B
330
1246
100
AcDbEntity
  8
1
  6
Continuous
100
AcDbLine
 10
299.472236
 20
305.8339639999999
 30
0.0
 11
302.579652
 21
305.8339639999999
 31
0.0
  0
ARC
  5
137C
330
1246
100
AcDbEntity
  8
1
  6
Continuous
100
AcDbCircle
 10
301.581944
 20
307.277964
 30
0.0
 40
2.55582
100
AcDbArc
 50
214.3528569999999
 51
214.3839999999999
  0
ARC
  5
137D
330
1246
100
AcDbEntity
  8
1
  6
Continuous
100
AcDbCircle
 10
301.581924
 20
307.276964
 30
0.0
 40
2.555979999999999
100
AcDbArc
 50
145.6283629999998
 51
205.6283629999998
  0
LINE
  5
137E
330
1246
100
AcDbEntity
  8
1
  6
Continuous
100
AcDbLine
 10
299.0259439999999
 20
306.606964
 30
0.0
 11
299.472236
 21
305.8339639999999
 31
0.0
  0
ARC
  5
137F
330
1246
100
AcDbEntity
  8
1
  6
Continuous
100
AcDbCircle
 10
300.4699439999999
 20
307.277964
 30
0.0
 40
2.55582
100
AcDbArc
 50
325.6159999999998
 51
325.647143
  0
ARC
  5
1380
330
1246
100
AcDbEntity
  8
1
  6
Continuous
100
AcDbCircle
 10
300.469964
 20
307.276964
 30
0.0
 40
2.555979999999999
100
AcDbArc
 50
334.371637
 51
34.371637
  0
LINE
  5
1381
330
1246
100
AcDbEntity
  8
1
  6
Continuous
100
AcDbLine
 10
303.025944
 20
306.606964
 30
0.0
 11
302.579652
 21
305.8339639999999
 31
0.0
  0
ARC
  5
1382
330
1246
100
AcDbEntity
  8
1
  6
Continuous
100
AcDbCircle
 10
308.5868929999999
 20
311.6079639999999
 30
0.0
 40
9.560949
100
AcDbArc
 50
162.4247879999998
 51
197.5752119999999
  0
ARC
  5
1383
330
1246
100
AcDbEntity
  8
1
  6
Continuous
100
AcDbCircle
 10
293.4649949999998
 20
311.6079639999999
 30
0.0
 40
9.560949
100
AcDbArc
 50
342.4247879999999
 51
17.575212
  0
LINE
  5
1384
330
1246
100
AcDbEntity
  8
1
  6
Continuous
100
AcDbLine
 10
295.925944
 20
319.611421
 30
0.0
 11
297.5259439999998
 21
319.611421
 31
0.0
  0
LINE
  5
1385
330
1246
100
AcDbEntity
  8
1
  6
Continuous
100
AcDbLine
 10
299.0259439999999
 20
317.7114209999999
 30
0.0
 11
297.5259439999998
 21
317.7114209999999
 31
0.0
  0
LINE
  5
1386
330
1246
100
AcDbEntity
  8
1
  6
Continuous
100
AcDbLine
 10
299.472236
 20
317.3809639999999
 30
0.0
 11
302.579652
 21
317.3809639999999
 31
0.0
  0
LINE
  5
1387
330
1246
100
AcDbEntity
  8
1
  6
Continuous
100
AcDbLine
 10
299.0259439999999
 20
316.6079639999999
 30
0.0
 11
299.472236
 21
317.3809639999999
 31
0.0
  0
LINE
  5
1388
330
1246
100
AcDbEntity
  8
1
  6
Continuous
100
AcDbLine
 10
303.025944
 20
316.6079639999999
 30
0.0
 11
302.579652
 21
317.3809639999999
 31
0.0
  0
LINE
  5
1389
330
1246
100
AcDbEntity
  8
1
  6
Continuous
100
AcDbLine
 10
247.9259439999999
 20
486.5
 30
0.0
 11
216.765299
 21
486.5
 31
0.0
  0
LINE
  5
138A
330
1246
100
AcDbEntity
  8
1
  6
Continuous
100
AcDbLine
 10
247.9259439999999
 20
459.4999999999997
 30
0.0
 11
216.765299
 21
459.4999999999997
 31
0.0
  0
LINE
  5
138B
330
1246
100
AcDbEntity
  8
4
  6
CENTER
100
AcDbLine
 10
306.614596
 20
473.0
 30
0.0
 11
208.8259439999999
 21
473.0
 31
0.0
  0
ARC
  5
138C
330
1246
100
AcDbEntity
  8
1
  6
Continuous
100
AcDbCircle
 10
274.4259439999999
 20
473.0
 30
0.0
 40
60.5
100
AcDbArc
 50
169.042393
 51
190.957607
  0
ARC
  5
138D
330
1246
100
AcDbEntity
  8
1
  6
Continuous
100
AcDbCircle
 10
274.4259439999999
 20
473.0
 30
0.0
 40
60.0
100
AcDbArc
 50
191.0500649999999
 51
192.231634
  0
ARC
  5
138E
330
1246
100
AcDbEntity
  8
1
  6
Continuous
100
AcDbCircle
 10
216.765299
 20
460.5
 30
0.0
 40
1.0
100
AcDbArc
 50
192.231634
 51
270.0
  0
LINE
  5
138F
330
1246
100
AcDbEntity
  8
1
  6
Continuous
100
AcDbLine
 10
215.538339
 20
461.5
 30
0.0
 11
215.028974
 21
461.5
 31
0.0
  0
ARC
  5
1390
330
1246
100
AcDbEntity
  8
1
  6
Continuous
100
AcDbCircle
 10
216.765299
 20
485.5
 30
0.0
 40
1.0
100
AcDbArc
 50
90.0
 51
167.7683659999999
  0
ARC
  5
1391
330
1246
100
AcDbEntity
  8
1
  6
Continuous
100
AcDbCircle
 10
274.4259439999999
 20
473.0
 30
0.0
 40
61.0
100
AcDbArc
 50
172.4640909999999
 51
187.535909
  0
LINE
  5
1392
330
1246
100
AcDbEntity
  8
1
  6
Continuous
100
AcDbLine
 10
214.457202
 20
465.0
 30
0.0
 11
213.9528089999997
 21
465.0
 31
0.0
  0
ARC
  5
1393
330
1246
100
AcDbEntity
  8
1
  6
Continuous
100
AcDbCircle
 10
274.4259439999999
 20
473.0
 30
0.0
 40
60.0
100
AcDbArc
 50
167.7683659999999
 51
168.949935
  0
LINE
  5
1394
330
1246
100
AcDbEntity
  8
1
  6
Continuous
100
AcDbLine
 10
215.538339
 20
484.4999999999997
 30
0.0
 11
215.028974
 21
484.4999999999997
 31
0.0
  0
LINE
  5
1395
330
1246
100
AcDbEntity
  8
1
  6
Continuous
100
AcDbLine
 10
214.457202
 20
481.0
 30
0.0
 11
213.9528089999997
 21
481.0
 31
0.0
  0
LINE
  5
1396
330
1246
100
AcDbEntity
  8
1
  6
Continuous
100
AcDbLine
 10
283.3259439999998
 20
467.9071
 30
0.0
 11
283.3259439999998
 21
462.0
 31
0.0
  0
LINE
  5
1397
330
1246
100
AcDbEntity
  8
1
  6
Continuous
100
AcDbLine
 10
266.932369
 20
467.9071
 30
0.0
 11
266.932369
 21
462.0
 31
0.0
  0
LINE
  5
1398
330
1246
100
AcDbEntity
  8
1
  6
Continuous
100
AcDbLine
 10
247.9259439999999
 20
459.4999999999997
 30
0.0
 11
247.9259439999999
 21
486.5
 31
0.0
  0
LINE
  5
1399
330
1246
100
AcDbEntity
  8
1
  6
Continuous
100
AcDbLine
 10
247.975944
 20
459.4999999999997
 30
0.0
 11
247.975944
 21
486.5
 31
0.0
  0
LINE
  5
139A
330
1246
100
AcDbEntity
  8
1
  6
Continuous
100
AcDbLine
 10
261.5259439999999
 20
443.0
 30
0.0
 11
261.5259439999999
 21
503.0
 31
0.0
  0
LINE
  5
139B
330
1246
100
AcDbEntity
  8
1
  6
Continuous
100
AcDbLine
 10
262.5259439999999
 20
443.0
 30
0.0
 11
262.5259439999999
 21
503.0
 31
0.0
  0
LINE
  5
139C
330
1246
100
AcDbEntity
  8
1
  6
Continuous
100
AcDbLine
 10
257.5259439999999
 20
445.0
 30
0.0
 11
257.5259439999999
 21
501.0
 31
0.0
  0
LINE
  5
139D
330
1246
100
AcDbEntity
  8
2
  6
Continuous
100
AcDbLine
 10
284.137944
 20
462.812
 30
0.0
 11
266.932369
 21
462.812
 31
0.0
  0
LINE
  5
139E
330
1246
100
AcDbEntity
  8
1
  6
Continuous
100
AcDbLine
 10
283.3259439999998
 20
462.0
 30
0.0
 11
262.5259439999999
 21
462.0
 31
0.0
  0
LINE
  5
139F
330
1246
100
AcDbEntity
  8
1
  6
Continuous
100
AcDbLine
 10
247.975944
 20
459.4999999999997
 30
0.0
 11
257.5259439999999
 21
456.0
 31
0.0
  0
LINE
  5
13A0
330
1246
100
AcDbEntity
  8
1
  6
Continuous
100
AcDbLine
 10
262.5259439999999
 20
443.0
 30
0.0
 11
259.5259439999999
 21
443.0
 31
0.0
  0
ARC
  5
13A1
330
1246
100
AcDbEntity
  8
1
  6
Continuous
100
AcDbCircle
 10
259.5259439999999
 20
445.0
 30
0.0
 40
2.0
100
AcDbArc
 50
180.0
 51
270.0
  0
LINE
  5
13A2
330
1246
100
AcDbEntity
  8
2
  6
Continuous
100
AcDbLine
 10
265.525944
 20
462.0
 30
0.0
 11
266.932369
 21
462.812
 31
0.0
  0
LINE
  5
13A3
330
1246
100
AcDbEntity
  8
1
  6
Continuous
100
AcDbLine
 10
283.3259439999998
 20
462.0
 30
0.0
 11
284.875944
 21
463.55
 31
0.0
  0
LINE
  5
13A4
330
1246
100
AcDbEntity
  8
2
  6
Continuous
100
AcDbLine
 10
284.137944
 20
483.1879999999999
 30
0.0
 11
266.932369
 21
483.1879999999999
 31
0.0
  0
LINE
  5
13A5
330
1246
100
AcDbEntity
  8
1
  6
Continuous
100
AcDbLine
 10
283.3259439999998
 20
484.0
 30
0.0
 11
262.5259439999999
 21
484.0
 31
0.0
  0
LINE
  5
13A6
330
1246
100
AcDbEntity
  8
1
  6
Continuous
100
AcDbLine
 10
283.3259439999998
 20
478.0928999999998
 30
0.0
 11
262.5259439999999
 21
478.0928999999998
 31
0.0
  0
LINE
  5
13A7
330
1246
100
AcDbEntity
  8
1
  6
Continuous
100
AcDbLine
 10
283.3259439999998
 20
467.9071
 30
0.0
 11
262.5259439999999
 21
467.9071
 31
0.0
  0
LINE
  5
13A8
330
1246
100
AcDbEntity
  8
2
  6
Continuous
100
AcDbLine
 10
267.0259439999999
 20
475.995138
 30
0.0
 11
283.3259439999998
 21
467.9071
 31
0.0
  0
LINE
  5
13A9
330
1246
100
AcDbEntity
  8
2
  6
Continuous
100
AcDbLine
 10
283.3259439999998
 20
478.0928999999998
 30
0.0
 11
267.0259439999999
 21
470.004862
 31
0.0
  0
LINE
  5
13AA
330
1246
100
AcDbEntity
  8
1
  6
Continuous
100
AcDbLine
 10
267.0259439999999
 20
476.25
 30
0.0
 11
267.0259439999999
 21
469.7499999999998
 31
0.0
  0
LINE
  5
13AB
330
1246
100
AcDbEntity
  8
1
  6
Continuous
100
AcDbLine
 10
262.5259439999999
 20
469.7499999999998
 30
0.0
 11
267.0259439999999
 21
469.7499999999998
 31
0.0
  0
LINE
  5
13AC
330
1246
100
AcDbEntity
  8
2
  6
Continuous
100
AcDbLine
 10
265.525944
 20
484.0
 30
0.0
 11
266.932369
 21
483.1879999999999
 31
0.0
  0
LINE
  5
13AD
330
1246
100
AcDbEntity
  8
1
  6
Continuous
100
AcDbLine
 10
262.5259439999999
 20
476.25
 30
0.0
 11
267.0259439999999
 21
476.25
 31
0.0
  0
LINE
  5
13AE
330
1246
100
AcDbEntity
  8
1
  6
Continuous
100
AcDbLine
 10
266.932369
 20
484.0
 30
0.0
 11
266.932369
 21
478.0928999999998
 31
0.0
  0
LINE
  5
13AF
330
1246
100
AcDbEntity
  8
1
  6
Continuous
100
AcDbLine
 10
247.975944
 20
486.5
 30
0.0
 11
257.5259439999999
 21
490.0
 31
0.0
  0
LINE
  5
13B0
330
1246
100
AcDbEntity
  8
1
  6
Continuous
100
AcDbLine
 10
262.5259439999999
 20
503.0
 30
0.0
 11
259.5259439999999
 21
503.0
 31
0.0
  0
ARC
  5
13B1
330
1246
100
AcDbEntity
  8
1
  6
Continuous
100
AcDbCircle
 10
259.5259439999999
 20
501.0
 30
0.0
 40
2.0
100
AcDbArc
 50
90.0
 51
180.0
  0
LINE
  5
13B2
330
1246
100
AcDbEntity
  8
1
  6
Continuous
100
AcDbLine
 10
284.875944
 20
483.0
 30
0.0
 11
284.875944
 21
463.0
 31
0.0
  0
ARC
  5
13B3
330
1246
100
AcDbEntity
  8
1
  6
Continuous
100
AcDbCircle
 10
273.118598
 20
473.0
 30
0.0
 40
11.407346
100
AcDbArc
 50
333.483346
 51
26.516654
  0
LINE
  5
13B4
330
1246
100
AcDbEntity
  8
1
  6
Continuous
100
AcDbLine
 10
283.3259439999998
 20
484.0
 30
0.0
 11
284.875944
 21
482.4499999999998
 31
0.0
  0
LINE
  5
13B5
330
1246
100
AcDbEntity
  8
1
  6
Continuous
100
AcDbLine
 10
283.3259439999998
 20
484.0
 30
0.0
 11
283.3259439999998
 21
478.0928999999998
 31
0.0
  0
LINE
  5
13B6
330
1246
100
AcDbEntity
  8
1
  6
Continuous
100
AcDbLine
 10
295.875944
 20
463.4999999999998
 30
0.0
 11
295.875944
 21
482.5
 31
0.0
  0
LINE
  5
13B7
330
1246
100
AcDbEntity
  8
1
  6
Continuous
100
AcDbLine
 10
336.932879
 20
490.5
 30
0.0
 11
336.932879
 21
455.4999999999998
 31
0.0
  0
LINE
  5
13B8
330
1246
100
AcDbEntity
  8
1
  6
Continuous
100
AcDbLine
 10
343.932879
 20
490.5
 30
0.0
 11
343.932879
 21
455.4999999999998
 31
0.0
  0
LINE
  5
13B9
330
1246
100
AcDbEntity
  8
1
  6
Continuous
100
AcDbLine
 10
345.432879
 20
489.0
 30
0.0
 11
345.432879
 21
457.0
 31
0.0
  0
ARC
  5
13BA
330
1246
100
AcDbEntity
  8
1
  6
Continuous
100
AcDbCircle
 10
309.4118179999999
 20
464.25
 30
0.0
 40
34.52106099999999
100
AcDbArc
 50
345.317147
 51
14.68285299999999
  0
ARC
  5
13BB
330
1246
100
AcDbEntity
  8
1
  6
Continuous
100
AcDbCircle
 10
371.45394
 20
464.25
 30
0.0
 40
34.52106099999999
100
AcDbArc
 50
165.317147
 51
194.6828529999999
  0
LINE
  5
13BC
330
1246
100
AcDbEntity
  8
1
  6
Continuous
100
AcDbLine
 10
335.132879
 20
455.4999999999998
 30
0.0
 11
335.132879
 21
490.5
 31
0.0
  0
LINE
  5
13BD
330
1246
100
AcDbEntity
  8
1
  6
Continuous
100
AcDbLine
 10
333.732879
 20
490.5
 30
0.0
 11
333.732879
 21
455.4999999999998
 31
0.0
  0
LINE
  5
13BE
330
1246
100
AcDbEntity
  8
1
  6
Continuous
100
AcDbLine
 10
335.432879
 20
489.0
 30
0.0
 11
335.432879
 21
457.0
 31
0.0
  0
LINE
  5
13BF
330
1246
100
AcDbEntity
  8
1
  6
Continuous
100
AcDbLine
 10
336.932879
 20
455.4999999999998
 30
0.0
 11
343.932879
 21
455.4999999999998
 31
0.0
  0
LINE
  5
13C0
330
1246
100
AcDbEntity
  8
1
  6
Continuous
100
AcDbLine
 10
335.432879
 20
462.06285
 30
0.0
 11
335.132879
 21
460.9047
 31
0.0
  0
LINE
  5
13C1
330
1246
100
AcDbEntity
  8
1
  6
Continuous
100
AcDbLine
 10
335.132879
 20
462.06285
 30
0.0
 11
335.432879
 21
462.06285
 31
0.0
  0
LINE
  5
13C2
330
1246
100
AcDbEntity
  8
1
  6
Continuous
100
AcDbLine
 10
333.432879
 20
462.06285
 30
0.0
 11
333.732879
 21
460.9047
 31
0.0
  0
LINE
  5
13C3
330
1246
100
AcDbEntity
  8
1
  6
Continuous
100
AcDbLine
 10
333.732879
 20
462.06285
 30
0.0
 11
333.432879
 21
462.06285
 31
0.0
  0
LINE
  5
13C4
330
1246
100
AcDbEntity
  8
1
  6
Continuous
100
AcDbLine
 10
335.432879
 20
457.0
 30
0.0
 11
336.932879
 21
457.0
 31
0.0
  0
LINE
  5
13C5
330
1246
100
AcDbEntity
  8
1
  6
Continuous
100
AcDbLine
 10
333.732879
 20
455.4999999999998
 30
0.0
 11
335.132879
 21
455.4999999999998
 31
0.0
  0
LINE
  5
13C6
330
1246
100
AcDbEntity
  8
1
  6
Continuous
100
AcDbLine
 10
345.432879
 20
457.0
 30
0.0
 11
343.932879
 21
457.0
 31
0.0
  0
LINE
  5
13C7
330
1246
100
AcDbEntity
  8
1
  6
Continuous
100
AcDbLine
 10
295.375944
 20
463.0
 30
0.0
 11
284.875944
 21
463.0
 31
0.0
  0
ARC
  5
13C8
330
1246
100
AcDbEntity
  8
1
  6
Continuous
100
AcDbCircle
 10
295.375944
 20
463.4999999999998
 30
0.0
 40
0.5
100
AcDbArc
 50
270.0
 51
0.0
  0
ARC
  5
13C9
330
1246
100
AcDbEntity
  8
1
  6
Continuous
100
AcDbCircle
 10
309.4118179999999
 20
481.7499999999998
 30
0.0
 40
34.52106099999999
100
AcDbArc
 50
345.317147
 51
14.68285299999999
  0
ARC
  5
13CA
330
1246
100
AcDbEntity
  8
1
  6
Continuous
100
AcDbCircle
 10
371.45394
 20
481.7499999999998
 30
0.0
 40
34.52106099999999
100
AcDbArc
 50
165.317147
 51
194.6828529999999
  0
LINE
  5
13CB
330
1246
100
AcDbEntity
  8
1
  6
Continuous
100
AcDbLine
 10
338.0602109999998
 20
473.0
 30
0.0
 11
342.8055469999998
 21
473.0
 31
0.0
  0
LINE
  5
13CC
330
1246
100
AcDbEntity
  8
4
  6
CENTER
100
AcDbLine
 10
328.882877
 20
473.0
 30
0.0
 11
350.432879
 21
473.0
 31
0.0
  0
LINE
  5
13CD
330
1246
100
AcDbEntity
  8
1
  6
Continuous
100
AcDbLine
 10
335.432879
 20
472.98995
 30
0.0
 11
335.132879
 21
472.68995
 31
0.0
  0
LINE
  5
13CE
330
1246
100
AcDbEntity
  8
1
  6
Continuous
100
AcDbLine
 10
335.132879
 20
473.28995
 30
0.0
 11
335.432879
 21
472.98995
 31
0.0
  0
LINE
  5
13CF
330
1246
100
AcDbEntity
  8
1
  6
Continuous
100
AcDbLine
 10
335.432879
 20
466.24049
 30
0.0
 11
335.132879
 21
466.5404999999998
 31
0.0
  0
LINE
  5
13D0
330
1246
100
AcDbEntity
  8
1
  6
Continuous
100
AcDbLine
 10
335.132879
 20
465.94049
 30
0.0
 11
335.432879
 21
466.24049
 31
0.0
  0
LINE
  5
13D1
330
1246
100
AcDbEntity
  8
1
  6
Continuous
100
AcDbLine
 10
333.432879
 20
466.24049
 30
0.0
 11
333.732879
 21
465.94049
 31
0.0
  0
LINE
  5
13D2
330
1246
100
AcDbEntity
  8
1
  6
Continuous
100
AcDbLine
 10
333.432879
 20
466.24049
 30
0.0
 11
333.732879
 21
466.5404999999998
 31
0.0
  0
LINE
  5
13D3
330
1246
100
AcDbEntity
  8
1
  6
Continuous
100
AcDbLine
 10
333.432879
 20
473.01003
 30
0.0
 11
333.732879
 21
473.31003
 31
0.0
  0
LINE
  5
13D4
330
1246
100
AcDbEntity
  8
1
  6
Continuous
100
AcDbLine
 10
333.432879
 20
473.01003
 30
0.0
 11
333.732879
 21
472.71003
 31
0.0
  0
LINE
  5
13D5
330
1246
100
AcDbEntity
  8
1
  6
Continuous
100
AcDbLine
 10
335.132879
 20
483.9371499999998
 30
0.0
 11
335.432879
 21
483.9371499999998
 31
0.0
  0
LINE
  5
13D6
330
1246
100
AcDbEntity
  8
1
  6
Continuous
100
AcDbLine
 10
335.432879
 20
483.9371499999998
 30
0.0
 11
335.132879
 21
485.0953
 31
0.0
  0
LINE
  5
13D7
330
1246
100
AcDbEntity
  8
1
  6
Continuous
100
AcDbLine
 10
335.132879
 20
480.05953
 30
0.0
 11
335.432879
 21
479.75953
 31
0.0
  0
LINE
  5
13D8
330
1246
100
AcDbEntity
  8
1
  6
Continuous
100
AcDbLine
 10
335.432879
 20
479.75953
 30
0.0
 11
335.132879
 21
479.45953
 31
0.0
  0
LINE
  5
13D9
330
1246
100
AcDbEntity
  8
1
  6
Continuous
100
AcDbLine
 10
333.732879
 20
483.9371499999998
 30
0.0
 11
333.432879
 21
483.9371499999998
 31
0.0
  0
LINE
  5
13DA
330
1246
100
AcDbEntity
  8
1
  6
Continuous
100
AcDbLine
 10
333.432879
 20
483.9371499999998
 30
0.0
 11
333.732879
 21
485.0953
 31
0.0
  0
LINE
  5
13DB
330
1246
100
AcDbEntity
  8
1
  6
Continuous
100
AcDbLine
 10
333.432879
 20
479.75953
 30
0.0
 11
333.732879
 21
479.45953
 31
0.0
  0
LINE
  5
13DC
330
1246
100
AcDbEntity
  8
1
  6
Continuous
100
AcDbLine
 10
333.432879
 20
479.75953
 30
0.0
 11
333.732879
 21
480.05953
 31
0.0
  0
LINE
  5
13DD
330
1246
100
AcDbEntity
  8
1
  6
Continuous
100
AcDbLine
 10
336.932879
 20
490.5
 30
0.0
 11
343.932879
 21
490.5
 31
0.0
  0
LINE
  5
13DE
330
1246
100
AcDbEntity
  8
1
  6
Continuous
100
AcDbLine
 10
335.432879
 20
489.0
 30
0.0
 11
336.932879
 21
489.0
 31
0.0
  0
LINE
  5
13DF
330
1246
100
AcDbEntity
  8
1
  6
Continuous
100
AcDbLine
 10
333.732879
 20
490.5
 30
0.0
 11
335.132879
 21
490.5
 31
0.0
  0
LINE
  5
13E0
330
1246
100
AcDbEntity
  8
1
  6
Continuous
100
AcDbLine
 10
345.432879
 20
489.0
 30
0.0
 11
343.932879
 21
489.0
 31
0.0
  0
LINE
  5
13E1
330
1246
100
AcDbEntity
  8
1
  6
Continuous
100
AcDbLine
 10
295.375944
 20
483.0
 30
0.0
 11
284.875944
 21
483.0
 31
0.0
  0
ARC
  5
13E2
330
1246
100
AcDbEntity
  8
1
  6
Continuous
100
AcDbCircle
 10
295.375944
 20
482.5
 30
0.0
 40
0.5
100
AcDbArc
 50
0.0
 51
90.0
  0
LINE
  5
13E3
330
1246
100
AcDbEntity
  8
1
  6
Continuous
100
AcDbLine
 10
297.4759439999999
 20
481.000001
 30
0.0
 11
297.4759439999999
 21
465.000001
 31
0.0
  0
LINE
  5
13E4
330
1246
100
AcDbEntity
  8
1
  6
Continuous
100
AcDbLine
 10
298.9759439999999
 20
466.9000009999998
 30
0.0
 11
298.9759439999999
 21
479.1000009999998
 31
0.0
  0
ARC
  5
13E5
330
1246
100
AcDbEntity
  8
1
  6
Continuous
100
AcDbCircle
 10
295.7506519999999
 20
475.4960439999998
 30
0.0
 40
7.225291999999996
100
AcDbArc
 50
339.756734
 51
20.24326599999999
  0
ARC
  5
13E6
330
1246
100
AcDbEntity
  8
1
  6
Continuous
100
AcDbCircle
 10
306.201236
 20
475.4960439999998
 30
0.0
 40
7.225291999999996
100
AcDbArc
 50
159.7567339999999
 51
200.243266
  0
LINE
  5
13E7
330
1246
100
AcDbEntity
  8
1
  6
Continuous
100
AcDbLine
 10
302.9759439999999
 20
477.9960439999999
 30
0.0
 11
302.9759439999999
 21
467.996044
 31
0.0
  0
LINE
  5
13E8
330
1246
100
AcDbEntity
  8
1
  6
Continuous
100
AcDbLine
 10
295.875944
 20
465.000001
 30
0.0
 11
297.4759439999999
 21
465.000001
 31
0.0
  0
LINE
  5
13E9
330
1246
100
AcDbEntity
  8
1
  6
Continuous
100
AcDbLine
 10
297.4759439999999
 20
473.000001
 30
0.0
 11
298.9759439999999
 21
474.500001
 31
0.0
  0
LINE
  5
13EA
330
1246
100
AcDbEntity
  8
1
  6
Continuous
100
AcDbLine
 10
297.4759439999999
 20
471.4960439999998
 30
0.0
 11
298.9759439999999
 21
472.996044
 31
0.0
  0
LINE
  5
13EB
330
1246
100
AcDbEntity
  8
1
  6
Continuous
100
AcDbLine
 10
298.9759439999999
 20
466.9000009999998
 30
0.0
 11
297.4759439999999
 21
466.9000009999998
 31
0.0
  0
ARC
  5
13EC
330
1246
100
AcDbEntity
  8
1
  6
Continuous
100
AcDbCircle
 10
295.7506519999999
 20
470.4960439999998
 30
0.0
 40
7.225291999999996
100
AcDbArc
 50
339.756734
 51
20.24326599999999
  0
LINE
  5
13ED
330
1246
100
AcDbEntity
  8
1
  6
Continuous
100
AcDbLine
 10
302.9759439999999
 20
467.996044
 30
0.0
 11
298.9759439999999
 21
467.996044
 31
0.0
  0
ARC
  5
13EE
330
1246
100
AcDbEntity
  8
1
  6
Continuous
100
AcDbCircle
 10
306.201236
 20
470.4960439999998
 30
0.0
 40
7.225291999999996
100
AcDbArc
 50
159.7567339999999
 51
200.243266
  0
LINE
  5
13EF
330
1246
100
AcDbEntity
  8
1
  6
Continuous
100
AcDbLine
 10
299.422236
 20
472.996044
 30
0.0
 11
302.5296519999999
 21
472.996044
 31
0.0
  0
LINE
  5
13F0
330
1246
100
AcDbEntity
  8
1
  6
Continuous
100
AcDbLine
 10
295.875944
 20
481.000001
 30
0.0
 11
297.4759439999999
 21
481.000001
 31
0.0
  0
LINE
  5
13F1
330
1246
100
AcDbEntity
  8
1
  6
Continuous
100
AcDbLine
 10
298.9759439999999
 20
479.1000009999998
 30
0.0
 11
297.4759439999999
 21
479.1000009999998
 31
0.0
  0
LINE
  5
13F2
330
1246
100
AcDbEntity
  8
1
  6
Continuous
100
AcDbLine
 10
302.9759439999999
 20
477.9960439999999
 30
0.0
 11
298.9759439999999
 21
477.9960439999999
 31
0.0
  0
LINE
  5
13F3
330
1246
100
AcDbEntity
  8
1
  6
Continuous
100
AcDbLine
 10
471.7071209999998
 20
250.0362129999998
 30
0.0
 11
471.7071209999998
 21
249.7435029999997
 31
0.0
  0
ARC
  5
13F4
330
1246
100
AcDbEntity
  8
1
  6
Continuous
100
AcDbCircle
 10
472.081746
 20
250.0827329999999
 30
0.0
 40
0.6253750000000001
100
AcDbArc
 50
317.1304
 51
42.86999999999999
  0
ARC
  5
13F5
330
1246
100
AcDbEntity
  8
1
  6
Continuous
100
AcDbCircle
 10
471.332496
 20
250.0827329999999
 30
0.0
 40
0.6253750000000001
100
AcDbArc
 50
137.1299999999999
 51
222.8699999999999
  0
LINE
  5
13F6
330
1246
100
AcDbEntity
  8
1
  6
Continuous
100
AcDbLine
 10
479.5906099999998
 20
213.9704519999999
 30
0.0
 11
483.5125029999998
 21
283.3915719999998
 31
0.0
  0
LINE
  5
13F7
330
1246
100
AcDbEntity
  8
1
  6
Continuous
100
AcDbLine
 10
467.07387
 20
213.9704519999999
 30
0.0
 11
463.1519769999998
 21
283.3915719999998
 31
0.0
  0
LINE
  5
13F8
330
1246
100
AcDbEntity
  8
1
  6
Continuous
100
AcDbLine
 10
481.5066559999998
 20
194.6987769999998
 30
0.0
 11
486.513842
 21
283.330605
 31
0.0
  0
LINE
  5
13F9
330
1246
100
AcDbEntity
  8
1
  6
Continuous
100
AcDbLine
 10
465.157825
 20
194.6987769999998
 30
0.0
 11
460.150638
 21
283.330605
 31
0.0
  0
LINE
  5
13FA
330
1246
100
AcDbEntity
  8
4
  6
CENTER
100
AcDbLine
 10
473.33224
 20
346.611463
 30
0.0
 11
473.33224
 21
186.611463
 31
0.0
  0
ARC
  5
13FB
330
1246
100
AcDbEntity
  8
1
  6
Continuous
100
AcDbCircle
 10
467.6538449999998
 20
194.839788
 30
0.0
 40
2.5
100
AcDbArc
 50
183.233444
 51
255.382014
  0
ARC
  5
13FC
330
1246
100
AcDbEntity
  8
1
  6
Continuous
100
AcDbCircle
 10
479.010636
 20
194.839788
 30
0.0
 40
2.5
100
AcDbArc
 50
284.6179859999999
 51
356.766556
  0
ARC
  5
13FD
330
1246
100
AcDbEntity
  8
1
  6
Continuous
100
AcDbCircle
 10
473.33224
 20
216.611463
 30
0.0
 40
25.0
100
AcDbArc
 50
255.382014
 51
284.6179859999999
  0
ARC
  5
13FE
330
1246
100
AcDbEntity
  8
1
  6
Continuous
100
AcDbCircle
 10
473.33224
 20
216.611463
 30
0.0
 40
11.0
100
AcDbArc
 50
255.382014
 51
284.6179859999999
  0
LINE
  5
13FF
330
1246
100
AcDbEntity
  8
1
  6
Continuous
100
AcDbLine
 10
469.56989
 20
211.6114629999999
 30
0.0
 11
477.09459
 21
211.6114629999999
 31
0.0
  0
ARC
  5
1400
330
1246
100
AcDbEntity
  8
1
  6
Continuous
100
AcDbCircle
 10
469.56989
 20
214.111463
 30
0.0
 40
2.5
100
AcDbArc
 50
183.233444
 51
270.0
  0
ARC
  5
1401
330
1246
100
AcDbEntity
  8
1
  6
Continuous
100
AcDbCircle
 10
477.09459
 20
214.111463
 30
0.0
 40
2.5
100
AcDbArc
 50
270.0
 51
356.766556
  0
LINE
  5
1402
330
1246
100
AcDbEntity
  8
1
  6
Continuous
100
AcDbLine
 10
475.9298839999996
 20
240.6114629999999
 30
0.0
 11
475.9298839999996
 21
238.6114629999999
 31
0.0
  0
LINE
  5
1403
330
1246
100
AcDbEntity
  8
1
  6
Continuous
100
AcDbLine
 10
473.4200829999998
 20
240.6114629999999
 30
0.0
 11
473.4200829999998
 21
238.6114629999999
 31
0.0
  0
LINE
  5
1404
330
1246
100
AcDbEntity
  8
1
  6
Continuous
100
AcDbLine
 10
471.8132459999998
 20
240.6097029999999
 30
0.0
 11
471.0379459999998
 21
238.613213
 31
0.0
  0
LINE
  5
1405
330
1246
100
AcDbEntity
  8
1
  6
Continuous
100
AcDbLine
 10
471.8132459999998
 20
240.6132179999999
 30
0.0
 11
472.5530959999998
 21
238.613213
 31
0.0
  0
LINE
  5
1406
330
1246
100
AcDbEntity
  8
1
  6
Continuous
100
AcDbLine
 10
469.8530319999998
 20
240.6114629999999
 30
0.0
 11
469.8530319999998
 21
238.6114629999999
 31
0.0
  0
LINE
  5
1407
330
1246
100
AcDbEntity
  8
1
  6
Continuous
100
AcDbLine
 10
466.133749
 20
230.6114629999999
 30
0.0
 11
480.5307309999998
 21
230.6114629999999
 31
0.0
  0
LINE
  5
1408
330
1246
100
AcDbEntity
  8
1
  6
Continuous
100
AcDbLine
 10
465.794783
 20
236.6114629999999
 30
0.0
 11
480.8696969999998
 21
236.6114629999999
 31
0.0
  0
CIRCLE
  5
1409
330
1246
100
AcDbEntity
  8
1
  6
Continuous
100
AcDbCircle
 10
475.202948
 20
238.6514629999997
 30
0.0
 40
0.04
  0
LINE
  5
140A
330
1246
100
AcDbEntity
  8
1
  6
Continuous
100
AcDbLine
 10
472.636078
 20
240.6114629999999
 30
0.0
 11
474.2110529999997
 21
240.6114629999999
 31
0.0
  0
ARC
  5
140B
330
1246
100
AcDbEntity
  8
1
  6
Continuous
100
AcDbCircle
 10
472.2324959999999
 20
250.0827329999999
 30
0.0
 40
0.6253750000000001
100
AcDbArc
 50
212.8499999999999
 51
222.8699999999999
  0
ARC
  5
140C
330
1246
100
AcDbEntity
  8
1
  6
Continuous
100
AcDbCircle
 10
472.157121
 20
250.0127629999997
 30
0.0
 40
0.5225300000000001
100
AcDbArc
 50
222.8699999999999
 51
317.1304
  0
ARC
  5
140D
330
1246
100
AcDbEntity
  8
1
  6
Continuous
100
AcDbCircle
 10
471.1817439999999
 20
250.0827329999999
 30
0.0
 40
0.6253750000000001
100
AcDbArc
 50
317.1304
 51
327.1503
  0
ARC
  5
140E
330
1246
100
AcDbEntity
  8
1
  6
Continuous
100
AcDbCircle
 10
471.257121
 20
250.0127629999997
 30
0.0
 40
0.5225300000000001
100
AcDbArc
 50
222.8699999999999
 51
317.1304
  0
ARC
  5
140F
330
1246
100
AcDbEntity
  8
1
  6
Continuous
100
AcDbCircle
 10
471.3192209999998
 20
248.216707
 30
0.0
 40
0.62634
100
AcDbArc
 50
225.9269999999999
 51
270.0
  0
ARC
  5
1410
330
1246
100
AcDbEntity
  8
1
  6
Continuous
100
AcDbCircle
 10
472.0950209999998
 20
248.216707
 30
0.0
 40
0.62634
100
AcDbArc
 50
270.0
 51
314.0724999999998
  0
LINE
  5
1411
330
1246
100
AcDbEntity
  8
1
  6
Continuous
100
AcDbLine
 10
472.0950209999998
 20
247.5903569999999
 30
0.0
 11
471.3192209999998
 21
247.5903569999999
 31
0.0
  0
ARC
  5
1412
330
1246
100
AcDbEntity
  8
1
  6
Continuous
100
AcDbCircle
 10
471.2864609999998
 20
248.1828569999999
 30
0.0
 40
0.57924
100
AcDbArc
 50
134.072
 51
225.9269999999999
  0
ARC
  5
1413
330
1246
100
AcDbEntity
  8
1
  6
Continuous
100
AcDbCircle
 10
471.3192209999998
 20
248.1490069999999
 30
0.0
 40
0.62634
100
AcDbArc
 50
90.0
 51
134.072
  0
ARC
  5
1414
330
1246
100
AcDbEntity
  8
1
  6
Continuous
100
AcDbCircle
 10
472.127781
 20
248.1828569999999
 30
0.0
 40
0.57924
100
AcDbArc
 50
314.0724999999998
 51
45.92799999999999
  0
ARC
  5
1415
330
1246
100
AcDbEntity
  8
1
  6
Continuous
100
AcDbCircle
 10
472.0950209999998
 20
248.1490069999999
 30
0.0
 40
0.62634
100
AcDbArc
 50
45.92799999999999
 51
90.0
  0
LINE
  5
1416
330
1246
100
AcDbEntity
  8
1
  6
Continuous
100
AcDbLine
 10
472.0950209999998
 20
248.7753569999999
 30
0.0
 11
471.3192209999998
 21
248.7753569999999
 31
0.0
  0
LINE
  5
1417
330
1246
100
AcDbEntity
  8
1
  6
Continuous
100
AcDbLine
 10
471.7071209999998
 20
246.3776549999999
 30
0.0
 11
471.7071209999998
 21
245.7511049999999
 31
0.0
  0
LINE
  5
1418
330
1246
100
AcDbEntity
  8
1
  6
Continuous
100
AcDbLine
 10
472.707121
 20
244.7772749999999
 30
0.0
 11
470.7071209999998
 21
244.7772749999999
 31
0.0
  0
LINE
  5
1419
330
1246
100
AcDbEntity
  8
1
  6
Continuous
100
AcDbLine
 10
472.124446
 20
245.330197
 30
0.0
 11
472.707121
 21
244.7772749999999
 31
0.0
  0
LINE
  5
141A
330
1246
100
AcDbEntity
  8
1
  6
Continuous
100
AcDbLine
 10
471.2777459999998
 20
239.2166629999999
 30
0.0
 11
472.331246
 21
239.2166629999999
 31
0.0
  0
ARC
  5
141B
330
1246
100
AcDbEntity
  8
1
  6
Continuous
100
AcDbCircle
 10
470.322832
 20
239.971463
 30
0.0
 40
0.6400000000000004
100
AcDbArc
 50
222.7718659999999
 51
90.0
  0
LINE
  5
141C
330
1246
100
AcDbEntity
  8
1
  6
Continuous
100
AcDbLine
 10
469.8530319999998
 20
240.6114629999999
 30
0.0
 11
470.322832
 21
240.6114629999999
 31
0.0
  0
LINE
  5
141D
330
1246
100
AcDbEntity
  8
1
  6
Continuous
100
AcDbLine
 10
474.5012759999998
 20
247.0100049999998
 30
0.0
 11
474.5012759999998
 21
245.9194549999998
 31
0.0
  0
LINE
  5
141E
330
1246
100
AcDbEntity
  8
1
  6
Continuous
100
AcDbLine
 10
475.946961
 20
246.4557049999999
 30
0.0
 11
473.8998409999998
 21
245.6984049999999
 31
0.0
  0
LINE
  5
141F
330
1246
100
AcDbEntity
  8
1
  6
Continuous
100
AcDbLine
 10
475.943366
 20
246.4557049999999
 30
0.0
 11
473.8998459999998
 21
247.2491549999999
 31
0.0
  0
LINE
  5
1420
330
1246
100
AcDbEntity
  8
1
  6
Continuous
100
AcDbLine
 10
474.834636
 20
248.3216049999998
 30
0.0
 11
473.892646
 21
248.3216049999998
 31
0.0
  0
LINE
  5
1421
330
1246
100
AcDbEntity
  8
1
  6
Continuous
100
AcDbLine
 10
475.9940859999998
 20
249.7201549999997
 30
0.0
 11
473.892646
 21
249.7201549999997
 31
0.0
  0
LINE
  5
1422
330
1246
100
AcDbEntity
  8
1
  6
Continuous
100
AcDbLine
 10
474.8346309999998
 20
248.3216049999998
 30
0.0
 11
476.0099809999998
 21
247.6430049999999
 31
0.0
  0
LINE
  5
1423
330
1246
100
AcDbEntity
  8
1
  6
Continuous
100
AcDbLine
 10
474.8382409999998
 20
248.3216049999998
 30
0.0
 11
476.008721
 21
248.995305
 31
0.0
  0
ARC
  5
1424
330
1246
100
AcDbEntity
  8
1
  6
Continuous
100
AcDbCircle
 10
476.3996849999998
 20
239.971463
 30
0.0
 40
0.6400000000000004
100
AcDbArc
 50
222.7718659999999
 51
90.0
  0
LINE
  5
1425
330
1246
100
AcDbEntity
  8
1
  6
Continuous
100
AcDbLine
 10
475.9298839999996
 20
240.6114629999999
 30
0.0
 11
476.3996849999998
 21
240.6114629999999
 31
0.0
  0
CIRCLE
  5
1426
330
1246
100
AcDbEntity
  8
1
  6
Continuous
100
AcDbCircle
 10
473.33224
 20
311.611463
 30
0.0
 40
30.0
  0
LINE
  5
1427
330
1246
100
AcDbEntity
  8
4
  6
CENTER
100
AcDbLine
 10
508.33224
 20
311.611463
 30
0.0
 11
438.3322399999998
 21
311.611463
 31
0.0
  0
LINE
  5
1428
330
1246
100
AcDbEntity
  8
1
  6
Continuous
100
AcDbLine
 10
473.33224
 20
291.404204
 30
0.0
 11
490.83224
 21
301.507833
 31
0.0
  0
LINE
  5
1429
330
1246
100
AcDbEntity
  8
1
  6
Continuous
100
AcDbLine
 10
455.83224
 20
301.507833
 30
0.0
 11
473.33224
 21
291.404204
 31
0.0
  0
ARC
  5
142A
330
1246
100
AcDbEntity
  8
1
  6
Continuous
100
AcDbCircle
 10
473.33224
 20
291.611463
 30
0.0
 40
4.25
100
AcDbArc
 50
152.4205119999997
 51
27.579488
  0
ARC
  5
142B
330
1246
100
AcDbEntity
  8
1
  6
Continuous
100
AcDbCircle
 10
473.33224
 20
291.611463
 30
0.0
 40
4.0
100
AcDbArc
 50
152.571893
 51
27.428107
  0
ARC
  5
142C
330
1246
100
AcDbEntity
  8
1
  6
Continuous
100
AcDbCircle
 10
659.8322399999998
 20
294.611463
 30
0.0
 40
200.0
100
AcDbArc
 50
182.841123
 51
183.233444
  0
LINE
  5
142D
330
1246
100
AcDbEntity
  8
1
  6
Continuous
100
AcDbLine
 10
475.907121
 20
260.95931
 30
0.0
 11
475.907121
 21
259.32889
 31
0.0
  0
LINE
  5
142E
330
1246
100
AcDbEntity
  8
1
  6
Continuous
100
AcDbLine
 10
472.707121
 20
260.7157049999999
 30
0.0
 11
472.707121
 21
259.1407299999999
 31
0.0
  0
LINE
  5
142F
330
1246
100
AcDbEntity
  8
1
  6
Continuous
100
AcDbLine
 10
471.7071209999998
 20
258.558185
 30
0.0
 11
471.7071209999998
 21
257.305205
 31
0.0
  0
LINE
  5
1430
330
1246
100
AcDbEntity
  8
1
  6
Continuous
100
AcDbLine
 10
471.7071209999998
 20
254.2449549999997
 30
0.0
 11
471.7071209999998
 21
253.6184049999999
 31
0.0
  0
LINE
  5
1431
330
1246
100
AcDbEntity
  8
1
  6
Continuous
100
AcDbLine
 10
471.312321
 20
256.4672049999999
 30
0.0
 11
471.312321
 21
255.413705
 31
0.0
  0
LINE
  5
1432
330
1246
100
AcDbEntity
  8
1
  6
Continuous
100
AcDbLine
 10
472.708876
 20
255.931705
 30
0.0
 11
470.7088709999998
 21
255.1918549999999
 31
0.0
  0
LINE
  5
1433
330
1246
100
AcDbEntity
  8
1
  6
Continuous
100
AcDbLine
 10
472.7220759999998
 20
257.305205
 30
0.0
 11
470.7220709999998
 21
257.305205
 31
0.0
  0
LINE
  5
1434
330
1246
100
AcDbEntity
  8
1
  6
Continuous
100
AcDbLine
 10
472.7053609999998
 20
255.931705
 30
0.0
 11
470.7088709999998
 21
256.7070049999999
 31
0.0
  0
LINE
  5
1435
330
1246
100
AcDbEntity
  8
1
  6
Continuous
100
AcDbLine
 10
472.707121
 20
259.9316999999999
 30
0.0
 11
470.7071209999998
 21
259.9316999999999
 31
0.0
  0
LINE
  5
1436
330
1246
100
AcDbEntity
  8
1
  6
Continuous
100
AcDbLine
 10
472.7220759999998
 20
258.558185
 30
0.0
 11
470.7220709999998
 21
258.558185
 31
0.0
  0
ARC
  5
1437
330
1246
100
AcDbEntity
  8
1
  6
Continuous
100
AcDbCircle
 10
471.257121
 20
252.0016749999999
 30
0.0
 40
0.5225300000000001
100
AcDbArc
 50
103.0139999999999
 51
137.1299999999999
  0
ARC
  5
1438
330
1246
100
AcDbEntity
  8
1
  6
Continuous
100
AcDbCircle
 10
471.257121
 20
251.8617349999999
 30
0.0
 40
0.5225300000000001
100
AcDbArc
 50
222.8699999999999
 51
317.1304
  0
ARC
  5
1439
330
1246
100
AcDbEntity
  8
1
  6
Continuous
100
AcDbCircle
 10
471.1817439999999
 20
251.931705
 30
0.0
 40
0.6253750000000001
100
AcDbArc
 50
317.1304
 51
327.1503
  0
ARC
  5
143A
330
1246
100
AcDbEntity
  8
1
  6
Continuous
100
AcDbCircle
 10
471.332496
 20
251.931705
 30
0.0
 40
0.6253750000000001
100
AcDbArc
 50
137.1299999999999
 51
222.8699999999999
  0
ARC
  5
143B
330
1246
100
AcDbEntity
  8
1
  6
Continuous
100
AcDbCircle
 10
472.157121
 20
252.0016749999999
 30
0.0
 40
0.5225300000000001
100
AcDbArc
 50
42.86999999999999
 51
108.2079999999999
  0
ARC
  5
143C
330
1246
100
AcDbEntity
  8
1
  6
Continuous
100
AcDbCircle
 10
472.157121
 20
251.8617349999999
 30
0.0
 40
0.5225300000000001
100
AcDbArc
 50
222.8699999999999
 51
317.1304
  0
ARC
  5
143D
330
1246
100
AcDbEntity
  8
1
  6
Continuous
100
AcDbCircle
 10
472.081746
 20
251.931705
 30
0.0
 40
0.6253750000000001
100
AcDbArc
 50
317.1304
 51
42.86999999999999
  0
ARC
  5
143E
330
1246
100
AcDbEntity
  8
1
  6
Continuous
100
AcDbCircle
 10
472.2324959999999
 20
251.931705
 30
0.0
 40
0.6253750000000001
100
AcDbArc
 50
212.8499999999999
 51
222.8699999999999
  0
LINE
  5
143F
330
1246
100
AcDbEntity
  8
1
  6
Continuous
100
AcDbLine
 10
471.7071209999998
 20
251.885185
 30
0.0
 11
471.7071209999998
 21
251.5924749999999
 31
0.0
  0
ARC
  5
1440
330
1246
100
AcDbEntity
  8
1
  6
Continuous
100
AcDbCircle
 10
472.157121
 20
250.1527029999997
 30
0.0
 40
0.5225300000000001
100
AcDbArc
 50
42.86999999999999
 51
108.2079999999999
  0
ARC
  5
1441
330
1246
100
AcDbEntity
  8
1
  6
Continuous
100
AcDbCircle
 10
471.257121
 20
250.1527029999997
 30
0.0
 40
0.5225300000000001
100
AcDbArc
 50
103.0139999999999
 51
137.1299999999999
  0
LINE
  5
1442
330
1246
100
AcDbEntity
  8
1
  6
Continuous
100
AcDbLine
 10
474.943366
 20
254.640405
 30
0.0
 11
474.943366
 21
253.3434049999999
 31
0.0
  0
LINE
  5
1443
330
1246
100
AcDbEntity
  8
1
  6
Continuous
100
AcDbLine
 10
475.907121
 20
260.14769
 30
0.0
 11
473.907121
 21
260.14769
 31
0.0
  0
LINE
  5
1444
330
1246
100
AcDbEntity
  8
1
  6
Continuous
100
AcDbLine
 10
475.9940859999998
 20
254.640405
 30
0.0
 11
473.892646
 21
254.640405
 31
0.0
  0
LINE
  5
1445
330
1246
100
AcDbEntity
  8
1
  6
Continuous
100
AcDbLine
 10
474.841926
 20
251.0027549999997
 30
0.0
 11
474.841926
 21
250.299855
 31
0.0
  0
LINE
  5
1446
330
1246
100
AcDbEntity
  8
1
  6
Continuous
100
AcDbLine
 10
475.9940859999998
 20
253.3434049999999
 30
0.0
 11
473.892646
 21
253.3434049999999
 31
0.0
  0
LINE
  5
1447
330
1246
100
AcDbEntity
  8
1
  6
Continuous
100
AcDbLine
 10
475.9940859999998
 20
252.640405
 30
0.0
 11
473.892646
 21
252.640405
 31
0.0
  0
LINE
  5
1448
330
1246
100
AcDbEntity
  8
1
  6
Continuous
100
AcDbLine
 10
474.5438509999996
 20
250.299855
 30
0.0
 11
473.907121
 21
250.299855
 31
0.0
  0
ARC
  5
1449
330
1246
100
AcDbEntity
  8
1
  6
Continuous
100
AcDbCircle
 10
474.976481
 20
255.8311549999999
 30
0.0
 40
1.067529999999997
100
AcDbArc
 50
48.932
 51
131.0679999999997
  0
ARC
  5
144A
330
1246
100
AcDbEntity
  8
1
  6
Continuous
100
AcDbCircle
 10
474.7782209999998
 20
256.0587049999999
 30
0.0
 40
0.76574
100
AcDbArc
 50
131.0679999999997
 51
199.193
  0
ARC
  5
144B
330
1246
100
AcDbEntity
  8
1
  6
Continuous
100
AcDbCircle
 10
475.174741
 20
256.0587049999999
 30
0.0
 40
0.76574
100
AcDbArc
 50
340.8072
 51
48.932
  0
ARC
  5
144C
330
1246
100
AcDbEntity
  8
1
  6
Continuous
100
AcDbCircle
 10
475.4132959999998
 20
255.9756549999999
 30
0.0
 40
0.513145
100
AcDbArc
 50
275.65924
 51
340.8072
  0
ARC
  5
144D
330
1246
100
AcDbEntity
  8
1
  6
Continuous
100
AcDbCircle
 10
474.5396659999998
 20
255.9756549999999
 30
0.0
 40
0.513145
100
AcDbArc
 50
199.193
 51
264.341
  0
ARC
  5
144E
330
1246
100
AcDbEntity
  8
1
  6
Continuous
100
AcDbCircle
 10
475.376996
 20
250.9272049999999
 30
0.0
 40
0.513145
100
AcDbArc
 50
275.65924
 51
340.8072
  0
ARC
  5
144F
330
1246
100
AcDbEntity
  8
1
  6
Continuous
100
AcDbCircle
 10
475.138441
 20
251.0102549999998
 30
0.0
 40
0.76574
100
AcDbArc
 50
340.8072
 51
48.932
  0
ARC
  5
1450
330
1246
100
AcDbEntity
  8
1
  6
Continuous
100
AcDbCircle
 10
474.9401809999998
 20
250.782755
 30
0.0
 40
1.067529999999997
100
AcDbArc
 50
48.932
 51
131.0679999999997
  0
ARC
  5
1451
330
1246
100
AcDbEntity
  8
1
  6
Continuous
100
AcDbCircle
 10
474.7419159999998
 20
251.0102549999998
 30
0.0
 40
0.76574
100
AcDbArc
 50
131.0679999999997
 51
186.5909999999999
  0
ARC
  5
1452
330
1246
100
AcDbEntity
  8
1
  6
Continuous
100
AcDbCircle
 10
474.6964809999998
 20
251.0050049999999
 30
0.0
 40
0.72
100
AcDbArc
 50
179.5819999999999
 51
281.6541
  0
ARC
  5
1453
330
1246
100
AcDbEntity
  8
1
  6
Continuous
100
AcDbCircle
 10
474.9658809999998
 20
257.9298049999998
 30
0.0
 40
1.067529999999997
100
AcDbArc
 50
48.932
 51
131.0679999999997
  0
ARC
  5
1454
330
1246
100
AcDbEntity
  8
1
  6
Continuous
100
AcDbCircle
 10
474.9658809999998
 20
258.38486
 30
0.0
 40
1.067529999999997
100
AcDbArc
 50
228.932
 51
311.0679
  0
ARC
  5
1455
330
1246
100
AcDbEntity
  8
1
  6
Continuous
100
AcDbCircle
 10
474.767621
 20
258.15733
 30
0.0
 40
0.76574
100
AcDbArc
 50
131.0679999999997
 51
228.932
  0
ARC
  5
1456
330
1246
100
AcDbEntity
  8
1
  6
Continuous
100
AcDbCircle
 10
475.1641409999998
 20
258.15733
 30
0.0
 40
0.76574
100
AcDbArc
 50
311.0679
 51
48.932
  0
LINE
  5
1457
330
1246
100
AcDbEntity
  8
1
  6
Continuous
100
AcDbLine
 10
476.421938
 20
265.7862499999998
 30
0.0
 11
473.3210179999998
 21
265.7862499999998
 31
0.0
  0
LINE
  5
1458
330
1246
100
AcDbEntity
  8
1
  6
Continuous
100
AcDbLine
 10
476.421938
 20
266.231043
 30
0.0
 11
473.3210179999998
 21
266.231043
 31
0.0
  0
LINE
  5
1459
330
1246
100
AcDbEntity
  8
1
  6
Continuous
100
AcDbLine
 10
476.3849469999996
 20
266.6749339999999
 30
0.0
 11
473.358009
 21
266.6749339999999
 31
0.0
  0
LINE
  5
145A
330
1246
100
AcDbEntity
  8
1
  6
Continuous
100
AcDbLine
 10
473.4897329999998
 20
267.1197269999999
 30
0.0
 11
474.3387189999999
 21
267.1197269999999
 31
0.0
  0
ARC
  5
145B
330
1246
100
AcDbEntity
  8
1
  6
Continuous
100
AcDbCircle
 10
473.7170909999998
 20
267.341672
 30
0.0
 40
0.222261
100
AcDbArc
 50
90.0
 51
164.7419999999998
  0
LINE
  5
145C
330
1246
100
AcDbEntity
  8
1
  6
Continuous
100
AcDbLine
 10
476.3326189999999
 20
264.4536749999999
 30
0.0
 11
473.5501809999997
 21
264.4536749999999
 31
0.0
  0
LINE
  5
145D
330
1246
100
AcDbEntity
  8
1
  6
Continuous
100
AcDbLine
 10
473.616945
 20
264.897566
 30
0.0
 11
474.871929
 21
264.897566
 31
0.0
  0
LINE
  5
145E
330
1246
100
AcDbEntity
  8
1
  6
Continuous
100
AcDbLine
 10
476.334423
 20
265.342359
 30
0.0
 11
473.408533
 21
265.342359
 31
0.0
  0
ARC
  5
145F
330
1246
100
AcDbEntity
  8
1
  6
Continuous
100
AcDbCircle
 10
478.604401
 20
266.009097
 30
0.0
 40
5.732929999999998
100
AcDbArc
 50
144.462
 51
215.5379999999999
  0
ARC
  5
1460
330
1246
100
AcDbEntity
  8
1
  6
Continuous
100
AcDbCircle
 10
473.4897329999998
 20
267.1639349999999
 30
0.0
 40
0.044452
100
AcDbArc
 50
167.2709999999999
 51
270.0
  0
ARC
  5
1461
330
1246
100
AcDbEntity
  8
1
  6
Continuous
100
AcDbCircle
 10
478.604401
 20
266.009097
 30
0.0
 40
5.288524999999999
100
AcDbArc
 50
164.794
 51
167.2709999999999
  0
ARC
  5
1462
330
1246
100
AcDbEntity
  8
1
  6
Continuous
100
AcDbCircle
 10
478.604401
 20
266.009097
 30
0.0
 40
5.288524999999999
100
AcDbArc
 50
164.7419999999998
 51
164.794
  0
ARC
  5
1463
330
1246
100
AcDbEntity
  8
1
  6
Continuous
100
AcDbCircle
 10
478.604401
 20
266.009097
 30
0.0
 40
5.288524999999999
100
AcDbArc
 50
187.793
 51
190.1039999999999
  0
ARC
  5
1464
330
1246
100
AcDbEntity
  8
1
  6
Continuous
100
AcDbCircle
 10
473.616945
 20
265.119512
 30
0.0
 40
0.222261
100
AcDbArc
 50
190.1039999999999
 51
270.0
  0
ARC
  5
1465
330
1246
100
AcDbEntity
  8
1
  6
Continuous
100
AcDbCircle
 10
473.408533
 20
265.297248
 30
0.0
 40
0.044452
100
AcDbArc
 50
90.0
 51
187.793
  0
ARC
  5
1466
330
1246
100
AcDbEntity
  8
1
  6
Continuous
100
AcDbCircle
 10
478.604401
 20
266.009097
 30
0.0
 40
5.288524999999999
100
AcDbArc
 50
153.986
 51
157.056
  0
ARC
  5
1467
330
1246
100
AcDbEntity
  8
1
  6
Continuous
100
AcDbCircle
 10
473.7757359999998
 20
268.052619
 30
0.0
 40
0.044452
100
AcDbArc
 50
157.056
 51
270.0
  0
LINE
  5
1468
330
1246
100
AcDbEntity
  8
1
  6
Continuous
100
AcDbLine
 10
476.0258649999998
 20
267.56452
 30
0.0
 11
473.7170909999998
 21
267.56452
 31
0.0
  0
ARC
  5
1469
330
1246
100
AcDbEntity
  8
1
  6
Continuous
100
AcDbCircle
 10
476.0258649999998
 20
267.341672
 30
0.0
 40
0.222261
100
AcDbArc
 50
15.2575
 51
90.0
  0
ARC
  5
146A
330
1246
100
AcDbEntity
  8
1
  6
Continuous
100
AcDbCircle
 10
471.138555
 20
266.009097
 30
0.0
 40
5.288524999999999
100
AcDbArc
 50
13.2681
 51
15.2575
  0
ARC
  5
146B
330
1246
100
AcDbEntity
  8
1
  6
Continuous
100
AcDbCircle
 10
471.138555
 20
266.009097
 30
0.0
 40
5.288524999999999
100
AcDbArc
 50
12.7289
 51
13.2681
  0
ARC
  5
146C
330
1246
100
AcDbEntity
  8
1
  6
Continuous
100
AcDbCircle
 10
476.2532229999997
 20
267.1639349999999
 30
0.0
 40
0.044452
100
AcDbArc
 50
270.0
 51
12.7289
  0
ARC
  5
146D
330
1246
100
AcDbEntity
  8
1
  6
Continuous
100
AcDbCircle
 10
474.0518139999998
 20
268.2303559999999
 30
0.0
 40
0.222261
100
AcDbArc
 50
90.0
 51
153.986
  0
ARC
  5
146E
330
1246
100
AcDbEntity
  8
1
  6
Continuous
100
AcDbCircle
 10
475.9681229999998
 20
268.052619
 30
0.0
 40
0.044452
100
AcDbArc
 50
270.0
 51
22.94399999999999
  0
ARC
  5
146F
330
1246
100
AcDbEntity
  8
1
  6
Continuous
100
AcDbCircle
 10
471.138555
 20
266.009097
 30
0.0
 40
5.288524999999999
100
AcDbArc
 50
22.94399999999999
 51
26.0144
  0
ARC
  5
1470
330
1246
100
AcDbEntity
  8
1
  6
Continuous
100
AcDbCircle
 10
475.691142
 20
268.2303559999999
 30
0.0
 40
0.222261
100
AcDbArc
 50
26.0144
 51
90.0
  0
ARC
  5
1471
330
1246
100
AcDbEntity
  8
1
  6
Continuous
100
AcDbCircle
 10
474.871929
 20
268.6751489999999
 30
0.0
 40
1.145318999999998
100
AcDbArc
 50
90.0
 51
144.462
  0
ARC
  5
1472
330
1246
100
AcDbEntity
  8
1
  6
Continuous
100
AcDbCircle
 10
474.871929
 20
268.6751489999999
 30
0.0
 40
1.145318999999998
100
AcDbArc
 50
35.5377
 51
76.5374
  0
LINE
  5
1473
330
1246
100
AcDbEntity
  8
1
  6
Continuous
100
AcDbLine
 10
474.871929
 20
266.231043
 30
0.0
 11
474.871929
 21
266.6749339999999
 31
0.0
  0
LINE
  5
1474
330
1246
100
AcDbEntity
  8
1
  6
Continuous
100
AcDbLine
 10
475.4051389999998
 20
267.1197269999999
 30
0.0
 11
476.2532229999997
 21
267.1197269999999
 31
0.0
  0
LINE
  5
1475
330
1246
100
AcDbEntity
  8
1
  6
Continuous
100
AcDbLine
 10
475.9681229999998
 20
268.00841
 30
0.0
 11
473.7757359999998
 21
268.00841
 31
0.0
  0
LINE
  5
1476
330
1246
100
AcDbEntity
  8
1
  6
Continuous
100
AcDbLine
 10
474.0518139999998
 20
268.4532029999999
 30
0.0
 11
475.691142
 21
268.4532029999999
 31
0.0
  0
LINE
  5
1477
330
1246
100
AcDbEntity
  8
1
  6
Continuous
100
AcDbLine
 10
476.090824
 20
268.8970939999999
 30
0.0
 11
474.1745149999998
 21
268.8970939999999
 31
0.0
  0
ARC
  5
1478
330
1246
100
AcDbEntity
  8
1
  6
Continuous
100
AcDbCircle
 10
475.093875
 20
263.786937
 30
0.0
 40
0.222261
100
AcDbArc
 50
90.0
 51
270.0
  0
ARC
  5
1479
330
1246
100
AcDbEntity
  8
1
  6
Continuous
100
AcDbCircle
 10
474.871929
 20
263.342144
 30
0.0
 40
1.145318999999998
100
AcDbArc
 50
215.5379999999999
 51
225.699
  0
ARC
  5
147A
330
1246
100
AcDbEntity
  8
1
  6
Continuous
100
AcDbCircle
 10
474.871929
 20
263.342144
 30
0.0
 40
1.145318999999998
100
AcDbArc
 50
242.2499999999998
 51
324.4619999999998
  0
LINE
  5
147B
330
1246
100
AcDbEntity
  8
1
  6
Continuous
100
AcDbLine
 10
474.871929
 20
262.1972309999998
 30
0.0
 11
474.871929
 21
263.1156879999999
 31
0.0
  0
LINE
  5
147C
330
1246
100
AcDbEntity
  8
1
  6
Continuous
100
AcDbLine
 10
474.0400849999998
 20
263.3385349999999
 30
0.0
 11
475.9130879999998
 21
262.836
 31
0.0
  0
LINE
  5
147D
330
1246
100
AcDbEntity
  8
1
  6
Continuous
100
AcDbLine
 10
475.093875
 20
263.564089
 30
0.0
 11
476.0430069999999
 21
263.564089
 31
0.0
  0
LINE
  5
147E
330
1246
100
AcDbEntity
  8
1
  6
Continuous
100
AcDbLine
 10
474.871929
 20
263.786937
 30
0.0
 11
473.8055089999998
 21
263.786937
 31
0.0
  0
LINE
  5
147F
330
1246
100
AcDbEntity
  8
1
  6
Continuous
100
AcDbLine
 10
476.123304
 20
264.0088819999999
 30
0.0
 11
475.093875
 21
264.0088819999999
 31
0.0
  0
LINE
  5
1480
330
1246
100
AcDbEntity
  8
1
  6
Continuous
100
AcDbLine
 10
475.4051389999998
 20
264.897566
 30
0.0
 11
476.126011
 21
264.897566
 31
0.0
  0
ARC
  5
1481
330
1246
100
AcDbEntity
  8
1
  6
Continuous
100
AcDbCircle
 10
471.138555
 20
266.009097
 30
0.0
 40
5.288524999999999
100
AcDbArc
 50
349.8959999999998
 51
352.2069999999998
  0
ARC
  5
1482
330
1246
100
AcDbEntity
  8
1
  6
Continuous
100
AcDbCircle
 10
476.126011
 20
265.119512
 30
0.0
 40
0.222261
100
AcDbArc
 50
270.0
 51
349.8959999999998
  0
LINE
  5
1483
330
1246
100
AcDbEntity
  8
1
  6
Continuous
100
AcDbLine
 10
474.871929
 20
264.897566
 30
0.0
 11
474.871929
 21
265.119512
 31
0.0
  0
ARC
  5
1484
330
1246
100
AcDbEntity
  8
1
  6
Continuous
100
AcDbCircle
 10
471.138555
 20
266.009097
 30
0.0
 40
5.732929999999998
100
AcDbArc
 50
324.4619999999998
 51
35.5377
  0
ARC
  5
1485
330
1246
100
AcDbEntity
  8
1
  6
Continuous
100
AcDbCircle
 10
476.334423
 20
265.297248
 30
0.0
 40
0.044452
100
AcDbArc
 50
352.2069999999998
 51
90.0
  0
LINE
  5
1486
330
1246
100
AcDbEntity
  8
4
  6
CENTER
100
AcDbLine
 10
479.3152069999998
 20
291.611463
 30
0.0
 11
467.2456859999998
 21
291.611463
 31
0.0
  0
ARC
  5
1487
330
1246
100
AcDbEntity
  8
1
  6
Continuous
100
AcDbCircle
 10
286.83224
 20
294.611463
 30
0.0
 40
200.0
100
AcDbArc
 50
356.766556
 51
357.158877
  0
ARC
  5
1488
330
1246
100
AcDbEntity
  8
1
  6
Continuous
100
AcDbCircle
 10
473.33224
 20
311.611463
 30
0.0
 40
11.0
100
AcDbArc
 50
117.5801989999998
 51
242.419801
  0
ARC
  5
1489
330
1246
100
AcDbEntity
  8
2
  6
Continuous
100
AcDbCircle
 10
473.33224
 20
311.611463
 30
0.0
 40
10.18799999999999
100
AcDbArc
 50
106.8615909999999
 51
253.1384089999999
  0
CIRCLE
  5
148A
330
1246
100
AcDbEntity
  8
1
  6
Continuous
100
AcDbCircle
 10
473.33224
 20
311.611463
 30
0.0
 40
17.5
  0
CIRCLE
  5
148B
330
1246
100
AcDbEntity
  8
1
  6
Continuous
100
AcDbCircle
 10
473.33224
 20
311.611463
 30
0.0
 40
16.0
  0
CIRCLE
  5
148C
330
1246
100
AcDbEntity
  8
1
  6
Continuous
100
AcDbCircle
 10
473.33224
 20
311.611463
 30
0.0
 40
11.5
  0
CIRCLE
  5
148D
330
1246
100
AcDbEntity
  8
1
  6
Continuous
100
AcDbCircle
 10
473.33224
 20
311.611463
 30
0.0
 40
8.0
  0
LINE
  5
148E
330
1246
100
AcDbEntity
  8
1
  6
Continuous
100
AcDbLine
 10
455.83224
 20
321.715093
 30
0.0
 11
473.33224
 21
331.8187229999999
 31
0.0
  0
LINE
  5
148F
330
1246
100
AcDbEntity
  8
1
  6
Continuous
100
AcDbLine
 10
455.83224
 20
321.715093
 30
0.0
 11
455.83224
 21
301.507833
 31
0.0
  0
LINE
  5
1490
330
1246
100
AcDbEntity
  8
1
  6
Continuous
100
AcDbLine
 10
473.33224
 20
317.384463
 30
0.0
 11
478.33224
 21
314.498463
 31
0.0
  0
ARC
  5
1491
330
1246
100
AcDbEntity
  8
1
  6
Continuous
100
AcDbCircle
 10
473.33224
 20
311.611463
 30
0.0
 40
11.0
100
AcDbArc
 50
297.5801989999999
 51
62.419801
  0
LINE
  5
1492
330
1246
100
AcDbEntity
  8
1
  6
Continuous
100
AcDbLine
 10
490.83224
 20
321.715093
 30
0.0
 11
490.83224
 21
301.507833
 31
0.0
  0
ARC
  5
1493
330
1246
100
AcDbEntity
  8
2
  6
Continuous
100
AcDbCircle
 10
473.33224
 20
311.611463
 30
0.0
 40
10.18799999999999
100
AcDbArc
 50
286.8615909999999
 51
73.13840899999998
  0
CIRCLE
  5
1494
330
1246
100
AcDbEntity
  8
1
  6
Continuous
100
AcDbCircle
 10
473.33224
 20
311.611463
 30
0.0
 40
6.099999999999997
  0
CIRCLE
  5
1495
330
1246
100
AcDbEntity
  8
1
  6
Continuous
100
AcDbCircle
 10
473.33224
 20
311.611463
 30
0.0
 40
4.049999999999998
  0
CIRCLE
  5
1496
330
1246
100
AcDbEntity
  8
1
  6
Continuous
100
AcDbCircle
 10
473.33224
 20
311.611463
 30
0.0
 40
5.0
  0
LINE
  5
1497
330
1246
100
AcDbEntity
  8
1
  6
Continuous
100
AcDbLine
 10
473.33224
 20
317.384463
 30
0.0
 11
468.33224
 21
314.498463
 31
0.0
  0
ARC
  5
1498
330
1246
100
AcDbEntity
  8
2
  6
Continuous
100
AcDbCircle
 10
473.33224
 20
311.611463
 30
0.0
 40
11.0
100
AcDbArc
 50
242.419801
 51
297.5801989999999
  0
LINE
  5
1499
330
1246
100
AcDbEntity
  8
1
  6
Continuous
100
AcDbLine
 10
478.4251269999998
 20
301.861463
 30
0.0
 11
468.2393529999997
 21
301.861463
 31
0.0
  0
ARC
  5
149A
330
1246
100
AcDbEntity
  8
1
  6
Continuous
100
AcDbCircle
 10
473.33224
 20
311.611463
 30
0.0
 40
10.25
100
AcDbArc
 50
252.0302459999999
 51
287.969754
  0
LINE
  5
149B
330
1246
100
AcDbEntity
  8
1
  6
Continuous
100
AcDbLine
 10
473.3352039999998
 20
313.0961930000002
 30
0.0
 11
474.685731
 21
314.400381
 31
0.0
  0
LINE
  5
149C
330
1246
100
AcDbEntity
  8
1
  6
Continuous
100
AcDbLine
 10
478.33224
 20
308.724463
 30
0.0
 11
473.33224
 21
305.837463
 31
0.0
  0
LINE
  5
149D
330
1246
100
AcDbEntity
  8
1
  6
Continuous
100
AcDbLine
 10
474.685731
 20
308.8225459999998
 30
0.0
 11
473.3352039999998
 21
310.126734
 31
0.0
  0
LINE
  5
149E
330
1246
100
AcDbEntity
  8
1
  6
Continuous
100
AcDbLine
 10
473.33224
 20
310.1276399999998
 30
0.0
 11
473.329275
 21
310.126734
 31
0.0
  0
LINE
  5
149F
330
1246
100
AcDbEntity
  8
1
  6
Continuous
100
AcDbLine
 10
473.33224
 20
310.1276399999998
 30
0.0
 11
473.3352039999998
 21
310.126734
 31
0.0
  0
LINE
  5
14A0
330
1246
100
AcDbEntity
  8
1
  6
Continuous
100
AcDbLine
 10
473.33224
 20
313.0952869999999
 30
0.0
 11
473.3352039999998
 21
313.0961930000002
 31
0.0
  0
LINE
  5
14A1
330
1246
100
AcDbEntity
  8
1
  6
Continuous
100
AcDbLine
 10
473.33224
 20
313.0952869999999
 30
0.0
 11
473.329275
 21
313.0961930000002
 31
0.0
  0
LINE
  5
14A2
330
1246
100
AcDbEntity
  8
1
  6
Continuous
100
AcDbLine
 10
470.5433219999998
 20
312.9649539999999
 30
0.0
 11
471.8475099999998
 21
311.6144279999998
 31
0.0
  0
LINE
  5
14A3
330
1246
100
AcDbEntity
  8
1
  6
Continuous
100
AcDbLine
 10
471.8475099999998
 20
311.608499
 30
0.0
 11
470.5433219999998
 21
310.257972
 31
0.0
  0
LINE
  5
14A4
330
1246
100
AcDbEntity
  8
1
  6
Continuous
100
AcDbLine
 10
471.848416
 20
311.611463
 30
0.0
 11
471.8475099999998
 21
311.6144279999998
 31
0.0
  0
LINE
  5
14A5
330
1246
100
AcDbEntity
  8
1
  6
Continuous
100
AcDbLine
 10
471.848416
 20
311.611463
 30
0.0
 11
471.8475099999998
 21
311.608499
 31
0.0
  0
ARC
  5
14A6
330
1246
100
AcDbEntity
  8
1
  6
Continuous
100
AcDbCircle
 10
473.33224
 20
311.611463
 30
0.0
 40
3.1
100
AcDbArc
 50
115.8877849999998
 51
154.1122149999999
  0
LINE
  5
14A7
330
1246
100
AcDbEntity
  8
1
  6
Continuous
100
AcDbLine
 10
468.33224
 20
308.724463
 30
0.0
 11
468.33224
 21
314.498463
 31
0.0
  0
ARC
  5
14A8
330
1246
100
AcDbEntity
  8
1
  6
Continuous
100
AcDbCircle
 10
473.33224
 20
311.611463
 30
0.0
 40
3.1
100
AcDbArc
 50
205.887785
 51
244.112215
  0
LINE
  5
14A9
330
1246
100
AcDbEntity
  8
1
  6
Continuous
100
AcDbLine
 10
468.33224
 20
308.724463
 30
0.0
 11
473.33224
 21
305.837463
 31
0.0
  0
LINE
  5
14AA
330
1246
100
AcDbEntity
  8
1
  6
Continuous
100
AcDbLine
 10
473.329275
 20
310.126734
 30
0.0
 11
471.9787489999998
 21
308.8225459999998
 31
0.0
  0
LINE
  5
14AB
330
1246
100
AcDbEntity
  8
1
  6
Continuous
100
AcDbLine
 10
471.9787489999998
 20
314.400381
 30
0.0
 11
473.329275
 21
313.0961930000002
 31
0.0
  0
ARC
  5
14AC
330
1246
100
AcDbEntity
  8
1
  6
Continuous
100
AcDbCircle
 10
473.33224
 20
311.611463
 30
0.0
 40
3.1
100
AcDbArc
 50
25.887785
 51
64.112215
  0
LINE
  5
14AD
330
1246
100
AcDbEntity
  8
1
  6
Continuous
100
AcDbLine
 10
474.816969
 20
311.6144279999998
 30
0.0
 11
476.1211569999998
 21
312.9649539999999
 31
0.0
  0
LINE
  5
14AE
330
1246
100
AcDbEntity
  8
1
  6
Continuous
100
AcDbLine
 10
476.1211569999998
 20
310.257972
 30
0.0
 11
474.816969
 21
311.608499
 31
0.0
  0
LINE
  5
14AF
330
1246
100
AcDbEntity
  8
1
  6
Continuous
100
AcDbLine
 10
474.816063
 20
311.611463
 30
0.0
 11
474.816969
 21
311.608499
 31
0.0
  0
LINE
  5
14B0
330
1246
100
AcDbEntity
  8
1
  6
Continuous
100
AcDbLine
 10
474.816063
 20
311.611463
 30
0.0
 11
474.816969
 21
311.6144279999998
 31
0.0
  0
ARC
  5
14B1
330
1246
100
AcDbEntity
  8
1
  6
Continuous
100
AcDbCircle
 10
473.33224
 20
311.611463
 30
0.0
 40
3.1
100
AcDbArc
 50
295.887785
 51
334.1122149999999
  0
LINE
  5
14B2
330
1246
100
AcDbEntity
  8
1
  6
Continuous
100
AcDbLine
 10
478.33224
 20
308.724463
 30
0.0
 11
478.33224
 21
314.498463
 31
0.0
  0
LINE
  5
14B3
330
1246
100
AcDbEntity
  8
1
  6
Continuous
100
AcDbLine
 10
473.33224
 20
331.8187229999999
 30
0.0
 11
490.83224
 21
321.715093
 31
0.0
  0
ARC
  5
14B4
330
1246
100
AcDbEntity
  8
2
  6
Continuous
100
AcDbCircle
 10
473.33224
 20
311.611463
 30
0.0
 40
11.0
100
AcDbArc
 50
62.419801
 51
117.5801989999998
  0
LINE
  5
14B5
330
1246
100
AcDbEntity
  8
1
  6
Continuous
100
AcDbLine
 10
478.4251269999998
 20
321.361463
 30
0.0
 11
468.2393529999997
 21
321.361463
 31
0.0
  0
ARC
  5
14B6
330
1246
100
AcDbEntity
  8
1
  6
Continuous
100
AcDbCircle
 10
473.33224
 20
311.611463
 30
0.0
 40
10.25
100
AcDbArc
 50
72.03024599999998
 51
107.9697539999999
  0
LINE
  5
14B7
330
1246
100
AcDbEntity
  8
4
  6
CENTER
100
AcDbLine
 10
479.48523
 20
331.611463
 30
0.0
 11
467.2456859999998
 21
331.611463
 31
0.0
  0
ARC
  5
14B8
330
1246
100
AcDbEntity
  8
1
  6
Continuous
100
AcDbCircle
 10
473.33224
 20
331.611463
 30
0.0
 40
4.25
100
AcDbArc
 50
332.420521
 51
207.579479
  0
ARC
  5
14B9
330
1246
100
AcDbEntity
  8
1
  6
Continuous
100
AcDbCircle
 10
473.33224
 20
331.611463
 30
0.0
 40
4.0
100
AcDbArc
 50
332.571902
 51
207.428098
  0
LINE
  5
14BA
330
1246
100
AcDbEntity
  8
1
  6
Continuous
100
AcDbLine
 10
74.567862
 20
194.6987769999998
 30
0.0
 11
69.560675
 21
283.330605
 31
0.0
  0
LINE
  5
14BB
330
1246
100
AcDbEntity
  8
1
  6
Continuous
100
AcDbLine
 10
90.916692
 20
194.6987769999998
 30
0.0
 11
95.923879
 21
283.330605
 31
0.0
  0
LINE
  5
14BC
330
1246
100
AcDbEntity
  8
4
  6
CENTER
100
AcDbLine
 10
82.742277
 20
346.2114629999998
 30
0.0
 11
82.742277
 21
187.153311
 31
0.0
  0
ARC
  5
14BD
330
1246
100
AcDbEntity
  8
1
  6
Continuous
100
AcDbCircle
 10
88.42067199999998
 20
194.839788
 30
0.0
 40
2.5
100
AcDbArc
 50
284.6179859999999
 51
356.766556
  0
ARC
  5
14BE
330
1246
100
AcDbEntity
  8
1
  6
Continuous
100
AcDbCircle
 10
82.742277
 20
216.611463
 30
0.0
 40
25.0
100
AcDbArc
 50
255.382014
 51
284.6179859999999
  0
ARC
  5
14BF
330
1246
100
AcDbEntity
  8
1
  6
Continuous
100
AcDbCircle
 10
77.06388199999998
 20
194.839788
 30
0.0
 40
2.5
100
AcDbArc
 50
183.233444
 51
255.382014
  0
ARC
  5
14C0
330
1246
100
AcDbEntity
  8
1
  6
Continuous
100
AcDbCircle
 10
82.742277
 20
311.611463
 30
0.0
 40
30.0
100
AcDbArc
 50
296.2191329999999
 51
243.7808669999999
  0
LINE
  5
14C1
330
1246
100
AcDbEntity
  8
4
  6
CENTER
100
AcDbLine
 10
117.7422769999999
 20
311.611463
 30
0.0
 11
47.74227699999999
 21
311.611463
 31
0.0
  0
LINE
  5
14C2
330
1246
100
AcDbEntity
  8
1
  6
Continuous
100
AcDbLine
 10
96.242277
 20
300.4436239999999
 30
0.0
 11
99.481923
 21
287.9010349999999
 31
0.0
  0
ARC
  5
14C3
330
1246
100
AcDbEntity
  8
1
  6
Continuous
100
AcDbCircle
 10
-103.7577229999999
 20
294.611463
 30
0.0
 40
200.0
100
AcDbArc
 50
356.766556
 51
0.0
  0
LINE
  5
14C4
330
1246
100
AcDbEntity
  8
1
  6
Continuous
100
AcDbLine
 10
69.242277
 20
300.4436239999999
 30
0.0
 11
66.00263100000001
 21
287.9010349999999
 31
0.0
  0
ARC
  5
14C5
330
1246
100
AcDbEntity
  8
1
  6
Continuous
100
AcDbCircle
 10
269.2422769999997
 20
294.611463
 30
0.0
 40
200.0
100
AcDbArc
 50
180.0
 51
183.233444
  0
LINE
  5
14C6
330
1246
100
AcDbEntity
  8
1
  6
Continuous
100
AcDbLine
 10
99.742277
 20
335.2546439999999
 30
0.0
 11
99.742277
 21
287.9682819999998
 31
0.0
  0
LINE
  5
14C7
330
1246
100
AcDbEntity
  8
1
  6
Continuous
100
AcDbLine
 10
65.742277
 20
335.2546439999999
 30
0.0
 11
65.742277
 21
287.9682819999998
 31
0.0
  0
ARC
  5
14C8
330
1246
100
AcDbEntity
  8
1
  6
Continuous
100
AcDbCircle
 10
67.742277
 20
287.9682819999998
 30
0.0
 40
2.0
100
AcDbArc
 50
180.0
 51
237.607635
  0
ARC
  5
14C9
330
1246
100
AcDbEntity
  8
1
  6
Continuous
100
AcDbCircle
 10
97.742277
 20
287.9682819999998
 30
0.0
 40
2.0
100
AcDbArc
 50
302.3923649999999
 51
0.0
  0
LINE
  5
14CA
330
1246
100
AcDbEntity
  8
1
  6
Continuous
100
AcDbLine
 10
71.742277
 20
294.611463
 30
0.0
 11
73.967313
 21
294.611463
 31
0.0
  0
ARC
  5
14CB
330
1246
100
AcDbEntity
  8
1
  6
Continuous
100
AcDbCircle
 10
82.742277
 20
302.611463
 30
0.0
 40
26.0
100
AcDbArc
 50
61.36900999999999
 51
118.6309899999999
  0
LINE
  5
14CC
330
1246
100
AcDbEntity
  8
1
  6
Continuous
100
AcDbLine
 10
71.242277
 20
325.929911
 30
0.0
 11
71.242277
 21
295.111463
 31
0.0
  0
LINE
  5
14CD
330
1246
100
AcDbEntity
  8
1
  6
Continuous
100
AcDbLine
 10
69.242277
 20
294.611463
 30
0.0
 11
69.242277
 21
323.676837
 31
0.0
  0
ARC
  5
14CE
330
1246
100
AcDbEntity
  8
1
  6
Continuous
100
AcDbCircle
 10
71.742277
 20
295.111463
 30
0.0
 40
0.5
100
AcDbArc
 50
180.0
 51
270.0
  0
LINE
  5
14CF
330
1246
100
AcDbEntity
  8
1
  6
Continuous
100
AcDbLine
 10
69.242277
 20
322.779302
 30
0.0
 11
66.00263100000001
 21
335.3218909999998
 31
0.0
  0
ARC
  5
14D0
330
1246
100
AcDbEntity
  8
1
  6
Continuous
100
AcDbCircle
 10
71.242277
 20
323.676837
 30
0.0
 40
2.0
100
AcDbArc
 50
118.6309899999999
 51
180.0
  0
ARC
  5
14D1
330
1246
100
AcDbEntity
  8
1
  6
Continuous
100
AcDbCircle
 10
67.742277
 20
335.2546439999999
 30
0.0
 40
2.0
100
AcDbArc
 50
122.3923649999999
 51
180.0
  0
LINE
  5
14D2
330
1246
100
AcDbEntity
  8
1
  6
Continuous
100
AcDbLine
 10
94.24227700000001
 20
325.929911
 30
0.0
 11
94.24227700000001
 21
295.111463
 31
0.0
  0
LINE
  5
14D3
330
1246
100
AcDbEntity
  8
1
  6
Continuous
100
AcDbLine
 10
96.242277
 20
294.611463
 30
0.0
 11
96.242277
 21
323.676837
 31
0.0
  0
LINE
  5
14D4
330
1246
100
AcDbEntity
  8
1
  6
Continuous
100
AcDbLine
 10
82.742277
 20
309.611463
 30
0.0
 11
89.67048
 21
297.611463
 31
0.0
  0
ARC
  5
14D5
330
1246
100
AcDbEntity
  8
1
  6
Continuous
100
AcDbCircle
 10
82.742277
 20
293.611463
 30
0.0
 40
8.0
100
AcDbArc
 50
12.83958799999999
 51
167.160412
  0
LINE
  5
14D6
330
1246
100
AcDbEntity
  8
1
  6
Continuous
100
AcDbLine
 10
75.814074
 20
297.611463
 30
0.0
 11
82.742277
 21
309.611463
 31
0.0
  0
LINE
  5
14D7
330
1246
100
AcDbEntity
  8
1
  6
Continuous
100
AcDbLine
 10
87.361079
 20
301.611463
 30
0.0
 11
78.123475
 21
301.611463
 31
0.0
  0
LINE
  5
14D8
330
1246
100
AcDbEntity
  8
1
  6
Continuous
100
AcDbLine
 10
86.206379
 20
303.611463
 30
0.0
 11
79.278175
 21
303.611463
 31
0.0
  0
LINE
  5
14D9
330
1246
100
AcDbEntity
  8
1
  6
Continuous
100
AcDbLine
 10
85.917703
 20
304.111463
 30
0.0
 11
79.566851
 21
304.111463
 31
0.0
  0
LINE
  5
14DA
330
1246
100
AcDbEntity
  8
1
  6
Continuous
100
AcDbLine
 10
86.49505399999998
 20
303.111463
 30
0.0
 11
78.98950000000002
 21
303.111463
 31
0.0
  0
LINE
  5
14DB
330
1246
100
AcDbEntity
  8
1
  6
Continuous
100
AcDbLine
 10
86.78372899999997
 20
302.611463
 30
0.0
 11
78.70082499999998
 21
302.611463
 31
0.0
  0
LINE
  5
14DC
330
1246
100
AcDbEntity
  8
1
  6
Continuous
100
AcDbLine
 10
87.07240400000001
 20
302.111463
 30
0.0
 11
78.41214999999998
 21
302.111463
 31
0.0
  0
LINE
  5
14DD
330
1246
100
AcDbEntity
  8
1
  6
Continuous
100
AcDbLine
 10
77.25745
 20
300.111463
 30
0.0
 11
78.078587
 21
300.111463
 31
0.0
  0
LINE
  5
14DE
330
1246
100
AcDbEntity
  8
1
  6
Continuous
100
AcDbLine
 10
76.96877499999998
 20
299.611463
 30
0.0
 11
77.45077399999998
 21
299.611463
 31
0.0
  0
LINE
  5
14DF
330
1246
100
AcDbEntity
  8
1
  6
Continuous
100
AcDbLine
 10
76.680099
 20
299.111463
 30
0.0
 11
76.93280199999998
 21
299.111463
 31
0.0
  0
LINE
  5
14E0
330
1246
100
AcDbEntity
  8
1
  6
Continuous
100
AcDbLine
 10
76.391424
 20
298.611463
 30
0.0
 11
76.49727900000002
 21
298.611463
 31
0.0
  0
LINE
  5
14E1
330
1246
100
AcDbEntity
  8
1
  6
Continuous
100
AcDbLine
 10
76.102749
 20
298.111463
 30
0.0
 11
76.127899
 21
298.111463
 31
0.0
  0
LINE
  5
14E2
330
1246
100
AcDbEntity
  8
1
  6
Continuous
100
AcDbLine
 10
78.86929399999998
 20
300.611463
 30
0.0
 11
77.546125
 21
300.611463
 31
0.0
  0
LINE
  5
14E3
330
1246
100
AcDbEntity
  8
1
  6
Continuous
100
AcDbLine
 10
79.95839499999998
 20
301.111463
 30
0.0
 11
77.8348
 21
301.111463
 31
0.0
  0
ARC
  5
14E4
330
1246
100
AcDbEntity
  8
1
  6
Continuous
100
AcDbCircle
 10
73.967313
 20
295.611463
 30
0.0
 40
1.0
100
AcDbArc
 50
270.0
 51
347.160412
  0
ARC
  5
14E5
330
1246
100
AcDbEntity
  8
1
  6
Continuous
100
AcDbCircle
 10
73.967313
 20
295.611463
 30
0.0
 40
1.0
100
AcDbArc
 50
270.0
 51
347.160412
  0
LINE
  5
14E6
330
1246
100
AcDbEntity
  8
1
  6
Continuous
100
AcDbLine
 10
89.09313
 20
298.611463
 30
0.0
 11
88.98727499999997
 21
298.611463
 31
0.0
  0
LINE
  5
14E7
330
1246
100
AcDbEntity
  8
1
  6
Continuous
100
AcDbLine
 10
88.804455
 20
299.111463
 30
0.0
 11
88.55175199999996
 21
299.111463
 31
0.0
  0
LINE
  5
14E8
330
1246
100
AcDbEntity
  8
1
  6
Continuous
100
AcDbLine
 10
88.51578000000001
 20
299.611463
 30
0.0
 11
88.03377999999998
 21
299.611463
 31
0.0
  0
LINE
  5
14E9
330
1246
100
AcDbEntity
  8
1
  6
Continuous
100
AcDbLine
 10
88.22710399999998
 20
300.111463
 30
0.0
 11
87.40596700000002
 21
300.111463
 31
0.0
  0
LINE
  5
14EA
330
1246
100
AcDbEntity
  8
1
  6
Continuous
100
AcDbLine
 10
87.93842899999999
 20
300.611463
 30
0.0
 11
86.61526
 21
300.611463
 31
0.0
  0
LINE
  5
14EB
330
1246
100
AcDbEntity
  8
1
  6
Continuous
100
AcDbLine
 10
87.649754
 20
301.111463
 30
0.0
 11
85.52615899999997
 21
301.111463
 31
0.0
  0
LINE
  5
14EC
330
1246
100
AcDbEntity
  8
1
  6
Continuous
100
AcDbLine
 10
85.62902800000001
 20
304.611463
 30
0.0
 11
79.855526
 21
304.611463
 31
0.0
  0
LINE
  5
14ED
330
1246
100
AcDbEntity
  8
1
  6
Continuous
100
AcDbLine
 10
85.34035299999997
 20
305.111463
 30
0.0
 11
80.14420099999998
 21
305.111463
 31
0.0
  0
LINE
  5
14EE
330
1246
100
AcDbEntity
  8
1
  6
Continuous
100
AcDbLine
 10
85.05167799999998
 20
305.611463
 30
0.0
 11
80.43287599999997
 21
305.611463
 31
0.0
  0
LINE
  5
14EF
330
1246
100
AcDbEntity
  8
1
  6
Continuous
100
AcDbLine
 10
84.763003
 20
306.111463
 30
0.0
 11
80.72155100000001
 21
306.111463
 31
0.0
  0
LINE
  5
14F0
330
1246
100
AcDbEntity
  8
1
  6
Continuous
100
AcDbLine
 10
84.47432799999999
 20
306.611463
 30
0.0
 11
81.010226
 21
306.611463
 31
0.0
  0
LINE
  5
14F1
330
1246
100
AcDbEntity
  8
1
  6
Continuous
100
AcDbLine
 10
83.896978
 20
307.611463
 30
0.0
 11
81.58757599999999
 21
307.611463
 31
0.0
  0
LINE
  5
14F2
330
1246
100
AcDbEntity
  8
1
  6
Continuous
100
AcDbLine
 10
84.185653
 20
307.111463
 30
0.0
 11
81.298901
 21
307.111463
 31
0.0
  0
LINE
  5
14F3
330
1246
100
AcDbEntity
  8
1
  6
Continuous
100
AcDbLine
 10
83.60830199999998
 20
308.111463
 30
0.0
 11
81.87625199999997
 21
308.111463
 31
0.0
  0
LINE
  5
14F4
330
1246
100
AcDbEntity
  8
1
  6
Continuous
100
AcDbLine
 10
83.31962699999998
 20
308.611463
 30
0.0
 11
82.16492700000001
 21
308.611463
 31
0.0
  0
LINE
  5
14F5
330
1246
100
AcDbEntity
  8
1
  6
Continuous
100
AcDbLine
 10
83.03095199999999
 20
309.111463
 30
0.0
 11
82.453602
 21
309.111463
 31
0.0
  0
ARC
  5
14F6
330
1246
100
AcDbEntity
  8
1
  6
Continuous
100
AcDbCircle
 10
93.742277
 20
295.111463
 30
0.0
 40
0.5
100
AcDbArc
 50
270.0
 51
0.0
  0
LINE
  5
14F7
330
1246
100
AcDbEntity
  8
1
  6
Continuous
100
AcDbLine
 10
89.38180499999999
 20
298.111463
 30
0.0
 11
89.356655
 21
298.111463
 31
0.0
  0
LINE
  5
14F8
330
1246
100
AcDbEntity
  8
1
  6
Continuous
100
AcDbLine
 10
91.517241
 20
294.611463
 30
0.0
 11
93.742277
 21
294.611463
 31
0.0
  0
ARC
  5
14F9
330
1246
100
AcDbEntity
  8
1
  6
Continuous
100
AcDbCircle
 10
91.517241
 20
295.611463
 30
0.0
 40
1.0
100
AcDbArc
 50
192.839588
 51
270.0
  0
ARC
  5
14FA
330
1246
100
AcDbEntity
  8
1
  6
Continuous
100
AcDbCircle
 10
91.517241
 20
295.611463
 30
0.0
 40
1.0
100
AcDbArc
 50
192.839588
 51
270.0
  0
LINE
  5
14FB
330
1246
100
AcDbEntity
  8
1
  6
Continuous
100
AcDbLine
 10
96.242277
 20
322.779302
 30
0.0
 11
99.481923
 21
335.3218909999998
 31
0.0
  0
ARC
  5
14FC
330
1246
100
AcDbEntity
  8
1
  6
Continuous
100
AcDbCircle
 10
94.24227700000001
 20
323.676837
 30
0.0
 40
2.0
100
AcDbArc
 50
0.0
 51
61.36900999999999
  0
ARC
  5
14FD
330
1246
100
AcDbEntity
  8
1
  6
Continuous
100
AcDbCircle
 10
97.742277
 20
335.2546439999999
 30
0.0
 40
2.0
100
AcDbArc
 50
0.0
 51
57.60763499999999
  0
LINE
  5
14FE
330
1246
100
AcDbEntity
  8
1
  6
Continuous
100
AcDbLine
 10
601.181602
 20
295.611463
 30
0.0
 11
601.181602
 21
327.611463
 31
0.0
  0
LINE
  5
14FF
330
1246
100
AcDbEntity
  8
1
  6
Continuous
100
AcDbLine
 10
602.681602
 20
294.111463
 30
0.0
 11
602.681602
 21
329.111463
 31
0.0
  0
LINE
  5
1500
330
1246
100
AcDbEntity
  8
1
  6
Continuous
100
AcDbLine
 10
609.681602
 20
294.111463
 30
0.0
 11
609.681602
 21
329.111463
 31
0.0
  0
LINE
  5
1501
330
1246
100
AcDbEntity
  8
1
  6
Continuous
100
AcDbLine
 10
611.4816019999998
 20
294.111463
 30
0.0
 11
611.4816019999998
 21
329.111463
 31
0.0
  0
ARC
  5
1502
330
1246
100
AcDbEntity
  8
1
  6
Continuous
100
AcDbCircle
 10
563.841408
 20
311.611463
 30
0.0
 40
45.84019399999998
100
AcDbArc
 50
347.266894
 51
12.733106
  0
ARC
  5
1503
330
1246
100
AcDbEntity
  8
1
  6
Continuous
100
AcDbCircle
 10
648.5217969999998
 20
311.611463
 30
0.0
 40
45.84019399999998
100
AcDbArc
 50
167.266894
 51
192.733106
  0
LINE
  5
1504
330
1246
100
AcDbEntity
  8
1
  6
Continuous
100
AcDbLine
 10
611.181602
 20
327.611463
 30
0.0
 11
611.181602
 21
295.611463
 31
0.0
  0
LINE
  5
1505
330
1246
100
AcDbEntity
  8
1
  6
Continuous
100
AcDbLine
 10
612.8816019999998
 20
329.111463
 30
0.0
 11
612.8816019999998
 21
294.111463
 31
0.0
  0
LINE
  5
1506
330
1246
100
AcDbEntity
  8
1
  6
Continuous
100
AcDbLine
 10
611.4816019999998
 20
311.901413
 30
0.0
 11
611.181602
 21
311.6014129999999
 31
0.0
  0
LINE
  5
1507
330
1246
100
AcDbEntity
  8
1
  6
Continuous
100
AcDbLine
 10
613.181602
 20
311.6214929999998
 30
0.0
 11
612.8816019999998
 21
311.3214929999998
 31
0.0
  0
LINE
  5
1508
330
1246
100
AcDbEntity
  8
1
  6
Continuous
100
AcDbLine
 10
650.7385359999998
 20
302.111441
 30
0.0
 11
650.7385359999998
 21
321.111441
 31
0.0
  0
LINE
  5
1509
330
1246
100
AcDbEntity
  8
1
  6
Continuous
100
AcDbLine
 10
649.138536
 20
319.611421
 30
0.0
 11
649.138536
 21
303.611421
 31
0.0
  0
LINE
  5
150A
330
1246
100
AcDbEntity
  8
1
  6
Continuous
100
AcDbLine
 10
647.638536
 20
305.5114209999999
 30
0.0
 11
647.638536
 21
317.7114209999999
 31
0.0
  0
LINE
  5
150B
330
1246
100
AcDbEntity
  8
1
  6
Continuous
100
AcDbLine
 10
647.638536
 20
305.837918
 30
0.0
 11
647.638536
 21
317.384924
 31
0.0
  0
LINE
  5
150C
330
1246
100
AcDbEntity
  8
1
  6
Continuous
100
AcDbLine
 10
643.638536
 20
316.6079639999999
 30
0.0
 11
643.638536
 21
306.606964
 31
0.0
  0
LINE
  5
150D
330
1246
100
AcDbEntity
  8
1
  6
Continuous
100
AcDbLine
 10
649.138536
 20
311.6115049999998
 30
0.0
 11
647.638536
 21
310.1115049999999
 31
0.0
  0
ARC
  5
150E
330
1246
100
AcDbEntity
  8
1
  6
Continuous
100
AcDbCircle
 10
638.0775869999999
 20
311.6079639999999
 30
0.0
 40
9.560949
100
AcDbArc
 50
342.4247879999999
 51
17.575212
  0
ARC
  5
150F
330
1246
100
AcDbEntity
  8
1
  6
Continuous
100
AcDbCircle
 10
653.199485
 20
311.6079639999999
 30
0.0
 40
9.560949
100
AcDbArc
 50
162.4247879999998
 51
197.5752119999999
  0
LINE
  5
1510
330
1246
100
AcDbEntity
  8
1
  6
Continuous
100
AcDbLine
 10
661.738536
 20
321.611441
 30
0.0
 11
661.738536
 21
301.611441
 31
0.0
  0
LINE
  5
1511
330
1246
100
AcDbEntity
  8
1
  6
Continuous
100
AcDbLine
 10
698.688536
 20
297.611463
 30
0.0
 11
698.688536
 21
325.611463
 31
0.0
  0
LINE
  5
1512
330
1246
100
AcDbEntity
  8
1
  6
Continuous
100
AcDbLine
 10
698.638536
 20
297.749955
 30
0.0
 11
698.638536
 21
325.4833269999999
 31
0.0
  0
LINE
  5
1513
330
1246
100
AcDbEntity
  8
1
  6
Continuous
100
AcDbLine
 10
689.0885360000003
 20
335.3218909999998
 30
0.0
 11
689.0885360000003
 21
287.9010349999999
 31
0.0
  0
LINE
  5
1514
330
1246
100
AcDbEntity
  8
1
  6
Continuous
100
AcDbLine
 10
731.585506
 20
325.929911
 30
0.0
 11
731.585506
 21
294.611463
 31
0.0
  0
LINE
  5
1515
330
1246
100
AcDbEntity
  8
1
  6
Continuous
100
AcDbLine
 10
731.076141
 20
325.929911
 30
0.0
 11
731.076141
 21
294.611463
 31
0.0
  0
LINE
  5
1516
330
1246
100
AcDbEntity
  8
1
  6
Continuous
100
AcDbLine
 10
732.688536
 20
327.611463
 30
0.0
 11
732.688536
 21
309.611463
 31
0.0
  0
LINE
  5
1517
330
1246
100
AcDbEntity
  8
1
  6
Continuous
100
AcDbLine
 10
684.0885360000002
 20
341.611463
 30
0.0
 11
684.0885360000002
 21
281.611463
 31
0.0
  0
LINE
  5
1518
330
1246
100
AcDbEntity
  8
1
  6
Continuous
100
AcDbLine
 10
685.0885360000002
 20
341.611463
 30
0.0
 11
685.0885360000002
 21
281.611463
 31
0.0
  0
LINE
  5
1519
330
1246
100
AcDbEntity
  8
1
  6
Continuous
100
AcDbLine
 10
684.0885360000002
 20
301.861463
 30
0.0
 11
662.038536
 21
301.861463
 31
0.0
  0
LINE
  5
151A
330
1246
100
AcDbEntity
  8
4
  6
CENTER
100
AcDbLine
 10
736.1358299999997
 20
311.611463
 30
0.0
 11
639.088736
 21
311.611463
 31
0.0
  0
LINE
  5
151B
330
1246
100
AcDbEntity
  8
1
  6
Continuous
100
AcDbLine
 10
731.4765149999997
 20
277.75022
 30
0.0
 11
724.3434849999996
 21
193.442851
 31
0.0
  0
LINE
  5
151C
330
1246
100
AcDbEntity
  8
1
  6
Continuous
100
AcDbLine
 10
717.188536
 20
294.468049
 30
0.0
 11
717.188536
 21
213.682531
 31
0.0
  0
ARC
  5
151D
330
1246
100
AcDbEntity
  8
1
  6
Continuous
100
AcDbCircle
 10
719.188536
 20
202.2977549999999
 30
0.0
 40
8.0
100
AcDbArc
 50
135.0
 51
180.0
  0
LINE
  5
151E
330
1246
100
AcDbEntity
  8
1
  6
Continuous
100
AcDbLine
 10
722.3506049999997
 20
191.6114629999999
 30
0.0
 11
719.188536
 21
191.6114629999999
 31
0.0
  0
ARC
  5
151F
330
1246
100
AcDbEntity
  8
1
  6
Continuous
100
AcDbCircle
 10
722.3506049999997
 20
193.6114629999999
 30
0.0
 40
2.0
100
AcDbArc
 50
270.0
 51
355.1638689999998
  0
ARC
  5
1520
330
1246
100
AcDbEntity
  8
1
  6
Continuous
100
AcDbCircle
 10
719.188536
 20
199.6114629999999
 30
0.0
 40
8.0
100
AcDbArc
 50
180.0
 51
270.0
  0
LINE
  5
1521
330
1246
100
AcDbEntity
  8
1
  6
Continuous
100
AcDbLine
 10
711.188536
 20
202.2977549999999
 30
0.0
 11
711.188536
 21
199.6114629999999
 31
0.0
  0
ARC
  5
1522
330
1246
100
AcDbEntity
  8
1
  6
Continuous
100
AcDbCircle
 10
712.188536
 20
213.682531
 30
0.0
 40
5.0
100
AcDbArc
 50
315.0
 51
0.0
  0
LINE
  5
1523
330
1246
100
AcDbEntity
  8
1
  6
Continuous
100
AcDbLine
 10
713.5316820000001
 20
207.954609
 30
0.0
 11
715.72407
 21
210.146997
 31
0.0
  0
LINE
  5
1524
330
1246
100
AcDbEntity
  8
1
  6
Continuous
100
AcDbLine
 10
698.688536
 20
297.611463
 30
0.0
 11
715.5302840000001
 21
296.103247
 31
0.0
  0
LINE
  5
1525
330
1246
100
AcDbEntity
  8
1
  6
Continuous
100
AcDbLine
 10
698.688536
 20
301.611463
 30
0.0
 11
711.7237079999996
 21
300.4441339999999
 31
0.0
  0
ARC
  5
1526
330
1246
100
AcDbEntity
  8
1
  6
Continuous
100
AcDbCircle
 10
532.188536
 20
294.611463
 30
0.0
 40
200.0
100
AcDbArc
 50
355.1638689999998
 51
0.0
  0
LINE
  5
1527
330
1246
100
AcDbEntity
  8
1
  6
Continuous
100
AcDbLine
 10
733.188536
 20
301.111463
 30
0.0
 11
732.688536
 21
300.611463
 31
0.0
  0
LINE
  5
1528
330
1246
100
AcDbEntity
  8
1
  6
Continuous
100
AcDbLine
 10
732.688536
 20
300.611463
 30
0.0
 11
733.188536
 21
300.111463
 31
0.0
  0
LINE
  5
1529
330
1246
100
AcDbEntity
  8
1
  6
Continuous
100
AcDbLine
 10
733.188536
 20
300.111463
 30
0.0
 11
732.688536
 21
299.611463
 31
0.0
  0
LINE
  5
152A
330
1246
100
AcDbEntity
  8
1
  6
Continuous
100
AcDbLine
 10
732.688536
 20
299.611463
 30
0.0
 11
733.188536
 21
299.111463
 31
0.0
  0
LINE
  5
152B
330
1246
100
AcDbEntity
  8
1
  6
Continuous
100
AcDbLine
 10
733.188536
 20
299.111463
 30
0.0
 11
732.688536
 21
298.611463
 31
0.0
  0
LINE
  5
152C
330
1246
100
AcDbEntity
  8
1
  6
Continuous
100
AcDbLine
 10
732.688536
 20
298.611463
 30
0.0
 11
733.188536
 21
298.111463
 31
0.0
  0
LINE
  5
152D
330
1246
100
AcDbEntity
  8
1
  6
Continuous
100
AcDbLine
 10
733.188536
 20
298.111463
 30
0.0
 11
732.688536
 21
297.611463
 31
0.0
  0
LINE
  5
152E
330
1246
100
AcDbEntity
  8
1
  6
Continuous
100
AcDbLine
 10
732.688536
 20
294.611463
 30
0.0
 11
731.076141
 21
294.611463
 31
0.0
  0
LINE
  5
152F
330
1246
100
AcDbEntity
  8
1
  6
Continuous
100
AcDbLine
 10
732.688536
 20
297.611463
 30
0.0
 11
732.688536
 21
294.611463
 31
0.0
  0
LINE
  5
1530
330
1246
100
AcDbEntity
  8
1
  6
Continuous
100
AcDbLine
 10
732.688536
 20
309.611463
 30
0.0
 11
733.188536
 21
309.111463
 31
0.0
  0
LINE
  5
1531
330
1246
100
AcDbEntity
  8
1
  6
Continuous
100
AcDbLine
 10
733.188536
 20
309.111463
 30
0.0
 11
732.688536
 21
308.611463
 31
0.0
  0
LINE
  5
1532
330
1246
100
AcDbEntity
  8
1
  6
Continuous
100
AcDbLine
 10
732.688536
 20
308.611463
 30
0.0
 11
733.188536
 21
308.111463
 31
0.0
  0
LINE
  5
1533
330
1246
100
AcDbEntity
  8
1
  6
Continuous
100
AcDbLine
 10
733.188536
 20
308.111463
 30
0.0
 11
732.688536
 21
307.611463
 31
0.0
  0
LINE
  5
1534
330
1246
100
AcDbEntity
  8
1
  6
Continuous
100
AcDbLine
 10
732.688536
 20
307.611463
 30
0.0
 11
733.188536
 21
307.111463
 31
0.0
  0
LINE
  5
1535
330
1246
100
AcDbEntity
  8
1
  6
Continuous
100
AcDbLine
 10
733.188536
 20
307.111463
 30
0.0
 11
732.688536
 21
306.611463
 31
0.0
  0
LINE
  5
1536
330
1246
100
AcDbEntity
  8
1
  6
Continuous
100
AcDbLine
 10
732.688536
 20
306.611463
 30
0.0
 11
733.188536
 21
306.111463
 31
0.0
  0
LINE
  5
1537
330
1246
100
AcDbEntity
  8
1
  6
Continuous
100
AcDbLine
 10
733.188536
 20
306.111463
 30
0.0
 11
732.688536
 21
305.611463
 31
0.0
  0
LINE
  5
1538
330
1246
100
AcDbEntity
  8
1
  6
Continuous
100
AcDbLine
 10
732.688536
 20
305.611463
 30
0.0
 11
733.188536
 21
305.111463
 31
0.0
  0
LINE
  5
1539
330
1246
100
AcDbEntity
  8
1
  6
Continuous
100
AcDbLine
 10
733.188536
 20
305.111463
 30
0.0
 11
732.688536
 21
304.611463
 31
0.0
  0
LINE
  5
153A
330
1246
100
AcDbEntity
  8
1
  6
Continuous
100
AcDbLine
 10
733.188536
 20
304.111463
 30
0.0
 11
732.688536
 21
303.611463
 31
0.0
  0
LINE
  5
153B
330
1246
100
AcDbEntity
  8
1
  6
Continuous
100
AcDbLine
 10
732.688536
 20
303.611463
 30
0.0
 11
733.188536
 21
303.111463
 31
0.0
  0
LINE
  5
153C
330
1246
100
AcDbEntity
  8
1
  6
Continuous
100
AcDbLine
 10
733.188536
 20
303.111463
 30
0.0
 11
732.688536
 21
302.611463
 31
0.0
  0
LINE
  5
153D
330
1246
100
AcDbEntity
  8
1
  6
Continuous
100
AcDbLine
 10
732.688536
 20
302.611463
 30
0.0
 11
733.188536
 21
302.111463
 31
0.0
  0
LINE
  5
153E
330
1246
100
AcDbEntity
  8
1
  6
Continuous
100
AcDbLine
 10
733.188536
 20
302.111463
 30
0.0
 11
732.688536
 21
301.611463
 31
0.0
  0
LINE
  5
153F
330
1246
100
AcDbEntity
  8
1
  6
Continuous
100
AcDbLine
 10
732.688536
 20
301.611463
 30
0.0
 11
733.188536
 21
301.111463
 31
0.0
  0
LINE
  5
1540
330
1246
100
AcDbEntity
  8
1
  6
Continuous
100
AcDbLine
 10
732.688536
 20
304.611463
 30
0.0
 11
733.188536
 21
304.111463
 31
0.0
  0
ARC
  5
1541
330
1246
100
AcDbEntity
  8
1
  6
Continuous
100
AcDbCircle
 10
711.188536
 20
294.468049
 30
0.0
 40
6.0
100
AcDbArc
 50
0.0
 51
84.88268499999998
  0
ARC
  5
1542
330
1246
100
AcDbEntity
  8
1
  6
Continuous
100
AcDbCircle
 10
714.192354
 20
281.1630349999999
 30
0.0
 40
15.0
100
AcDbArc
 50
79.148036
 51
84.88268499999998
  0
LINE
  5
1543
330
1246
100
AcDbEntity
  8
1
  6
Continuous
100
AcDbLine
 10
698.5775369999997
 20
297.510626
 30
0.0
 11
689.660515
 21
282.654147
 31
0.0
  0
LINE
  5
1544
330
1246
100
AcDbEntity
  8
1
  6
Continuous
100
AcDbLine
 10
689.658001
 20
287.9010349999999
 30
0.0
 11
698.6269079999997
 21
301.319321
 31
0.0
  0
LINE
  5
1545
330
1246
100
AcDbEntity
  8
1
  6
Continuous
100
AcDbLine
 10
679.5885359999997
 20
294.111463
 30
0.0
 11
679.5885359999997
 21
287.611463
 31
0.0
  0
LINE
  5
1546
330
1246
100
AcDbEntity
  8
1
  6
Continuous
100
AcDbLine
 10
684.0885360000002
 20
287.611463
 30
0.0
 11
679.5885359999997
 21
287.611463
 31
0.0
  0
LINE
  5
1547
330
1246
100
AcDbEntity
  8
1
  6
Continuous
100
AcDbLine
 10
689.0885360000003
 20
282.6495489999999
 30
0.0
 11
689.0885360000003
 21
287.0490649999999
 31
0.0
  0
LINE
  5
1548
330
1246
100
AcDbEntity
  8
1
  6
Continuous
100
AcDbLine
 10
687.9045119999998
 20
281.611463
 30
0.0
 11
684.0885360000002
 21
281.611463
 31
0.0
  0
ARC
  5
1549
330
1246
100
AcDbEntity
  8
1
  6
Continuous
100
AcDbCircle
 10
687.9045119999998
 20
283.611463
 30
0.0
 40
2.0
100
AcDbArc
 50
270.0
 51
331.402214
  0
ARC
  5
154A
330
1246
100
AcDbEntity
  8
1
  6
Continuous
100
AcDbCircle
 10
698.138536
 20
297.749955
 30
0.0
 40
0.5
100
AcDbArc
 50
329.036243
 51
0.0
  0
LINE
  5
154B
330
1246
100
AcDbEntity
  8
1
  6
Continuous
100
AcDbLine
 10
698.688536
 20
301.611463
 30
0.0
 11
698.638536
 21
301.611463
 31
0.0
  0
LINE
  5
154C
330
1246
100
AcDbEntity
  8
1
  6
Continuous
100
AcDbLine
 10
684.0885360000002
 20
294.111463
 30
0.0
 11
679.5885359999997
 21
294.111463
 31
0.0
  0
LINE
  5
154D
330
1246
100
AcDbEntity
  8
1
  6
Continuous
100
AcDbLine
 10
612.8816019999998
 20
294.111463
 30
0.0
 11
611.4816019999998
 21
294.111463
 31
0.0
  0
LINE
  5
154E
330
1246
100
AcDbEntity
  8
4
  6
CENTER
100
AcDbLine
 10
617.7816019999998
 20
311.611463
 30
0.0
 11
596.1816019999997
 21
311.611463
 31
0.0
  0
LINE
  5
154F
330
1246
100
AcDbEntity
  8
1
  6
Continuous
100
AcDbLine
 10
651.2385359999998
 20
301.611441
 30
0.0
 11
661.738536
 21
301.611441
 31
0.0
  0
LINE
  5
1550
330
1246
100
AcDbEntity
  8
1
  6
Continuous
100
AcDbLine
 10
662.038536
 20
301.861463
 30
0.0
 11
661.738536
 21
302.1614629999999
 31
0.0
  0
ARC
  5
1551
330
1246
100
AcDbEntity
  8
1
  6
Continuous
100
AcDbCircle
 10
651.2385359999998
 20
302.111441
 30
0.0
 40
0.5
100
AcDbArc
 50
180.0
 51
270.0
  0
LINE
  5
1552
330
1246
100
AcDbEntity
  8
1
  6
Continuous
100
AcDbLine
 10
650.7385359999998
 20
303.611421
 30
0.0
 11
649.138536
 21
303.611421
 31
0.0
  0
LINE
  5
1553
330
1246
100
AcDbEntity
  8
1
  6
Continuous
100
AcDbLine
 10
649.138536
 20
313.1154619999999
 30
0.0
 11
647.638536
 21
311.6154619999999
 31
0.0
  0
LINE
  5
1554
330
1246
100
AcDbEntity
  8
1
  6
Continuous
100
AcDbLine
 10
647.638536
 20
305.5114209999999
 30
0.0
 11
649.138536
 21
305.5114209999999
 31
0.0
  0
LINE
  5
1555
330
1246
100
AcDbEntity
  8
1
  6
Continuous
100
AcDbLine
 10
647.1922440000001
 20
308.7209639999999
 30
0.0
 11
644.0848279999999
 21
308.7209639999999
 31
0.0
  0
LINE
  5
1556
330
1246
100
AcDbEntity
  8
1
  6
Continuous
100
AcDbLine
 10
647.1922440000001
 20
305.8339639999999
 30
0.0
 11
644.0848279999999
 21
305.8339639999999
 31
0.0
  0
ARC
  5
1557
330
1246
100
AcDbEntity
  8
1
  6
Continuous
100
AcDbCircle
 10
645.082536
 20
307.277964
 30
0.0
 40
2.55582
100
AcDbArc
 50
325.6159999999998
 51
325.647143
  0
ARC
  5
1558
330
1246
100
AcDbEntity
  8
1
  6
Continuous
100
AcDbCircle
 10
645.0825559999998
 20
307.276964
 30
0.0
 40
2.555979999999999
100
AcDbArc
 50
334.371637
 51
34.371637
  0
LINE
  5
1559
330
1246
100
AcDbEntity
  8
1
  6
Continuous
100
AcDbLine
 10
647.638536
 20
306.606964
 30
0.0
 11
647.1922440000001
 21
305.8339639999999
 31
0.0
  0
ARC
  5
155A
330
1246
100
AcDbEntity
  8
1
  6
Continuous
100
AcDbCircle
 10
646.1945360000002
 20
307.277964
 30
0.0
 40
2.55582
100
AcDbArc
 50
214.3528569999999
 51
214.3839999999999
  0
ARC
  5
155B
330
1246
100
AcDbEntity
  8
1
  6
Continuous
100
AcDbCircle
 10
646.1945159999998
 20
307.276964
 30
0.0
 40
2.555979999999999
100
AcDbArc
 50
145.6283629999998
 51
205.6283629999998
  0
LINE
  5
155C
330
1246
100
AcDbEntity
  8
1
  6
Continuous
100
AcDbLine
 10
643.638536
 20
306.606964
 30
0.0
 11
644.0848279999999
 21
305.8339639999999
 31
0.0
  0
LINE
  5
155D
330
1246
100
AcDbEntity
  8
1
  6
Continuous
100
AcDbLine
 10
613.181602
 20
300.6743129999999
 30
0.0
 11
612.8816019999998
 21
299.516163
 31
0.0
  0
LINE
  5
155E
330
1246
100
AcDbEntity
  8
1
  6
Continuous
100
AcDbLine
 10
612.8816019999998
 20
300.6743129999999
 30
0.0
 11
613.181602
 21
300.6743129999999
 31
0.0
  0
LINE
  5
155F
330
1246
100
AcDbEntity
  8
1
  6
Continuous
100
AcDbLine
 10
613.181602
 20
304.851953
 30
0.0
 11
612.8816019999998
 21
304.5519529999999
 31
0.0
  0
LINE
  5
1560
330
1246
100
AcDbEntity
  8
1
  6
Continuous
100
AcDbLine
 10
613.181602
 20
304.851953
 30
0.0
 11
612.8816019999998
 21
305.1519629999999
 31
0.0
  0
ARC
  5
1561
330
1246
100
AcDbEntity
  8
1
  6
Continuous
100
AcDbCircle
 10
614.564398
 20
296.4560189999999
 30
0.0
 40
11.882796
100
AcDbArc
 50
154.840673
 51
194.726372
  0
ARC
  5
1562
330
1246
100
AcDbEntity
  8
1
  6
Continuous
100
AcDbCircle
 10
597.798806
 20
296.4560189999999
 30
0.0
 40
11.882796
100
AcDbArc
 50
345.2736279999998
 51
25.159327
  0
LINE
  5
1563
330
1246
100
AcDbEntity
  8
1
  6
Continuous
100
AcDbLine
 10
604.244639
 20
291.404204
 30
0.0
 11
608.118565
 21
291.404204
 31
0.0
  0
LINE
  5
1564
330
1246
100
AcDbEntity
  8
1
  6
Continuous
100
AcDbLine
 10
609.681602
 20
294.111463
 30
0.0
 11
608.118565
 21
291.404203
 31
0.0
  0
LINE
  5
1565
330
1246
100
AcDbEntity
  8
1
  6
Continuous
100
AcDbLine
 10
611.181602
 20
295.611463
 30
0.0
 11
609.681602
 21
295.611463
 31
0.0
  0
LINE
  5
1566
330
1246
100
AcDbEntity
  8
1
  6
Continuous
100
AcDbLine
 10
611.181602
 20
300.6743129999999
 30
0.0
 11
611.4816019999998
 21
299.516163
 31
0.0
  0
LINE
  5
1567
330
1246
100
AcDbEntity
  8
1
  6
Continuous
100
AcDbLine
 10
611.4816019999998
 20
300.6743129999999
 30
0.0
 11
611.181602
 21
300.6743129999999
 31
0.0
  0
LINE
  5
1568
330
1246
100
AcDbEntity
  8
1
  6
Continuous
100
AcDbLine
 10
602.681602
 20
294.111463
 30
0.0
 11
604.244639
 21
291.404203
 31
0.0
  0
LINE
  5
1569
330
1246
100
AcDbEntity
  8
1
  6
Continuous
100
AcDbLine
 10
601.181602
 20
295.611463
 30
0.0
 11
602.681602
 21
295.611463
 31
0.0
  0
LINE
  5
156A
330
1246
100
AcDbEntity
  8
1
  6
Continuous
100
AcDbLine
 10
603.8089339999998
 20
301.507833
 30
0.0
 11
608.5542699999997
 21
301.507833
 31
0.0
  0
LINE
  5
156B
330
1246
100
AcDbEntity
  8
1
  6
Continuous
100
AcDbLine
 10
611.181602
 20
311.6014129999999
 30
0.0
 11
611.4816019999998
 21
311.3014129999999
 31
0.0
  0
LINE
  5
156C
330
1246
100
AcDbEntity
  8
1
  6
Continuous
100
AcDbLine
 10
611.181602
 20
304.851953
 30
0.0
 11
611.4816019999998
 21
305.1519629999999
 31
0.0
  0
LINE
  5
156D
330
1246
100
AcDbEntity
  8
1
  6
Continuous
100
AcDbLine
 10
611.4816019999998
 20
304.5519529999999
 30
0.0
 11
611.181602
 21
304.851953
 31
0.0
  0
LINE
  5
156E
330
1246
100
AcDbEntity
  8
1
  6
Continuous
100
AcDbLine
 10
684.0885360000002
 20
321.361463
 30
0.0
 11
662.038536
 21
321.361463
 31
0.0
  0
LINE
  5
156F
330
1246
100
AcDbEntity
  8
1
  6
Continuous
100
AcDbLine
 10
718.229243
 20
324.628831
 30
0.0
 11
699.2776720000001
 21
321.7428049999999
 31
0.0
  0
LINE
  5
1570
330
1246
100
AcDbEntity
  8
1
  6
Continuous
100
AcDbLine
 10
717.6401069999998
 20
328.4974889999999
 30
0.0
 11
698.688536
 21
325.611463
 31
0.0
  0
LINE
  5
1571
330
1246
100
AcDbEntity
  8
1
  6
Continuous
100
AcDbLine
 10
731.688536
 20
328.611463
 30
0.0
 11
719.1455939999997
 21
328.611463
 31
0.0
  0
LINE
  5
1572
330
1246
100
AcDbEntity
  8
1
  6
Continuous
100
AcDbLine
 10
729.650062
 20
324.6982039999999
 30
0.0
 11
719.1455939999997
 21
324.6982039999999
 31
0.0
  0
ARC
  5
1573
330
1246
100
AcDbEntity
  8
1
  6
Continuous
100
AcDbCircle
 10
731.688536
 20
327.611463
 30
0.0
 40
1.0
100
AcDbArc
 50
0.0
 51
90.0
  0
LINE
  5
1574
330
1246
100
AcDbEntity
  8
1
  6
Continuous
100
AcDbLine
 10
731.076141
 20
325.929911
 30
0.0
 11
730.2800179999997
 21
324.7756109999999
 31
0.0
  0
ARC
  5
1575
330
1246
100
AcDbEntity
  8
1
  6
Continuous
100
AcDbCircle
 10
729.650062
 20
323.698204
 30
0.0
 40
1.0
100
AcDbArc
 50
0.0
 51
90.0
  0
LINE
  5
1576
330
1246
100
AcDbEntity
  8
1
  6
Continuous
100
AcDbLine
 10
731.585506
 20
325.929911
 30
0.0
 11
731.076141
 21
325.929911
 31
0.0
  0
LINE
  5
1577
330
1246
100
AcDbEntity
  8
1
  6
Continuous
100
AcDbLine
 10
731.585506
 20
325.929911
 30
0.0
 11
732.004093
 21
327.746119
 31
0.0
  0
ARC
  5
1578
330
1246
100
AcDbEntity
  8
1
  6
Continuous
100
AcDbCircle
 10
719.1455939999997
 20
318.611463
 30
0.0
 40
10.0
100
AcDbArc
 50
90.0
 51
98.65872100000002
  0
ARC
  5
1579
330
1246
100
AcDbEntity
  8
1
  6
Continuous
100
AcDbCircle
 10
719.1455939999997
 20
318.611463
 30
0.0
 40
6.086740999999999
100
AcDbArc
 50
90.0
 51
98.65872100000002
  0
LINE
  5
157A
330
1246
100
AcDbEntity
  8
1
  6
Continuous
100
AcDbLine
 10
679.5885359999997
 20
335.611463
 30
0.0
 11
679.5885359999997
 21
329.111463
 31
0.0
  0
LINE
  5
157B
330
1246
100
AcDbEntity
  8
1
  6
Continuous
100
AcDbLine
 10
689.658001
 20
335.3218909999998
 30
0.0
 11
698.6269079999997
 21
321.9036049999999
 31
0.0
  0
LINE
  5
157C
330
1246
100
AcDbEntity
  8
1
  6
Continuous
100
AcDbLine
 10
698.5774730000001
 20
325.722773
 30
0.0
 11
689.66026
 21
340.569246
 31
0.0
  0
LINE
  5
157D
330
1246
100
AcDbEntity
  8
1
  6
Continuous
100
AcDbLine
 10
698.688536
 20
321.2808739999999
 30
0.0
 11
698.638536
 21
321.2808739999999
 31
0.0
  0
LINE
  5
157E
330
1246
100
AcDbEntity
  8
1
  6
Continuous
100
AcDbLine
 10
698.688536
 20
324.111463
 30
0.0
 11
698.638536
 21
324.111463
 31
0.0
  0
ARC
  5
157F
330
1246
100
AcDbEntity
  8
1
  6
Continuous
100
AcDbCircle
 10
698.138536
 20
325.4833269999999
 30
0.0
 40
0.5
100
AcDbArc
 50
0.0
 51
28.747914
  0
LINE
  5
1580
330
1246
100
AcDbEntity
  8
1
  6
Continuous
100
AcDbLine
 10
684.0885360000002
 20
329.111463
 30
0.0
 11
679.5885359999997
 21
329.111463
 31
0.0
  0
LINE
  5
1581
330
1246
100
AcDbEntity
  8
1
  6
Continuous
100
AcDbLine
 10
684.0885360000002
 20
335.611463
 30
0.0
 11
679.5885359999997
 21
335.611463
 31
0.0
  0
ARC
  5
1582
330
1246
100
AcDbEntity
  8
1
  6
Continuous
100
AcDbCircle
 10
687.9045119999998
 20
339.611463
 30
0.0
 40
2.0
100
AcDbArc
 50
28.613039
 51
90.0
  0
LINE
  5
1583
330
1246
100
AcDbEntity
  8
1
  6
Continuous
100
AcDbLine
 10
687.9045119999998
 20
341.611463
 30
0.0
 11
684.0885360000002
 21
341.611463
 31
0.0
  0
LINE
  5
1584
330
1246
100
AcDbEntity
  8
1
  6
Continuous
100
AcDbLine
 10
689.0885360000003
 20
340.5733769999998
 30
0.0
 11
689.0885360000003
 21
336.1738609999998
 31
0.0
  0
LINE
  5
1585
330
1246
100
AcDbEntity
  8
1
  6
Continuous
100
AcDbLine
 10
612.8816019999998
 20
329.111463
 30
0.0
 11
611.4816019999998
 21
329.111463
 31
0.0
  0
LINE
  5
1586
330
1246
100
AcDbEntity
  8
1
  6
Continuous
100
AcDbLine
 10
651.2385359999998
 20
321.611441
 30
0.0
 11
661.738536
 21
321.611441
 31
0.0
  0
LINE
  5
1587
330
1246
100
AcDbEntity
  8
1
  6
Continuous
100
AcDbLine
 10
662.038536
 20
321.361463
 30
0.0
 11
661.738536
 21
321.061463
 31
0.0
  0
ARC
  5
1588
330
1246
100
AcDbEntity
  8
1
  6
Continuous
100
AcDbCircle
 10
651.2385359999998
 20
321.111441
 30
0.0
 40
0.5
100
AcDbArc
 50
90.0
 51
180.0
  0
ARC
  5
1589
330
1246
100
AcDbEntity
  8
1
  6
Continuous
100
AcDbCircle
 10
645.0825559999998
 20
315.937964
 30
0.0
 40
2.555979999999999
100
AcDbArc
 50
325.6283629999999
 51
25.628363
  0
ARC
  5
158A
330
1246
100
AcDbEntity
  8
1
  6
Continuous
100
AcDbCircle
 10
646.1945159999998
 20
315.937964
 30
0.0
 40
2.555979999999999
100
AcDbArc
 50
154.371637
 51
214.371637
  0
LINE
  5
158B
330
1246
100
AcDbEntity
  8
1
  6
Continuous
100
AcDbLine
 10
647.1922440000001
 20
314.494964
 30
0.0
 11
644.0848279999999
 21
314.494964
 31
0.0
  0
LINE
  5
158C
330
1246
100
AcDbEntity
  8
1
  6
Continuous
100
AcDbLine
 10
650.7385359999998
 20
319.611421
 30
0.0
 11
649.138536
 21
319.611421
 31
0.0
  0
LINE
  5
158D
330
1246
100
AcDbEntity
  8
1
  6
Continuous
100
AcDbLine
 10
647.638536
 20
317.7114209999999
 30
0.0
 11
649.138536
 21
317.7114209999999
 31
0.0
  0
LINE
  5
158E
330
1246
100
AcDbEntity
  8
1
  6
Continuous
100
AcDbLine
 10
647.1922440000001
 20
317.3809639999999
 30
0.0
 11
644.0848279999999
 21
317.3809639999999
 31
0.0
  0
LINE
  5
158F
330
1246
100
AcDbEntity
  8
1
  6
Continuous
100
AcDbLine
 10
647.638536
 20
316.6079639999999
 30
0.0
 11
647.1922440000001
 21
317.3809639999999
 31
0.0
  0
LINE
  5
1590
330
1246
100
AcDbEntity
  8
1
  6
Continuous
100
AcDbLine
 10
643.638536
 20
316.6079639999999
 30
0.0
 11
644.0848279999999
 21
317.3809639999999
 31
0.0
  0
LINE
  5
1591
330
1246
100
AcDbEntity
  8
1
  6
Continuous
100
AcDbLine
 10
613.181602
 20
311.6214929999998
 30
0.0
 11
612.8816019999998
 21
311.921493
 31
0.0
  0
LINE
  5
1592
330
1246
100
AcDbEntity
  8
1
  6
Continuous
100
AcDbLine
 10
613.181602
 20
318.370993
 30
0.0
 11
612.8816019999998
 21
318.0709929999999
 31
0.0
  0
LINE
  5
1593
330
1246
100
AcDbEntity
  8
1
  6
Continuous
100
AcDbLine
 10
613.181602
 20
318.370993
 30
0.0
 11
612.8816019999998
 21
318.670993
 31
0.0
  0
LINE
  5
1594
330
1246
100
AcDbEntity
  8
1
  6
Continuous
100
AcDbLine
 10
612.8816019999998
 20
322.548613
 30
0.0
 11
613.181602
 21
322.548613
 31
0.0
  0
LINE
  5
1595
330
1246
100
AcDbEntity
  8
1
  6
Continuous
100
AcDbLine
 10
613.181602
 20
322.548613
 30
0.0
 11
612.8816019999998
 21
323.7067629999998
 31
0.0
  0
ARC
  5
1596
330
1246
100
AcDbEntity
  8
1
  6
Continuous
100
AcDbCircle
 10
614.564398
 20
326.766908
 30
0.0
 40
11.882796
100
AcDbArc
 50
165.2736289999998
 51
205.159327
  0
ARC
  5
1597
330
1246
100
AcDbEntity
  8
1
  6
Continuous
100
AcDbCircle
 10
597.798806
 20
326.766908
 30
0.0
 40
11.882796
100
AcDbArc
 50
334.8406729999999
 51
14.726371
  0
LINE
  5
1598
330
1246
100
AcDbEntity
  8
1
  6
Continuous
100
AcDbLine
 10
603.8089339999998
 20
321.715093
 30
0.0
 11
608.5542699999997
 21
321.715093
 31
0.0
  0
LINE
  5
1599
330
1246
100
AcDbEntity
  8
1
  6
Continuous
100
AcDbLine
 10
611.4816019999998
 20
318.670993
 30
0.0
 11
611.181602
 21
318.370993
 31
0.0
  0
LINE
  5
159A
330
1246
100
AcDbEntity
  8
1
  6
Continuous
100
AcDbLine
 10
611.181602
 20
318.370993
 30
0.0
 11
611.4816019999998
 21
318.0709929999999
 31
0.0
  0
LINE
  5
159B
330
1246
100
AcDbEntity
  8
1
  6
Continuous
100
AcDbLine
 10
604.244639
 20
331.8187229999999
 30
0.0
 11
608.118565
 21
331.8187229999999
 31
0.0
  0
LINE
  5
159C
330
1246
100
AcDbEntity
  8
1
  6
Continuous
100
AcDbLine
 10
611.4816019999998
 20
322.548613
 30
0.0
 11
611.181602
 21
322.548613
 31
0.0
  0
LINE
  5
159D
330
1246
100
AcDbEntity
  8
1
  6
Continuous
100
AcDbLine
 10
611.181602
 20
322.548613
 30
0.0
 11
611.4816019999998
 21
323.7067629999998
 31
0.0
  0
LINE
  5
159E
330
1246
100
AcDbEntity
  8
1
  6
Continuous
100
AcDbLine
 10
611.181602
 20
327.611463
 30
0.0
 11
609.681602
 21
327.611463
 31
0.0
  0
LINE
  5
159F
330
1246
100
AcDbEntity
  8
1
  6
Continuous
100
AcDbLine
 10
609.681602
 20
329.111463
 30
0.0
 11
608.118565
 21
331.8187229999999
 31
0.0
  0
LINE
  5
15A0
330
1246
100
AcDbEntity
  8
1
  6
Continuous
100
AcDbLine
 10
601.181602
 20
327.611463
 30
0.0
 11
602.681602
 21
327.611463
 31
0.0
  0
LINE
  5
15A1
330
1246
100
AcDbEntity
  8
1
  6
Continuous
100
AcDbLine
 10
602.681602
 20
329.111463
 30
0.0
 11
604.244639
 21
331.8187229999999
 31
0.0
  0
ENDSEC
  0
SECTION
  2
OBJECTS
  0
DICTIONARY
  5
1234
330
0
100
AcDbDictionary
281
     1
  3
ACAD_CIP_PREVIOUS_PRODUCT_INFO
350
1606
  3
ACAD_COLOR
350
15E9
  3
ACAD_DETAILVIEWSTYLE
350
1602
  3
ACAD_GROUP
350
1235
  3
ACAD_LAYOUT
350
1241
  3
ACAD_MATERIAL
350
15B7
  3
ACAD_MLEADERSTYLE
350
15FE
  3
ACAD_MLINESTYLE
350
123E
  3
ACAD_PLOTSETTINGS
350
1240
  3
ACAD_PLOTSTYLENAME
350
15B5
  3
ACAD_SCALELIST
350
15EC
  3
ACAD_SECTIONVIEWSTYLE
350
1600
  3
ACAD_TABLESTYLE
350
15EA
  3
ACAD_VISUALSTYLE
350
15D0
  3
ACDB_RECOMPOSE_DATA
350
1624
  3
AcDbVariableDictionary
350
1617
  3
DWGPROPS
350
1625
  0
DICTIONARY
  5
1607
330
1238
100
AcDbDictionary
280
     1
281
     1
  3
ADSK_XREC_LAYER_RECONCILED
360
1608
  0
DICTIONARY
  5
1609
330
124E
100
AcDbDictionary
280
     1
281
     1
  3
ADSK_XREC_LAYER_RECONCILED
360
160A
  0
DICTIONARY
  5
160B
330
124F
100
AcDbDictionary
280
     1
281
     1
  3
ADSK_XREC_LAYER_RECONCILED
360
160C
  0
DICTIONARY
  5
160D
330
1250
100
AcDbDictionary
280
     1
281
     1
  3
ADSK_XREC_LAYER_RECONCILED
360
160E
  0
DICTIONARY
  5
160F
330
1251
100
AcDbDictionary
280
     1
281
     1
  3
ADSK_XREC_LAYER_RECONCILED
360
1610
  0
DICTIONARY
  5
1611
330
1252
100
AcDbDictionary
280
     1
281
     1
  3
ADSK_XREC_LAYER_RECONCILED
360
1612
  0
DICTIONARY
  5
1613
330
1253
100
AcDbDictionary
280
     1
281
     1
  3
ADSK_XREC_LAYER_RECONCILED
360
1614
  0
DICTIONARY
  5
1615
330
1254
100
AcDbDictionary
280
     1
281
     1
  3
ADSK_XREC_LAYER_RECONCILED
360
1616
  0
DICTIONARY
  5
15B0
330
1246
100
AcDbDictionary
281
     1
  3
ACAD_LAYOUTSELFREF
350
15B1
  0
DICTIONARY
  5
15AE
330
1242
100
AcDbDictionary
281
     1
  3
ACAD_LAYOUTSELFREF
350
15AF
  0
XRECORD
  5
1606
102
{ACAD_REACTORS
330
1234
102
}
330
1234
100
AcDbXrecord
280
     1
300
ACDLT
300
2014
300
ACDLT_F_S
  0
DICTIONARY
  5
15E9
102
{ACAD_REACTORS
330
1234
102
}
330
1234
100
AcDbDictionary
281
     1
  0
DICTIONARY
  5
1602
102
{ACAD_REACTORS
330
1234
102
}
330
1234
100
AcDbDictionary
281
     1
  3
Imperial24
350
1603
  0
DICTIONARY
  5
1235
102
{ACAD_REACTORS
330
1234
102
}
330
1234
100
AcDbDictionary
281
     1
  0
DICTIONARY
  5
1241
102
{ACAD_REACTORS
330
1234
102
}
330
1234
100
AcDbDictionary
281
     1
  3
Model
350
1604
  3
レイアウト1
350
1605
  0
DICTIONARY
  5
15B7
102
{ACAD_REACTORS
330
1234
102
}
330
1234
100
AcDbDictionary
281
     1
  3
ByBlock
350
15C0
  3
ByLayer
350
15B8
  3
Global
350
15C8
  0
DICTIONARY
  5
15FE
102
{ACAD_REACTORS
330
1234
102
}
330
1234
100
AcDbDictionary
281
     1
  3
Standard
350
15FF
  0
DICTIONARY
  5
123E
102
{ACAD_REACTORS
330
1234
102
}
330
1234
100
AcDbDictionary
281
     1
  3
STANDARD
350
123F
  0
DICTIONARY
  5
1240
102
{ACAD_REACTORS
330
1234
102
}
330
1234
100
AcDbDictionary
281
     1
  0
ACDBDICTIONARYWDFLT
  5
15B5
102
{ACAD_REACTORS
330
1234
102
}
330
1234
100
AcDbDictionary
281
     1
  3
Normal
350
15B6
100
AcDbDictionaryWithDefault
340
15B6
  0
DICTIONARY
  5
15EC
102
{ACAD_REACTORS
330
1234
102
}
330
1234
100
AcDbDictionary
281
     1
  3
A0
350
15ED
  3
A1
350
15EE
  3
A2
350
15EF
  3
A3
350
15F0
  3
A4
350
15F1
  3
A5
350
15F2
  3
A6
350
15F3
  3
A7
350
15F4
  3
A8
350
15F5
  3
A9
350
15F6
  3
B0
350
15F7
  3
B1
350
15F8
  3
B2
350
15F9
  3
B3
350
15FA
  3
B4
350
15FB
  3
B5
350
15FC
  3
B6
350
15FD
  0
DICTIONARY
  5
1600
102
{ACAD_REACTORS
330
1234
102
}
330
1234
100
AcDbDictionary
281
     1
  3
Imperial24
350
1601
  0
DICTIONARY
  5
15EA
102
{ACAD_REACTORS
330
1234
102
}
330
1234
100
AcDbDictionary
281
     1
  3
Standard
350
15EB
  0
DICTIONARY
  5
15D0
102
{ACAD_REACTORS
330
1234
102
}
330
1234
100
AcDbDictionary
281
     1
  3
2dWireframe
350
15D6
  3
Basic
350
15D5
  3
Brighten
350
15DC
  3
ColorChange
350
15E0
  3
Conceptual
350
15D9
  3
Dim
350
15DB
  3
EdgeColorOff
350
15E8
  3
Facepattern
350
15DF
  3
Flat
350
15D1
  3
FlatWithEdges
350
15D2
  3
Gouraud
350
15D3
  3
GouraudWithEdges
350
15D4
  3
Hidden
350
15D8
  3
JitterOff
350
15E6
  3
Linepattern
350
15DE
  3
OverhangOff
350
15E7
  3
Realistic
350
15DA
  3
Shaded
350
15E5
  3
Shaded with edges
350
15E4
  3
Shades of Gray
350
15E1
  3
Sketchy
350
15E2
  3
Thicken
350
15DD
  3
Wireframe
350
15D7
  3
X-Ray
350
15E3
  0
XRECORD
  5
1624
102
{ACAD_REACTORS
330
1234
102
}
330
1234
100
AcDbXrecord
280
     1
 90
        1
330
15EB
  0
DICTIONARY
  5
1617
102
{ACAD_REACTORS
330
1234
102
}
330
1234
100
AcDbDictionary
281
     1
  3
CANNOSCALE
350
161C
  3
CMLEADERSTYLE
350
1619
  3
CTABLESTYLE
350
1618
  3
CVIEWDETAILSTYLE
350
161A
  3
CVIEWSECTIONSTYLE
350
161B
  3
DIMASSOC
350
161F
  3
INDEXCTL
350
161E
  3
SORTENTS
350
161D
  3
XCLIPFRAME
350
1620
  0
XRECORD
  5
1625
102
{ACAD_REACTORS
330
1234
102
}
330
1234
100
AcDbXrecord
280
     1
  1
DWGPROPS COOKIE
  2

  3

  4

  6

  7

  8
Yoshitsune
  9

300
=
301
=
302
=
303
=
304
=
305
=
306
=
307
=
308
=
309
=
 40
0.0391196527777778
 41
2452065.479644005
 42
2457192.641492419
  1

 90
        0
  0
XRECORD
  5
1608
102
{ACAD_REACTORS
330
1607
102
}
330
1607
100
AcDbXrecord
280
     1
290
     1
  0
XRECORD
  5
160A
102
{ACAD_REACTORS
330
1609
102
}
330
1609
100
AcDbXrecord
280
     1
290
     1
  0
XRECORD
  5
160C
102
{ACAD_REACTORS
330
160B
102
}
330
160B
100
AcDbXrecord
280
     1
290
     1
  0
XRECORD
  5
160E
102
{ACAD_REACTORS
330
160D
102
}
330
160D
100
AcDbXrecord
280
     1
290
     1
  0
XRECORD
  5
1610
102
{ACAD_REACTORS
330
160F
102
}
330
160F
100
AcDbXrecord
280
     1
290
     1
  0
XRECORD
  5
1612
102
{ACAD_REACTORS
330
1611
102
}
330
1611
100
AcDbXrecord
280
     1
290
     1
  0
XRECORD
  5
1614
102
{ACAD_REACTORS
330
1613
102
}
330
1613
100
AcDbXrecord
280
     1
290
     1
  0
XRECORD
  5
1616
102
{ACAD_REACTORS
330
1615
102
}
330
1615
100
AcDbXrecord
280
     1
290
     1
  0
XRECORD
  5
15B1
102
{ACAD_REACTORS
330
15B0
102
}
330
15B0
100
AcDbXrecord
280
     1
340
1246
  0
XRECORD
  5
15AF
102
{ACAD_REACTORS
330
15AE
102
}
330
15AE
100
AcDbXrecord
280
     1
340
1242
  0
ACDBDETAILVIEWSTYLE
  5
1603
102
{ACAD_XDICTIONARY
360
165D
102
}
102
{ACAD_REACTORS
330
1602
102
}
330
1602
100
AcDbModelDocViewStyle
 70
     0
  3
Imperial24
290
     0
100
AcDbDetailViewStyle
 70
     0
 71
     0
 90
        3
 71
     1
340
1239
 40
0.24
340
0
 40
0.24
300

 40
0.36
280
     3
 71
     2
340
123D
 90
       25
 71
     3
340
1239
 40
0.24
 90
        1
 40
0.75
 90
        1
300
%<\AcVar ViewType \f "%tc1">% %<\AcVar ViewDetailId>%\PSCALE %<\AcVar ViewScale \f "%sn">%
 71
     4
340
123D
 90
       25
340
123D
 90
       25
280
     0
  0
LAYOUT
  5
1604
102
{ACAD_XDICTIONARY
360
165F
102
}
102
{ACAD_REACTORS
330
1241
102
}
330
1241
100
AcDbPlotSettings
  1

  2
Canon LBP9100C
  4

  6

 40
0.0
 41
0.0
 42
0.0
 43
0.0
 44
0.0
 45
0.0
 46
0.0
 47
0.0
 48
0.0
 49
0.0
140
0.0
141
0.0
142
1.0
143
1.0
 70
  1712
 72
     0
 73
     0
 74
     0
  7

 75
     0
147
1.0
148
0.0
149
0.0
100
AcDbLayout
  1
Model
 70
     1
 71
     0
 10
0.0
 20
0.0
 11
12.0
 21
9.0
 12
0.0
 22
0.0
 32
0.0
 14
0.0
 24
0.0
 34
0.0
 15
0.0
 25
0.0
 35
0.0
146
0.0
 13
0.0
 23
0.0
 33
0.0
 16
1.0
 26
0.0
 36
0.0
 17
0.0
 27
1.0
 37
0.0
 76
     0
330
1246
331
15AD
  0
LAYOUT
  5
1605
102
{ACAD_XDICTIONARY
360
1661
102
}
102
{ACAD_REACTORS
330
1241
102
}
330
1241
100
AcDbPlotSettings
  1

  2
Canon LBP9100C
  4

  6

 40
0.0
 41
0.0
 42
0.0
 43
0.0
 44
0.0
 45
0.0
 46
0.0
 47
0.0
 48
0.0
 49
0.0
140
0.0
141
0.0
142
1.0
143
1.0
 70
   688
 72
     0
 73
     0
 74
     5
  7

 75
    16
147
1.0
148
0.0
149
0.0
100
AcDbLayout
  1
レイアウト1
 70
     1
 71
     1
 10
0.0
 20
0.0
 11
420.0
 21
297.0
 12
0.0
 22
0.0
 32
0.0
 14
1.000000000000000E+20
 24
1.000000000000000E+20
 34
1.000000000000000E+20
 15
-1.000000000000000E+20
 25
-1.000000000000000E+20
 35
-1.000000000000000E+20
146
0.0
 13
0.0
 23
0.0
 33
0.0
 16
1.0
 26
0.0
 36
0.0
 17
0.0
 27
1.0
 37
0.0
 76
     0
330
1242
  0
MATERIAL
  5
15C0
102
{ACAD_XDICTIONARY
360
15C1
102
}
102
{ACAD_REACTORS
330
15B7
102
}
330
15B7
100
AcDbMaterial
  1
ByBlock
 72
     0
 43
0.0208333333333333
 43
0.0
 43
0.0
 43
0.0
 43
0.0
 43
0.0208333333333333
 43
0.0
 43
0.0
 43
0.0
 43
0.0
 43
1.0
 43
0.0
 43
0.0
 43
0.0
 43
0.0
 43
1.0
 77
     0
 47
0.0208333333333333
 47
0.0
 47
0.0
 47
0.0
 47
0.0
 47
0.0208333333333333
 47
0.0
 47
0.0
 47
0.0
 47
0.0
 47
1.0
 47
0.0
 47
0.0
 47
0.0
 47
0.0
 47
1.0
171
     0
 49
0.0208333333333333
 49
0.0
 49
0.0
 49
0.0
 49
0.0
 49
0.0208333333333333
 49
0.0
 49
0.0
 49
0.0
 49
0.0
 49
1.0
 49
0.0
 49
0.0
 49
0.0
 49
0.0
 49
1.0
175
     0
142
0.0208333333333333
142
0.0
142
0.0
142
0.0
142
0.0
142
0.0208333333333333
142
0.0
142
0.0
142
0.0
142
0.0
142
1.0
142
0.0
142
0.0
142
0.0
142
0.0
142
1.0
179
     0
144
0.0208333333333333
144
0.0
144
0.0
144
0.0
144
0.0
144
0.0208333333333333
144
0.0
144
0.0
144
0.0
144
0.0
144
1.0
144
0.0
144
0.0
144
0.0
144
0.0
144
1.0
147
0.0208333333333333
147
0.0
147
0.0
147
0.0
147
0.0
147
0.0208333333333333
147
0.0
147
0.0
147
0.0
147
0.0
147
1.0
147
0.0
147
0.0
147
0.0
147
0.0
147
1.0
  0
MATERIAL
  5
15B8
102
{ACAD_XDICTIONARY
360
15B9
102
}
102
{ACAD_REACTORS
330
15B7
102
}
330
15B7
100
AcDbMaterial
  1
ByLayer
 72
     0
 43
0.0208333333333333
 43
0.0
 43
0.0
 43
0.0
 43
0.0
 43
0.0208333333333333
 43
0.0
 43
0.0
 43
0.0
 43
0.0
 43
1.0
 43
0.0
 43
0.0
 43
0.0
 43
0.0
 43
1.0
 77
     0
 47
0.0208333333333333
 47
0.0
 47
0.0
 47
0.0
 47
0.0
 47
0.0208333333333333
 47
0.0
 47
0.0
 47
0.0
 47
0.0
 47
1.0
 47
0.0
 47
0.0
 47
0.0
 47
0.0
 47
1.0
171
     0
 49
0.0208333333333333
 49
0.0
 49
0.0
 49
0.0
 49
0.0
 49
0.0208333333333333
 49
0.0
 49
0.0
 49
0.0
 49
0.0
 49
1.0
 49
0.0
 49
0.0
 49
0.0
 49
0.0
 49
1.0
175
     0
142
0.0208333333333333
142
0.0
142
0.0
142
0.0
142
0.0
142
0.0208333333333333
142
0.0
142
0.0
142
0.0
142
0.0
142
1.0
142
0.0
142
0.0
142
0.0
142
0.0
142
1.0
179
     0
144
0.0208333333333333
144
0.0
144
0.0
144
0.0
144
0.0
144
0.0208333333333333
144
0.0
144
0.0
144
0.0
144
0.0
144
1.0
144
0.0
144
0.0
144
0.0
144
0.0
144
1.0
147
0.0208333333333333
147
0.0
147
0.0
147
0.0
147
0.0
147
0.0208333333333333
147
0.0
147
0.0
147
0.0
147
0.0
147
1.0
147
0.0
147
0.0
147
0.0
147
0.0
147
1.0
  0
MATERIAL
  5
15C8
102
{ACAD_XDICTIONARY
360
15C9
102
}
102
{ACAD_REACTORS
330
15B7
102
}
330
15B7
100
AcDbMaterial
  1
Global
 72
     0
 43
0.0208333333333333
 43
0.0
 43
0.0
 43
0.0
 43
0.0
 43
0.0208333333333333
 43
0.0
 43
0.0
 43
0.0
 43
0.0
 43
1.0
 43
0.0
 43
0.0
 43
0.0
 43
0.0
 43
1.0
 77
     0
 47
0.0208333333333333
 47
0.0
 47
0.0
 47
0.0
 47
0.0
 47
0.0208333333333333
 47
0.0
 47
0.0
 47
0.0
 47
0.0
 47
1.0
 47
0.0
 47
0.0
 47
0.0
 47
0.0
 47
1.0
171
     0
 49
0.0208333333333333
 49
0.0
 49
0.0
 49
0.0
 49
0.0
 49
0.0208333333333333
 49
0.0
 49
0.0
 49
0.0
 49
0.0
 49
1.0
 49
0.0
 49
0.0
 49
0.0
 49
0.0
 49
1.0
175
     0
142
0.0208333333333333
142
0.0
142
0.0
142
0.0
142
0.0
142
0.0208333333333333
142
0.0
142
0.0
142
0.0
142
0.0
142
1.0
142
0.0
142
0.0
142
0.0
142
0.0
142
1.0
179
     0
144
0.0208333333333333
144
0.0
144
0.0
144
0.0
144
0.0
144
0.0208333333333333
144
0.0
144
0.0
144
0.0
144
0.0
144
1.0
144
0.0
144
0.0
144
0.0
144
0.0
144
1.0
147
0.0208333333333333
147
0.0
147
0.0
147
0.0
147
0.0
147
0.0208333333333333
147
0.0
147
0.0
147
0.0
147
0.0
147
1.0
147
0.0
147
0.0
147
0.0
147
0.0
147
1.0
  0
MLEADERSTYLE
  5
15FF
102
{ACAD_REACTORS
330
15FE
102
}
330
15FE
100
AcDbMLeaderStyle
170
     2
171
     1
172
     0
 90
        2
 40
0.0
 41
0.0
173
     1
 91
-1056964608
340
123B
 92
       -2
290
     1
 42
0.09
291
     1
 43
0.36
  3
Standard
 44
0.18
300

342
1239
174
     1
178
     6
175
     1
176
     0
 93
-1056964608
 45
0.18
292
     0
297
     0
 46
0.18
 94
-1056964608
 47
1.0
 49
1.0
140
1.0
293
     1
141
0.0
294
     1
177
     0
142
1.0
295
     0
296
     0
143
0.125
1001
ACAD_MLEADERVER
1070
     2
  0
MLINESTYLE
  5
123F
102
{ACAD_REACTORS
330
123E
102
}
330
123E
100
AcDbMlineStyle
  2
STANDARD
 70
     0
  3

 62
   256
 51
90.0
 52
90.0
 71
     2
 49
0.5
 62
   256
  6
BYLAYER
 49
-0.5
 62
   256
  6
BYLAYER
  0
ACDBPLACEHOLDER
  5
15B6
102
{ACAD_REACTORS
330
15B5
102
}
330
15B5
  0
SCALE
  5
15ED
102
{ACAD_REACTORS
330
15EC
102
}
330
15EC
100
AcDbScale
 70
     0
300
1:1
140
1.0
141
1.0
290
     1
  0
SCALE
  5
15EE
102
{ACAD_REACTORS
330
15EC
102
}
330
15EC
100
AcDbScale
 70
     0
300
1/128" = 1'-0"
140
0.0078125
141
12.0
290
     0
  0
SCALE
  5
15EF
102
{ACAD_REACTORS
330
15EC
102
}
330
15EC
100
AcDbScale
 70
     0
300
1/64" = 1'-0"
140
0.015625
141
12.0
290
     0
  0
SCALE
  5
15F0
102
{ACAD_REACTORS
330
15EC
102
}
330
15EC
100
AcDbScale
 70
     0
300
1/32" = 1'-0"
140
0.03125
141
12.0
290
     0
  0
SCALE
  5
15F1
102
{ACAD_REACTORS
330
15EC
102
}
330
15EC
100
AcDbScale
 70
     0
300
1/16" = 1'-0"
140
0.0625
141
12.0
290
     0
  0
SCALE
  5
15F2
102
{ACAD_REACTORS
330
15EC
102
}
330
15EC
100
AcDbScale
 70
     0
300
3/32" = 1'-0"
140
0.09375
141
12.0
290
     0
  0
SCALE
  5
15F3
102
{ACAD_REACTORS
330
15EC
102
}
330
15EC
100
AcDbScale
 70
     0
300
1/8" = 1'-0"
140
0.125
141
12.0
290
     0
  0
SCALE
  5
15F4
102
{ACAD_REACTORS
330
15EC
102
}
330
15EC
100
AcDbScale
 70
     0
300
3/16" = 1'-0"
140
0.1875
141
12.0
290
     0
  0
SCALE
  5
15F5
102
{ACAD_REACTORS
330
15EC
102
}
330
15EC
100
AcDbScale
 70
     0
300
1/4" = 1'-0"
140
0.25
141
12.0
290
     0
  0
SCALE
  5
15F6
102
{ACAD_REACTORS
330
15EC
102
}
330
15EC
100
AcDbScale
 70
     0
300
3/8" = 1'-0"
140
0.375
141
12.0
290
     0
  0
SCALE
  5
15F7
102
{ACAD_REACTORS
330
15EC
102
}
330
15EC
100
AcDbScale
 70
     0
300
1/2" = 1'-0"
140
0.5
141
12.0
290
     0
  0
SCALE
  5
15F8
102
{ACAD_REACTORS
330
15EC
102
}
330
15EC
100
AcDbScale
 70
     0
300
3/4" = 1'-0"
140
0.75
141
12.0
290
     0
  0
SCALE
  5
15F9
102
{ACAD_REACTORS
330
15EC
102
}
330
15EC
100
AcDbScale
 70
     0
300
1" = 1'-0"
140
1.0
141
12.0
290
     0
  0
SCALE
  5
15FA
102
{ACAD_REACTORS
330
15EC
102
}
330
15EC
100
AcDbScale
 70
     0
300
1-1/2" = 1'-0"
140
1.5
141
12.0
290
     0
  0
SCALE
  5
15FB
102
{ACAD_REACTORS
330
15EC
102
}
330
15EC
100
AcDbScale
 70
     0
300
3" = 1'-0"
140
3.0
141
12.0
290
     0
  0
SCALE
  5
15FC
102
{ACAD_REACTORS
330
15EC
102
}
330
15EC
100
AcDbScale
 70
     0
300
6" = 1'-0"
140
6.0
141
12.0
290
     0
  0
SCALE
  5
15FD
102
{ACAD_REACTORS
330
15EC
102
}
330
15EC
100
AcDbScale
 70
     0
300
1'-0" = 1'-0"
140
12.0
141
12.0
290
     0
  0
ACDBSECTIONVIEWSTYLE
  5
1601
102
{ACAD_XDICTIONARY
360
165B
102
}
102
{ACAD_REACTORS
330
1600
102
}
330
1600
100
AcDbModelDocViewStyle
 70
     0
  3
Imperial24
290
     0
100
AcDbSectionViewStyle
 70
     0
 71
     0
 90
       78
 71
     1
340
1239
 40
0.24
340
0
340
0
 40
0.24
300
I, O, Q, S, X, Z
 40
0.48
 90
        3
 40
0.18
 90
        1
 71
     2
340
123D
 90
       25
340
123D
 90
       50
 40
0.24
 40
0.0
 40
0.24
 71
     3
340
1239
 40
0.24
 90
        1
 40
0.75
 90
        1
300
%<\AcVar ViewType \f "%tc1">% %<\AcVar ViewSectionStartId>%-%<\AcVar ViewSectionEndId>%\PSCALE %<\AcVar ViewScale \f "%sn">%
 71
     4
300
ANSI31
 40
1.0
 90
        0
290
     0
290
     0
 90
        6
 40
0.0
 40
1.570796326794896
 40
0.2617993877991494
 40
1.308996938995747
 40
-0.2617993877991494
 40
1.832595714594046
  0
TABLESTYLE
  5
15EB
102
{ACAD_XDICTIONARY
360
1622
102
}
102
{ACAD_REACTORS
330
15EA
102
}
330
15EA
100
AcDbTableStyle
  3
Standard
 70
     0
 71
     0
 40
0.06
 41
0.06
280
     0
281
     0
  7
STANDARD
140
0.18
170
     2
 62
     0
 63
     7
283
     0
274
    -2
284
     1
 64
     0
275
    -2
285
     1
 65
     0
276
    -2
286
     1
 66
     0
277
    -2
287
     1
 67
     0
278
    -2
288
     1
 68
     0
279
    -2
289
     1
 69
     0
  7
STANDARD
140
0.25
170
     5
 62
     0
 63
     7
283
     0
274
    -2
284
     1
 64
     0
275
    -2
285
     1
 65
     0
276
    -2
286
     1
 66
     0
277
    -2
287
     1
 67
     0
278
    -2
288
     1
 68
     0
279
    -2
289
     1
 69
     0
  7
STANDARD
140
0.18
170
     5
 62
     0
 63
     7
283
     0
274
    -2
284
     1
 64
     0
275
    -2
285
     1
 65
     0
276
    -2
286
     1
 66
     0
277
    -2
287
     1
 67
     0
278
    -2
288
     1
 68
     0
279
    -2
289
     1
 69
     0
  0
VISUALSTYLE
  5
15D6
102
{ACAD_XDICTIONARY
360
1633
102
}
102
{ACAD_REACTORS
330
15D0
102
}
330
15D0
100
AcDbVisualStyle
  2
2dWireframe
 70
     4
 71
     0
 72
     2
 73
     0
 90
        0
 40
-0.6
 41
-30.0
 62
     5
 63
     7
 74
     1
 91
        4
 64
     7
 65
   257
 75
     1
175
     1
 42
1.0
 92
        0
 66
   257
 43
1.0
 76
     1
 77
     6
 78
     2
 67
     7
 79
     5
170
     0
171
     0
290
     0
174
     0
 93
        1
 44
0.0
173
     0
291
     0
 45
0.0
1001
ACAD
1000
AcDbSavedByObjectVersion
1070
     0
  0
VISUALSTYLE
  5
15D5
102
{ACAD_XDICTIONARY
360
1631
102
}
102
{ACAD_REACTORS
330
15D0
102
}
330
15D0
100
AcDbVisualStyle
  2
Basic
 70
     7
 71
     1
 72
     0
 73
     1
 90
        0
 40
-0.6
 41
-30.0
 62
     5
 63
     7
 74
     0
 91
        4
 64
     7
 65
   257
 75
     1
175
     1
 42
1.0
 92
        8
 66
     7
 43
1.0
 76
     1
 77
     6
 78
     2
 67
     7
 79
     5
170
     0
171
     0
290
     0
174
     0
 93
        1
 44
0.0
173
     0
291
     1
 45
0.0
1001
ACAD
1000
AcDbSavedByObjectVersion
1070
     0
  0
VISUALSTYLE
  5
15DC
102
{ACAD_XDICTIONARY
360
163F
102
}
102
{ACAD_REACTORS
330
15D0
102
}
330
15D0
100
AcDbVisualStyle
  2
Brighten
 70
    12
 71
     2
 72
     2
 73
     0
 90
        0
 40
-0.6
 41
-30.0
 62
     5
 63
     7
 74
     1
 91
        4
 64
     7
 65
   257
 75
     1
175
     1
 42
1.0
 92
        8
 66
     7
 43
1.0
 76
     1
 77
     6
 78
     2
 67
     7
 79
     5
170
     0
171
     0
290
     0
174
     0
 93
        1
 44
50.0
173
     0
291
     1
 45
0.0
1001
ACAD
1000
AcDbSavedByObjectVersion
1070
     0
  0
VISUALSTYLE
  5
15E0
102
{ACAD_XDICTIONARY
360
1647
102
}
102
{ACAD_REACTORS
330
15D0
102
}
330
15D0
100
AcDbVisualStyle
  2
ColorChange
 70
    16
 71
     2
 72
     2
 73
     3
 90
        0
 40
-0.6
 41
-30.0
 62
     5
 63
     8
 74
     1
 91
        4
 64
     7
 65
   257
 75
     1
175
     1
 42
1.0
 92
        8
 66
     8
 43
1.0
 76
     1
 77
     6
 78
     2
 67
     7
 79
     5
170
     0
171
     0
290
     0
174
     0
 93
        1
 44
0.0
173
     0
291
     1
 45
0.0
1001
ACAD
1000
AcDbSavedByObjectVersion
1070
     0
  0
VISUALSTYLE
  5
15D9
102
{ACAD_XDICTIONARY
360
1639
102
}
102
{ACAD_REACTORS
330
15D0
102
}
330
15D0
100
AcDbVisualStyle
  2
Conceptual
 70
     9
 71
     3
 72
     2
 73
     0
 90
        0
 40
-0.6
 41
-30.0
 62
     5
 63
     7
 74
     2
 91
        2
 64
     7
 65
   257
 75
     1
175
     1
 42
179.0
 92
        8
 66
     7
 43
1.0
 76
     1
 77
     6
 78
     2
 67
     7
 79
     3
170
     0
171
     0
290
     0
174
     0
 93
        1
 44
0.0
173
     0
291
     0
 45
0.0
1001
ACAD
1000
AcDbSavedByObjectVersion
1070
     0
  0
VISUALSTYLE
  5
15DB
102
{ACAD_XDICTIONARY
360
163D
102
}
102
{ACAD_REACTORS
330
15D0
102
}
330
15D0
100
AcDbVisualStyle
  2
Dim
 70
    11
 71
     2
 72
     2
 73
     0
 90
        0
 40
-0.6
 41
-30.0
 62
     5
 63
     7
 74
     1
 91
        4
 64
     7
 65
   257
 75
     1
175
     1
 42
1.0
 92
        8
 66
     7
 43
1.0
 76
     1
 77
     6
 78
     2
 67
     7
 79
     5
170
     0
171
     0
290
     0
174
     0
 93
        1
 44
-50.0
173
     0
291
     1
 45
0.0
1001
ACAD
1000
AcDbSavedByObjectVersion
1070
     0
  0
VISUALSTYLE
  5
15E8
102
{ACAD_XDICTIONARY
360
1657
102
}
102
{ACAD_REACTORS
330
15D0
102
}
330
15D0
100
AcDbVisualStyle
  2
EdgeColorOff
 70
    22
 71
     2
 72
     2
 73
     0
 90
        0
 40
-0.6
 41
-30.0
 62
     5
 63
     7
 74
     1
 91
        4
 64
     7
 65
   257
 75
     1
175
     1
 42
1.0
 92
        8
 66
     7
 43
1.0
 76
     1
 77
     6
 78
     2
 67
     7
 79
     5
170
     0
171
     0
290
     0
174
     0
 93
        1
 44
0.0
173
     0
291
     1
 45
0.0
1001
ACAD
1000
AcDbSavedByObjectVersion
1070
     0
  0
VISUALSTYLE
  5
15DF
102
{ACAD_XDICTIONARY
360
1645
102
}
102
{ACAD_REACTORS
330
15D0
102
}
330
15D0
100
AcDbVisualStyle
  2
Facepattern
 70
    15
 71
     2
 72
     2
 73
     0
 90
        0
 40
-0.6
 41
-30.0
 62
     5
 63
     7
 74
     1
 91
        4
 64
     7
 65
   257
 75
     1
175
     1
 42
1.0
 92
        8
 66
     7
 43
1.0
 76
     1
 77
     6
 78
     2
 67
     7
 79
     5
170
     0
171
     0
290
     0
174
     0
 93
        1
 44
0.0
173
     0
291
     1
 45
0.0
1001
ACAD
1000
AcDbSavedByObjectVersion
1070
     0
  0
VISUALSTYLE
  5
15D1
102
{ACAD_XDICTIONARY
360
1629
102
}
102
{ACAD_REACTORS
330
15D0
102
}
330
15D0
100
AcDbVisualStyle
  2
Flat
 70
     0
 71
     2
 72
     1
 73
     1
 90
        2
 40
-0.6
 41
30.0
 62
     5
 63
     7
 74
     0
 91
        0
 64
     7
 65
   257
 75
     1
175
     1
 42
1.0
 92
        8
 66
     7
 43
1.0
 76
     1
 77
     6
 78
     2
 67
     7
 79
     5
170
     0
171
     0
290
     0
174
     0
 93
       13
 44
0.0
173
     0
291
     1
 45
0.0
1001
ACAD
1000
AcDbSavedByObjectVersion
1070
     0
  0
VISUALSTYLE
  5
15D2
102
{ACAD_XDICTIONARY
360
162B
102
}
102
{ACAD_REACTORS
330
15D0
102
}
330
15D0
100
AcDbVisualStyle
  2
FlatWithEdges
 70
     1
 71
     2
 72
     1
 73
     1
 90
        2
 40
-0.6
 41
30.0
 62
     5
 63
     7
 74
     1
 91
        0
 64
     7
 65
   257
 75
     1
175
     1
 42
1.0
 92
        0
 66
   257
 43
1.0
 76
     1
 77
     6
 78
     2
 67
     7
 79
     5
170
     0
171
     0
290
     0
174
     0
 93
       13
 44
0.0
173
     0
291
     1
 45
0.0
1001
ACAD
1000
AcDbSavedByObjectVersion
1070
     0
  0
VISUALSTYLE
  5
15D3
102
{ACAD_XDICTIONARY
360
162D
102
}
102
{ACAD_REACTORS
330
15D0
102
}
330
15D0
100
AcDbVisualStyle
  2
Gouraud
 70
     2
 71
     2
 72
     2
 73
     1
 90
        2
 40
-0.6
 41
30.0
 62
     5
 63
     7
 74
     0
 91
        0
 64
     7
 65
   257
 75
     1
175
     1
 42
1.0
 92
        0
 66
     7
 43
1.0
 76
     1
 77
     6
 78
     2
 67
     7
 79
     5
170
     0
171
     0
290
     0
174
     0
 93
       13
 44
0.0
173
     0
291
     1
 45
0.0
1001
ACAD
1000
AcDbSavedByObjectVersion
1070
     0
  0
VISUALSTYLE
  5
15D4
102
{ACAD_XDICTIONARY
360
162F
102
}
102
{ACAD_REACTORS
330
15D0
102
}
330
15D0
100
AcDbVisualStyle
  2
GouraudWithEdges
 70
     3
 71
     2
 72
     2
 73
     1
 90
        2
 40
-0.6
 41
30.0
 62
     5
 63
     7
 74
     1
 91
        0
 64
     7
 65
   257
 75
     1
175
     1
 42
1.0
 92
        0
 66
   257
 43
1.0
 76
     1
 77
     6
 78
     2
 67
     7
 79
     5
170
     0
171
     0
290
     0
174
     0
 93
       13
 44
0.0
173
     0
291
     1
 45
0.0
1001
ACAD
1000
AcDbSavedByObjectVersion
1070
     0
  0
VISUALSTYLE
  5
15D8
102
{ACAD_XDICTIONARY
360
1637
102
}
102
{ACAD_REACTORS
330
15D0
102
}
330
15D0
100
AcDbVisualStyle
  2
Hidden
 70
     6
 71
     1
 72
     2
 73
     2
 90
        0
 40
-0.6
 41
-30.0
 62
     5
 63
     7
 74
     2
 91
        2
 64
     7
 65
   257
 75
     2
175
     1
 42
40.0
 92
        0
 66
   257
 43
1.0
 76
     1
 77
     6
 78
     2
 67
     7
 79
     3
170
     0
171
     0
290
     0
174
     0
 93
        1
 44
0.0
173
     0
291
     0
 45
0.0
1001
ACAD
1000
AcDbSavedByObjectVersion
1070
     0
  0
VISUALSTYLE
  5
15E6
102
{ACAD_XDICTIONARY
360
1653
102
}
102
{ACAD_REACTORS
330
15D0
102
}
330
15D0
100
AcDbVisualStyle
  2
JitterOff
 70
    20
 71
     2
 72
     2
 73
     0
 90
        0
 40
-0.6
 41
-30.0
 62
     5
 63
     7
 74
     1
 91
        4
 64
     7
 65
   257
 75
     1
175
     1
 42
1.0
 92
       10
 66
     7
 43
1.0
 76
     1
 77
     6
 78
     2
 67
     7
 79
     5
170
     0
171
     0
290
     0
174
     0
 93
        1
 44
0.0
173
     0
291
     1
 45
0.0
1001
ACAD
1000
AcDbSavedByObjectVersion
1070
     0
  0
VISUALSTYLE
  5
15DE
102
{ACAD_XDICTIONARY
360
1643
102
}
102
{ACAD_REACTORS
330
15D0
102
}
330
15D0
100
AcDbVisualStyle
  2
Linepattern
 70
    14
 71
     2
 72
     2
 73
     0
 90
        0
 40
-0.6
 41
-30.0
 62
     5
 63
     7
 74
     1
 91
        4
 64
     7
 65
   257
 75
     7
175
     7
 42
1.0
 92
        8
 66
     7
 43
1.0
 76
     1
 77
     6
 78
     2
 67
     7
 79
     5
170
     0
171
     0
290
     0
174
     0
 93
        1
 44
0.0
173
     0
291
     1
 45
0.0
1001
ACAD
1000
AcDbSavedByObjectVersion
1070
     0
  0
VISUALSTYLE
  5
15E7
102
{ACAD_XDICTIONARY
360
1655
102
}
102
{ACAD_REACTORS
330
15D0
102
}
330
15D0
100
AcDbVisualStyle
  2
OverhangOff
 70
    21
 71
     2
 72
     2
 73
     0
 90
        0
 40
-0.6
 41
-30.0
 62
     5
 63
     7
 74
     1
 91
        4
 64
     7
 65
   257
 75
     1
175
     1
 42
1.0
 92
        9
 66
     7
 43
1.0
 76
     1
 77
     6
 78
     2
 67
     7
 79
     5
170
     0
171
     0
290
     0
174
     0
 93
        1
 44
0.0
173
     0
291
     1
 45
0.0
1001
ACAD
1000
AcDbSavedByObjectVersion
1070
     0
  0
VISUALSTYLE
  5
15DA
102
{ACAD_XDICTIONARY
360
163B
102
}
102
{ACAD_REACTORS
330
15D0
102
}
330
15D0
100
AcDbVisualStyle
  2
Realistic
 70
     8
 71
     2
 72
     3
 73
     0
 90
        2
 40
-0.6
 41
30.0
 62
     5
 63
     7
 74
     0
 91
        0
 64
     7
 65
   257
 75
     1
175
     1
 42
1.0
 92
        8
 66
   257
 43
1.0
 76
     1
 77
     6
 78
     2
 67
     7
 79
     3
170
     0
171
     0
290
     0
174
     0
 93
       13
 44
0.0
173
     0
291
     0
 45
0.0
1001
ACAD
1000
AcDbSavedByObjectVersion
1070
     0
  0
VISUALSTYLE
  5
15E5
102
{ACAD_XDICTIONARY
360
1651
102
}
102
{ACAD_REACTORS
330
15D0
102
}
330
15D0
100
AcDbVisualStyle
  2
Shaded
 70
    27
 71
     2
 72
     2
 73
     1
 90
        2
 40
-0.6
 41
30.0
 62
     5
 63
     7
 74
     0
 91
        4
 64
     7
 65
   257
 75
     1
175
     1
 42
1.0
 92
        8
 66
   257
 43
1.0
 76
     1
 77
     6
 78
     2
 67
     8
 79
     3
170
     0
171
     0
290
     0
174
     0
 93
        5
 44
0.0
173
     0
291
     0
 45
0.0
1001
ACAD
1000
AcDbSavedByObjectVersion
1070
     0
  0
VISUALSTYLE
  5
15E4
102
{ACAD_XDICTIONARY
360
164F
102
}
102
{ACAD_REACTORS
330
15D0
102
}
330
15D0
100
AcDbVisualStyle
  2
Shaded with edges
 70
    26
 71
     2
 72
     2
 73
     1
 90
        2
 40
-0.6
 41
30.0
 62
     5
 63
     7
 74
     1
 91
       10
 64
     7
 65
   257
 75
     2
175
     1
 42
1.0
 92
        8
 66
   257
 43
1.0
 76
     1
 77
     6
 78
     2
 67
     7
 79
     3
170
     0
171
     0
290
     0
174
     0
 93
        5
 44
0.0
173
     0
291
     0
 45
0.0
1001
ACAD
1000
AcDbSavedByObjectVersion
1070
     0
  0
VISUALSTYLE
  5
15E1
102
{ACAD_XDICTIONARY
360
1649
102
}
102
{ACAD_REACTORS
330
15D0
102
}
330
15D0
100
AcDbVisualStyle
  2
Shades of Gray
 70
    23
 71
     2
 72
     2
 73
     3
 90
        0
 40
-0.6
 41
-30.0
 62
     5
 63
     7
 74
     2
 91
        2
 64
     7
 65
     7
 75
     1
175
     1
 42
40.0
 92
        8
 66
     7
 43
1.0
 76
     1
 77
     6
 78
     2
 67
     7
 79
     3
170
     0
171
     0
290
     0
174
     0
 93
        1
 44
0.0
173
     0
291
     0
 45
0.0
1001
ACAD
1000
AcDbSavedByObjectVersion
1070
     0
  0
VISUALSTYLE
  5
15E2
102
{ACAD_XDICTIONARY
360
164B
102
}
102
{ACAD_REACTORS
330
15D0
102
}
330
15D0
100
AcDbVisualStyle
  2
Sketchy
 70
    24
 71
     1
 72
     2
 73
     2
 90
        0
 40
-0.6
 41
-30.0
 62
     5
 63
     7
 74
     2
 91
        2
 64
     7
 65
     7
 75
     1
175
     1
 42
40.0
 92
       11
 66
     7
 43
1.0
 76
     1
 77
     6
 78
     2
 67
     7
 79
     6
170
     0
171
     0
290
     0
174
     0
 93
        1
 44
0.0
173
     0
291
     0
 45
0.0
1001
ACAD
1000
AcDbSavedByObjectVersion
1070
     0
  0
VISUALSTYLE
  5
15DD
102
{ACAD_XDICTIONARY
360
1641
102
}
102
{ACAD_REACTORS
330
15D0
102
}
330
15D0
100
AcDbVisualStyle
  2
Thicken
 70
    13
 71
     2
 72
     2
 73
     0
 90
        0
 40
-0.6
 41
-30.0
 62
     5
 63
     7
 74
     1
 91
        4
 64
     7
 65
   257
 75
     1
175
     1
 42
1.0
 92
       12
 66
     7
 43
1.0
 76
     1
 77
     6
 78
     2
 67
     7
 79
     5
170
     0
171
     0
290
     0
174
     0
 93
        1
 44
0.0
173
     0
291
     1
 45
0.0
1001
ACAD
1000
AcDbSavedByObjectVersion
1070
     0
  0
VISUALSTYLE
  5
15D7
102
{ACAD_XDICTIONARY
360
1635
102
}
102
{ACAD_REACTORS
330
15D0
102
}
330
15D0
100
AcDbVisualStyle
  2
Wireframe
 70
     5
 71
     0
 72
     2
 73
     0
 90
        0
 40
-0.6
 41
-30.0
 62
     5
 63
     7
 74
     1
 91
        4
 64
     7
 65
   257
 75
     1
175
     1
 42
1.0
 92
        0
 66
   257
 43
1.0
 76
     1
 77
     6
 78
     2
 67
     7
 79
     3
170
     0
171
     0
290
     0
174
     0
 93
        1
 44
0.0
173
     0
291
     0
 45
0.0
1001
ACAD
1000
AcDbSavedByObjectVersion
1070
     0
  0
VISUALSTYLE
  5
15E3
102
{ACAD_XDICTIONARY
360
164D
102
}
102
{ACAD_REACTORS
330
15D0
102
}
330
15D0
100
AcDbVisualStyle
  2
X-Ray
 70
    25
 71
     2
 72
     2
 73
     1
 90
        1
 40
0.5
 41
-30.0
 62
     5
 63
     7
 74
     1
 91
        0
 64
     7
 65
   257
 75
     1
175
     1
 42
1.0
 92
        8
 66
     7
 43
1.0
 76
     1
 77
     6
 78
     2
 67
     7
 79
     3
170
     0
171
     0
290
     0
174
     0
 93
       13
 44
0.0
173
     0
291
     0
 45
0.0
1001
ACAD
1000
AcDbSavedByObjectVersion
1070
     0
  0
DICTIONARYVAR
  5
161C
102
{ACAD_REACTORS
330
1617
102
}
330
1617
100
DictionaryVariables
280
     0
  1
1:1
  0
DICTIONARYVAR
  5
1619
102
{ACAD_REACTORS
330
1617
102
}
330
1617
100
DictionaryVariables
280
     0
  1
STANDARD
  0
DICTIONARYVAR
  5
1618
102
{ACAD_REACTORS
330
1617
102
}
330
1617
100
DictionaryVariables
280
     0
  1
STANDARD
  0
DICTIONARYVAR
  5
161A
102
{ACAD_REACTORS
330
1617
102
}
330
1617
100
DictionaryVariables
280
     0
  1
Imperial24
  0
DICTIONARYVAR
  5
161B
102
{ACAD_REACTORS
330
1617
102
}
330
1617
100
DictionaryVariables
280
     0
  1
Imperial24
  0
DICTIONARYVAR
  5
161F
102
{ACAD_REACTORS
330
1617
102
}
330
1617
100
DictionaryVariables
280
     0
  1
1
  0
DICTIONARYVAR
  5
161E
102
{ACAD_REACTORS
330
1617
102
}
330
1617
100
DictionaryVariables
280
     0
  1
0
  0
DICTIONARYVAR
  5
161D
102
{ACAD_REACTORS
330
1617
102
}
330
1617
100
DictionaryVariables
280
     0
  1
127
  0
DICTIONARYVAR
  5
1620
102
{ACAD_REACTORS
330
1617
102
}
330
1617
100
DictionaryVariables
280
     0
  1
2
  0
DICTIONARY
  5
165D
330
1603
100
AcDbDictionary
280
     1
281
     1
  3
ACAD_XREC_ROUNDTRIP
360
165E
  0
DICTIONARY
  5
165F
330
1604
100
AcDbDictionary
280
     1
281
     1
  3
ACAD_XREC_ROUNDTRIP
360
1660
  0
DICTIONARY
  5
1661
330
1605
100
AcDbDictionary
280
     1
281
     1
  3
ACAD_XREC_ROUNDTRIP
360
1662
  0
DICTIONARY
  5
15C1
330
15C0
100
AcDbDictionary
280
     1
281
     1
  3
ACAD_XREC_ROUNDTRIP
360
1627
  3
BUMPTILE
360
15C3
  3
DIFFUSETILE
360
15C2
  3
OPACITYTILE
360
15C6
  3
REFLECTIONTILE
360
15C5
  3
REFRACTIONTILE
360
15C7
  3
SPECULARTILE
360
15C4
  0
DICTIONARY
  5
15B9
330
15B8
100
AcDbDictionary
280
     1
281
     1
  3
ACAD_XREC_ROUNDTRIP
360
1626
  3
BUMPTILE
360
15BB
  3
DIFFUSETILE
360
15BA
  3
OPACITYTILE
360
15BE
  3
REFLECTIONTILE
360
15BD
  3
REFRACTIONTILE
360
15BF
  3
SPECULARTILE
360
15BC
  0
DICTIONARY
  5
15C9
330
15C8
100
AcDbDictionary
280
     1
281
     1
  3
ACAD_XREC_ROUNDTRIP
360
1628
  3
BUMPTILE
360
15CB
  3
DIFFUSETILE
360
15CA
  3
OPACITYTILE
360
15CE
  3
REFLECTIONTILE
360
15CD
  3
REFRACTIONTILE
360
15CF
  3
SPECULARTILE
360
15CC
  0
DICTIONARY
  5
165B
330
1601
100
AcDbDictionary
280
     1
281
     1
  3
ACAD_XREC_ROUNDTRIP
360
165C
  0
DICTIONARY
  5
1622
330
15EB
100
AcDbDictionary
280
     1
281
     1
  3
ACAD_ROUNDTRIP_2008_TABLESTYLE_CELLSTYLEMAP
360
1623
  3
ACAD_XREC_ROUNDTRIP
360
1659
  0
DICTIONARY
  5
1633
330
15D6
100
AcDbDictionary
280
     1
281
     1
  3
ACAD_XREC_ROUNDTRIP
360
1634
  0
DICTIONARY
  5
1631
330
15D5
100
AcDbDictionary
280
     1
281
     1
  3
ACAD_XREC_ROUNDTRIP
360
1632
  0
DICTIONARY
  5
163F
330
15DC
100
AcDbDictionary
280
     1
281
     1
  3
ACAD_XREC_ROUNDTRIP
360
1640
  0
DICTIONARY
  5
1647
330
15E0
100
AcDbDictionary
280
     1
281
     1
  3
ACAD_XREC_ROUNDTRIP
360
1648
  0
DICTIONARY
  5
1639
330
15D9
100
AcDbDictionary
280
     1
281
     1
  3
ACAD_XREC_ROUNDTRIP
360
163A
  0
DICTIONARY
  5
163D
330
15DB
100
AcDbDictionary
280
     1
281
     1
  3
ACAD_XREC_ROUNDTRIP
360
163E
  0
DICTIONARY
  5
1657
330
15E8
100
AcDbDictionary
280
     1
281
     1
  3
ACAD_XREC_ROUNDTRIP
360
1658
  0
DICTIONARY
  5
1645
330
15DF
100
AcDbDictionary
280
     1
281
     1
  3
ACAD_XREC_ROUNDTRIP
360
1646
  0
DICTIONARY
  5
1629
330
15D1
100
AcDbDictionary
280
     1
281
     1
  3
ACAD_XREC_ROUNDTRIP
360
162A
  0
DICTIONARY
  5
162B
330
15D2
100
AcDbDictionary
280
     1
281
     1
  3
ACAD_XREC_ROUNDTRIP
360
162C
  0
DICTIONARY
  5
162D
330
15D3
100
AcDbDictionary
280
     1
281
     1
  3
ACAD_XREC_ROUNDTRIP
360
162E
  0
DICTIONARY
  5
162F
330
15D4
100
AcDbDictionary
280
     1
281
     1
  3
ACAD_XREC_ROUNDTRIP
360
1630
  0
DICTIONARY
  5
1637
330
15D8
100
AcDbDictionary
280
     1
281
     1
  3
ACAD_XREC_ROUNDTRIP
360
1638
  0
DICTIONARY
  5
1653
330
15E6
100
AcDbDictionary
280
     1
281
     1
  3
ACAD_XREC_ROUNDTRIP
360
1654
  0
DICTIONARY
  5
1643
330
15DE
100
AcDbDictionary
280
     1
281
     1
  3
ACAD_XREC_ROUNDTRIP
360
1644
  0
DICTIONARY
  5
1655
330
15E7
100
AcDbDictionary
280
     1
281
     1
  3
ACAD_XREC_ROUNDTRIP
360
1656
  0
DICTIONARY
  5
163B
330
15DA
100
AcDbDictionary
280
     1
281
     1
  3
ACAD_XREC_ROUNDTRIP
360
163C
  0
DICTIONARY
  5
1651
330
15E5
100
AcDbDictionary
280
     1
281
     1
  3
ACAD_XREC_ROUNDTRIP
360
1652
  0
DICTIONARY
  5
164F
330
15E4
100
AcDbDictionary
280
     1
281
     1
  3
ACAD_XREC_ROUNDTRIP
360
1650
  0
DICTIONARY
  5
1649
330
15E1
100
AcDbDictionary
280
     1
281
     1
  3
ACAD_XREC_ROUNDTRIP
360
164A
  0
DICTIONARY
  5
164B
330
15E2
100
AcDbDictionary
280
     1
281
     1
  3
ACAD_XREC_ROUNDTRIP
360
164C
  0
DICTIONARY
  5
1641
330
15DD
100
AcDbDictionary
280
     1
281
     1
  3
ACAD_XREC_ROUNDTRIP
360
1642
  0
DICTIONARY
  5
1635
330
15D7
100
AcDbDictionary
280
     1
281
     1
  3
ACAD_XREC_ROUNDTRIP
360
1636
  0
DICTIONARY
  5
164D
330
15E3
100
AcDbDictionary
280
     1
281
     1
  3
ACAD_XREC_ROUNDTRIP
360
164E
  0
XRECORD
  5
165E
102
{ACAD_REACTORS
330
165D
102
}
330
165D
100
AcDbXrecord
280
     1
102
DISPLAYNAME
  1
Imperial24
102
FLAGS
 90
        0
  0
XRECORD
  5
1660
102
{ACAD_REACTORS
330
165F
102
}
330
165F
100
AcDbXrecord
280
     1
102
SHADEPLOT
 70
     0
102
SHADEPLOTRESLEVEL
 70
     2
102
SHADEPLOTCUSTOMDPI
 70
   300
  0
XRECORD
  5
1662
102
{ACAD_REACTORS
330
1661
102
}
330
1661
100
AcDbXrecord
280
     1
102
SHADEPLOT
 70
     0
102
SHADEPLOTRESLEVEL
 70
     2
102
SHADEPLOTCUSTOMDPI
 70
   300
  0
XRECORD
  5
1627
102
{ACAD_REACTORS
330
15C1
102
}
330
15C1
100
AcDbXrecord
280
     1
102
MATERIAL
148
0.0
149
0.0
149
0.0
 93
        0
 94
      127
282
     0
 72
     0
 77
     0
171
     0
175
     0
179
     0
273
     0
  0
XRECORD
  5
15C3
102
{ACAD_REACTORS
330
15C1
102
}
330
15C1
100
AcDbXrecord
280
     1
270
     1
271
     1
  0
XRECORD
  5
15C2
102
{ACAD_REACTORS
330
15C1
102
}
330
15C1
100
AcDbXrecord
280
     1
270
     1
271
     1
  0
XRECORD
  5
15C6
102
{ACAD_REACTORS
330
15C1
102
}
330
15C1
100
AcDbXrecord
280
     1
270
     1
271
     1
  0
XRECORD
  5
15C5
102
{ACAD_REACTORS
330
15C1
102
}
330
15C1
100
AcDbXrecord
280
     1
270
     1
271
     1
  0
XRECORD
  5
15C7
102
{ACAD_REACTORS
330
15C1
102
}
330
15C1
100
AcDbXrecord
280
     1
270
     1
271
     1
  0
XRECORD
  5
15C4
102
{ACAD_REACTORS
330
15C1
102
}
330
15C1
100
AcDbXrecord
280
     1
270
     1
271
     1
  0
XRECORD
  5
1626
102
{ACAD_REACTORS
330
15B9
102
}
330
15B9
100
AcDbXrecord
280
     1
102
MATERIAL
148
0.0
149
0.0
149
0.0
 93
        0
 94
      127
282
     0
 72
     0
 77
     0
171
     0
175
     0
179
     0
273
     0
  0
XRECORD
  5
15BB
102
{ACAD_REACTORS
330
15B9
102
}
330
15B9
100
AcDbXrecord
280
     1
270
     1
271
     1
  0
XRECORD
  5
15BA
102
{ACAD_REACTORS
330
15B9
102
}
330
15B9
100
AcDbXrecord
280
     1
270
     1
271
     1
  0
XRECORD
  5
15BE
102
{ACAD_REACTORS
330
15B9
102
}
330
15B9
100
AcDbXrecord
280
     1
270
     1
271
     1
  0
XRECORD
  5
15BD
102
{ACAD_REACTORS
330
15B9
102
}
330
15B9
100
AcDbXrecord
280
     1
270
     1
271
     1
  0
XRECORD
  5
15BF
102
{ACAD_REACTORS
330
15B9
102
}
330
15B9
100
AcDbXrecord
280
     1
270
     1
271
     1
  0
XRECORD
  5
15BC
102
{ACAD_REACTORS
330
15B9
102
}
330
15B9
100
AcDbXrecord
280
     1
270
     1
271
     1
  0
XRECORD
  5
1628
102
{ACAD_REACTORS
330
15C9
102
}
330
15C9
100
AcDbXrecord
280
     1
102
MATERIAL
148
0.0
149
0.0
149
0.0
 93
        0
 94
      127
282
     0
 72
     0
 77
     0
171
     0
175
     0
179
     0
273
     0
  0
XRECORD
  5
15CB
102
{ACAD_REACTORS
330
15C9
102
}
330
15C9
100
AcDbXrecord
280
     1
270
     1
271
     1
  0
XRECORD
  5
15CA
102
{ACAD_REACTORS
330
15C9
102
}
330
15C9
100
AcDbXrecord
280
     1
270
     1
271
     1
  0
XRECORD
  5
15CE
102
{ACAD_REACTORS
330
15C9
102
}
330
15C9
100
AcDbXrecord
280
     1
270
     1
271
     1
  0
XRECORD
  5
15CD
102
{ACAD_REACTORS
330
15C9
102
}
330
15C9
100
AcDbXrecord
280
     1
270
     1
271
     1
  0
XRECORD
  5
15CF
102
{ACAD_REACTORS
330
15C9
102
}
330
15C9
100
AcDbXrecord
280
     1
270
     1
271
     1
  0
XRECORD
  5
15CC
102
{ACAD_REACTORS
330
15C9
102
}
330
15C9
100
AcDbXrecord
280
     1
270
     1
271
     1
  0
XRECORD
  5
165C
102
{ACAD_REACTORS
330
165B
102
}
330
165B
100
AcDbXrecord
280
     1
102
DISPLAYNAME
  1
Imperial24
102
FLAGS
 90
        0
  0
CELLSTYLEMAP
  5
1623
102
{ACAD_REACTORS
330
1622
102
}
330
1622
100
AcDbCellStyleMap
 90
        3
300
CELLSTYLE
  1
TABLEFORMAT_BEGIN
 90
        5
170
     1
 91
        0
 92
    32768
 62
   257
 93
        1
300
CONTENTFORMAT
  1
CONTENTFORMAT_BEGIN
 90
        0
 91
        0
 92
      512
 93
        0
300

 40
0.0
140
1.0
 94
        5
 62
     0
340
1239
144
0.25
309
CONTENTFORMAT_END
171
     0
 94
        0
309
TABLEFORMAT_END
  1
CELLSTYLE_BEGIN
 90
        1
 91
        1
300
_TITLE
309
CELLSTYLE_END
300
CELLSTYLE
  1
TABLEFORMAT_BEGIN
 90
        5
170
     1
 91
        0
 92
        0
 62
   257
 93
        1
300
CONTENTFORMAT
  1
CONTENTFORMAT_BEGIN
 90
        0
 91
        0
 92
      512
 93
        0
300

 40
0.0
140
1.0
 94
        5
 62
     0
340
1239
144
0.18
309
CONTENTFORMAT_END
171
     0
 94
        0
309
TABLEFORMAT_END
  1
CELLSTYLE_BEGIN
 90
        2
 91
        1
300
_HEADER
309
CELLSTYLE_END
300
CELLSTYLE
  1
TABLEFORMAT_BEGIN
 90
        5
170
     1
 91
        0
 92
        0
 62
   257
 93
        1
300
CONTENTFORMAT
  1
CONTENTFORMAT_BEGIN
 90
        0
 91
        0
 92
      512
 93
        0
300

 40
0.0
140
1.0
 94
        2
 62
     0
340
1239
144
0.18
309
CONTENTFORMAT_END
171
     0
 94
        0
309
TABLEFORMAT_END
  1
CELLSTYLE_BEGIN
 90
        3
 91
        2
300
_DATA
309
CELLSTYLE_END
  0
XRECORD
  5
1659
102
{ACAD_REACTORS
330
1622
102
}
330
1622
100
AcDbXrecord
280
     1
102
ACAD_ROUNDTRIP_PRE2007_TABLESTYLE
 90
      512
 91
        0
  1

 92
      512
 93
        0
  2

 94
      512
 95
        0
  3

  0
XRECORD
  5
1634
102
{ACAD_REACTORS
330
1633
102
}
330
1633
100
AcDbXrecord
280
     1
102
RTVSPost2010Prop28
280
     1
102
RTVSPost2010PropOp28
 70
     1
102
RTVSPost2010Prop29
280
     1
102
RTVSPost2010PropOp29
 70
     1
102
RTVSPost2010Prop30
280
     0
102
RTVSPost2010PropOp30
 70
     1
102
RTVSPost2010Prop31
280
     0
102
RTVSPost2010PropOp31
 70
     1
102
RTVSPost2010Prop32
280
     0
102
RTVSPost2010PropOp32
 70
     1
102
RTVSPost2010Prop33
280
     0
102
RTVSPost2010PropOp33
 70
     1
102
RTVSPost2010Prop34
280
     0
102
RTVSPost2010PropOp34
 70
     1
102
RTVSPost2010Prop35
280
     0
102
RTVSPost2010PropOp35
 70
     1
102
RTVSPost2010Prop36
280
     0
102
RTVSPost2010PropOp36
 70
     1
102
RTVSPost2010Prop37
 90
       50
102
RTVSPost2010PropOp37
 70
     1
102
RTVSPost2010Prop38
140
0.0
102
RTVSPost2010PropOp38
 70
     1
102
RTVSPost2010Prop39
140
1.0
102
RTVSPost2010PropOp39
 70
     1
102
RTVSPost2010Prop40
 90
        0
102
RTVSPost2010PropOp40
 70
     1
102
RTVSPost2010Prop41ColorIndex
 90
       18
102
RTVSPost2010Prop41ColorRGB
 90
        0
102
RTVSPost2010PropOp41
 70
     1
102
RTVSPost2010Prop42
 90
       50
102
RTVSPost2010PropOp42
 70
     1
102
RTVSPost2010Prop43
 90
        3
102
RTVSPost2010PropOp43
 70
     1
102
RTVSPost2010Prop44ColorIndex
 90
        5
102
RTVSPost2010Prop44ColorRGB
 90
      255
102
RTVSPost2010PropOp44
 70
     1
102
RTVSPost2010Prop45
280
     0
102
RTVSPost2010PropOp45
 70
     1
102
RTVSPost2010Prop46
 90
       50
102
RTVSPost2010PropOp46
 70
     1
102
RTVSPost2010Prop47
 90
       50
102
RTVSPost2010PropOp47
 70
     1
102
RTVSPost2010Prop48
 90
       50
102
RTVSPost2010PropOp48
 70
     1
102
RTVSPost2010Prop49
280
     0
102
RTVSPost2010PropOp49
 70
     1
102
RTVSPost2010Prop50
 90
       50
102
RTVSPost2010PropOp50
 70
     1
102
RTVSPost2010Prop51ColorIndex
 90
      256
102
RTVSPost2010Prop51ColorRGB
 90
-16777216
102
RTVSPost2010PropOp51
 70
     0
102
RTVSPost2010Prop52
140
1.0
102
RTVSPost2010PropOp52
 70
     0
102
RTVSPost2010Prop53
 90
        2
102
RTVSPost2010PropOp53
 70
     1
102
RTVSPost2010Prop54
  1
strokes_ogs.tif
102
RTVSPost2010PropOp54
 70
     1
102
RTVSPost2010Prop55
280
     0
102
RTVSPost2010PropOp55
 70
     1
102
RTVSPost2010Prop56
140
1.0
102
RTVSPost2010PropOp56
 70
     1
102
RTVSPost2010Prop57
140
1.0
102
RTVSPost2010PropOp57
 70
     1
102
RTVSPropertyOp0
 70
     1
102
RTVSPropertyOp1
 70
     1
102
RTVSPropertyOp2
 70
     1
102
RTVSPropertyOp3
 70
     1
102
RTVSPropertyOp4
 70
     1
102
RTVSPropertyOp5
 70
     1
102
RTVSPropertyOp6
 70
     1
102
RTVSPropertyOp7
 70
     1
102
RTVSPropertyOp8
 70
     1
102
RTVSPropertyOp9
 70
     1
102
RTVSPropertyOp10
 70
     1
102
RTVSPropertyOp11
 70
     1
102
RTVSPropertyOp12
 70
     1
102
RTVSPropertyOp13
 70
     1
102
RTVSPropertyOp14
 70
     1
102
RTVSPropertyOp15
 70
     1
102
RTVSPropertyOp16
 70
     1
102
RTVSPropertyOp17
 70
     1
102
RTVSPropertyOp18
 70
     1
102
RTVSPropertyOp19
 70
     1
102
RTVSPropertyOp20
 70
     1
102
RTVSPropertyOp21
 70
     1
102
RTVSPropertyOp22
 70
     1
102
RTVSPropertyOp23
 70
     1
102
RTVSPropertyOp24
 70
     1
102
RTVSPropertyOp25
 70
     1
102
RTVSPropertyOp26
 70
     1
102
RTVSPropertyOp27
 70
     1
102
RTVSPropertyOp28
 70
     1
102
RTVSPropertyOp29
 70
     1
102
RTVSPropertyOp30
 70
     1
102
RTVSPropertyOp31
 70
     1
102
RTVSPropertyOp32
 70
     1
102
RTVSPropertyOp33
 70
     1
102
RTVSPropertyOp34
 70
     1
102
RTVSPropertyOp35
 70
     1
102
RTVSPropertyOp36
 70
     1
102
RTVSPropertyOp37
 70
     1
102
RTVSPropertyOp38
 70
     1
102
RTVSPropertyOp39
 70
     1
102
RTVSPropertyOp40
 70
     1
102
RTVSPropertyOp41
 70
     1
102
RTVSPropertyOp42
 70
     1
102
RTVSPropertyOp43
 70
     1
102
RTVSPropertyOp44
 70
     1
102
RTVSPropertyOp45
 70
     1
102
RTVSPropertyOp46
 70
     1
102
RTVSPropertyOp47
 70
     1
102
RTVSPropertyOp48
 70
     1
102
RTVSPropertyOp49
 70
     1
102
RTVSPropertyOp50
 70
     1
102
RTVSPropertyOp51
 70
     0
102
RTVSPropertyOp52
 70
     0
102
RTVSPropertyOp53
 70
     1
102
RTVSPropertyOp54
 70
     1
102
RTVSPropertyOp55
 70
     1
102
RTVSPropertyOp56
 70
     1
102
RTVSPropertyOp57
 70
     1
102
RTVSPropertyOp58
 70
     1
102
RTVSPropertyOp59
 70
     1
102
RTVSPropertyOp60
 70
     1
102
RTVSPropertyOp61
 70
     1
102
RTVSPropertyOp62
 70
     1
  0
XRECORD
  5
1632
102
{ACAD_REACTORS
330
1631
102
}
330
1631
100
AcDbXrecord
280
     1
102
RTVSPost2010Prop28
280
     0
102
RTVSPost2010PropOp28
 70
     1
102
RTVSPost2010Prop29
280
     1
102
RTVSPost2010PropOp29
 70
     1
102
RTVSPost2010Prop30
280
     1
102
RTVSPost2010PropOp30
 70
     1
102
RTVSPost2010Prop31
280
     0
102
RTVSPost2010PropOp31
 70
     1
102
RTVSPost2010Prop32
280
     0
102
RTVSPost2010PropOp32
 70
     1
102
RTVSPost2010Prop33
280
     0
102
RTVSPost2010PropOp33
 70
     1
102
RTVSPost2010Prop34
280
     0
102
RTVSPost2010PropOp34
 70
     1
102
RTVSPost2010Prop35
280
     0
102
RTVSPost2010PropOp35
 70
     1
102
RTVSPost2010Prop36
280
     0
102
RTVSPost2010PropOp36
 70
     1
102
RTVSPost2010Prop37
 90
       50
102
RTVSPost2010PropOp37
 70
     1
102
RTVSPost2010Prop38
140
0.0
102
RTVSPost2010PropOp38
 70
     1
102
RTVSPost2010Prop39
140
1.0
102
RTVSPost2010PropOp39
 70
     1
102
RTVSPost2010Prop40
 90
        0
102
RTVSPost2010PropOp40
 70
     1
102
RTVSPost2010Prop41ColorIndex
 90
       18
102
RTVSPost2010Prop41ColorRGB
 90
        0
102
RTVSPost2010PropOp41
 70
     1
102
RTVSPost2010Prop42
 90
       50
102
RTVSPost2010PropOp42
 70
     1
102
RTVSPost2010Prop43
 90
        3
102
RTVSPost2010PropOp43
 70
     1
102
RTVSPost2010Prop44ColorIndex
 90
        5
102
RTVSPost2010Prop44ColorRGB
 90
      255
102
RTVSPost2010PropOp44
 70
     1
102
RTVSPost2010Prop45
280
     0
102
RTVSPost2010PropOp45
 70
     1
102
RTVSPost2010Prop46
 90
       50
102
RTVSPost2010PropOp46
 70
     1
102
RTVSPost2010Prop47
 90
       50
102
RTVSPost2010PropOp47
 70
     1
102
RTVSPost2010Prop48
 90
       50
102
RTVSPost2010PropOp48
 70
     1
102
RTVSPost2010Prop49
280
     0
102
RTVSPost2010PropOp49
 70
     1
102
RTVSPost2010Prop50
 90
       50
102
RTVSPost2010PropOp50
 70
     1
102
RTVSPost2010Prop51ColorIndex
 90
      256
102
RTVSPost2010Prop51ColorRGB
 90
-16777216
102
RTVSPost2010PropOp51
 70
     0
102
RTVSPost2010Prop52
140
1.0
102
RTVSPost2010PropOp52
 70
     0
102
RTVSPost2010Prop53
 90
        2
102
RTVSPost2010PropOp53
 70
     1
102
RTVSPost2010Prop54
  1
strokes_ogs.tif
102
RTVSPost2010PropOp54
 70
     1
102
RTVSPost2010Prop55
280
     0
102
RTVSPost2010PropOp55
 70
     1
102
RTVSPost2010Prop56
140
1.0
102
RTVSPost2010PropOp56
 70
     1
102
RTVSPost2010Prop57
140
1.0
102
RTVSPost2010PropOp57
 70
     1
102
RTVSPropertyOp0
 70
     1
102
RTVSPropertyOp1
 70
     1
102
RTVSPropertyOp2
 70
     1
102
RTVSPropertyOp3
 70
     1
102
RTVSPropertyOp4
 70
     1
102
RTVSPropertyOp5
 70
     1
102
RTVSPropertyOp6
 70
     1
102
RTVSPropertyOp7
 70
     1
102
RTVSPropertyOp8
 70
     1
102
RTVSPropertyOp9
 70
     1
102
RTVSPropertyOp10
 70
     1
102
RTVSPropertyOp11
 70
     1
102
RTVSPropertyOp12
 70
     1
102
RTVSPropertyOp13
 70
     1
102
RTVSPropertyOp14
 70
     1
102
RTVSPropertyOp15
 70
     1
102
RTVSPropertyOp16
 70
     1
102
RTVSPropertyOp17
 70
     1
102
RTVSPropertyOp18
 70
     1
102
RTVSPropertyOp19
 70
     1
102
RTVSPropertyOp20
 70
     1
102
RTVSPropertyOp21
 70
     1
102
RTVSPropertyOp22
 70
     1
102
RTVSPropertyOp23
 70
     1
102
RTVSPropertyOp24
 70
     1
102
RTVSPropertyOp25
 70
     1
102
RTVSPropertyOp26
 70
     1
102
RTVSPropertyOp27
 70
     1
102
RTVSPropertyOp28
 70
     1
102
RTVSPropertyOp29
 70
     1
102
RTVSPropertyOp30
 70
     1
102
RTVSPropertyOp31
 70
     1
102
RTVSPropertyOp32
 70
     1
102
RTVSPropertyOp33
 70
     1
102
RTVSPropertyOp34
 70
     1
102
RTVSPropertyOp35
 70
     1
102
RTVSPropertyOp36
 70
     1
102
RTVSPropertyOp37
 70
     1
102
RTVSPropertyOp38
 70
     1
102
RTVSPropertyOp39
 70
     1
102
RTVSPropertyOp40
 70
     1
102
RTVSPropertyOp41
 70
     1
102
RTVSPropertyOp42
 70
     1
102
RTVSPropertyOp43
 70
     1
102
RTVSPropertyOp44
 70
     1
102
RTVSPropertyOp45
 70
     1
102
RTVSPropertyOp46
 70
     1
102
RTVSPropertyOp47
 70
     1
102
RTVSPropertyOp48
 70
     1
102
RTVSPropertyOp49
 70
     1
102
RTVSPropertyOp50
 70
     1
102
RTVSPropertyOp51
 70
     0
102
RTVSPropertyOp52
 70
     0
102
RTVSPropertyOp53
 70
     1
102
RTVSPropertyOp54
 70
     1
102
RTVSPropertyOp55
 70
     1
102
RTVSPropertyOp56
 70
     1
102
RTVSPropertyOp57
 70
     1
102
RTVSPropertyOp58
 70
     1
102
RTVSPropertyOp59
 70
     1
102
RTVSPropertyOp60
 70
     1
102
RTVSPropertyOp61
 70
     1
102
RTVSPropertyOp62
 70
     1
  0
XRECORD
  5
1640
102
{ACAD_REACTORS
330
163F
102
}
330
163F
100
AcDbXrecord
280
     1
102
RTVSPost2010Prop28
280
     0
102
RTVSPost2010PropOp28
 70
     1
102
RTVSPost2010Prop29
280
     1
102
RTVSPost2010PropOp29
 70
     1
102
RTVSPost2010Prop30
280
     1
102
RTVSPost2010PropOp30
 70
     1
102
RTVSPost2010Prop31
280
     0
102
RTVSPost2010PropOp31
 70
     1
102
RTVSPost2010Prop32
280
     0
102
RTVSPost2010PropOp32
 70
     1
102
RTVSPost2010Prop33
280
     0
102
RTVSPost2010PropOp33
 70
     1
102
RTVSPost2010Prop34
280
     0
102
RTVSPost2010PropOp34
 70
     1
102
RTVSPost2010Prop35
280
     0
102
RTVSPost2010PropOp35
 70
     1
102
RTVSPost2010Prop36
280
     0
102
RTVSPost2010PropOp36
 70
     1
102
RTVSPost2010Prop37
 90
       50
102
RTVSPost2010PropOp37
 70
     1
102
RTVSPost2010Prop38
140
0.0
102
RTVSPost2010PropOp38
 70
     1
102
RTVSPost2010Prop39
140
1.0
102
RTVSPost2010PropOp39
 70
     1
102
RTVSPost2010Prop40
 90
        0
102
RTVSPost2010PropOp40
 70
     1
102
RTVSPost2010Prop41ColorIndex
 90
       18
102
RTVSPost2010Prop41ColorRGB
 90
        0
102
RTVSPost2010PropOp41
 70
     1
102
RTVSPost2010Prop42
 90
       50
102
RTVSPost2010PropOp42
 70
     1
102
RTVSPost2010Prop43
 90
        3
102
RTVSPost2010PropOp43
 70
     1
102
RTVSPost2010Prop44ColorIndex
 90
        5
102
RTVSPost2010Prop44ColorRGB
 90
      255
102
RTVSPost2010PropOp44
 70
     1
102
RTVSPost2010Prop45
280
     0
102
RTVSPost2010PropOp45
 70
     1
102
RTVSPost2010Prop46
 90
       50
102
RTVSPost2010PropOp46
 70
     1
102
RTVSPost2010Prop47
 90
       50
102
RTVSPost2010PropOp47
 70
     1
102
RTVSPost2010Prop48
 90
       50
102
RTVSPost2010PropOp48
 70
     1
102
RTVSPost2010Prop49
280
     0
102
RTVSPost2010PropOp49
 70
     1
102
RTVSPost2010Prop50
 90
       50
102
RTVSPost2010PropOp50
 70
     1
102
RTVSPost2010Prop51ColorIndex
 90
      256
102
RTVSPost2010Prop51ColorRGB
 90
-16777216
102
RTVSPost2010PropOp51
 70
     0
102
RTVSPost2010Prop52
140
1.0
102
RTVSPost2010PropOp52
 70
     0
102
RTVSPost2010Prop53
 90
        2
102
RTVSPost2010PropOp53
 70
     1
102
RTVSPost2010Prop54
  1
strokes_ogs.tif
102
RTVSPost2010PropOp54
 70
     1
102
RTVSPost2010Prop55
280
     0
102
RTVSPost2010PropOp55
 70
     1
102
RTVSPost2010Prop56
140
1.0
102
RTVSPost2010PropOp56
 70
     1
102
RTVSPost2010Prop57
140
1.0
102
RTVSPost2010PropOp57
 70
     1
102
RTVSPropertyOp0
 70
     1
102
RTVSPropertyOp1
 70
     1
102
RTVSPropertyOp2
 70
     1
102
RTVSPropertyOp3
 70
     1
102
RTVSPropertyOp4
 70
     1
102
RTVSPropertyOp5
 70
     1
102
RTVSPropertyOp6
 70
     1
102
RTVSPropertyOp7
 70
     1
102
RTVSPropertyOp8
 70
     1
102
RTVSPropertyOp9
 70
     1
102
RTVSPropertyOp10
 70
     1
102
RTVSPropertyOp11
 70
     1
102
RTVSPropertyOp12
 70
     1
102
RTVSPropertyOp13
 70
     1
102
RTVSPropertyOp14
 70
     1
102
RTVSPropertyOp15
 70
     1
102
RTVSPropertyOp16
 70
     1
102
RTVSPropertyOp17
 70
     1
102
RTVSPropertyOp18
 70
     1
102
RTVSPropertyOp19
 70
     1
102
RTVSPropertyOp20
 70
     1
102
RTVSPropertyOp21
 70
     1
102
RTVSPropertyOp22
 70
     1
102
RTVSPropertyOp23
 70
     1
102
RTVSPropertyOp24
 70
     1
102
RTVSPropertyOp25
 70
     1
102
RTVSPropertyOp26
 70
     1
102
RTVSPropertyOp27
 70
     1
102
RTVSPropertyOp28
 70
     1
102
RTVSPropertyOp29
 70
     1
102
RTVSPropertyOp30
 70
     1
102
RTVSPropertyOp31
 70
     1
102
RTVSPropertyOp32
 70
     1
102
RTVSPropertyOp33
 70
     1
102
RTVSPropertyOp34
 70
     1
102
RTVSPropertyOp35
 70
     1
102
RTVSPropertyOp36
 70
     1
102
RTVSPropertyOp37
 70
     1
102
RTVSPropertyOp38
 70
     1
102
RTVSPropertyOp39
 70
     1
102
RTVSPropertyOp40
 70
     1
102
RTVSPropertyOp41
 70
     1
102
RTVSPropertyOp42
 70
     1
102
RTVSPropertyOp43
 70
     1
102
RTVSPropertyOp44
 70
     1
102
RTVSPropertyOp45
 70
     1
102
RTVSPropertyOp46
 70
     1
102
RTVSPropertyOp47
 70
     1
102
RTVSPropertyOp48
 70
     1
102
RTVSPropertyOp49
 70
     1
102
RTVSPropertyOp50
 70
     1
102
RTVSPropertyOp51
 70
     0
102
RTVSPropertyOp52
 70
     0
102
RTVSPropertyOp53
 70
     1
102
RTVSPropertyOp54
 70
     1
102
RTVSPropertyOp55
 70
     1
102
RTVSPropertyOp56
 70
     1
102
RTVSPropertyOp57
 70
     1
102
RTVSPropertyOp58
 70
     1
102
RTVSPropertyOp59
 70
     1
102
RTVSPropertyOp60
 70
     1
102
RTVSPropertyOp61
 70
     1
102
RTVSPropertyOp62
 70
     1
  0
XRECORD
  5
1648
102
{ACAD_REACTORS
330
1647
102
}
330
1647
100
AcDbXrecord
280
     1
102
RTVSPost2010Prop28
280
     0
102
RTVSPost2010PropOp28
 70
     1
102
RTVSPost2010Prop29
280
     1
102
RTVSPost2010PropOp29
 70
     1
102
RTVSPost2010Prop30
280
     1
102
RTVSPost2010PropOp30
 70
     1
102
RTVSPost2010Prop31
280
     0
102
RTVSPost2010PropOp31
 70
     1
102
RTVSPost2010Prop32
280
     0
102
RTVSPost2010PropOp32
 70
     1
102
RTVSPost2010Prop33
280
     0
102
RTVSPost2010PropOp33
 70
     1
102
RTVSPost2010Prop34
280
     0
102
RTVSPost2010PropOp34
 70
     1
102
RTVSPost2010Prop35
280
     0
102
RTVSPost2010PropOp35
 70
     1
102
RTVSPost2010Prop36
280
     0
102
RTVSPost2010PropOp36
 70
     1
102
RTVSPost2010Prop37
 90
       50
102
RTVSPost2010PropOp37
 70
     1
102
RTVSPost2010Prop38
140
0.0
102
RTVSPost2010PropOp38
 70
     1
102
RTVSPost2010Prop39
140
1.0
102
RTVSPost2010PropOp39
 70
     1
102
RTVSPost2010Prop40
 90
        0
102
RTVSPost2010PropOp40
 70
     1
102
RTVSPost2010Prop41ColorIndex
 90
       18
102
RTVSPost2010Prop41ColorRGB
 90
        0
102
RTVSPost2010PropOp41
 70
     1
102
RTVSPost2010Prop42
 90
       50
102
RTVSPost2010PropOp42
 70
     1
102
RTVSPost2010Prop43
 90
        3
102
RTVSPost2010PropOp43
 70
     1
102
RTVSPost2010Prop44ColorIndex
 90
        5
102
RTVSPost2010Prop44ColorRGB
 90
      255
102
RTVSPost2010PropOp44
 70
     1
102
RTVSPost2010Prop45
280
     0
102
RTVSPost2010PropOp45
 70
     1
102
RTVSPost2010Prop46
 90
       50
102
RTVSPost2010PropOp46
 70
     1
102
RTVSPost2010Prop47
 90
       50
102
RTVSPost2010PropOp47
 70
     1
102
RTVSPost2010Prop48
 90
       50
102
RTVSPost2010PropOp48
 70
     1
102
RTVSPost2010Prop49
280
     0
102
RTVSPost2010PropOp49
 70
     1
102
RTVSPost2010Prop50
 90
       50
102
RTVSPost2010PropOp50
 70
     1
102
RTVSPost2010Prop51ColorIndex
 90
      256
102
RTVSPost2010Prop51ColorRGB
 90
-16777216
102
RTVSPost2010PropOp51
 70
     0
102
RTVSPost2010Prop52
140
1.0
102
RTVSPost2010PropOp52
 70
     0
102
RTVSPost2010Prop53
 90
        2
102
RTVSPost2010PropOp53
 70
     1
102
RTVSPost2010Prop54
  1
strokes_ogs.tif
102
RTVSPost2010PropOp54
 70
     1
102
RTVSPost2010Prop55
280
     0
102
RTVSPost2010PropOp55
 70
     1
102
RTVSPost2010Prop56
140
1.0
102
RTVSPost2010PropOp56
 70
     1
102
RTVSPost2010Prop57
140
1.0
102
RTVSPost2010PropOp57
 70
     1
102
RTVSPropertyOp0
 70
     1
102
RTVSPropertyOp1
 70
     1
102
RTVSPropertyOp2
 70
     1
102
RTVSPropertyOp3
 70
     1
102
RTVSPropertyOp4
 70
     1
102
RTVSPropertyOp5
 70
     1
102
RTVSPropertyOp6
 70
     1
102
RTVSPropertyOp7
 70
     1
102
RTVSPropertyOp8
 70
     1
102
RTVSPropertyOp9
 70
     1
102
RTVSPropertyOp10
 70
     1
102
RTVSPropertyOp11
 70
     1
102
RTVSPropertyOp12
 70
     1
102
RTVSPropertyOp13
 70
     1
102
RTVSPropertyOp14
 70
     1
102
RTVSPropertyOp15
 70
     1
102
RTVSPropertyOp16
 70
     1
102
RTVSPropertyOp17
 70
     1
102
RTVSPropertyOp18
 70
     1
102
RTVSPropertyOp19
 70
     1
102
RTVSPropertyOp20
 70
     1
102
RTVSPropertyOp21
 70
     1
102
RTVSPropertyOp22
 70
     1
102
RTVSPropertyOp23
 70
     1
102
RTVSPropertyOp24
 70
     1
102
RTVSPropertyOp25
 70
     1
102
RTVSPropertyOp26
 70
     1
102
RTVSPropertyOp27
 70
     1
102
RTVSPropertyOp28
 70
     1
102
RTVSPropertyOp29
 70
     1
102
RTVSPropertyOp30
 70
     1
102
RTVSPropertyOp31
 70
     1
102
RTVSPropertyOp32
 70
     1
102
RTVSPropertyOp33
 70
     1
102
RTVSPropertyOp34
 70
     1
102
RTVSPropertyOp35
 70
     1
102
RTVSPropertyOp36
 70
     1
102
RTVSPropertyOp37
 70
     1
102
RTVSPropertyOp38
 70
     1
102
RTVSPropertyOp39
 70
     1
102
RTVSPropertyOp40
 70
     1
102
RTVSPropertyOp41
 70
     1
102
RTVSPropertyOp42
 70
     1
102
RTVSPropertyOp43
 70
     1
102
RTVSPropertyOp44
 70
     1
102
RTVSPropertyOp45
 70
     1
102
RTVSPropertyOp46
 70
     1
102
RTVSPropertyOp47
 70
     1
102
RTVSPropertyOp48
 70
     1
102
RTVSPropertyOp49
 70
     1
102
RTVSPropertyOp50
 70
     1
102
RTVSPropertyOp51
 70
     0
102
RTVSPropertyOp52
 70
     0
102
RTVSPropertyOp53
 70
     1
102
RTVSPropertyOp54
 70
     1
102
RTVSPropertyOp55
 70
     1
102
RTVSPropertyOp56
 70
     1
102
RTVSPropertyOp57
 70
     1
102
RTVSPropertyOp58
 70
     1
102
RTVSPropertyOp59
 70
     1
102
RTVSPropertyOp60
 70
     1
102
RTVSPropertyOp61
 70
     1
102
RTVSPropertyOp62
 70
     1
  0
XRECORD
  5
163A
102
{ACAD_REACTORS
330
1639
102
}
330
1639
100
AcDbXrecord
280
     1
102
RTVSPost2010Prop28
280
     0
102
RTVSPost2010PropOp28
 70
     1
102
RTVSPost2010Prop29
280
     1
102
RTVSPost2010PropOp29
 70
     1
102
RTVSPost2010Prop30
280
     1
102
RTVSPost2010PropOp30
 70
     1
102
RTVSPost2010Prop31
280
     0
102
RTVSPost2010PropOp31
 70
     1
102
RTVSPost2010Prop32
280
     0
102
RTVSPost2010PropOp32
 70
     1
102
RTVSPost2010Prop33
280
     0
102
RTVSPost2010PropOp33
 70
     1
102
RTVSPost2010Prop34
280
     0
102
RTVSPost2010PropOp34
 70
     1
102
RTVSPost2010Prop35
280
     0
102
RTVSPost2010PropOp35
 70
     1
102
RTVSPost2010Prop36
280
     0
102
RTVSPost2010PropOp36
 70
     1
102
RTVSPost2010Prop37
 90
       50
102
RTVSPost2010PropOp37
 70
     1
102
RTVSPost2010Prop38
140
0.0
102
RTVSPost2010PropOp38
 70
     1
102
RTVSPost2010Prop39
140
1.0
102
RTVSPost2010PropOp39
 70
     1
102
RTVSPost2010Prop40
 90
        0
102
RTVSPost2010PropOp40
 70
     1
102
RTVSPost2010Prop41ColorIndex
 90
       18
102
RTVSPost2010Prop41ColorRGB
 90
        0
102
RTVSPost2010PropOp41
 70
     1
102
RTVSPost2010Prop42
 90
       50
102
RTVSPost2010PropOp42
 70
     1
102
RTVSPost2010Prop43
 90
        3
102
RTVSPost2010PropOp43
 70
     1
102
RTVSPost2010Prop44ColorIndex
 90
        5
102
RTVSPost2010Prop44ColorRGB
 90
      255
102
RTVSPost2010PropOp44
 70
     1
102
RTVSPost2010Prop45
280
     0
102
RTVSPost2010PropOp45
 70
     1
102
RTVSPost2010Prop46
 90
       50
102
RTVSPost2010PropOp46
 70
     1
102
RTVSPost2010Prop47
 90
       50
102
RTVSPost2010PropOp47
 70
     1
102
RTVSPost2010Prop48
 90
       50
102
RTVSPost2010PropOp48
 70
     1
102
RTVSPost2010Prop49
280
     0
102
RTVSPost2010PropOp49
 70
     1
102
RTVSPost2010Prop50
 90
       50
102
RTVSPost2010PropOp50
 70
     1
102
RTVSPost2010Prop51ColorIndex
 90
      256
102
RTVSPost2010Prop51ColorRGB
 90
-16777216
102
RTVSPost2010PropOp51
 70
     0
102
RTVSPost2010Prop52
140
1.0
102
RTVSPost2010PropOp52
 70
     0
102
RTVSPost2010Prop53
 90
        2
102
RTVSPost2010PropOp53
 70
     1
102
RTVSPost2010Prop54
  1
strokes_ogs.tif
102
RTVSPost2010PropOp54
 70
     1
102
RTVSPost2010Prop55
280
     0
102
RTVSPost2010PropOp55
 70
     1
102
RTVSPost2010Prop56
140
1.0
102
RTVSPost2010PropOp56
 70
     1
102
RTVSPost2010Prop57
140
1.0
102
RTVSPost2010PropOp57
 70
     1
102
RTVSPropertyOp0
 70
     1
102
RTVSPropertyOp1
 70
     1
102
RTVSPropertyOp2
 70
     1
102
RTVSPropertyOp3
 70
     1
102
RTVSPropertyOp4
 70
     1
102
RTVSPropertyOp5
 70
     1
102
RTVSPropertyOp6
 70
     1
102
RTVSPropertyOp7
 70
     1
102
RTVSPropertyOp8
 70
     1
102
RTVSPropertyOp9
 70
     1
102
RTVSPropertyOp10
 70
     1
102
RTVSPropertyOp11
 70
     1
102
RTVSPropertyOp12
 70
     1
102
RTVSPropertyOp13
 70
     1
102
RTVSPropertyOp14
 70
     1
102
RTVSPropertyOp15
 70
     1
102
RTVSPropertyOp16
 70
     1
102
RTVSPropertyOp17
 70
     1
102
RTVSPropertyOp18
 70
     1
102
RTVSPropertyOp19
 70
     1
102
RTVSPropertyOp20
 70
     1
102
RTVSPropertyOp21
 70
     1
102
RTVSPropertyOp22
 70
     1
102
RTVSPropertyOp23
 70
     1
102
RTVSPropertyOp24
 70
     1
102
RTVSPropertyOp25
 70
     1
102
RTVSPropertyOp26
 70
     1
102
RTVSPropertyOp27
 70
     1
102
RTVSPropertyOp28
 70
     1
102
RTVSPropertyOp29
 70
     1
102
RTVSPropertyOp30
 70
     1
102
RTVSPropertyOp31
 70
     1
102
RTVSPropertyOp32
 70
     1
102
RTVSPropertyOp33
 70
     1
102
RTVSPropertyOp34
 70
     1
102
RTVSPropertyOp35
 70
     1
102
RTVSPropertyOp36
 70
     1
102
RTVSPropertyOp37
 70
     1
102
RTVSPropertyOp38
 70
     1
102
RTVSPropertyOp39
 70
     1
102
RTVSPropertyOp40
 70
     1
102
RTVSPropertyOp41
 70
     1
102
RTVSPropertyOp42
 70
     1
102
RTVSPropertyOp43
 70
     1
102
RTVSPropertyOp44
 70
     1
102
RTVSPropertyOp45
 70
     1
102
RTVSPropertyOp46
 70
     1
102
RTVSPropertyOp47
 70
     1
102
RTVSPropertyOp48
 70
     1
102
RTVSPropertyOp49
 70
     1
102
RTVSPropertyOp50
 70
     1
102
RTVSPropertyOp51
 70
     0
102
RTVSPropertyOp52
 70
     0
102
RTVSPropertyOp53
 70
     1
102
RTVSPropertyOp54
 70
     1
102
RTVSPropertyOp55
 70
     1
102
RTVSPropertyOp56
 70
     1
102
RTVSPropertyOp57
 70
     1
102
RTVSPropertyOp58
 70
     1
102
RTVSPropertyOp59
 70
     1
102
RTVSPropertyOp60
 70
     1
102
RTVSPropertyOp61
 70
     1
102
RTVSPropertyOp62
 70
     1
  0
XRECORD
  5
163E
102
{ACAD_REACTORS
330
163D
102
}
330
163D
100
AcDbXrecord
280
     1
102
RTVSPost2010Prop28
280
     0
102
RTVSPost2010PropOp28
 70
     1
102
RTVSPost2010Prop29
280
     1
102
RTVSPost2010PropOp29
 70
     1
102
RTVSPost2010Prop30
280
     1
102
RTVSPost2010PropOp30
 70
     1
102
RTVSPost2010Prop31
280
     0
102
RTVSPost2010PropOp31
 70
     1
102
RTVSPost2010Prop32
280
     0
102
RTVSPost2010PropOp32
 70
     1
102
RTVSPost2010Prop33
280
     0
102
RTVSPost2010PropOp33
 70
     1
102
RTVSPost2010Prop34
280
     0
102
RTVSPost2010PropOp34
 70
     1
102
RTVSPost2010Prop35
280
     0
102
RTVSPost2010PropOp35
 70
     1
102
RTVSPost2010Prop36
280
     0
102
RTVSPost2010PropOp36
 70
     1
102
RTVSPost2010Prop37
 90
       50
102
RTVSPost2010PropOp37
 70
     1
102
RTVSPost2010Prop38
140
0.0
102
RTVSPost2010PropOp38
 70
     1
102
RTVSPost2010Prop39
140
1.0
102
RTVSPost2010PropOp39
 70
     1
102
RTVSPost2010Prop40
 90
        0
102
RTVSPost2010PropOp40
 70
     1
102
RTVSPost2010Prop41ColorIndex
 90
       18
102
RTVSPost2010Prop41ColorRGB
 90
        0
102
RTVSPost2010PropOp41
 70
     1
102
RTVSPost2010Prop42
 90
       50
102
RTVSPost2010PropOp42
 70
     1
102
RTVSPost2010Prop43
 90
        3
102
RTVSPost2010PropOp43
 70
     1
102
RTVSPost2010Prop44ColorIndex
 90
        5
102
RTVSPost2010Prop44ColorRGB
 90
      255
102
RTVSPost2010PropOp44
 70
     1
102
RTVSPost2010Prop45
280
     0
102
RTVSPost2010PropOp45
 70
     1
102
RTVSPost2010Prop46
 90
       50
102
RTVSPost2010PropOp46
 70
     1
102
RTVSPost2010Prop47
 90
       50
102
RTVSPost2010PropOp47
 70
     1
102
RTVSPost2010Prop48
 90
       50
102
RTVSPost2010PropOp48
 70
     1
102
RTVSPost2010Prop49
280
     0
102
RTVSPost2010PropOp49
 70
     1
102
RTVSPost2010Prop50
 90
       50
102
RTVSPost2010PropOp50
 70
     1
102
RTVSPost2010Prop51ColorIndex
 90
      256
102
RTVSPost2010Prop51ColorRGB
 90
-16777216
102
RTVSPost2010PropOp51
 70
     0
102
RTVSPost2010Prop52
140
1.0
102
RTVSPost2010PropOp52
 70
     0
102
RTVSPost2010Prop53
 90
        2
102
RTVSPost2010PropOp53
 70
     1
102
RTVSPost2010Prop54
  1
strokes_ogs.tif
102
RTVSPost2010PropOp54
 70
     1
102
RTVSPost2010Prop55
280
     0
102
RTVSPost2010PropOp55
 70
     1
102
RTVSPost2010Prop56
140
1.0
102
RTVSPost2010PropOp56
 70
     1
102
RTVSPost2010Prop57
140
1.0
102
RTVSPost2010PropOp57
 70
     1
102
RTVSPropertyOp0
 70
     1
102
RTVSPropertyOp1
 70
     1
102
RTVSPropertyOp2
 70
     1
102
RTVSPropertyOp3
 70
     1
102
RTVSPropertyOp4
 70
     1
102
RTVSPropertyOp5
 70
     1
102
RTVSPropertyOp6
 70
     1
102
RTVSPropertyOp7
 70
     1
102
RTVSPropertyOp8
 70
     1
102
RTVSPropertyOp9
 70
     1
102
RTVSPropertyOp10
 70
     1
102
RTVSPropertyOp11
 70
     1
102
RTVSPropertyOp12
 70
     1
102
RTVSPropertyOp13
 70
     1
102
RTVSPropertyOp14
 70
     1
102
RTVSPropertyOp15
 70
     1
102
RTVSPropertyOp16
 70
     1
102
RTVSPropertyOp17
 70
     1
102
RTVSPropertyOp18
 70
     1
102
RTVSPropertyOp19
 70
     1
102
RTVSPropertyOp20
 70
     1
102
RTVSPropertyOp21
 70
     1
102
RTVSPropertyOp22
 70
     1
102
RTVSPropertyOp23
 70
     1
102
RTVSPropertyOp24
 70
     1
102
RTVSPropertyOp25
 70
     1
102
RTVSPropertyOp26
 70
     1
102
RTVSPropertyOp27
 70
     1
102
RTVSPropertyOp28
 70
     1
102
RTVSPropertyOp29
 70
     1
102
RTVSPropertyOp30
 70
     1
102
RTVSPropertyOp31
 70
     1
102
RTVSPropertyOp32
 70
     1
102
RTVSPropertyOp33
 70
     1
102
RTVSPropertyOp34
 70
     1
102
RTVSPropertyOp35
 70
     1
102
RTVSPropertyOp36
 70
     1
102
RTVSPropertyOp37
 70
     1
102
RTVSPropertyOp38
 70
     1
102
RTVSPropertyOp39
 70
     1
102
RTVSPropertyOp40
 70
     1
102
RTVSPropertyOp41
 70
     1
102
RTVSPropertyOp42
 70
     1
102
RTVSPropertyOp43
 70
     1
102
RTVSPropertyOp44
 70
     1
102
RTVSPropertyOp45
 70
     1
102
RTVSPropertyOp46
 70
     1
102
RTVSPropertyOp47
 70
     1
102
RTVSPropertyOp48
 70
     1
102
RTVSPropertyOp49
 70
     1
102
RTVSPropertyOp50
 70
     1
102
RTVSPropertyOp51
 70
     0
102
RTVSPropertyOp52
 70
     0
102
RTVSPropertyOp53
 70
     1
102
RTVSPropertyOp54
 70
     1
102
RTVSPropertyOp55
 70
     1
102
RTVSPropertyOp56
 70
     1
102
RTVSPropertyOp57
 70
     1
102
RTVSPropertyOp58
 70
     1
102
RTVSPropertyOp59
 70
     1
102
RTVSPropertyOp60
 70
     1
102
RTVSPropertyOp61
 70
     1
102
RTVSPropertyOp62
 70
     1
  0
XRECORD
  5
1658
102
{ACAD_REACTORS
330
1657
102
}
330
1657
100
AcDbXrecord
280
     1
102
RTVSPost2010Prop28
280
     0
102
RTVSPost2010PropOp28
 70
     1
102
RTVSPost2010Prop29
280
     1
102
RTVSPost2010PropOp29
 70
     1
102
RTVSPost2010Prop30
280
     1
102
RTVSPost2010PropOp30
 70
     1
102
RTVSPost2010Prop31
280
     0
102
RTVSPost2010PropOp31
 70
     1
102
RTVSPost2010Prop32
280
     0
102
RTVSPost2010PropOp32
 70
     1
102
RTVSPost2010Prop33
280
     0
102
RTVSPost2010PropOp33
 70
     1
102
RTVSPost2010Prop34
280
     0
102
RTVSPost2010PropOp34
 70
     1
102
RTVSPost2010Prop35
280
     0
102
RTVSPost2010PropOp35
 70
     1
102
RTVSPost2010Prop36
280
     0
102
RTVSPost2010PropOp36
 70
     1
102
RTVSPost2010Prop37
 90
       50
102
RTVSPost2010PropOp37
 70
     0
102
RTVSPost2010Prop38
140
0.0
102
RTVSPost2010PropOp38
 70
     0
102
RTVSPost2010Prop39
140
1.0
102
RTVSPost2010PropOp39
 70
     0
102
RTVSPost2010Prop40
 90
        0
102
RTVSPost2010PropOp40
 70
     0
102
RTVSPost2010Prop41ColorIndex
 90
       18
102
RTVSPost2010Prop41ColorRGB
 90
        0
102
RTVSPost2010PropOp41
 70
     0
102
RTVSPost2010Prop42
 90
       50
102
RTVSPost2010PropOp42
 70
     0
102
RTVSPost2010Prop43
 90
        3
102
RTVSPost2010PropOp43
 70
     0
102
RTVSPost2010Prop44ColorIndex
 90
        5
102
RTVSPost2010Prop44ColorRGB
 90
      255
102
RTVSPost2010PropOp44
 70
     0
102
RTVSPost2010Prop45
280
     0
102
RTVSPost2010PropOp45
 70
     1
102
RTVSPost2010Prop46
 90
       50
102
RTVSPost2010PropOp46
 70
     0
102
RTVSPost2010Prop47
 90
       50
102
RTVSPost2010PropOp47
 70
     0
102
RTVSPost2010Prop48
 90
       50
102
RTVSPost2010PropOp48
 70
     0
102
RTVSPost2010Prop49
280
     0
102
RTVSPost2010PropOp49
 70
     1
102
RTVSPost2010Prop50
 90
       50
102
RTVSPost2010PropOp50
 70
     0
102
RTVSPost2010Prop51ColorIndex
 90
      256
102
RTVSPost2010Prop51ColorRGB
 90
-16777216
102
RTVSPost2010PropOp51
 70
     0
102
RTVSPost2010Prop52
140
1.0
102
RTVSPost2010PropOp52
 70
     0
102
RTVSPost2010Prop53
 90
        2
102
RTVSPost2010PropOp53
 70
     0
102
RTVSPost2010Prop54
  1
strokes_ogs.tif
102
RTVSPost2010PropOp54
 70
     0
102
RTVSPost2010Prop55
280
     0
102
RTVSPost2010PropOp55
 70
     1
102
RTVSPost2010Prop56
140
1.0
102
RTVSPost2010PropOp56
 70
     0
102
RTVSPost2010Prop57
140
1.0
102
RTVSPost2010PropOp57
 70
     0
102
RTVSPropertyOp0
 70
     0
102
RTVSPropertyOp1
 70
     0
102
RTVSPropertyOp2
 70
     0
102
RTVSPropertyOp3
 70
     0
102
RTVSPropertyOp4
 70
     0
102
RTVSPropertyOp5
 70
     0
102
RTVSPropertyOp6
 70
     0
102
RTVSPropertyOp7
 70
     0
102
RTVSPropertyOp8
 70
     0
102
RTVSPropertyOp9
 70
     0
102
RTVSPropertyOp10
 70
     0
102
RTVSPropertyOp11
 70
     0
102
RTVSPropertyOp12
 70
     0
102
RTVSPropertyOp13
 70
     0
102
RTVSPropertyOp14
 70
     2
102
RTVSPropertyOp15
 70
     0
102
RTVSPropertyOp16
 70
     0
102
RTVSPropertyOp17
 70
     0
102
RTVSPropertyOp18
 70
     0
102
RTVSPropertyOp19
 70
     0
102
RTVSPropertyOp20
 70
     0
102
RTVSPropertyOp21
 70
     0
102
RTVSPropertyOp22
 70
     0
102
RTVSPropertyOp23
 70
     0
102
RTVSPropertyOp24
 70
     0
102
RTVSPropertyOp25
 70
     0
102
RTVSPropertyOp26
 70
     0
102
RTVSPropertyOp27
 70
     0
102
RTVSPropertyOp28
 70
     1
102
RTVSPropertyOp29
 70
     1
102
RTVSPropertyOp30
 70
     1
102
RTVSPropertyOp31
 70
     1
102
RTVSPropertyOp32
 70
     1
102
RTVSPropertyOp33
 70
     1
102
RTVSPropertyOp34
 70
     1
102
RTVSPropertyOp35
 70
     1
102
RTVSPropertyOp36
 70
     1
102
RTVSPropertyOp37
 70
     0
102
RTVSPropertyOp38
 70
     0
102
RTVSPropertyOp39
 70
     0
102
RTVSPropertyOp40
 70
     0
102
RTVSPropertyOp41
 70
     0
102
RTVSPropertyOp42
 70
     0
102
RTVSPropertyOp43
 70
     0
102
RTVSPropertyOp44
 70
     0
102
RTVSPropertyOp45
 70
     1
102
RTVSPropertyOp46
 70
     0
102
RTVSPropertyOp47
 70
     0
102
RTVSPropertyOp48
 70
     0
102
RTVSPropertyOp49
 70
     1
102
RTVSPropertyOp50
 70
     0
102
RTVSPropertyOp51
 70
     0
102
RTVSPropertyOp52
 70
     0
102
RTVSPropertyOp53
 70
     0
102
RTVSPropertyOp54
 70
     0
102
RTVSPropertyOp55
 70
     1
102
RTVSPropertyOp56
 70
     0
102
RTVSPropertyOp57
 70
     0
102
RTVSPropertyOp58
 70
     0
102
RTVSPropertyOp59
 70
     0
102
RTVSPropertyOp60
 70
     0
102
RTVSPropertyOp61
 70
     0
102
RTVSPropertyOp62
 70
     0
  0
XRECORD
  5
1646
102
{ACAD_REACTORS
330
1645
102
}
330
1645
100
AcDbXrecord
280
     1
102
RTVSPost2010Prop28
280
     0
102
RTVSPost2010PropOp28
 70
     1
102
RTVSPost2010Prop29
280
     1
102
RTVSPost2010PropOp29
 70
     1
102
RTVSPost2010Prop30
280
     1
102
RTVSPost2010PropOp30
 70
     1
102
RTVSPost2010Prop31
280
     0
102
RTVSPost2010PropOp31
 70
     1
102
RTVSPost2010Prop32
280
     0
102
RTVSPost2010PropOp32
 70
     1
102
RTVSPost2010Prop33
280
     0
102
RTVSPost2010PropOp33
 70
     1
102
RTVSPost2010Prop34
280
     0
102
RTVSPost2010PropOp34
 70
     1
102
RTVSPost2010Prop35
280
     0
102
RTVSPost2010PropOp35
 70
     1
102
RTVSPost2010Prop36
280
     0
102
RTVSPost2010PropOp36
 70
     1
102
RTVSPost2010Prop37
 90
       50
102
RTVSPost2010PropOp37
 70
     1
102
RTVSPost2010Prop38
140
0.0
102
RTVSPost2010PropOp38
 70
     1
102
RTVSPost2010Prop39
140
1.0
102
RTVSPost2010PropOp39
 70
     1
102
RTVSPost2010Prop40
 90
        0
102
RTVSPost2010PropOp40
 70
     1
102
RTVSPost2010Prop41ColorIndex
 90
       18
102
RTVSPost2010Prop41ColorRGB
 90
        0
102
RTVSPost2010PropOp41
 70
     1
102
RTVSPost2010Prop42
 90
       50
102
RTVSPost2010PropOp42
 70
     1
102
RTVSPost2010Prop43
 90
        3
102
RTVSPost2010PropOp43
 70
     1
102
RTVSPost2010Prop44ColorIndex
 90
        5
102
RTVSPost2010Prop44ColorRGB
 90
      255
102
RTVSPost2010PropOp44
 70
     1
102
RTVSPost2010Prop45
280
     0
102
RTVSPost2010PropOp45
 70
     1
102
RTVSPost2010Prop46
 90
       50
102
RTVSPost2010PropOp46
 70
     1
102
RTVSPost2010Prop47
 90
       50
102
RTVSPost2010PropOp47
 70
     1
102
RTVSPost2010Prop48
 90
       50
102
RTVSPost2010PropOp48
 70
     1
102
RTVSPost2010Prop49
280
     0
102
RTVSPost2010PropOp49
 70
     1
102
RTVSPost2010Prop50
 90
       50
102
RTVSPost2010PropOp50
 70
     1
102
RTVSPost2010Prop51ColorIndex
 90
      256
102
RTVSPost2010Prop51ColorRGB
 90
-16777216
102
RTVSPost2010PropOp51
 70
     0
102
RTVSPost2010Prop52
140
1.0
102
RTVSPost2010PropOp52
 70
     0
102
RTVSPost2010Prop53
 90
        2
102
RTVSPost2010PropOp53
 70
     1
102
RTVSPost2010Prop54
  1
strokes_ogs.tif
102
RTVSPost2010PropOp54
 70
     1
102
RTVSPost2010Prop55
280
     0
102
RTVSPost2010PropOp55
 70
     1
102
RTVSPost2010Prop56
140
1.0
102
RTVSPost2010PropOp56
 70
     1
102
RTVSPost2010Prop57
140
1.0
102
RTVSPost2010PropOp57
 70
     1
102
RTVSPropertyOp0
 70
     1
102
RTVSPropertyOp1
 70
     1
102
RTVSPropertyOp2
 70
     1
102
RTVSPropertyOp3
 70
     1
102
RTVSPropertyOp4
 70
     1
102
RTVSPropertyOp5
 70
     1
102
RTVSPropertyOp6
 70
     1
102
RTVSPropertyOp7
 70
     1
102
RTVSPropertyOp8
 70
     1
102
RTVSPropertyOp9
 70
     1
102
RTVSPropertyOp10
 70
     1
102
RTVSPropertyOp11
 70
     1
102
RTVSPropertyOp12
 70
     1
102
RTVSPropertyOp13
 70
     1
102
RTVSPropertyOp14
 70
     1
102
RTVSPropertyOp15
 70
     1
102
RTVSPropertyOp16
 70
     1
102
RTVSPropertyOp17
 70
     1
102
RTVSPropertyOp18
 70
     1
102
RTVSPropertyOp19
 70
     1
102
RTVSPropertyOp20
 70
     1
102
RTVSPropertyOp21
 70
     1
102
RTVSPropertyOp22
 70
     1
102
RTVSPropertyOp23
 70
     1
102
RTVSPropertyOp24
 70
     1
102
RTVSPropertyOp25
 70
     1
102
RTVSPropertyOp26
 70
     1
102
RTVSPropertyOp27
 70
     1
102
RTVSPropertyOp28
 70
     1
102
RTVSPropertyOp29
 70
     1
102
RTVSPropertyOp30
 70
     1
102
RTVSPropertyOp31
 70
     1
102
RTVSPropertyOp32
 70
     1
102
RTVSPropertyOp33
 70
     1
102
RTVSPropertyOp34
 70
     1
102
RTVSPropertyOp35
 70
     1
102
RTVSPropertyOp36
 70
     1
102
RTVSPropertyOp37
 70
     1
102
RTVSPropertyOp38
 70
     1
102
RTVSPropertyOp39
 70
     1
102
RTVSPropertyOp40
 70
     1
102
RTVSPropertyOp41
 70
     1
102
RTVSPropertyOp42
 70
     1
102
RTVSPropertyOp43
 70
     1
102
RTVSPropertyOp44
 70
     1
102
RTVSPropertyOp45
 70
     1
102
RTVSPropertyOp46
 70
     1
102
RTVSPropertyOp47
 70
     1
102
RTVSPropertyOp48
 70
     1
102
RTVSPropertyOp49
 70
     1
102
RTVSPropertyOp50
 70
     1
102
RTVSPropertyOp51
 70
     0
102
RTVSPropertyOp52
 70
     0
102
RTVSPropertyOp53
 70
     1
102
RTVSPropertyOp54
 70
     1
102
RTVSPropertyOp55
 70
     1
102
RTVSPropertyOp56
 70
     1
102
RTVSPropertyOp57
 70
     1
102
RTVSPropertyOp58
 70
     1
102
RTVSPropertyOp59
 70
     1
102
RTVSPropertyOp60
 70
     1
102
RTVSPropertyOp61
 70
     1
102
RTVSPropertyOp62
 70
     1
  0
XRECORD
  5
162A
102
{ACAD_REACTORS
330
1629
102
}
330
1629
100
AcDbXrecord
280
     1
102
RTVSPost2010Prop28
280
     0
102
RTVSPost2010PropOp28
 70
     1
102
RTVSPost2010Prop29
280
     1
102
RTVSPost2010PropOp29
 70
     1
102
RTVSPost2010Prop30
280
     1
102
RTVSPost2010PropOp30
 70
     1
102
RTVSPost2010Prop31
280
     0
102
RTVSPost2010PropOp31
 70
     1
102
RTVSPost2010Prop32
280
     0
102
RTVSPost2010PropOp32
 70
     1
102
RTVSPost2010Prop33
280
     0
102
RTVSPost2010PropOp33
 70
     1
102
RTVSPost2010Prop34
280
     0
102
RTVSPost2010PropOp34
 70
     1
102
RTVSPost2010Prop35
280
     0
102
RTVSPost2010PropOp35
 70
     1
102
RTVSPost2010Prop36
280
     0
102
RTVSPost2010PropOp36
 70
     1
102
RTVSPost2010Prop37
 90
       50
102
RTVSPost2010PropOp37
 70
     1
102
RTVSPost2010Prop38
140
0.0
102
RTVSPost2010PropOp38
 70
     1
102
RTVSPost2010Prop39
140
1.0
102
RTVSPost2010PropOp39
 70
     1
102
RTVSPost2010Prop40
 90
        0
102
RTVSPost2010PropOp40
 70
     1
102
RTVSPost2010Prop41ColorIndex
 90
       18
102
RTVSPost2010Prop41ColorRGB
 90
        0
102
RTVSPost2010PropOp41
 70
     1
102
RTVSPost2010Prop42
 90
       50
102
RTVSPost2010PropOp42
 70
     1
102
RTVSPost2010Prop43
 90
        3
102
RTVSPost2010PropOp43
 70
     1
102
RTVSPost2010Prop44ColorIndex
 90
        5
102
RTVSPost2010Prop44ColorRGB
 90
      255
102
RTVSPost2010PropOp44
 70
     1
102
RTVSPost2010Prop45
280
     0
102
RTVSPost2010PropOp45
 70
     1
102
RTVSPost2010Prop46
 90
       50
102
RTVSPost2010PropOp46
 70
     1
102
RTVSPost2010Prop47
 90
       50
102
RTVSPost2010PropOp47
 70
     1
102
RTVSPost2010Prop48
 90
       50
102
RTVSPost2010PropOp48
 70
     1
102
RTVSPost2010Prop49
280
     0
102
RTVSPost2010PropOp49
 70
     1
102
RTVSPost2010Prop50
 90
       50
102
RTVSPost2010PropOp50
 70
     1
102
RTVSPost2010Prop51ColorIndex
 90
      256
102
RTVSPost2010Prop51ColorRGB
 90
-16777216
102
RTVSPost2010PropOp51
 70
     0
102
RTVSPost2010Prop52
140
1.0
102
RTVSPost2010PropOp52
 70
     0
102
RTVSPost2010Prop53
 90
        2
102
RTVSPost2010PropOp53
 70
     1
102
RTVSPost2010Prop54
  1
strokes_ogs.tif
102
RTVSPost2010PropOp54
 70
     1
102
RTVSPost2010Prop55
280
     0
102
RTVSPost2010PropOp55
 70
     1
102
RTVSPost2010Prop56
140
1.0
102
RTVSPost2010PropOp56
 70
     1
102
RTVSPost2010Prop57
140
1.0
102
RTVSPost2010PropOp57
 70
     1
102
RTVSPropertyOp0
 70
     1
102
RTVSPropertyOp1
 70
     1
102
RTVSPropertyOp2
 70
     1
102
RTVSPropertyOp3
 70
     1
102
RTVSPropertyOp4
 70
     1
102
RTVSPropertyOp5
 70
     1
102
RTVSPropertyOp6
 70
     1
102
RTVSPropertyOp7
 70
     1
102
RTVSPropertyOp8
 70
     1
102
RTVSPropertyOp9
 70
     1
102
RTVSPropertyOp10
 70
     1
102
RTVSPropertyOp11
 70
     1
102
RTVSPropertyOp12
 70
     1
102
RTVSPropertyOp13
 70
     1
102
RTVSPropertyOp14
 70
     1
102
RTVSPropertyOp15
 70
     1
102
RTVSPropertyOp16
 70
     1
102
RTVSPropertyOp17
 70
     1
102
RTVSPropertyOp18
 70
     1
102
RTVSPropertyOp19
 70
     1
102
RTVSPropertyOp20
 70
     1
102
RTVSPropertyOp21
 70
     1
102
RTVSPropertyOp22
 70
     1
102
RTVSPropertyOp23
 70
     1
102
RTVSPropertyOp24
 70
     1
102
RTVSPropertyOp25
 70
     1
102
RTVSPropertyOp26
 70
     1
102
RTVSPropertyOp27
 70
     1
102
RTVSPropertyOp28
 70
     1
102
RTVSPropertyOp29
 70
     1
102
RTVSPropertyOp30
 70
     1
102
RTVSPropertyOp31
 70
     1
102
RTVSPropertyOp32
 70
     1
102
RTVSPropertyOp33
 70
     1
102
RTVSPropertyOp34
 70
     1
102
RTVSPropertyOp35
 70
     1
102
RTVSPropertyOp36
 70
     1
102
RTVSPropertyOp37
 70
     1
102
RTVSPropertyOp38
 70
     1
102
RTVSPropertyOp39
 70
     1
102
RTVSPropertyOp40
 70
     1
102
RTVSPropertyOp41
 70
     1
102
RTVSPropertyOp42
 70
     1
102
RTVSPropertyOp43
 70
     1
102
RTVSPropertyOp44
 70
     1
102
RTVSPropertyOp45
 70
     1
102
RTVSPropertyOp46
 70
     1
102
RTVSPropertyOp47
 70
     1
102
RTVSPropertyOp48
 70
     1
102
RTVSPropertyOp49
 70
     1
102
RTVSPropertyOp50
 70
     1
102
RTVSPropertyOp51
 70
     0
102
RTVSPropertyOp52
 70
     0
102
RTVSPropertyOp53
 70
     1
102
RTVSPropertyOp54
 70
     1
102
RTVSPropertyOp55
 70
     1
102
RTVSPropertyOp56
 70
     1
102
RTVSPropertyOp57
 70
     1
102
RTVSPropertyOp58
 70
     1
102
RTVSPropertyOp59
 70
     1
102
RTVSPropertyOp60
 70
     1
102
RTVSPropertyOp61
 70
     1
102
RTVSPropertyOp62
 70
     1
  0
XRECORD
  5
162C
102
{ACAD_REACTORS
330
162B
102
}
330
162B
100
AcDbXrecord
280
     1
102
RTVSPost2010Prop28
280
     0
102
RTVSPost2010PropOp28
 70
     1
102
RTVSPost2010Prop29
280
     1
102
RTVSPost2010PropOp29
 70
     1
102
RTVSPost2010Prop30
280
     1
102
RTVSPost2010PropOp30
 70
     1
102
RTVSPost2010Prop31
280
     0
102
RTVSPost2010PropOp31
 70
     1
102
RTVSPost2010Prop32
280
     0
102
RTVSPost2010PropOp32
 70
     1
102
RTVSPost2010Prop33
280
     0
102
RTVSPost2010PropOp33
 70
     1
102
RTVSPost2010Prop34
280
     0
102
RTVSPost2010PropOp34
 70
     1
102
RTVSPost2010Prop35
280
     0
102
RTVSPost2010PropOp35
 70
     1
102
RTVSPost2010Prop36
280
     0
102
RTVSPost2010PropOp36
 70
     1
102
RTVSPost2010Prop37
 90
       50
102
RTVSPost2010PropOp37
 70
     1
102
RTVSPost2010Prop38
140
0.0
102
RTVSPost2010PropOp38
 70
     1
102
RTVSPost2010Prop39
140
1.0
102
RTVSPost2010PropOp39
 70
     1
102
RTVSPost2010Prop40
 90
        0
102
RTVSPost2010PropOp40
 70
     1
102
RTVSPost2010Prop41ColorIndex
 90
       18
102
RTVSPost2010Prop41ColorRGB
 90
        0
102
RTVSPost2010PropOp41
 70
     1
102
RTVSPost2010Prop42
 90
       50
102
RTVSPost2010PropOp42
 70
     1
102
RTVSPost2010Prop43
 90
        3
102
RTVSPost2010PropOp43
 70
     1
102
RTVSPost2010Prop44ColorIndex
 90
        5
102
RTVSPost2010Prop44ColorRGB
 90
      255
102
RTVSPost2010PropOp44
 70
     1
102
RTVSPost2010Prop45
280
     0
102
RTVSPost2010PropOp45
 70
     1
102
RTVSPost2010Prop46
 90
       50
102
RTVSPost2010PropOp46
 70
     1
102
RTVSPost2010Prop47
 90
       50
102
RTVSPost2010PropOp47
 70
     1
102
RTVSPost2010Prop48
 90
       50
102
RTVSPost2010PropOp48
 70
     1
102
RTVSPost2010Prop49
280
     0
102
RTVSPost2010PropOp49
 70
     1
102
RTVSPost2010Prop50
 90
       50
102
RTVSPost2010PropOp50
 70
     1
102
RTVSPost2010Prop51ColorIndex
 90
      256
102
RTVSPost2010Prop51ColorRGB
 90
-16777216
102
RTVSPost2010PropOp51
 70
     0
102
RTVSPost2010Prop52
140
1.0
102
RTVSPost2010PropOp52
 70
     0
102
RTVSPost2010Prop53
 90
        2
102
RTVSPost2010PropOp53
 70
     1
102
RTVSPost2010Prop54
  1
strokes_ogs.tif
102
RTVSPost2010PropOp54
 70
     1
102
RTVSPost2010Prop55
280
     0
102
RTVSPost2010PropOp55
 70
     1
102
RTVSPost2010Prop56
140
1.0
102
RTVSPost2010PropOp56
 70
     1
102
RTVSPost2010Prop57
140
1.0
102
RTVSPost2010PropOp57
 70
     1
102
RTVSPropertyOp0
 70
     1
102
RTVSPropertyOp1
 70
     1
102
RTVSPropertyOp2
 70
     1
102
RTVSPropertyOp3
 70
     1
102
RTVSPropertyOp4
 70
     1
102
RTVSPropertyOp5
 70
     1
102
RTVSPropertyOp6
 70
     1
102
RTVSPropertyOp7
 70
     1
102
RTVSPropertyOp8
 70
     1
102
RTVSPropertyOp9
 70
     1
102
RTVSPropertyOp10
 70
     1
102
RTVSPropertyOp11
 70
     1
102
RTVSPropertyOp12
 70
     1
102
RTVSPropertyOp13
 70
     1
102
RTVSPropertyOp14
 70
     1
102
RTVSPropertyOp15
 70
     1
102
RTVSPropertyOp16
 70
     1
102
RTVSPropertyOp17
 70
     1
102
RTVSPropertyOp18
 70
     1
102
RTVSPropertyOp19
 70
     1
102
RTVSPropertyOp20
 70
     1
102
RTVSPropertyOp21
 70
     1
102
RTVSPropertyOp22
 70
     1
102
RTVSPropertyOp23
 70
     1
102
RTVSPropertyOp24
 70
     1
102
RTVSPropertyOp25
 70
     1
102
RTVSPropertyOp26
 70
     1
102
RTVSPropertyOp27
 70
     1
102
RTVSPropertyOp28
 70
     1
102
RTVSPropertyOp29
 70
     1
102
RTVSPropertyOp30
 70
     1
102
RTVSPropertyOp31
 70
     1
102
RTVSPropertyOp32
 70
     1
102
RTVSPropertyOp33
 70
     1
102
RTVSPropertyOp34
 70
     1
102
RTVSPropertyOp35
 70
     1
102
RTVSPropertyOp36
 70
     1
102
RTVSPropertyOp37
 70
     1
102
RTVSPropertyOp38
 70
     1
102
RTVSPropertyOp39
 70
     1
102
RTVSPropertyOp40
 70
     1
102
RTVSPropertyOp41
 70
     1
102
RTVSPropertyOp42
 70
     1
102
RTVSPropertyOp43
 70
     1
102
RTVSPropertyOp44
 70
     1
102
RTVSPropertyOp45
 70
     1
102
RTVSPropertyOp46
 70
     1
102
RTVSPropertyOp47
 70
     1
102
RTVSPropertyOp48
 70
     1
102
RTVSPropertyOp49
 70
     1
102
RTVSPropertyOp50
 70
     1
102
RTVSPropertyOp51
 70
     0
102
RTVSPropertyOp52
 70
     0
102
RTVSPropertyOp53
 70
     1
102
RTVSPropertyOp54
 70
     1
102
RTVSPropertyOp55
 70
     1
102
RTVSPropertyOp56
 70
     1
102
RTVSPropertyOp57
 70
     1
102
RTVSPropertyOp58
 70
     1
102
RTVSPropertyOp59
 70
     1
102
RTVSPropertyOp60
 70
     1
102
RTVSPropertyOp61
 70
     1
102
RTVSPropertyOp62
 70
     1
  0
XRECORD
  5
162E
102
{ACAD_REACTORS
330
162D
102
}
330
162D
100
AcDbXrecord
280
     1
102
RTVSPost2010Prop28
280
     0
102
RTVSPost2010PropOp28
 70
     1
102
RTVSPost2010Prop29
280
     1
102
RTVSPost2010PropOp29
 70
     1
102
RTVSPost2010Prop30
280
     1
102
RTVSPost2010PropOp30
 70
     1
102
RTVSPost2010Prop31
280
     0
102
RTVSPost2010PropOp31
 70
     1
102
RTVSPost2010Prop32
280
     0
102
RTVSPost2010PropOp32
 70
     1
102
RTVSPost2010Prop33
280
     0
102
RTVSPost2010PropOp33
 70
     1
102
RTVSPost2010Prop34
280
     0
102
RTVSPost2010PropOp34
 70
     1
102
RTVSPost2010Prop35
280
     0
102
RTVSPost2010PropOp35
 70
     1
102
RTVSPost2010Prop36
280
     0
102
RTVSPost2010PropOp36
 70
     1
102
RTVSPost2010Prop37
 90
       50
102
RTVSPost2010PropOp37
 70
     1
102
RTVSPost2010Prop38
140
0.0
102
RTVSPost2010PropOp38
 70
     1
102
RTVSPost2010Prop39
140
1.0
102
RTVSPost2010PropOp39
 70
     1
102
RTVSPost2010Prop40
 90
        0
102
RTVSPost2010PropOp40
 70
     1
102
RTVSPost2010Prop41ColorIndex
 90
       18
102
RTVSPost2010Prop41ColorRGB
 90
        0
102
RTVSPost2010PropOp41
 70
     1
102
RTVSPost2010Prop42
 90
       50
102
RTVSPost2010PropOp42
 70
     1
102
RTVSPost2010Prop43
 90
        3
102
RTVSPost2010PropOp43
 70
     1
102
RTVSPost2010Prop44ColorIndex
 90
        5
102
RTVSPost2010Prop44ColorRGB
 90
      255
102
RTVSPost2010PropOp44
 70
     1
102
RTVSPost2010Prop45
280
     0
102
RTVSPost2010PropOp45
 70
     1
102
RTVSPost2010Prop46
 90
       50
102
RTVSPost2010PropOp46
 70
     1
102
RTVSPost2010Prop47
 90
       50
102
RTVSPost2010PropOp47
 70
     1
102
RTVSPost2010Prop48
 90
       50
102
RTVSPost2010PropOp48
 70
     1
102
RTVSPost2010Prop49
280
     0
102
RTVSPost2010PropOp49
 70
     1
102
RTVSPost2010Prop50
 90
       50
102
RTVSPost2010PropOp50
 70
     1
102
RTVSPost2010Prop51ColorIndex
 90
      256
102
RTVSPost2010Prop51ColorRGB
 90
-16777216
102
RTVSPost2010PropOp51
 70
     0
102
RTVSPost2010Prop52
140
1.0
102
RTVSPost2010PropOp52
 70
     0
102
RTVSPost2010Prop53
 90
        2
102
RTVSPost2010PropOp53
 70
     1
102
RTVSPost2010Prop54
  1
strokes_ogs.tif
102
RTVSPost2010PropOp54
 70
     1
102
RTVSPost2010Prop55
280
     0
102
RTVSPost2010PropOp55
 70
     1
102
RTVSPost2010Prop56
140
1.0
102
RTVSPost2010PropOp56
 70
     1
102
RTVSPost2010Prop57
140
1.0
102
RTVSPost2010PropOp57
 70
     1
102
RTVSPropertyOp0
 70
     1
102
RTVSPropertyOp1
 70
     1
102
RTVSPropertyOp2
 70
     1
102
RTVSPropertyOp3
 70
     1
102
RTVSPropertyOp4
 70
     1
102
RTVSPropertyOp5
 70
     1
102
RTVSPropertyOp6
 70
     1
102
RTVSPropertyOp7
 70
     1
102
RTVSPropertyOp8
 70
     1
102
RTVSPropertyOp9
 70
     1
102
RTVSPropertyOp10
 70
     1
102
RTVSPropertyOp11
 70
     1
102
RTVSPropertyOp12
 70
     1
102
RTVSPropertyOp13
 70
     1
102
RTVSPropertyOp14
 70
     1
102
RTVSPropertyOp15
 70
     1
102
RTVSPropertyOp16
 70
     1
102
RTVSPropertyOp17
 70
     1
102
RTVSPropertyOp18
 70
     1
102
RTVSPropertyOp19
 70
     1
102
RTVSPropertyOp20
 70
     1
102
RTVSPropertyOp21
 70
     1
102
RTVSPropertyOp22
 70
     1
102
RTVSPropertyOp23
 70
     1
102
RTVSPropertyOp24
 70
     1
102
RTVSPropertyOp25
 70
     1
102
RTVSPropertyOp26
 70
     1
102
RTVSPropertyOp27
 70
     1
102
RTVSPropertyOp28
 70
     1
102
RTVSPropertyOp29
 70
     1
102
RTVSPropertyOp30
 70
     1
102
RTVSPropertyOp31
 70
     1
102
RTVSPropertyOp32
 70
     1
102
RTVSPropertyOp33
 70
     1
102
RTVSPropertyOp34
 70
     1
102
RTVSPropertyOp35
 70
     1
102
RTVSPropertyOp36
 70
     1
102
RTVSPropertyOp37
 70
     1
102
RTVSPropertyOp38
 70
     1
102
RTVSPropertyOp39
 70
     1
102
RTVSPropertyOp40
 70
     1
102
RTVSPropertyOp41
 70
     1
102
RTVSPropertyOp42
 70
     1
102
RTVSPropertyOp43
 70
     1
102
RTVSPropertyOp44
 70
     1
102
RTVSPropertyOp45
 70
     1
102
RTVSPropertyOp46
 70
     1
102
RTVSPropertyOp47
 70
     1
102
RTVSPropertyOp48
 70
     1
102
RTVSPropertyOp49
 70
     1
102
RTVSPropertyOp50
 70
     1
102
RTVSPropertyOp51
 70
     0
102
RTVSPropertyOp52
 70
     0
102
RTVSPropertyOp53
 70
     1
102
RTVSPropertyOp54
 70
     1
102
RTVSPropertyOp55
 70
     1
102
RTVSPropertyOp56
 70
     1
102
RTVSPropertyOp57
 70
     1
102
RTVSPropertyOp58
 70
     1
102
RTVSPropertyOp59
 70
     1
102
RTVSPropertyOp60
 70
     1
102
RTVSPropertyOp61
 70
     1
102
RTVSPropertyOp62
 70
     1
  0
XRECORD
  5
1630
102
{ACAD_REACTORS
330
162F
102
}
330
162F
100
AcDbXrecord
280
     1
102
RTVSPost2010Prop28
280
     0
102
RTVSPost2010PropOp28
 70
     1
102
RTVSPost2010Prop29
280
     1
102
RTVSPost2010PropOp29
 70
     1
102
RTVSPost2010Prop30
280
     1
102
RTVSPost2010PropOp30
 70
     1
102
RTVSPost2010Prop31
280
     0
102
RTVSPost2010PropOp31
 70
     1
102
RTVSPost2010Prop32
280
     0
102
RTVSPost2010PropOp32
 70
     1
102
RTVSPost2010Prop33
280
     0
102
RTVSPost2010PropOp33
 70
     1
102
RTVSPost2010Prop34
280
     0
102
RTVSPost2010PropOp34
 70
     1
102
RTVSPost2010Prop35
280
     0
102
RTVSPost2010PropOp35
 70
     1
102
RTVSPost2010Prop36
280
     0
102
RTVSPost2010PropOp36
 70
     1
102
RTVSPost2010Prop37
 90
       50
102
RTVSPost2010PropOp37
 70
     1
102
RTVSPost2010Prop38
140
0.0
102
RTVSPost2010PropOp38
 70
     1
102
RTVSPost2010Prop39
140
1.0
102
RTVSPost2010PropOp39
 70
     1
102
RTVSPost2010Prop40
 90
        0
102
RTVSPost2010PropOp40
 70
     1
102
RTVSPost2010Prop41ColorIndex
 90
       18
102
RTVSPost2010Prop41ColorRGB
 90
        0
102
RTVSPost2010PropOp41
 70
     1
102
RTVSPost2010Prop42
 90
       50
102
RTVSPost2010PropOp42
 70
     1
102
RTVSPost2010Prop43
 90
        3
102
RTVSPost2010PropOp43
 70
     1
102
RTVSPost2010Prop44ColorIndex
 90
        5
102
RTVSPost2010Prop44ColorRGB
 90
      255
102
RTVSPost2010PropOp44
 70
     1
102
RTVSPost2010Prop45
280
     0
102
RTVSPost2010PropOp45
 70
     1
102
RTVSPost2010Prop46
 90
       50
102
RTVSPost2010PropOp46
 70
     1
102
RTVSPost2010Prop47
 90
       50
102
RTVSPost2010PropOp47
 70
     1
102
RTVSPost2010Prop48
 90
       50
102
RTVSPost2010PropOp48
 70
     1
102
RTVSPost2010Prop49
280
     0
102
RTVSPost2010PropOp49
 70
     1
102
RTVSPost2010Prop50
 90
       50
102
RTVSPost2010PropOp50
 70
     1
102
RTVSPost2010Prop51ColorIndex
 90
      256
102
RTVSPost2010Prop51ColorRGB
 90
-16777216
102
RTVSPost2010PropOp51
 70
     0
102
RTVSPost2010Prop52
140
1.0
102
RTVSPost2010PropOp52
 70
     0
102
RTVSPost2010Prop53
 90
        2
102
RTVSPost2010PropOp53
 70
     1
102
RTVSPost2010Prop54
  1
strokes_ogs.tif
102
RTVSPost2010PropOp54
 70
     1
102
RTVSPost2010Prop55
280
     0
102
RTVSPost2010PropOp55
 70
     1
102
RTVSPost2010Prop56
140
1.0
102
RTVSPost2010PropOp56
 70
     1
102
RTVSPost2010Prop57
140
1.0
102
RTVSPost2010PropOp57
 70
     1
102
RTVSPropertyOp0
 70
     1
102
RTVSPropertyOp1
 70
     1
102
RTVSPropertyOp2
 70
     1
102
RTVSPropertyOp3
 70
     1
102
RTVSPropertyOp4
 70
     1
102
RTVSPropertyOp5
 70
     1
102
RTVSPropertyOp6
 70
     1
102
RTVSPropertyOp7
 70
     1
102
RTVSPropertyOp8
 70
     1
102
RTVSPropertyOp9
 70
     1
102
RTVSPropertyOp10
 70
     1
102
RTVSPropertyOp11
 70
     1
102
RTVSPropertyOp12
 70
     1
102
RTVSPropertyOp13
 70
     1
102
RTVSPropertyOp14
 70
     1
102
RTVSPropertyOp15
 70
     1
102
RTVSPropertyOp16
 70
     1
102
RTVSPropertyOp17
 70
     1
102
RTVSPropertyOp18
 70
     1
102
RTVSPropertyOp19
 70
     1
102
RTVSPropertyOp20
 70
     1
102
RTVSPropertyOp21
 70
     1
102
RTVSPropertyOp22
 70
     1
102
RTVSPropertyOp23
 70
     1
102
RTVSPropertyOp24
 70
     1
102
RTVSPropertyOp25
 70
     1
102
RTVSPropertyOp26
 70
     1
102
RTVSPropertyOp27
 70
     1
102
RTVSPropertyOp28
 70
     1
102
RTVSPropertyOp29
 70
     1
102
RTVSPropertyOp30
 70
     1
102
RTVSPropertyOp31
 70
     1
102
RTVSPropertyOp32
 70
     1
102
RTVSPropertyOp33
 70
     1
102
RTVSPropertyOp34
 70
     1
102
RTVSPropertyOp35
 70
     1
102
RTVSPropertyOp36
 70
     1
102
RTVSPropertyOp37
 70
     1
102
RTVSPropertyOp38
 70
     1
102
RTVSPropertyOp39
 70
     1
102
RTVSPropertyOp40
 70
     1
102
RTVSPropertyOp41
 70
     1
102
RTVSPropertyOp42
 70
     1
102
RTVSPropertyOp43
 70
     1
102
RTVSPropertyOp44
 70
     1
102
RTVSPropertyOp45
 70
     1
102
RTVSPropertyOp46
 70
     1
102
RTVSPropertyOp47
 70
     1
102
RTVSPropertyOp48
 70
     1
102
RTVSPropertyOp49
 70
     1
102
RTVSPropertyOp50
 70
     1
102
RTVSPropertyOp51
 70
     0
102
RTVSPropertyOp52
 70
     0
102
RTVSPropertyOp53
 70
     1
102
RTVSPropertyOp54
 70
     1
102
RTVSPropertyOp55
 70
     1
102
RTVSPropertyOp56
 70
     1
102
RTVSPropertyOp57
 70
     1
102
RTVSPropertyOp58
 70
     1
102
RTVSPropertyOp59
 70
     1
102
RTVSPropertyOp60
 70
     1
102
RTVSPropertyOp61
 70
     1
102
RTVSPropertyOp62
 70
     1
  0
XRECORD
  5
1638
102
{ACAD_REACTORS
330
1637
102
}
330
1637
100
AcDbXrecord
280
     1
102
RTVSPost2010Prop28
280
     0
102
RTVSPost2010PropOp28
 70
     1
102
RTVSPost2010Prop29
280
     1
102
RTVSPost2010PropOp29
 70
     1
102
RTVSPost2010Prop30
280
     1
102
RTVSPost2010PropOp30
 70
     1
102
RTVSPost2010Prop31
280
     0
102
RTVSPost2010PropOp31
 70
     1
102
RTVSPost2010Prop32
280
     0
102
RTVSPost2010PropOp32
 70
     1
102
RTVSPost2010Prop33
280
     0
102
RTVSPost2010PropOp33
 70
     1
102
RTVSPost2010Prop34
280
     0
102
RTVSPost2010PropOp34
 70
     1
102
RTVSPost2010Prop35
280
     0
102
RTVSPost2010PropOp35
 70
     1
102
RTVSPost2010Prop36
280
     0
102
RTVSPost2010PropOp36
 70
     1
102
RTVSPost2010Prop37
 90
       50
102
RTVSPost2010PropOp37
 70
     1
102
RTVSPost2010Prop38
140
0.0
102
RTVSPost2010PropOp38
 70
     1
102
RTVSPost2010Prop39
140
1.0
102
RTVSPost2010PropOp39
 70
     1
102
RTVSPost2010Prop40
 90
        0
102
RTVSPost2010PropOp40
 70
     1
102
RTVSPost2010Prop41ColorIndex
 90
       18
102
RTVSPost2010Prop41ColorRGB
 90
        0
102
RTVSPost2010PropOp41
 70
     1
102
RTVSPost2010Prop42
 90
       50
102
RTVSPost2010PropOp42
 70
     1
102
RTVSPost2010Prop43
 90
        3
102
RTVSPost2010PropOp43
 70
     1
102
RTVSPost2010Prop44ColorIndex
 90
        5
102
RTVSPost2010Prop44ColorRGB
 90
      255
102
RTVSPost2010PropOp44
 70
     1
102
RTVSPost2010Prop45
280
     0
102
RTVSPost2010PropOp45
 70
     1
102
RTVSPost2010Prop46
 90
       50
102
RTVSPost2010PropOp46
 70
     1
102
RTVSPost2010Prop47
 90
       50
102
RTVSPost2010PropOp47
 70
     1
102
RTVSPost2010Prop48
 90
       50
102
RTVSPost2010PropOp48
 70
     1
102
RTVSPost2010Prop49
280
     0
102
RTVSPost2010PropOp49
 70
     1
102
RTVSPost2010Prop50
 90
       50
102
RTVSPost2010PropOp50
 70
     1
102
RTVSPost2010Prop51ColorIndex
 90
      256
102
RTVSPost2010Prop51ColorRGB
 90
-16777216
102
RTVSPost2010PropOp51
 70
     0
102
RTVSPost2010Prop52
140
1.0
102
RTVSPost2010PropOp52
 70
     0
102
RTVSPost2010Prop53
 90
        2
102
RTVSPost2010PropOp53
 70
     1
102
RTVSPost2010Prop54
  1
strokes_ogs.tif
102
RTVSPost2010PropOp54
 70
     1
102
RTVSPost2010Prop55
280
     0
102
RTVSPost2010PropOp55
 70
     1
102
RTVSPost2010Prop56
140
1.0
102
RTVSPost2010PropOp56
 70
     1
102
RTVSPost2010Prop57
140
1.0
102
RTVSPost2010PropOp57
 70
     1
102
RTVSPropertyOp0
 70
     1
102
RTVSPropertyOp1
 70
     1
102
RTVSPropertyOp2
 70
     1
102
RTVSPropertyOp3
 70
     1
102
RTVSPropertyOp4
 70
     1
102
RTVSPropertyOp5
 70
     1
102
RTVSPropertyOp6
 70
     1
102
RTVSPropertyOp7
 70
     1
102
RTVSPropertyOp8
 70
     1
102
RTVSPropertyOp9
 70
     1
102
RTVSPropertyOp10
 70
     1
102
RTVSPropertyOp11
 70
     1
102
RTVSPropertyOp12
 70
     1
102
RTVSPropertyOp13
 70
     1
102
RTVSPropertyOp14
 70
     1
102
RTVSPropertyOp15
 70
     1
102
RTVSPropertyOp16
 70
     1
102
RTVSPropertyOp17
 70
     1
102
RTVSPropertyOp18
 70
     1
102
RTVSPropertyOp19
 70
     1
102
RTVSPropertyOp20
 70
     1
102
RTVSPropertyOp21
 70
     1
102
RTVSPropertyOp22
 70
     1
102
RTVSPropertyOp23
 70
     1
102
RTVSPropertyOp24
 70
     1
102
RTVSPropertyOp25
 70
     1
102
RTVSPropertyOp26
 70
     1
102
RTVSPropertyOp27
 70
     1
102
RTVSPropertyOp28
 70
     1
102
RTVSPropertyOp29
 70
     1
102
RTVSPropertyOp30
 70
     1
102
RTVSPropertyOp31
 70
     1
102
RTVSPropertyOp32
 70
     1
102
RTVSPropertyOp33
 70
     1
102
RTVSPropertyOp34
 70
     1
102
RTVSPropertyOp35
 70
     1
102
RTVSPropertyOp36
 70
     1
102
RTVSPropertyOp37
 70
     1
102
RTVSPropertyOp38
 70
     1
102
RTVSPropertyOp39
 70
     1
102
RTVSPropertyOp40
 70
     1
102
RTVSPropertyOp41
 70
     1
102
RTVSPropertyOp42
 70
     1
102
RTVSPropertyOp43
 70
     1
102
RTVSPropertyOp44
 70
     1
102
RTVSPropertyOp45
 70
     1
102
RTVSPropertyOp46
 70
     1
102
RTVSPropertyOp47
 70
     1
102
RTVSPropertyOp48
 70
     1
102
RTVSPropertyOp49
 70
     1
102
RTVSPropertyOp50
 70
     1
102
RTVSPropertyOp51
 70
     0
102
RTVSPropertyOp52
 70
     0
102
RTVSPropertyOp53
 70
     1
102
RTVSPropertyOp54
 70
     1
102
RTVSPropertyOp55
 70
     1
102
RTVSPropertyOp56
 70
     1
102
RTVSPropertyOp57
 70
     1
102
RTVSPropertyOp58
 70
     1
102
RTVSPropertyOp59
 70
     1
102
RTVSPropertyOp60
 70
     1
102
RTVSPropertyOp61
 70
     1
102
RTVSPropertyOp62
 70
     1
  0
XRECORD
  5
1654
102
{ACAD_REACTORS
330
1653
102
}
330
1653
100
AcDbXrecord
280
     1
102
RTVSPost2010Prop28
280
     0
102
RTVSPost2010PropOp28
 70
     1
102
RTVSPost2010Prop29
280
     1
102
RTVSPost2010PropOp29
 70
     1
102
RTVSPost2010Prop30
280
     1
102
RTVSPost2010PropOp30
 70
     1
102
RTVSPost2010Prop31
280
     0
102
RTVSPost2010PropOp31
 70
     1
102
RTVSPost2010Prop32
280
     0
102
RTVSPost2010PropOp32
 70
     1
102
RTVSPost2010Prop33
280
     0
102
RTVSPost2010PropOp33
 70
     1
102
RTVSPost2010Prop34
280
     0
102
RTVSPost2010PropOp34
 70
     1
102
RTVSPost2010Prop35
280
     0
102
RTVSPost2010PropOp35
 70
     1
102
RTVSPost2010Prop36
280
     0
102
RTVSPost2010PropOp36
 70
     1
102
RTVSPost2010Prop37
 90
       50
102
RTVSPost2010PropOp37
 70
     0
102
RTVSPost2010Prop38
140
0.0
102
RTVSPost2010PropOp38
 70
     0
102
RTVSPost2010Prop39
140
1.0
102
RTVSPost2010PropOp39
 70
     0
102
RTVSPost2010Prop40
 90
        0
102
RTVSPost2010PropOp40
 70
     0
102
RTVSPost2010Prop41ColorIndex
 90
       18
102
RTVSPost2010Prop41ColorRGB
 90
        0
102
RTVSPost2010PropOp41
 70
     0
102
RTVSPost2010Prop42
 90
       50
102
RTVSPost2010PropOp42
 70
     0
102
RTVSPost2010Prop43
 90
        3
102
RTVSPost2010PropOp43
 70
     0
102
RTVSPost2010Prop44ColorIndex
 90
        5
102
RTVSPost2010Prop44ColorRGB
 90
      255
102
RTVSPost2010PropOp44
 70
     0
102
RTVSPost2010Prop45
280
     0
102
RTVSPost2010PropOp45
 70
     1
102
RTVSPost2010Prop46
 90
       50
102
RTVSPost2010PropOp46
 70
     0
102
RTVSPost2010Prop47
 90
       50
102
RTVSPost2010PropOp47
 70
     0
102
RTVSPost2010Prop48
 90
       50
102
RTVSPost2010PropOp48
 70
     0
102
RTVSPost2010Prop49
280
     0
102
RTVSPost2010PropOp49
 70
     1
102
RTVSPost2010Prop50
 90
       50
102
RTVSPost2010PropOp50
 70
     0
102
RTVSPost2010Prop51ColorIndex
 90
      256
102
RTVSPost2010Prop51ColorRGB
 90
-16777216
102
RTVSPost2010PropOp51
 70
     0
102
RTVSPost2010Prop52
140
1.0
102
RTVSPost2010PropOp52
 70
     0
102
RTVSPost2010Prop53
 90
        2
102
RTVSPost2010PropOp53
 70
     0
102
RTVSPost2010Prop54
  1
strokes_ogs.tif
102
RTVSPost2010PropOp54
 70
     0
102
RTVSPost2010Prop55
280
     0
102
RTVSPost2010PropOp55
 70
     1
102
RTVSPost2010Prop56
140
1.0
102
RTVSPost2010PropOp56
 70
     0
102
RTVSPost2010Prop57
140
1.0
102
RTVSPost2010PropOp57
 70
     0
102
RTVSPropertyOp0
 70
     0
102
RTVSPropertyOp1
 70
     0
102
RTVSPropertyOp2
 70
     0
102
RTVSPropertyOp3
 70
     0
102
RTVSPropertyOp4
 70
     0
102
RTVSPropertyOp5
 70
     0
102
RTVSPropertyOp6
 70
     0
102
RTVSPropertyOp7
 70
     0
102
RTVSPropertyOp8
 70
     0
102
RTVSPropertyOp9
 70
     0
102
RTVSPropertyOp10
 70
     0
102
RTVSPropertyOp11
 70
     0
102
RTVSPropertyOp12
 70
     0
102
RTVSPropertyOp13
 70
     0
102
RTVSPropertyOp14
 70
     2
102
RTVSPropertyOp15
 70
     0
102
RTVSPropertyOp16
 70
     0
102
RTVSPropertyOp17
 70
     0
102
RTVSPropertyOp18
 70
     0
102
RTVSPropertyOp19
 70
     0
102
RTVSPropertyOp20
 70
     0
102
RTVSPropertyOp21
 70
     0
102
RTVSPropertyOp22
 70
     0
102
RTVSPropertyOp23
 70
     0
102
RTVSPropertyOp24
 70
     0
102
RTVSPropertyOp25
 70
     0
102
RTVSPropertyOp26
 70
     0
102
RTVSPropertyOp27
 70
     0
102
RTVSPropertyOp28
 70
     1
102
RTVSPropertyOp29
 70
     1
102
RTVSPropertyOp30
 70
     1
102
RTVSPropertyOp31
 70
     1
102
RTVSPropertyOp32
 70
     1
102
RTVSPropertyOp33
 70
     1
102
RTVSPropertyOp34
 70
     1
102
RTVSPropertyOp35
 70
     1
102
RTVSPropertyOp36
 70
     1
102
RTVSPropertyOp37
 70
     0
102
RTVSPropertyOp38
 70
     0
102
RTVSPropertyOp39
 70
     0
102
RTVSPropertyOp40
 70
     0
102
RTVSPropertyOp41
 70
     0
102
RTVSPropertyOp42
 70
     0
102
RTVSPropertyOp43
 70
     0
102
RTVSPropertyOp44
 70
     0
102
RTVSPropertyOp45
 70
     1
102
RTVSPropertyOp46
 70
     0
102
RTVSPropertyOp47
 70
     0
102
RTVSPropertyOp48
 70
     0
102
RTVSPropertyOp49
 70
     1
102
RTVSPropertyOp50
 70
     0
102
RTVSPropertyOp51
 70
     0
102
RTVSPropertyOp52
 70
     0
102
RTVSPropertyOp53
 70
     0
102
RTVSPropertyOp54
 70
     0
102
RTVSPropertyOp55
 70
     1
102
RTVSPropertyOp56
 70
     0
102
RTVSPropertyOp57
 70
     0
102
RTVSPropertyOp58
 70
     0
102
RTVSPropertyOp59
 70
     0
102
RTVSPropertyOp60
 70
     0
102
RTVSPropertyOp61
 70
     0
102
RTVSPropertyOp62
 70
     0
  0
XRECORD
  5
1644
102
{ACAD_REACTORS
330
1643
102
}
330
1643
100
AcDbXrecord
280
     1
102
RTVSPost2010Prop28
280
     0
102
RTVSPost2010PropOp28
 70
     1
102
RTVSPost2010Prop29
280
     1
102
RTVSPost2010PropOp29
 70
     1
102
RTVSPost2010Prop30
280
     1
102
RTVSPost2010PropOp30
 70
     1
102
RTVSPost2010Prop31
280
     0
102
RTVSPost2010PropOp31
 70
     1
102
RTVSPost2010Prop32
280
     0
102
RTVSPost2010PropOp32
 70
     1
102
RTVSPost2010Prop33
280
     0
102
RTVSPost2010PropOp33
 70
     1
102
RTVSPost2010Prop34
280
     0
102
RTVSPost2010PropOp34
 70
     1
102
RTVSPost2010Prop35
280
     0
102
RTVSPost2010PropOp35
 70
     1
102
RTVSPost2010Prop36
280
     0
102
RTVSPost2010PropOp36
 70
     1
102
RTVSPost2010Prop37
 90
       50
102
RTVSPost2010PropOp37
 70
     1
102
RTVSPost2010Prop38
140
0.0
102
RTVSPost2010PropOp38
 70
     1
102
RTVSPost2010Prop39
140
1.0
102
RTVSPost2010PropOp39
 70
     1
102
RTVSPost2010Prop40
 90
        0
102
RTVSPost2010PropOp40
 70
     1
102
RTVSPost2010Prop41ColorIndex
 90
       18
102
RTVSPost2010Prop41ColorRGB
 90
        0
102
RTVSPost2010PropOp41
 70
     1
102
RTVSPost2010Prop42
 90
       50
102
RTVSPost2010PropOp42
 70
     1
102
RTVSPost2010Prop43
 90
        3
102
RTVSPost2010PropOp43
 70
     1
102
RTVSPost2010Prop44ColorIndex
 90
        5
102
RTVSPost2010Prop44ColorRGB
 90
      255
102
RTVSPost2010PropOp44
 70
     1
102
RTVSPost2010Prop45
280
     0
102
RTVSPost2010PropOp45
 70
     1
102
RTVSPost2010Prop46
 90
       50
102
RTVSPost2010PropOp46
 70
     1
102
RTVSPost2010Prop47
 90
       50
102
RTVSPost2010PropOp47
 70
     1
102
RTVSPost2010Prop48
 90
       50
102
RTVSPost2010PropOp48
 70
     1
102
RTVSPost2010Prop49
280
     0
102
RTVSPost2010PropOp49
 70
     1
102
RTVSPost2010Prop50
 90
       50
102
RTVSPost2010PropOp50
 70
     1
102
RTVSPost2010Prop51ColorIndex
 90
      256
102
RTVSPost2010Prop51ColorRGB
 90
-16777216
102
RTVSPost2010PropOp51
 70
     0
102
RTVSPost2010Prop52
140
1.0
102
RTVSPost2010PropOp52
 70
     0
102
RTVSPost2010Prop53
 90
        2
102
RTVSPost2010PropOp53
 70
     1
102
RTVSPost2010Prop54
  1
strokes_ogs.tif
102
RTVSPost2010PropOp54
 70
     1
102
RTVSPost2010Prop55
280
     0
102
RTVSPost2010PropOp55
 70
     1
102
RTVSPost2010Prop56
140
1.0
102
RTVSPost2010PropOp56
 70
     1
102
RTVSPost2010Prop57
140
1.0
102
RTVSPost2010PropOp57
 70
     1
102
RTVSPropertyOp0
 70
     1
102
RTVSPropertyOp1
 70
     1
102
RTVSPropertyOp2
 70
     1
102
RTVSPropertyOp3
 70
     1
102
RTVSPropertyOp4
 70
     1
102
RTVSPropertyOp5
 70
     1
102
RTVSPropertyOp6
 70
     1
102
RTVSPropertyOp7
 70
     1
102
RTVSPropertyOp8
 70
     1
102
RTVSPropertyOp9
 70
     1
102
RTVSPropertyOp10
 70
     1
102
RTVSPropertyOp11
 70
     1
102
RTVSPropertyOp12
 70
     1
102
RTVSPropertyOp13
 70
     1
102
RTVSPropertyOp14
 70
     1
102
RTVSPropertyOp15
 70
     1
102
RTVSPropertyOp16
 70
     1
102
RTVSPropertyOp17
 70
     1
102
RTVSPropertyOp18
 70
     1
102
RTVSPropertyOp19
 70
     1
102
RTVSPropertyOp20
 70
     1
102
RTVSPropertyOp21
 70
     1
102
RTVSPropertyOp22
 70
     1
102
RTVSPropertyOp23
 70
     1
102
RTVSPropertyOp24
 70
     1
102
RTVSPropertyOp25
 70
     1
102
RTVSPropertyOp26
 70
     1
102
RTVSPropertyOp27
 70
     1
102
RTVSPropertyOp28
 70
     1
102
RTVSPropertyOp29
 70
     1
102
RTVSPropertyOp30
 70
     1
102
RTVSPropertyOp31
 70
     1
102
RTVSPropertyOp32
 70
     1
102
RTVSPropertyOp33
 70
     1
102
RTVSPropertyOp34
 70
     1
102
RTVSPropertyOp35
 70
     1
102
RTVSPropertyOp36
 70
     1
102
RTVSPropertyOp37
 70
     1
102
RTVSPropertyOp38
 70
     1
102
RTVSPropertyOp39
 70
     1
102
RTVSPropertyOp40
 70
     1
102
RTVSPropertyOp41
 70
     1
102
RTVSPropertyOp42
 70
     1
102
RTVSPropertyOp43
 70
     1
102
RTVSPropertyOp44
 70
     1
102
RTVSPropertyOp45
 70
     1
102
RTVSPropertyOp46
 70
     1
102
RTVSPropertyOp47
 70
     1
102
RTVSPropertyOp48
 70
     1
102
RTVSPropertyOp49
 70
     1
102
RTVSPropertyOp50
 70
     1
102
RTVSPropertyOp51
 70
     0
102
RTVSPropertyOp52
 70
     0
102
RTVSPropertyOp53
 70
     1
102
RTVSPropertyOp54
 70
     1
102
RTVSPropertyOp55
 70
     1
102
RTVSPropertyOp56
 70
     1
102
RTVSPropertyOp57
 70
     1
102
RTVSPropertyOp58
 70
     1
102
RTVSPropertyOp59
 70
     1
102
RTVSPropertyOp60
 70
     1
102
RTVSPropertyOp61
 70
     1
102
RTVSPropertyOp62
 70
     1
  0
XRECORD
  5
1656
102
{ACAD_REACTORS
330
1655
102
}
330
1655
100
AcDbXrecord
280
     1
102
RTVSPost2010Prop28
280
     0
102
RTVSPost2010PropOp28
 70
     1
102
RTVSPost2010Prop29
280
     1
102
RTVSPost2010PropOp29
 70
     1
102
RTVSPost2010Prop30
280
     1
102
RTVSPost2010PropOp30
 70
     1
102
RTVSPost2010Prop31
280
     0
102
RTVSPost2010PropOp31
 70
     1
102
RTVSPost2010Prop32
280
     0
102
RTVSPost2010PropOp32
 70
     1
102
RTVSPost2010Prop33
280
     0
102
RTVSPost2010PropOp33
 70
     1
102
RTVSPost2010Prop34
280
     0
102
RTVSPost2010PropOp34
 70
     1
102
RTVSPost2010Prop35
280
     0
102
RTVSPost2010PropOp35
 70
     1
102
RTVSPost2010Prop36
280
     0
102
RTVSPost2010PropOp36
 70
     1
102
RTVSPost2010Prop37
 90
       50
102
RTVSPost2010PropOp37
 70
     0
102
RTVSPost2010Prop38
140
0.0
102
RTVSPost2010PropOp38
 70
     0
102
RTVSPost2010Prop39
140
1.0
102
RTVSPost2010PropOp39
 70
     0
102
RTVSPost2010Prop40
 90
        0
102
RTVSPost2010PropOp40
 70
     0
102
RTVSPost2010Prop41ColorIndex
 90
       18
102
RTVSPost2010Prop41ColorRGB
 90
        0
102
RTVSPost2010PropOp41
 70
     0
102
RTVSPost2010Prop42
 90
       50
102
RTVSPost2010PropOp42
 70
     0
102
RTVSPost2010Prop43
 90
        3
102
RTVSPost2010PropOp43
 70
     0
102
RTVSPost2010Prop44ColorIndex
 90
        5
102
RTVSPost2010Prop44ColorRGB
 90
      255
102
RTVSPost2010PropOp44
 70
     0
102
RTVSPost2010Prop45
280
     0
102
RTVSPost2010PropOp45
 70
     1
102
RTVSPost2010Prop46
 90
       50
102
RTVSPost2010PropOp46
 70
     0
102
RTVSPost2010Prop47
 90
       50
102
RTVSPost2010PropOp47
 70
     0
102
RTVSPost2010Prop48
 90
       50
102
RTVSPost2010PropOp48
 70
     0
102
RTVSPost2010Prop49
280
     0
102
RTVSPost2010PropOp49
 70
     1
102
RTVSPost2010Prop50
 90
       50
102
RTVSPost2010PropOp50
 70
     0
102
RTVSPost2010Prop51ColorIndex
 90
      256
102
RTVSPost2010Prop51ColorRGB
 90
-16777216
102
RTVSPost2010PropOp51
 70
     0
102
RTVSPost2010Prop52
140
1.0
102
RTVSPost2010PropOp52
 70
     0
102
RTVSPost2010Prop53
 90
        2
102
RTVSPost2010PropOp53
 70
     0
102
RTVSPost2010Prop54
  1
strokes_ogs.tif
102
RTVSPost2010PropOp54
 70
     0
102
RTVSPost2010Prop55
280
     0
102
RTVSPost2010PropOp55
 70
     1
102
RTVSPost2010Prop56
140
1.0
102
RTVSPost2010PropOp56
 70
     0
102
RTVSPost2010Prop57
140
1.0
102
RTVSPost2010PropOp57
 70
     0
102
RTVSPropertyOp0
 70
     0
102
RTVSPropertyOp1
 70
     0
102
RTVSPropertyOp2
 70
     0
102
RTVSPropertyOp3
 70
     0
102
RTVSPropertyOp4
 70
     0
102
RTVSPropertyOp5
 70
     0
102
RTVSPropertyOp6
 70
     0
102
RTVSPropertyOp7
 70
     0
102
RTVSPropertyOp8
 70
     0
102
RTVSPropertyOp9
 70
     0
102
RTVSPropertyOp10
 70
     0
102
RTVSPropertyOp11
 70
     0
102
RTVSPropertyOp12
 70
     0
102
RTVSPropertyOp13
 70
     0
102
RTVSPropertyOp14
 70
     2
102
RTVSPropertyOp15
 70
     0
102
RTVSPropertyOp16
 70
     0
102
RTVSPropertyOp17
 70
     0
102
RTVSPropertyOp18
 70
     0
102
RTVSPropertyOp19
 70
     0
102
RTVSPropertyOp20
 70
     0
102
RTVSPropertyOp21
 70
     0
102
RTVSPropertyOp22
 70
     0
102
RTVSPropertyOp23
 70
     0
102
RTVSPropertyOp24
 70
     0
102
RTVSPropertyOp25
 70
     0
102
RTVSPropertyOp26
 70
     0
102
RTVSPropertyOp27
 70
     0
102
RTVSPropertyOp28
 70
     1
102
RTVSPropertyOp29
 70
     1
102
RTVSPropertyOp30
 70
     1
102
RTVSPropertyOp31
 70
     1
102
RTVSPropertyOp32
 70
     1
102
RTVSPropertyOp33
 70
     1
102
RTVSPropertyOp34
 70
     1
102
RTVSPropertyOp35
 70
     1
102
RTVSPropertyOp36
 70
     1
102
RTVSPropertyOp37
 70
     0
102
RTVSPropertyOp38
 70
     0
102
RTVSPropertyOp39
 70
     0
102
RTVSPropertyOp40
 70
     0
102
RTVSPropertyOp41
 70
     0
102
RTVSPropertyOp42
 70
     0
102
RTVSPropertyOp43
 70
     0
102
RTVSPropertyOp44
 70
     0
102
RTVSPropertyOp45
 70
     1
102
RTVSPropertyOp46
 70
     0
102
RTVSPropertyOp47
 70
     0
102
RTVSPropertyOp48
 70
     0
102
RTVSPropertyOp49
 70
     1
102
RTVSPropertyOp50
 70
     0
102
RTVSPropertyOp51
 70
     0
102
RTVSPropertyOp52
 70
     0
102
RTVSPropertyOp53
 70
     0
102
RTVSPropertyOp54
 70
     0
102
RTVSPropertyOp55
 70
     1
102
RTVSPropertyOp56
 70
     0
102
RTVSPropertyOp57
 70
     0
102
RTVSPropertyOp58
 70
     0
102
RTVSPropertyOp59
 70
     0
102
RTVSPropertyOp60
 70
     0
102
RTVSPropertyOp61
 70
     0
102
RTVSPropertyOp62
 70
     0
  0
XRECORD
  5
163C
102
{ACAD_REACTORS
330
163B
102
}
330
163B
100
AcDbXrecord
280
     1
102
RTVSPost2010Prop28
280
     0
102
RTVSPost2010PropOp28
 70
     1
102
RTVSPost2010Prop29
280
     1
102
RTVSPost2010PropOp29
 70
     1
102
RTVSPost2010Prop30
280
     1
102
RTVSPost2010PropOp30
 70
     1
102
RTVSPost2010Prop31
280
     0
102
RTVSPost2010PropOp31
 70
     1
102
RTVSPost2010Prop32
280
     0
102
RTVSPost2010PropOp32
 70
     1
102
RTVSPost2010Prop33
280
     0
102
RTVSPost2010PropOp33
 70
     1
102
RTVSPost2010Prop34
280
     0
102
RTVSPost2010PropOp34
 70
     1
102
RTVSPost2010Prop35
280
     0
102
RTVSPost2010PropOp35
 70
     1
102
RTVSPost2010Prop36
280
     0
102
RTVSPost2010PropOp36
 70
     1
102
RTVSPost2010Prop37
 90
       50
102
RTVSPost2010PropOp37
 70
     1
102
RTVSPost2010Prop38
140
0.0
102
RTVSPost2010PropOp38
 70
     1
102
RTVSPost2010Prop39
140
1.0
102
RTVSPost2010PropOp39
 70
     1
102
RTVSPost2010Prop40
 90
        0
102
RTVSPost2010PropOp40
 70
     1
102
RTVSPost2010Prop41ColorIndex
 90
       18
102
RTVSPost2010Prop41ColorRGB
 90
        0
102
RTVSPost2010PropOp41
 70
     1
102
RTVSPost2010Prop42
 90
       50
102
RTVSPost2010PropOp42
 70
     1
102
RTVSPost2010Prop43
 90
        3
102
RTVSPost2010PropOp43
 70
     1
102
RTVSPost2010Prop44ColorIndex
 90
        5
102
RTVSPost2010Prop44ColorRGB
 90
      255
102
RTVSPost2010PropOp44
 70
     1
102
RTVSPost2010Prop45
280
     0
102
RTVSPost2010PropOp45
 70
     1
102
RTVSPost2010Prop46
 90
       50
102
RTVSPost2010PropOp46
 70
     1
102
RTVSPost2010Prop47
 90
       50
102
RTVSPost2010PropOp47
 70
     1
102
RTVSPost2010Prop48
 90
       50
102
RTVSPost2010PropOp48
 70
     1
102
RTVSPost2010Prop49
280
     0
102
RTVSPost2010PropOp49
 70
     1
102
RTVSPost2010Prop50
 90
       50
102
RTVSPost2010PropOp50
 70
     1
102
RTVSPost2010Prop51ColorIndex
 90
      256
102
RTVSPost2010Prop51ColorRGB
 90
-16777216
102
RTVSPost2010PropOp51
 70
     0
102
RTVSPost2010Prop52
140
1.0
102
RTVSPost2010PropOp52
 70
     0
102
RTVSPost2010Prop53
 90
        2
102
RTVSPost2010PropOp53
 70
     1
102
RTVSPost2010Prop54
  1
strokes_ogs.tif
102
RTVSPost2010PropOp54
 70
     1
102
RTVSPost2010Prop55
280
     0
102
RTVSPost2010PropOp55
 70
     1
102
RTVSPost2010Prop56
140
1.0
102
RTVSPost2010PropOp56
 70
     1
102
RTVSPost2010Prop57
140
1.0
102
RTVSPost2010PropOp57
 70
     1
102
RTVSPropertyOp0
 70
     1
102
RTVSPropertyOp1
 70
     1
102
RTVSPropertyOp2
 70
     1
102
RTVSPropertyOp3
 70
     1
102
RTVSPropertyOp4
 70
     1
102
RTVSPropertyOp5
 70
     1
102
RTVSPropertyOp6
 70
     1
102
RTVSPropertyOp7
 70
     1
102
RTVSPropertyOp8
 70
     1
102
RTVSPropertyOp9
 70
     1
102
RTVSPropertyOp10
 70
     1
102
RTVSPropertyOp11
 70
     1
102
RTVSPropertyOp12
 70
     1
102
RTVSPropertyOp13
 70
     1
102
RTVSPropertyOp14
 70
     1
102
RTVSPropertyOp15
 70
     1
102
RTVSPropertyOp16
 70
     1
102
RTVSPropertyOp17
 70
     1
102
RTVSPropertyOp18
 70
     1
102
RTVSPropertyOp19
 70
     1
102
RTVSPropertyOp20
 70
     1
102
RTVSPropertyOp21
 70
     1
102
RTVSPropertyOp22
 70
     1
102
RTVSPropertyOp23
 70
     1
102
RTVSPropertyOp24
 70
     1
102
RTVSPropertyOp25
 70
     1
102
RTVSPropertyOp26
 70
     1
102
RTVSPropertyOp27
 70
     1
102
RTVSPropertyOp28
 70
     1
102
RTVSPropertyOp29
 70
     1
102
RTVSPropertyOp30
 70
     1
102
RTVSPropertyOp31
 70
     1
102
RTVSPropertyOp32
 70
     1
102
RTVSPropertyOp33
 70
     1
102
RTVSPropertyOp34
 70
     1
102
RTVSPropertyOp35
 70
     1
102
RTVSPropertyOp36
 70
     1
102
RTVSPropertyOp37
 70
     1
102
RTVSPropertyOp38
 70
     1
102
RTVSPropertyOp39
 70
     1
102
RTVSPropertyOp40
 70
     1
102
RTVSPropertyOp41
 70
     1
102
RTVSPropertyOp42
 70
     1
102
RTVSPropertyOp43
 70
     1
102
RTVSPropertyOp44
 70
     1
102
RTVSPropertyOp45
 70
     1
102
RTVSPropertyOp46
 70
     1
102
RTVSPropertyOp47
 70
     1
102
RTVSPropertyOp48
 70
     1
102
RTVSPropertyOp49
 70
     1
102
RTVSPropertyOp50
 70
     1
102
RTVSPropertyOp51
 70
     0
102
RTVSPropertyOp52
 70
     0
102
RTVSPropertyOp53
 70
     1
102
RTVSPropertyOp54
 70
     1
102
RTVSPropertyOp55
 70
     1
102
RTVSPropertyOp56
 70
     1
102
RTVSPropertyOp57
 70
     1
102
RTVSPropertyOp58
 70
     1
102
RTVSPropertyOp59
 70
     1
102
RTVSPropertyOp60
 70
     1
102
RTVSPropertyOp61
 70
     1
102
RTVSPropertyOp62
 70
     1
  0
XRECORD
  5
1652
102
{ACAD_REACTORS
330
1651
102
}
330
1651
100
AcDbXrecord
280
     1
102
RTVSPost2010Prop28
280
     0
102
RTVSPost2010PropOp28
 70
     1
102
RTVSPost2010Prop29
280
     1
102
RTVSPost2010PropOp29
 70
     1
102
RTVSPost2010Prop30
280
     1
102
RTVSPost2010PropOp30
 70
     1
102
RTVSPost2010Prop31
280
     0
102
RTVSPost2010PropOp31
 70
     1
102
RTVSPost2010Prop32
280
     0
102
RTVSPost2010PropOp32
 70
     1
102
RTVSPost2010Prop33
280
     0
102
RTVSPost2010PropOp33
 70
     1
102
RTVSPost2010Prop34
280
     0
102
RTVSPost2010PropOp34
 70
     1
102
RTVSPost2010Prop35
280
     0
102
RTVSPost2010PropOp35
 70
     1
102
RTVSPost2010Prop36
280
     0
102
RTVSPost2010PropOp36
 70
     1
102
RTVSPost2010Prop37
 90
       50
102
RTVSPost2010PropOp37
 70
     1
102
RTVSPost2010Prop38
140
0.0
102
RTVSPost2010PropOp38
 70
     1
102
RTVSPost2010Prop39
140
1.0
102
RTVSPost2010PropOp39
 70
     1
102
RTVSPost2010Prop40
 90
        0
102
RTVSPost2010PropOp40
 70
     1
102
RTVSPost2010Prop41ColorIndex
 90
       18
102
RTVSPost2010Prop41ColorRGB
 90
        0
102
RTVSPost2010PropOp41
 70
     1
102
RTVSPost2010Prop42
 90
       50
102
RTVSPost2010PropOp42
 70
     1
102
RTVSPost2010Prop43
 90
        3
102
RTVSPost2010PropOp43
 70
     1
102
RTVSPost2010Prop44ColorIndex
 90
        5
102
RTVSPost2010Prop44ColorRGB
 90
      255
102
RTVSPost2010PropOp44
 70
     1
102
RTVSPost2010Prop45
280
     0
102
RTVSPost2010PropOp45
 70
     1
102
RTVSPost2010Prop46
 90
       50
102
RTVSPost2010PropOp46
 70
     1
102
RTVSPost2010Prop47
 90
       50
102
RTVSPost2010PropOp47
 70
     1
102
RTVSPost2010Prop48
 90
       50
102
RTVSPost2010PropOp48
 70
     1
102
RTVSPost2010Prop49
280
     0
102
RTVSPost2010PropOp49
 70
     1
102
RTVSPost2010Prop50
 90
       50
102
RTVSPost2010PropOp50
 70
     1
102
RTVSPost2010Prop51ColorIndex
 90
      256
102
RTVSPost2010Prop51ColorRGB
 90
-16777216
102
RTVSPost2010PropOp51
 70
     0
102
RTVSPost2010Prop52
140
1.0
102
RTVSPost2010PropOp52
 70
     0
102
RTVSPost2010Prop53
 90
        2
102
RTVSPost2010PropOp53
 70
     1
102
RTVSPost2010Prop54
  1
strokes_ogs.tif
102
RTVSPost2010PropOp54
 70
     1
102
RTVSPost2010Prop55
280
     0
102
RTVSPost2010PropOp55
 70
     1
102
RTVSPost2010Prop56
140
1.0
102
RTVSPost2010PropOp56
 70
     1
102
RTVSPost2010Prop57
140
1.0
102
RTVSPost2010PropOp57
 70
     1
102
RTVSPropertyOp0
 70
     1
102
RTVSPropertyOp1
 70
     1
102
RTVSPropertyOp2
 70
     1
102
RTVSPropertyOp3
 70
     1
102
RTVSPropertyOp4
 70
     1
102
RTVSPropertyOp5
 70
     1
102
RTVSPropertyOp6
 70
     1
102
RTVSPropertyOp7
 70
     1
102
RTVSPropertyOp8
 70
     1
102
RTVSPropertyOp9
 70
     1
102
RTVSPropertyOp10
 70
     1
102
RTVSPropertyOp11
 70
     1
102
RTVSPropertyOp12
 70
     1
102
RTVSPropertyOp13
 70
     1
102
RTVSPropertyOp14
 70
     1
102
RTVSPropertyOp15
 70
     1
102
RTVSPropertyOp16
 70
     1
102
RTVSPropertyOp17
 70
     1
102
RTVSPropertyOp18
 70
     1
102
RTVSPropertyOp19
 70
     1
102
RTVSPropertyOp20
 70
     1
102
RTVSPropertyOp21
 70
     1
102
RTVSPropertyOp22
 70
     1
102
RTVSPropertyOp23
 70
     1
102
RTVSPropertyOp24
 70
     1
102
RTVSPropertyOp25
 70
     1
102
RTVSPropertyOp26
 70
     1
102
RTVSPropertyOp27
 70
     1
102
RTVSPropertyOp28
 70
     1
102
RTVSPropertyOp29
 70
     1
102
RTVSPropertyOp30
 70
     1
102
RTVSPropertyOp31
 70
     1
102
RTVSPropertyOp32
 70
     1
102
RTVSPropertyOp33
 70
     1
102
RTVSPropertyOp34
 70
     1
102
RTVSPropertyOp35
 70
     1
102
RTVSPropertyOp36
 70
     1
102
RTVSPropertyOp37
 70
     1
102
RTVSPropertyOp38
 70
     1
102
RTVSPropertyOp39
 70
     1
102
RTVSPropertyOp40
 70
     1
102
RTVSPropertyOp41
 70
     1
102
RTVSPropertyOp42
 70
     1
102
RTVSPropertyOp43
 70
     1
102
RTVSPropertyOp44
 70
     1
102
RTVSPropertyOp45
 70
     1
102
RTVSPropertyOp46
 70
     1
102
RTVSPropertyOp47
 70
     1
102
RTVSPropertyOp48
 70
     1
102
RTVSPropertyOp49
 70
     1
102
RTVSPropertyOp50
 70
     1
102
RTVSPropertyOp51
 70
     0
102
RTVSPropertyOp52
 70
     0
102
RTVSPropertyOp53
 70
     1
102
RTVSPropertyOp54
 70
     1
102
RTVSPropertyOp55
 70
     1
102
RTVSPropertyOp56
 70
     1
102
RTVSPropertyOp57
 70
     1
102
RTVSPropertyOp58
 70
     1
102
RTVSPropertyOp59
 70
     1
102
RTVSPropertyOp60
 70
     1
102
RTVSPropertyOp61
 70
     1
102
RTVSPropertyOp62
 70
     1
  0
XRECORD
  5
1650
102
{ACAD_REACTORS
330
164F
102
}
330
164F
100
AcDbXrecord
280
     1
102
RTVSPost2010Prop28
280
     0
102
RTVSPost2010PropOp28
 70
     1
102
RTVSPost2010Prop29
280
     1
102
RTVSPost2010PropOp29
 70
     1
102
RTVSPost2010Prop30
280
     1
102
RTVSPost2010PropOp30
 70
     1
102
RTVSPost2010Prop31
280
     0
102
RTVSPost2010PropOp31
 70
     1
102
RTVSPost2010Prop32
280
     0
102
RTVSPost2010PropOp32
 70
     1
102
RTVSPost2010Prop33
280
     0
102
RTVSPost2010PropOp33
 70
     1
102
RTVSPost2010Prop34
280
     0
102
RTVSPost2010PropOp34
 70
     1
102
RTVSPost2010Prop35
280
     0
102
RTVSPost2010PropOp35
 70
     1
102
RTVSPost2010Prop36
280
     0
102
RTVSPost2010PropOp36
 70
     1
102
RTVSPost2010Prop37
 90
       50
102
RTVSPost2010PropOp37
 70
     1
102
RTVSPost2010Prop38
140
0.0
102
RTVSPost2010PropOp38
 70
     1
102
RTVSPost2010Prop39
140
1.0
102
RTVSPost2010PropOp39
 70
     1
102
RTVSPost2010Prop40
 90
        0
102
RTVSPost2010PropOp40
 70
     1
102
RTVSPost2010Prop41ColorIndex
 90
       18
102
RTVSPost2010Prop41ColorRGB
 90
        0
102
RTVSPost2010PropOp41
 70
     1
102
RTVSPost2010Prop42
 90
       50
102
RTVSPost2010PropOp42
 70
     1
102
RTVSPost2010Prop43
 90
        3
102
RTVSPost2010PropOp43
 70
     1
102
RTVSPost2010Prop44ColorIndex
 90
        5
102
RTVSPost2010Prop44ColorRGB
 90
      255
102
RTVSPost2010PropOp44
 70
     1
102
RTVSPost2010Prop45
280
     0
102
RTVSPost2010PropOp45
 70
     1
102
RTVSPost2010Prop46
 90
       50
102
RTVSPost2010PropOp46
 70
     1
102
RTVSPost2010Prop47
 90
       50
102
RTVSPost2010PropOp47
 70
     1
102
RTVSPost2010Prop48
 90
       50
102
RTVSPost2010PropOp48
 70
     1
102
RTVSPost2010Prop49
280
     0
102
RTVSPost2010PropOp49
 70
     1
102
RTVSPost2010Prop50
 90
       50
102
RTVSPost2010PropOp50
 70
     1
102
RTVSPost2010Prop51ColorIndex
 90
      256
102
RTVSPost2010Prop51ColorRGB
 90
-16777216
102
RTVSPost2010PropOp51
 70
     0
102
RTVSPost2010Prop52
140
1.0
102
RTVSPost2010PropOp52
 70
     0
102
RTVSPost2010Prop53
 90
        2
102
RTVSPost2010PropOp53
 70
     1
102
RTVSPost2010Prop54
  1
strokes_ogs.tif
102
RTVSPost2010PropOp54
 70
     1
102
RTVSPost2010Prop55
280
     0
102
RTVSPost2010PropOp55
 70
     1
102
RTVSPost2010Prop56
140
1.0
102
RTVSPost2010PropOp56
 70
     1
102
RTVSPost2010Prop57
140
1.0
102
RTVSPost2010PropOp57
 70
     1
102
RTVSPropertyOp0
 70
     1
102
RTVSPropertyOp1
 70
     1
102
RTVSPropertyOp2
 70
     1
102
RTVSPropertyOp3
 70
     1
102
RTVSPropertyOp4
 70
     1
102
RTVSPropertyOp5
 70
     1
102
RTVSPropertyOp6
 70
     1
102
RTVSPropertyOp7
 70
     1
102
RTVSPropertyOp8
 70
     1
102
RTVSPropertyOp9
 70
     1
102
RTVSPropertyOp10
 70
     1
102
RTVSPropertyOp11
 70
     1
102
RTVSPropertyOp12
 70
     1
102
RTVSPropertyOp13
 70
     1
102
RTVSPropertyOp14
 70
     1
102
RTVSPropertyOp15
 70
     1
102
RTVSPropertyOp16
 70
     1
102
RTVSPropertyOp17
 70
     1
102
RTVSPropertyOp18
 70
     1
102
RTVSPropertyOp19
 70
     1
102
RTVSPropertyOp20
 70
     1
102
RTVSPropertyOp21
 70
     1
102
RTVSPropertyOp22
 70
     1
102
RTVSPropertyOp23
 70
     1
102
RTVSPropertyOp24
 70
     1
102
RTVSPropertyOp25
 70
     1
102
RTVSPropertyOp26
 70
     1
102
RTVSPropertyOp27
 70
     1
102
RTVSPropertyOp28
 70
     1
102
RTVSPropertyOp29
 70
     1
102
RTVSPropertyOp30
 70
     1
102
RTVSPropertyOp31
 70
     1
102
RTVSPropertyOp32
 70
     1
102
RTVSPropertyOp33
 70
     1
102
RTVSPropertyOp34
 70
     1
102
RTVSPropertyOp35
 70
     1
102
RTVSPropertyOp36
 70
     1
102
RTVSPropertyOp37
 70
     1
102
RTVSPropertyOp38
 70
     1
102
RTVSPropertyOp39
 70
     1
102
RTVSPropertyOp40
 70
     1
102
RTVSPropertyOp41
 70
     1
102
RTVSPropertyOp42
 70
     1
102
RTVSPropertyOp43
 70
     1
102
RTVSPropertyOp44
 70
     1
102
RTVSPropertyOp45
 70
     1
102
RTVSPropertyOp46
 70
     1
102
RTVSPropertyOp47
 70
     1
102
RTVSPropertyOp48
 70
     1
102
RTVSPropertyOp49
 70
     1
102
RTVSPropertyOp50
 70
     1
102
RTVSPropertyOp51
 70
     0
102
RTVSPropertyOp52
 70
     0
102
RTVSPropertyOp53
 70
     1
102
RTVSPropertyOp54
 70
     1
102
RTVSPropertyOp55
 70
     1
102
RTVSPropertyOp56
 70
     1
102
RTVSPropertyOp57
 70
     1
102
RTVSPropertyOp58
 70
     1
102
RTVSPropertyOp59
 70
     1
102
RTVSPropertyOp60
 70
     1
102
RTVSPropertyOp61
 70
     1
102
RTVSPropertyOp62
 70
     1
  0
XRECORD
  5
164A
102
{ACAD_REACTORS
330
1649
102
}
330
1649
100
AcDbXrecord
280
     1
102
RTVSPost2010Prop28
280
     0
102
RTVSPost2010PropOp28
 70
     1
102
RTVSPost2010Prop29
280
     1
102
RTVSPost2010PropOp29
 70
     1
102
RTVSPost2010Prop30
280
     1
102
RTVSPost2010PropOp30
 70
     1
102
RTVSPost2010Prop31
280
     0
102
RTVSPost2010PropOp31
 70
     1
102
RTVSPost2010Prop32
280
     0
102
RTVSPost2010PropOp32
 70
     1
102
RTVSPost2010Prop33
280
     0
102
RTVSPost2010PropOp33
 70
     1
102
RTVSPost2010Prop34
280
     0
102
RTVSPost2010PropOp34
 70
     1
102
RTVSPost2010Prop35
280
     0
102
RTVSPost2010PropOp35
 70
     1
102
RTVSPost2010Prop36
280
     0
102
RTVSPost2010PropOp36
 70
     1
102
RTVSPost2010Prop37
 90
       50
102
RTVSPost2010PropOp37
 70
     1
102
RTVSPost2010Prop38
140
0.0
102
RTVSPost2010PropOp38
 70
     1
102
RTVSPost2010Prop39
140
1.0
102
RTVSPost2010PropOp39
 70
     1
102
RTVSPost2010Prop40
 90
        0
102
RTVSPost2010PropOp40
 70
     1
102
RTVSPost2010Prop41ColorIndex
 90
       18
102
RTVSPost2010Prop41ColorRGB
 90
        0
102
RTVSPost2010PropOp41
 70
     1
102
RTVSPost2010Prop42
 90
       50
102
RTVSPost2010PropOp42
 70
     1
102
RTVSPost2010Prop43
 90
        3
102
RTVSPost2010PropOp43
 70
     1
102
RTVSPost2010Prop44ColorIndex
 90
        5
102
RTVSPost2010Prop44ColorRGB
 90
      255
102
RTVSPost2010PropOp44
 70
     1
102
RTVSPost2010Prop45
280
     0
102
RTVSPost2010PropOp45
 70
     1
102
RTVSPost2010Prop46
 90
       50
102
RTVSPost2010PropOp46
 70
     1
102
RTVSPost2010Prop47
 90
       50
102
RTVSPost2010PropOp47
 70
     1
102
RTVSPost2010Prop48
 90
       50
102
RTVSPost2010PropOp48
 70
     1
102
RTVSPost2010Prop49
280
     0
102
RTVSPost2010PropOp49
 70
     1
102
RTVSPost2010Prop50
 90
       50
102
RTVSPost2010PropOp50
 70
     1
102
RTVSPost2010Prop51ColorIndex
 90
      256
102
RTVSPost2010Prop51ColorRGB
 90
-16777216
102
RTVSPost2010PropOp51
 70
     0
102
RTVSPost2010Prop52
140
1.0
102
RTVSPost2010PropOp52
 70
     0
102
RTVSPost2010Prop53
 90
        2
102
RTVSPost2010PropOp53
 70
     1
102
RTVSPost2010Prop54
  1
strokes_ogs.tif
102
RTVSPost2010PropOp54
 70
     1
102
RTVSPost2010Prop55
280
     0
102
RTVSPost2010PropOp55
 70
     1
102
RTVSPost2010Prop56
140
1.0
102
RTVSPost2010PropOp56
 70
     1
102
RTVSPost2010Prop57
140
1.0
102
RTVSPost2010PropOp57
 70
     1
102
RTVSPropertyOp0
 70
     1
102
RTVSPropertyOp1
 70
     1
102
RTVSPropertyOp2
 70
     1
102
RTVSPropertyOp3
 70
     1
102
RTVSPropertyOp4
 70
     1
102
RTVSPropertyOp5
 70
     1
102
RTVSPropertyOp6
 70
     1
102
RTVSPropertyOp7
 70
     1
102
RTVSPropertyOp8
 70
     1
102
RTVSPropertyOp9
 70
     1
102
RTVSPropertyOp10
 70
     1
102
RTVSPropertyOp11
 70
     1
102
RTVSPropertyOp12
 70
     1
102
RTVSPropertyOp13
 70
     1
102
RTVSPropertyOp14
 70
     1
102
RTVSPropertyOp15
 70
     1
102
RTVSPropertyOp16
 70
     1
102
RTVSPropertyOp17
 70
     1
102
RTVSPropertyOp18
 70
     1
102
RTVSPropertyOp19
 70
     1
102
RTVSPropertyOp20
 70
     1
102
RTVSPropertyOp21
 70
     1
102
RTVSPropertyOp22
 70
     1
102
RTVSPropertyOp23
 70
     1
102
RTVSPropertyOp24
 70
     1
102
RTVSPropertyOp25
 70
     1
102
RTVSPropertyOp26
 70
     1
102
RTVSPropertyOp27
 70
     1
102
RTVSPropertyOp28
 70
     1
102
RTVSPropertyOp29
 70
     1
102
RTVSPropertyOp30
 70
     1
102
RTVSPropertyOp31
 70
     1
102
RTVSPropertyOp32
 70
     1
102
RTVSPropertyOp33
 70
     1
102
RTVSPropertyOp34
 70
     1
102
RTVSPropertyOp35
 70
     1
102
RTVSPropertyOp36
 70
     1
102
RTVSPropertyOp37
 70
     1
102
RTVSPropertyOp38
 70
     1
102
RTVSPropertyOp39
 70
     1
102
RTVSPropertyOp40
 70
     1
102
RTVSPropertyOp41
 70
     1
102
RTVSPropertyOp42
 70
     1
102
RTVSPropertyOp43
 70
     1
102
RTVSPropertyOp44
 70
     1
102
RTVSPropertyOp45
 70
     1
102
RTVSPropertyOp46
 70
     1
102
RTVSPropertyOp47
 70
     1
102
RTVSPropertyOp48
 70
     1
102
RTVSPropertyOp49
 70
     1
102
RTVSPropertyOp50
 70
     1
102
RTVSPropertyOp51
 70
     0
102
RTVSPropertyOp52
 70
     0
102
RTVSPropertyOp53
 70
     1
102
RTVSPropertyOp54
 70
     1
102
RTVSPropertyOp55
 70
     1
102
RTVSPropertyOp56
 70
     1
102
RTVSPropertyOp57
 70
     1
102
RTVSPropertyOp58
 70
     1
102
RTVSPropertyOp59
 70
     1
102
RTVSPropertyOp60
 70
     1
102
RTVSPropertyOp61
 70
     1
102
RTVSPropertyOp62
 70
     1
  0
XRECORD
  5
164C
102
{ACAD_REACTORS
330
164B
102
}
330
164B
100
AcDbXrecord
280
     1
102
RTVSPost2010Prop28
280
     0
102
RTVSPost2010PropOp28
 70
     1
102
RTVSPost2010Prop29
280
     1
102
RTVSPost2010PropOp29
 70
     1
102
RTVSPost2010Prop30
280
     1
102
RTVSPost2010PropOp30
 70
     1
102
RTVSPost2010Prop31
280
     0
102
RTVSPost2010PropOp31
 70
     1
102
RTVSPost2010Prop32
280
     0
102
RTVSPost2010PropOp32
 70
     1
102
RTVSPost2010Prop33
280
     0
102
RTVSPost2010PropOp33
 70
     1
102
RTVSPost2010Prop34
280
     0
102
RTVSPost2010PropOp34
 70
     1
102
RTVSPost2010Prop35
280
     0
102
RTVSPost2010PropOp35
 70
     1
102
RTVSPost2010Prop36
280
     0
102
RTVSPost2010PropOp36
 70
     1
102
RTVSPost2010Prop37
 90
       50
102
RTVSPost2010PropOp37
 70
     1
102
RTVSPost2010Prop38
140
0.0
102
RTVSPost2010PropOp38
 70
     1
102
RTVSPost2010Prop39
140
1.0
102
RTVSPost2010PropOp39
 70
     1
102
RTVSPost2010Prop40
 90
        0
102
RTVSPost2010PropOp40
 70
     1
102
RTVSPost2010Prop41ColorIndex
 90
       18
102
RTVSPost2010Prop41ColorRGB
 90
        0
102
RTVSPost2010PropOp41
 70
     1
102
RTVSPost2010Prop42
 90
       50
102
RTVSPost2010PropOp42
 70
     1
102
RTVSPost2010Prop43
 90
        3
102
RTVSPost2010PropOp43
 70
     1
102
RTVSPost2010Prop44ColorIndex
 90
        5
102
RTVSPost2010Prop44ColorRGB
 90
      255
102
RTVSPost2010PropOp44
 70
     1
102
RTVSPost2010Prop45
280
     0
102
RTVSPost2010PropOp45
 70
     1
102
RTVSPost2010Prop46
 90
       50
102
RTVSPost2010PropOp46
 70
     1
102
RTVSPost2010Prop47
 90
       50
102
RTVSPost2010PropOp47
 70
     1
102
RTVSPost2010Prop48
 90
       50
102
RTVSPost2010PropOp48
 70
     1
102
RTVSPost2010Prop49
280
     0
102
RTVSPost2010PropOp49
 70
     1
102
RTVSPost2010Prop50
 90
       50
102
RTVSPost2010PropOp50
 70
     1
102
RTVSPost2010Prop51ColorIndex
 90
      256
102
RTVSPost2010Prop51ColorRGB
 90
-16777216
102
RTVSPost2010PropOp51
 70
     0
102
RTVSPost2010Prop52
140
1.0
102
RTVSPost2010PropOp52
 70
     0
102
RTVSPost2010Prop53
 90
        2
102
RTVSPost2010PropOp53
 70
     1
102
RTVSPost2010Prop54
  1
strokes_ogs.tif
102
RTVSPost2010PropOp54
 70
     1
102
RTVSPost2010Prop55
280
     0
102
RTVSPost2010PropOp55
 70
     1
102
RTVSPost2010Prop56
140
1.0
102
RTVSPost2010PropOp56
 70
     1
102
RTVSPost2010Prop57
140
1.0
102
RTVSPost2010PropOp57
 70
     1
102
RTVSPropertyOp0
 70
     1
102
RTVSPropertyOp1
 70
     1
102
RTVSPropertyOp2
 70
     1
102
RTVSPropertyOp3
 70
     1
102
RTVSPropertyOp4
 70
     1
102
RTVSPropertyOp5
 70
     1
102
RTVSPropertyOp6
 70
     1
102
RTVSPropertyOp7
 70
     1
102
RTVSPropertyOp8
 70
     1
102
RTVSPropertyOp9
 70
     1
102
RTVSPropertyOp10
 70
     1
102
RTVSPropertyOp11
 70
     1
102
RTVSPropertyOp12
 70
     1
102
RTVSPropertyOp13
 70
     1
102
RTVSPropertyOp14
 70
     1
102
RTVSPropertyOp15
 70
     1
102
RTVSPropertyOp16
 70
     1
102
RTVSPropertyOp17
 70
     1
102
RTVSPropertyOp18
 70
     1
102
RTVSPropertyOp19
 70
     1
102
RTVSPropertyOp20
 70
     1
102
RTVSPropertyOp21
 70
     1
102
RTVSPropertyOp22
 70
     1
102
RTVSPropertyOp23
 70
     1
102
RTVSPropertyOp24
 70
     1
102
RTVSPropertyOp25
 70
     1
102
RTVSPropertyOp26
 70
     1
102
RTVSPropertyOp27
 70
     1
102
RTVSPropertyOp28
 70
     1
102
RTVSPropertyOp29
 70
     1
102
RTVSPropertyOp30
 70
     1
102
RTVSPropertyOp31
 70
     1
102
RTVSPropertyOp32
 70
     1
102
RTVSPropertyOp33
 70
     1
102
RTVSPropertyOp34
 70
     1
102
RTVSPropertyOp35
 70
     1
102
RTVSPropertyOp36
 70
     1
102
RTVSPropertyOp37
 70
     1
102
RTVSPropertyOp38
 70
     1
102
RTVSPropertyOp39
 70
     1
102
RTVSPropertyOp40
 70
     1
102
RTVSPropertyOp41
 70
     1
102
RTVSPropertyOp42
 70
     1
102
RTVSPropertyOp43
 70
     1
102
RTVSPropertyOp44
 70
     1
102
RTVSPropertyOp45
 70
     1
102
RTVSPropertyOp46
 70
     1
102
RTVSPropertyOp47
 70
     1
102
RTVSPropertyOp48
 70
     1
102
RTVSPropertyOp49
 70
     1
102
RTVSPropertyOp50
 70
     1
102
RTVSPropertyOp51
 70
     0
102
RTVSPropertyOp52
 70
     0
102
RTVSPropertyOp53
 70
     1
102
RTVSPropertyOp54
 70
     1
102
RTVSPropertyOp55
 70
     1
102
RTVSPropertyOp56
 70
     1
102
RTVSPropertyOp57
 70
     1
102
RTVSPropertyOp58
 70
     1
102
RTVSPropertyOp59
 70
     1
102
RTVSPropertyOp60
 70
     1
102
RTVSPropertyOp61
 70
     1
102
RTVSPropertyOp62
 70
     1
  0
XRECORD
  5
1642
102
{ACAD_REACTORS
330
1641
102
}
330
1641
100
AcDbXrecord
280
     1
102
RTVSPost2010Prop28
280
     0
102
RTVSPost2010PropOp28
 70
     1
102
RTVSPost2010Prop29
280
     1
102
RTVSPost2010PropOp29
 70
     1
102
RTVSPost2010Prop30
280
     1
102
RTVSPost2010PropOp30
 70
     1
102
RTVSPost2010Prop31
280
     0
102
RTVSPost2010PropOp31
 70
     1
102
RTVSPost2010Prop32
280
     0
102
RTVSPost2010PropOp32
 70
     1
102
RTVSPost2010Prop33
280
     0
102
RTVSPost2010PropOp33
 70
     1
102
RTVSPost2010Prop34
280
     0
102
RTVSPost2010PropOp34
 70
     1
102
RTVSPost2010Prop35
280
     0
102
RTVSPost2010PropOp35
 70
     1
102
RTVSPost2010Prop36
280
     0
102
RTVSPost2010PropOp36
 70
     1
102
RTVSPost2010Prop37
 90
       50
102
RTVSPost2010PropOp37
 70
     1
102
RTVSPost2010Prop38
140
0.0
102
RTVSPost2010PropOp38
 70
     1
102
RTVSPost2010Prop39
140
1.0
102
RTVSPost2010PropOp39
 70
     1
102
RTVSPost2010Prop40
 90
        0
102
RTVSPost2010PropOp40
 70
     1
102
RTVSPost2010Prop41ColorIndex
 90
       18
102
RTVSPost2010Prop41ColorRGB
 90
        0
102
RTVSPost2010PropOp41
 70
     1
102
RTVSPost2010Prop42
 90
       50
102
RTVSPost2010PropOp42
 70
     1
102
RTVSPost2010Prop43
 90
        3
102
RTVSPost2010PropOp43
 70
     1
102
RTVSPost2010Prop44ColorIndex
 90
        5
102
RTVSPost2010Prop44ColorRGB
 90
      255
102
RTVSPost2010PropOp44
 70
     1
102
RTVSPost2010Prop45
280
     0
102
RTVSPost2010PropOp45
 70
     1
102
RTVSPost2010Prop46
 90
       50
102
RTVSPost2010PropOp46
 70
     1
102
RTVSPost2010Prop47
 90
       50
102
RTVSPost2010PropOp47
 70
     1
102
RTVSPost2010Prop48
 90
       50
102
RTVSPost2010PropOp48
 70
     1
102
RTVSPost2010Prop49
280
     0
102
RTVSPost2010PropOp49
 70
     1
102
RTVSPost2010Prop50
 90
       50
102
RTVSPost2010PropOp50
 70
     1
102
RTVSPost2010Prop51ColorIndex
 90
      256
102
RTVSPost2010Prop51ColorRGB
 90
-16777216
102
RTVSPost2010PropOp51
 70
     0
102
RTVSPost2010Prop52
140
1.0
102
RTVSPost2010PropOp52
 70
     0
102
RTVSPost2010Prop53
 90
        2
102
RTVSPost2010PropOp53
 70
     1
102
RTVSPost2010Prop54
  1
strokes_ogs.tif
102
RTVSPost2010PropOp54
 70
     1
102
RTVSPost2010Prop55
280
     0
102
RTVSPost2010PropOp55
 70
     1
102
RTVSPost2010Prop56
140
1.0
102
RTVSPost2010PropOp56
 70
     1
102
RTVSPost2010Prop57
140
1.0
102
RTVSPost2010PropOp57
 70
     1
102
RTVSPropertyOp0
 70
     1
102
RTVSPropertyOp1
 70
     1
102
RTVSPropertyOp2
 70
     1
102
RTVSPropertyOp3
 70
     1
102
RTVSPropertyOp4
 70
     1
102
RTVSPropertyOp5
 70
     1
102
RTVSPropertyOp6
 70
     1
102
RTVSPropertyOp7
 70
     1
102
RTVSPropertyOp8
 70
     1
102
RTVSPropertyOp9
 70
     1
102
RTVSPropertyOp10
 70
     1
102
RTVSPropertyOp11
 70
     1
102
RTVSPropertyOp12
 70
     1
102
RTVSPropertyOp13
 70
     1
102
RTVSPropertyOp14
 70
     1
102
RTVSPropertyOp15
 70
     1
102
RTVSPropertyOp16
 70
     1
102
RTVSPropertyOp17
 70
     1
102
RTVSPropertyOp18
 70
     1
102
RTVSPropertyOp19
 70
     1
102
RTVSPropertyOp20
 70
     1
102
RTVSPropertyOp21
 70
     1
102
RTVSPropertyOp22
 70
     1
102
RTVSPropertyOp23
 70
     1
102
RTVSPropertyOp24
 70
     1
102
RTVSPropertyOp25
 70
     1
102
RTVSPropertyOp26
 70
     1
102
RTVSPropertyOp27
 70
     1
102
RTVSPropertyOp28
 70
     1
102
RTVSPropertyOp29
 70
     1
102
RTVSPropertyOp30
 70
     1
102
RTVSPropertyOp31
 70
     1
102
RTVSPropertyOp32
 70
     1
102
RTVSPropertyOp33
 70
     1
102
RTVSPropertyOp34
 70
     1
102
RTVSPropertyOp35
 70
     1
102
RTVSPropertyOp36
 70
     1
102
RTVSPropertyOp37
 70
     1
102
RTVSPropertyOp38
 70
     1
102
RTVSPropertyOp39
 70
     1
102
RTVSPropertyOp40
 70
     1
102
RTVSPropertyOp41
 70
     1
102
RTVSPropertyOp42
 70
     1
102
RTVSPropertyOp43
 70
     1
102
RTVSPropertyOp44
 70
     1
102
RTVSPropertyOp45
 70
     1
102
RTVSPropertyOp46
 70
     1
102
RTVSPropertyOp47
 70
     1
102
RTVSPropertyOp48
 70
     1
102
RTVSPropertyOp49
 70
     1
102
RTVSPropertyOp50
 70
     1
102
RTVSPropertyOp51
 70
     0
102
RTVSPropertyOp52
 70
     0
102
RTVSPropertyOp53
 70
     1
102
RTVSPropertyOp54
 70
     1
102
RTVSPropertyOp55
 70
     1
102
RTVSPropertyOp56
 70
     1
102
RTVSPropertyOp57
 70
     1
102
RTVSPropertyOp58
 70
     1
102
RTVSPropertyOp59
 70
     1
102
RTVSPropertyOp60
 70
     1
102
RTVSPropertyOp61
 70
     1
102
RTVSPropertyOp62
 70
     1
  0
XRECORD
  5
1636
102
{ACAD_REACTORS
330
1635
102
}
330
1635
100
AcDbXrecord
280
     1
102
RTVSPost2010Prop28
280
     0
102
RTVSPost2010PropOp28
 70
     1
102
RTVSPost2010Prop29
280
     1
102
RTVSPost2010PropOp29
 70
     1
102
RTVSPost2010Prop30
280
     1
102
RTVSPost2010PropOp30
 70
     1
102
RTVSPost2010Prop31
280
     0
102
RTVSPost2010PropOp31
 70
     1
102
RTVSPost2010Prop32
280
     0
102
RTVSPost2010PropOp32
 70
     1
102
RTVSPost2010Prop33
280
     0
102
RTVSPost2010PropOp33
 70
     1
102
RTVSPost2010Prop34
280
     0
102
RTVSPost2010PropOp34
 70
     1
102
RTVSPost2010Prop35
280
     0
102
RTVSPost2010PropOp35
 70
     1
102
RTVSPost2010Prop36
280
     0
102
RTVSPost2010PropOp36
 70
     1
102
RTVSPost2010Prop37
 90
       50
102
RTVSPost2010PropOp37
 70
     1
102
RTVSPost2010Prop38
140
0.0
102
RTVSPost2010PropOp38
 70
     1
102
RTVSPost2010Prop39
140
1.0
102
RTVSPost2010PropOp39
 70
     1
102
RTVSPost2010Prop40
 90
        0
102
RTVSPost2010PropOp40
 70
     1
102
RTVSPost2010Prop41ColorIndex
 90
       18
102
RTVSPost2010Prop41ColorRGB
 90
        0
102
RTVSPost2010PropOp41
 70
     1
102
RTVSPost2010Prop42
 90
       50
102
RTVSPost2010PropOp42
 70
     1
102
RTVSPost2010Prop43
 90
        3
102
RTVSPost2010PropOp43
 70
     1
102
RTVSPost2010Prop44ColorIndex
 90
        5
102
RTVSPost2010Prop44ColorRGB
 90
      255
102
RTVSPost2010PropOp44
 70
     1
102
RTVSPost2010Prop45
280
     0
102
RTVSPost2010PropOp45
 70
     1
102
RTVSPost2010Prop46
 90
       50
102
RTVSPost2010PropOp46
 70
     1
102
RTVSPost2010Prop47
 90
       50
102
RTVSPost2010PropOp47
 70
     1
102
RTVSPost2010Prop48
 90
       50
102
RTVSPost2010PropOp48
 70
     1
102
RTVSPost2010Prop49
280
     0
102
RTVSPost2010PropOp49
 70
     1
102
RTVSPost2010Prop50
 90
       50
102
RTVSPost2010PropOp50
 70
     1
102
RTVSPost2010Prop51ColorIndex
 90
      256
102
RTVSPost2010Prop51ColorRGB
 90
-16777216
102
RTVSPost2010PropOp51
 70
     0
102
RTVSPost2010Prop52
140
1.0
102
RTVSPost2010PropOp52
 70
     0
102
RTVSPost2010Prop53
 90
        2
102
RTVSPost2010PropOp53
 70
     1
102
RTVSPost2010Prop54
  1
strokes_ogs.tif
102
RTVSPost2010PropOp54
 70
     1
102
RTVSPost2010Prop55
280
     0
102
RTVSPost2010PropOp55
 70
     1
102
RTVSPost2010Prop56
140
1.0
102
RTVSPost2010PropOp56
 70
     1
102
RTVSPost2010Prop57
140
1.0
102
RTVSPost2010PropOp57
 70
     1
102
RTVSPropertyOp0
 70
     1
102
RTVSPropertyOp1
 70
     1
102
RTVSPropertyOp2
 70
     1
102
RTVSPropertyOp3
 70
     1
102
RTVSPropertyOp4
 70
     1
102
RTVSPropertyOp5
 70
     1
102
RTVSPropertyOp6
 70
     1
102
RTVSPropertyOp7
 70
     1
102
RTVSPropertyOp8
 70
     1
102
RTVSPropertyOp9
 70
     1
102
RTVSPropertyOp10
 70
     1
102
RTVSPropertyOp11
 70
     1
102
RTVSPropertyOp12
 70
     1
102
RTVSPropertyOp13
 70
     1
102
RTVSPropertyOp14
 70
     1
102
RTVSPropertyOp15
 70
     1
102
RTVSPropertyOp16
 70
     1
102
RTVSPropertyOp17
 70
     1
102
RTVSPropertyOp18
 70
     1
102
RTVSPropertyOp19
 70
     1
102
RTVSPropertyOp20
 70
     1
102
RTVSPropertyOp21
 70
     1
102
RTVSPropertyOp22
 70
     1
102
RTVSPropertyOp23
 70
     1
102
RTVSPropertyOp24
 70
     1
102
RTVSPropertyOp25
 70
     1
102
RTVSPropertyOp26
 70
     1
102
RTVSPropertyOp27
 70
     1
102
RTVSPropertyOp28
 70
     1
102
RTVSPropertyOp29
 70
     1
102
RTVSPropertyOp30
 70
     1
102
RTVSPropertyOp31
 70
     1
102
RTVSPropertyOp32
 70
     1
102
RTVSPropertyOp33
 70
     1
102
RTVSPropertyOp34
 70
     1
102
RTVSPropertyOp35
 70
     1
102
RTVSPropertyOp36
 70
     1
102
RTVSPropertyOp37
 70
     1
102
RTVSPropertyOp38
 70
     1
102
RTVSPropertyOp39
 70
     1
102
RTVSPropertyOp40
 70
     1
102
RTVSPropertyOp41
 70
     1
102
RTVSPropertyOp42
 70
     1
102
RTVSPropertyOp43
 70
     1
102
RTVSPropertyOp44
 70
     1
102
RTVSPropertyOp45
 70
     1
102
RTVSPropertyOp46
 70
     1
102
RTVSPropertyOp47
 70
     1
102
RTVSPropertyOp48
 70
     1
102
RTVSPropertyOp49
 70
     1
102
RTVSPropertyOp50
 70
     1
102
RTVSPropertyOp51
 70
     0
102
RTVSPropertyOp52
 70
     0
102
RTVSPropertyOp53
 70
     1
102
RTVSPropertyOp54
 70
     1
102
RTVSPropertyOp55
 70
     1
102
RTVSPropertyOp56
 70
     1
102
RTVSPropertyOp57
 70
     1
102
RTVSPropertyOp58
 70
     1
102
RTVSPropertyOp59
 70
     1
102
RTVSPropertyOp60
 70
     1
102
RTVSPropertyOp61
 70
     1
102
RTVSPropertyOp62
 70
     1
  0
XRECORD
  5
164E
102
{ACAD_REACTORS
330
164D
102
}
330
164D
100
AcDbXrecord
280
     1
102
RTVSPost2010Prop28
280
     0
102
RTVSPost2010PropOp28
 70
     1
102
RTVSPost2010Prop29
280
     1
102
RTVSPost2010PropOp29
 70
     1
102
RTVSPost2010Prop30
280
     1
102
RTVSPost2010PropOp30
 70
     1
102
RTVSPost2010Prop31
280
     0
102
RTVSPost2010PropOp31
 70
     1
102
RTVSPost2010Prop32
280
     0
102
RTVSPost2010PropOp32
 70
     1
102
RTVSPost2010Prop33
280
     0
102
RTVSPost2010PropOp33
 70
     1
102
RTVSPost2010Prop34
280
     0
102
RTVSPost2010PropOp34
 70
     1
102
RTVSPost2010Prop35
280
     0
102
RTVSPost2010PropOp35
 70
     1
102
RTVSPost2010Prop36
280
     0
102
RTVSPost2010PropOp36
 70
     1
102
RTVSPost2010Prop37
 90
       50
102
RTVSPost2010PropOp37
 70
     1
102
RTVSPost2010Prop38
140
0.0
102
RTVSPost2010PropOp38
 70
     1
102
RTVSPost2010Prop39
140
1.0
102
RTVSPost2010PropOp39
 70
     1
102
RTVSPost2010Prop40
 90
        0
102
RTVSPost2010PropOp40
 70
     1
102
RTVSPost2010Prop41ColorIndex
 90
       18
102
RTVSPost2010Prop41ColorRGB
 90
        0
102
RTVSPost2010PropOp41
 70
     1
102
RTVSPost2010Prop42
 90
       50
102
RTVSPost2010PropOp42
 70
     1
102
RTVSPost2010Prop43
 90
        3
102
RTVSPost2010PropOp43
 70
     1
102
RTVSPost2010Prop44ColorIndex
 90
        5
102
RTVSPost2010Prop44ColorRGB
 90
      255
102
RTVSPost2010PropOp44
 70
     1
102
RTVSPost2010Prop45
280
     0
102
RTVSPost2010PropOp45
 70
     1
102
RTVSPost2010Prop46
 90
       50
102
RTVSPost2010PropOp46
 70
     1
102
RTVSPost2010Prop47
 90
       50
102
RTVSPost2010PropOp47
 70
     1
102
RTVSPost2010Prop48
 90
       50
102
RTVSPost2010PropOp48
 70
     1
102
RTVSPost2010Prop49
280
     0
102
RTVSPost2010PropOp49
 70
     1
102
RTVSPost2010Prop50
 90
       50
102
RTVSPost2010PropOp50
 70
     1
102
RTVSPost2010Prop51ColorIndex
 90
      256
102
RTVSPost2010Prop51ColorRGB
 90
-16777216
102
RTVSPost2010PropOp51
 70
     0
102
RTVSPost2010Prop52
140
1.0
102
RTVSPost2010PropOp52
 70
     0
102
RTVSPost2010Prop53
 90
        2
102
RTVSPost2010PropOp53
 70
     1
102
RTVSPost2010Prop54
  1
strokes_ogs.tif
102
RTVSPost2010PropOp54
 70
     1
102
RTVSPost2010Prop55
280
     0
102
RTVSPost2010PropOp55
 70
     1
102
RTVSPost2010Prop56
140
1.0
102
RTVSPost2010PropOp56
 70
     1
102
RTVSPost2010Prop57
140
1.0
102
RTVSPost2010PropOp57
 70
     1
102
RTVSPropertyOp0
 70
     1
102
RTVSPropertyOp1
 70
     1
102
RTVSPropertyOp2
 70
     1
102
RTVSPropertyOp3
 70
     1
102
RTVSPropertyOp4
 70
     1
102
RTVSPropertyOp5
 70
     1
102
RTVSPropertyOp6
 70
     1
102
RTVSPropertyOp7
 70
     1
102
RTVSPropertyOp8
 70
     1
102
RTVSPropertyOp9
 70
     1
102
RTVSPropertyOp10
 70
     1
102
RTVSPropertyOp11
 70
     1
102
RTVSPropertyOp12
 70
     1
102
RTVSPropertyOp13
 70
     1
102
RTVSPropertyOp14
 70
     1
102
RTVSPropertyOp15
 70
     1
102
RTVSPropertyOp16
 70
     1
102
RTVSPropertyOp17
 70
     1
102
RTVSPropertyOp18
 70
     1
102
RTVSPropertyOp19
 70
     1
102
RTVSPropertyOp20
 70
     1
102
RTVSPropertyOp21
 70
     1
102
RTVSPropertyOp22
 70
     1
102
RTVSPropertyOp23
 70
     1
102
RTVSPropertyOp24
 70
     1
102
RTVSPropertyOp25
 70
     1
102
RTVSPropertyOp26
 70
     1
102
RTVSPropertyOp27
 70
     1
102
RTVSPropertyOp28
 70
     1
102
RTVSPropertyOp29
 70
     1
102
RTVSPropertyOp30
 70
     1
102
RTVSPropertyOp31
 70
     1
102
RTVSPropertyOp32
 70
     1
102
RTVSPropertyOp33
 70
     1
102
RTVSPropertyOp34
 70
     1
102
RTVSPropertyOp35
 70
     1
102
RTVSPropertyOp36
 70
     1
102
RTVSPropertyOp37
 70
     1
102
RTVSPropertyOp38
 70
     1
102
RTVSPropertyOp39
 70
     1
102
RTVSPropertyOp40
 70
     1
102
RTVSPropertyOp41
 70
     1
102
RTVSPropertyOp42
 70
     1
102
RTVSPropertyOp43
 70
     1
102
RTVSPropertyOp44
 70
     1
102
RTVSPropertyOp45
 70
     1
102
RTVSPropertyOp46
 70
     1
102
RTVSPropertyOp47
 70
     1
102
RTVSPropertyOp48
 70
     1
102
RTVSPropertyOp49
 70
     1
102
RTVSPropertyOp50
 70
     1
102
RTVSPropertyOp51
 70
     0
102
RTVSPropertyOp52
 70
     0
102
RTVSPropertyOp53
 70
     1
102
RTVSPropertyOp54
 70
     1
102
RTVSPropertyOp55
 70
     1
102
RTVSPropertyOp56
 70
     1
102
RTVSPropertyOp57
 70
     1
102
RTVSPropertyOp58
 70
     1
102
RTVSPropertyOp59
 70
     1
102
RTVSPropertyOp60
 70
     1
102
RTVSPropertyOp61
 70
     1
102
RTVSPropertyOp62
 70
     1
  0
ENDSEC
  0
EOF
