ISO-10303-21;
HEADER;
FILE_DESCRIPTION (( 'STEP AP214' ),
    '1' );
FILE_NAME ('THA_335_1_F.STEP',
    '2017-02-14T02:23:03',
    ( '' ),
    ( '' ),
    'SwSTEP 2.0',
    'SolidWorks 2015',
    '' );
FILE_SCHEMA (( 'AUTOMOTIVE_DESIGN' ));
ENDSEC;

DATA;
#1 = CIRCLE ( 'NONE', #16, 4.500000000000000900 ) ;
#2 = FACE_OUTER_BOUND ( 'NONE', #332, .T. ) ;
#3 =( GEOMETRIC_REPRESENTATION_CONTEXT ( 3 ) GLOBAL_UNCERTAINTY_ASSIGNED_CONTEXT ( ( #267 ) ) GLOBAL_UNIT_ASSIGNED_CONTEXT ( ( #89, #245, #73 ) ) REPRESENTATION_CONTEXT ( 'NONE', 'WORKASPACE' ) );
#4 = CIRCLE ( 'NONE', #63, 4.500000000000000900 ) ;
#5 = DIRECTION ( 'NONE',  ( 0.0000000000000000000, 0.0000000000000000000, -1.000000000000000000 ) ) ;
#6 = SURFACE_STYLE_USAGE ( .BOTH. , #333 ) ;
#7 = ORIENTED_EDGE ( 'NONE', *, *, #60, .F. ) ;
#8 = CIRCLE ( 'NONE', #374, 4.499999999999997300 ) ;
#9 = EDGE_LOOP ( 'NONE', ( #20, #325, #279, #153 ) ) ;
#10 = DIRECTION ( 'NONE',  ( 0.0000000000000000000, 0.0000000000000000000, 1.000000000000000000 ) ) ;
#11 = DIRECTION ( 'NONE',  ( 0.0000000000000000000, 0.0000000000000000000, -1.000000000000000000 ) ) ;
#12 = AXIS2_PLACEMENT_3D ( 'NONE', #282, #19, #79 ) ;
#13 = EDGE_CURVE ( 'NONE', #309, #275, #70, .T. ) ;
#14 = FACE_OUTER_BOUND ( 'NONE', #331, .T. ) ;
#15 = DIRECTION ( 'NONE',  ( 0.0000000000000000000, 0.0000000000000000000, -1.000000000000000000 ) ) ;
#16 = AXIS2_PLACEMENT_3D ( 'NONE', #203, #228, #110 ) ;
#17 = CARTESIAN_POINT ( 'NONE',  ( 0.0000000000000000000, -5.724587470723458400E-014, 20.99999999999999600 ) ) ;
#18 = APPLICATION_CONTEXT ( 'automotive_design' ) ;
#19 = DIRECTION ( 'NONE',  ( 0.0000000000000000000, 0.0000000000000000000, -1.000000000000000000 ) ) ;
#20 = ORIENTED_EDGE ( 'NONE', *, *, #242, .T. ) ;
#21 = DIRECTION ( 'NONE',  ( -1.000000000000000000, 0.0000000000000000000, 0.0000000000000000000 ) ) ;
#22 = FACE_OUTER_BOUND ( 'NONE', #165, .T. ) ;
#23 =( NAMED_UNIT ( * ) SI_UNIT ( $, .STERADIAN. ) SOLID_ANGLE_UNIT ( ) );
#24 = DIRECTION ( 'NONE',  ( 0.0000000000000000000, 0.0000000000000000000, -1.000000000000000000 ) ) ;
#25 = ADVANCED_FACE ( 'NONE', ( #168 ), #80, .T. ) ;
#26 = CARTESIAN_POINT ( 'NONE',  ( -45.50000000002960800, -5.724587470723458400E-014, 11.00000000000000000 ) ) ;
#27 = APPLICATION_PROTOCOL_DEFINITION ( 'draft international standard', 'automotive_design', 1998, #227 ) ;
#28 = ORIENTED_EDGE ( 'NONE', *, *, #56, .F. ) ;
#29 = EDGE_CURVE ( 'NONE', #224, #309, #237, .T. ) ;
#30 = DIRECTION ( 'NONE',  ( 1.000000000000000000, 0.0000000000000000000, 0.0000000000000000000 ) ) ;
#31 = DIRECTION ( 'NONE',  ( 0.0000000000000000000, 1.000000000000000000, 0.0000000000000000000 ) ) ;
#32 = DIRECTION ( 'NONE',  ( 0.0000000000000000000, 0.0000000000000000000, -1.000000000000000000 ) ) ;
#33 = UNCERTAINTY_MEASURE_WITH_UNIT (LENGTH_MEASURE( 1.000000000000000100E-005 ), #174, 'distance_accuracy_value', 'NONE');
#34 = AXIS2_PLACEMENT_3D ( 'NONE', #219, #145, #208 ) ;
#35 = PRODUCT_DEFINITION_CONTEXT ( 'detailed design', #18, 'design' ) ;
#36 = EDGE_CURVE ( 'NONE', #309, #258, #327, .T. ) ;
#37 = LINE ( 'NONE', #17, #380 ) ;
#38 = ORIENTED_EDGE ( 'NONE', *, *, #68, .T. ) ;
#39 = ORIENTED_EDGE ( 'NONE', *, *, #265, .F. ) ;
#40 = FACE_OUTER_BOUND ( 'NONE', #269, .T. ) ;
#41 = AXIS2_PLACEMENT_3D ( 'NONE', #318, #76, #277 ) ;
#42 = AXIS2_PLACEMENT_3D ( 'NONE', #54, #338, #55 ) ;
#43 = CIRCLE ( 'NONE', #253, 4.499999999999997300 ) ;
#44 = DIRECTION ( 'NONE',  ( 0.0000000000000000000, 1.000000000000000000, 0.0000000000000000000 ) ) ;
#45 = ORIENTED_EDGE ( 'NONE', *, *, #36, .T. ) ;
#46 = EDGE_LOOP ( 'NONE', ( #116, #233, #45, #148 ) ) ;
#47 = DIRECTION ( 'NONE',  ( 0.0000000000000000000, 0.0000000000000000000, 1.000000000000000000 ) ) ;
#48 =( LENGTH_UNIT ( ) NAMED_UNIT ( * ) SI_UNIT ( .MILLI., .METRE. ) );
#49 = DIRECTION ( 'NONE',  ( -1.000000000000000000, 0.0000000000000000000, 0.0000000000000000000 ) ) ;
#50 = CYLINDRICAL_SURFACE ( 'NONE', #299, 4.500000000000000900 ) ;
#51 = CARTESIAN_POINT ( 'NONE',  ( -50.00000000002960100, -5.724587470723458400E-014, 0.0000000000000000000 ) ) ;
#52 = APPLICATION_PROTOCOL_DEFINITION ( 'draft international standard', 'automotive_design', 1998, #18 ) ;
#53 = PRODUCT_DEFINITION ( 'UNKNOWN', '', #150, #35 ) ;
#54 = CARTESIAN_POINT ( 'NONE',  ( 49.99999999997039900, -5.724587470723458400E-014, 0.0000000000000000000 ) ) ;
#55 = DIRECTION ( 'NONE',  ( -1.000000000000000000, 0.0000000000000000000, 0.0000000000000000000 ) ) ;
#56 = EDGE_CURVE ( 'NONE', #193, #301, #95, .T. ) ;
#57 = CARTESIAN_POINT ( 'NONE',  ( -35.50000000002960100, -5.669478364761828200E-014, 30.00000000000000000 ) ) ;
#58 = ADVANCED_FACE ( 'NONE', ( #302 ), #248, .T. ) ;
#59 = SHAPE_REPRESENTATION_RELATIONSHIP ( 'NONE' , 'NONE' ,  #62, #166 ) ;
#60 = EDGE_CURVE ( 'NONE', #301, #147, #1, .T. ) ;
#61 = CYLINDRICAL_SURFACE ( 'NONE', #216, 4.500000000000000900 ) ;
#62 = SHAPE_REPRESENTATION ( 'a', ( #214 ), #198 ) ;
#63 = AXIS2_PLACEMENT_3D ( 'NONE', #222, #130, #11 ) ;
#64 = CARTESIAN_POINT ( 'NONE',  ( 0.0000000000000000000, 0.0000000000000000000, 0.0000000000000000000 ) ) ;
#65 = ITEM_DEFINED_TRANSFORMATION ( 'NONE', 'NONE', #365,  #214 ) ;
#66 = STYLED_ITEM ( 'NONE', ( #353 ), #87 ) ;
#67 = CIRCLE ( 'NONE', #182, 4.499999999999997300 ) ;
#68 = EDGE_CURVE ( 'NONE', #99, #258, #180, .T. ) ;
#69 = ORIENTED_EDGE ( 'NONE', *, *, #56, .T. ) ;
#70 = CIRCLE ( 'NONE', #287, 4.499999999999997300 ) ;
#71 = FACE_OUTER_BOUND ( 'NONE', #206, .T. ) ;
#72 = VERTEX_POINT ( 'NONE', #367 ) ;
#73 =( NAMED_UNIT ( * ) SI_UNIT ( $, .STERADIAN. ) SOLID_ANGLE_UNIT ( ) );
#74 = EDGE_LOOP ( 'NONE', ( #155, #38 ) ) ;
#75 = AXIS2_PLACEMENT_3D ( 'NONE', #310, #280, #246 ) ;
#76 = DIRECTION ( 'NONE',  ( 0.0000000000000000000, 0.0000000000000000000, 1.000000000000000000 ) ) ;
#77 = TOROIDAL_SURFACE ( 'NONE', #157, 14.50000000000000000, 4.500000000000000000 ) ;
#78 = PRESENTATION_LAYER_ASSIGNMENT (  '', '', ( #66 ) ) ;
#79 = DIRECTION ( 'NONE',  ( -1.000000000000000000, 0.0000000000000000000, 0.0000000000000000000 ) ) ;
#80 = PLANE ( 'NONE',  #336 ) ;
#81 = DIRECTION ( 'NONE',  ( 1.000000000000000000, 0.0000000000000000000, 0.0000000000000000000 ) ) ;
#82 = DIRECTION ( 'NONE',  ( 0.0000000000000000000, 0.0000000000000000000, -1.000000000000000000 ) ) ;
#83 = VECTOR ( 'NONE', #81, 1000.000000000000000 ) ;
#84 =( NAMED_UNIT ( * ) PLANE_ANGLE_UNIT ( ) SI_UNIT ( $, .RADIAN. ) );
#85 = CYLINDRICAL_SURFACE ( 'NONE', #12, 4.499999999999997300 ) ;
#86 = ORIENTED_EDGE ( 'NONE', *, *, #60, .T. ) ;
#87 = MANIFOLD_SOLID_BREP ( '²ÝÎß°Ä1', #221 ) ;
#88 = CARTESIAN_POINT ( 'NONE',  ( 0.0000000000000000000, -5.669478364761826900E-014, 30.00000000000000000 ) ) ;
#89 =( LENGTH_UNIT ( ) NAMED_UNIT ( * ) SI_UNIT ( .MILLI., .METRE. ) );
#90 = PRODUCT_DEFINITION ( 'UNKNOWN', '', #108, #354 ) ;
#91 = ORIENTED_EDGE ( 'NONE', *, *, #371, .T. ) ;
#92 = ORIENTED_EDGE ( 'NONE', *, *, #118, .F. ) ;
#93 = ORIENTED_EDGE ( 'NONE', *, *, #304, .F. ) ;
#94 = AXIS2_PLACEMENT_3D ( 'NONE', #347, #163, #164 ) ;
#95 = CIRCLE ( 'NONE', #352, 10.00000000000000200 ) ;
#96 = FACE_OUTER_BOUND ( 'NONE', #298, .T. ) ;
#97 = LINE ( 'NONE', #131, #125 ) ;
#98 = MECHANICAL_DESIGN_GEOMETRIC_PRESENTATION_REPRESENTATION (  '', ( #66 ), #124 ) ;
#99 = VERTEX_POINT ( 'NONE', #243 ) ;
#100 = AXIS2_PLACEMENT_3D ( 'NONE', #109, #281, #170 ) ;
#101 = CARTESIAN_POINT ( 'NONE',  ( 54.49999999997039900, -5.669478364761826900E-014, 0.0000000000000000000 ) ) ;
#102 = ORIENTED_EDGE ( 'NONE', *, *, #270, .F. ) ;
#103 = ORIENTED_EDGE ( 'NONE', *, *, #315, .F. ) ;
#104 = PRESENTATION_STYLE_ASSIGNMENT (( #137 ) ) ;
#105 = CIRCLE ( 'NONE', #319, 4.499999999999997300 ) ;
#106 = DIRECTION ( 'NONE',  ( -1.000000000000000000, 0.0000000000000000000, 0.0000000000000000000 ) ) ;
#107 = CARTESIAN_POINT ( 'NONE',  ( 0.0000000000000000000, 0.0000000000000000000, 0.0000000000000000000 ) ) ;
#108 = PRODUCT_DEFINITION_FORMATION_WITH_SPECIFIED_SOURCE ( 'ANY', '', #320, .NOT_KNOWN. ) ;
#109 = CARTESIAN_POINT ( 'NONE',  ( 35.49999999997040600, -1.115733935221319000E-013, 11.00000000000000000 ) ) ;
#110 = DIRECTION ( 'NONE',  ( 0.0000000000000000000, 0.0000000000000000000, -1.000000000000000000 ) ) ;
#111 = ADVANCED_FACE ( 'NONE', ( #14 ), #77, .T. ) ;
#112 = CARTESIAN_POINT ( 'NONE',  ( -35.50000000002960100, -1.110223024625155900E-013, 11.00000000000000000 ) ) ;
#113 = APPLICATION_PROTOCOL_DEFINITION ( 'draft international standard', 'automotive_design', 1998, #348 ) ;
#114 = FACE_OUTER_BOUND ( 'NONE', #252, .T. ) ;
#115 =( LENGTH_UNIT ( ) NAMED_UNIT ( * ) SI_UNIT ( .MILLI., .METRE. ) );
#116 = ORIENTED_EDGE ( 'NONE', *, *, #368, .F. ) ;
#117 = DIRECTION ( 'NONE',  ( 0.0000000000000000000, 0.0000000000000000000, 1.000000000000000000 ) ) ;
#118 = EDGE_CURVE ( 'NONE', #147, #160, #329, .T. ) ;
#119 = CARTESIAN_POINT ( 'NONE',  ( -50.00000000002960100, -5.724587470723458400E-014, 0.0000000000000000000 ) ) ;
#120 = AXIS2_PLACEMENT_3D ( 'NONE', #217, #44, #357 ) ;
#121 = CARTESIAN_POINT ( 'NONE',  ( 0.0000000000000000000, 0.0000000000000000000, 0.0000000000000000000 ) ) ;
#122 = VERTEX_POINT ( 'NONE', #261 ) ;
#123 = ADVANCED_FACE ( 'NONE', ( #2 ), #240, .T. ) ;
#124 =( GEOMETRIC_REPRESENTATION_CONTEXT ( 3 ) GLOBAL_UNCERTAINTY_ASSIGNED_CONTEXT ( ( #361 ) ) GLOBAL_UNIT_ASSIGNED_CONTEXT ( ( #48, #305, #303 ) ) REPRESENTATION_CONTEXT ( 'NONE', 'WORKASPACE' ) );
#125 = VECTOR ( 'NONE', #10, 1000.000000000000000 ) ;
#126 = PRODUCT_RELATED_PRODUCT_CATEGORY ( 'part', '', ( #320 ) ) ;
#127 = ADVANCED_FACE ( 'NONE', ( #71 ), #61, .T. ) ;
#128 = DIRECTION ( 'NONE',  ( -1.000000000000000000, 0.0000000000000000000, 0.0000000000000000000 ) ) ;
#129 =( REPRESENTATION_RELATIONSHIP ('NONE','NONE', #189, #62 ) REPRESENTATION_RELATIONSHIP_WITH_TRANSFORMATION ( #65 )SHAPE_REPRESENTATION_RELATIONSHIP( ) );
#130 = DIRECTION ( 'NONE',  ( 1.000000000000000000, 0.0000000000000000000, 0.0000000000000000000 ) ) ;
#131 = CARTESIAN_POINT ( 'NONE',  ( -54.50000000002960100, -5.669478364761826900E-014, 0.0000000000000000000 ) ) ;
#132 = CIRCLE ( 'NONE', #335, 19.00000000000000000 ) ;
#133 = DIRECTION ( 'NONE',  ( 0.0000000000000000000, 0.0000000000000000000, 1.000000000000000000 ) ) ;
#134 = AXIS2_PLACEMENT_3D ( 'NONE', #220, #196, #273 ) ;
#135 = SHAPE_DEFINITION_REPRESENTATION ( #313, #62 ) ;
#136 = ORIENTED_EDGE ( 'NONE', *, *, #36, .F. ) ;
#137 = SURFACE_STYLE_USAGE ( .BOTH. , #159 ) ;
#138 = DIRECTION ( 'NONE',  ( 0.0000000000000000000, 1.000000000000000000, 0.0000000000000000000 ) ) ;
#139 = AXIS2_PLACEMENT_3D ( 'NONE', #256, #369, #342 ) ;
#140 = DIRECTION ( 'NONE',  ( 0.0000000000000000000, 1.000000000000000000, 0.0000000000000000000 ) ) ;
#141 = DIRECTION ( 'NONE',  ( 0.0000000000000000000, 0.0000000000000000000, 1.000000000000000000 ) ) ;
#142 = FILL_AREA_STYLE_COLOUR ( '', #225 ) ;
#143 = FILL_AREA_STYLE_COLOUR ( '', #260 ) ;
#144 = LINE ( 'NONE', #330, #356 ) ;
#145 = DIRECTION ( 'NONE',  ( 0.0000000000000000000, 0.0000000000000000000, 1.000000000000000000 ) ) ;
#146 = TOROIDAL_SURFACE ( 'NONE', #134, 14.50000000000000000, 4.500000000000000000 ) ;
#147 = VERTEX_POINT ( 'NONE', #57 ) ;
#148 = ORIENTED_EDGE ( 'NONE', *, *, #68, .F. ) ;
#149 = PRODUCT_CONTEXT ( 'NONE', #377, 'mechanical' ) ;
#150 = PRODUCT_DEFINITION_FORMATION_WITH_SPECIFIED_SOURCE ( 'ANY', '', #289, .NOT_KNOWN. ) ;
#151 = PRODUCT_DEFINITION_SHAPE ( 'NONE', 'NONE',  #90 ) ;
#152 = FACE_OUTER_BOUND ( 'NONE', #9, .T. ) ;
#153 = ORIENTED_EDGE ( 'NONE', *, *, #29, .F. ) ;
#154 = UNCERTAINTY_MEASURE_WITH_UNIT (LENGTH_MEASURE( 1.000000000000000100E-005 ), #115, 'distance_accuracy_value', 'NONE');
#155 = ORIENTED_EDGE ( 'NONE', *, *, #321, .T. ) ;
#156 = AXIS2_PLACEMENT_3D ( 'NONE', #276, #190, #49 ) ;
#157 = AXIS2_PLACEMENT_3D ( 'NONE', #112, #140, #288 ) ;
#158 = FILL_AREA_STYLE ('',( #143 ) ) ;
#159 = SURFACE_SIDE_STYLE ('',( #187 ) ) ;
#160 = VERTEX_POINT ( 'NONE', #314 ) ;
#161 = CYLINDRICAL_SURFACE ( 'NONE', #41, 4.499999999999997300 ) ;
#162 = ORIENTED_EDGE ( 'NONE', *, *, #29, .T. ) ;
#163 = DIRECTION ( 'NONE',  ( 0.0000000000000000000, 1.000000000000000000, 0.0000000000000000000 ) ) ;
#164 = DIRECTION ( 'NONE',  ( 0.0000000000000000000, 0.0000000000000000000, 1.000000000000000000 ) ) ;
#165 = EDGE_LOOP ( 'NONE', ( #290, #205, #177, #136 ) ) ;
#166 = ADVANCED_BREP_SHAPE_REPRESENTATION ( '', ( #87, #214 ), #198 ) ;
#167 = CARTESIAN_POINT ( 'NONE',  ( -50.00000000002960100, -5.724587470723458400E-014, 0.0000000000000000000 ) ) ;
#168 = FACE_OUTER_BOUND ( 'NONE', #74, .T. ) ;
#169 = DIRECTION ( 'NONE',  ( 0.0000000000000000000, 0.0000000000000000000, 1.000000000000000000 ) ) ;
#170 = DIRECTION ( 'NONE',  ( 0.0000000000000000000, 0.0000000000000000000, 1.000000000000000000 ) ) ;
#171 = CARTESIAN_POINT ( 'NONE',  ( -50.00000000002960100, -5.724587470723458400E-014, 11.00000000000000000 ) ) ;
#172 = PRODUCT_RELATED_PRODUCT_CATEGORY ( 'part', '', ( #289 ) ) ;
#173 = ADVANCED_FACE ( 'NONE', ( #96 ), #232, .T. ) ;
#174 =( LENGTH_UNIT ( ) NAMED_UNIT ( * ) SI_UNIT ( .MILLI., .METRE. ) );
#175 = ADVANCED_FACE ( 'NONE', ( #272 ), #181, .T. ) ;
#176 = CARTESIAN_POINT ( 'NONE',  ( 45.49999999997040600, -5.724587470723458400E-014, 0.0000000000000000000 ) ) ;
#177 = ORIENTED_EDGE ( 'NONE', *, *, #321, .F. ) ;
#178 = DIRECTION ( 'NONE',  ( 0.0000000000000000000, 0.0000000000000000000, -1.000000000000000000 ) ) ;
#179 = CARTESIAN_POINT ( 'NONE',  ( -35.50000000002960100, -1.110223024625155900E-013, 25.50000000000000000 ) ) ;
#180 = CIRCLE ( 'NONE', #378, 4.499999999999997300 ) ;
#181 = CYLINDRICAL_SURFACE ( 'NONE', #271, 4.499999999999997300 ) ;
#182 = AXIS2_PLACEMENT_3D ( 'NONE', #375, #169, #30 ) ;
#183 = AXIS2_PLACEMENT_3D ( 'NONE', #234, #31, #117 ) ;
#184 = ORIENTED_EDGE ( 'NONE', *, *, #263, .T. ) ;
#185 = EDGE_LOOP ( 'NONE', ( #86, #241, #297, #363 ) ) ;
#186 = ADVANCED_FACE ( 'NONE', ( #199 ), #50, .T. ) ;
#187 = SURFACE_STYLE_FILL_AREA ( #158 ) ;
#188 = CIRCLE ( 'NONE', #75, 4.499999999999997300 ) ;
#189 = SHAPE_REPRESENTATION ( 'THA_335_1_F', ( #34, #365 ), #3 ) ;
#190 = DIRECTION ( 'NONE',  ( 0.0000000000000000000, 0.0000000000000000000, -1.000000000000000000 ) ) ;
#191 = DIRECTION ( 'NONE',  ( 0.0000000000000000000, 0.0000000000000000000, -1.000000000000000000 ) ) ;
#192 = ORIENTED_EDGE ( 'NONE', *, *, #295, .T. ) ;
#193 = VERTEX_POINT ( 'NONE', #26 ) ;
#194 = DIRECTION ( 'NONE',  ( 1.000000000000000000, 0.0000000000000000000, 0.0000000000000000000 ) ) ;
#195 = CARTESIAN_POINT ( 'NONE',  ( 0.0000000000000000000, -5.724587470723458400E-014, 25.50000000000000000 ) ) ;
#196 = DIRECTION ( 'NONE',  ( 0.0000000000000000000, 1.000000000000000000, 0.0000000000000000000 ) ) ;
#197 = CARTESIAN_POINT ( 'NONE',  ( 35.49999999997040600, -5.724587470723458400E-014, 20.99999999999999600 ) ) ;
#198 =( GEOMETRIC_REPRESENTATION_CONTEXT ( 3 ) GLOBAL_UNCERTAINTY_ASSIGNED_CONTEXT ( ( #154 ) ) GLOBAL_UNIT_ASSIGNED_CONTEXT ( ( #115, #84, #257 ) ) REPRESENTATION_CONTEXT ( 'NONE', 'WORKASPACE' ) );
#199 = FACE_OUTER_BOUND ( 'NONE', #185, .T. ) ;
#200 = DIRECTION ( 'NONE',  ( 0.0000000000000000000, 0.0000000000000000000, -1.000000000000000000 ) ) ;
#201 = PRODUCT_DEFINITION_SHAPE ( 'NONE', 'NONE',  #381 ) ;
#202 =( NAMED_UNIT ( * ) PLANE_ANGLE_UNIT ( ) SI_UNIT ( $, .RADIAN. ) );
#203 = CARTESIAN_POINT ( 'NONE',  ( -35.50000000002960100, -1.110223024625155900E-013, 25.50000000000000000 ) ) ;
#204 = EDGE_LOOP ( 'NONE', ( #93, #324, #359, #247 ) ) ;
#205 = ORIENTED_EDGE ( 'NONE', *, *, #368, .T. ) ;
#206 = EDGE_LOOP ( 'NONE', ( #92, #192, #212, #103 ) ) ;
#207 = CARTESIAN_POINT ( 'NONE',  ( -54.50000000002960100, 995.5000000000000000, 0.0000000000000000000 ) ) ;
#208 = DIRECTION ( 'NONE',  ( 1.000000000000000000, 0.0000000000000000000, 0.0000000000000000000 ) ) ;
#209 = DIRECTION ( 'NONE',  ( 1.000000000000000000, 0.0000000000000000000, 0.0000000000000000000 ) ) ;
#210 = CONTEXT_DEPENDENT_SHAPE_REPRESENTATION ( #129, #201 ) ;
#211 = VECTOR ( 'NONE', #15, 1000.000000000000000 ) ;
#212 = ORIENTED_EDGE ( 'NONE', *, *, #292, .T. ) ;
#213 = SHAPE_DEFINITION_REPRESENTATION ( #151, #189 ) ;
#214 = AXIS2_PLACEMENT_3D ( 'NONE', #64, #235, #230 ) ;
#215 = SURFACE_STYLE_FILL_AREA ( #311 ) ;
#216 = AXIS2_PLACEMENT_3D ( 'NONE', #286, #259, #178 ) ;
#217 = CARTESIAN_POINT ( 'NONE',  ( -35.50000000002960100, -1.110223024625155900E-013, 11.00000000000000000 ) ) ;
#218 = LINE ( 'NONE', #101, #211 ) ;
#219 = CARTESIAN_POINT ( 'NONE',  ( 0.0000000000000000000, 0.0000000000000000000, 0.0000000000000000000 ) ) ;
#220 = CARTESIAN_POINT ( 'NONE',  ( -35.50000000002960100, -1.110223024625155900E-013, 11.00000000000000000 ) ) ;
#221 = CLOSED_SHELL ( 'NONE', ( #316, #111, #284, #186, #291, #173, #25, #175, #328, #127, #123, #58 ) ) ;
#222 = CARTESIAN_POINT ( 'NONE',  ( 35.49999999997040600, -5.724587470723458400E-014, 25.50000000000000000 ) ) ;
#223 = PRODUCT_CONTEXT ( 'NONE', #348, 'mechanical' ) ;
#224 = VERTEX_POINT ( 'NONE', #197 ) ;
#225 = COLOUR_RGB ( '',0.7921568627450980000, 0.8196078431372548800, 0.9333333333333333500 ) ;
#226 = CARTESIAN_POINT ( 'NONE',  ( 35.49999999997040600, -1.110223024625155900E-013, 11.00000000000000000 ) ) ;
#227 = APPLICATION_CONTEXT ( 'automotive_design' ) ;
#228 = DIRECTION ( 'NONE',  ( 1.000000000000000000, 0.0000000000000000000, 0.0000000000000000000 ) ) ;
#229 = CARTESIAN_POINT ( 'NONE',  ( -35.50000000002960100, -1.115733935221319000E-013, 11.00000000000000000 ) ) ;
#230 = DIRECTION ( 'NONE',  ( 1.000000000000000000, 0.0000000000000000000, 0.0000000000000000000 ) ) ;
#231 = CARTESIAN_POINT ( 'NONE',  ( 45.49999999997040600, -5.724587470723458400E-014, 0.0000000000000000000 ) ) ;
#232 = PLANE ( 'NONE',  #238 ) ;
#233 = ORIENTED_EDGE ( 'NONE', *, *, #350, .T. ) ;
#234 = CARTESIAN_POINT ( 'NONE',  ( 35.49999999997040600, -1.110223024625155900E-013, 11.00000000000000000 ) ) ;
#235 = DIRECTION ( 'NONE',  ( 0.0000000000000000000, 0.0000000000000000000, 1.000000000000000000 ) ) ;
#236 = STYLED_ITEM ( 'NONE', ( #104 ), #166 ) ;
#237 = CIRCLE ( 'NONE', #100, 10.00000000000000200 ) ;
#238 = AXIS2_PLACEMENT_3D ( 'NONE', #207, #32, #322 ) ;
#239 = DIRECTION ( 'NONE',  ( 0.0000000000000000000, 0.0000000000000000000, -1.000000000000000000 ) ) ;
#240 = TOROIDAL_SURFACE ( 'NONE', #183, 14.50000000000000000, 4.500000000000000000 ) ;
#241 = ORIENTED_EDGE ( 'NONE', *, *, #118, .T. ) ;
#242 = EDGE_CURVE ( 'NONE', #224, #160, #379, .T. ) ;
#243 = CARTESIAN_POINT ( 'NONE',  ( 54.49999999997039900, -5.669478364761826900E-014, 0.0000000000000000000 ) ) ;
#244 = ORIENTED_EDGE ( 'NONE', *, *, #350, .F. ) ;
#245 =( NAMED_UNIT ( * ) PLANE_ANGLE_UNIT ( ) SI_UNIT ( $, .RADIAN. ) );
#246 = DIRECTION ( 'NONE',  ( -1.000000000000000000, 0.0000000000000000000, 0.0000000000000000000 ) ) ;
#247 = ORIENTED_EDGE ( 'NONE', *, *, #371, .F. ) ;
#248 = CYLINDRICAL_SURFACE ( 'NONE', #42, 4.499999999999997300 ) ;
#249 = PRESENTATION_LAYER_ASSIGNMENT (  '', '', ( #236 ) ) ;
#250 = DIRECTION ( 'NONE',  ( 1.000000000000000000, 0.0000000000000000000, 0.0000000000000000000 ) ) ;
#251 = CARTESIAN_POINT ( 'NONE',  ( 49.99999999997039900, -5.724587470723458400E-014, 0.0000000000000000000 ) ) ;
#252 = EDGE_LOOP ( 'NONE', ( #306, #91, #69, #326 ) ) ;
#253 = AXIS2_PLACEMENT_3D ( 'NONE', #167, #337, #362 ) ;
#254 = DIRECTION ( 'NONE',  ( 0.0000000000000000000, 0.0000000000000000000, 1.000000000000000000 ) ) ;
#255 = DIRECTION ( 'NONE',  ( 0.0000000000000000000, 0.0000000000000000000, -1.000000000000000000 ) ) ;
#256 = CARTESIAN_POINT ( 'NONE',  ( 35.49999999997040600, -5.724587470723458400E-014, 25.50000000000000000 ) ) ;
#257 =( NAMED_UNIT ( * ) SI_UNIT ( $, .STERADIAN. ) SOLID_ANGLE_UNIT ( ) );
#258 = VERTEX_POINT ( 'NONE', #176 ) ;
#259 = DIRECTION ( 'NONE',  ( 1.000000000000000000, 0.0000000000000000000, 0.0000000000000000000 ) ) ;
#260 = COLOUR_RGB ( '',0.7921568627450980000, 0.8196078431372548800, 0.9333333333333333500 ) ;
#261 = CARTESIAN_POINT ( 'NONE',  ( -54.50000000002960100, -5.669478364761826900E-014, 11.00000000000000000 ) ) ;
#262 = DIRECTION ( 'NONE',  ( 0.0000000000000000000, 0.0000000000000000000, 1.000000000000000000 ) ) ;
#263 = EDGE_CURVE ( 'NONE', #72, #264, #43, .T. ) ;
#264 = VERTEX_POINT ( 'NONE', #345 ) ;
#265 = EDGE_CURVE ( 'NONE', #193, #122, #105, .T. ) ;
#266 = ORIENTED_EDGE ( 'NONE', *, *, #315, .T. ) ;
#267 = UNCERTAINTY_MEASURE_WITH_UNIT (LENGTH_MEASURE( 1.000000000000000100E-005 ), #89, 'distance_accuracy_value', 'NONE');
#268 = MECHANICAL_DESIGN_GEOMETRIC_PRESENTATION_REPRESENTATION (  '', ( #236 ), #294 ) ;
#269 = EDGE_LOOP ( 'NONE', ( #373, #274, #39, #344 ) ) ;
#270 = EDGE_CURVE ( 'NONE', #160, #275, #132, .T. ) ;
#271 = AXIS2_PLACEMENT_3D ( 'NONE', #119, #254, #346 ) ;
#272 = FACE_OUTER_BOUND ( 'NONE', #204, .T. ) ;
#273 = DIRECTION ( 'NONE',  ( 0.0000000000000000000, 0.0000000000000000000, 1.000000000000000000 ) ) ;
#274 = ORIENTED_EDGE ( 'NONE', *, *, #304, .T. ) ;
#275 = VERTEX_POINT ( 'NONE', #366 ) ;
#276 = CARTESIAN_POINT ( 'NONE',  ( 49.99999999997039900, -1.110223024625155900E-013, 11.00000000000000000 ) ) ;
#277 = DIRECTION ( 'NONE',  ( 1.000000000000000000, 0.0000000000000000000, 0.0000000000000000000 ) ) ;
#278 = APPLICATION_PROTOCOL_DEFINITION ( 'draft international standard', 'automotive_design', 1998, #377 ) ;
#279 = ORIENTED_EDGE ( 'NONE', *, *, #13, .F. ) ;
#280 = DIRECTION ( 'NONE',  ( 0.0000000000000000000, 0.0000000000000000000, -1.000000000000000000 ) ) ;
#281 = DIRECTION ( 'NONE',  ( 0.0000000000000000000, 1.000000000000000000, 0.0000000000000000000 ) ) ;
#282 = CARTESIAN_POINT ( 'NONE',  ( 49.99999999997039900, -5.724587470723458400E-014, 0.0000000000000000000 ) ) ;
#283 = CARTESIAN_POINT ( 'NONE',  ( 49.99999999997039900, -1.110223024625155900E-013, 11.00000000000000000 ) ) ;
#284 = ADVANCED_FACE ( 'NONE', ( #22 ), #85, .T. ) ;
#285 = DIRECTION ( 'NONE',  ( 0.0000000000000000000, 0.0000000000000000000, 1.000000000000000000 ) ) ;
#286 = CARTESIAN_POINT ( 'NONE',  ( 0.0000000000000000000, -5.724587470723458400E-014, 25.50000000000000000 ) ) ;
#287 = AXIS2_PLACEMENT_3D ( 'NONE', #283, #200, #21 ) ;
#288 = DIRECTION ( 'NONE',  ( 0.0000000000000000000, 0.0000000000000000000, 1.000000000000000000 ) ) ;
#289 = PRODUCT ( 'a', 'a', '', ( #223 ) ) ;
#290 = ORIENTED_EDGE ( 'NONE', *, *, #13, .T. ) ;
#291 = ADVANCED_FACE ( 'NONE', ( #40 ), #161, .T. ) ;
#292 = EDGE_CURVE ( 'NONE', #301, #224, #37, .T. ) ;
#293 = DIRECTION ( 'NONE',  ( 1.000000000000000000, 0.0000000000000000000, 0.0000000000000000000 ) ) ;
#294 =( GEOMETRIC_REPRESENTATION_CONTEXT ( 3 ) GLOBAL_UNCERTAINTY_ASSIGNED_CONTEXT ( ( #33 ) ) GLOBAL_UNIT_ASSIGNED_CONTEXT ( ( #174, #202, #23 ) ) REPRESENTATION_CONTEXT ( 'NONE', 'WORKASPACE' ) );
#295 = EDGE_CURVE ( 'NONE', #147, #301, #334, .T. ) ;
#296 = CIRCLE ( 'NONE', #120, 19.00000000000000000 ) ;
#297 = ORIENTED_EDGE ( 'NONE', *, *, #242, .F. ) ;
#298 = EDGE_LOOP ( 'NONE', ( #184, #339 ) ) ;
#299 = AXIS2_PLACEMENT_3D ( 'NONE', #195, #250, #82 ) ;
#300 = EDGE_CURVE ( 'NONE', #264, #72, #8, .T. ) ;
#301 = VERTEX_POINT ( 'NONE', #308 ) ;
#302 = FACE_OUTER_BOUND ( 'NONE', #46, .T. ) ;
#303 =( NAMED_UNIT ( * ) SI_UNIT ( $, .STERADIAN. ) SOLID_ANGLE_UNIT ( ) );
#304 = EDGE_CURVE ( 'NONE', #264, #122, #97, .T. ) ;
#305 =( NAMED_UNIT ( * ) PLANE_ANGLE_UNIT ( ) SI_UNIT ( $, .RADIAN. ) );
#306 = ORIENTED_EDGE ( 'NONE', *, *, #343, .F. ) ;
#307 = DIRECTION ( 'NONE',  ( -1.000000000000000000, 0.0000000000000000000, 0.0000000000000000000 ) ) ;
#308 = CARTESIAN_POINT ( 'NONE',  ( -35.50000000002960100, -1.110223024625155900E-013, 20.99999999999999600 ) ) ;
#309 = VERTEX_POINT ( 'NONE', #360 ) ;
#310 = CARTESIAN_POINT ( 'NONE',  ( 49.99999999997039900, -5.724587470723458400E-014, 0.0000000000000000000 ) ) ;
#311 = FILL_AREA_STYLE ('',( #142 ) ) ;
#312 = DIRECTION ( 'NONE',  ( 1.000000000000000000, 0.0000000000000000000, 0.0000000000000000000 ) ) ;
#313 = PRODUCT_DEFINITION_SHAPE ( 'NONE', 'NONE',  #53 ) ;
#314 = CARTESIAN_POINT ( 'NONE',  ( 35.49999999997040600, -5.669478364761826900E-014, 30.00000000000000000 ) ) ;
#315 = EDGE_CURVE ( 'NONE', #160, #224, #4, .T. ) ;
#316 = ADVANCED_FACE ( 'NONE', ( #152 ), #317, .T. ) ;
#317 = TOROIDAL_SURFACE ( 'NONE', #94, 14.50000000000000000, 4.500000000000000000 ) ;
#318 = CARTESIAN_POINT ( 'NONE',  ( -50.00000000002960100, -5.724587470723458400E-014, 0.0000000000000000000 ) ) ;
#319 = AXIS2_PLACEMENT_3D ( 'NONE', #171, #340, #312 ) ;
#320 = PRODUCT ( 'THA_335_1_F', 'THA_335_1_F', '', ( #149 ) ) ;
#321 = EDGE_CURVE ( 'NONE', #258, #99, #188, .T. ) ;
#322 = DIRECTION ( 'NONE',  ( -1.000000000000000000, 0.0000000000000000000, 0.0000000000000000000 ) ) ;
#323 = VECTOR ( 'NONE', #239, 1000.000000000000000 ) ;
#324 = ORIENTED_EDGE ( 'NONE', *, *, #263, .F. ) ;
#325 = ORIENTED_EDGE ( 'NONE', *, *, #270, .T. ) ;
#326 = ORIENTED_EDGE ( 'NONE', *, *, #295, .F. ) ;
#327 = LINE ( 'NONE', #231, #323 ) ;
#328 = ADVANCED_FACE ( 'NONE', ( #114 ), #146, .T. ) ;
#329 = LINE ( 'NONE', #88, #83 ) ;
#330 = CARTESIAN_POINT ( 'NONE',  ( -45.50000000002960800, -5.724587470723458400E-014, 0.0000000000000000000 ) ) ;
#331 = EDGE_LOOP ( 'NONE', ( #372, #376, #7, #28 ) ) ;
#332 = EDGE_LOOP ( 'NONE', ( #102, #266, #162, #244 ) ) ;
#333 = SURFACE_SIDE_STYLE ('',( #215 ) ) ;
#334 = CIRCLE ( 'NONE', #351, 4.500000000000000900 ) ;
#335 = AXIS2_PLACEMENT_3D ( 'NONE', #226, #364, #133 ) ;
#336 = AXIS2_PLACEMENT_3D ( 'NONE', #341, #24, #106 ) ;
#337 = DIRECTION ( 'NONE',  ( 0.0000000000000000000, 0.0000000000000000000, -1.000000000000000000 ) ) ;
#338 = DIRECTION ( 'NONE',  ( 0.0000000000000000000, 0.0000000000000000000, -1.000000000000000000 ) ) ;
#339 = ORIENTED_EDGE ( 'NONE', *, *, #300, .T. ) ;
#340 = DIRECTION ( 'NONE',  ( 0.0000000000000000000, 0.0000000000000000000, 1.000000000000000000 ) ) ;
#341 = CARTESIAN_POINT ( 'NONE',  ( 45.49999999997039900, 995.5000000000000000, 0.0000000000000000000 ) ) ;
#342 = DIRECTION ( 'NONE',  ( 0.0000000000000000000, 0.0000000000000000000, -1.000000000000000000 ) ) ;
#343 = EDGE_CURVE ( 'NONE', #122, #147, #296, .T. ) ;
#344 = ORIENTED_EDGE ( 'NONE', *, *, #355, .F. ) ;
#345 = CARTESIAN_POINT ( 'NONE',  ( -54.50000000002960100, -5.669478364761826900E-014, 0.0000000000000000000 ) ) ;
#346 = DIRECTION ( 'NONE',  ( 1.000000000000000000, 0.0000000000000000000, 0.0000000000000000000 ) ) ;
#347 = CARTESIAN_POINT ( 'NONE',  ( 35.49999999997040600, -1.110223024625155900E-013, 11.00000000000000000 ) ) ;
#348 = APPLICATION_CONTEXT ( 'automotive_design' ) ;
#349 = AXIS2_PLACEMENT_3D ( 'NONE', #107, #285, #194 ) ;
#350 = EDGE_CURVE ( 'NONE', #275, #309, #370, .T. ) ;
#351 = AXIS2_PLACEMENT_3D ( 'NONE', #179, #358, #191 ) ;
#352 = AXIS2_PLACEMENT_3D ( 'NONE', #229, #138, #141 ) ;
#353 = PRESENTATION_STYLE_ASSIGNMENT (( #6 ) ) ;
#354 = PRODUCT_DEFINITION_CONTEXT ( 'detailed design', #227, 'design' ) ;
#355 = EDGE_CURVE ( 'NONE', #72, #193, #144, .T. ) ;
#356 = VECTOR ( 'NONE', #47, 1000.000000000000000 ) ;
#357 = DIRECTION ( 'NONE',  ( 0.0000000000000000000, 0.0000000000000000000, 1.000000000000000000 ) ) ;
#358 = DIRECTION ( 'NONE',  ( 1.000000000000000000, 0.0000000000000000000, 0.0000000000000000000 ) ) ;
#359 = ORIENTED_EDGE ( 'NONE', *, *, #355, .T. ) ;
#360 = CARTESIAN_POINT ( 'NONE',  ( 45.49999999997040600, -1.110223024625155900E-013, 11.00000000000000000 ) ) ;
#361 = UNCERTAINTY_MEASURE_WITH_UNIT (LENGTH_MEASURE( 1.000000000000000100E-005 ), #48, 'distance_accuracy_value', 'NONE');
#362 = DIRECTION ( 'NONE',  ( -1.000000000000000000, 0.0000000000000000000, 0.0000000000000000000 ) ) ;
#363 = ORIENTED_EDGE ( 'NONE', *, *, #292, .F. ) ;
#364 = DIRECTION ( 'NONE',  ( 0.0000000000000000000, 1.000000000000000000, 0.0000000000000000000 ) ) ;
#365 = AXIS2_PLACEMENT_3D ( 'NONE', #121, #262, #293 ) ;
#366 = CARTESIAN_POINT ( 'NONE',  ( 54.49999999997039900, -5.669478364761823100E-014, 11.00000000000000000 ) ) ;
#367 = CARTESIAN_POINT ( 'NONE',  ( -45.50000000002960800, -5.724587470723458400E-014, 0.0000000000000000000 ) ) ;
#368 = EDGE_CURVE ( 'NONE', #275, #99, #218, .T. ) ;
#369 = DIRECTION ( 'NONE',  ( 1.000000000000000000, 0.0000000000000000000, 0.0000000000000000000 ) ) ;
#370 = CIRCLE ( 'NONE', #156, 4.499999999999997300 ) ;
#371 = EDGE_CURVE ( 'NONE', #122, #193, #67, .T. ) ;
#372 = ORIENTED_EDGE ( 'NONE', *, *, #265, .T. ) ;
#373 = ORIENTED_EDGE ( 'NONE', *, *, #300, .F. ) ;
#374 = AXIS2_PLACEMENT_3D ( 'NONE', #51, #5, #128 ) ;
#375 = CARTESIAN_POINT ( 'NONE',  ( -50.00000000002960100, -5.724587470723458400E-014, 11.00000000000000000 ) ) ;
#376 = ORIENTED_EDGE ( 'NONE', *, *, #343, .T. ) ;
#377 = APPLICATION_CONTEXT ( 'automotive_design' ) ;
#378 = AXIS2_PLACEMENT_3D ( 'NONE', #251, #255, #307 ) ;
#379 = CIRCLE ( 'NONE', #139, 4.500000000000000900 ) ;
#380 = VECTOR ( 'NONE', #209, 1000.000000000000000 ) ;
#381 = NEXT_ASSEMBLY_USAGE_OCCURRENCE ( 'NAUO1', ' ', ' ', #90, #53, $ ) ;
ENDSEC;
END-ISO-10303-21;
