  0
SECTION
  2
HEADER
  9
$ACADVER
  1
AC1015
  9
$ACADMAINTVER
 70
    20
  9
$DWGCODEPAGE
  3
ANSI_932
  9
$INSBASE
 10
0.0
 20
0.0
 30
0.0
  9
$EXTMIN
 10
10.00000153760811
 20
9.999999806846744
 30
0.0
  9
$EXTMAX
 10
549.5406855376082
 20
329.1805788068467
 30
0.0
  9
$LIMMIN
 10
0.0000015376081137
 20
-0.0000001931532552
  9
$LIMMAX
 10
565.0000015376081
 20
389.5075755644223
  9
$ORTHOMODE
 70
     0
  9
$REGENMODE
 70
     1
  9
$FILLMODE
 70
     1
  9
$QTEXTMODE
 70
     0
  9
$MIRRTEXT
 70
     1
  9
$LTSCALE
 40
1.0
  9
$ATTMODE
 70
     1
  9
$TEXTSIZE
 40
2.5
  9
$TRACEWID
 40
1.0
  9
$TEXTSTYLE
  7
STANDARD
  9
$CLAYER
  8
0
  9
$CELTYPE
  6
ByLayer
  9
$CECOLOR
 62
   256
  9
$CELTSCALE
 40
1.0
  9
$DISPSILH
 70
     0
  9
$DIMSCALE
 40
1.0
  9
$DIMASZ
 40
3.0
  9
$DIMEXO
 40
1.0
  9
$DIMDLI
 40
10.0
  9
$DIMRND
 40
0.0
  9
$DIMDLE
 40
0.0
  9
$DIMEXE
 40
1.0
  9
$DIMTP
 40
0.0
  9
$DIMTM
 40
0.0
  9
$DIMTXT
 40
3.2
  9
$DIMCEN
 40
0.0
  9
$DIMTSZ
 40
0.0
  9
$DIMTOL
 70
     0
  9
$DIMLIM
 70
     0
  9
$DIMTIH
 70
     0
  9
$DIMTOH
 70
     0
  9
$DIMSE1
 70
     0
  9
$DIMSE2
 70
     0
  9
$DIMTAD
 70
     3
  9
$DIMZIN
 70
     8
  9
$DIMBLK
  1

  9
$DIMASO
 70
     1
  9
$DIMSHO
 70
     1
  9
$DIMPOST
  1

  9
$DIMAPOST
  1

  9
$DIMALT
 70
     0
  9
$DIMALTD
 70
     2
  9
$DIMALTF
 40
25.4
  9
$DIMLFAC
 40
1.0
  9
$DIMTOFL
 70
     1
  9
$DIMTVP
 40
0.0
  9
$DIMTIX
 70
     0
  9
$DIMSOXD
 70
     0
  9
$DIMSAH
 70
     1
  9
$DIMBLK1
  1
OPEN
  9
$DIMBLK2
  1
OPEN
  9
$DIMSTYLE
  2
STANDARD
  9
$DIMCLRD
 70
     0
  9
$DIMCLRE
 70
     0
  9
$DIMCLRT
 70
     0
  9
$DIMTFAC
 40
1.0
  9
$DIMGAP
 40
1.0
  9
$DIMJUST
 70
     0
  9
$DIMSD1
 70
     0
  9
$DIMSD2
 70
     0
  9
$DIMTOLJ
 70
     1
  9
$DIMTZIN
 70
     0
  9
$DIMALTZ
 70
     0
  9
$DIMALTTZ
 70
     0
  9
$DIMUPT
 70
     0
  9
$DIMDEC
 70
     4
  9
$DIMTDEC
 70
     4
  9
$DIMALTU
 70
     2
  9
$DIMALTTD
 70
     2
  9
$DIMTXSTY
  7
STANDARD
  9
$DIMAUNIT
 70
     0
  9
$DIMADEC
 70
     0
  9
$DIMALTRND
 40
0.0
  9
$DIMAZIN
 70
     0
  9
$DIMDSEP
 70
    46
  9
$DIMATFIT
 70
     3
  9
$DIMFRAC
 70
     0
  9
$DIMLDRBLK
  1
OPEN
  9
$DIMLUNIT
 70
     2
  9
$DIMLWD
 70
    -2
  9
$DIMLWE
 70
    -2
  9
$DIMTMOVE
 70
     0
  9
$LUNITS
 70
     2
  9
$LUPREC
 70
     4
  9
$SKETCHINC
 40
1.0
  9
$FILLETRAD
 40
10.0
  9
$AUNITS
 70
     0
  9
$AUPREC
 70
     0
  9
$MENU
  1
.
  9
$ELEVATION
 40
0.0
  9
$PELEVATION
 40
0.0
  9
$THICKNESS
 40
0.0
  9
$LIMCHECK
 70
     0
  9
$CHAMFERA
 40
10.0
  9
$CHAMFERB
 40
10.0
  9
$CHAMFERC
 40
0.0
  9
$CHAMFERD
 40
0.0
  9
$SKPOLY
 70
     0
  9
$TDCREATE
 40
2456310.459832894
  9
$TDUCREATE
 40
2456310.084832894
  9
$TDUPDATE
 40
2457192.642313577
  9
$TDUUPDATE
 40
2457192.267313577
  9
$TDINDWG
 40
0.0011194444
  9
$TDUSRTIMER
 40
0.0011194213
  9
$USRTIMER
 70
     1
  9
$ANGBASE
 50
0.0
  9
$ANGDIR
 70
     0
  9
$PDMODE
 70
     0
  9
$PDSIZE
 40
0.0
  9
$PLINEWID
 40
0.0
  9
$SPLFRAME
 70
     0
  9
$SPLINETYPE
 70
     6
  9
$SPLINESEGS
 70
     8
  9
$HANDSEED
  5
6A5
  9
$SURFTAB1
 70
     6
  9
$SURFTAB2
 70
     6
  9
$SURFTYPE
 70
     6
  9
$SURFU
 70
     6
  9
$SURFV
 70
     6
  9
$UCSBASE
  2

  9
$UCSNAME
  2

  9
$UCSORG
 10
0.0
 20
0.0
 30
0.0
  9
$UCSXDIR
 10
1.0
 20
0.0
 30
0.0
  9
$UCSYDIR
 10
0.0
 20
1.0
 30
0.0
  9
$UCSORTHOREF
  2

  9
$UCSORTHOVIEW
 70
     0
  9
$UCSORGTOP
 10
0.0
 20
0.0
 30
0.0
  9
$UCSORGBOTTOM
 10
0.0
 20
0.0
 30
0.0
  9
$UCSORGLEFT
 10
0.0
 20
0.0
 30
0.0
  9
$UCSORGRIGHT
 10
0.0
 20
0.0
 30
0.0
  9
$UCSORGFRONT
 10
0.0
 20
0.0
 30
0.0
  9
$UCSORGBACK
 10
0.0
 20
0.0
 30
0.0
  9
$PUCSBASE
  2

  9
$PUCSNAME
  2

  9
$PUCSORG
 10
0.0
 20
0.0
 30
0.0
  9
$PUCSXDIR
 10
1.0
 20
0.0
 30
0.0
  9
$PUCSYDIR
 10
0.0
 20
1.0
 30
0.0
  9
$PUCSORTHOREF
  2

  9
$PUCSORTHOVIEW
 70
     0
  9
$PUCSORGTOP
 10
0.0
 20
0.0
 30
0.0
  9
$PUCSORGBOTTOM
 10
0.0
 20
0.0
 30
0.0
  9
$PUCSORGLEFT
 10
0.0
 20
0.0
 30
0.0
  9
$PUCSORGRIGHT
 10
0.0
 20
0.0
 30
0.0
  9
$PUCSORGFRONT
 10
0.0
 20
0.0
 30
0.0
  9
$PUCSORGBACK
 10
0.0
 20
0.0
 30
0.0
  9
$USERI1
 70
     0
  9
$USERI2
 70
     0
  9
$USERI3
 70
     0
  9
$USERI4
 70
     0
  9
$USERI5
 70
     0
  9
$USERR1
 40
0.0
  9
$USERR2
 40
0.0
  9
$USERR3
 40
0.0
  9
$USERR4
 40
0.0
  9
$USERR5
 40
0.0
  9
$WORLDVIEW
 70
     1
  9
$SHADEDGE
 70
     3
  9
$SHADEDIF
 70
    70
  9
$TILEMODE
 70
     1
  9
$MAXACTVP
 70
    48
  9
$PINSBASE
 10
0.0
 20
0.0
 30
0.0
  9
$PLIMCHECK
 70
     0
  9
$PEXTMIN
 10
1.000000000000000E+20
 20
1.000000000000000E+20
 30
1.000000000000000E+20
  9
$PEXTMAX
 10
-1.000000000000000E+20
 20
-1.000000000000000E+20
 30
-1.000000000000000E+20
  9
$PLIMMIN
 10
0.0
 20
0.0
  9
$PLIMMAX
 10
420.0
 20
297.0
  9
$UNITMODE
 70
     0
  9
$VISRETAIN
 70
     1
  9
$PLINEGEN
 70
     0
  9
$PSLTSCALE
 70
     1
  9
$TREEDEPTH
 70
  3020
  9
$CMLSTYLE
  2
Standard
  9
$CMLJUST
 70
     0
  9
$CMLSCALE
 40
1.0
  9
$PROXYGRAPHICS
 70
     1
  9
$MEASUREMENT
 70
     0
  9
$CELWEIGHT
370
    -1
  9
$ENDCAPS
280
     0
  9
$JOINSTYLE
280
     0
  9
$LWDISPLAY
290
     0
  9
$INSUNITS
 70
     0
  9
$HYPERLINKBASE
  1

  9
$STYLESHEET
  1

  9
$XEDIT
290
     1
  9
$CEPSNTYPE
380
     0
  9
$PSTYLEMODE
290
     1
  9
$FINGERPRINTGUID
  2
{7DA37DF9-F805-4825-A9DA-94B34C23C0C1}
  9
$VERSIONGUID
  2
{AC75E35F-C548-4457-AE8E-8B67A8C16F36}
  9
$EXTNAMES
290
     1
  9
$PSVPSCALE
 40
0.0
  9
$OLESTARTUP
290
     0
  0
ENDSEC
  0
SECTION
  2
CLASSES
  0
CLASS
  1
ACDBDICTIONARYWDFLT
  2
AcDbDictionaryWithDefault
  3
ObjectDBX Classes
 90
        0
280
     0
281
     0
  0
CLASS
  1
MATERIAL
  2
AcDbMaterial
  3
ObjectDBX Classes
 90
     1153
280
     0
281
     0
  0
CLASS
  1
VISUALSTYLE
  2
AcDbVisualStyle
  3
ObjectDBX Classes
 90
     4095
280
     0
281
     0
  0
CLASS
  1
SCALE
  2
AcDbScale
  3
ObjectDBX Classes
 90
     1153
280
     0
281
     0
  0
CLASS
  1
TABLESTYLE
  2
AcDbTableStyle
  3
ObjectDBX Classes
 90
     4095
280
     0
281
     0
  0
CLASS
  1
MLEADERSTYLE
  2
AcDbMLeaderStyle
  3
ACDB_MLEADERSTYLE_CLASS
 90
     4095
280
     0
281
     0
  0
CLASS
  1
ACDBSECTIONVIEWSTYLE
  2
AcDbSectionViewStyle
  3
ObjectDBX Classes
 90
     1025
280
     0
281
     0
  0
CLASS
  1
ACDBDETAILVIEWSTYLE
  2
AcDbDetailViewStyle
  3
ObjectDBX Classes
 90
     1025
280
     0
281
     0
  0
CLASS
  1
DICTIONARYVAR
  2
AcDbDictionaryVar
  3
ObjectDBX Classes
 90
        0
280
     0
281
     0
  0
CLASS
  1
CELLSTYLEMAP
  2
AcDbCellStyleMap
  3
ObjectDBX Classes
 90
     1152
280
     0
281
     0
  0
CLASS
  1
ACDBPLACEHOLDER
  2
AcDbPlaceHolder
  3
ObjectDBX Classes
 90
        0
280
     0
281
     0
  0
CLASS
  1
LAYOUT
  2
AcDbLayout
  3
ObjectDBX Classes
 90
        0
280
     0
281
     0
  0
ENDSEC
  0
SECTION
  2
TABLES
  0
TABLE
  2
VPORT
  5
5C8
330
0
100
AcDbSymbolTable
 70
     1
  0
VPORT
  5
633
330
5C8
100
AcDbSymbolTableRecord
100
AcDbViewportTableRecord
  2
*ACTIVE
 70
     0
 10
0.0
 20
0.0
 11
1.0
 21
1.0
 12
425.6489899197261
 22
169.5834305411714
 13
0.0
 23
0.0
 14
10.0
 24
10.0
 15
10.0
 25
10.0
 16
0.0
 26
0.0
 36
1.0
 17
0.0
 27
0.0
 37
0.0
 40
354.9380115262728
 41
1.899603698811096
 42
50.0
 43
0.0
 44
0.0
 50
0.0
 51
0.0
 71
     0
 72
   100
 73
     1
 74
     0
 75
     0
 76
     0
 77
     0
 78
     0
281
     0
 65
     1
110
0.0
120
0.0
130
0.0
111
1.0
121
0.0
131
0.0
112
0.0
122
1.0
132
0.0
 79
     0
146
0.0
1001
ACAD_NAV_VCDISPLAY
1070
     3
  0
ENDTAB
  0
TABLE
  2
LTYPE
  5
5C5
330
0
100
AcDbSymbolTable
 70
     4
  0
LTYPE
  5
61A
330
5C5
100
AcDbSymbolTableRecord
100
AcDbLinetypeTableRecord
  2
ByBlock
 70
     0
  3

 72
    65
 73
     0
 40
0.0
  0
LTYPE
  5
61B
330
5C5
100
AcDbSymbolTableRecord
100
AcDbLinetypeTableRecord
  2
ByLayer
 70
     0
  3

 72
    65
 73
     0
 40
0.0
  0
LTYPE
  5
61C
330
5C5
100
AcDbSymbolTableRecord
100
AcDbLinetypeTableRecord
  2
CONTINUOUS
 70
     0
  3
Solid line
 72
    65
 73
     0
 40
0.0
  0
LTYPE
  5
634
330
5C5
100
AcDbSymbolTableRecord
100
AcDbLinetypeTableRecord
  2
DASHED
 70
     0
  3
Dashed __ __ __ __ __ __ __ __ __ __ __ __ __ _
 72
    65
 73
     2
 40
19.04999999999999
 49
12.7
 74
     0
 49
-6.349999999999998
 74
     0
  0
LTYPE
  5
635
330
5C5
100
AcDbSymbolTableRecord
100
AcDbLinetypeTableRecord
  2
CENTER
 70
     0
  3
Center ____ _ ____ _ ____ _ ____ _ ____ _ ____
 72
    65
 73
     4
 40
50.8
 49
31.75
 74
     0
 49
-6.349999999999998
 74
     0
 49
6.349999999999998
 74
     0
 49
-6.349999999999998
 74
     0
  0
LTYPE
  5
636
330
5C5
100
AcDbSymbolTableRecord
100
AcDbLinetypeTableRecord
  2
PHANTOM
 70
     0
  3
Phantom ______  __  __  ______  __  __  ______
 72
    65
 73
     6
 40
63.5
 49
31.75
 74
     0
 49
-6.349999999999998
 74
     0
 49
6.349999999999998
 74
     0
 49
-6.349999999999998
 74
     0
 49
6.349999999999998
 74
     0
 49
-6.349999999999998
 74
     0
  0
ENDTAB
  0
TABLE
  2
LAYER
  5
5C2
330
0
100
AcDbSymbolTable
 70
     8
  0
LAYER
  5
614
102
{ACAD_XDICTIONARY
360
649
102
}
330
5C2
100
AcDbSymbolTableRecord
100
AcDbLayerTableRecord
  2
0
 70
     0
 62
     7
  6
CONTINUOUS
370
    -3
390
5CF
  0
LAYER
  5
637
102
{ACAD_XDICTIONARY
360
64B
102
}
330
5C2
100
AcDbSymbolTableRecord
100
AcDbLayerTableRecord
  2
4
 70
     0
 62
     1
  6
CENTER
370
    -3
390
5CF
  0
LAYER
  5
638
102
{ACAD_XDICTIONARY
360
64D
102
}
330
5C2
100
AcDbSymbolTableRecord
100
AcDbLayerTableRecord
  2
5
 70
     0
 62
     6
  6
PHANTOM
370
    -3
390
5CF
  0
LAYER
  5
639
102
{ACAD_XDICTIONARY
360
64F
102
}
330
5C2
100
AcDbSymbolTableRecord
100
AcDbLayerTableRecord
  2
1
 70
     0
 62
     7
  6
CONTINUOUS
370
    -3
390
5CF
  0
LAYER
  5
63A
102
{ACAD_XDICTIONARY
360
651
102
}
330
5C2
100
AcDbSymbolTableRecord
100
AcDbLayerTableRecord
  2
2
 70
     0
 62
     4
  6
CONTINUOUS
370
    -3
390
5CF
  0
LAYER
  5
63B
102
{ACAD_XDICTIONARY
360
653
102
}
330
5C2
100
AcDbSymbolTableRecord
100
AcDbLayerTableRecord
  2
3
 70
     0
 62
     2
  6
DASHED
370
    -3
390
5CF
  0
LAYER
  5
63C
102
{ACAD_XDICTIONARY
360
655
102
}
330
5C2
100
AcDbSymbolTableRecord
100
AcDbLayerTableRecord
  2
6
 70
     0
 62
     5
  6
CONTINUOUS
370
    -3
390
5CF
  0
LAYER
  5
63D
102
{ACAD_XDICTIONARY
360
657
102
}
330
5C2
100
AcDbSymbolTableRecord
100
AcDbLayerTableRecord
  2
7
 70
     0
 62
     3
  6
CONTINUOUS
370
    -3
390
5CF
  0
ENDTAB
  0
TABLE
  2
STYLE
  5
5C3
330
0
100
AcDbSymbolTable
 70
     2
  0
STYLE
  5
615
330
5C3
100
AcDbSymbolTableRecord
100
AcDbTextStyleTableRecord
  2
STANDARD
 70
     0
 40
0.0
 41
1.0
 50
0.0
 71
     0
 42
2.5
  3
simplex.shx
  4

  0
STYLE
  5
619
330
5C3
100
AcDbSymbolTableRecord
100
AcDbTextStyleTableRecord
  2
Annotative
 70
     0
 40
0.0
 41
1.0
 50
0.0
 71
     0
 42
0.2
  3
txt
  4

1001
AcadAnnotative
1000
AnnotativeData
1002
{
1070
     1
1070
     1
1002
}
  0
ENDTAB
  0
TABLE
  2
VIEW
  5
5C6
330
0
100
AcDbSymbolTable
 70
     0
  0
ENDTAB
  0
TABLE
  2
UCS
  5
5C7
330
0
100
AcDbSymbolTable
 70
     0
  0
ENDTAB
  0
TABLE
  2
APPID
  5
5C9
330
0
100
AcDbSymbolTable
 70
     6
  0
APPID
  5
616
330
5C9
100
AcDbSymbolTableRecord
100
AcDbRegAppTableRecord
  2
ACAD
 70
     0
  0
APPID
  5
61D
330
5C9
100
AcDbSymbolTableRecord
100
AcDbRegAppTableRecord
  2
AcadAnnotative
 70
     0
  0
APPID
  5
63E
330
5C9
100
AcDbSymbolTableRecord
100
AcDbRegAppTableRecord
  2
CONTENTTABDATA
 70
     0
  0
APPID
  5
63F
330
5C9
100
AcDbSymbolTableRecord
100
AcDbRegAppTableRecord
  2
CONTENTCURRENTTAB
 70
     0
  0
APPID
  5
663
330
5C9
100
AcDbSymbolTableRecord
100
AcDbRegAppTableRecord
  2
ACAD_NAV_VCDISPLAY
 70
     0
  0
APPID
  5
69C
330
5C9
100
AcDbSymbolTableRecord
100
AcDbRegAppTableRecord
  2
ACAD_MLEADERVER
 70
     0
  0
ENDTAB
  0
TABLE
  2
DIMSTYLE
  5
5CA
330
0
100
AcDbSymbolTable
 70
     2
100
AcDbDimStyleTable
 71
     0
  0
DIMSTYLE
105
617
330
5CA
100
AcDbSymbolTableRecord
100
AcDbDimStyleTableRecord
  2
STANDARD
 70
     0
 41
3.0
 42
1.0
 43
10.0
 44
1.0
 73
     0
 74
     0
 77
     3
 78
     8
140
3.2
141
0.0
147
1.0
172
     1
173
     1
279
     2
284
     8
285
     8
286
     8
340
615
  0
DIMSTYLE
105
618
330
5CA
100
AcDbSymbolTableRecord
100
AcDbDimStyleTableRecord
  2
Annotative
 70
     0
340
615
1001
AcadAnnotative
1000
AnnotativeData
1002
{
1070
     1
1070
     1
1002
}
  0
ENDTAB
  0
TABLE
  2
BLOCK_RECORD
  5
5C1
330
0
100
AcDbSymbolTable
 70
     3
  0
BLOCK_RECORD
  5
62F
330
5C1
100
AcDbSymbolTableRecord
100
AcDbBlockTableRecord
  2
*Model_Space
340
632
  0
BLOCK_RECORD
  5
62B
330
5C1
100
AcDbSymbolTableRecord
100
AcDbBlockTableRecord
  2
*Paper_Space
340
62E
  0
BLOCK_RECORD
  5
642
330
5C1
100
AcDbSymbolTableRecord
100
AcDbBlockTableRecord
  2
$MODEL_SPACE
340
0
  0
BLOCK_RECORD
  5
644
330
5C1
100
AcDbSymbolTableRecord
100
AcDbBlockTableRecord
  2
$PAPER_SPACE
340
0
  0
BLOCK_RECORD
  5
646
330
5C1
100
AcDbSymbolTableRecord
100
AcDbBlockTableRecord
  2
_OPEN
340
0
  0
ENDTAB
  0
ENDSEC
  0
SECTION
  2
BLOCKS
  0
BLOCK
  5
630
330
62F
100
AcDbEntity
  8
0
100
AcDbBlockBegin
  2
*Model_Space
 70
     0
 10
0.0
 20
0.0
 30
0.0
  3
*Model_Space
  1

  0
ENDBLK
  5
631
330
62F
100
AcDbEntity
  8
0
100
AcDbBlockEnd
  0
BLOCK
  5
62C
330
62B
100
AcDbEntity
 67
     1
  8
0
100
AcDbBlockBegin
  2
*Paper_Space
 70
     0
 10
0.0
 20
0.0
 30
0.0
  3
*Paper_Space
  1

  0
ENDBLK
  5
62D
330
62B
100
AcDbEntity
 67
     1
  8
0
100
AcDbBlockEnd
  0
BLOCK
  5
643
330
642
100
AcDbEntity
  8
0
100
AcDbBlockBegin
  2
$MODEL_SPACE
 70
     0
 10
0.0
 20
0.0
 30
0.0
  3
$MODEL_SPACE
  1

  0
ENDBLK
  5
1A
330
642
100
AcDbEntity
  8
0
100
AcDbBlockEnd
  0
BLOCK
  5
645
330
644
100
AcDbEntity
  8
0
100
AcDbBlockBegin
  2
$PAPER_SPACE
 70
     0
 10
0.0
 20
0.0
 30
0.0
  3
$PAPER_SPACE
  1

  0
ENDBLK
  5
17
330
644
100
AcDbEntity
  8
0
100
AcDbBlockEnd
  0
BLOCK
  5
647
330
646
100
AcDbEntity
  8
0
100
AcDbBlockBegin
  2
_OPEN
 70
     0
 10
0.0
 20
0.0
 30
0.0
  3
_OPEN
  1

  0
LINE
  5
30
330
646
100
AcDbEntity
  8
0
  6
ByBlock
 62
     0
100
AcDbLine
 10
-1.0
 20
0.1666666666666666
 30
0.0
 11
0.0
 21
0.0
 31
0.0
  0
LINE
  5
31
330
646
100
AcDbEntity
  8
0
  6
ByBlock
 62
     0
100
AcDbLine
 10
0.0
 20
0.0
 30
0.0
 11
-1.0
 21
-0.1666666666666666
 31
0.0
  0
LINE
  5
32
330
646
100
AcDbEntity
  8
0
  6
ByBlock
 62
     0
100
AcDbLine
 10
0.0
 20
0.0
 30
0.0
 11
-1.0
 21
0.0
 31
0.0
  0
ENDBLK
  5
33
330
646
100
AcDbEntity
  8
0
100
AcDbBlockEnd
  0
ENDSEC
  0
SECTION
  2
ENTITIES
  0
ARC
  5
32E
330
62F
100
AcDbEntity
  8
1
  6
Continuous
100
AcDbCircle
 10
38.50000153760811
 20
273.0424928068465
 30
0.0
 40
0.5
100
AcDbArc
 50
270.0
 51
0.0
  0
ARC
  5
32F
330
62F
100
AcDbEntity
  8
1
  6
Continuous
100
AcDbCircle
 10
25.50000153760811
 20
273.0424928068465
 30
0.0
 40
0.5
100
AcDbArc
 50
180.0
 51
270.0
  0
ARC
  5
330
330
62F
100
AcDbEntity
  8
5
  6
PHANTOM
100
AcDbCircle
 10
154.194497537608
 20
187.8472208068466
 30
0.0
 40
6.0
100
AcDbArc
 50
135.0
 51
225.0
  0
LINE
  5
331
330
62F
100
AcDbEntity
  8
5
  6
PHANTOM
100
AcDbLine
 10
154.950846537608
 20
204.1599188068466
 30
0.0
 11
127.324439537608
 21
176.5335118068467
 31
0.0
  0
LINE
  5
332
330
62F
100
AcDbEntity
  8
5
  6
PHANTOM
100
AcDbLine
 10
157.022924537608
 20
173.7050848068465
 30
0.0
 11
146.537975537608
 21
163.2201358068467
 31
0.0
  0
TEXT
  5
333
330
62F
100
AcDbEntity
  8
4
  6
CENTER
100
AcDbText
 10
23.9795125376081
 20
10.04873680684672
 30
0.0
 40
1.399999999999999
  1
4
100
AcDbText
  0
TEXT
  5
334
330
62F
100
AcDbEntity
  8
7
  6
Continuous
100
AcDbText
 10
10.00000153760811
 20
17.99999980684674
 30
0.0
 40
3.0
  1
TYPE No.THA-405-3
100
AcDbText
  0
TEXT
  5
335
330
62F
100
AcDbEntity
  8
7
  6
Continuous
100
AcDbText
 10
10.00000153760811
 20
25.99999980684674
 30
0.0
 40
3.0
  1
CODE No.13270
100
AcDbText
  0
TEXT
  5
336
330
62F
100
AcDbEntity
  8
1
  6
Continuous
100
AcDbText
 10
10.00000153760811
 20
9.999999806846744
 30
0.0
 40
1.399999999999999
  1
LAYER
100
AcDbText
  0
TEXT
  5
337
330
62F
100
AcDbEntity
  8
1
  6
Continuous
100
AcDbText
 10
17.97951253760809
 20
10.04873680684672
 30
0.0
 40
1.399999999999999
  1
1
100
AcDbText
  0
TEXT
  5
338
330
62F
100
AcDbEntity
  8
3
  6
DASHED
100
AcDbText
 10
21.97951253760811
 20
10.04873680684672
 30
0.0
 40
1.399999999999999
  1
3
100
AcDbText
  0
TEXT
  5
339
330
62F
100
AcDbEntity
  8
2
  6
Continuous
100
AcDbText
 10
19.97951253760809
 20
10.04873680684672
 30
0.0
 40
1.399999999999999
  1
2
100
AcDbText
  0
TEXT
  5
33A
330
62F
100
AcDbEntity
  8
7
  6
Continuous
100
AcDbText
 10
29.97951253760811
 20
10.04873680684672
 30
0.0
 40
1.399999999999999
  1
7
100
AcDbText
  0
TEXT
  5
33B
330
62F
100
AcDbEntity
  8
6
  6
Continuous
100
AcDbText
 10
27.97951253760811
 20
10.04873680684672
 30
0.0
 40
1.399999999999999
  1
6
100
AcDbText
  0
TEXT
  5
33C
330
62F
100
AcDbEntity
  8
5
  6
PHANTOM
100
AcDbText
 10
25.97951253760811
 20
10.04873680684672
 30
0.0
 40
1.399999999999999
  1
5
100
AcDbText
  0
ARC
  5
33D
330
62F
100
AcDbEntity
  8
1
  6
Continuous
100
AcDbCircle
 10
30.00000153760811
 20
223.5248898068467
 30
0.0
 40
5.0
100
AcDbArc
 50
90.0
 51
180.0
  0
ARC
  5
33E
330
62F
100
AcDbEntity
  8
1
  6
Continuous
100
AcDbCircle
 10
30.00000153760811
 20
149.5248898068466
 30
0.0
 40
5.0
100
AcDbArc
 50
180.0
 51
270.0
  0
LINE
  5
33F
330
62F
100
AcDbEntity
  8
1
  6
Continuous
100
AcDbLine
 10
25.00000153760811
 20
223.5248898068467
 30
0.0
 11
25.00000153760811
 21
149.5248898068466
 31
0.0
  0
LINE
  5
340
330
62F
100
AcDbEntity
  8
1
  6
Continuous
100
AcDbLine
 10
53.0000015376081
 20
223.5248898068467
 30
0.0
 11
53.0000015376081
 21
149.5248898068466
 31
0.0
  0
LINE
  5
341
330
62F
100
AcDbEntity
  8
1
  6
Continuous
100
AcDbLine
 10
50.00000153760812
 20
149.5248898068466
 30
0.0
 11
50.00000153760812
 21
223.5248898068467
 31
0.0
  0
LINE
  5
342
330
62F
100
AcDbEntity
  8
1
  6
Continuous
100
AcDbLine
 10
28.00000153760811
 20
223.5248898068467
 30
0.0
 11
28.00000153760811
 21
149.5248898068466
 31
0.0
  0
LINE
  5
343
330
62F
100
AcDbEntity
  8
1
  6
Continuous
100
AcDbLine
 10
29.25000153760811
 20
160.0248898068466
 30
0.0
 11
29.25000153760811
 21
205.5248898068467
 31
0.0
  0
LINE
  5
344
330
62F
100
AcDbEntity
  8
1
  6
Continuous
100
AcDbLine
 10
48.75000153760812
 20
160.0248898068466
 30
0.0
 11
48.75000153760812
 21
205.5248898068467
 31
0.0
  0
LINE
  5
345
330
62F
100
AcDbEntity
  8
4
  6
CENTER
100
AcDbLine
 10
39.00000153760811
 20
231.5248898068466
 30
0.0
 11
39.00000153760811
 21
141.5248898068466
 31
0.0
  0
LINE
  5
346
330
62F
100
AcDbEntity
  8
1
  6
Continuous
100
AcDbLine
 10
29.50000153760811
 20
205.4248898068467
 30
0.0
 11
29.50000153760811
 21
160.5248898068467
 31
0.0
  0
LINE
  5
347
330
62F
100
AcDbEntity
  8
1
  6
Continuous
100
AcDbLine
 10
48.50000153760809
 20
205.4248898068467
 30
0.0
 11
48.50000153760809
 21
160.5248898068467
 31
0.0
  0
ARC
  5
348
330
62F
100
AcDbEntity
  8
1
  6
Continuous
100
AcDbCircle
 10
48.0000015376081
 20
149.5248898068466
 30
0.0
 40
5.0
100
AcDbArc
 50
270.0
 51
0.0
  0
LINE
  5
349
330
62F
100
AcDbEntity
  8
1
  6
Continuous
100
AcDbLine
 10
48.0000015376081
 20
144.5248898068466
 30
0.0
 11
30.00000153760811
 21
144.5248898068466
 31
0.0
  0
LINE
  5
34A
330
62F
100
AcDbEntity
  8
1
  6
Continuous
100
AcDbLine
 10
30.00000153760811
 20
147.5248898068466
 30
0.0
 11
48.0000015376081
 21
147.5248898068466
 31
0.0
  0
LINE
  5
34B
330
62F
100
AcDbEntity
  8
1
  6
Continuous
100
AcDbLine
 10
46.7500015376081
 20
158.0248898068466
 30
0.0
 11
31.25000153760811
 21
158.0248898068466
 31
0.0
  0
LINE
  5
34C
330
62F
100
AcDbEntity
  8
1
  6
Continuous
100
AcDbLine
 10
31.50000153760811
 20
158.5248898068467
 30
0.0
 11
46.50000153760809
 21
158.5248898068467
 31
0.0
  0
ARC
  5
34D
330
62F
100
AcDbEntity
  8
1
  6
Continuous
100
AcDbCircle
 10
30.00000153760811
 20
149.5248898068466
 30
0.0
 40
2.0
100
AcDbArc
 50
180.0
 51
270.0
  0
ARC
  5
34E
330
62F
100
AcDbEntity
  8
1
  6
Continuous
100
AcDbCircle
 10
31.25000153760811
 20
160.0248898068466
 30
0.0
 40
2.0
100
AcDbArc
 50
180.0
 51
270.0
  0
ARC
  5
34F
330
62F
100
AcDbEntity
  8
1
  6
Continuous
100
AcDbCircle
 10
31.50000153760811
 20
160.5248898068467
 30
0.0
 40
2.0
100
AcDbArc
 50
180.0
 51
270.0
  0
ARC
  5
350
330
62F
100
AcDbEntity
  8
1
  6
Continuous
100
AcDbCircle
 10
48.0000015376081
 20
149.5248898068466
 30
0.0
 40
2.0
100
AcDbArc
 50
270.0
 51
0.0
  0
ARC
  5
351
330
62F
100
AcDbEntity
  8
1
  6
Continuous
100
AcDbCircle
 10
46.7500015376081
 20
160.0248898068466
 30
0.0
 40
2.0
100
AcDbArc
 50
270.0
 51
0.0
  0
ARC
  5
352
330
62F
100
AcDbEntity
  8
1
  6
Continuous
100
AcDbCircle
 10
46.50000153760809
 20
160.5248898068467
 30
0.0
 40
2.0
100
AcDbArc
 50
270.0
 51
0.0
  0
ARC
  5
353
330
62F
100
AcDbEntity
  8
1
  6
Continuous
100
AcDbCircle
 10
30.25000153760811
 20
181.0248898068465
 30
0.0
 40
1.0
100
AcDbArc
 50
138.5903779999999
 51
180.0
  0
ARC
  5
354
330
62F
100
AcDbEntity
  8
1
  6
Continuous
100
AcDbCircle
 10
47.75000153760809
 20
181.0248898068465
 30
0.0
 40
1.0
100
AcDbArc
 50
0.0
 51
41.40962199999999
  0
ARC
  5
355
330
62F
100
AcDbEntity
  8
5
  6
PHANTOM
100
AcDbCircle
 10
162.6797785376081
 20
205.5248898068467
 30
0.0
 40
46.5
100
AcDbArc
 50
230.5232859999999
 51
246.7641319999999
  0
ARC
  5
356
330
62F
100
AcDbEntity
  8
5
  6
PHANTOM
100
AcDbCircle
 10
145.1237615376079
 20
164.6343498068467
 30
0.0
 40
2.0
100
AcDbArc
 50
246.7641319999999
 51
315.0
  0
LINE
  5
357
330
62F
100
AcDbEntity
  8
5
  6
PHANTOM
100
AcDbLine
 10
127.431452537608
 20
174.3150268068466
 30
0.0
 11
133.116726537608
 21
169.6323288068467
 31
0.0
  0
ARC
  5
358
330
62F
100
AcDbEntity
  8
5
  6
PHANTOM
100
AcDbCircle
 10
128.385099537608
 20
175.4728518068467
 30
0.0
 40
1.5
100
AcDbArc
 50
135.0
 51
230.5232859999999
  0
LINE
  5
359
330
62F
100
AcDbEntity
  8
4
  6
CENTER
100
AcDbLine
 10
84.89054253760809
 20
205.5248898068467
 30
0.0
 11
26.29852553760811
 21
205.5248898068467
 31
0.0
  0
LINE
  5
35A
330
62F
100
AcDbEntity
  8
5
  6
PHANTOM
100
AcDbLine
 10
45.68456253760809
 20
196.0248898068467
 30
0.0
 11
79.89054253760811
 21
196.0248898068467
 31
0.0
  0
LINE
  5
35B
330
62F
100
AcDbEntity
  8
5
  6
PHANTOM
100
AcDbLine
 10
45.68456253760809
 20
215.0248898068467
 30
0.0
 11
79.89054253760811
 21
215.0248898068467
 31
0.0
  0
ARC
  5
35C
330
62F
100
AcDbEntity
  8
1
  6
Continuous
100
AcDbCircle
 10
39.00000153760811
 20
205.5248898068467
 30
0.0
 40
9.75
100
AcDbArc
 50
346.9971759999999
 51
193.002824
  0
ARC
  5
35D
330
62F
100
AcDbEntity
  8
1
  6
Continuous
100
AcDbCircle
 10
39.00000153760811
 20
205.4248898068467
 30
0.0
 40
9.5
100
AcDbArc
 50
0.0
 51
180.0
  0
ARC
  5
35E
330
62F
100
AcDbEntity
  8
1
  6
Continuous
100
AcDbCircle
 10
39.00000153760811
 20
199.3482918068466
 30
0.0
 40
9.5
100
AcDbArc
 50
0.0
 51
180.0
  0
LINE
  5
35F
330
62F
100
AcDbEntity
  8
1
  6
Continuous
100
AcDbLine
 10
48.0000015376081
 20
228.5248898068467
 30
0.0
 11
30.00000153760811
 21
228.5248898068467
 31
0.0
  0
LINE
  5
360
330
62F
100
AcDbEntity
  8
1
  6
Continuous
100
AcDbLine
 10
48.0000015376081
 20
225.5248898068467
 30
0.0
 11
30.00000153760811
 21
225.5248898068467
 31
0.0
  0
ARC
  5
361
330
62F
100
AcDbEntity
  8
1
  6
Continuous
100
AcDbCircle
 10
30.00000153760811
 20
223.5248898068467
 30
0.0
 40
2.0
100
AcDbArc
 50
90.0
 51
180.0
  0
ARC
  5
362
330
62F
100
AcDbEntity
  8
1
  6
Continuous
100
AcDbCircle
 10
48.0000015376081
 20
223.5248898068467
 30
0.0
 40
5.0
100
AcDbArc
 50
0.0
 51
90.0
  0
ARC
  5
363
330
62F
100
AcDbEntity
  8
1
  6
Continuous
100
AcDbCircle
 10
48.0000015376081
 20
223.5248898068467
 30
0.0
 40
2.0
100
AcDbArc
 50
0.0
 51
90.0
  0
LINE
  5
364
330
62F
100
AcDbEntity
  8
5
  6
PHANTOM
100
AcDbLine
 10
81.89054253760808
 20
213.0248898068467
 30
0.0
 11
81.89054253760808
 21
198.0248898068467
 31
0.0
  0
ARC
  5
365
330
62F
100
AcDbEntity
  8
5
  6
PHANTOM
100
AcDbCircle
 10
79.89054253760811
 20
198.0248898068467
 30
0.0
 40
2.0
100
AcDbArc
 50
270.0
 51
0.0
  0
ARC
  5
366
330
62F
100
AcDbEntity
  8
5
  6
PHANTOM
100
AcDbCircle
 10
79.89054253760811
 20
213.0248898068467
 30
0.0
 40
2.0
100
AcDbArc
 50
0.0
 51
90.0
  0
LINE
  5
367
330
62F
100
AcDbEntity
  8
1
  6
Continuous
100
AcDbLine
 10
38.50000153760811
 20
272.5424928068465
 30
0.0
 11
25.50000153760811
 21
272.5424928068465
 31
0.0
  0
LINE
  5
368
330
62F
100
AcDbEntity
  8
1
  6
Continuous
100
AcDbLine
 10
191.3797785376081
 20
63.64535980684674
 30
0.0
 11
191.3797785376081
 21
53.64535980684674
 31
0.0
  0
LINE
  5
369
330
62F
100
AcDbEntity
  8
1
  6
Continuous
100
AcDbLine
 10
166.6797785376081
 20
61.64535980684674
 30
0.0
 11
166.6797785376081
 21
55.64535980684674
 31
0.0
  0
LINE
  5
36A
330
62F
100
AcDbEntity
  8
1
  6
Continuous
100
AcDbLine
 10
166.1797785376078
 20
62.14535980684671
 30
0.0
 11
166.1797785376078
 21
55.14535980684672
 31
0.0
  0
LINE
  5
36B
330
62F
100
AcDbEntity
  8
1
  6
Continuous
100
AcDbLine
 10
160.1797785376081
 20
44.64535980684671
 30
0.0
 11
160.1797785376081
 21
72.64535980684671
 31
0.0
  0
LINE
  5
36C
330
62F
100
AcDbEntity
  8
1
  6
Continuous
100
AcDbLine
 10
161.6797785376079
 20
44.64535980684671
 30
0.0
 11
161.6797785376079
 21
72.64535980684671
 31
0.0
  0
LINE
  5
36D
330
62F
100
AcDbEntity
  8
1
  6
Continuous
100
AcDbLine
 10
162.6797785376081
 20
44.64535980684671
 30
0.0
 11
162.6797785376081
 21
72.64535980684671
 31
0.0
  0
LINE
  5
36E
330
62F
100
AcDbEntity
  8
1
  6
Continuous
100
AcDbLine
 10
188.379778537608
 20
68.38885980684674
 30
0.0
 11
188.379778537608
 21
47.39535980684672
 31
0.0
  0
LINE
  5
36F
330
62F
100
AcDbEntity
  8
1
  6
Continuous
100
AcDbLine
 10
185.879778537608
 20
48.14535980684674
 30
0.0
 11
185.879778537608
 21
69.14535980684674
 31
0.0
  0
LINE
  5
370
330
62F
100
AcDbEntity
  8
1
  6
Continuous
100
AcDbLine
 10
186.2797785376081
 20
67.30561380684675
 30
0.0
 11
186.2797785376081
 21
48.89535980684672
 31
0.0
  0
LINE
  5
371
330
62F
100
AcDbEntity
  8
1
  6
Continuous
100
AcDbLine
 10
186.379778537608
 20
68.38885980684674
 30
0.0
 11
186.379778537608
 21
47.39535980684672
 31
0.0
  0
LINE
  5
372
330
62F
100
AcDbEntity
  8
1
  6
Continuous
100
AcDbLine
 10
183.1797785376081
 20
70.14535980684674
 30
0.0
 11
183.1797785376081
 21
47.14535980684671
 31
0.0
  0
LINE
  5
373
330
62F
100
AcDbEntity
  8
1
  6
Continuous
100
AcDbLine
 10
158.6797785376077
 20
47.64535980684671
 30
0.0
 11
158.6797785376077
 21
69.64535980684674
 31
0.0
  0
LINE
  5
374
330
62F
100
AcDbEntity
  8
1
  6
Continuous
100
AcDbLine
 10
158.1797785376081
 20
49.14535980684674
 30
0.0
 11
158.1797785376081
 21
68.14535980684674
 31
0.0
  0
ARC
  5
375
330
62F
100
AcDbEntity
  8
1
  6
Continuous
100
AcDbCircle
 10
164.9374235376081
 20
58.64535980684674
 30
0.0
 40
11.955058
100
AcDbArc
 50
127.3784749999999
 51
232.621525
  0
LINE
  5
376
330
62F
100
AcDbEntity
  8
1
  6
Continuous
100
AcDbLine
 10
184.8797785376081
 20
47.14535980684671
 30
0.0
 11
162.6797785376081
 21
47.14535980684671
 31
0.0
  0
LINE
  5
377
330
62F
100
AcDbEntity
  8
4
  6
CENTER
100
AcDbLine
 10
194.379778537608
 20
58.64535980684674
 30
0.0
 11
149.982365537608
 21
58.64535980684674
 31
0.0
  0
LINE
  5
378
330
62F
100
AcDbEntity
  8
1
  6
Continuous
100
AcDbLine
 10
162.6797785376081
 20
55.14535980684672
 30
0.0
 11
166.1797785376078
 21
55.14535980684672
 31
0.0
  0
LINE
  5
379
330
62F
100
AcDbEntity
  8
1
  6
Continuous
100
AcDbLine
 10
162.6797785376081
 20
44.64535980684671
 30
0.0
 11
160.1797785376081
 21
44.64535980684671
 31
0.0
  0
LINE
  5
37A
330
62F
100
AcDbEntity
  8
1
  6
Continuous
100
AcDbLine
 10
158.6797785376077
 20
47.64535980684671
 30
0.0
 11
160.1797785376081
 21
44.64535980684671
 31
0.0
  0
LINE
  5
37B
330
62F
100
AcDbEntity
  8
1
  6
Continuous
100
AcDbLine
 10
158.6797785376077
 20
49.14535980684674
 30
0.0
 11
157.6797785376077
 21
49.14535980684674
 31
0.0
  0
LINE
  5
37C
330
62F
100
AcDbEntity
  8
1
  6
Continuous
100
AcDbLine
 10
166.1797785376078
 20
55.14535980684672
 30
0.0
 11
166.6797785376081
 21
55.64535980684674
 31
0.0
  0
LINE
  5
37D
330
62F
100
AcDbEntity
  8
1
  6
Continuous
100
AcDbLine
 10
188.379778537608
 20
47.39535980684672
 30
0.0
 11
186.379778537608
 21
47.39535980684672
 31
0.0
  0
ARC
  5
37E
330
62F
100
AcDbEntity
  8
1
  6
Continuous
100
AcDbCircle
 10
184.8797785376081
 20
48.14535980684674
 30
0.0
 40
1.0
100
AcDbArc
 50
270.0
 51
0.0
  0
LINE
  5
37F
330
62F
100
AcDbEntity
  8
1
  6
Continuous
100
AcDbLine
 10
186.0797785376078
 20
48.64535980684674
 30
0.0
 11
185.879778537608
 21
48.64535980684674
 31
0.0
  0
ARC
  5
380
330
62F
100
AcDbEntity
  8
1
  6
Continuous
100
AcDbCircle
 10
186.0235285376081
 20
48.89535980684672
 30
0.0
 40
0.25625
100
AcDbArc
 50
282.680383
 51
0.0
  0
LINE
  5
381
330
62F
100
AcDbEntity
  8
1
  6
Continuous
100
AcDbLine
 10
186.2797785376081
 20
52.74535980684674
 30
0.0
 11
186.379778537608
 21
52.74535980684674
 31
0.0
  0
LINE
  5
382
330
62F
100
AcDbEntity
  8
1
  6
Continuous
100
AcDbLine
 10
191.3797785376081
 20
53.64535980684674
 30
0.0
 11
188.379778537608
 21
53.64535980684674
 31
0.0
  0
LINE
  5
383
330
62F
100
AcDbEntity
  8
1
  6
Continuous
100
AcDbLine
 10
191.3797785376081
 20
57.98850580684675
 30
0.0
 11
188.379778537608
 21
57.98850580684675
 31
0.0
  0
LINE
  5
384
330
62F
100
AcDbEntity
  8
1
  6
Continuous
100
AcDbLine
 10
191.3797785376081
 20
59.30221380684674
 30
0.0
 11
188.379778537608
 21
59.30221380684674
 31
0.0
  0
LINE
  5
385
330
62F
100
AcDbEntity
  8
1
  6
Continuous
100
AcDbLine
 10
184.8797785376081
 20
70.14535980684674
 30
0.0
 11
162.6797785376081
 21
70.14535980684674
 31
0.0
  0
LINE
  5
386
330
62F
100
AcDbEntity
  8
1
  6
Continuous
100
AcDbLine
 10
162.6797785376081
 20
62.14535980684671
 30
0.0
 11
166.1797785376078
 21
62.14535980684671
 31
0.0
  0
LINE
  5
387
330
62F
100
AcDbEntity
  8
1
  6
Continuous
100
AcDbLine
 10
158.6797785376077
 20
69.64535980684674
 30
0.0
 11
160.1797785376081
 21
72.64535980684671
 31
0.0
  0
LINE
  5
388
330
62F
100
AcDbEntity
  8
1
  6
Continuous
100
AcDbLine
 10
158.6797785376077
 20
68.14535980684674
 30
0.0
 11
157.6797785376077
 21
68.14535980684674
 31
0.0
  0
LINE
  5
389
330
62F
100
AcDbEntity
  8
1
  6
Continuous
100
AcDbLine
 10
162.6797785376081
 20
72.64535980684671
 30
0.0
 11
160.1797785376081
 21
72.64535980684671
 31
0.0
  0
LINE
  5
38A
330
62F
100
AcDbEntity
  8
1
  6
Continuous
100
AcDbLine
 10
166.1797785376078
 20
62.14535980684671
 30
0.0
 11
166.6797785376081
 21
61.64535980684674
 31
0.0
  0
LINE
  5
38B
330
62F
100
AcDbEntity
  8
1
  6
Continuous
100
AcDbLine
 10
188.379778537608
 20
68.38885980684674
 30
0.0
 11
186.379778537608
 21
68.38885980684674
 31
0.0
  0
ARC
  5
38C
330
62F
100
AcDbEntity
  8
1
  6
Continuous
100
AcDbCircle
 10
184.8797785376081
 20
69.14535980684674
 30
0.0
 40
1.0
100
AcDbArc
 50
0.0
 51
90.0
  0
LINE
  5
38D
330
62F
100
AcDbEntity
  8
1
  6
Continuous
100
AcDbLine
 10
186.2797785376081
 20
67.30561380684675
 30
0.0
 11
185.879778537608
 21
67.30561380684675
 31
0.0
  0
LINE
  5
38E
330
62F
100
AcDbEntity
  8
1
  6
Continuous
100
AcDbLine
 10
186.2797785376081
 20
64.54535980684672
 30
0.0
 11
186.379778537608
 21
64.54535980684672
 31
0.0
  0
LINE
  5
38F
330
62F
100
AcDbEntity
  8
1
  6
Continuous
100
AcDbLine
 10
191.3797785376081
 20
63.64535980684674
 30
0.0
 11
188.379778537608
 21
63.64535980684674
 31
0.0
  0
LINE
  5
390
330
62F
100
AcDbEntity
  8
1
  6
Continuous
100
AcDbLine
 10
237.1188055376081
 20
67.64535980684674
 30
0.0
 11
237.1188055376081
 21
49.64535980684671
 31
0.0
  0
LINE
  5
391
330
62F
100
AcDbEntity
  8
1
  6
Continuous
100
AcDbLine
 10
240.8188055376079
 20
63.24535980684675
 30
0.0
 11
240.8188055376079
 21
54.04535980684674
 31
0.0
  0
LINE
  5
392
330
62F
100
AcDbEntity
  8
1
  6
Continuous
100
AcDbLine
 10
240.8188055376079
 20
63.26416180684674
 30
0.0
 11
240.8188055376079
 21
54.02655780684671
 31
0.0
  0
LINE
  5
393
330
62F
100
AcDbEntity
  8
1
  6
Continuous
100
AcDbLine
 10
239.518805537608
 20
64.64535980684674
 30
0.0
 11
239.518805537608
 21
52.64535980684672
 31
0.0
  0
LINE
  5
394
330
62F
100
AcDbEntity
  8
1
  6
Continuous
100
AcDbLine
 10
240.8188055376079
 20
59.94535980684672
 30
0.0
 11
239.518805537608
 21
58.64535980684674
 31
0.0
  0
ARC
  5
395
330
62F
100
AcDbEntity
  8
1
  6
Continuous
100
AcDbCircle
 10
238.543829537608
 20
60.64535980684674
 30
0.0
 40
5.774976999999998
100
AcDbArc
 50
339.7375
 51
20.26249999999999
  0
ARC
  5
396
330
62F
100
AcDbEntity
  8
1
  6
Continuous
100
AcDbCircle
 10
246.593782537608
 20
60.64535980684674
 30
0.0
 40
5.774976999999998
100
AcDbArc
 50
159.7375
 51
200.2625
  0
LINE
  5
397
330
62F
100
AcDbEntity
  8
1
  6
Continuous
100
AcDbLine
 10
244.318805537608
 20
62.64535980684672
 30
0.0
 11
244.318805537608
 21
54.64535980684671
 31
0.0
  0
ARC
  5
398
330
62F
100
AcDbEntity
  8
1
  6
Continuous
100
AcDbCircle
 10
209.064906537608
 20
58.64353080684674
 30
0.0
 40
9.0
100
AcDbArc
 50
344.13537
 51
15.89737
  0
LINE
  5
399
330
62F
100
AcDbEntity
  8
1
  6
Continuous
100
AcDbLine
 10
215.464905537608
 20
62.44535980684672
 30
0.0
 11
215.464905537608
 21
54.84535980684674
 31
0.0
  0
LINE
  5
39A
330
62F
100
AcDbEntity
  8
1
  6
Continuous
100
AcDbLine
 10
214.4649055376081
 20
65.14535980684674
 30
0.0
 11
214.4649055376081
 21
52.14535980684671
 31
0.0
  0
LINE
  5
39B
330
62F
100
AcDbEntity
  8
1
  6
Continuous
100
AcDbLine
 10
238.718805537608
 20
67.64535980684674
 30
0.0
 11
238.718805537608
 21
49.64535980684671
 31
0.0
  0
LINE
  5
39C
330
62F
100
AcDbEntity
  8
1
  6
Continuous
100
AcDbLine
 10
235.518805537608
 20
67.64535980684674
 30
0.0
 11
235.518805537608
 21
49.64535980684671
 31
0.0
  0
LINE
  5
39D
330
62F
100
AcDbEntity
  8
1
  6
Continuous
100
AcDbLine
 10
209.464905537608
 20
65.64535980684674
 30
0.0
 11
209.464905537608
 21
51.64535980684674
 31
0.0
  0
LINE
  5
39E
330
62F
100
AcDbEntity
  8
1
  6
Continuous
100
AcDbLine
 10
216.600387537608
 20
55.24495180684675
 30
0.0
 11
215.464905537608
 21
55.14535980684672
 31
0.0
  0
LINE
  5
39F
330
62F
100
AcDbEntity
  8
4
  6
CENTER
100
AcDbLine
 10
221.0649055376081
 20
58.64535980684674
 30
0.0
 11
206.4649055376081
 21
58.64535980684674
 31
0.0
  0
LINE
  5
3A0
330
62F
100
AcDbEntity
  8
1
  6
Continuous
100
AcDbLine
 10
215.464905537608
 20
54.84535980684674
 30
0.0
 11
214.4649055376081
 21
54.84535980684674
 31
0.0
  0
ARC
  5
3A1
330
62F
100
AcDbEntity
  8
1
  6
Continuous
100
AcDbCircle
 10
213.964905537608
 20
52.14535980684671
 30
0.0
 40
0.5
100
AcDbArc
 50
270.0
 51
0.0
  0
LINE
  5
3A2
330
62F
100
AcDbEntity
  8
1
  6
Continuous
100
AcDbLine
 10
215.464905537608
 20
59.64535980684671
 30
0.0
 11
214.4649055376081
 21
58.64535980684674
 31
0.0
  0
LINE
  5
3A3
330
62F
100
AcDbEntity
  8
1
  6
Continuous
100
AcDbLine
 10
215.464905537608
 20
58.64535980684674
 30
0.0
 11
214.4649055376081
 21
57.64535980684672
 31
0.0
  0
LINE
  5
3A4
330
62F
100
AcDbEntity
  8
1
  6
Continuous
100
AcDbLine
 10
213.964905537608
 20
51.64535980684674
 30
0.0
 11
209.464905537608
 21
51.64535980684674
 31
0.0
  0
ARC
  5
3A5
330
62F
100
AcDbEntity
  8
1
  6
Continuous
100
AcDbCircle
 10
216.472507537608
 20
56.53864780684674
 30
0.0
 40
1.3
100
AcDbArc
 50
275.0163699999998
 51
344.13537
  0
LINE
  5
3A6
330
62F
100
AcDbEntity
  8
4
  6
CENTER
100
AcDbLine
 10
247.318805537608
 20
58.64535980684674
 30
0.0
 11
232.5188055376081
 21
58.64535980684674
 31
0.0
  0
LINE
  5
3A7
330
62F
100
AcDbEntity
  8
1
  6
Continuous
100
AcDbLine
 10
239.518805537608
 20
52.64535980684672
 30
0.0
 11
238.718805537608
 21
52.64535980684672
 31
0.0
  0
LINE
  5
3A8
330
62F
100
AcDbEntity
  8
1
  6
Continuous
100
AcDbLine
 10
235.518805537608
 20
49.64535980684671
 30
0.0
 11
238.718805537608
 21
49.64535980684671
 31
0.0
  0
LINE
  5
3A9
330
62F
100
AcDbEntity
  8
1
  6
Continuous
100
AcDbLine
 10
240.8188055376079
 20
54.04535980684674
 30
0.0
 11
239.518805537608
 21
54.04535980684674
 31
0.0
  0
LINE
  5
3AA
330
62F
100
AcDbEntity
  8
1
  6
Continuous
100
AcDbLine
 10
240.8188055376079
 20
58.64535980684674
 30
0.0
 11
239.518805537608
 21
57.34535980684674
 31
0.0
  0
LINE
  5
3AB
330
62F
100
AcDbEntity
  8
1
  6
Continuous
100
AcDbLine
 10
241.1761855376078
 20
58.64535980684674
 30
0.0
 11
243.9614265376081
 21
58.64535980684674
 31
0.0
  0
LINE
  5
3AC
330
62F
100
AcDbEntity
  8
1
  6
Continuous
100
AcDbLine
 10
244.318805537608
 20
54.64535980684671
 30
0.0
 11
240.8188055376079
 21
54.64535980684671
 31
0.0
  0
ARC
  5
3AD
330
62F
100
AcDbEntity
  8
1
  6
Continuous
100
AcDbCircle
 10
246.593782537608
 20
56.64535980684674
 30
0.0
 40
5.774976999999998
100
AcDbArc
 50
159.7375
 51
200.2625
  0
ARC
  5
3AE
330
62F
100
AcDbEntity
  8
1
  6
Continuous
100
AcDbCircle
 10
238.543829537608
 20
56.64535980684674
 30
0.0
 40
5.774976999999998
100
AcDbArc
 50
339.7375
 51
20.26249999999999
  0
LINE
  5
3AF
330
62F
100
AcDbEntity
  8
1
  6
Continuous
100
AcDbLine
 10
216.583933537608
 20
62.04767980684676
 30
0.0
 11
215.4639055376081
 21
62.14535980684671
 31
0.0
  0
LINE
  5
3B0
330
62F
100
AcDbEntity
  8
1
  6
Continuous
100
AcDbLine
 10
215.464905537608
 20
62.44535980684672
 30
0.0
 11
214.4649055376081
 21
62.44535980684672
 31
0.0
  0
ARC
  5
3B1
330
62F
100
AcDbEntity
  8
1
  6
Continuous
100
AcDbCircle
 10
213.964905537608
 20
65.14535980684674
 30
0.0
 40
0.5
100
AcDbArc
 50
0.0
 51
90.0
  0
LINE
  5
3B2
330
62F
100
AcDbEntity
  8
1
  6
Continuous
100
AcDbLine
 10
213.964905537608
 20
65.64535980684674
 30
0.0
 11
209.464905537608
 21
65.64535980684674
 31
0.0
  0
ARC
  5
3B3
330
62F
100
AcDbEntity
  8
1
  6
Continuous
100
AcDbCircle
 10
216.4713035376081
 20
60.75264680684674
 30
0.0
 40
1.3
100
AcDbArc
 50
15.89737
 51
85.01636999999998
  0
LINE
  5
3B4
330
62F
100
AcDbEntity
  8
1
  6
Continuous
100
AcDbLine
 10
239.518805537608
 20
64.64535980684674
 30
0.0
 11
238.718805537608
 21
64.64535980684674
 31
0.0
  0
LINE
  5
3B5
330
62F
100
AcDbEntity
  8
1
  6
Continuous
100
AcDbLine
 10
235.518805537608
 20
67.64535980684674
 30
0.0
 11
238.718805537608
 21
67.64535980684674
 31
0.0
  0
LINE
  5
3B6
330
62F
100
AcDbEntity
  8
1
  6
Continuous
100
AcDbLine
 10
240.8188055376079
 20
63.24535980684675
 30
0.0
 11
239.518805537608
 21
63.24535980684675
 31
0.0
  0
LINE
  5
3B7
330
62F
100
AcDbEntity
  8
1
  6
Continuous
100
AcDbLine
 10
244.318805537608
 20
62.64535980684672
 30
0.0
 11
240.8188055376079
 21
62.64535980684672
 31
0.0
  0
LINE
  5
3B8
330
62F
100
AcDbEntity
  8
1
  6
Continuous
100
AcDbLine
 10
171.6797785376081
 20
181.0248898068465
 30
0.0
 11
171.6797785376081
 21
197.0248898068465
 31
0.0
  0
LINE
  5
3B9
330
62F
100
AcDbEntity
  8
1
  6
Continuous
100
AcDbLine
 10
158.1797785376081
 20
199.0945288068465
 30
0.0
 11
158.1797785376081
 21
160.0248898068466
 31
0.0
  0
LINE
  5
3BA
330
62F
100
AcDbEntity
  8
1
  6
Continuous
100
AcDbLine
 10
158.6797785376077
 20
225.5248898068467
 30
0.0
 11
158.6797785376077
 21
147.5248898068466
 31
0.0
  0
LINE
  5
3BB
330
62F
100
AcDbEntity
  8
1
  6
Continuous
100
AcDbLine
 10
161.6797785376079
 20
144.5248898068466
 30
0.0
 11
161.6797785376079
 21
228.5248898068467
 31
0.0
  0
LINE
  5
3BC
330
62F
100
AcDbEntity
  8
1
  6
Continuous
100
AcDbLine
 10
160.1797785376081
 20
144.5248898068466
 30
0.0
 11
160.1797785376081
 21
228.5248898068467
 31
0.0
  0
LINE
  5
3BD
330
62F
100
AcDbEntity
  8
1
  6
Continuous
100
AcDbLine
 10
162.6797785376081
 20
144.5248898068466
 30
0.0
 11
162.6797785376081
 21
228.5248898068467
 31
0.0
  0
LINE
  5
3BE
330
62F
100
AcDbEntity
  8
1
  6
Continuous
100
AcDbLine
 10
158.6797785376077
 20
147.5248898068466
 30
0.0
 11
160.1797785376081
 21
144.5248898068466
 31
0.0
  0
LINE
  5
3BF
330
62F
100
AcDbEntity
  8
1
  6
Continuous
100
AcDbLine
 10
160.1797785376081
 20
144.5248898068466
 30
0.0
 11
162.6797785376081
 21
144.5248898068466
 31
0.0
  0
LINE
  5
3C0
330
62F
100
AcDbEntity
  8
1
  6
Continuous
100
AcDbLine
 10
172.1797785376081
 20
184.0248898068465
 30
0.0
 11
182.1797785376081
 21
184.0248898068465
 31
0.0
  0
ARC
  5
3C1
330
62F
100
AcDbEntity
  8
1
  6
Continuous
100
AcDbCircle
 10
162.6797785376081
 20
205.5248898068467
 30
0.0
 40
49.5
100
AcDbArc
 50
270.0
 51
291.262254
  0
LINE
  5
3C2
330
62F
100
AcDbEntity
  8
1
  6
Continuous
100
AcDbLine
 10
162.6797785376081
 20
154.0248898068466
 30
0.0
 11
166.1797785376078
 21
154.0248898068466
 31
0.0
  0
LINE
  5
3C3
330
62F
100
AcDbEntity
  8
4
  6
CENTER
100
AcDbLine
 10
160.7931965376081
 20
150.5248898068466
 30
0.0
 11
169.6797785376081
 21
150.5248898068466
 31
0.0
  0
LINE
  5
3C4
330
62F
100
AcDbEntity
  8
1
  6
Continuous
100
AcDbLine
 10
162.6797785376081
 20
147.0248898068467
 30
0.0
 11
166.1797785376078
 21
147.0248898068467
 31
0.0
  0
ARC
  5
3C5
330
62F
100
AcDbEntity
  8
1
  6
Continuous
100
AcDbCircle
 10
159.6797785376081
 20
160.0248898068466
 30
0.0
 40
1.5
100
AcDbArc
 50
180.0
 51
228.1896849999998
  0
LINE
  5
3C6
330
62F
100
AcDbEntity
  8
1
  6
Continuous
100
AcDbLine
 10
166.6797785376081
 20
153.5248898068467
 30
0.0
 11
166.6797785376081
 21
147.5248898068466
 31
0.0
  0
LINE
  5
3C7
330
62F
100
AcDbEntity
  8
1
  6
Continuous
100
AcDbLine
 10
166.1797785376078
 20
147.0248898068467
 30
0.0
 11
166.6797785376081
 21
147.5248898068466
 31
0.0
  0
LINE
  5
3C8
330
62F
100
AcDbEntity
  8
1
  6
Continuous
100
AcDbLine
 10
166.1797785376078
 20
154.0248898068466
 30
0.0
 11
166.1797785376078
 21
147.0248898068467
 31
0.0
  0
LINE
  5
3C9
330
62F
100
AcDbEntity
  8
1
  6
Continuous
100
AcDbLine
 10
166.1797785376078
 20
154.0248898068466
 30
0.0
 11
166.6797785376081
 21
153.5248898068467
 31
0.0
  0
LINE
  5
3CA
330
62F
100
AcDbEntity
  8
5
  6
PHANTOM
100
AcDbLine
 10
149.951856537608
 20
183.6045798068465
 30
0.0
 11
157.022924537608
 21
176.5335118068467
 31
0.0
  0
ARC
  5
3CB
330
62F
100
AcDbEntity
  8
5
  6
PHANTOM
100
AcDbCircle
 10
155.6087105376081
 20
175.1192988068467
 30
0.0
 40
2.0
100
AcDbArc
 50
315.0
 51
45.0
  0
ARC
  5
3CC
330
62F
100
AcDbEntity
  8
1
  6
Continuous
100
AcDbCircle
 10
172.1797785376081
 20
184.5248898068465
 30
0.0
 40
0.5
100
AcDbArc
 50
180.0
 51
270.0
  0
LINE
  5
3CD
330
62F
100
AcDbEntity
  8
1
  6
Continuous
100
AcDbLine
 10
183.1797785376081
 20
163.1220598068464
 30
0.0
 11
183.1797785376081
 21
183.0248898068465
 31
0.0
  0
ARC
  5
3CE
330
62F
100
AcDbEntity
  8
1
  6
Continuous
100
AcDbCircle
 10
179.1797785376081
 20
163.1220598068464
 30
0.0
 40
4.0
100
AcDbArc
 50
291.262254
 51
0.0
  0
ARC
  5
3CF
330
62F
100
AcDbEntity
  8
1
  6
Continuous
100
AcDbCircle
 10
182.1797785376081
 20
183.0248898068465
 30
0.0
 40
1.0
100
AcDbArc
 50
0.0
 51
90.0
  0
LINE
  5
3D0
330
62F
100
AcDbEntity
  8
1
  6
Continuous
100
AcDbLine
 10
216.6004165376081
 20
147.1244828068467
 30
0.0
 11
215.4649355376079
 21
147.0248898068467
 31
0.0
  0
LINE
  5
3D1
330
62F
100
AcDbEntity
  8
1
  6
Continuous
100
AcDbLine
 10
216.5839635376081
 20
153.9272098068464
 30
0.0
 11
215.463935537608
 21
154.0248898068466
 31
0.0
  0
LINE
  5
3D2
330
62F
100
AcDbEntity
  8
4
  6
CENTER
100
AcDbLine
 10
221.064935537608
 20
150.5248898068466
 30
0.0
 11
206.464935537608
 21
150.5248898068466
 31
0.0
  0
ARC
  5
3D3
330
62F
100
AcDbEntity
  8
1
  6
Continuous
100
AcDbCircle
 10
213.9649355376078
 20
154.0248898068466
 30
0.0
 40
0.5
100
AcDbArc
 50
0.0
 51
90.0
  0
LINE
  5
3D4
330
62F
100
AcDbEntity
  8
1
  6
Continuous
100
AcDbLine
 10
215.4649355376079
 20
154.3248898068465
 30
0.0
 11
214.4649355376079
 21
154.3248898068465
 31
0.0
  0
ARC
  5
3D5
330
62F
100
AcDbEntity
  8
1
  6
Continuous
100
AcDbCircle
 10
213.9649355376078
 20
146.0248898068467
 30
0.0
 40
0.5
100
AcDbArc
 50
270.0
 51
0.0
  0
LINE
  5
3D6
330
62F
100
AcDbEntity
  8
1
  6
Continuous
100
AcDbLine
 10
215.4649355376079
 20
150.5248898068466
 30
0.0
 11
214.4649355376079
 21
149.5248898068466
 31
0.0
  0
LINE
  5
3D7
330
62F
100
AcDbEntity
  8
1
  6
Continuous
100
AcDbLine
 10
215.4649355376079
 20
151.5248898068467
 30
0.0
 11
214.4649355376079
 21
150.5248898068466
 31
0.0
  0
LINE
  5
3D8
330
62F
100
AcDbEntity
  8
1
  6
Continuous
100
AcDbLine
 10
215.4649355376079
 20
146.7248898068466
 30
0.0
 11
214.4649355376079
 21
146.7248898068466
 31
0.0
  0
LINE
  5
3D9
330
62F
100
AcDbEntity
  8
1
  6
Continuous
100
AcDbLine
 10
214.4649355376079
 20
146.0248898068467
 30
0.0
 11
214.4649355376079
 21
154.3248898068465
 31
0.0
  0
LINE
  5
3DA
330
62F
100
AcDbEntity
  8
1
  6
Continuous
100
AcDbLine
 10
215.4649355376079
 20
154.3248898068465
 30
0.0
 11
215.4649355376079
 21
146.7248898068466
 31
0.0
  0
LINE
  5
3DB
330
62F
100
AcDbEntity
  8
1
  6
Continuous
100
AcDbLine
 10
209.4649355376079
 20
145.5248898068466
 30
0.0
 11
209.4649355376079
 21
154.5248898068466
 31
0.0
  0
LINE
  5
3DC
330
62F
100
AcDbEntity
  8
1
  6
Continuous
100
AcDbLine
 10
213.9649355376078
 20
145.5248898068466
 30
0.0
 11
209.4649355376079
 21
145.5248898068466
 31
0.0
  0
LINE
  5
3DD
330
62F
100
AcDbEntity
  8
1
  6
Continuous
100
AcDbLine
 10
213.9649355376078
 20
154.5248898068466
 30
0.0
 11
209.4649355376079
 21
154.5248898068466
 31
0.0
  0
ARC
  5
3DE
330
62F
100
AcDbEntity
  8
1
  6
Continuous
100
AcDbCircle
 10
209.064935537608
 20
150.5230618068467
 30
0.0
 40
9.0
100
AcDbArc
 50
344.13537
 51
15.89737
  0
ARC
  5
3DF
330
62F
100
AcDbEntity
  8
1
  6
Continuous
100
AcDbCircle
 10
216.472537537608
 20
148.4181778068467
 30
0.0
 40
1.3
100
AcDbArc
 50
275.0163699999998
 51
344.13537
  0
ARC
  5
3E0
330
62F
100
AcDbEntity
  8
1
  6
Continuous
100
AcDbCircle
 10
216.471333537608
 20
152.6321778068467
 30
0.0
 40
1.3
100
AcDbArc
 50
15.89737
 51
85.01636999999998
  0
LINE
  5
3E1
330
62F
100
AcDbEntity
  8
1
  6
Continuous
100
AcDbLine
 10
162.6797785376081
 20
217.0248898068467
 30
0.0
 11
187.779778537608
 21
217.0248898068467
 31
0.0
  0
LINE
  5
3E2
330
62F
100
AcDbEntity
  8
1
  6
Continuous
100
AcDbLine
 10
184.8797785376081
 20
215.4841818068464
 30
0.0
 11
163.6797785376081
 21
215.4841818068464
 31
0.0
  0
LINE
  5
3E3
330
62F
100
AcDbEntity
  8
1
  6
Continuous
100
AcDbLine
 10
172.1797785376081
 20
194.0248898068467
 30
0.0
 11
184.9797785376081
 21
194.0248898068467
 31
0.0
  0
LINE
  5
3E4
330
62F
100
AcDbEntity
  8
4
  6
CENTER
100
AcDbLine
 10
156.4241915376079
 20
205.5248898068467
 30
0.0
 11
194.379778537608
 21
205.5248898068467
 31
0.0
  0
LINE
  5
3E5
330
62F
100
AcDbEntity
  8
1
  6
Continuous
100
AcDbLine
 10
163.6797785376081
 20
205.5248898068467
 30
0.0
 11
163.6797785376081
 21
216.0248898068467
 31
0.0
  0
ARC
  5
3E6
330
62F
100
AcDbEntity
  8
1
  6
Continuous
100
AcDbCircle
 10
153.982365537608
 20
208.8482918068466
 30
0.0
 40
1.0
100
AcDbArc
 50
133.534006
 51
225.0
  0
LINE
  5
3E7
330
62F
100
AcDbEntity
  8
5
  6
PHANTOM
100
AcDbLine
 10
156.9403115376081
 20
195.9749278068467
 30
0.0
 11
153.7554145376079
 21
195.8934198068467
 31
0.0
  0
LINE
  5
3E8
330
62F
100
AcDbEntity
  8
5
  6
PHANTOM
100
AcDbLine
 10
153.7554145376079
 20
195.8934198068467
 30
0.0
 11
149.951856537608
 21
192.0898608068467
 31
0.0
  0
ARC
  5
3E9
330
62F
100
AcDbEntity
  8
1
  6
Continuous
100
AcDbCircle
 10
148.1797785376081
 20
199.0945288068465
 30
0.0
 40
10.0
100
AcDbArc
 50
0.0
 51
45.0
  0
LINE
  5
3EA
330
62F
100
AcDbEntity
  8
1
  6
Continuous
100
AcDbLine
 10
153.2752585376081
 20
208.1411848068467
 30
0.0
 11
155.250846537608
 21
206.1655968068466
 31
0.0
  0
ARC
  5
3EB
330
62F
100
AcDbEntity
  8
5
  6
PHANTOM
100
AcDbCircle
 10
147.879778537608
 20
211.2309868068466
 30
0.0
 40
10.0
100
AcDbArc
 50
315.0
 51
319.2061049999998
  0
LINE
  5
3EC
330
62F
100
AcDbEntity
  8
1
  6
Continuous
100
AcDbLine
 10
174.6797785376081
 20
195.0248898068467
 30
0.0
 11
174.6797785376081
 21
205.5248898068467
 31
0.0
  0
ARC
  5
3ED
330
62F
100
AcDbEntity
  8
1
  6
Continuous
100
AcDbCircle
 10
172.1797785376081
 20
193.5248898068465
 30
0.0
 40
0.5
100
AcDbArc
 50
90.0
 51
180.0
  0
ARC
  5
3EE
330
62F
100
AcDbEntity
  8
1
  6
Continuous
100
AcDbCircle
 10
173.6797785376081
 20
195.0248898068467
 30
0.0
 40
1.0
100
AcDbArc
 50
270.0
 51
0.0
  0
LINE
  5
3EF
330
62F
100
AcDbEntity
  8
4
  6
CENTER
100
AcDbLine
 10
160.7931965376081
 20
222.5248898068466
 30
0.0
 11
169.6797785376081
 21
222.5248898068466
 31
0.0
  0
LINE
  5
3F0
330
62F
100
AcDbEntity
  8
1
  6
Continuous
100
AcDbLine
 10
162.6797785376081
 20
226.0248898068467
 30
0.0
 11
166.1797785376078
 21
226.0248898068467
 31
0.0
  0
LINE
  5
3F1
330
62F
100
AcDbEntity
  8
1
  6
Continuous
100
AcDbLine
 10
162.6797785376081
 20
219.0248898068466
 30
0.0
 11
166.1797785376078
 21
219.0248898068466
 31
0.0
  0
ARC
  5
3F2
330
62F
100
AcDbEntity
  8
1
  6
Continuous
100
AcDbCircle
 10
162.6797785376081
 20
205.5248898068467
 30
0.0
 40
9.4
100
AcDbArc
 50
115.184337
 51
133.534006
  0
LINE
  5
3F3
330
62F
100
AcDbEntity
  8
1
  6
Continuous
100
AcDbLine
 10
156.205199537608
 20
212.3395678068467
 30
0.0
 11
153.293580537608
 21
209.5732578068466
 31
0.0
  0
ARC
  5
3F4
330
62F
100
AcDbEntity
  8
1
  6
Continuous
100
AcDbCircle
 10
162.6797785376081
 20
216.0248898068467
 30
0.0
 40
1.0
100
AcDbArc
 50
0.0
 51
90.0
  0
LINE
  5
3F5
330
62F
100
AcDbEntity
  8
1
  6
Continuous
100
AcDbLine
 10
160.1797785376081
 20
228.5248898068467
 30
0.0
 11
162.6797785376081
 21
228.5248898068467
 31
0.0
  0
LINE
  5
3F6
330
62F
100
AcDbEntity
  8
1
  6
Continuous
100
AcDbLine
 10
160.1797785376081
 20
228.5248898068467
 30
0.0
 11
158.6797785376077
 21
225.5248898068467
 31
0.0
  0
LINE
  5
3F7
330
62F
100
AcDbEntity
  8
1
  6
Continuous
100
AcDbLine
 10
166.1797785376078
 20
226.0248898068467
 30
0.0
 11
166.1797785376078
 21
219.0248898068466
 31
0.0
  0
LINE
  5
3F8
330
62F
100
AcDbEntity
  8
1
  6
Continuous
100
AcDbLine
 10
166.6797785376081
 20
225.5248898068467
 30
0.0
 11
166.6797785376081
 21
219.5248898068467
 31
0.0
  0
LINE
  5
3F9
330
62F
100
AcDbEntity
  8
1
  6
Continuous
100
AcDbLine
 10
166.1797785376078
 20
219.0248898068466
 30
0.0
 11
166.6797785376081
 21
219.5248898068467
 31
0.0
  0
LINE
  5
3FA
330
62F
100
AcDbEntity
  8
1
  6
Continuous
100
AcDbLine
 10
166.1797785376078
 20
226.0248898068467
 30
0.0
 11
166.6797785376081
 21
225.5248898068467
 31
0.0
  0
LINE
  5
3FB
330
62F
100
AcDbEntity
  8
1
  6
Continuous
100
AcDbLine
 10
191.3797785376081
 20
210.5248898068464
 30
0.0
 11
191.3797785376081
 21
200.5248898068467
 31
0.0
  0
LINE
  5
3FC
330
62F
100
AcDbEntity
  8
1
  6
Continuous
100
AcDbLine
 10
186.379778537608
 20
213.1438158068467
 30
0.0
 11
186.379778537608
 21
194.2748898068465
 31
0.0
  0
LINE
  5
3FD
330
62F
100
AcDbEntity
  8
1
  6
Continuous
100
AcDbLine
 10
188.379778537608
 20
215.2676758068466
 30
0.0
 11
188.379778537608
 21
194.2748898068465
 31
0.0
  0
LINE
  5
3FE
330
62F
100
AcDbEntity
  8
1
  6
Continuous
100
AcDbLine
 10
186.2797785376081
 20
214.1851438068466
 30
0.0
 11
186.2797785376081
 21
195.7748898068467
 31
0.0
  0
LINE
  5
3FF
330
62F
100
AcDbEntity
  8
1
  6
Continuous
100
AcDbLine
 10
185.879778537608
 20
214.4841818068466
 30
0.0
 11
185.879778537608
 21
195.0248898068467
 31
0.0
  0
LINE
  5
400
330
62F
100
AcDbEntity
  8
1
  6
Continuous
100
AcDbLine
 10
188.379778537608
 20
194.2748898068465
 30
0.0
 11
186.379778537608
 21
194.2748898068465
 31
0.0
  0
ARC
  5
401
330
62F
100
AcDbEntity
  8
1
  6
Continuous
100
AcDbCircle
 10
184.8797785376081
 20
195.0248898068467
 30
0.0
 40
1.0
100
AcDbArc
 50
270.0
 51
0.0
  0
ARC
  5
402
330
62F
100
AcDbEntity
  8
1
  6
Continuous
100
AcDbCircle
 10
186.0235285376081
 20
195.7748898068467
 30
0.0
 40
0.25625
100
AcDbArc
 50
282.680383
 51
0.0
  0
LINE
  5
403
330
62F
100
AcDbEntity
  8
1
  6
Continuous
100
AcDbLine
 10
186.0797785376078
 20
195.5248898068465
 30
0.0
 11
185.879778537608
 21
195.5248898068465
 31
0.0
  0
LINE
  5
404
330
62F
100
AcDbEntity
  8
1
  6
Continuous
100
AcDbLine
 10
188.379778537608
 20
199.8998898068467
 30
0.0
 11
186.379778537608
 21
199.8998898068467
 31
0.0
  0
LINE
  5
405
330
62F
100
AcDbEntity
  8
1
  6
Continuous
100
AcDbLine
 10
188.379778537608
 20
201.3748898068466
 30
0.0
 11
186.379778537608
 21
201.3748898068466
 31
0.0
  0
LINE
  5
406
330
62F
100
AcDbEntity
  8
1
  6
Continuous
100
AcDbLine
 10
186.2797785376081
 20
199.6248898068465
 30
0.0
 11
186.379778537608
 21
199.6248898068465
 31
0.0
  0
LINE
  5
407
330
62F
100
AcDbEntity
  8
1
  6
Continuous
100
AcDbLine
 10
191.3797785376081
 20
206.1817438068467
 30
0.0
 11
188.379778537608
 21
206.1817438068467
 31
0.0
  0
LINE
  5
408
330
62F
100
AcDbEntity
  8
1
  6
Continuous
100
AcDbLine
 10
191.3797785376081
 20
204.8680358068467
 30
0.0
 11
188.379778537608
 21
204.8680358068467
 31
0.0
  0
LINE
  5
409
330
62F
100
AcDbEntity
  8
1
  6
Continuous
100
AcDbLine
 10
191.3797785376081
 20
200.5248898068467
 30
0.0
 11
188.379778537608
 21
200.5248898068467
 31
0.0
  0
LINE
  5
40A
330
62F
100
AcDbEntity
  8
1
  6
Continuous
100
AcDbLine
 10
187.779778537608
 20
213.1438158068467
 30
0.0
 11
186.2797785376081
 21
213.1438158068467
 31
0.0
  0
ARC
  5
40B
330
62F
100
AcDbEntity
  8
1
  6
Continuous
100
AcDbCircle
 10
184.8797785376081
 20
214.4841818068466
 30
0.0
 40
1.0
100
AcDbArc
 50
0.0
 51
90.0
  0
LINE
  5
40C
330
62F
100
AcDbEntity
  8
1
  6
Continuous
100
AcDbLine
 10
186.2797785376081
 20
214.1851438068466
 30
0.0
 11
185.879778537608
 21
214.1851438068466
 31
0.0
  0
LINE
  5
40D
330
62F
100
AcDbEntity
  8
1
  6
Continuous
100
AcDbLine
 10
186.2797785376081
 20
211.4248898068467
 30
0.0
 11
186.379778537608
 21
211.4248898068467
 31
0.0
  0
LINE
  5
40E
330
62F
100
AcDbEntity
  8
1
  6
Continuous
100
AcDbLine
 10
191.3797785376081
 20
210.5248898068464
 30
0.0
 11
188.379778537608
 21
210.5248898068464
 31
0.0
  0
LINE
  5
40F
330
62F
100
AcDbEntity
  8
1
  6
Continuous
100
AcDbLine
 10
188.379778537608
 20
213.8248898068466
 30
0.0
 11
187.9797785376081
 21
213.8248898068466
 31
0.0
  0
LINE
  5
410
330
62F
100
AcDbEntity
  8
1
  6
Continuous
100
AcDbLine
 10
188.379778537608
 20
215.2676758068466
 30
0.0
 11
187.9797785376081
 21
215.2676758068466
 31
0.0
  0
LINE
  5
411
330
62F
100
AcDbEntity
  8
1
  6
Continuous
100
AcDbLine
 10
187.9797785376081
 20
216.8248898068467
 30
0.0
 11
187.9797785376081
 21
213.3438158068467
 31
0.0
  0
ARC
  5
412
330
62F
100
AcDbEntity
  8
1
  6
Continuous
100
AcDbCircle
 10
187.779778537608
 20
216.8248898068467
 30
0.0
 40
0.2
100
AcDbArc
 50
0.0
 51
90.0
  0
ARC
  5
413
330
62F
100
AcDbEntity
  8
1
  6
Continuous
100
AcDbCircle
 10
187.779778537608
 20
213.3438158068467
 30
0.0
 40
0.2
100
AcDbArc
 50
270.0
 51
0.0
  0
LINE
  5
414
330
62F
100
AcDbEntity
  8
1
  6
Continuous
100
AcDbLine
 10
216.583933537608
 20
225.9272098068467
 30
0.0
 11
215.4639055376081
 21
226.0248898068467
 31
0.0
  0
LINE
  5
415
330
62F
100
AcDbEntity
  8
4
  6
CENTER
100
AcDbLine
 10
221.0649055376081
 20
222.5248898068466
 30
0.0
 11
206.4649055376081
 21
222.5248898068466
 31
0.0
  0
LINE
  5
416
330
62F
100
AcDbEntity
  8
1
  6
Continuous
100
AcDbLine
 10
216.600387537608
 20
219.1244828068467
 30
0.0
 11
215.464905537608
 21
219.0248898068466
 31
0.0
  0
LINE
  5
417
330
62F
100
AcDbEntity
  8
1
  6
Continuous
100
AcDbLine
 10
209.464905537608
 20
227.5248898068467
 30
0.0
 11
209.464905537608
 21
218.5248898068466
 31
0.0
  0
LINE
  5
418
330
62F
100
AcDbEntity
  8
1
  6
Continuous
100
AcDbLine
 10
215.464905537608
 20
226.3248898068466
 30
0.0
 11
215.464905537608
 21
218.7248898068467
 31
0.0
  0
LINE
  5
419
330
62F
100
AcDbEntity
  8
1
  6
Continuous
100
AcDbLine
 10
214.4649055376081
 20
227.0248898068466
 30
0.0
 11
214.4649055376081
 21
218.7248898068467
 31
0.0
  0
ARC
  5
41A
330
62F
100
AcDbEntity
  8
1
  6
Continuous
100
AcDbCircle
 10
213.964905537608
 20
219.0248898068466
 30
0.0
 40
0.5
100
AcDbArc
 50
270.0
 51
0.0
  0
LINE
  5
41B
330
62F
100
AcDbEntity
  8
1
  6
Continuous
100
AcDbLine
 10
215.464905537608
 20
218.7248898068467
 30
0.0
 11
214.4649055376081
 21
218.7248898068467
 31
0.0
  0
LINE
  5
41C
330
62F
100
AcDbEntity
  8
1
  6
Continuous
100
AcDbLine
 10
213.964905537608
 20
218.5248898068466
 30
0.0
 11
209.464905537608
 21
218.5248898068466
 31
0.0
  0
ARC
  5
41D
330
62F
100
AcDbEntity
  8
1
  6
Continuous
100
AcDbCircle
 10
213.964905537608
 20
227.0248898068466
 30
0.0
 40
0.5
100
AcDbArc
 50
0.0
 51
90.0
  0
LINE
  5
41E
330
62F
100
AcDbEntity
  8
1
  6
Continuous
100
AcDbLine
 10
215.464905537608
 20
226.3248898068466
 30
0.0
 11
214.4649055376081
 21
226.3248898068466
 31
0.0
  0
LINE
  5
41F
330
62F
100
AcDbEntity
  8
1
  6
Continuous
100
AcDbLine
 10
215.464905537608
 20
222.5248898068466
 30
0.0
 11
214.4649055376081
 21
221.5248898068467
 31
0.0
  0
LINE
  5
420
330
62F
100
AcDbEntity
  8
1
  6
Continuous
100
AcDbLine
 10
215.464905537608
 20
223.5248898068467
 30
0.0
 11
214.4649055376081
 21
222.5248898068466
 31
0.0
  0
LINE
  5
421
330
62F
100
AcDbEntity
  8
1
  6
Continuous
100
AcDbLine
 10
213.964905537608
 20
227.5248898068467
 30
0.0
 11
209.464905537608
 21
227.5248898068467
 31
0.0
  0
ARC
  5
422
330
62F
100
AcDbEntity
  8
1
  6
Continuous
100
AcDbCircle
 10
216.472507537608
 20
220.4181778068466
 30
0.0
 40
1.3
100
AcDbArc
 50
275.0163699999998
 51
344.13537
  0
ARC
  5
423
330
62F
100
AcDbEntity
  8
1
  6
Continuous
100
AcDbCircle
 10
209.064906537608
 20
222.5230618068467
 30
0.0
 40
9.0
100
AcDbArc
 50
344.13537
 51
15.89737
  0
ARC
  5
424
330
62F
100
AcDbEntity
  8
1
  6
Continuous
100
AcDbCircle
 10
216.4713035376081
 20
224.6321778068466
 30
0.0
 40
1.3
100
AcDbArc
 50
15.89737
 51
85.01636999999998
  0
LINE
  5
425
330
62F
100
AcDbEntity
  8
1
  6
Continuous
100
AcDbLine
 10
237.1188055376081
 20
214.5248898068466
 30
0.0
 11
237.1188055376081
 21
196.5248898068465
 31
0.0
  0
LINE
  5
426
330
62F
100
AcDbEntity
  8
1
  6
Continuous
100
AcDbLine
 10
240.8188055376079
 20
210.1248898068466
 30
0.0
 11
240.8188055376079
 21
200.9248898068467
 31
0.0
  0
LINE
  5
427
330
62F
100
AcDbEntity
  8
1
  6
Continuous
100
AcDbLine
 10
240.8188055376079
 20
210.1436918068466
 30
0.0
 11
240.8188055376079
 21
200.9060878068466
 31
0.0
  0
LINE
  5
428
330
62F
100
AcDbEntity
  8
1
  6
Continuous
100
AcDbLine
 10
239.518805537608
 20
211.5248898068467
 30
0.0
 11
239.518805537608
 21
199.5248898068465
 31
0.0
  0
ARC
  5
429
330
62F
100
AcDbEntity
  8
1
  6
Continuous
100
AcDbCircle
 10
242.8638925376081
 20
208.9888898068467
 30
0.0
 40
2.045087
100
AcDbArc
 50
154.3862009999998
 51
214.3862009999998
  0
LINE
  5
42A
330
62F
100
AcDbEntity
  8
1
  6
Continuous
100
AcDbLine
 10
244.318805537608
 20
209.5248898068467
 30
0.0
 11
244.318805537608
 21
201.5248898068467
 31
0.0
  0
ARC
  5
42B
330
62F
100
AcDbEntity
  8
1
  6
Continuous
100
AcDbCircle
 10
242.2737195376081
 20
208.9888898068467
 30
0.0
 40
2.045087
100
AcDbArc
 50
325.6137989999998
 51
25.61379899999997
  0
LINE
  5
42C
330
62F
100
AcDbEntity
  8
1
  6
Continuous
100
AcDbLine
 10
238.718805537608
 20
214.5248898068466
 30
0.0
 11
238.718805537608
 21
196.5248898068465
 31
0.0
  0
LINE
  5
42D
330
62F
100
AcDbEntity
  8
1
  6
Continuous
100
AcDbLine
 10
235.518805537608
 20
214.5248898068466
 30
0.0
 11
235.518805537608
 21
196.5248898068465
 31
0.0
  0
LINE
  5
42E
330
62F
100
AcDbEntity
  8
4
  6
CENTER
100
AcDbLine
 10
247.318805537608
 20
205.5248898068467
 30
0.0
 11
232.5188055376081
 21
205.5248898068467
 31
0.0
  0
LINE
  5
42F
330
62F
100
AcDbEntity
  8
1
  6
Continuous
100
AcDbLine
 10
235.518805537608
 20
196.5248898068465
 30
0.0
 11
238.718805537608
 21
196.5248898068465
 31
0.0
  0
LINE
  5
430
330
62F
100
AcDbEntity
  8
1
  6
Continuous
100
AcDbLine
 10
239.518805537608
 20
199.5248898068465
 30
0.0
 11
238.718805537608
 21
199.5248898068465
 31
0.0
  0
LINE
  5
431
330
62F
100
AcDbEntity
  8
1
  6
Continuous
100
AcDbLine
 10
240.8188055376079
 20
200.9248898068467
 30
0.0
 11
239.518805537608
 21
200.9248898068467
 31
0.0
  0
LINE
  5
432
330
62F
100
AcDbEntity
  8
1
  6
Continuous
100
AcDbLine
 10
240.8188055376079
 20
206.8248898068466
 30
0.0
 11
239.518805537608
 21
205.5248898068467
 31
0.0
  0
LINE
  5
433
330
62F
100
AcDbEntity
  8
1
  6
Continuous
100
AcDbLine
 10
240.8188055376079
 20
205.5248898068467
 30
0.0
 11
239.518805537608
 21
204.2248898068466
 31
0.0
  0
LINE
  5
434
330
62F
100
AcDbEntity
  8
1
  6
Continuous
100
AcDbLine
 10
241.1761855376078
 20
207.8338898068464
 30
0.0
 11
243.9614265376081
 21
207.8338898068464
 31
0.0
  0
LINE
  5
435
330
62F
100
AcDbEntity
  8
1
  6
Continuous
100
AcDbLine
 10
241.1761855376078
 20
203.2148898068467
 30
0.0
 11
243.9614265376081
 21
203.2148898068467
 31
0.0
  0
LINE
  5
436
330
62F
100
AcDbEntity
  8
1
  6
Continuous
100
AcDbLine
 10
241.1761855376078
 20
200.9058898068464
 30
0.0
 11
243.9614265376081
 21
200.9058898068464
 31
0.0
  0
ARC
  5
437
330
62F
100
AcDbEntity
  8
1
  6
Continuous
100
AcDbCircle
 10
242.8638925376081
 20
202.0608898068467
 30
0.0
 40
2.045087
100
AcDbArc
 50
145.613799
 51
205.6137989999999
  0
LINE
  5
438
330
62F
100
AcDbEntity
  8
1
  6
Continuous
100
AcDbLine
 10
240.8188055376079
 20
201.5248898068467
 30
0.0
 11
241.1761855376078
 21
200.9058898068464
 31
0.0
  0
ARC
  5
439
330
62F
100
AcDbEntity
  8
1
  6
Continuous
100
AcDbCircle
 10
248.4598515376081
 20
205.5243898068466
 30
0.0
 40
7.641045
100
AcDbArc
 50
162.407253
 51
197.592747
  0
LINE
  5
43A
330
62F
100
AcDbEntity
  8
1
  6
Continuous
100
AcDbLine
 10
244.318805537608
 20
201.5248898068467
 30
0.0
 11
243.9614265376081
 21
200.9058898068464
 31
0.0
  0
ARC
  5
43B
330
62F
100
AcDbEntity
  8
1
  6
Continuous
100
AcDbCircle
 10
242.2737195376081
 20
202.0608898068467
 30
0.0
 40
2.045087
100
AcDbArc
 50
334.3862009999998
 51
34.386201
  0
ARC
  5
43C
330
62F
100
AcDbEntity
  8
1
  6
Continuous
100
AcDbCircle
 10
236.677760537608
 20
205.5243898068466
 30
0.0
 40
7.641045
100
AcDbArc
 50
342.4072529999999
 51
17.59274699999998
  0
LINE
  5
43D
330
62F
100
AcDbEntity
  8
1
  6
Continuous
100
AcDbLine
 10
239.518805537608
 20
211.5248898068467
 30
0.0
 11
238.718805537608
 21
211.5248898068467
 31
0.0
  0
LINE
  5
43E
330
62F
100
AcDbEntity
  8
1
  6
Continuous
100
AcDbLine
 10
235.518805537608
 20
214.5248898068466
 30
0.0
 11
238.718805537608
 21
214.5248898068466
 31
0.0
  0
LINE
  5
43F
330
62F
100
AcDbEntity
  8
1
  6
Continuous
100
AcDbLine
 10
240.8188055376079
 20
210.1248898068466
 30
0.0
 11
239.518805537608
 21
210.1248898068466
 31
0.0
  0
LINE
  5
440
330
62F
100
AcDbEntity
  8
1
  6
Continuous
100
AcDbLine
 10
241.1761855376078
 20
210.1438898068467
 30
0.0
 11
243.9614265376081
 21
210.1438898068467
 31
0.0
  0
LINE
  5
441
330
62F
100
AcDbEntity
  8
1
  6
Continuous
100
AcDbLine
 10
240.8188055376079
 20
209.5248898068467
 30
0.0
 11
241.1761855376078
 21
210.1438898068467
 31
0.0
  0
LINE
  5
442
330
62F
100
AcDbEntity
  8
1
  6
Continuous
100
AcDbLine
 10
244.318805537608
 20
209.5248898068467
 30
0.0
 11
243.9614265376081
 21
210.1438898068467
 31
0.0
  0
LINE
  5
443
330
62F
100
AcDbEntity
  8
4
  6
CENTER
100
AcDbLine
 10
338.2128925376081
 20
231.5248898068466
 30
0.0
 11
338.2128925376081
 21
141.5248898068466
 31
0.0
  0
LINE
  5
444
330
62F
100
AcDbEntity
  8
1
  6
Continuous
100
AcDbLine
 10
326.7128925376081
 20
214.0248898068467
 30
0.0
 11
326.7128925376081
 21
159.0248898068466
 31
0.0
  0
LINE
  5
445
330
62F
100
AcDbEntity
  8
1
  6
Continuous
100
AcDbLine
 10
349.7128925376081
 20
214.0248898068467
 30
0.0
 11
349.7128925376081
 21
159.0248898068466
 31
0.0
  0
LINE
  5
446
330
62F
100
AcDbEntity
  8
1
  6
Continuous
100
AcDbLine
 10
324.2128925376081
 20
223.5248898068467
 30
0.0
 11
324.2128925376081
 21
149.5248898068466
 31
0.0
  0
LINE
  5
447
330
62F
100
AcDbEntity
  8
1
  6
Continuous
100
AcDbLine
 10
352.2128925376079
 20
223.5248898068467
 30
0.0
 11
352.2128925376079
 21
149.5248898068466
 31
0.0
  0
ARC
  5
448
330
62F
100
AcDbEntity
  8
1
  6
Continuous
100
AcDbCircle
 10
329.2128925376081
 20
149.5248898068466
 30
0.0
 40
5.0
100
AcDbArc
 50
180.0
 51
270.0
  0
ARC
  5
449
330
62F
100
AcDbEntity
  8
1
  6
Continuous
100
AcDbCircle
 10
347.2128925376081
 20
149.5248898068466
 30
0.0
 40
5.0
100
AcDbArc
 50
270.0
 51
0.0
  0
LINE
  5
44A
330
62F
100
AcDbEntity
  8
1
  6
Continuous
100
AcDbLine
 10
347.2128925376081
 20
144.5248898068466
 30
0.0
 11
329.2128925376081
 21
144.5248898068466
 31
0.0
  0
LINE
  5
44B
330
62F
100
AcDbEntity
  8
1
  6
Continuous
100
AcDbLine
 10
329.7128925376081
 20
184.0248898068465
 30
0.0
 11
346.7128925376081
 21
184.0248898068465
 31
0.0
  0
LINE
  5
44C
330
62F
100
AcDbEntity
  8
1
  6
Continuous
100
AcDbLine
 10
329.7128925376081
 20
156.0248898068466
 30
0.0
 11
346.7128925376081
 21
156.0248898068466
 31
0.0
  0
LINE
  5
44D
330
62F
100
AcDbEntity
  8
1
  6
Continuous
100
AcDbLine
 10
329.7128925376081
 20
160.4693688068464
 30
0.0
 11
346.7128925376081
 21
160.4693688068464
 31
0.0
  0
LINE
  5
44E
330
62F
100
AcDbEntity
  8
1
  6
Continuous
100
AcDbLine
 10
342.0858755376081
 20
154.5248898068466
 30
0.0
 11
334.3399095376081
 21
154.5248898068466
 31
0.0
  0
LINE
  5
44F
330
62F
100
AcDbEntity
  8
4
  6
CENTER
100
AcDbLine
 10
331.2128925376081
 20
150.5248898068466
 30
0.0
 11
345.2128925376081
 21
150.5248898068466
 31
0.0
  0
ARC
  5
450
330
62F
100
AcDbEntity
  8
1
  6
Continuous
100
AcDbCircle
 10
338.2128925376081
 20
153.5248898068467
 30
0.0
 40
8.0
100
AcDbArc
 50
216.869898
 51
323.130102
  0
CIRCLE
  5
451
330
62F
100
AcDbEntity
  8
1
  6
Continuous
100
AcDbCircle
 10
338.2128925376081
 20
150.5248898068466
 30
0.0
 40
3.5
  0
CIRCLE
  5
452
330
62F
100
AcDbEntity
  8
1
  6
Continuous
100
AcDbCircle
 10
338.2128925376081
 20
150.5248898068466
 30
0.0
 40
3.799999999999998
  0
ARC
  5
453
330
62F
100
AcDbEntity
  8
1
  6
Continuous
100
AcDbCircle
 10
329.7128925376081
 20
159.0248898068466
 30
0.0
 40
3.0
100
AcDbArc
 50
180.0
 51
270.0
  0
ARC
  5
454
330
62F
100
AcDbEntity
  8
1
  6
Continuous
100
AcDbCircle
 10
334.2128925376081
 20
150.5248898068466
 30
0.0
 40
3.0
100
AcDbArc
 50
143.130102
 51
216.869898
  0
ARC
  5
455
330
62F
100
AcDbEntity
  8
1
  6
Continuous
100
AcDbCircle
 10
338.2128925376081
 20
147.5248898068466
 30
0.0
 40
8.0
100
AcDbArc
 50
118.9550239999999
 51
143.130102
  0
ARC
  5
456
330
62F
100
AcDbEntity
  8
1
  6
Continuous
100
AcDbCircle
 10
329.7128925376081
 20
163.4693688068464
 30
0.0
 40
3.0
100
AcDbArc
 50
180.0
 51
270.0
  0
ARC
  5
457
330
62F
100
AcDbEntity
  8
1
  6
Continuous
100
AcDbCircle
 10
329.7128925376081
 20
181.0248898068465
 30
0.0
 40
3.0
100
AcDbArc
 50
90.0
 51
180.0
  0
ARC
  5
458
330
62F
100
AcDbEntity
  8
1
  6
Continuous
100
AcDbCircle
 10
346.7128925376081
 20
159.0248898068466
 30
0.0
 40
3.0
100
AcDbArc
 50
270.0
 51
0.0
  0
ARC
  5
459
330
62F
100
AcDbEntity
  8
1
  6
Continuous
100
AcDbCircle
 10
338.2128925376081
 20
147.5248898068466
 30
0.0
 40
8.0
100
AcDbArc
 50
36.869898
 51
61.044976
  0
LINE
  5
45A
330
62F
100
AcDbEntity
  8
1
  6
Continuous
100
AcDbLine
 10
339.1622445376079
 20
150.5248898068466
 30
0.0
 11
339.3531625376079
 21
151.0509778068466
 31
0.0
  0
LINE
  5
45B
330
62F
100
AcDbEntity
  8
1
  6
Continuous
100
AcDbLine
 10
339.3531625376079
 20
151.0509778068466
 30
0.0
 11
339.9641035376081
 21
151.6831308068467
 31
0.0
  0
LINE
  5
45C
330
62F
100
AcDbEntity
  8
1
  6
Continuous
100
AcDbLine
 10
338.7379805376081
 20
151.6661608068465
 30
0.0
 11
339.3701335376079
 21
152.2771008068466
 31
0.0
  0
LINE
  5
45D
330
62F
100
AcDbEntity
  8
1
  6
Continuous
100
AcDbLine
 10
338.211892537608
 20
151.4752418068465
 30
0.0
 11
338.7379805376081
 21
151.6661608068465
 31
0.0
  0
LINE
  5
45E
330
62F
100
AcDbEntity
  8
1
  6
Continuous
100
AcDbLine
 10
337.262248537608
 20
150.5255968068467
 30
0.0
 11
337.0713295376081
 21
151.0502708068467
 31
0.0
  0
LINE
  5
45F
330
62F
100
AcDbEntity
  8
1
  6
Continuous
100
AcDbLine
 10
337.687219537608
 20
151.6661608068465
 30
0.0
 11
337.054358537608
 21
152.2763938068466
 31
0.0
  0
LINE
  5
460
330
62F
100
AcDbEntity
  8
1
  6
Continuous
100
AcDbLine
 10
338.211892537608
 20
151.4752418068465
 30
0.0
 11
337.687219537608
 21
151.6661608068465
 31
0.0
  0
LINE
  5
461
330
62F
100
AcDbEntity
  8
1
  6
Continuous
100
AcDbLine
 10
338.2125995376081
 20
149.5752458068467
 30
0.0
 11
337.6865125376081
 21
149.3843268068467
 31
0.0
  0
LINE
  5
462
330
62F
100
AcDbEntity
  8
1
  6
Continuous
100
AcDbLine
 10
337.6865125376081
 20
149.3843268068467
 30
0.0
 11
337.054358537608
 21
148.7733868068467
 31
0.0
  0
LINE
  5
463
330
62F
100
AcDbEntity
  8
1
  6
Continuous
100
AcDbLine
 10
337.262248537608
 20
150.5255968068467
 30
0.0
 11
337.0713295376081
 21
149.9995098068466
 31
0.0
  0
LINE
  5
464
330
62F
100
AcDbEntity
  8
1
  6
Continuous
100
AcDbLine
 10
339.1622445376079
 20
150.5248898068466
 30
0.0
 11
339.3531625376079
 21
150.0002168068466
 31
0.0
  0
LINE
  5
465
330
62F
100
AcDbEntity
  8
1
  6
Continuous
100
AcDbLine
 10
339.3531625376079
 20
150.0002168068466
 30
0.0
 11
339.9641035376081
 21
149.3666488068467
 31
0.0
  0
LINE
  5
466
330
62F
100
AcDbEntity
  8
1
  6
Continuous
100
AcDbLine
 10
338.7372725376081
 20
149.3843268068467
 30
0.0
 11
339.3708405376079
 21
148.7733868068467
 31
0.0
  0
LINE
  5
467
330
62F
100
AcDbEntity
  8
1
  6
Continuous
100
AcDbLine
 10
338.2125995376081
 20
149.5752458068467
 30
0.0
 11
338.7372725376081
 21
149.3843268068467
 31
0.0
  0
ARC
  5
468
330
62F
100
AcDbEntity
  8
1
  6
Continuous
100
AcDbCircle
 10
338.211892537608
 20
150.5248898068466
 30
0.0
 40
2.1
100
AcDbArc
 50
33.463
 51
56.53699999999999
  0
ARC
  5
469
330
62F
100
AcDbEntity
  8
1
  6
Continuous
100
AcDbCircle
 10
338.211892537608
 20
150.5248898068466
 30
0.0
 40
2.1
100
AcDbArc
 50
303.4629999999999
 51
326.5369999999998
  0
LINE
  5
46A
330
62F
100
AcDbEntity
  8
1
  6
Continuous
100
AcDbLine
 10
337.0713295376081
 20
151.0502708068467
 30
0.0
 11
336.460389537608
 21
151.6824238068467
 31
0.0
  0
LINE
  5
46B
330
62F
100
AcDbEntity
  8
1
  6
Continuous
100
AcDbLine
 10
337.0713295376081
 20
149.9995098068466
 30
0.0
 11
336.460389537608
 21
149.3673568068467
 31
0.0
  0
ARC
  5
46C
330
62F
100
AcDbEntity
  8
1
  6
Continuous
100
AcDbCircle
 10
338.211892537608
 20
150.5248898068466
 30
0.0
 40
2.1
100
AcDbArc
 50
123.4629999999998
 51
146.537
  0
ARC
  5
46D
330
62F
100
AcDbEntity
  8
1
  6
Continuous
100
AcDbCircle
 10
338.211892537608
 20
150.5248898068466
 30
0.0
 40
2.1
100
AcDbArc
 50
213.463
 51
236.5369999999999
  0
ARC
  5
46E
330
62F
100
AcDbEntity
  8
1
  6
Continuous
100
AcDbCircle
 10
342.2128925376081
 20
150.5248898068466
 30
0.0
 40
3.0
100
AcDbArc
 50
323.130102
 51
36.869898
  0
ARC
  5
46F
330
62F
100
AcDbEntity
  8
1
  6
Continuous
100
AcDbCircle
 10
346.7128925376081
 20
163.4693688068464
 30
0.0
 40
3.0
100
AcDbArc
 50
270.0
 51
0.0
  0
ARC
  5
470
330
62F
100
AcDbEntity
  8
1
  6
Continuous
100
AcDbCircle
 10
346.7128925376081
 20
181.0248898068465
 30
0.0
 40
3.0
100
AcDbArc
 50
0.0
 51
90.0
  0
LINE
  5
471
330
62F
100
AcDbEntity
  8
4
  6
CENTER
100
AcDbLine
 10
351.2128925376081
 20
205.5248898068467
 30
0.0
 11
292.322351537608
 21
205.5248898068467
 31
0.0
  0
LINE
  5
472
330
62F
100
AcDbEntity
  8
5
  6
PHANTOM
100
AcDbLine
 10
324.2128925376081
 20
215.0248898068467
 30
0.0
 11
297.322351537608
 21
215.0248898068467
 31
0.0
  0
LINE
  5
473
330
62F
100
AcDbEntity
  8
5
  6
PHANTOM
100
AcDbLine
 10
324.2128925376081
 20
196.0248898068467
 30
0.0
 11
297.322351537608
 21
196.0248898068467
 31
0.0
  0
LINE
  5
474
330
62F
100
AcDbEntity
  8
5
  6
PHANTOM
100
AcDbLine
 10
295.322351537608
 20
213.0248898068467
 30
0.0
 11
295.322351537608
 21
198.0248898068467
 31
0.0
  0
ARC
  5
475
330
62F
100
AcDbEntity
  8
5
  6
PHANTOM
100
AcDbCircle
 10
297.322351537608
 20
198.0248898068467
 30
0.0
 40
2.0
100
AcDbArc
 50
180.0
 51
270.0
  0
ARC
  5
476
330
62F
100
AcDbEntity
  8
5
  6
PHANTOM
100
AcDbCircle
 10
297.322351537608
 20
213.0248898068467
 30
0.0
 40
2.0
100
AcDbArc
 50
90.0
 51
180.0
  0
LINE
  5
477
330
62F
100
AcDbEntity
  8
1
  6
Continuous
100
AcDbLine
 10
347.2128925376081
 20
228.5248898068467
 30
0.0
 11
329.2128925376081
 21
228.5248898068467
 31
0.0
  0
LINE
  5
478
330
62F
100
AcDbEntity
  8
4
  6
CENTER
100
AcDbLine
 10
331.2128925376081
 20
222.5248898068466
 30
0.0
 11
345.2128925376081
 21
222.5248898068466
 31
0.0
  0
ARC
  5
479
330
62F
100
AcDbEntity
  8
1
  6
Continuous
100
AcDbCircle
 10
338.2128925376081
 20
219.5248898068467
 30
0.0
 40
8.0
100
AcDbArc
 50
36.869898
 51
143.130102
  0
LINE
  5
47A
330
62F
100
AcDbEntity
  8
1
  6
Continuous
100
AcDbLine
 10
346.7128925376081
 20
217.0248898068467
 30
0.0
 11
329.7128925376081
 21
217.0248898068467
 31
0.0
  0
CIRCLE
  5
47B
330
62F
100
AcDbEntity
  8
1
  6
Continuous
100
AcDbCircle
 10
338.2128925376081
 20
205.5248898068467
 30
0.0
 40
6.0
  0
LINE
  5
47C
330
62F
100
AcDbEntity
  8
1
  6
Continuous
100
AcDbLine
 10
342.0858755376081
 20
218.5248898068466
 30
0.0
 11
334.3399095376081
 21
218.5248898068466
 31
0.0
  0
CIRCLE
  5
47D
330
62F
100
AcDbEntity
  8
1
  6
Continuous
100
AcDbCircle
 10
338.2128925376081
 20
205.5248898068467
 30
0.0
 40
4.0
  0
LINE
  5
47E
330
62F
100
AcDbEntity
  8
1
  6
Continuous
100
AcDbLine
 10
334.2128925376081
 20
203.2148898068467
 30
0.0
 11
338.2128925376081
 21
200.9058898068464
 31
0.0
  0
LINE
  5
47F
330
62F
100
AcDbEntity
  8
1
  6
Continuous
100
AcDbLine
 10
338.2128925376081
 20
210.1438898068467
 30
0.0
 11
334.2128925376081
 21
207.8338898068464
 31
0.0
  0
LINE
  5
480
330
62F
100
AcDbEntity
  8
1
  6
Continuous
100
AcDbLine
 10
346.7128925376081
 20
194.0248898068467
 30
0.0
 11
329.7128925376081
 21
194.0248898068467
 31
0.0
  0
ARC
  5
481
330
62F
100
AcDbEntity
  8
1
  6
Continuous
100
AcDbCircle
 10
338.2128925376081
 20
205.5248898068467
 30
0.0
 40
11.5
100
AcDbArc
 50
119.9999999999999
 51
60.0
  0
ARC
  5
482
330
62F
100
AcDbEntity
  8
1
  6
Continuous
100
AcDbCircle
 10
338.2128925376081
 20
205.5248898068467
 30
0.0
 40
11.25
100
AcDbArc
 50
210.0
 51
60.0
  0
CIRCLE
  5
483
330
62F
100
AcDbEntity
  8
1
  6
Continuous
100
AcDbCircle
 10
338.2128925376081
 20
205.5248898068467
 30
0.0
 40
9.0
  0
CIRCLE
  5
484
330
62F
100
AcDbEntity
  8
1
  6
Continuous
100
AcDbCircle
 10
338.2128925376081
 20
222.5248898068466
 30
0.0
 40
3.5
  0
CIRCLE
  5
485
330
62F
100
AcDbEntity
  8
1
  6
Continuous
100
AcDbCircle
 10
338.2128925376081
 20
222.5248898068466
 30
0.0
 40
3.799999999999998
  0
ARC
  5
486
330
62F
100
AcDbEntity
  8
1
  6
Continuous
100
AcDbCircle
 10
338.2128925376081
 20
205.5248898068467
 30
0.0
 40
10.0
100
AcDbArc
 50
119.9999999999999
 51
210.0
  0
ARC
  5
487
330
62F
100
AcDbEntity
  8
1
  6
Continuous
100
AcDbCircle
 10
338.2128925376081
 20
205.5248898068467
 30
0.0
 40
9.5
100
AcDbArc
 50
119.9999999999999
 51
210.0
  0
ARC
  5
488
330
62F
100
AcDbEntity
  8
1
  6
Continuous
100
AcDbCircle
 10
329.7128925376081
 20
197.0248898068465
 30
0.0
 40
3.0
100
AcDbArc
 50
180.0
 51
270.0
  0
LINE
  5
489
330
62F
100
AcDbEntity
  8
1
  6
Continuous
100
AcDbLine
 10
330.4186635376081
 20
201.0248898068467
 30
0.0
 11
328.4701065376081
 21
199.8998898068467
 31
0.0
  0
LINE
  5
48A
330
62F
100
AcDbEntity
  8
1
  6
Continuous
100
AcDbLine
 10
334.2128925376081
 20
203.2148898068467
 30
0.0
 11
334.2128925376081
 21
207.8338898068464
 31
0.0
  0
ARC
  5
48B
330
62F
100
AcDbEntity
  8
1
  6
Continuous
100
AcDbCircle
 10
338.2128925376081
 20
225.5248898068467
 30
0.0
 40
8.0
100
AcDbArc
 50
216.869898
 51
241.044976
  0
ARC
  5
48C
330
62F
100
AcDbEntity
  8
1
  6
Continuous
100
AcDbCircle
 10
329.7128925376081
 20
214.0248898068467
 30
0.0
 40
3.0
100
AcDbArc
 50
90.0
 51
180.0
  0
ARC
  5
48D
330
62F
100
AcDbEntity
  8
1
  6
Continuous
100
AcDbCircle
 10
334.1027785376079
 20
213.6438158068466
 30
0.0
 40
0.5
100
AcDbArc
 50
210.0
 51
219.933938
  0
LINE
  5
48E
330
62F
100
AcDbEntity
  8
1
  6
Continuous
100
AcDbLine
 10
332.4628925376081
 20
215.4841818068464
 30
0.0
 11
332.4628925376081
 21
217.0248898068467
 31
0.0
  0
LINE
  5
48F
330
62F
100
AcDbEntity
  8
1
  6
Continuous
100
AcDbLine
 10
333.669765537608
 20
213.3938158068467
 30
0.0
 11
332.4628925376081
 21
215.4841818068464
 31
0.0
  0
ARC
  5
490
330
62F
100
AcDbEntity
  8
1
  6
Continuous
100
AcDbCircle
 10
329.2128925376081
 20
223.5248898068467
 30
0.0
 40
5.0
100
AcDbArc
 50
90.0
 51
180.0
  0
ARC
  5
491
330
62F
100
AcDbEntity
  8
1
  6
Continuous
100
AcDbCircle
 10
334.2128925376081
 20
222.5248898068466
 30
0.0
 40
3.0
100
AcDbArc
 50
143.130102
 51
216.869898
  0
LINE
  5
492
330
62F
100
AcDbEntity
  8
1
  6
Continuous
100
AcDbLine
 10
338.2128925376081
 20
210.1438898068467
 30
0.0
 11
342.2128925376081
 21
207.8338898068464
 31
0.0
  0
ARC
  5
493
330
62F
100
AcDbEntity
  8
1
  6
Continuous
100
AcDbCircle
 10
346.7128925376081
 20
197.0248898068465
 30
0.0
 40
3.0
100
AcDbArc
 50
270.0
 51
0.0
  0
LINE
  5
494
330
62F
100
AcDbEntity
  8
1
  6
Continuous
100
AcDbLine
 10
340.1807455376081
 20
206.8987738068464
 30
0.0
 11
339.4234885376081
 21
206.1146108068467
 31
0.0
  0
LINE
  5
495
330
62F
100
AcDbEntity
  8
1
  6
Continuous
100
AcDbLine
 10
339.5867755376081
 20
207.4927428068466
 30
0.0
 11
338.8026135376079
 21
206.7354868068466
 31
0.0
  0
LINE
  5
496
330
62F
100
AcDbEntity
  8
1
  6
Continuous
100
AcDbLine
 10
342.2128925376081
 20
203.2148898068467
 30
0.0
 11
342.2128925376081
 21
207.8338898068464
 31
0.0
  0
ARC
  5
497
330
62F
100
AcDbEntity
  8
1
  6
Continuous
100
AcDbCircle
 10
338.2128925376081
 20
205.5248898068467
 30
0.0
 40
2.399999999999999
100
AcDbArc
 50
304.921342
 51
325.078658
  0
LINE
  5
498
330
62F
100
AcDbEntity
  8
1
  6
Continuous
100
AcDbLine
 10
340.1807455376081
 20
204.1510068068467
 30
0.0
 11
339.4234885376081
 21
204.9351688068466
 31
0.0
  0
LINE
  5
499
330
62F
100
AcDbEntity
  8
1
  6
Continuous
100
AcDbLine
 10
342.2128925376081
 20
203.2158898068467
 30
0.0
 11
338.2128925376081
 21
200.9058898068464
 31
0.0
  0
LINE
  5
49A
330
62F
100
AcDbEntity
  8
1
  6
Continuous
100
AcDbLine
 10
338.2128925376081
 20
206.5208458068467
 30
0.0
 11
337.6231715376081
 21
206.7354868068466
 31
0.0
  0
LINE
  5
49B
330
62F
100
AcDbEntity
  8
1
  6
Continuous
100
AcDbLine
 10
338.2128925376081
 20
204.5289348068467
 30
0.0
 11
337.6231715376081
 21
204.3142938068467
 31
0.0
  0
LINE
  5
49C
330
62F
100
AcDbEntity
  8
1
  6
Continuous
100
AcDbLine
 10
338.2128925376081
 20
204.5289348068467
 30
0.0
 11
338.8026135376079
 21
204.3142938068467
 31
0.0
  0
LINE
  5
49D
330
62F
100
AcDbEntity
  8
1
  6
Continuous
100
AcDbLine
 10
338.2128925376081
 20
206.5208458068467
 30
0.0
 11
338.8026135376079
 21
206.7354868068466
 31
0.0
  0
LINE
  5
49E
330
62F
100
AcDbEntity
  8
1
  6
Continuous
100
AcDbLine
 10
339.2088475376079
 20
205.5248898068467
 30
0.0
 11
339.4234885376081
 21
204.9351688068466
 31
0.0
  0
LINE
  5
49F
330
62F
100
AcDbEntity
  8
1
  6
Continuous
100
AcDbLine
 10
339.5867755376081
 20
203.5570368068467
 30
0.0
 11
338.8026135376079
 21
204.3142938068467
 31
0.0
  0
LINE
  5
4A0
330
62F
100
AcDbEntity
  8
1
  6
Continuous
100
AcDbLine
 10
339.2088475376079
 20
205.5248898068467
 30
0.0
 11
339.4234885376081
 21
206.1146108068467
 31
0.0
  0
ARC
  5
4A1
330
62F
100
AcDbEntity
  8
1
  6
Continuous
100
AcDbCircle
 10
338.2128925376081
 20
205.5248898068467
 30
0.0
 40
2.399999999999999
100
AcDbArc
 50
34.92134199999998
 51
55.078658
  0
LINE
  5
4A2
330
62F
100
AcDbEntity
  8
1
  6
Continuous
100
AcDbLine
 10
336.245039537608
 20
206.8987738068464
 30
0.0
 11
337.0022965376079
 21
206.1146108068467
 31
0.0
  0
ARC
  5
4A3
330
62F
100
AcDbEntity
  8
1
  6
Continuous
100
AcDbCircle
 10
338.2128925376081
 20
205.5248898068467
 30
0.0
 40
2.399999999999999
100
AcDbArc
 50
214.9213419999999
 51
235.0786579999997
  0
LINE
  5
4A4
330
62F
100
AcDbEntity
  8
1
  6
Continuous
100
AcDbLine
 10
336.245039537608
 20
204.1510068068467
 30
0.0
 11
337.0022965376079
 21
204.9351688068466
 31
0.0
  0
ARC
  5
4A5
330
62F
100
AcDbEntity
  8
1
  6
Continuous
100
AcDbCircle
 10
338.2128925376081
 20
205.5248898068467
 30
0.0
 40
2.399999999999999
100
AcDbArc
 50
124.921342
 51
145.0786579999999
  0
LINE
  5
4A6
330
62F
100
AcDbEntity
  8
1
  6
Continuous
100
AcDbLine
 10
336.839009537608
 20
207.4927428068466
 30
0.0
 11
337.6231715376081
 21
206.7354868068466
 31
0.0
  0
CIRCLE
  5
4A7
330
62F
100
AcDbEntity
  8
1
  6
Continuous
100
AcDbCircle
 10
338.2128925376081
 20
205.5248898068467
 30
0.0
 40
3.1
  0
LINE
  5
4A8
330
62F
100
AcDbEntity
  8
1
  6
Continuous
100
AcDbLine
 10
337.216937537608
 20
205.5248898068467
 30
0.0
 11
337.0022965376079
 21
204.9351688068466
 31
0.0
  0
LINE
  5
4A9
330
62F
100
AcDbEntity
  8
1
  6
Continuous
100
AcDbLine
 10
337.216937537608
 20
205.5248898068467
 30
0.0
 11
337.0022965376079
 21
206.1146108068467
 31
0.0
  0
LINE
  5
4AA
330
62F
100
AcDbEntity
  8
1
  6
Continuous
100
AcDbLine
 10
336.839009537608
 20
203.5570368068467
 30
0.0
 11
337.6231715376081
 21
204.3142938068467
 31
0.0
  0
ARC
  5
4AB
330
62F
100
AcDbEntity
  8
1
  6
Continuous
100
AcDbCircle
 10
347.2128925376081
 20
223.5248898068467
 30
0.0
 40
5.0
100
AcDbArc
 50
0.0
 51
90.0
  0
ARC
  5
4AC
330
62F
100
AcDbEntity
  8
1
  6
Continuous
100
AcDbCircle
 10
338.2128925376081
 20
225.5248898068467
 30
0.0
 40
8.0
100
AcDbArc
 50
298.9550239999999
 51
323.130102
  0
LINE
  5
4AD
330
62F
100
AcDbEntity
  8
1
  6
Continuous
100
AcDbLine
 10
342.7128925376081
 20
213.3191188068467
 30
0.0
 11
343.9628925376081
 21
215.4841818068464
 31
0.0
  0
ARC
  5
4AE
330
62F
100
AcDbEntity
  8
1
  6
Continuous
100
AcDbCircle
 10
342.323006537608
 20
213.6438158068466
 30
0.0
 40
0.5
100
AcDbArc
 50
320.0660619999998
 51
330.0
  0
ARC
  5
4AF
330
62F
100
AcDbEntity
  8
1
  6
Continuous
100
AcDbCircle
 10
346.7128925376081
 20
214.0248898068467
 30
0.0
 40
3.0
100
AcDbArc
 50
0.0
 51
90.0
  0
LINE
  5
4B0
330
62F
100
AcDbEntity
  8
1
  6
Continuous
100
AcDbLine
 10
343.9628925376081
 20
215.4841818068464
 30
0.0
 11
343.9628925376081
 21
217.0248898068467
 31
0.0
  0
LINE
  5
4B1
330
62F
100
AcDbEntity
  8
1
  6
Continuous
100
AcDbLine
 10
339.1622445376079
 20
222.5248898068466
 30
0.0
 11
339.3531625376079
 21
223.0509778068466
 31
0.0
  0
LINE
  5
4B2
330
62F
100
AcDbEntity
  8
1
  6
Continuous
100
AcDbLine
 10
339.3531625376079
 20
223.0509778068466
 30
0.0
 11
339.9641035376081
 21
223.6831308068466
 31
0.0
  0
LINE
  5
4B3
330
62F
100
AcDbEntity
  8
1
  6
Continuous
100
AcDbLine
 10
338.7379805376081
 20
223.6661608068467
 30
0.0
 11
339.3701335376079
 21
224.2771008068466
 31
0.0
  0
LINE
  5
4B4
330
62F
100
AcDbEntity
  8
1
  6
Continuous
100
AcDbLine
 10
338.211892537608
 20
223.4752418068466
 30
0.0
 11
338.7379805376081
 21
223.6661608068467
 31
0.0
  0
LINE
  5
4B5
330
62F
100
AcDbEntity
  8
1
  6
Continuous
100
AcDbLine
 10
337.262248537608
 20
222.5255968068467
 30
0.0
 11
337.0713295376081
 21
223.0502708068467
 31
0.0
  0
LINE
  5
4B6
330
62F
100
AcDbEntity
  8
1
  6
Continuous
100
AcDbLine
 10
337.687219537608
 20
223.6661608068467
 30
0.0
 11
337.054358537608
 21
224.2763938068466
 31
0.0
  0
LINE
  5
4B7
330
62F
100
AcDbEntity
  8
1
  6
Continuous
100
AcDbLine
 10
338.211892537608
 20
223.4752418068466
 30
0.0
 11
337.687219537608
 21
223.6661608068467
 31
0.0
  0
LINE
  5
4B8
330
62F
100
AcDbEntity
  8
1
  6
Continuous
100
AcDbLine
 10
338.2125995376081
 20
221.5752458068467
 30
0.0
 11
337.6865125376081
 21
221.3843268068467
 31
0.0
  0
LINE
  5
4B9
330
62F
100
AcDbEntity
  8
1
  6
Continuous
100
AcDbLine
 10
337.6865125376081
 20
221.3843268068467
 30
0.0
 11
337.054358537608
 21
220.7733868068467
 31
0.0
  0
LINE
  5
4BA
330
62F
100
AcDbEntity
  8
1
  6
Continuous
100
AcDbLine
 10
337.262248537608
 20
222.5255968068467
 30
0.0
 11
337.0713295376081
 21
221.9995098068466
 31
0.0
  0
LINE
  5
4BB
330
62F
100
AcDbEntity
  8
1
  6
Continuous
100
AcDbLine
 10
339.1622445376079
 20
222.5248898068466
 30
0.0
 11
339.3531625376079
 21
222.0002168068466
 31
0.0
  0
LINE
  5
4BC
330
62F
100
AcDbEntity
  8
1
  6
Continuous
100
AcDbLine
 10
339.3531625376079
 20
222.0002168068466
 30
0.0
 11
339.9641035376081
 21
221.3666488068467
 31
0.0
  0
LINE
  5
4BD
330
62F
100
AcDbEntity
  8
1
  6
Continuous
100
AcDbLine
 10
338.7372725376081
 20
221.3843268068467
 30
0.0
 11
339.3708405376079
 21
220.7733868068467
 31
0.0
  0
LINE
  5
4BE
330
62F
100
AcDbEntity
  8
1
  6
Continuous
100
AcDbLine
 10
338.2125995376081
 20
221.5752458068467
 30
0.0
 11
338.7372725376081
 21
221.3843268068467
 31
0.0
  0
ARC
  5
4BF
330
62F
100
AcDbEntity
  8
1
  6
Continuous
100
AcDbCircle
 10
338.211892537608
 20
222.5248898068466
 30
0.0
 40
2.1
100
AcDbArc
 50
33.463
 51
56.53699999999999
  0
ARC
  5
4C0
330
62F
100
AcDbEntity
  8
1
  6
Continuous
100
AcDbCircle
 10
338.211892537608
 20
222.5248898068466
 30
0.0
 40
2.1
100
AcDbArc
 50
303.4629999999999
 51
326.5369999999998
  0
LINE
  5
4C1
330
62F
100
AcDbEntity
  8
1
  6
Continuous
100
AcDbLine
 10
337.0713295376081
 20
223.0502708068467
 30
0.0
 11
336.460389537608
 21
223.6824238068467
 31
0.0
  0
LINE
  5
4C2
330
62F
100
AcDbEntity
  8
1
  6
Continuous
100
AcDbLine
 10
337.0713295376081
 20
221.9995098068466
 30
0.0
 11
336.460389537608
 21
221.3673568068466
 31
0.0
  0
ARC
  5
4C3
330
62F
100
AcDbEntity
  8
1
  6
Continuous
100
AcDbCircle
 10
338.211892537608
 20
222.5248898068466
 30
0.0
 40
2.1
100
AcDbArc
 50
123.4629999999998
 51
146.537
  0
ARC
  5
4C4
330
62F
100
AcDbEntity
  8
1
  6
Continuous
100
AcDbCircle
 10
338.211892537608
 20
222.5248898068466
 30
0.0
 40
2.1
100
AcDbArc
 50
213.463
 51
236.5369999999999
  0
ARC
  5
4C5
330
62F
100
AcDbEntity
  8
1
  6
Continuous
100
AcDbCircle
 10
342.2128925376081
 20
222.5248898068466
 30
0.0
 40
3.0
100
AcDbArc
 50
323.130102
 51
36.869898
  0
LINE
  5
4C6
330
62F
100
AcDbEntity
  8
1
  6
Continuous
100
AcDbLine
 10
39.00000153760811
 20
284.0424928068465
 30
0.0
 11
39.00000153760811
 21
273.0424928068465
 31
0.0
  0
LINE
  5
4C7
330
62F
100
AcDbEntity
  8
1
  6
Continuous
100
AcDbLine
 10
25.00000153760811
 20
284.0424928068465
 30
0.0
 11
25.00000153760811
 21
273.0424928068465
 31
0.0
  0
LINE
  5
4C8
330
62F
100
AcDbEntity
  8
1
  6
Continuous
100
AcDbLine
 10
27.09230953760811
 20
283.2540318068467
 30
0.0
 11
37.29230953760809
 21
279.0040318068467
 31
0.0
  0
LINE
  5
4C9
330
62F
100
AcDbEntity
  8
1
  6
Continuous
100
AcDbLine
 10
27.09230953760811
 20
273.8309548068465
 30
0.0
 11
37.29230953760809
 21
278.0809548068465
 31
0.0
  0
ARC
  5
4CA
330
62F
100
AcDbEntity
  8
1
  6
Continuous
100
AcDbCircle
 10
26.90000153760811
 20
274.2924928068467
 30
0.0
 40
0.5
100
AcDbArc
 50
180.0
 51
292.6198649999999
  0
ARC
  5
4CB
330
62F
100
AcDbEntity
  8
1
  6
Continuous
100
AcDbCircle
 10
26.90000153760811
 20
282.7924928068467
 30
0.0
 40
0.5
100
AcDbArc
 50
67.380135
 51
180.0
  0
LINE
  5
4CC
330
62F
100
AcDbEntity
  8
1
  6
Continuous
100
AcDbLine
 10
26.40000153760811
 20
274.2924928068467
 30
0.0
 11
26.40000153760811
 21
282.7924928068467
 31
0.0
  0
ARC
  5
4CD
330
62F
100
AcDbEntity
  8
1
  6
Continuous
100
AcDbCircle
 10
37.1000015376081
 20
278.5424928068467
 30
0.0
 40
0.5
100
AcDbArc
 50
292.6198649999999
 51
67.380135
  0
LINE
  5
4CE
330
62F
100
AcDbEntity
  8
1
  6
Continuous
100
AcDbLine
 10
38.50000153760811
 20
284.5424928068465
 30
0.0
 11
25.50000153760811
 21
284.5424928068465
 31
0.0
  0
ARC
  5
4CF
330
62F
100
AcDbEntity
  8
1
  6
Continuous
100
AcDbCircle
 10
25.50000153760811
 20
284.0424928068465
 30
0.0
 40
0.5
100
AcDbArc
 50
90.0
 51
180.0
  0
ARC
  5
4D0
330
62F
100
AcDbEntity
  8
1
  6
Continuous
100
AcDbCircle
 10
38.50000153760811
 20
284.0424928068465
 30
0.0
 40
0.5
100
AcDbArc
 50
0.0
 51
90.0
  0
LINE
  5
4D1
330
62F
100
AcDbEntity
  8
1
  6
Continuous
100
AcDbLine
 10
187.9797785376081
 20
309.4305788068467
 30
0.0
 11
187.9797785376081
 21
320.9305788068467
 31
0.0
  0
LINE
  5
4D2
330
62F
100
AcDbEntity
  8
1
  6
Continuous
100
AcDbLine
 10
191.3797785376081
 20
320.1805788068467
 30
0.0
 11
191.3797785376081
 21
310.1805788068467
 31
0.0
  0
LINE
  5
4D3
330
62F
100
AcDbEntity
  8
1
  6
Continuous
100
AcDbLine
 10
166.6797785376081
 20
318.1805788068467
 30
0.0
 11
166.6797785376081
 21
312.1805788068467
 31
0.0
  0
LINE
  5
4D4
330
62F
100
AcDbEntity
  8
1
  6
Continuous
100
AcDbLine
 10
166.1797785376078
 20
318.6805788068467
 30
0.0
 11
166.1797785376078
 21
311.6805788068467
 31
0.0
  0
LINE
  5
4D5
330
62F
100
AcDbEntity
  8
1
  6
Continuous
100
AcDbLine
 10
158.6797785376077
 20
304.1805788068467
 30
0.0
 11
158.6797785376077
 21
326.1805788068467
 31
0.0
  0
LINE
  5
4D6
330
62F
100
AcDbEntity
  8
1
  6
Continuous
100
AcDbLine
 10
160.1797785376081
 20
301.1805788068467
 30
0.0
 11
160.1797785376081
 21
329.1805788068467
 31
0.0
  0
LINE
  5
4D7
330
62F
100
AcDbEntity
  8
1
  6
Continuous
100
AcDbLine
 10
161.6797785376079
 20
301.1805788068467
 30
0.0
 11
161.6797785376079
 21
329.1805788068467
 31
0.0
  0
LINE
  5
4D8
330
62F
100
AcDbEntity
  8
1
  6
Continuous
100
AcDbLine
 10
162.6797785376081
 20
301.1805788068467
 30
0.0
 11
162.6797785376081
 21
329.1805788068467
 31
0.0
  0
ARC
  5
4D9
330
62F
100
AcDbEntity
  8
1
  6
Continuous
100
AcDbCircle
 10
164.9374235376081
 20
315.1805788068467
 30
0.0
 40
11.955058
100
AcDbArc
 50
127.3784749999999
 51
232.621525
  0
LINE
  5
4DA
330
62F
100
AcDbEntity
  8
1
  6
Continuous
100
AcDbLine
 10
188.379778537608
 20
326.4305788068467
 30
0.0
 11
188.379778537608
 21
305.4370788068467
 31
0.0
  0
LINE
  5
4DB
330
62F
100
AcDbEntity
  8
1
  6
Continuous
100
AcDbLine
 10
187.9797785376081
 20
309.4305788068467
 30
0.0
 11
162.6797785376081
 21
309.4305788068467
 31
0.0
  0
LINE
  5
4DC
330
62F
100
AcDbEntity
  8
1
  6
Continuous
100
AcDbLine
 10
184.8797785376081
 20
303.6805788068467
 30
0.0
 11
162.6797785376081
 21
303.6805788068467
 31
0.0
  0
LINE
  5
4DD
330
62F
100
AcDbEntity
  8
4
  6
CENTER
100
AcDbLine
 10
194.379778537608
 20
315.1805788068467
 30
0.0
 11
149.982365537608
 21
315.1805788068467
 31
0.0
  0
LINE
  5
4DE
330
62F
100
AcDbEntity
  8
1
  6
Continuous
100
AcDbLine
 10
162.6797785376081
 20
311.6805788068467
 30
0.0
 11
166.1797785376078
 21
311.6805788068467
 31
0.0
  0
LINE
  5
4DF
330
62F
100
AcDbEntity
  8
1
  6
Continuous
100
AcDbLine
 10
162.6797785376081
 20
301.1805788068467
 30
0.0
 11
160.1797785376081
 21
301.1805788068467
 31
0.0
  0
LINE
  5
4E0
330
62F
100
AcDbEntity
  8
1
  6
Continuous
100
AcDbLine
 10
158.6797785376077
 20
304.1805788068467
 30
0.0
 11
160.1797785376081
 21
301.1805788068467
 31
0.0
  0
LINE
  5
4E1
330
62F
100
AcDbEntity
  8
1
  6
Continuous
100
AcDbLine
 10
158.6797785376077
 20
305.6805788068467
 30
0.0
 11
157.6797785376077
 21
305.6805788068467
 31
0.0
  0
LINE
  5
4E2
330
62F
100
AcDbEntity
  8
1
  6
Continuous
100
AcDbLine
 10
166.1797785376078
 20
311.6805788068467
 30
0.0
 11
166.6797785376081
 21
312.1805788068467
 31
0.0
  0
LINE
  5
4E3
330
62F
100
AcDbEntity
  8
1
  6
Continuous
100
AcDbLine
 10
185.879778537608
 20
304.6805788068467
 30
0.0
 11
185.879778537608
 21
309.4305788068467
 31
0.0
  0
ARC
  5
4E4
330
62F
100
AcDbEntity
  8
1
  6
Continuous
100
AcDbCircle
 10
184.8797785376081
 20
304.6805788068467
 30
0.0
 40
1.0
100
AcDbArc
 50
270.0
 51
0.0
  0
LINE
  5
4E5
330
62F
100
AcDbEntity
  8
1
  6
Continuous
100
AcDbLine
 10
188.379778537608
 20
307.3863788068465
 30
0.0
 11
186.379778537608
 21
307.3863788068465
 31
0.0
  0
LINE
  5
4E6
330
62F
100
AcDbEntity
  8
1
  6
Continuous
100
AcDbLine
 10
188.379778537608
 20
305.4370788068467
 30
0.0
 11
186.379778537608
 21
305.4370788068467
 31
0.0
  0
LINE
  5
4E7
330
62F
100
AcDbEntity
  8
1
  6
Continuous
100
AcDbLine
 10
186.2797785376081
 20
309.2805788068465
 30
0.0
 11
186.379778537608
 21
309.2805788068465
 31
0.0
  0
LINE
  5
4E8
330
62F
100
AcDbEntity
  8
1
  6
Continuous
100
AcDbLine
 10
186.0797785376078
 20
305.1805788068467
 30
0.0
 11
185.879778537608
 21
305.1805788068467
 31
0.0
  0
ARC
  5
4E9
330
62F
100
AcDbEntity
  8
1
  6
Continuous
100
AcDbCircle
 10
186.0235285376081
 20
305.4305788068467
 30
0.0
 40
0.25625
100
AcDbArc
 50
282.680383
 51
0.0
  0
LINE
  5
4EA
330
62F
100
AcDbEntity
  8
1
  6
Continuous
100
AcDbLine
 10
186.2797785376081
 20
309.4305788068467
 30
0.0
 11
186.2797785376081
 21
305.4305788068467
 31
0.0
  0
LINE
  5
4EB
330
62F
100
AcDbEntity
  8
1
  6
Continuous
100
AcDbLine
 10
186.379778537608
 20
309.4305788068467
 30
0.0
 11
186.379778537608
 21
305.4370788068467
 31
0.0
  0
LINE
  5
4EC
330
62F
100
AcDbEntity
  8
1
  6
Continuous
100
AcDbLine
 10
191.3797785376081
 20
310.1805788068467
 30
0.0
 11
188.379778537608
 21
310.1805788068467
 31
0.0
  0
LINE
  5
4ED
330
62F
100
AcDbEntity
  8
1
  6
Continuous
100
AcDbLine
 10
191.3797785376081
 20
314.5237248068467
 30
0.0
 11
188.379778537608
 21
314.5237248068467
 31
0.0
  0
LINE
  5
4EE
330
62F
100
AcDbEntity
  8
1
  6
Continuous
100
AcDbLine
 10
187.9797785376081
 20
320.9305788068467
 30
0.0
 11
162.6797785376081
 21
320.9305788068467
 31
0.0
  0
LINE
  5
4EF
330
62F
100
AcDbEntity
  8
1
  6
Continuous
100
AcDbLine
 10
184.8797785376081
 20
326.6805788068467
 30
0.0
 11
162.6797785376081
 21
326.6805788068467
 31
0.0
  0
LINE
  5
4F0
330
62F
100
AcDbEntity
  8
1
  6
Continuous
100
AcDbLine
 10
162.6797785376081
 20
318.6805788068467
 30
0.0
 11
166.1797785376078
 21
318.6805788068467
 31
0.0
  0
LINE
  5
4F1
330
62F
100
AcDbEntity
  8
1
  6
Continuous
100
AcDbLine
 10
158.6797785376077
 20
326.1805788068467
 30
0.0
 11
160.1797785376081
 21
329.1805788068467
 31
0.0
  0
LINE
  5
4F2
330
62F
100
AcDbEntity
  8
1
  6
Continuous
100
AcDbLine
 10
158.6797785376077
 20
324.6805788068467
 30
0.0
 11
157.6797785376077
 21
324.6805788068467
 31
0.0
  0
LINE
  5
4F3
330
62F
100
AcDbEntity
  8
1
  6
Continuous
100
AcDbLine
 10
162.6797785376081
 20
329.1805788068467
 30
0.0
 11
160.1797785376081
 21
329.1805788068467
 31
0.0
  0
LINE
  5
4F4
330
62F
100
AcDbEntity
  8
1
  6
Continuous
100
AcDbLine
 10
166.1797785376078
 20
318.6805788068467
 30
0.0
 11
166.6797785376081
 21
318.1805788068467
 31
0.0
  0
ARC
  5
4F5
330
62F
100
AcDbEntity
  8
1
  6
Continuous
100
AcDbCircle
 10
184.8797785376081
 20
325.6805788068467
 30
0.0
 40
1.0
100
AcDbArc
 50
0.0
 51
90.0
  0
LINE
  5
4F6
330
62F
100
AcDbEntity
  8
1
  6
Continuous
100
AcDbLine
 10
186.379778537608
 20
326.4305788068467
 30
0.0
 11
186.379778537608
 21
320.9305788068467
 31
0.0
  0
LINE
  5
4F7
330
62F
100
AcDbEntity
  8
1
  6
Continuous
100
AcDbLine
 10
185.879778537608
 20
320.9305788068467
 30
0.0
 11
185.879778537608
 21
325.6805788068467
 31
0.0
  0
LINE
  5
4F8
330
62F
100
AcDbEntity
  8
1
  6
Continuous
100
AcDbLine
 10
186.2797785376081
 20
321.0805788068467
 30
0.0
 11
186.379778537608
 21
321.0805788068467
 31
0.0
  0
LINE
  5
4F9
330
62F
100
AcDbEntity
  8
1
  6
Continuous
100
AcDbLine
 10
186.2797785376081
 20
323.8408328068465
 30
0.0
 11
185.879778537608
 21
323.8408328068465
 31
0.0
  0
LINE
  5
4FA
330
62F
100
AcDbEntity
  8
1
  6
Continuous
100
AcDbLine
 10
186.2797785376081
 20
323.8408328068465
 30
0.0
 11
186.2797785376081
 21
320.9305788068467
 31
0.0
  0
LINE
  5
4FB
330
62F
100
AcDbEntity
  8
1
  6
Continuous
100
AcDbLine
 10
191.3797785376081
 20
315.8374328068467
 30
0.0
 11
188.379778537608
 21
315.8374328068467
 31
0.0
  0
LINE
  5
4FC
330
62F
100
AcDbEntity
  8
1
  6
Continuous
100
AcDbLine
 10
191.3797785376081
 20
320.1805788068467
 30
0.0
 11
188.379778537608
 21
320.1805788068467
 31
0.0
  0
LINE
  5
4FD
330
62F
100
AcDbEntity
  8
1
  6
Continuous
100
AcDbLine
 10
188.379778537608
 20
326.4305788068467
 30
0.0
 11
186.379778537608
 21
326.4305788068467
 31
0.0
  0
LINE
  5
4FE
330
62F
100
AcDbEntity
  8
1
  6
Continuous
100
AcDbLine
 10
237.1188055376081
 20
324.1805788068467
 30
0.0
 11
237.1188055376081
 21
306.1805788068467
 31
0.0
  0
LINE
  5
4FF
330
62F
100
AcDbEntity
  8
1
  6
Continuous
100
AcDbLine
 10
240.8188055376079
 20
316.4805788068465
 30
0.0
 11
239.518805537608
 21
315.1805788068467
 31
0.0
  0
LINE
  5
500
330
62F
100
AcDbEntity
  8
1
  6
Continuous
100
AcDbLine
 10
239.518805537608
 20
321.1805788068467
 30
0.0
 11
239.518805537608
 21
309.1805788068467
 31
0.0
  0
LINE
  5
501
330
62F
100
AcDbEntity
  8
1
  6
Continuous
100
AcDbLine
 10
240.8188055376079
 20
319.7993808068465
 30
0.0
 11
240.8188055376079
 21
310.5617768068467
 31
0.0
  0
LINE
  5
502
330
62F
100
AcDbEntity
  8
1
  6
Continuous
100
AcDbLine
 10
240.8188055376079
 20
319.7805788068465
 30
0.0
 11
240.8188055376079
 21
310.5805788068467
 31
0.0
  0
LINE
  5
503
330
62F
100
AcDbEntity
  8
1
  6
Continuous
100
AcDbLine
 10
244.318805537608
 20
319.1805788068467
 30
0.0
 11
244.318805537608
 21
311.1805788068467
 31
0.0
  0
ARC
  5
504
330
62F
100
AcDbEntity
  8
1
  6
Continuous
100
AcDbCircle
 10
246.593782537608
 20
317.1805788068467
 30
0.0
 40
5.774976999999998
100
AcDbArc
 50
159.7375
 51
200.2625
  0
ARC
  5
505
330
62F
100
AcDbEntity
  8
1
  6
Continuous
100
AcDbCircle
 10
238.543829537608
 20
317.1805788068467
 30
0.0
 40
5.774976999999998
100
AcDbArc
 50
339.7375
 51
20.26249999999999
  0
ARC
  5
506
330
62F
100
AcDbEntity
  8
1
  6
Continuous
100
AcDbCircle
 10
209.064906537608
 20
315.1787498068465
 30
0.0
 40
9.0
100
AcDbArc
 50
344.13537
 51
15.89737
  0
LINE
  5
507
330
62F
100
AcDbEntity
  8
1
  6
Continuous
100
AcDbLine
 10
215.464905537608
 20
316.1805788068467
 30
0.0
 11
214.4649055376081
 21
315.1805788068467
 31
0.0
  0
LINE
  5
508
330
62F
100
AcDbEntity
  8
1
  6
Continuous
100
AcDbLine
 10
214.4649055376081
 20
321.6805788068467
 30
0.0
 11
214.4649055376081
 21
308.6805788068467
 31
0.0
  0
LINE
  5
509
330
62F
100
AcDbEntity
  8
1
  6
Continuous
100
AcDbLine
 10
215.464905537608
 20
318.9805788068465
 30
0.0
 11
215.464905537608
 21
311.3805788068467
 31
0.0
  0
LINE
  5
50A
330
62F
100
AcDbEntity
  8
1
  6
Continuous
100
AcDbLine
 10
209.464905537608
 20
322.1805788068467
 30
0.0
 11
209.464905537608
 21
308.1805788068467
 31
0.0
  0
LINE
  5
50B
330
62F
100
AcDbEntity
  8
1
  6
Continuous
100
AcDbLine
 10
235.518805537608
 20
324.1805788068467
 30
0.0
 11
235.518805537608
 21
306.1805788068467
 31
0.0
  0
LINE
  5
50C
330
62F
100
AcDbEntity
  8
1
  6
Continuous
100
AcDbLine
 10
238.718805537608
 20
324.1805788068467
 30
0.0
 11
238.718805537608
 21
306.1805788068467
 31
0.0
  0
LINE
  5
50D
330
62F
100
AcDbEntity
  8
1
  6
Continuous
100
AcDbLine
 10
216.600387537608
 20
311.7801718068467
 30
0.0
 11
215.464905537608
 21
311.6805788068467
 31
0.0
  0
LINE
  5
50E
330
62F
100
AcDbEntity
  8
4
  6
CENTER
100
AcDbLine
 10
221.0649055376081
 20
315.1805788068467
 30
0.0
 11
206.4649055376081
 21
315.1805788068467
 31
0.0
  0
LINE
  5
50F
330
62F
100
AcDbEntity
  8
1
  6
Continuous
100
AcDbLine
 10
215.464905537608
 20
315.1805788068467
 30
0.0
 11
214.4649055376081
 21
314.1805788068467
 31
0.0
  0
LINE
  5
510
330
62F
100
AcDbEntity
  8
1
  6
Continuous
100
AcDbLine
 10
215.464905537608
 20
311.3805788068467
 30
0.0
 11
214.4649055376081
 21
311.3805788068467
 31
0.0
  0
ARC
  5
511
330
62F
100
AcDbEntity
  8
1
  6
Continuous
100
AcDbCircle
 10
213.964905537608
 20
308.6805788068467
 30
0.0
 40
0.5
100
AcDbArc
 50
270.0
 51
0.0
  0
LINE
  5
512
330
62F
100
AcDbEntity
  8
1
  6
Continuous
100
AcDbLine
 10
213.964905537608
 20
308.1805788068467
 30
0.0
 11
209.464905537608
 21
308.1805788068467
 31
0.0
  0
ARC
  5
513
330
62F
100
AcDbEntity
  8
1
  6
Continuous
100
AcDbCircle
 10
216.472507537608
 20
313.0738668068466
 30
0.0
 40
1.3
100
AcDbArc
 50
275.0163699999998
 51
344.13537
  0
LINE
  5
514
330
62F
100
AcDbEntity
  8
4
  6
CENTER
100
AcDbLine
 10
247.318805537608
 20
315.1805788068467
 30
0.0
 11
232.5188055376081
 21
315.1805788068467
 31
0.0
  0
LINE
  5
515
330
62F
100
AcDbEntity
  8
1
  6
Continuous
100
AcDbLine
 10
239.518805537608
 20
309.1805788068467
 30
0.0
 11
238.718805537608
 21
309.1805788068467
 31
0.0
  0
LINE
  5
516
330
62F
100
AcDbEntity
  8
1
  6
Continuous
100
AcDbLine
 10
235.518805537608
 20
306.1805788068467
 30
0.0
 11
238.718805537608
 21
306.1805788068467
 31
0.0
  0
LINE
  5
517
330
62F
100
AcDbEntity
  8
1
  6
Continuous
100
AcDbLine
 10
240.8188055376079
 20
315.1805788068467
 30
0.0
 11
239.518805537608
 21
313.8805788068467
 31
0.0
  0
LINE
  5
518
330
62F
100
AcDbEntity
  8
1
  6
Continuous
100
AcDbLine
 10
240.8188055376079
 20
310.5805788068467
 30
0.0
 11
239.518805537608
 21
310.5805788068467
 31
0.0
  0
ARC
  5
519
330
62F
100
AcDbEntity
  8
1
  6
Continuous
100
AcDbCircle
 10
238.543829537608
 20
313.1805788068467
 30
0.0
 40
5.774976999999998
100
AcDbArc
 50
339.7375
 51
20.26249999999999
  0
ARC
  5
51A
330
62F
100
AcDbEntity
  8
1
  6
Continuous
100
AcDbCircle
 10
246.593782537608
 20
313.1805788068467
 30
0.0
 40
5.774976999999998
100
AcDbArc
 50
159.7375
 51
200.2625
  0
LINE
  5
51B
330
62F
100
AcDbEntity
  8
1
  6
Continuous
100
AcDbLine
 10
244.318805537608
 20
311.1805788068467
 30
0.0
 11
240.8188055376079
 21
311.1805788068467
 31
0.0
  0
LINE
  5
51C
330
62F
100
AcDbEntity
  8
1
  6
Continuous
100
AcDbLine
 10
241.1761855376078
 20
315.1805788068467
 30
0.0
 11
243.9614265376081
 21
315.1805788068467
 31
0.0
  0
LINE
  5
51D
330
62F
100
AcDbEntity
  8
1
  6
Continuous
100
AcDbLine
 10
216.583933537608
 20
318.5828988068467
 30
0.0
 11
215.4639055376081
 21
318.6805788068467
 31
0.0
  0
LINE
  5
51E
330
62F
100
AcDbEntity
  8
1
  6
Continuous
100
AcDbLine
 10
215.464905537608
 20
318.9805788068465
 30
0.0
 11
214.4649055376081
 21
318.9805788068465
 31
0.0
  0
ARC
  5
51F
330
62F
100
AcDbEntity
  8
1
  6
Continuous
100
AcDbCircle
 10
213.964905537608
 20
321.6805788068467
 30
0.0
 40
0.5
100
AcDbArc
 50
0.0
 51
90.0
  0
LINE
  5
520
330
62F
100
AcDbEntity
  8
1
  6
Continuous
100
AcDbLine
 10
213.964905537608
 20
322.1805788068467
 30
0.0
 11
209.464905537608
 21
322.1805788068467
 31
0.0
  0
ARC
  5
521
330
62F
100
AcDbEntity
  8
1
  6
Continuous
100
AcDbCircle
 10
216.4713035376081
 20
317.2878658068467
 30
0.0
 40
1.3
100
AcDbArc
 50
15.89737
 51
85.01636999999998
  0
LINE
  5
522
330
62F
100
AcDbEntity
  8
1
  6
Continuous
100
AcDbLine
 10
239.518805537608
 20
321.1805788068467
 30
0.0
 11
238.718805537608
 21
321.1805788068467
 31
0.0
  0
LINE
  5
523
330
62F
100
AcDbEntity
  8
1
  6
Continuous
100
AcDbLine
 10
235.518805537608
 20
324.1805788068467
 30
0.0
 11
238.718805537608
 21
324.1805788068467
 31
0.0
  0
LINE
  5
524
330
62F
100
AcDbEntity
  8
1
  6
Continuous
100
AcDbLine
 10
240.8188055376079
 20
319.7805788068465
 30
0.0
 11
239.518805537608
 21
319.7805788068465
 31
0.0
  0
LINE
  5
525
330
62F
100
AcDbEntity
  8
1
  6
Continuous
100
AcDbLine
 10
244.318805537608
 20
319.1805788068467
 30
0.0
 11
240.8188055376079
 21
319.1805788068467
 31
0.0
  0
LINE
  5
526
330
62F
100
AcDbEntity
  8
4
  6
CENTER
100
AcDbLine
 10
455.360849537608
 20
150.5248898068466
 30
0.0
 11
469.9608495376081
 21
150.5248898068466
 31
0.0
  0
LINE
  5
527
330
62F
100
AcDbEntity
  8
4
  6
CENTER
100
AcDbLine
 10
455.360879537608
 20
222.5248898068466
 30
0.0
 11
469.960879537608
 21
222.5248898068466
 31
0.0
  0
ARC
  5
528
330
62F
100
AcDbEntity
  8
1
  6
Continuous
100
AcDbCircle
 10
462.460849537608
 20
154.0248898068466
 30
0.0
 40
0.5
100
AcDbArc
 50
90.0
 51
180.0
  0
ARC
  5
529
330
62F
100
AcDbEntity
  8
1
  6
Continuous
100
AcDbCircle
 10
462.460849537608
 20
146.0248898068467
 30
0.0
 40
0.5
100
AcDbArc
 50
180.0
 51
270.0
  0
LINE
  5
52A
330
62F
100
AcDbEntity
  8
1
  6
Continuous
100
AcDbLine
 10
460.9608495376082
 20
154.3248898068465
 30
0.0
 11
461.9608495376081
 21
154.3248898068465
 31
0.0
  0
LINE
  5
52B
330
62F
100
AcDbEntity
  8
1
  6
Continuous
100
AcDbLine
 10
460.9608495376082
 20
150.5248898068466
 30
0.0
 11
461.9608495376081
 21
151.5248898068467
 31
0.0
  0
LINE
  5
52C
330
62F
100
AcDbEntity
  8
1
  6
Continuous
100
AcDbLine
 10
460.9608495376082
 20
149.5248898068466
 30
0.0
 11
461.9608495376081
 21
150.5248898068466
 31
0.0
  0
LINE
  5
52D
330
62F
100
AcDbEntity
  8
1
  6
Continuous
100
AcDbLine
 10
460.9608495376082
 20
146.7248898068466
 30
0.0
 11
461.9608495376081
 21
146.7248898068466
 31
0.0
  0
LINE
  5
52E
330
62F
100
AcDbEntity
  8
1
  6
Continuous
100
AcDbLine
 10
461.9608495376081
 20
146.0248898068467
 30
0.0
 11
461.9608495376081
 21
154.3248898068465
 31
0.0
  0
LINE
  5
52F
330
62F
100
AcDbEntity
  8
1
  6
Continuous
100
AcDbLine
 10
460.9608495376082
 20
154.3248898068465
 30
0.0
 11
460.9608495376082
 21
146.7248898068466
 31
0.0
  0
ARC
  5
530
330
62F
100
AcDbEntity
  8
1
  6
Continuous
100
AcDbCircle
 10
467.360849537608
 20
150.5230618068467
 30
0.0
 40
9.0
100
AcDbArc
 50
164.10263
 51
195.86463
  0
ARC
  5
531
330
62F
100
AcDbEntity
  8
1
  6
Continuous
100
AcDbCircle
 10
459.9532475376079
 20
148.4181778068467
 30
0.0
 40
1.3
100
AcDbArc
 50
195.86463
 51
264.98363
  0
ARC
  5
532
330
62F
100
AcDbEntity
  8
1
  6
Continuous
100
AcDbCircle
 10
459.954451537608
 20
152.6321778068467
 30
0.0
 40
1.3
100
AcDbArc
 50
94.98363000000002
 51
164.10263
  0
LINE
  5
533
330
62F
100
AcDbEntity
  8
1
  6
Continuous
100
AcDbLine
 10
459.8418215376081
 20
153.9272098068464
 30
0.0
 11
460.9618495376079
 21
154.0248898068466
 31
0.0
  0
LINE
  5
534
330
62F
100
AcDbEntity
  8
1
  6
Continuous
100
AcDbLine
 10
459.825368537608
 20
147.1244828068467
 30
0.0
 11
460.9608495376082
 21
147.0248898068467
 31
0.0
  0
LINE
  5
535
330
62F
100
AcDbEntity
  8
1
  6
Continuous
100
AcDbLine
 10
462.460849537608
 20
154.5248898068466
 30
0.0
 11
466.960849537608
 21
154.5248898068466
 31
0.0
  0
LINE
  5
536
330
62F
100
AcDbEntity
  8
1
  6
Continuous
100
AcDbLine
 10
462.460849537608
 20
145.5248898068466
 30
0.0
 11
466.960849537608
 21
145.5248898068466
 31
0.0
  0
LINE
  5
537
330
62F
100
AcDbEntity
  8
1
  6
Continuous
100
AcDbLine
 10
466.960849537608
 20
145.5248898068466
 30
0.0
 11
466.960849537608
 21
154.5248898068466
 31
0.0
  0
LINE
  5
538
330
62F
100
AcDbEntity
  8
4
  6
CENTER
100
AcDbLine
 10
429.1069795376079
 20
205.5248898068467
 30
0.0
 11
443.906979537608
 21
205.5248898068467
 31
0.0
  0
LINE
  5
539
330
62F
100
AcDbEntity
  8
1
  6
Continuous
100
AcDbLine
 10
440.9069795376082
 20
214.5248898068466
 30
0.0
 11
437.706979537608
 21
214.5248898068466
 31
0.0
  0
LINE
  5
53A
330
62F
100
AcDbEntity
  8
1
  6
Continuous
100
AcDbLine
 10
440.9069795376082
 20
196.5248898068465
 30
0.0
 11
437.706979537608
 21
196.5248898068465
 31
0.0
  0
LINE
  5
53B
330
62F
100
AcDbEntity
  8
1
  6
Continuous
100
AcDbLine
 10
435.606979537608
 20
210.1248898068466
 30
0.0
 11
435.606979537608
 21
200.9248898068467
 31
0.0
  0
LINE
  5
53C
330
62F
100
AcDbEntity
  8
1
  6
Continuous
100
AcDbLine
 10
435.606979537608
 20
210.1436918068466
 30
0.0
 11
435.606979537608
 21
200.9060878068466
 31
0.0
  0
LINE
  5
53D
330
62F
100
AcDbEntity
  8
1
  6
Continuous
100
AcDbLine
 10
436.906979537608
 20
211.5248898068467
 30
0.0
 11
436.906979537608
 21
199.5248898068465
 31
0.0
  0
LINE
  5
53E
330
62F
100
AcDbEntity
  8
1
  6
Continuous
100
AcDbLine
 10
432.106979537608
 20
209.5248898068467
 30
0.0
 11
432.106979537608
 21
201.5248898068467
 31
0.0
  0
ARC
  5
53F
330
62F
100
AcDbEntity
  8
1
  6
Continuous
100
AcDbCircle
 10
433.5618925376079
 20
208.9888898068467
 30
0.0
 40
2.045087
100
AcDbArc
 50
325.6137989999998
 51
25.61379899999997
  0
ARC
  5
540
330
62F
100
AcDbEntity
  8
1
  6
Continuous
100
AcDbCircle
 10
434.1520655376078
 20
208.9888898068467
 30
0.0
 40
2.045087
100
AcDbArc
 50
154.3862009999998
 51
214.3862009999998
  0
LINE
  5
541
330
62F
100
AcDbEntity
  8
1
  6
Continuous
100
AcDbLine
 10
437.706979537608
 20
214.5248898068466
 30
0.0
 11
437.706979537608
 21
196.5248898068465
 31
0.0
  0
LINE
  5
542
330
62F
100
AcDbEntity
  8
1
  6
Continuous
100
AcDbLine
 10
435.606979537608
 20
200.9248898068467
 30
0.0
 11
436.906979537608
 21
200.9248898068467
 31
0.0
  0
LINE
  5
543
330
62F
100
AcDbEntity
  8
1
  6
Continuous
100
AcDbLine
 10
436.906979537608
 20
199.5248898068465
 30
0.0
 11
437.706979537608
 21
199.5248898068465
 31
0.0
  0
LINE
  5
544
330
62F
100
AcDbEntity
  8
1
  6
Continuous
100
AcDbLine
 10
435.606979537608
 20
204.2248898068466
 30
0.0
 11
436.906979537608
 21
205.5248898068467
 31
0.0
  0
LINE
  5
545
330
62F
100
AcDbEntity
  8
1
  6
Continuous
100
AcDbLine
 10
435.606979537608
 20
205.5248898068467
 30
0.0
 11
436.906979537608
 21
206.8248898068466
 31
0.0
  0
ARC
  5
546
330
62F
100
AcDbEntity
  8
1
  6
Continuous
100
AcDbCircle
 10
427.965934537608
 20
205.5243898068466
 30
0.0
 40
7.641045
100
AcDbArc
 50
342.4072529999999
 51
17.59274699999998
  0
ARC
  5
547
330
62F
100
AcDbEntity
  8
1
  6
Continuous
100
AcDbCircle
 10
439.7480245376081
 20
205.5243898068466
 30
0.0
 40
7.641045
100
AcDbArc
 50
162.407253
 51
197.592747
  0
ARC
  5
548
330
62F
100
AcDbEntity
  8
1
  6
Continuous
100
AcDbCircle
 10
433.5618925376079
 20
202.0608898068467
 30
0.0
 40
2.045087
100
AcDbArc
 50
334.3862009999998
 51
34.386201
  0
LINE
  5
549
330
62F
100
AcDbEntity
  8
1
  6
Continuous
100
AcDbLine
 10
435.606979537608
 20
201.5248898068467
 30
0.0
 11
435.2495995376079
 21
200.9058898068464
 31
0.0
  0
LINE
  5
54A
330
62F
100
AcDbEntity
  8
1
  6
Continuous
100
AcDbLine
 10
432.106979537608
 20
201.5248898068467
 30
0.0
 11
432.464359537608
 21
200.9058898068464
 31
0.0
  0
LINE
  5
54B
330
62F
100
AcDbEntity
  8
1
  6
Continuous
100
AcDbLine
 10
432.464359537608
 20
200.9058898068464
 30
0.0
 11
435.2495995376079
 21
200.9058898068464
 31
0.0
  0
LINE
  5
54C
330
62F
100
AcDbEntity
  8
1
  6
Continuous
100
AcDbLine
 10
432.464359537608
 20
203.2148898068467
 30
0.0
 11
435.2495995376079
 21
203.2148898068467
 31
0.0
  0
ARC
  5
54D
330
62F
100
AcDbEntity
  8
1
  6
Continuous
100
AcDbCircle
 10
434.1520655376078
 20
202.0608898068467
 30
0.0
 40
2.045087
100
AcDbArc
 50
145.613799
 51
205.6137989999999
  0
LINE
  5
54E
330
62F
100
AcDbEntity
  8
1
  6
Continuous
100
AcDbLine
 10
432.464359537608
 20
207.8338898068464
 30
0.0
 11
435.2495995376079
 21
207.8338898068464
 31
0.0
  0
LINE
  5
54F
330
62F
100
AcDbEntity
  8
1
  6
Continuous
100
AcDbLine
 10
435.606979537608
 20
210.1248898068466
 30
0.0
 11
436.906979537608
 21
210.1248898068466
 31
0.0
  0
LINE
  5
550
330
62F
100
AcDbEntity
  8
1
  6
Continuous
100
AcDbLine
 10
436.906979537608
 20
211.5248898068467
 30
0.0
 11
437.706979537608
 21
211.5248898068467
 31
0.0
  0
LINE
  5
551
330
62F
100
AcDbEntity
  8
1
  6
Continuous
100
AcDbLine
 10
435.606979537608
 20
209.5248898068467
 30
0.0
 11
435.2495995376079
 21
210.1438898068467
 31
0.0
  0
LINE
  5
552
330
62F
100
AcDbEntity
  8
1
  6
Continuous
100
AcDbLine
 10
432.464359537608
 20
210.1438898068467
 30
0.0
 11
435.2495995376079
 21
210.1438898068467
 31
0.0
  0
LINE
  5
553
330
62F
100
AcDbEntity
  8
1
  6
Continuous
100
AcDbLine
 10
432.106979537608
 20
209.5248898068467
 30
0.0
 11
432.464359537608
 21
210.1438898068467
 31
0.0
  0
LINE
  5
554
330
62F
100
AcDbEntity
  8
1
  6
Continuous
100
AcDbLine
 10
439.3069795376081
 20
214.5248898068466
 30
0.0
 11
439.3069795376081
 21
196.5248898068465
 31
0.0
  0
LINE
  5
555
330
62F
100
AcDbEntity
  8
1
  6
Continuous
100
AcDbLine
 10
440.9069795376082
 20
214.5248898068466
 30
0.0
 11
440.9069795376082
 21
196.5248898068465
 31
0.0
  0
LINE
  5
556
330
62F
100
AcDbEntity
  8
1
  6
Continuous
100
AcDbLine
 10
466.9608795376079
 20
227.5248898068467
 30
0.0
 11
466.9608795376079
 21
218.5248898068466
 31
0.0
  0
LINE
  5
557
330
62F
100
AcDbEntity
  8
1
  6
Continuous
100
AcDbLine
 10
460.9608795376082
 20
226.3248898068466
 30
0.0
 11
460.9608795376082
 21
218.7248898068467
 31
0.0
  0
LINE
  5
558
330
62F
100
AcDbEntity
  8
1
  6
Continuous
100
AcDbLine
 10
461.960879537608
 20
227.0248898068466
 30
0.0
 11
461.960879537608
 21
218.7248898068467
 31
0.0
  0
ARC
  5
559
330
62F
100
AcDbEntity
  8
1
  6
Continuous
100
AcDbCircle
 10
459.9532775376078
 20
220.4181778068466
 30
0.0
 40
1.3
100
AcDbArc
 50
195.86463
 51
264.98363
  0
ARC
  5
55A
330
62F
100
AcDbEntity
  8
1
  6
Continuous
100
AcDbCircle
 10
462.4608795376079
 20
219.0248898068466
 30
0.0
 40
0.5
100
AcDbArc
 50
180.0
 51
270.0
  0
LINE
  5
55B
330
62F
100
AcDbEntity
  8
1
  6
Continuous
100
AcDbLine
 10
460.9608795376082
 20
218.7248898068467
 30
0.0
 11
461.960879537608
 21
218.7248898068467
 31
0.0
  0
LINE
  5
55C
330
62F
100
AcDbEntity
  8
1
  6
Continuous
100
AcDbLine
 10
459.8253985376079
 20
219.1244828068467
 30
0.0
 11
460.9608795376082
 21
219.0248898068466
 31
0.0
  0
LINE
  5
55D
330
62F
100
AcDbEntity
  8
1
  6
Continuous
100
AcDbLine
 10
462.4608795376079
 20
218.5248898068466
 30
0.0
 11
466.9608795376079
 21
218.5248898068466
 31
0.0
  0
ARC
  5
55E
330
62F
100
AcDbEntity
  8
1
  6
Continuous
100
AcDbCircle
 10
462.4608795376079
 20
227.0248898068466
 30
0.0
 40
0.5
100
AcDbArc
 50
90.0
 51
180.0
  0
LINE
  5
55F
330
62F
100
AcDbEntity
  8
1
  6
Continuous
100
AcDbLine
 10
460.9608795376082
 20
226.3248898068466
 30
0.0
 11
461.960879537608
 21
226.3248898068466
 31
0.0
  0
LINE
  5
560
330
62F
100
AcDbEntity
  8
1
  6
Continuous
100
AcDbLine
 10
460.9608795376082
 20
222.5248898068466
 30
0.0
 11
461.960879537608
 21
223.5248898068467
 31
0.0
  0
LINE
  5
561
330
62F
100
AcDbEntity
  8
1
  6
Continuous
100
AcDbLine
 10
460.9608795376082
 20
221.5248898068467
 30
0.0
 11
461.960879537608
 21
222.5248898068466
 31
0.0
  0
ARC
  5
562
330
62F
100
AcDbEntity
  8
1
  6
Continuous
100
AcDbCircle
 10
467.3608785376079
 20
222.5230618068467
 30
0.0
 40
9.0
100
AcDbArc
 50
164.10263
 51
195.86463
  0
ARC
  5
563
330
62F
100
AcDbEntity
  8
1
  6
Continuous
100
AcDbCircle
 10
459.9544815376081
 20
224.6321778068466
 30
0.0
 40
1.3
100
AcDbArc
 50
94.98363000000002
 51
164.10263
  0
LINE
  5
564
330
62F
100
AcDbEntity
  8
1
  6
Continuous
100
AcDbLine
 10
459.841851537608
 20
225.9272098068467
 30
0.0
 11
460.9618795376078
 21
226.0248898068467
 31
0.0
  0
LINE
  5
565
330
62F
100
AcDbEntity
  8
1
  6
Continuous
100
AcDbLine
 10
462.4608795376079
 20
227.5248898068467
 30
0.0
 11
466.9608795376079
 21
227.5248898068467
 31
0.0
  0
ARC
  5
566
330
62F
100
AcDbEntity
  8
5
  6
PHANTOM
100
AcDbCircle
 10
522.2312875376083
 20
187.8472208068466
 30
0.0
 40
6.0
100
AcDbArc
 50
315.0
 51
45.0
  0
LINE
  5
567
330
62F
100
AcDbEntity
  8
5
  6
PHANTOM
100
AcDbLine
 10
521.4749385376078
 20
204.1599188068466
 30
0.0
 11
549.1013455376081
 21
176.5335118068467
 31
0.0
  0
LINE
  5
568
330
62F
100
AcDbEntity
  8
1
  6
Continuous
100
AcDbLine
 10
504.7460065376077
 20
181.0248898068465
 30
0.0
 11
504.7460065376077
 21
197.0248898068465
 31
0.0
  0
LINE
  5
569
330
62F
100
AcDbEntity
  8
1
  6
Continuous
100
AcDbLine
 10
518.2460065376081
 20
199.0945288068465
 30
0.0
 11
518.2460065376081
 21
160.0248898068466
 31
0.0
  0
LINE
  5
56A
330
62F
100
AcDbEntity
  8
1
  6
Continuous
100
AcDbLine
 10
517.746006537608
 20
225.5248898068467
 30
0.0
 11
517.746006537608
 21
147.5248898068466
 31
0.0
  0
LINE
  5
56B
330
62F
100
AcDbEntity
  8
1
  6
Continuous
100
AcDbLine
 10
514.7460065376079
 20
144.5248898068466
 30
0.0
 11
514.7460065376079
 21
228.5248898068467
 31
0.0
  0
LINE
  5
56C
330
62F
100
AcDbEntity
  8
1
  6
Continuous
100
AcDbLine
 10
516.2460065376079
 20
144.5248898068466
 30
0.0
 11
516.2460065376079
 21
228.5248898068467
 31
0.0
  0
LINE
  5
56D
330
62F
100
AcDbEntity
  8
1
  6
Continuous
100
AcDbLine
 10
513.7460065376081
 20
144.5248898068466
 30
0.0
 11
513.7460065376081
 21
228.5248898068467
 31
0.0
  0
LINE
  5
56E
330
62F
100
AcDbEntity
  8
5
  6
PHANTOM
100
AcDbLine
 10
526.4739285376079
 20
183.6045798068465
 30
0.0
 11
519.4028605376082
 21
176.5335118068467
 31
0.0
  0
LINE
  5
56F
330
62F
100
AcDbEntity
  8
5
  6
PHANTOM
100
AcDbLine
 10
519.4028605376082
 20
173.7050848068465
 30
0.0
 11
529.8878095376083
 21
163.2201358068467
 31
0.0
  0
LINE
  5
570
330
62F
100
AcDbEntity
  8
1
  6
Continuous
100
AcDbLine
 10
517.746006537608
 20
147.5248898068466
 30
0.0
 11
516.2460065376079
 21
144.5248898068466
 31
0.0
  0
LINE
  5
571
330
62F
100
AcDbEntity
  8
1
  6
Continuous
100
AcDbLine
 10
516.2460065376079
 20
144.5248898068466
 30
0.0
 11
513.7460065376081
 21
144.5248898068466
 31
0.0
  0
LINE
  5
572
330
62F
100
AcDbEntity
  8
1
  6
Continuous
100
AcDbLine
 10
493.246006537608
 20
163.1220598068464
 30
0.0
 11
493.246006537608
 21
183.0248898068465
 31
0.0
  0
ARC
  5
573
330
62F
100
AcDbEntity
  8
1
  6
Continuous
100
AcDbCircle
 10
513.7460065376081
 20
205.5248898068467
 30
0.0
 40
49.5
100
AcDbArc
 50
248.7377459999999
 51
270.0
  0
ARC
  5
574
330
62F
100
AcDbEntity
  8
1
  6
Continuous
100
AcDbCircle
 10
497.246006537608
 20
163.1220598068464
 30
0.0
 40
4.0
100
AcDbArc
 50
180.0
 51
248.7377459999999
  0
LINE
  5
575
330
62F
100
AcDbEntity
  8
4
  6
CENTER
100
AcDbLine
 10
515.6325885376078
 20
150.5248898068466
 30
0.0
 11
506.7460065376078
 21
150.5248898068466
 31
0.0
  0
LINE
  5
576
330
62F
100
AcDbEntity
  8
1
  6
Continuous
100
AcDbLine
 10
513.7460065376081
 20
154.0248898068466
 30
0.0
 11
510.246006537608
 21
154.0248898068466
 31
0.0
  0
LINE
  5
577
330
62F
100
AcDbEntity
  8
1
  6
Continuous
100
AcDbLine
 10
513.7460065376081
 20
147.0248898068467
 30
0.0
 11
510.246006537608
 21
147.0248898068467
 31
0.0
  0
LINE
  5
578
330
62F
100
AcDbEntity
  8
1
  6
Continuous
100
AcDbLine
 10
509.746006537608
 20
153.5248898068467
 30
0.0
 11
509.746006537608
 21
147.5248898068466
 31
0.0
  0
LINE
  5
579
330
62F
100
AcDbEntity
  8
1
  6
Continuous
100
AcDbLine
 10
510.246006537608
 20
147.0248898068467
 30
0.0
 11
509.746006537608
 21
147.5248898068466
 31
0.0
  0
LINE
  5
57A
330
62F
100
AcDbEntity
  8
1
  6
Continuous
100
AcDbLine
 10
510.246006537608
 20
154.0248898068466
 30
0.0
 11
509.746006537608
 21
153.5248898068467
 31
0.0
  0
LINE
  5
57B
330
62F
100
AcDbEntity
  8
1
  6
Continuous
100
AcDbLine
 10
510.246006537608
 20
154.0248898068466
 30
0.0
 11
510.246006537608
 21
147.0248898068467
 31
0.0
  0
ARC
  5
57C
330
62F
100
AcDbEntity
  8
1
  6
Continuous
100
AcDbCircle
 10
516.7460065376079
 20
160.0248898068466
 30
0.0
 40
1.5
100
AcDbArc
 50
311.810315
 51
0.0
  0
LINE
  5
57D
330
62F
100
AcDbEntity
  8
1
  6
Continuous
100
AcDbLine
 10
504.2460065376078
 20
184.0248898068465
 30
0.0
 11
494.246006537608
 21
184.0248898068465
 31
0.0
  0
ARC
  5
57E
330
62F
100
AcDbEntity
  8
1
  6
Continuous
100
AcDbCircle
 10
494.246006537608
 20
183.0248898068465
 30
0.0
 40
1.0
100
AcDbArc
 50
90.0
 51
180.0
  0
ARC
  5
57F
330
62F
100
AcDbEntity
  8
1
  6
Continuous
100
AcDbCircle
 10
504.2460065376078
 20
184.5248898068465
 30
0.0
 40
0.5
100
AcDbArc
 50
270.0
 51
0.0
  0
ARC
  5
580
330
62F
100
AcDbEntity
  8
5
  6
PHANTOM
100
AcDbCircle
 10
520.8170745376081
 20
175.1192988068467
 30
0.0
 40
2.0
100
AcDbArc
 50
135.0
 51
225.0
  0
ARC
  5
581
330
62F
100
AcDbEntity
  8
5
  6
PHANTOM
100
AcDbCircle
 10
513.7460065376081
 20
205.5248898068467
 30
0.0
 40
46.5
100
AcDbArc
 50
293.2358679999998
 51
309.476714
  0
ARC
  5
582
330
62F
100
AcDbEntity
  8
5
  6
PHANTOM
100
AcDbCircle
 10
531.3020235376079
 20
164.6343498068467
 30
0.0
 40
2.0
100
AcDbArc
 50
225.0
 51
293.2358679999998
  0
LINE
  5
583
330
62F
100
AcDbEntity
  8
5
  6
PHANTOM
100
AcDbLine
 10
548.994332537608
 20
174.3150268068466
 30
0.0
 11
543.3090585376081
 21
169.6323288068467
 31
0.0
  0
ARC
  5
584
330
62F
100
AcDbEntity
  8
5
  6
PHANTOM
100
AcDbCircle
 10
548.0406855376083
 20
175.4728518068467
 30
0.0
 40
1.5
100
AcDbArc
 50
309.476714
 51
45.0
  0
LINE
  5
585
330
62F
100
AcDbEntity
  8
1
  6
Continuous
100
AcDbLine
 10
523.150526537608
 20
208.1411848068467
 30
0.0
 11
521.1749385376079
 21
206.1655968068466
 31
0.0
  0
LINE
  5
586
330
62F
100
AcDbEntity
  8
1
  6
Continuous
100
AcDbLine
 10
520.2205855376081
 20
212.3395678068467
 30
0.0
 11
523.132204537608
 21
209.5732578068466
 31
0.0
  0
LINE
  5
587
330
62F
100
AcDbEntity
  8
5
  6
PHANTOM
100
AcDbLine
 10
519.4854735376081
 20
195.9749278068467
 30
0.0
 11
522.6703705376081
 21
195.8934198068467
 31
0.0
  0
ARC
  5
588
330
62F
100
AcDbEntity
  8
1
  6
Continuous
100
AcDbCircle
 10
491.546006537608
 20
214.4841818068466
 30
0.0
 40
1.0
100
AcDbArc
 50
90.0
 51
180.0
  0
LINE
  5
589
330
62F
100
AcDbEntity
  8
1
  6
Continuous
100
AcDbLine
 10
513.7460065376081
 20
217.0248898068467
 30
0.0
 11
488.6460065376079
 21
217.0248898068467
 31
0.0
  0
ARC
  5
58A
330
62F
100
AcDbEntity
  8
1
  6
Continuous
100
AcDbCircle
 10
491.546006537608
 20
195.0248898068467
 30
0.0
 40
1.0
100
AcDbArc
 50
180.0
 51
270.0
  0
LINE
  5
58B
330
62F
100
AcDbEntity
  8
4
  6
CENTER
100
AcDbLine
 10
520.0015935376079
 20
205.5248898068467
 30
0.0
 11
482.046006537608
 21
205.5248898068467
 31
0.0
  0
LINE
  5
58C
330
62F
100
AcDbEntity
  8
1
  6
Continuous
100
AcDbLine
 10
485.046006537608
 20
210.5248898068464
 30
0.0
 11
485.046006537608
 21
200.5248898068467
 31
0.0
  0
LINE
  5
58D
330
62F
100
AcDbEntity
  8
1
  6
Continuous
100
AcDbLine
 10
490.1460065376079
 20
214.1851438068466
 30
0.0
 11
490.1460065376079
 21
195.7748898068467
 31
0.0
  0
LINE
  5
58E
330
62F
100
AcDbEntity
  8
1
  6
Continuous
100
AcDbLine
 10
490.5460065376082
 20
214.4841818068466
 30
0.0
 11
490.5460065376082
 21
195.0248898068467
 31
0.0
  0
LINE
  5
58F
330
62F
100
AcDbEntity
  8
1
  6
Continuous
100
AcDbLine
 10
490.046006537608
 20
215.2676758068466
 30
0.0
 11
490.046006537608
 21
194.2748898068465
 31
0.0
  0
LINE
  5
590
330
62F
100
AcDbEntity
  8
1
  6
Continuous
100
AcDbLine
 10
488.046006537608
 20
215.2676758068466
 30
0.0
 11
488.046006537608
 21
194.2748898068465
 31
0.0
  0
ARC
  5
591
330
62F
100
AcDbEntity
  8
1
  6
Continuous
100
AcDbCircle
 10
490.402256537608
 20
195.7748898068467
 30
0.0
 40
0.25625
100
AcDbArc
 50
180.0
 51
257.319617
  0
LINE
  5
592
330
62F
100
AcDbEntity
  8
1
  6
Continuous
100
AcDbLine
 10
490.3460065376081
 20
195.5248898068465
 30
0.0
 11
490.5460065376082
 21
195.5248898068465
 31
0.0
  0
LINE
  5
593
330
62F
100
AcDbEntity
  8
1
  6
Continuous
100
AcDbLine
 10
488.046006537608
 20
194.2748898068465
 30
0.0
 11
490.046006537608
 21
194.2748898068465
 31
0.0
  0
LINE
  5
594
330
62F
100
AcDbEntity
  8
1
  6
Continuous
100
AcDbLine
 10
485.046006537608
 20
206.1817438068467
 30
0.0
 11
488.046006537608
 21
206.1817438068467
 31
0.0
  0
LINE
  5
595
330
62F
100
AcDbEntity
  8
1
  6
Continuous
100
AcDbLine
 10
485.046006537608
 20
204.8680358068467
 30
0.0
 11
488.046006537608
 21
204.8680358068467
 31
0.0
  0
LINE
  5
596
330
62F
100
AcDbEntity
  8
1
  6
Continuous
100
AcDbLine
 10
485.046006537608
 20
200.5248898068467
 30
0.0
 11
488.046006537608
 21
200.5248898068467
 31
0.0
  0
LINE
  5
597
330
62F
100
AcDbEntity
  8
1
  6
Continuous
100
AcDbLine
 10
490.1460065376079
 20
199.6248898068465
 30
0.0
 11
490.046006537608
 21
199.6248898068465
 31
0.0
  0
LINE
  5
598
330
62F
100
AcDbEntity
  8
1
  6
Continuous
100
AcDbLine
 10
485.046006537608
 20
210.5248898068464
 30
0.0
 11
488.046006537608
 21
210.5248898068464
 31
0.0
  0
LINE
  5
599
330
62F
100
AcDbEntity
  8
1
  6
Continuous
100
AcDbLine
 10
488.046006537608
 20
215.2676758068466
 30
0.0
 11
490.046006537608
 21
215.2676758068466
 31
0.0
  0
LINE
  5
59A
330
62F
100
AcDbEntity
  8
1
  6
Continuous
100
AcDbLine
 10
488.446006537608
 20
216.8248898068467
 30
0.0
 11
488.446006537608
 21
215.2676758068466
 31
0.0
  0
LINE
  5
59B
330
62F
100
AcDbEntity
  8
1
  6
Continuous
100
AcDbLine
 10
490.046006537608
 20
213.1438158068467
 30
0.0
 11
490.1460065376079
 21
213.1438158068467
 31
0.0
  0
ARC
  5
59C
330
62F
100
AcDbEntity
  8
1
  6
Continuous
100
AcDbCircle
 10
488.6460065376079
 20
216.8248898068467
 30
0.0
 40
0.2
100
AcDbArc
 50
90.0
 51
180.0
  0
LINE
  5
59D
330
62F
100
AcDbEntity
  8
1
  6
Continuous
100
AcDbLine
 10
490.1460065376079
 20
214.1851438068466
 30
0.0
 11
490.5460065376082
 21
214.1851438068466
 31
0.0
  0
LINE
  5
59E
330
62F
100
AcDbEntity
  8
1
  6
Continuous
100
AcDbLine
 10
490.1460065376079
 20
211.4248898068467
 30
0.0
 11
490.046006537608
 21
211.4248898068467
 31
0.0
  0
LINE
  5
59F
330
62F
100
AcDbEntity
  8
1
  6
Continuous
100
AcDbLine
 10
512.7460065376079
 20
205.5248898068467
 30
0.0
 11
512.7460065376079
 21
216.0248898068467
 31
0.0
  0
LINE
  5
5A0
330
62F
100
AcDbEntity
  8
1
  6
Continuous
100
AcDbLine
 10
501.746006537608
 20
195.0248898068467
 30
0.0
 11
501.746006537608
 21
205.5248898068467
 31
0.0
  0
LINE
  5
5A1
330
62F
100
AcDbEntity
  8
1
  6
Continuous
100
AcDbLine
 10
504.2460065376078
 20
194.0248898068467
 30
0.0
 11
491.446006537608
 21
194.0248898068467
 31
0.0
  0
ARC
  5
5A2
330
62F
100
AcDbEntity
  8
1
  6
Continuous
100
AcDbCircle
 10
504.2460065376078
 20
193.5248898068465
 30
0.0
 40
0.5
100
AcDbArc
 50
0.0
 51
90.0
  0
ARC
  5
5A3
330
62F
100
AcDbEntity
  8
1
  6
Continuous
100
AcDbCircle
 10
502.746006537608
 20
195.0248898068467
 30
0.0
 40
1.0
100
AcDbArc
 50
180.0
 51
270.0
  0
ARC
  5
5A4
330
62F
100
AcDbEntity
  8
1
  6
Continuous
100
AcDbCircle
 10
528.246006537608
 20
199.0945288068465
 30
0.0
 40
10.0
100
AcDbArc
 50
135.0
 51
180.0
  0
ARC
  5
5A5
330
62F
100
AcDbEntity
  8
5
  6
PHANTOM
100
AcDbCircle
 10
528.5460065376081
 20
211.2309868068466
 30
0.0
 40
10.0
100
AcDbArc
 50
220.793895
 51
225.0
  0
LINE
  5
5A6
330
62F
100
AcDbEntity
  8
1
  6
Continuous
100
AcDbLine
 10
491.546006537608
 20
215.4841818068464
 30
0.0
 11
512.7460065376079
 21
215.4841818068464
 31
0.0
  0
LINE
  5
5A7
330
62F
100
AcDbEntity
  8
1
  6
Continuous
100
AcDbLine
 10
510.246006537608
 20
226.0248898068467
 30
0.0
 11
510.246006537608
 21
219.0248898068466
 31
0.0
  0
LINE
  5
5A8
330
62F
100
AcDbEntity
  8
1
  6
Continuous
100
AcDbLine
 10
509.746006537608
 20
225.5248898068467
 30
0.0
 11
509.746006537608
 21
219.5248898068467
 31
0.0
  0
LINE
  5
5A9
330
62F
100
AcDbEntity
  8
1
  6
Continuous
100
AcDbLine
 10
513.7460065376081
 20
219.0248898068466
 30
0.0
 11
510.246006537608
 21
219.0248898068466
 31
0.0
  0
ARC
  5
5AA
330
62F
100
AcDbEntity
  8
1
  6
Continuous
100
AcDbCircle
 10
513.7460065376081
 20
216.0248898068467
 30
0.0
 40
1.0
100
AcDbArc
 50
90.0
 51
180.0
  0
LINE
  5
5AB
330
62F
100
AcDbEntity
  8
1
  6
Continuous
100
AcDbLine
 10
510.246006537608
 20
219.0248898068466
 30
0.0
 11
509.746006537608
 21
219.5248898068467
 31
0.0
  0
ARC
  5
5AC
330
62F
100
AcDbEntity
  8
1
  6
Continuous
100
AcDbCircle
 10
513.7460065376081
 20
205.5248898068467
 30
0.0
 40
9.4
100
AcDbArc
 50
46.465994
 51
64.815663
  0
LINE
  5
5AD
330
62F
100
AcDbEntity
  8
4
  6
CENTER
100
AcDbLine
 10
515.6325885376078
 20
222.5248898068466
 30
0.0
 11
506.7460065376078
 21
222.5248898068466
 31
0.0
  0
LINE
  5
5AE
330
62F
100
AcDbEntity
  8
1
  6
Continuous
100
AcDbLine
 10
516.2460065376079
 20
228.5248898068467
 30
0.0
 11
513.7460065376081
 21
228.5248898068467
 31
0.0
  0
LINE
  5
5AF
330
62F
100
AcDbEntity
  8
1
  6
Continuous
100
AcDbLine
 10
513.7460065376081
 20
226.0248898068467
 30
0.0
 11
510.246006537608
 21
226.0248898068467
 31
0.0
  0
LINE
  5
5B0
330
62F
100
AcDbEntity
  8
1
  6
Continuous
100
AcDbLine
 10
510.246006537608
 20
226.0248898068467
 30
0.0
 11
509.746006537608
 21
225.5248898068467
 31
0.0
  0
LINE
  5
5B1
330
62F
100
AcDbEntity
  8
1
  6
Continuous
100
AcDbLine
 10
516.2460065376079
 20
228.5248898068467
 30
0.0
 11
517.746006537608
 21
225.5248898068467
 31
0.0
  0
ARC
  5
5B2
330
62F
100
AcDbEntity
  8
1
  6
Continuous
100
AcDbCircle
 10
522.4434195376078
 20
208.8482918068466
 30
0.0
 40
1.0
100
AcDbArc
 50
315.0
 51
46.465994
  0
LINE
  5
5B3
330
62F
100
AcDbEntity
  8
5
  6
PHANTOM
100
AcDbLine
 10
522.6703705376081
 20
195.8934198068467
 30
0.0
 11
526.4739285376079
 21
192.0898608068467
 31
0.0
  0
ENDSEC
  0
SECTION
  2
OBJECTS
  0
DICTIONARY
  5
5CC
330
0
100
AcDbDictionary
281
     1
  3
ACAD_CIP_PREVIOUS_PRODUCT_INFO
350
648
  3
ACAD_COLOR
350
622
  3
ACAD_DETAILVIEWSTYLE
350
629
  3
ACAD_GROUP
350
5CD
  3
ACAD_LAYOUT
350
621
  3
ACAD_MATERIAL
350
5D0
  3
ACAD_MLEADERSTYLE
350
625
  3
ACAD_MLINESTYLE
350
61E
  3
ACAD_PLOTSETTINGS
350
620
  3
ACAD_PLOTSTYLENAME
350
5CE
  3
ACAD_SCALELIST
350
602
  3
ACAD_SECTIONVIEWSTYLE
350
627
  3
ACAD_TABLESTYLE
350
623
  3
ACAD_VISUALSTYLE
350
5E9
  3
ACDB_RECOMPOSE_DATA
350
666
  3
AcDbVariableDictionary
350
659
  3
DWGPROPS
350
667
  0
DICTIONARY
  5
649
330
614
100
AcDbDictionary
280
     1
281
     1
  3
ADSK_XREC_LAYER_RECONCILED
360
64A
  0
DICTIONARY
  5
64B
330
637
100
AcDbDictionary
280
     1
281
     1
  3
ADSK_XREC_LAYER_RECONCILED
360
64C
  0
DICTIONARY
  5
64D
330
638
100
AcDbDictionary
280
     1
281
     1
  3
ADSK_XREC_LAYER_RECONCILED
360
64E
  0
DICTIONARY
  5
64F
330
639
100
AcDbDictionary
280
     1
281
     1
  3
ADSK_XREC_LAYER_RECONCILED
360
650
  0
DICTIONARY
  5
651
330
63A
100
AcDbDictionary
280
     1
281
     1
  3
ADSK_XREC_LAYER_RECONCILED
360
652
  0
DICTIONARY
  5
653
330
63B
100
AcDbDictionary
280
     1
281
     1
  3
ADSK_XREC_LAYER_RECONCILED
360
654
  0
DICTIONARY
  5
655
330
63C
100
AcDbDictionary
280
     1
281
     1
  3
ADSK_XREC_LAYER_RECONCILED
360
656
  0
DICTIONARY
  5
657
330
63D
100
AcDbDictionary
280
     1
281
     1
  3
ADSK_XREC_LAYER_RECONCILED
360
658
  0
XRECORD
  5
648
102
{ACAD_REACTORS
330
5CC
102
}
330
5CC
100
AcDbXrecord
280
     1
300
ACDLT
300
2014
300
ACDLT_F_S
  0
DICTIONARY
  5
622
102
{ACAD_REACTORS
330
5CC
102
}
330
5CC
100
AcDbDictionary
281
     1
  0
DICTIONARY
  5
629
102
{ACAD_REACTORS
330
5CC
102
}
330
5CC
100
AcDbDictionary
281
     1
  3
Imperial24
350
62A
  0
DICTIONARY
  5
5CD
102
{ACAD_REACTORS
330
5CC
102
}
330
5CC
100
AcDbDictionary
281
     1
  0
DICTIONARY
  5
621
102
{ACAD_REACTORS
330
5CC
102
}
330
5CC
100
AcDbDictionary
281
     1
  3
Model
350
632
  3
レイアウト1
350
62E
  0
DICTIONARY
  5
5D0
102
{ACAD_REACTORS
330
5CC
102
}
330
5CC
100
AcDbDictionary
281
     1
  3
ByBlock
350
5D9
  3
ByLayer
350
5D1
  3
Global
350
5E1
  0
DICTIONARY
  5
625
102
{ACAD_REACTORS
330
5CC
102
}
330
5CC
100
AcDbDictionary
281
     1
  3
Standard
350
626
  0
DICTIONARY
  5
61E
102
{ACAD_REACTORS
330
5CC
102
}
330
5CC
100
AcDbDictionary
281
     1
  3
Standard
350
61F
  0
DICTIONARY
  5
620
102
{ACAD_REACTORS
330
5CC
102
}
330
5CC
100
AcDbDictionary
281
     1
  0
ACDBDICTIONARYWDFLT
  5
5CE
102
{ACAD_REACTORS
330
5CC
102
}
330
5CC
100
AcDbDictionary
281
     1
  3
Normal
350
5CF
100
AcDbDictionaryWithDefault
340
5CF
  0
DICTIONARY
  5
602
102
{ACAD_REACTORS
330
5CC
102
}
330
5CC
100
AcDbDictionary
281
     1
  3
A0
350
603
  3
A1
350
604
  3
A2
350
605
  3
A3
350
606
  3
A4
350
607
  3
A5
350
608
  3
A6
350
609
  3
A7
350
60A
  3
A8
350
60B
  3
A9
350
60C
  3
B0
350
60D
  3
B1
350
60E
  3
B2
350
60F
  3
B3
350
610
  3
B4
350
611
  3
B5
350
612
  3
B6
350
613
  0
DICTIONARY
  5
627
102
{ACAD_REACTORS
330
5CC
102
}
330
5CC
100
AcDbDictionary
281
     1
  3
Imperial24
350
628
  0
DICTIONARY
  5
623
102
{ACAD_REACTORS
330
5CC
102
}
330
5CC
100
AcDbDictionary
281
     1
  3
Standard
350
624
  0
DICTIONARY
  5
5E9
102
{ACAD_REACTORS
330
5CC
102
}
330
5CC
100
AcDbDictionary
281
     1
  3
2dWireframe
350
5EF
  3
Basic
350
5EE
  3
Brighten
350
5F5
  3
ColorChange
350
5F9
  3
Conceptual
350
5F2
  3
Dim
350
5F4
  3
EdgeColorOff
350
601
  3
Facepattern
350
5F8
  3
Flat
350
5EA
  3
FlatWithEdges
350
5EB
  3
Gouraud
350
5EC
  3
GouraudWithEdges
350
5ED
  3
Hidden
350
5F1
  3
JitterOff
350
5FF
  3
Linepattern
350
5F7
  3
OverhangOff
350
600
  3
Realistic
350
5F3
  3
Shaded
350
5FE
  3
Shaded with edges
350
5FD
  3
Shades of Gray
350
5FA
  3
Sketchy
350
5FB
  3
Thicken
350
5F6
  3
Wireframe
350
5F0
  3
X-Ray
350
5FC
  0
XRECORD
  5
666
102
{ACAD_REACTORS
330
5CC
102
}
330
5CC
100
AcDbXrecord
280
     1
 90
        1
330
624
  0
DICTIONARY
  5
659
102
{ACAD_REACTORS
330
5CC
102
}
330
5CC
100
AcDbDictionary
281
     1
  3
CANNOSCALE
350
65E
  3
CMLEADERSTYLE
350
65B
  3
CTABLESTYLE
350
65A
  3
CVIEWDETAILSTYLE
350
65C
  3
CVIEWSECTIONSTYLE
350
65D
  3
DIMASSOC
350
661
  3
INDEXCTL
350
660
  3
SORTENTS
350
65F
  3
XCLIPFRAME
350
662
  0
XRECORD
  5
667
102
{ACAD_REACTORS
330
5CC
102
}
330
5CC
100
AcDbXrecord
280
     1
  1
DWGPROPS COOKIE
  2

  3

  4

  6

  7

  8
Yoshitsune
  9

300
=
301
=
302
=
303
=
304
=
305
=
306
=
307
=
308
=
309
=
 40
0.0011187847222222
 41
2456310.459832894
 42
2457192.642313577
  1

 90
        0
  0
XRECORD
  5
64A
102
{ACAD_REACTORS
330
649
102
}
330
649
100
AcDbXrecord
280
     1
290
     1
  0
XRECORD
  5
64C
102
{ACAD_REACTORS
330
64B
102
}
330
64B
100
AcDbXrecord
280
     1
290
     1
  0
XRECORD
  5
64E
102
{ACAD_REACTORS
330
64D
102
}
330
64D
100
AcDbXrecord
280
     1
290
     1
  0
XRECORD
  5
650
102
{ACAD_REACTORS
330
64F
102
}
330
64F
100
AcDbXrecord
280
     1
290
     1
  0
XRECORD
  5
652
102
{ACAD_REACTORS
330
651
102
}
330
651
100
AcDbXrecord
280
     1
290
     1
  0
XRECORD
  5
654
102
{ACAD_REACTORS
330
653
102
}
330
653
100
AcDbXrecord
280
     1
290
     1
  0
XRECORD
  5
656
102
{ACAD_REACTORS
330
655
102
}
330
655
100
AcDbXrecord
280
     1
290
     1
  0
XRECORD
  5
658
102
{ACAD_REACTORS
330
657
102
}
330
657
100
AcDbXrecord
280
     1
290
     1
  0
ACDBDETAILVIEWSTYLE
  5
62A
102
{ACAD_XDICTIONARY
360
69F
102
}
102
{ACAD_REACTORS
330
629
102
}
330
629
100
AcDbModelDocViewStyle
 70
     0
  3
Imperial24
290
     0
100
AcDbDetailViewStyle
 70
     0
 71
     0
 90
        3
 71
     1
340
615
 40
0.24
340
0
 40
0.24
300

 40
0.36
280
     3
 71
     2
340
61C
 90
       25
 71
     3
340
615
 40
0.24
 90
        1
 40
0.75
 90
        1
300
%<\AcVar ViewType \f "%tc1">% %<\AcVar ViewDetailId>%\PSCALE %<\AcVar ViewScale \f "%sn">%
 71
     4
340
61C
 90
       25
340
61C
 90
       25
280
     0
  0
LAYOUT
  5
632
102
{ACAD_XDICTIONARY
360
6A3
102
}
102
{ACAD_REACTORS
330
621
102
}
330
621
100
AcDbPlotSettings
  1

  2
Canon LBP9100C
  4

  6

 40
0.0
 41
0.0
 42
0.0
 43
0.0
 44
0.0
 45
0.0
 46
0.0
 47
0.0
 48
0.0
 49
0.0
140
0.0
141
0.0
142
1.0
143
1.0
 70
  1712
 72
     0
 73
     0
 74
     0
  7

 75
     0
147
1.0
148
0.0
149
0.0
100
AcDbLayout
  1
Model
 70
     1
 71
     0
 10
0.0
 20
0.0
 11
12.0
 21
9.0
 12
0.0
 22
0.0
 32
0.0
 14
0.0
 24
0.0
 34
0.0
 15
0.0
 25
0.0
 35
0.0
146
0.0
 13
0.0
 23
0.0
 33
0.0
 16
1.0
 26
0.0
 36
0.0
 17
0.0
 27
1.0
 37
0.0
 76
     0
330
62F
331
633
  0
LAYOUT
  5
62E
102
{ACAD_XDICTIONARY
360
6A1
102
}
102
{ACAD_REACTORS
330
621
102
}
330
621
100
AcDbPlotSettings
  1

  2
Canon LBP9100C
  4

  6

 40
0.0
 41
0.0
 42
0.0
 43
0.0
 44
0.0
 45
0.0
 46
0.0
 47
0.0
 48
0.0
 49
0.0
140
0.0
141
0.0
142
1.0
143
1.0
 70
   688
 72
     0
 73
     0
 74
     5
  7

 75
    16
147
1.0
148
0.0
149
0.0
100
AcDbLayout
  1
レイアウト1
 70
     1
 71
     1
 10
0.0
 20
0.0
 11
420.0
 21
297.0
 12
0.0
 22
0.0
 32
0.0
 14
1.000000000000000E+20
 24
1.000000000000000E+20
 34
1.000000000000000E+20
 15
-1.000000000000000E+20
 25
-1.000000000000000E+20
 35
-1.000000000000000E+20
146
0.0
 13
0.0
 23
0.0
 33
0.0
 16
1.0
 26
0.0
 36
0.0
 17
0.0
 27
1.0
 37
0.0
 76
     0
330
62B
  0
MATERIAL
  5
5D9
102
{ACAD_XDICTIONARY
360
5DA
102
}
102
{ACAD_REACTORS
330
5D0
102
}
330
5D0
100
AcDbMaterial
  1
ByBlock
 72
     0
 43
0.0208333333333333
 43
0.0
 43
0.0
 43
0.0
 43
0.0
 43
0.0208333333333333
 43
0.0
 43
0.0
 43
0.0
 43
0.0
 43
1.0
 43
0.0
 43
0.0
 43
0.0
 43
0.0
 43
1.0
 77
     0
 47
0.0208333333333333
 47
0.0
 47
0.0
 47
0.0
 47
0.0
 47
0.0208333333333333
 47
0.0
 47
0.0
 47
0.0
 47
0.0
 47
1.0
 47
0.0
 47
0.0
 47
0.0
 47
0.0
 47
1.0
171
     0
 49
0.0208333333333333
 49
0.0
 49
0.0
 49
0.0
 49
0.0
 49
0.0208333333333333
 49
0.0
 49
0.0
 49
0.0
 49
0.0
 49
1.0
 49
0.0
 49
0.0
 49
0.0
 49
0.0
 49
1.0
175
     0
142
0.0208333333333333
142
0.0
142
0.0
142
0.0
142
0.0
142
0.0208333333333333
142
0.0
142
0.0
142
0.0
142
0.0
142
1.0
142
0.0
142
0.0
142
0.0
142
0.0
142
1.0
179
     0
144
0.0208333333333333
144
0.0
144
0.0
144
0.0
144
0.0
144
0.0208333333333333
144
0.0
144
0.0
144
0.0
144
0.0
144
1.0
144
0.0
144
0.0
144
0.0
144
0.0
144
1.0
147
0.0208333333333333
147
0.0
147
0.0
147
0.0
147
0.0
147
0.0208333333333333
147
0.0
147
0.0
147
0.0
147
0.0
147
1.0
147
0.0
147
0.0
147
0.0
147
0.0
147
1.0
  0
MATERIAL
  5
5D1
102
{ACAD_XDICTIONARY
360
5D2
102
}
102
{ACAD_REACTORS
330
5D0
102
}
330
5D0
100
AcDbMaterial
  1
ByLayer
 72
     0
 43
0.0208333333333333
 43
0.0
 43
0.0
 43
0.0
 43
0.0
 43
0.0208333333333333
 43
0.0
 43
0.0
 43
0.0
 43
0.0
 43
1.0
 43
0.0
 43
0.0
 43
0.0
 43
0.0
 43
1.0
 77
     0
 47
0.0208333333333333
 47
0.0
 47
0.0
 47
0.0
 47
0.0
 47
0.0208333333333333
 47
0.0
 47
0.0
 47
0.0
 47
0.0
 47
1.0
 47
0.0
 47
0.0
 47
0.0
 47
0.0
 47
1.0
171
     0
 49
0.0208333333333333
 49
0.0
 49
0.0
 49
0.0
 49
0.0
 49
0.0208333333333333
 49
0.0
 49
0.0
 49
0.0
 49
0.0
 49
1.0
 49
0.0
 49
0.0
 49
0.0
 49
0.0
 49
1.0
175
     0
142
0.0208333333333333
142
0.0
142
0.0
142
0.0
142
0.0
142
0.0208333333333333
142
0.0
142
0.0
142
0.0
142
0.0
142
1.0
142
0.0
142
0.0
142
0.0
142
0.0
142
1.0
179
     0
144
0.0208333333333333
144
0.0
144
0.0
144
0.0
144
0.0
144
0.0208333333333333
144
0.0
144
0.0
144
0.0
144
0.0
144
1.0
144
0.0
144
0.0
144
0.0
144
0.0
144
1.0
147
0.0208333333333333
147
0.0
147
0.0
147
0.0
147
0.0
147
0.0208333333333333
147
0.0
147
0.0
147
0.0
147
0.0
147
1.0
147
0.0
147
0.0
147
0.0
147
0.0
147
1.0
  0
MATERIAL
  5
5E1
102
{ACAD_XDICTIONARY
360
5E2
102
}
102
{ACAD_REACTORS
330
5D0
102
}
330
5D0
100
AcDbMaterial
  1
Global
 72
     0
 43
0.0208333333333333
 43
0.0
 43
0.0
 43
0.0
 43
0.0
 43
0.0208333333333333
 43
0.0
 43
0.0
 43
0.0
 43
0.0
 43
1.0
 43
0.0
 43
0.0
 43
0.0
 43
0.0
 43
1.0
 77
     0
 47
0.0208333333333333
 47
0.0
 47
0.0
 47
0.0
 47
0.0
 47
0.0208333333333333
 47
0.0
 47
0.0
 47
0.0
 47
0.0
 47
1.0
 47
0.0
 47
0.0
 47
0.0
 47
0.0
 47
1.0
171
     0
 49
0.0208333333333333
 49
0.0
 49
0.0
 49
0.0
 49
0.0
 49
0.0208333333333333
 49
0.0
 49
0.0
 49
0.0
 49
0.0
 49
1.0
 49
0.0
 49
0.0
 49
0.0
 49
0.0
 49
1.0
175
     0
142
0.0208333333333333
142
0.0
142
0.0
142
0.0
142
0.0
142
0.0208333333333333
142
0.0
142
0.0
142
0.0
142
0.0
142
1.0
142
0.0
142
0.0
142
0.0
142
0.0
142
1.0
179
     0
144
0.0208333333333333
144
0.0
144
0.0
144
0.0
144
0.0
144
0.0208333333333333
144
0.0
144
0.0
144
0.0
144
0.0
144
1.0
144
0.0
144
0.0
144
0.0
144
0.0
144
1.0
147
0.0208333333333333
147
0.0
147
0.0
147
0.0
147
0.0
147
0.0208333333333333
147
0.0
147
0.0
147
0.0
147
0.0
147
1.0
147
0.0
147
0.0
147
0.0
147
0.0
147
1.0
  0
MLEADERSTYLE
  5
626
102
{ACAD_REACTORS
330
625
102
}
330
625
100
AcDbMLeaderStyle
170
     2
171
     1
172
     0
 90
        2
 40
0.0
 41
0.0
173
     1
 91
-1056964608
340
61A
 92
       -2
290
     1
 42
0.09
291
     1
 43
0.36
  3
Standard
 44
0.18
300

342
615
174
     1
178
     6
175
     1
176
     0
 93
-1056964608
 45
0.18
292
     0
297
     0
 46
0.18
 94
-1056964608
 47
1.0
 49
1.0
140
1.0
293
     1
141
0.0
294
     1
177
     0
142
1.0
295
     0
296
     0
143
0.125
1001
ACAD_MLEADERVER
1070
     2
  0
MLINESTYLE
  5
61F
102
{ACAD_REACTORS
330
61E
102
}
330
61E
100
AcDbMlineStyle
  2
STANDARD
 70
     0
  3

 62
   256
 51
90.0
 52
90.0
 71
     2
 49
0.5
 62
   256
  6
BYLAYER
 49
-0.5
 62
   256
  6
BYLAYER
  0
ACDBPLACEHOLDER
  5
5CF
102
{ACAD_REACTORS
330
5CE
102
}
330
5CE
  0
SCALE
  5
603
102
{ACAD_REACTORS
330
602
102
}
330
602
100
AcDbScale
 70
     0
300
1:1
140
1.0
141
1.0
290
     1
  0
SCALE
  5
604
102
{ACAD_REACTORS
330
602
102
}
330
602
100
AcDbScale
 70
     0
300
1/128" = 1'-0"
140
0.0078125
141
12.0
290
     0
  0
SCALE
  5
605
102
{ACAD_REACTORS
330
602
102
}
330
602
100
AcDbScale
 70
     0
300
1/64" = 1'-0"
140
0.015625
141
12.0
290
     0
  0
SCALE
  5
606
102
{ACAD_REACTORS
330
602
102
}
330
602
100
AcDbScale
 70
     0
300
1/32" = 1'-0"
140
0.03125
141
12.0
290
     0
  0
SCALE
  5
607
102
{ACAD_REACTORS
330
602
102
}
330
602
100
AcDbScale
 70
     0
300
1/16" = 1'-0"
140
0.0625
141
12.0
290
     0
  0
SCALE
  5
608
102
{ACAD_REACTORS
330
602
102
}
330
602
100
AcDbScale
 70
     0
300
3/32" = 1'-0"
140
0.09375
141
12.0
290
     0
  0
SCALE
  5
609
102
{ACAD_REACTORS
330
602
102
}
330
602
100
AcDbScale
 70
     0
300
1/8" = 1'-0"
140
0.125
141
12.0
290
     0
  0
SCALE
  5
60A
102
{ACAD_REACTORS
330
602
102
}
330
602
100
AcDbScale
 70
     0
300
3/16" = 1'-0"
140
0.1875
141
12.0
290
     0
  0
SCALE
  5
60B
102
{ACAD_REACTORS
330
602
102
}
330
602
100
AcDbScale
 70
     0
300
1/4" = 1'-0"
140
0.25
141
12.0
290
     0
  0
SCALE
  5
60C
102
{ACAD_REACTORS
330
602
102
}
330
602
100
AcDbScale
 70
     0
300
3/8" = 1'-0"
140
0.375
141
12.0
290
     0
  0
SCALE
  5
60D
102
{ACAD_REACTORS
330
602
102
}
330
602
100
AcDbScale
 70
     0
300
1/2" = 1'-0"
140
0.5
141
12.0
290
     0
  0
SCALE
  5
60E
102
{ACAD_REACTORS
330
602
102
}
330
602
100
AcDbScale
 70
     0
300
3/4" = 1'-0"
140
0.75
141
12.0
290
     0
  0
SCALE
  5
60F
102
{ACAD_REACTORS
330
602
102
}
330
602
100
AcDbScale
 70
     0
300
1" = 1'-0"
140
1.0
141
12.0
290
     0
  0
SCALE
  5
610
102
{ACAD_REACTORS
330
602
102
}
330
602
100
AcDbScale
 70
     0
300
1-1/2" = 1'-0"
140
1.5
141
12.0
290
     0
  0
SCALE
  5
611
102
{ACAD_REACTORS
330
602
102
}
330
602
100
AcDbScale
 70
     0
300
3" = 1'-0"
140
3.0
141
12.0
290
     0
  0
SCALE
  5
612
102
{ACAD_REACTORS
330
602
102
}
330
602
100
AcDbScale
 70
     0
300
6" = 1'-0"
140
6.0
141
12.0
290
     0
  0
SCALE
  5
613
102
{ACAD_REACTORS
330
602
102
}
330
602
100
AcDbScale
 70
     0
300
1'-0" = 1'-0"
140
12.0
141
12.0
290
     0
  0
ACDBSECTIONVIEWSTYLE
  5
628
102
{ACAD_XDICTIONARY
360
69D
102
}
102
{ACAD_REACTORS
330
627
102
}
330
627
100
AcDbModelDocViewStyle
 70
     0
  3
Imperial24
290
     0
100
AcDbSectionViewStyle
 70
     0
 71
     0
 90
       78
 71
     1
340
615
 40
0.24
340
0
340
0
 40
0.24
300
I, O, Q, S, X, Z
 40
0.48
 90
        3
 40
0.18
 90
        1
 71
     2
340
61C
 90
       25
340
61C
 90
       50
 40
0.24
 40
0.0
 40
0.24
 71
     3
340
615
 40
0.24
 90
        1
 40
0.75
 90
        1
300
%<\AcVar ViewType \f "%tc1">% %<\AcVar ViewSectionStartId>%-%<\AcVar ViewSectionEndId>%\PSCALE %<\AcVar ViewScale \f "%sn">%
 71
     4
300
ANSI31
 40
1.0
 90
        0
290
     0
290
     0
 90
        6
 40
0.0
 40
1.570796326794896
 40
0.2617993877991494
 40
1.308996938995747
 40
-0.2617993877991494
 40
1.832595714594046
  0
TABLESTYLE
  5
624
102
{ACAD_XDICTIONARY
360
664
102
}
102
{ACAD_REACTORS
330
623
102
}
330
623
100
AcDbTableStyle
  3
Standard
 70
     0
 71
     0
 40
0.06
 41
0.06
280
     0
281
     0
  7
STANDARD
140
0.18
170
     2
 62
     0
 63
     7
283
     0
274
    -2
284
     1
 64
     0
275
    -2
285
     1
 65
     0
276
    -2
286
     1
 66
     0
277
    -2
287
     1
 67
     0
278
    -2
288
     1
 68
     0
279
    -2
289
     1
 69
     0
  7
STANDARD
140
0.25
170
     5
 62
     0
 63
     7
283
     0
274
    -2
284
     1
 64
     0
275
    -2
285
     1
 65
     0
276
    -2
286
     1
 66
     0
277
    -2
287
     1
 67
     0
278
    -2
288
     1
 68
     0
279
    -2
289
     1
 69
     0
  7
STANDARD
140
0.18
170
     5
 62
     0
 63
     7
283
     0
274
    -2
284
     1
 64
     0
275
    -2
285
     1
 65
     0
276
    -2
286
     1
 66
     0
277
    -2
287
     1
 67
     0
278
    -2
288
     1
 68
     0
279
    -2
289
     1
 69
     0
  0
VISUALSTYLE
  5
5EF
102
{ACAD_XDICTIONARY
360
675
102
}
102
{ACAD_REACTORS
330
5E9
102
}
330
5E9
100
AcDbVisualStyle
  2
2dWireframe
 70
     4
 71
     0
 72
     2
 73
     0
 90
        0
 40
-0.6
 41
-30.0
 62
     5
 63
     7
 74
     1
 91
        4
 64
     7
 65
   257
 75
     1
175
     1
 42
1.0
 92
        0
 66
   257
 43
1.0
 76
     1
 77
     6
 78
     2
 67
     7
 79
     5
170
     0
171
     0
290
     0
174
     0
 93
        1
 44
0.0
173
     0
291
     0
 45
0.0
1001
ACAD
1000
AcDbSavedByObjectVersion
1070
     0
  0
VISUALSTYLE
  5
5EE
102
{ACAD_XDICTIONARY
360
673
102
}
102
{ACAD_REACTORS
330
5E9
102
}
330
5E9
100
AcDbVisualStyle
  2
Basic
 70
     7
 71
     1
 72
     0
 73
     1
 90
        0
 40
-0.6
 41
-30.0
 62
     5
 63
     7
 74
     0
 91
        4
 64
     7
 65
   257
 75
     1
175
     1
 42
1.0
 92
        8
 66
     7
 43
1.0
 76
     1
 77
     6
 78
     2
 67
     7
 79
     5
170
     0
171
     0
290
     0
174
     0
 93
        1
 44
0.0
173
     0
291
     1
 45
0.0
1001
ACAD
1000
AcDbSavedByObjectVersion
1070
     0
  0
VISUALSTYLE
  5
5F5
102
{ACAD_XDICTIONARY
360
681
102
}
102
{ACAD_REACTORS
330
5E9
102
}
330
5E9
100
AcDbVisualStyle
  2
Brighten
 70
    12
 71
     2
 72
     2
 73
     0
 90
        0
 40
-0.6
 41
-30.0
 62
     5
 63
     7
 74
     1
 91
        4
 64
     7
 65
   257
 75
     1
175
     1
 42
1.0
 92
        8
 66
     7
 43
1.0
 76
     1
 77
     6
 78
     2
 67
     7
 79
     5
170
     0
171
     0
290
     0
174
     0
 93
        1
 44
50.0
173
     0
291
     1
 45
0.0
1001
ACAD
1000
AcDbSavedByObjectVersion
1070
     0
  0
VISUALSTYLE
  5
5F9
102
{ACAD_XDICTIONARY
360
689
102
}
102
{ACAD_REACTORS
330
5E9
102
}
330
5E9
100
AcDbVisualStyle
  2
ColorChange
 70
    16
 71
     2
 72
     2
 73
     3
 90
        0
 40
-0.6
 41
-30.0
 62
     5
 63
     8
 74
     1
 91
        4
 64
     7
 65
   257
 75
     1
175
     1
 42
1.0
 92
        8
 66
     8
 43
1.0
 76
     1
 77
     6
 78
     2
 67
     7
 79
     5
170
     0
171
     0
290
     0
174
     0
 93
        1
 44
0.0
173
     0
291
     1
 45
0.0
1001
ACAD
1000
AcDbSavedByObjectVersion
1070
     0
  0
VISUALSTYLE
  5
5F2
102
{ACAD_XDICTIONARY
360
67B
102
}
102
{ACAD_REACTORS
330
5E9
102
}
330
5E9
100
AcDbVisualStyle
  2
Conceptual
 70
     9
 71
     3
 72
     2
 73
     0
 90
        0
 40
-0.6
 41
-30.0
 62
     5
 63
     7
 74
     2
 91
        2
 64
     7
 65
   257
 75
     1
175
     1
 42
179.0
 92
        8
 66
     7
 43
1.0
 76
     1
 77
     6
 78
     2
 67
     7
 79
     3
170
     0
171
     0
290
     0
174
     0
 93
        1
 44
0.0
173
     0
291
     0
 45
0.0
1001
ACAD
1000
AcDbSavedByObjectVersion
1070
     0
  0
VISUALSTYLE
  5
5F4
102
{ACAD_XDICTIONARY
360
67F
102
}
102
{ACAD_REACTORS
330
5E9
102
}
330
5E9
100
AcDbVisualStyle
  2
Dim
 70
    11
 71
     2
 72
     2
 73
     0
 90
        0
 40
-0.6
 41
-30.0
 62
     5
 63
     7
 74
     1
 91
        4
 64
     7
 65
   257
 75
     1
175
     1
 42
1.0
 92
        8
 66
     7
 43
1.0
 76
     1
 77
     6
 78
     2
 67
     7
 79
     5
170
     0
171
     0
290
     0
174
     0
 93
        1
 44
-50.0
173
     0
291
     1
 45
0.0
1001
ACAD
1000
AcDbSavedByObjectVersion
1070
     0
  0
VISUALSTYLE
  5
601
102
{ACAD_XDICTIONARY
360
699
102
}
102
{ACAD_REACTORS
330
5E9
102
}
330
5E9
100
AcDbVisualStyle
  2
EdgeColorOff
 70
    22
 71
     2
 72
     2
 73
     0
 90
        0
 40
-0.6
 41
-30.0
 62
     5
 63
     7
 74
     1
 91
        4
 64
     7
 65
   257
 75
     1
175
     1
 42
1.0
 92
        8
 66
     7
 43
1.0
 76
     1
 77
     6
 78
     2
 67
     7
 79
     5
170
     0
171
     0
290
     0
174
     0
 93
        1
 44
0.0
173
     0
291
     1
 45
0.0
1001
ACAD
1000
AcDbSavedByObjectVersion
1070
     0
  0
VISUALSTYLE
  5
5F8
102
{ACAD_XDICTIONARY
360
687
102
}
102
{ACAD_REACTORS
330
5E9
102
}
330
5E9
100
AcDbVisualStyle
  2
Facepattern
 70
    15
 71
     2
 72
     2
 73
     0
 90
        0
 40
-0.6
 41
-30.0
 62
     5
 63
     7
 74
     1
 91
        4
 64
     7
 65
   257
 75
     1
175
     1
 42
1.0
 92
        8
 66
     7
 43
1.0
 76
     1
 77
     6
 78
     2
 67
     7
 79
     5
170
     0
171
     0
290
     0
174
     0
 93
        1
 44
0.0
173
     0
291
     1
 45
0.0
1001
ACAD
1000
AcDbSavedByObjectVersion
1070
     0
  0
VISUALSTYLE
  5
5EA
102
{ACAD_XDICTIONARY
360
66B
102
}
102
{ACAD_REACTORS
330
5E9
102
}
330
5E9
100
AcDbVisualStyle
  2
Flat
 70
     0
 71
     2
 72
     1
 73
     1
 90
        2
 40
-0.6
 41
30.0
 62
     5
 63
     7
 74
     0
 91
        0
 64
     7
 65
   257
 75
     1
175
     1
 42
1.0
 92
        8
 66
     7
 43
1.0
 76
     1
 77
     6
 78
     2
 67
     7
 79
     5
170
     0
171
     0
290
     0
174
     0
 93
       13
 44
0.0
173
     0
291
     1
 45
0.0
1001
ACAD
1000
AcDbSavedByObjectVersion
1070
     0
  0
VISUALSTYLE
  5
5EB
102
{ACAD_XDICTIONARY
360
66D
102
}
102
{ACAD_REACTORS
330
5E9
102
}
330
5E9
100
AcDbVisualStyle
  2
FlatWithEdges
 70
     1
 71
     2
 72
     1
 73
     1
 90
        2
 40
-0.6
 41
30.0
 62
     5
 63
     7
 74
     1
 91
        0
 64
     7
 65
   257
 75
     1
175
     1
 42
1.0
 92
        0
 66
   257
 43
1.0
 76
     1
 77
     6
 78
     2
 67
     7
 79
     5
170
     0
171
     0
290
     0
174
     0
 93
       13
 44
0.0
173
     0
291
     1
 45
0.0
1001
ACAD
1000
AcDbSavedByObjectVersion
1070
     0
  0
VISUALSTYLE
  5
5EC
102
{ACAD_XDICTIONARY
360
66F
102
}
102
{ACAD_REACTORS
330
5E9
102
}
330
5E9
100
AcDbVisualStyle
  2
Gouraud
 70
     2
 71
     2
 72
     2
 73
     1
 90
        2
 40
-0.6
 41
30.0
 62
     5
 63
     7
 74
     0
 91
        0
 64
     7
 65
   257
 75
     1
175
     1
 42
1.0
 92
        0
 66
     7
 43
1.0
 76
     1
 77
     6
 78
     2
 67
     7
 79
     5
170
     0
171
     0
290
     0
174
     0
 93
       13
 44
0.0
173
     0
291
     1
 45
0.0
1001
ACAD
1000
AcDbSavedByObjectVersion
1070
     0
  0
VISUALSTYLE
  5
5ED
102
{ACAD_XDICTIONARY
360
671
102
}
102
{ACAD_REACTORS
330
5E9
102
}
330
5E9
100
AcDbVisualStyle
  2
GouraudWithEdges
 70
     3
 71
     2
 72
     2
 73
     1
 90
        2
 40
-0.6
 41
30.0
 62
     5
 63
     7
 74
     1
 91
        0
 64
     7
 65
   257
 75
     1
175
     1
 42
1.0
 92
        0
 66
   257
 43
1.0
 76
     1
 77
     6
 78
     2
 67
     7
 79
     5
170
     0
171
     0
290
     0
174
     0
 93
       13
 44
0.0
173
     0
291
     1
 45
0.0
1001
ACAD
1000
AcDbSavedByObjectVersion
1070
     0
  0
VISUALSTYLE
  5
5F1
102
{ACAD_XDICTIONARY
360
679
102
}
102
{ACAD_REACTORS
330
5E9
102
}
330
5E9
100
AcDbVisualStyle
  2
Hidden
 70
     6
 71
     1
 72
     2
 73
     2
 90
        0
 40
-0.6
 41
-30.0
 62
     5
 63
     7
 74
     2
 91
        2
 64
     7
 65
   257
 75
     2
175
     1
 42
40.0
 92
        0
 66
   257
 43
1.0
 76
     1
 77
     6
 78
     2
 67
     7
 79
     3
170
     0
171
     0
290
     0
174
     0
 93
        1
 44
0.0
173
     0
291
     0
 45
0.0
1001
ACAD
1000
AcDbSavedByObjectVersion
1070
     0
  0
VISUALSTYLE
  5
5FF
102
{ACAD_XDICTIONARY
360
695
102
}
102
{ACAD_REACTORS
330
5E9
102
}
330
5E9
100
AcDbVisualStyle
  2
JitterOff
 70
    20
 71
     2
 72
     2
 73
     0
 90
        0
 40
-0.6
 41
-30.0
 62
     5
 63
     7
 74
     1
 91
        4
 64
     7
 65
   257
 75
     1
175
     1
 42
1.0
 92
       10
 66
     7
 43
1.0
 76
     1
 77
     6
 78
     2
 67
     7
 79
     5
170
     0
171
     0
290
     0
174
     0
 93
        1
 44
0.0
173
     0
291
     1
 45
0.0
1001
ACAD
1000
AcDbSavedByObjectVersion
1070
     0
  0
VISUALSTYLE
  5
5F7
102
{ACAD_XDICTIONARY
360
685
102
}
102
{ACAD_REACTORS
330
5E9
102
}
330
5E9
100
AcDbVisualStyle
  2
Linepattern
 70
    14
 71
     2
 72
     2
 73
     0
 90
        0
 40
-0.6
 41
-30.0
 62
     5
 63
     7
 74
     1
 91
        4
 64
     7
 65
   257
 75
     7
175
     7
 42
1.0
 92
        8
 66
     7
 43
1.0
 76
     1
 77
     6
 78
     2
 67
     7
 79
     5
170
     0
171
     0
290
     0
174
     0
 93
        1
 44
0.0
173
     0
291
     1
 45
0.0
1001
ACAD
1000
AcDbSavedByObjectVersion
1070
     0
  0
VISUALSTYLE
  5
600
102
{ACAD_XDICTIONARY
360
697
102
}
102
{ACAD_REACTORS
330
5E9
102
}
330
5E9
100
AcDbVisualStyle
  2
OverhangOff
 70
    21
 71
     2
 72
     2
 73
     0
 90
        0
 40
-0.6
 41
-30.0
 62
     5
 63
     7
 74
     1
 91
        4
 64
     7
 65
   257
 75
     1
175
     1
 42
1.0
 92
        9
 66
     7
 43
1.0
 76
     1
 77
     6
 78
     2
 67
     7
 79
     5
170
     0
171
     0
290
     0
174
     0
 93
        1
 44
0.0
173
     0
291
     1
 45
0.0
1001
ACAD
1000
AcDbSavedByObjectVersion
1070
     0
  0
VISUALSTYLE
  5
5F3
102
{ACAD_XDICTIONARY
360
67D
102
}
102
{ACAD_REACTORS
330
5E9
102
}
330
5E9
100
AcDbVisualStyle
  2
Realistic
 70
     8
 71
     2
 72
     3
 73
     0
 90
        2
 40
-0.6
 41
30.0
 62
     5
 63
     7
 74
     0
 91
        0
 64
     7
 65
   257
 75
     1
175
     1
 42
1.0
 92
        8
 66
   257
 43
1.0
 76
     1
 77
     6
 78
     2
 67
     7
 79
     3
170
     0
171
     0
290
     0
174
     0
 93
       13
 44
0.0
173
     0
291
     0
 45
0.0
1001
ACAD
1000
AcDbSavedByObjectVersion
1070
     0
  0
VISUALSTYLE
  5
5FE
102
{ACAD_XDICTIONARY
360
693
102
}
102
{ACAD_REACTORS
330
5E9
102
}
330
5E9
100
AcDbVisualStyle
  2
Shaded
 70
    27
 71
     2
 72
     2
 73
     1
 90
        2
 40
-0.6
 41
30.0
 62
     5
 63
     7
 74
     0
 91
        4
 64
     7
 65
   257
 75
     1
175
     1
 42
1.0
 92
        8
 66
   257
 43
1.0
 76
     1
 77
     6
 78
     2
 67
     8
 79
     3
170
     0
171
     0
290
     0
174
     0
 93
        5
 44
0.0
173
     0
291
     0
 45
0.0
1001
ACAD
1000
AcDbSavedByObjectVersion
1070
     0
  0
VISUALSTYLE
  5
5FD
102
{ACAD_XDICTIONARY
360
691
102
}
102
{ACAD_REACTORS
330
5E9
102
}
330
5E9
100
AcDbVisualStyle
  2
Shaded with edges
 70
    26
 71
     2
 72
     2
 73
     1
 90
        2
 40
-0.6
 41
30.0
 62
     5
 63
     7
 74
     1
 91
       10
 64
     7
 65
   257
 75
     2
175
     1
 42
1.0
 92
        8
 66
   257
 43
1.0
 76
     1
 77
     6
 78
     2
 67
     7
 79
     3
170
     0
171
     0
290
     0
174
     0
 93
        5
 44
0.0
173
     0
291
     0
 45
0.0
1001
ACAD
1000
AcDbSavedByObjectVersion
1070
     0
  0
VISUALSTYLE
  5
5FA
102
{ACAD_XDICTIONARY
360
68B
102
}
102
{ACAD_REACTORS
330
5E9
102
}
330
5E9
100
AcDbVisualStyle
  2
Shades of Gray
 70
    23
 71
     2
 72
     2
 73
     3
 90
        0
 40
-0.6
 41
-30.0
 62
     5
 63
     7
 74
     2
 91
        2
 64
     7
 65
     7
 75
     1
175
     1
 42
40.0
 92
        8
 66
     7
 43
1.0
 76
     1
 77
     6
 78
     2
 67
     7
 79
     3
170
     0
171
     0
290
     0
174
     0
 93
        1
 44
0.0
173
     0
291
     0
 45
0.0
1001
ACAD
1000
AcDbSavedByObjectVersion
1070
     0
  0
VISUALSTYLE
  5
5FB
102
{ACAD_XDICTIONARY
360
68D
102
}
102
{ACAD_REACTORS
330
5E9
102
}
330
5E9
100
AcDbVisualStyle
  2
Sketchy
 70
    24
 71
     1
 72
     2
 73
     2
 90
        0
 40
-0.6
 41
-30.0
 62
     5
 63
     7
 74
     2
 91
        2
 64
     7
 65
     7
 75
     1
175
     1
 42
40.0
 92
       11
 66
     7
 43
1.0
 76
     1
 77
     6
 78
     2
 67
     7
 79
     6
170
     0
171
     0
290
     0
174
     0
 93
        1
 44
0.0
173
     0
291
     0
 45
0.0
1001
ACAD
1000
AcDbSavedByObjectVersion
1070
     0
  0
VISUALSTYLE
  5
5F6
102
{ACAD_XDICTIONARY
360
683
102
}
102
{ACAD_REACTORS
330
5E9
102
}
330
5E9
100
AcDbVisualStyle
  2
Thicken
 70
    13
 71
     2
 72
     2
 73
     0
 90
        0
 40
-0.6
 41
-30.0
 62
     5
 63
     7
 74
     1
 91
        4
 64
     7
 65
   257
 75
     1
175
     1
 42
1.0
 92
       12
 66
     7
 43
1.0
 76
     1
 77
     6
 78
     2
 67
     7
 79
     5
170
     0
171
     0
290
     0
174
     0
 93
        1
 44
0.0
173
     0
291
     1
 45
0.0
1001
ACAD
1000
AcDbSavedByObjectVersion
1070
     0
  0
VISUALSTYLE
  5
5F0
102
{ACAD_XDICTIONARY
360
677
102
}
102
{ACAD_REACTORS
330
5E9
102
}
330
5E9
100
AcDbVisualStyle
  2
Wireframe
 70
     5
 71
     0
 72
     2
 73
     0
 90
        0
 40
-0.6
 41
-30.0
 62
     5
 63
     7
 74
     1
 91
        4
 64
     7
 65
   257
 75
     1
175
     1
 42
1.0
 92
        0
 66
   257
 43
1.0
 76
     1
 77
     6
 78
     2
 67
     7
 79
     3
170
     0
171
     0
290
     0
174
     0
 93
        1
 44
0.0
173
     0
291
     0
 45
0.0
1001
ACAD
1000
AcDbSavedByObjectVersion
1070
     0
  0
VISUALSTYLE
  5
5FC
102
{ACAD_XDICTIONARY
360
68F
102
}
102
{ACAD_REACTORS
330
5E9
102
}
330
5E9
100
AcDbVisualStyle
  2
X-Ray
 70
    25
 71
     2
 72
     2
 73
     1
 90
        1
 40
0.5
 41
-30.0
 62
     5
 63
     7
 74
     1
 91
        0
 64
     7
 65
   257
 75
     1
175
     1
 42
1.0
 92
        8
 66
     7
 43
1.0
 76
     1
 77
     6
 78
     2
 67
     7
 79
     3
170
     0
171
     0
290
     0
174
     0
 93
       13
 44
0.0
173
     0
291
     0
 45
0.0
1001
ACAD
1000
AcDbSavedByObjectVersion
1070
     0
  0
DICTIONARYVAR
  5
65E
102
{ACAD_REACTORS
330
659
102
}
330
659
100
DictionaryVariables
280
     0
  1
1:1
  0
DICTIONARYVAR
  5
65B
102
{ACAD_REACTORS
330
659
102
}
330
659
100
DictionaryVariables
280
     0
  1
STANDARD
  0
DICTIONARYVAR
  5
65A
102
{ACAD_REACTORS
330
659
102
}
330
659
100
DictionaryVariables
280
     0
  1
STANDARD
  0
DICTIONARYVAR
  5
65C
102
{ACAD_REACTORS
330
659
102
}
330
659
100
DictionaryVariables
280
     0
  1
Imperial24
  0
DICTIONARYVAR
  5
65D
102
{ACAD_REACTORS
330
659
102
}
330
659
100
DictionaryVariables
280
     0
  1
Imperial24
  0
DICTIONARYVAR
  5
661
102
{ACAD_REACTORS
330
659
102
}
330
659
100
DictionaryVariables
280
     0
  1
1
  0
DICTIONARYVAR
  5
660
102
{ACAD_REACTORS
330
659
102
}
330
659
100
DictionaryVariables
280
     0
  1
0
  0
DICTIONARYVAR
  5
65F
102
{ACAD_REACTORS
330
659
102
}
330
659
100
DictionaryVariables
280
     0
  1
127
  0
DICTIONARYVAR
  5
662
102
{ACAD_REACTORS
330
659
102
}
330
659
100
DictionaryVariables
280
     0
  1
2
  0
DICTIONARY
  5
69F
330
62A
100
AcDbDictionary
280
     1
281
     1
  3
ACAD_XREC_ROUNDTRIP
360
6A0
  0
DICTIONARY
  5
6A3
330
632
100
AcDbDictionary
280
     1
281
     1
  3
ACAD_XREC_ROUNDTRIP
360
6A4
  0
DICTIONARY
  5
6A1
330
62E
100
AcDbDictionary
280
     1
281
     1
  3
ACAD_XREC_ROUNDTRIP
360
6A2
  0
DICTIONARY
  5
5DA
330
5D9
100
AcDbDictionary
280
     1
281
     1
  3
ACAD_XREC_ROUNDTRIP
360
669
  3
BUMPTILE
360
5DC
  3
DIFFUSETILE
360
5DB
  3
OPACITYTILE
360
5DF
  3
REFLECTIONTILE
360
5DE
  3
REFRACTIONTILE
360
5E0
  3
SPECULARTILE
360
5DD
  0
DICTIONARY
  5
5D2
330
5D1
100
AcDbDictionary
280
     1
281
     1
  3
ACAD_XREC_ROUNDTRIP
360
668
  3
BUMPTILE
360
5D4
  3
DIFFUSETILE
360
5D3
  3
OPACITYTILE
360
5D7
  3
REFLECTIONTILE
360
5D6
  3
REFRACTIONTILE
360
5D8
  3
SPECULARTILE
360
5D5
  0
DICTIONARY
  5
5E2
330
5E1
100
AcDbDictionary
280
     1
281
     1
  3
ACAD_XREC_ROUNDTRIP
360
66A
  3
BUMPTILE
360
5E4
  3
DIFFUSETILE
360
5E3
  3
OPACITYTILE
360
5E7
  3
REFLECTIONTILE
360
5E6
  3
REFRACTIONTILE
360
5E8
  3
SPECULARTILE
360
5E5
  0
DICTIONARY
  5
69D
330
628
100
AcDbDictionary
280
     1
281
     1
  3
ACAD_XREC_ROUNDTRIP
360
69E
  0
DICTIONARY
  5
664
330
624
100
AcDbDictionary
280
     1
281
     1
  3
ACAD_ROUNDTRIP_2008_TABLESTYLE_CELLSTYLEMAP
360
665
  3
ACAD_XREC_ROUNDTRIP
360
69B
  0
DICTIONARY
  5
675
330
5EF
100
AcDbDictionary
280
     1
281
     1
  3
ACAD_XREC_ROUNDTRIP
360
676
  0
DICTIONARY
  5
673
330
5EE
100
AcDbDictionary
280
     1
281
     1
  3
ACAD_XREC_ROUNDTRIP
360
674
  0
DICTIONARY
  5
681
330
5F5
100
AcDbDictionary
280
     1
281
     1
  3
ACAD_XREC_ROUNDTRIP
360
682
  0
DICTIONARY
  5
689
330
5F9
100
AcDbDictionary
280
     1
281
     1
  3
ACAD_XREC_ROUNDTRIP
360
68A
  0
DICTIONARY
  5
67B
330
5F2
100
AcDbDictionary
280
     1
281
     1
  3
ACAD_XREC_ROUNDTRIP
360
67C
  0
DICTIONARY
  5
67F
330
5F4
100
AcDbDictionary
280
     1
281
     1
  3
ACAD_XREC_ROUNDTRIP
360
680
  0
DICTIONARY
  5
699
330
601
100
AcDbDictionary
280
     1
281
     1
  3
ACAD_XREC_ROUNDTRIP
360
69A
  0
DICTIONARY
  5
687
330
5F8
100
AcDbDictionary
280
     1
281
     1
  3
ACAD_XREC_ROUNDTRIP
360
688
  0
DICTIONARY
  5
66B
330
5EA
100
AcDbDictionary
280
     1
281
     1
  3
ACAD_XREC_ROUNDTRIP
360
66C
  0
DICTIONARY
  5
66D
330
5EB
100
AcDbDictionary
280
     1
281
     1
  3
ACAD_XREC_ROUNDTRIP
360
66E
  0
DICTIONARY
  5
66F
330
5EC
100
AcDbDictionary
280
     1
281
     1
  3
ACAD_XREC_ROUNDTRIP
360
670
  0
DICTIONARY
  5
671
330
5ED
100
AcDbDictionary
280
     1
281
     1
  3
ACAD_XREC_ROUNDTRIP
360
672
  0
DICTIONARY
  5
679
330
5F1
100
AcDbDictionary
280
     1
281
     1
  3
ACAD_XREC_ROUNDTRIP
360
67A
  0
DICTIONARY
  5
695
330
5FF
100
AcDbDictionary
280
     1
281
     1
  3
ACAD_XREC_ROUNDTRIP
360
696
  0
DICTIONARY
  5
685
330
5F7
100
AcDbDictionary
280
     1
281
     1
  3
ACAD_XREC_ROUNDTRIP
360
686
  0
DICTIONARY
  5
697
330
600
100
AcDbDictionary
280
     1
281
     1
  3
ACAD_XREC_ROUNDTRIP
360
698
  0
DICTIONARY
  5
67D
330
5F3
100
AcDbDictionary
280
     1
281
     1
  3
ACAD_XREC_ROUNDTRIP
360
67E
  0
DICTIONARY
  5
693
330
5FE
100
AcDbDictionary
280
     1
281
     1
  3
ACAD_XREC_ROUNDTRIP
360
694
  0
DICTIONARY
  5
691
330
5FD
100
AcDbDictionary
280
     1
281
     1
  3
ACAD_XREC_ROUNDTRIP
360
692
  0
DICTIONARY
  5
68B
330
5FA
100
AcDbDictionary
280
     1
281
     1
  3
ACAD_XREC_ROUNDTRIP
360
68C
  0
DICTIONARY
  5
68D
330
5FB
100
AcDbDictionary
280
     1
281
     1
  3
ACAD_XREC_ROUNDTRIP
360
68E
  0
DICTIONARY
  5
683
330
5F6
100
AcDbDictionary
280
     1
281
     1
  3
ACAD_XREC_ROUNDTRIP
360
684
  0
DICTIONARY
  5
677
330
5F0
100
AcDbDictionary
280
     1
281
     1
  3
ACAD_XREC_ROUNDTRIP
360
678
  0
DICTIONARY
  5
68F
330
5FC
100
AcDbDictionary
280
     1
281
     1
  3
ACAD_XREC_ROUNDTRIP
360
690
  0
XRECORD
  5
6A0
102
{ACAD_REACTORS
330
69F
102
}
330
69F
100
AcDbXrecord
280
     1
102
DISPLAYNAME
  1
Imperial24
102
FLAGS
 90
        0
  0
XRECORD
  5
6A4
102
{ACAD_REACTORS
330
6A3
102
}
330
6A3
100
AcDbXrecord
280
     1
102
SHADEPLOT
 70
     0
102
SHADEPLOTRESLEVEL
 70
     2
102
SHADEPLOTCUSTOMDPI
 70
   300
  0
XRECORD
  5
6A2
102
{ACAD_REACTORS
330
6A1
102
}
330
6A1
100
AcDbXrecord
280
     1
102
SHADEPLOT
 70
     0
102
SHADEPLOTRESLEVEL
 70
     2
102
SHADEPLOTCUSTOMDPI
 70
   300
  0
XRECORD
  5
669
102
{ACAD_REACTORS
330
5DA
102
}
330
5DA
100
AcDbXrecord
280
     1
102
MATERIAL
148
0.0
149
0.0
149
0.0
 93
        0
 94
      127
282
     0
 72
     0
 77
     0
171
     0
175
     0
179
     0
273
     0
  0
XRECORD
  5
5DC
102
{ACAD_REACTORS
330
5DA
102
}
330
5DA
100
AcDbXrecord
280
     1
270
     1
271
     1
  0
XRECORD
  5
5DB
102
{ACAD_REACTORS
330
5DA
102
}
330
5DA
100
AcDbXrecord
280
     1
270
     1
271
     1
  0
XRECORD
  5
5DF
102
{ACAD_REACTORS
330
5DA
102
}
330
5DA
100
AcDbXrecord
280
     1
270
     1
271
     1
  0
XRECORD
  5
5DE
102
{ACAD_REACTORS
330
5DA
102
}
330
5DA
100
AcDbXrecord
280
     1
270
     1
271
     1
  0
XRECORD
  5
5E0
102
{ACAD_REACTORS
330
5DA
102
}
330
5DA
100
AcDbXrecord
280
     1
270
     1
271
     1
  0
XRECORD
  5
5DD
102
{ACAD_REACTORS
330
5DA
102
}
330
5DA
100
AcDbXrecord
280
     1
270
     1
271
     1
  0
XRECORD
  5
668
102
{ACAD_REACTORS
330
5D2
102
}
330
5D2
100
AcDbXrecord
280
     1
102
MATERIAL
148
0.0
149
0.0
149
0.0
 93
        0
 94
      127
282
     0
 72
     0
 77
     0
171
     0
175
     0
179
     0
273
     0
  0
XRECORD
  5
5D4
102
{ACAD_REACTORS
330
5D2
102
}
330
5D2
100
AcDbXrecord
280
     1
270
     1
271
     1
  0
XRECORD
  5
5D3
102
{ACAD_REACTORS
330
5D2
102
}
330
5D2
100
AcDbXrecord
280
     1
270
     1
271
     1
  0
XRECORD
  5
5D7
102
{ACAD_REACTORS
330
5D2
102
}
330
5D2
100
AcDbXrecord
280
     1
270
     1
271
     1
  0
XRECORD
  5
5D6
102
{ACAD_REACTORS
330
5D2
102
}
330
5D2
100
AcDbXrecord
280
     1
270
     1
271
     1
  0
XRECORD
  5
5D8
102
{ACAD_REACTORS
330
5D2
102
}
330
5D2
100
AcDbXrecord
280
     1
270
     1
271
     1
  0
XRECORD
  5
5D5
102
{ACAD_REACTORS
330
5D2
102
}
330
5D2
100
AcDbXrecord
280
     1
270
     1
271
     1
  0
XRECORD
  5
66A
102
{ACAD_REACTORS
330
5E2
102
}
330
5E2
100
AcDbXrecord
280
     1
102
MATERIAL
148
0.0
149
0.0
149
0.0
 93
        0
 94
      127
282
     0
 72
     0
 77
     0
171
     0
175
     0
179
     0
273
     0
  0
XRECORD
  5
5E4
102
{ACAD_REACTORS
330
5E2
102
}
330
5E2
100
AcDbXrecord
280
     1
270
     1
271
     1
  0
XRECORD
  5
5E3
102
{ACAD_REACTORS
330
5E2
102
}
330
5E2
100
AcDbXrecord
280
     1
270
     1
271
     1
  0
XRECORD
  5
5E7
102
{ACAD_REACTORS
330
5E2
102
}
330
5E2
100
AcDbXrecord
280
     1
270
     1
271
     1
  0
XRECORD
  5
5E6
102
{ACAD_REACTORS
330
5E2
102
}
330
5E2
100
AcDbXrecord
280
     1
270
     1
271
     1
  0
XRECORD
  5
5E8
102
{ACAD_REACTORS
330
5E2
102
}
330
5E2
100
AcDbXrecord
280
     1
270
     1
271
     1
  0
XRECORD
  5
5E5
102
{ACAD_REACTORS
330
5E2
102
}
330
5E2
100
AcDbXrecord
280
     1
270
     1
271
     1
  0
XRECORD
  5
69E
102
{ACAD_REACTORS
330
69D
102
}
330
69D
100
AcDbXrecord
280
     1
102
DISPLAYNAME
  1
Imperial24
102
FLAGS
 90
        0
  0
CELLSTYLEMAP
  5
665
102
{ACAD_REACTORS
330
664
102
}
330
664
100
AcDbCellStyleMap
 90
        3
300
CELLSTYLE
  1
TABLEFORMAT_BEGIN
 90
        5
170
     1
 91
        0
 92
    32768
 62
   257
 93
        1
300
CONTENTFORMAT
  1
CONTENTFORMAT_BEGIN
 90
        0
 91
        0
 92
      512
 93
        0
300

 40
0.0
140
1.0
 94
        5
 62
     0
340
615
144
0.25
309
CONTENTFORMAT_END
171
     0
 94
        0
309
TABLEFORMAT_END
  1
CELLSTYLE_BEGIN
 90
        1
 91
        1
300
_TITLE
309
CELLSTYLE_END
300
CELLSTYLE
  1
TABLEFORMAT_BEGIN
 90
        5
170
     1
 91
        0
 92
        0
 62
   257
 93
        1
300
CONTENTFORMAT
  1
CONTENTFORMAT_BEGIN
 90
        0
 91
        0
 92
      512
 93
        0
300

 40
0.0
140
1.0
 94
        5
 62
     0
340
615
144
0.18
309
CONTENTFORMAT_END
171
     0
 94
        0
309
TABLEFORMAT_END
  1
CELLSTYLE_BEGIN
 90
        2
 91
        1
300
_HEADER
309
CELLSTYLE_END
300
CELLSTYLE
  1
TABLEFORMAT_BEGIN
 90
        5
170
     1
 91
        0
 92
        0
 62
   257
 93
        1
300
CONTENTFORMAT
  1
CONTENTFORMAT_BEGIN
 90
        0
 91
        0
 92
      512
 93
        0
300

 40
0.0
140
1.0
 94
        2
 62
     0
340
615
144
0.18
309
CONTENTFORMAT_END
171
     0
 94
        0
309
TABLEFORMAT_END
  1
CELLSTYLE_BEGIN
 90
        3
 91
        2
300
_DATA
309
CELLSTYLE_END
  0
XRECORD
  5
69B
102
{ACAD_REACTORS
330
664
102
}
330
664
100
AcDbXrecord
280
     1
102
ACAD_ROUNDTRIP_PRE2007_TABLESTYLE
 90
      512
 91
        0
  1

 92
      512
 93
        0
  2

 94
      512
 95
        0
  3

  0
XRECORD
  5
676
102
{ACAD_REACTORS
330
675
102
}
330
675
100
AcDbXrecord
280
     1
102
RTVSPost2010Prop28
280
     1
102
RTVSPost2010PropOp28
 70
     1
102
RTVSPost2010Prop29
280
     1
102
RTVSPost2010PropOp29
 70
     1
102
RTVSPost2010Prop30
280
     0
102
RTVSPost2010PropOp30
 70
     1
102
RTVSPost2010Prop31
280
     0
102
RTVSPost2010PropOp31
 70
     1
102
RTVSPost2010Prop32
280
     0
102
RTVSPost2010PropOp32
 70
     1
102
RTVSPost2010Prop33
280
     0
102
RTVSPost2010PropOp33
 70
     1
102
RTVSPost2010Prop34
280
     0
102
RTVSPost2010PropOp34
 70
     1
102
RTVSPost2010Prop35
280
     0
102
RTVSPost2010PropOp35
 70
     1
102
RTVSPost2010Prop36
280
     0
102
RTVSPost2010PropOp36
 70
     1
102
RTVSPost2010Prop37
 90
       50
102
RTVSPost2010PropOp37
 70
     1
102
RTVSPost2010Prop38
140
0.0
102
RTVSPost2010PropOp38
 70
     1
102
RTVSPost2010Prop39
140
1.0
102
RTVSPost2010PropOp39
 70
     1
102
RTVSPost2010Prop40
 90
        0
102
RTVSPost2010PropOp40
 70
     1
102
RTVSPost2010Prop41ColorIndex
 90
       18
102
RTVSPost2010Prop41ColorRGB
 90
        0
102
RTVSPost2010PropOp41
 70
     1
102
RTVSPost2010Prop42
 90
       50
102
RTVSPost2010PropOp42
 70
     1
102
RTVSPost2010Prop43
 90
        3
102
RTVSPost2010PropOp43
 70
     1
102
RTVSPost2010Prop44ColorIndex
 90
        5
102
RTVSPost2010Prop44ColorRGB
 90
      255
102
RTVSPost2010PropOp44
 70
     1
102
RTVSPost2010Prop45
280
     0
102
RTVSPost2010PropOp45
 70
     1
102
RTVSPost2010Prop46
 90
       50
102
RTVSPost2010PropOp46
 70
     1
102
RTVSPost2010Prop47
 90
       50
102
RTVSPost2010PropOp47
 70
     1
102
RTVSPost2010Prop48
 90
       50
102
RTVSPost2010PropOp48
 70
     1
102
RTVSPost2010Prop49
280
     0
102
RTVSPost2010PropOp49
 70
     1
102
RTVSPost2010Prop50
 90
       50
102
RTVSPost2010PropOp50
 70
     1
102
RTVSPost2010Prop51ColorIndex
 90
      256
102
RTVSPost2010Prop51ColorRGB
 90
-16777216
102
RTVSPost2010PropOp51
 70
     0
102
RTVSPost2010Prop52
140
1.0
102
RTVSPost2010PropOp52
 70
     0
102
RTVSPost2010Prop53
 90
        2
102
RTVSPost2010PropOp53
 70
     1
102
RTVSPost2010Prop54
  1
strokes_ogs.tif
102
RTVSPost2010PropOp54
 70
     1
102
RTVSPost2010Prop55
280
     0
102
RTVSPost2010PropOp55
 70
     1
102
RTVSPost2010Prop56
140
1.0
102
RTVSPost2010PropOp56
 70
     1
102
RTVSPost2010Prop57
140
1.0
102
RTVSPost2010PropOp57
 70
     1
102
RTVSPropertyOp0
 70
     1
102
RTVSPropertyOp1
 70
     1
102
RTVSPropertyOp2
 70
     1
102
RTVSPropertyOp3
 70
     1
102
RTVSPropertyOp4
 70
     1
102
RTVSPropertyOp5
 70
     1
102
RTVSPropertyOp6
 70
     1
102
RTVSPropertyOp7
 70
     1
102
RTVSPropertyOp8
 70
     1
102
RTVSPropertyOp9
 70
     1
102
RTVSPropertyOp10
 70
     1
102
RTVSPropertyOp11
 70
     1
102
RTVSPropertyOp12
 70
     1
102
RTVSPropertyOp13
 70
     1
102
RTVSPropertyOp14
 70
     1
102
RTVSPropertyOp15
 70
     1
102
RTVSPropertyOp16
 70
     1
102
RTVSPropertyOp17
 70
     1
102
RTVSPropertyOp18
 70
     1
102
RTVSPropertyOp19
 70
     1
102
RTVSPropertyOp20
 70
     1
102
RTVSPropertyOp21
 70
     1
102
RTVSPropertyOp22
 70
     1
102
RTVSPropertyOp23
 70
     1
102
RTVSPropertyOp24
 70
     1
102
RTVSPropertyOp25
 70
     1
102
RTVSPropertyOp26
 70
     1
102
RTVSPropertyOp27
 70
     1
102
RTVSPropertyOp28
 70
     1
102
RTVSPropertyOp29
 70
     1
102
RTVSPropertyOp30
 70
     1
102
RTVSPropertyOp31
 70
     1
102
RTVSPropertyOp32
 70
     1
102
RTVSPropertyOp33
 70
     1
102
RTVSPropertyOp34
 70
     1
102
RTVSPropertyOp35
 70
     1
102
RTVSPropertyOp36
 70
     1
102
RTVSPropertyOp37
 70
     1
102
RTVSPropertyOp38
 70
     1
102
RTVSPropertyOp39
 70
     1
102
RTVSPropertyOp40
 70
     1
102
RTVSPropertyOp41
 70
     1
102
RTVSPropertyOp42
 70
     1
102
RTVSPropertyOp43
 70
     1
102
RTVSPropertyOp44
 70
     1
102
RTVSPropertyOp45
 70
     1
102
RTVSPropertyOp46
 70
     1
102
RTVSPropertyOp47
 70
     1
102
RTVSPropertyOp48
 70
     1
102
RTVSPropertyOp49
 70
     1
102
RTVSPropertyOp50
 70
     1
102
RTVSPropertyOp51
 70
     0
102
RTVSPropertyOp52
 70
     0
102
RTVSPropertyOp53
 70
     1
102
RTVSPropertyOp54
 70
     1
102
RTVSPropertyOp55
 70
     1
102
RTVSPropertyOp56
 70
     1
102
RTVSPropertyOp57
 70
     1
102
RTVSPropertyOp58
 70
     1
102
RTVSPropertyOp59
 70
     1
102
RTVSPropertyOp60
 70
     1
102
RTVSPropertyOp61
 70
     1
102
RTVSPropertyOp62
 70
     1
  0
XRECORD
  5
674
102
{ACAD_REACTORS
330
673
102
}
330
673
100
AcDbXrecord
280
     1
102
RTVSPost2010Prop28
280
     0
102
RTVSPost2010PropOp28
 70
     1
102
RTVSPost2010Prop29
280
     1
102
RTVSPost2010PropOp29
 70
     1
102
RTVSPost2010Prop30
280
     1
102
RTVSPost2010PropOp30
 70
     1
102
RTVSPost2010Prop31
280
     0
102
RTVSPost2010PropOp31
 70
     1
102
RTVSPost2010Prop32
280
     0
102
RTVSPost2010PropOp32
 70
     1
102
RTVSPost2010Prop33
280
     0
102
RTVSPost2010PropOp33
 70
     1
102
RTVSPost2010Prop34
280
     0
102
RTVSPost2010PropOp34
 70
     1
102
RTVSPost2010Prop35
280
     0
102
RTVSPost2010PropOp35
 70
     1
102
RTVSPost2010Prop36
280
     0
102
RTVSPost2010PropOp36
 70
     1
102
RTVSPost2010Prop37
 90
       50
102
RTVSPost2010PropOp37
 70
     1
102
RTVSPost2010Prop38
140
0.0
102
RTVSPost2010PropOp38
 70
     1
102
RTVSPost2010Prop39
140
1.0
102
RTVSPost2010PropOp39
 70
     1
102
RTVSPost2010Prop40
 90
        0
102
RTVSPost2010PropOp40
 70
     1
102
RTVSPost2010Prop41ColorIndex
 90
       18
102
RTVSPost2010Prop41ColorRGB
 90
        0
102
RTVSPost2010PropOp41
 70
     1
102
RTVSPost2010Prop42
 90
       50
102
RTVSPost2010PropOp42
 70
     1
102
RTVSPost2010Prop43
 90
        3
102
RTVSPost2010PropOp43
 70
     1
102
RTVSPost2010Prop44ColorIndex
 90
        5
102
RTVSPost2010Prop44ColorRGB
 90
      255
102
RTVSPost2010PropOp44
 70
     1
102
RTVSPost2010Prop45
280
     0
102
RTVSPost2010PropOp45
 70
     1
102
RTVSPost2010Prop46
 90
       50
102
RTVSPost2010PropOp46
 70
     1
102
RTVSPost2010Prop47
 90
       50
102
RTVSPost2010PropOp47
 70
     1
102
RTVSPost2010Prop48
 90
       50
102
RTVSPost2010PropOp48
 70
     1
102
RTVSPost2010Prop49
280
     0
102
RTVSPost2010PropOp49
 70
     1
102
RTVSPost2010Prop50
 90
       50
102
RTVSPost2010PropOp50
 70
     1
102
RTVSPost2010Prop51ColorIndex
 90
      256
102
RTVSPost2010Prop51ColorRGB
 90
-16777216
102
RTVSPost2010PropOp51
 70
     0
102
RTVSPost2010Prop52
140
1.0
102
RTVSPost2010PropOp52
 70
     0
102
RTVSPost2010Prop53
 90
        2
102
RTVSPost2010PropOp53
 70
     1
102
RTVSPost2010Prop54
  1
strokes_ogs.tif
102
RTVSPost2010PropOp54
 70
     1
102
RTVSPost2010Prop55
280
     0
102
RTVSPost2010PropOp55
 70
     1
102
RTVSPost2010Prop56
140
1.0
102
RTVSPost2010PropOp56
 70
     1
102
RTVSPost2010Prop57
140
1.0
102
RTVSPost2010PropOp57
 70
     1
102
RTVSPropertyOp0
 70
     1
102
RTVSPropertyOp1
 70
     1
102
RTVSPropertyOp2
 70
     1
102
RTVSPropertyOp3
 70
     1
102
RTVSPropertyOp4
 70
     1
102
RTVSPropertyOp5
 70
     1
102
RTVSPropertyOp6
 70
     1
102
RTVSPropertyOp7
 70
     1
102
RTVSPropertyOp8
 70
     1
102
RTVSPropertyOp9
 70
     1
102
RTVSPropertyOp10
 70
     1
102
RTVSPropertyOp11
 70
     1
102
RTVSPropertyOp12
 70
     1
102
RTVSPropertyOp13
 70
     1
102
RTVSPropertyOp14
 70
     1
102
RTVSPropertyOp15
 70
     1
102
RTVSPropertyOp16
 70
     1
102
RTVSPropertyOp17
 70
     1
102
RTVSPropertyOp18
 70
     1
102
RTVSPropertyOp19
 70
     1
102
RTVSPropertyOp20
 70
     1
102
RTVSPropertyOp21
 70
     1
102
RTVSPropertyOp22
 70
     1
102
RTVSPropertyOp23
 70
     1
102
RTVSPropertyOp24
 70
     1
102
RTVSPropertyOp25
 70
     1
102
RTVSPropertyOp26
 70
     1
102
RTVSPropertyOp27
 70
     1
102
RTVSPropertyOp28
 70
     1
102
RTVSPropertyOp29
 70
     1
102
RTVSPropertyOp30
 70
     1
102
RTVSPropertyOp31
 70
     1
102
RTVSPropertyOp32
 70
     1
102
RTVSPropertyOp33
 70
     1
102
RTVSPropertyOp34
 70
     1
102
RTVSPropertyOp35
 70
     1
102
RTVSPropertyOp36
 70
     1
102
RTVSPropertyOp37
 70
     1
102
RTVSPropertyOp38
 70
     1
102
RTVSPropertyOp39
 70
     1
102
RTVSPropertyOp40
 70
     1
102
RTVSPropertyOp41
 70
     1
102
RTVSPropertyOp42
 70
     1
102
RTVSPropertyOp43
 70
     1
102
RTVSPropertyOp44
 70
     1
102
RTVSPropertyOp45
 70
     1
102
RTVSPropertyOp46
 70
     1
102
RTVSPropertyOp47
 70
     1
102
RTVSPropertyOp48
 70
     1
102
RTVSPropertyOp49
 70
     1
102
RTVSPropertyOp50
 70
     1
102
RTVSPropertyOp51
 70
     0
102
RTVSPropertyOp52
 70
     0
102
RTVSPropertyOp53
 70
     1
102
RTVSPropertyOp54
 70
     1
102
RTVSPropertyOp55
 70
     1
102
RTVSPropertyOp56
 70
     1
102
RTVSPropertyOp57
 70
     1
102
RTVSPropertyOp58
 70
     1
102
RTVSPropertyOp59
 70
     1
102
RTVSPropertyOp60
 70
     1
102
RTVSPropertyOp61
 70
     1
102
RTVSPropertyOp62
 70
     1
  0
XRECORD
  5
682
102
{ACAD_REACTORS
330
681
102
}
330
681
100
AcDbXrecord
280
     1
102
RTVSPost2010Prop28
280
     0
102
RTVSPost2010PropOp28
 70
     1
102
RTVSPost2010Prop29
280
     1
102
RTVSPost2010PropOp29
 70
     1
102
RTVSPost2010Prop30
280
     1
102
RTVSPost2010PropOp30
 70
     1
102
RTVSPost2010Prop31
280
     0
102
RTVSPost2010PropOp31
 70
     1
102
RTVSPost2010Prop32
280
     0
102
RTVSPost2010PropOp32
 70
     1
102
RTVSPost2010Prop33
280
     0
102
RTVSPost2010PropOp33
 70
     1
102
RTVSPost2010Prop34
280
     0
102
RTVSPost2010PropOp34
 70
     1
102
RTVSPost2010Prop35
280
     0
102
RTVSPost2010PropOp35
 70
     1
102
RTVSPost2010Prop36
280
     0
102
RTVSPost2010PropOp36
 70
     1
102
RTVSPost2010Prop37
 90
       50
102
RTVSPost2010PropOp37
 70
     1
102
RTVSPost2010Prop38
140
0.0
102
RTVSPost2010PropOp38
 70
     1
102
RTVSPost2010Prop39
140
1.0
102
RTVSPost2010PropOp39
 70
     1
102
RTVSPost2010Prop40
 90
        0
102
RTVSPost2010PropOp40
 70
     1
102
RTVSPost2010Prop41ColorIndex
 90
       18
102
RTVSPost2010Prop41ColorRGB
 90
        0
102
RTVSPost2010PropOp41
 70
     1
102
RTVSPost2010Prop42
 90
       50
102
RTVSPost2010PropOp42
 70
     1
102
RTVSPost2010Prop43
 90
        3
102
RTVSPost2010PropOp43
 70
     1
102
RTVSPost2010Prop44ColorIndex
 90
        5
102
RTVSPost2010Prop44ColorRGB
 90
      255
102
RTVSPost2010PropOp44
 70
     1
102
RTVSPost2010Prop45
280
     0
102
RTVSPost2010PropOp45
 70
     1
102
RTVSPost2010Prop46
 90
       50
102
RTVSPost2010PropOp46
 70
     1
102
RTVSPost2010Prop47
 90
       50
102
RTVSPost2010PropOp47
 70
     1
102
RTVSPost2010Prop48
 90
       50
102
RTVSPost2010PropOp48
 70
     1
102
RTVSPost2010Prop49
280
     0
102
RTVSPost2010PropOp49
 70
     1
102
RTVSPost2010Prop50
 90
       50
102
RTVSPost2010PropOp50
 70
     1
102
RTVSPost2010Prop51ColorIndex
 90
      256
102
RTVSPost2010Prop51ColorRGB
 90
-16777216
102
RTVSPost2010PropOp51
 70
     0
102
RTVSPost2010Prop52
140
1.0
102
RTVSPost2010PropOp52
 70
     0
102
RTVSPost2010Prop53
 90
        2
102
RTVSPost2010PropOp53
 70
     1
102
RTVSPost2010Prop54
  1
strokes_ogs.tif
102
RTVSPost2010PropOp54
 70
     1
102
RTVSPost2010Prop55
280
     0
102
RTVSPost2010PropOp55
 70
     1
102
RTVSPost2010Prop56
140
1.0
102
RTVSPost2010PropOp56
 70
     1
102
RTVSPost2010Prop57
140
1.0
102
RTVSPost2010PropOp57
 70
     1
102
RTVSPropertyOp0
 70
     1
102
RTVSPropertyOp1
 70
     1
102
RTVSPropertyOp2
 70
     1
102
RTVSPropertyOp3
 70
     1
102
RTVSPropertyOp4
 70
     1
102
RTVSPropertyOp5
 70
     1
102
RTVSPropertyOp6
 70
     1
102
RTVSPropertyOp7
 70
     1
102
RTVSPropertyOp8
 70
     1
102
RTVSPropertyOp9
 70
     1
102
RTVSPropertyOp10
 70
     1
102
RTVSPropertyOp11
 70
     1
102
RTVSPropertyOp12
 70
     1
102
RTVSPropertyOp13
 70
     1
102
RTVSPropertyOp14
 70
     1
102
RTVSPropertyOp15
 70
     1
102
RTVSPropertyOp16
 70
     1
102
RTVSPropertyOp17
 70
     1
102
RTVSPropertyOp18
 70
     1
102
RTVSPropertyOp19
 70
     1
102
RTVSPropertyOp20
 70
     1
102
RTVSPropertyOp21
 70
     1
102
RTVSPropertyOp22
 70
     1
102
RTVSPropertyOp23
 70
     1
102
RTVSPropertyOp24
 70
     1
102
RTVSPropertyOp25
 70
     1
102
RTVSPropertyOp26
 70
     1
102
RTVSPropertyOp27
 70
     1
102
RTVSPropertyOp28
 70
     1
102
RTVSPropertyOp29
 70
     1
102
RTVSPropertyOp30
 70
     1
102
RTVSPropertyOp31
 70
     1
102
RTVSPropertyOp32
 70
     1
102
RTVSPropertyOp33
 70
     1
102
RTVSPropertyOp34
 70
     1
102
RTVSPropertyOp35
 70
     1
102
RTVSPropertyOp36
 70
     1
102
RTVSPropertyOp37
 70
     1
102
RTVSPropertyOp38
 70
     1
102
RTVSPropertyOp39
 70
     1
102
RTVSPropertyOp40
 70
     1
102
RTVSPropertyOp41
 70
     1
102
RTVSPropertyOp42
 70
     1
102
RTVSPropertyOp43
 70
     1
102
RTVSPropertyOp44
 70
     1
102
RTVSPropertyOp45
 70
     1
102
RTVSPropertyOp46
 70
     1
102
RTVSPropertyOp47
 70
     1
102
RTVSPropertyOp48
 70
     1
102
RTVSPropertyOp49
 70
     1
102
RTVSPropertyOp50
 70
     1
102
RTVSPropertyOp51
 70
     0
102
RTVSPropertyOp52
 70
     0
102
RTVSPropertyOp53
 70
     1
102
RTVSPropertyOp54
 70
     1
102
RTVSPropertyOp55
 70
     1
102
RTVSPropertyOp56
 70
     1
102
RTVSPropertyOp57
 70
     1
102
RTVSPropertyOp58
 70
     1
102
RTVSPropertyOp59
 70
     1
102
RTVSPropertyOp60
 70
     1
102
RTVSPropertyOp61
 70
     1
102
RTVSPropertyOp62
 70
     1
  0
XRECORD
  5
68A
102
{ACAD_REACTORS
330
689
102
}
330
689
100
AcDbXrecord
280
     1
102
RTVSPost2010Prop28
280
     0
102
RTVSPost2010PropOp28
 70
     1
102
RTVSPost2010Prop29
280
     1
102
RTVSPost2010PropOp29
 70
     1
102
RTVSPost2010Prop30
280
     1
102
RTVSPost2010PropOp30
 70
     1
102
RTVSPost2010Prop31
280
     0
102
RTVSPost2010PropOp31
 70
     1
102
RTVSPost2010Prop32
280
     0
102
RTVSPost2010PropOp32
 70
     1
102
RTVSPost2010Prop33
280
     0
102
RTVSPost2010PropOp33
 70
     1
102
RTVSPost2010Prop34
280
     0
102
RTVSPost2010PropOp34
 70
     1
102
RTVSPost2010Prop35
280
     0
102
RTVSPost2010PropOp35
 70
     1
102
RTVSPost2010Prop36
280
     0
102
RTVSPost2010PropOp36
 70
     1
102
RTVSPost2010Prop37
 90
       50
102
RTVSPost2010PropOp37
 70
     1
102
RTVSPost2010Prop38
140
0.0
102
RTVSPost2010PropOp38
 70
     1
102
RTVSPost2010Prop39
140
1.0
102
RTVSPost2010PropOp39
 70
     1
102
RTVSPost2010Prop40
 90
        0
102
RTVSPost2010PropOp40
 70
     1
102
RTVSPost2010Prop41ColorIndex
 90
       18
102
RTVSPost2010Prop41ColorRGB
 90
        0
102
RTVSPost2010PropOp41
 70
     1
102
RTVSPost2010Prop42
 90
       50
102
RTVSPost2010PropOp42
 70
     1
102
RTVSPost2010Prop43
 90
        3
102
RTVSPost2010PropOp43
 70
     1
102
RTVSPost2010Prop44ColorIndex
 90
        5
102
RTVSPost2010Prop44ColorRGB
 90
      255
102
RTVSPost2010PropOp44
 70
     1
102
RTVSPost2010Prop45
280
     0
102
RTVSPost2010PropOp45
 70
     1
102
RTVSPost2010Prop46
 90
       50
102
RTVSPost2010PropOp46
 70
     1
102
RTVSPost2010Prop47
 90
       50
102
RTVSPost2010PropOp47
 70
     1
102
RTVSPost2010Prop48
 90
       50
102
RTVSPost2010PropOp48
 70
     1
102
RTVSPost2010Prop49
280
     0
102
RTVSPost2010PropOp49
 70
     1
102
RTVSPost2010Prop50
 90
       50
102
RTVSPost2010PropOp50
 70
     1
102
RTVSPost2010Prop51ColorIndex
 90
      256
102
RTVSPost2010Prop51ColorRGB
 90
-16777216
102
RTVSPost2010PropOp51
 70
     0
102
RTVSPost2010Prop52
140
1.0
102
RTVSPost2010PropOp52
 70
     0
102
RTVSPost2010Prop53
 90
        2
102
RTVSPost2010PropOp53
 70
     1
102
RTVSPost2010Prop54
  1
strokes_ogs.tif
102
RTVSPost2010PropOp54
 70
     1
102
RTVSPost2010Prop55
280
     0
102
RTVSPost2010PropOp55
 70
     1
102
RTVSPost2010Prop56
140
1.0
102
RTVSPost2010PropOp56
 70
     1
102
RTVSPost2010Prop57
140
1.0
102
RTVSPost2010PropOp57
 70
     1
102
RTVSPropertyOp0
 70
     1
102
RTVSPropertyOp1
 70
     1
102
RTVSPropertyOp2
 70
     1
102
RTVSPropertyOp3
 70
     1
102
RTVSPropertyOp4
 70
     1
102
RTVSPropertyOp5
 70
     1
102
RTVSPropertyOp6
 70
     1
102
RTVSPropertyOp7
 70
     1
102
RTVSPropertyOp8
 70
     1
102
RTVSPropertyOp9
 70
     1
102
RTVSPropertyOp10
 70
     1
102
RTVSPropertyOp11
 70
     1
102
RTVSPropertyOp12
 70
     1
102
RTVSPropertyOp13
 70
     1
102
RTVSPropertyOp14
 70
     1
102
RTVSPropertyOp15
 70
     1
102
RTVSPropertyOp16
 70
     1
102
RTVSPropertyOp17
 70
     1
102
RTVSPropertyOp18
 70
     1
102
RTVSPropertyOp19
 70
     1
102
RTVSPropertyOp20
 70
     1
102
RTVSPropertyOp21
 70
     1
102
RTVSPropertyOp22
 70
     1
102
RTVSPropertyOp23
 70
     1
102
RTVSPropertyOp24
 70
     1
102
RTVSPropertyOp25
 70
     1
102
RTVSPropertyOp26
 70
     1
102
RTVSPropertyOp27
 70
     1
102
RTVSPropertyOp28
 70
     1
102
RTVSPropertyOp29
 70
     1
102
RTVSPropertyOp30
 70
     1
102
RTVSPropertyOp31
 70
     1
102
RTVSPropertyOp32
 70
     1
102
RTVSPropertyOp33
 70
     1
102
RTVSPropertyOp34
 70
     1
102
RTVSPropertyOp35
 70
     1
102
RTVSPropertyOp36
 70
     1
102
RTVSPropertyOp37
 70
     1
102
RTVSPropertyOp38
 70
     1
102
RTVSPropertyOp39
 70
     1
102
RTVSPropertyOp40
 70
     1
102
RTVSPropertyOp41
 70
     1
102
RTVSPropertyOp42
 70
     1
102
RTVSPropertyOp43
 70
     1
102
RTVSPropertyOp44
 70
     1
102
RTVSPropertyOp45
 70
     1
102
RTVSPropertyOp46
 70
     1
102
RTVSPropertyOp47
 70
     1
102
RTVSPropertyOp48
 70
     1
102
RTVSPropertyOp49
 70
     1
102
RTVSPropertyOp50
 70
     1
102
RTVSPropertyOp51
 70
     0
102
RTVSPropertyOp52
 70
     0
102
RTVSPropertyOp53
 70
     1
102
RTVSPropertyOp54
 70
     1
102
RTVSPropertyOp55
 70
     1
102
RTVSPropertyOp56
 70
     1
102
RTVSPropertyOp57
 70
     1
102
RTVSPropertyOp58
 70
     1
102
RTVSPropertyOp59
 70
     1
102
RTVSPropertyOp60
 70
     1
102
RTVSPropertyOp61
 70
     1
102
RTVSPropertyOp62
 70
     1
  0
XRECORD
  5
67C
102
{ACAD_REACTORS
330
67B
102
}
330
67B
100
AcDbXrecord
280
     1
102
RTVSPost2010Prop28
280
     0
102
RTVSPost2010PropOp28
 70
     1
102
RTVSPost2010Prop29
280
     1
102
RTVSPost2010PropOp29
 70
     1
102
RTVSPost2010Prop30
280
     1
102
RTVSPost2010PropOp30
 70
     1
102
RTVSPost2010Prop31
280
     0
102
RTVSPost2010PropOp31
 70
     1
102
RTVSPost2010Prop32
280
     0
102
RTVSPost2010PropOp32
 70
     1
102
RTVSPost2010Prop33
280
     0
102
RTVSPost2010PropOp33
 70
     1
102
RTVSPost2010Prop34
280
     0
102
RTVSPost2010PropOp34
 70
     1
102
RTVSPost2010Prop35
280
     0
102
RTVSPost2010PropOp35
 70
     1
102
RTVSPost2010Prop36
280
     0
102
RTVSPost2010PropOp36
 70
     1
102
RTVSPost2010Prop37
 90
       50
102
RTVSPost2010PropOp37
 70
     1
102
RTVSPost2010Prop38
140
0.0
102
RTVSPost2010PropOp38
 70
     1
102
RTVSPost2010Prop39
140
1.0
102
RTVSPost2010PropOp39
 70
     1
102
RTVSPost2010Prop40
 90
        0
102
RTVSPost2010PropOp40
 70
     1
102
RTVSPost2010Prop41ColorIndex
 90
       18
102
RTVSPost2010Prop41ColorRGB
 90
        0
102
RTVSPost2010PropOp41
 70
     1
102
RTVSPost2010Prop42
 90
       50
102
RTVSPost2010PropOp42
 70
     1
102
RTVSPost2010Prop43
 90
        3
102
RTVSPost2010PropOp43
 70
     1
102
RTVSPost2010Prop44ColorIndex
 90
        5
102
RTVSPost2010Prop44ColorRGB
 90
      255
102
RTVSPost2010PropOp44
 70
     1
102
RTVSPost2010Prop45
280
     0
102
RTVSPost2010PropOp45
 70
     1
102
RTVSPost2010Prop46
 90
       50
102
RTVSPost2010PropOp46
 70
     1
102
RTVSPost2010Prop47
 90
       50
102
RTVSPost2010PropOp47
 70
     1
102
RTVSPost2010Prop48
 90
       50
102
RTVSPost2010PropOp48
 70
     1
102
RTVSPost2010Prop49
280
     0
102
RTVSPost2010PropOp49
 70
     1
102
RTVSPost2010Prop50
 90
       50
102
RTVSPost2010PropOp50
 70
     1
102
RTVSPost2010Prop51ColorIndex
 90
      256
102
RTVSPost2010Prop51ColorRGB
 90
-16777216
102
RTVSPost2010PropOp51
 70
     0
102
RTVSPost2010Prop52
140
1.0
102
RTVSPost2010PropOp52
 70
     0
102
RTVSPost2010Prop53
 90
        2
102
RTVSPost2010PropOp53
 70
     1
102
RTVSPost2010Prop54
  1
strokes_ogs.tif
102
RTVSPost2010PropOp54
 70
     1
102
RTVSPost2010Prop55
280
     0
102
RTVSPost2010PropOp55
 70
     1
102
RTVSPost2010Prop56
140
1.0
102
RTVSPost2010PropOp56
 70
     1
102
RTVSPost2010Prop57
140
1.0
102
RTVSPost2010PropOp57
 70
     1
102
RTVSPropertyOp0
 70
     1
102
RTVSPropertyOp1
 70
     1
102
RTVSPropertyOp2
 70
     1
102
RTVSPropertyOp3
 70
     1
102
RTVSPropertyOp4
 70
     1
102
RTVSPropertyOp5
 70
     1
102
RTVSPropertyOp6
 70
     1
102
RTVSPropertyOp7
 70
     1
102
RTVSPropertyOp8
 70
     1
102
RTVSPropertyOp9
 70
     1
102
RTVSPropertyOp10
 70
     1
102
RTVSPropertyOp11
 70
     1
102
RTVSPropertyOp12
 70
     1
102
RTVSPropertyOp13
 70
     1
102
RTVSPropertyOp14
 70
     1
102
RTVSPropertyOp15
 70
     1
102
RTVSPropertyOp16
 70
     1
102
RTVSPropertyOp17
 70
     1
102
RTVSPropertyOp18
 70
     1
102
RTVSPropertyOp19
 70
     1
102
RTVSPropertyOp20
 70
     1
102
RTVSPropertyOp21
 70
     1
102
RTVSPropertyOp22
 70
     1
102
RTVSPropertyOp23
 70
     1
102
RTVSPropertyOp24
 70
     1
102
RTVSPropertyOp25
 70
     1
102
RTVSPropertyOp26
 70
     1
102
RTVSPropertyOp27
 70
     1
102
RTVSPropertyOp28
 70
     1
102
RTVSPropertyOp29
 70
     1
102
RTVSPropertyOp30
 70
     1
102
RTVSPropertyOp31
 70
     1
102
RTVSPropertyOp32
 70
     1
102
RTVSPropertyOp33
 70
     1
102
RTVSPropertyOp34
 70
     1
102
RTVSPropertyOp35
 70
     1
102
RTVSPropertyOp36
 70
     1
102
RTVSPropertyOp37
 70
     1
102
RTVSPropertyOp38
 70
     1
102
RTVSPropertyOp39
 70
     1
102
RTVSPropertyOp40
 70
     1
102
RTVSPropertyOp41
 70
     1
102
RTVSPropertyOp42
 70
     1
102
RTVSPropertyOp43
 70
     1
102
RTVSPropertyOp44
 70
     1
102
RTVSPropertyOp45
 70
     1
102
RTVSPropertyOp46
 70
     1
102
RTVSPropertyOp47
 70
     1
102
RTVSPropertyOp48
 70
     1
102
RTVSPropertyOp49
 70
     1
102
RTVSPropertyOp50
 70
     1
102
RTVSPropertyOp51
 70
     0
102
RTVSPropertyOp52
 70
     0
102
RTVSPropertyOp53
 70
     1
102
RTVSPropertyOp54
 70
     1
102
RTVSPropertyOp55
 70
     1
102
RTVSPropertyOp56
 70
     1
102
RTVSPropertyOp57
 70
     1
102
RTVSPropertyOp58
 70
     1
102
RTVSPropertyOp59
 70
     1
102
RTVSPropertyOp60
 70
     1
102
RTVSPropertyOp61
 70
     1
102
RTVSPropertyOp62
 70
     1
  0
XRECORD
  5
680
102
{ACAD_REACTORS
330
67F
102
}
330
67F
100
AcDbXrecord
280
     1
102
RTVSPost2010Prop28
280
     0
102
RTVSPost2010PropOp28
 70
     1
102
RTVSPost2010Prop29
280
     1
102
RTVSPost2010PropOp29
 70
     1
102
RTVSPost2010Prop30
280
     1
102
RTVSPost2010PropOp30
 70
     1
102
RTVSPost2010Prop31
280
     0
102
RTVSPost2010PropOp31
 70
     1
102
RTVSPost2010Prop32
280
     0
102
RTVSPost2010PropOp32
 70
     1
102
RTVSPost2010Prop33
280
     0
102
RTVSPost2010PropOp33
 70
     1
102
RTVSPost2010Prop34
280
     0
102
RTVSPost2010PropOp34
 70
     1
102
RTVSPost2010Prop35
280
     0
102
RTVSPost2010PropOp35
 70
     1
102
RTVSPost2010Prop36
280
     0
102
RTVSPost2010PropOp36
 70
     1
102
RTVSPost2010Prop37
 90
       50
102
RTVSPost2010PropOp37
 70
     1
102
RTVSPost2010Prop38
140
0.0
102
RTVSPost2010PropOp38
 70
     1
102
RTVSPost2010Prop39
140
1.0
102
RTVSPost2010PropOp39
 70
     1
102
RTVSPost2010Prop40
 90
        0
102
RTVSPost2010PropOp40
 70
     1
102
RTVSPost2010Prop41ColorIndex
 90
       18
102
RTVSPost2010Prop41ColorRGB
 90
        0
102
RTVSPost2010PropOp41
 70
     1
102
RTVSPost2010Prop42
 90
       50
102
RTVSPost2010PropOp42
 70
     1
102
RTVSPost2010Prop43
 90
        3
102
RTVSPost2010PropOp43
 70
     1
102
RTVSPost2010Prop44ColorIndex
 90
        5
102
RTVSPost2010Prop44ColorRGB
 90
      255
102
RTVSPost2010PropOp44
 70
     1
102
RTVSPost2010Prop45
280
     0
102
RTVSPost2010PropOp45
 70
     1
102
RTVSPost2010Prop46
 90
       50
102
RTVSPost2010PropOp46
 70
     1
102
RTVSPost2010Prop47
 90
       50
102
RTVSPost2010PropOp47
 70
     1
102
RTVSPost2010Prop48
 90
       50
102
RTVSPost2010PropOp48
 70
     1
102
RTVSPost2010Prop49
280
     0
102
RTVSPost2010PropOp49
 70
     1
102
RTVSPost2010Prop50
 90
       50
102
RTVSPost2010PropOp50
 70
     1
102
RTVSPost2010Prop51ColorIndex
 90
      256
102
RTVSPost2010Prop51ColorRGB
 90
-16777216
102
RTVSPost2010PropOp51
 70
     0
102
RTVSPost2010Prop52
140
1.0
102
RTVSPost2010PropOp52
 70
     0
102
RTVSPost2010Prop53
 90
        2
102
RTVSPost2010PropOp53
 70
     1
102
RTVSPost2010Prop54
  1
strokes_ogs.tif
102
RTVSPost2010PropOp54
 70
     1
102
RTVSPost2010Prop55
280
     0
102
RTVSPost2010PropOp55
 70
     1
102
RTVSPost2010Prop56
140
1.0
102
RTVSPost2010PropOp56
 70
     1
102
RTVSPost2010Prop57
140
1.0
102
RTVSPost2010PropOp57
 70
     1
102
RTVSPropertyOp0
 70
     1
102
RTVSPropertyOp1
 70
     1
102
RTVSPropertyOp2
 70
     1
102
RTVSPropertyOp3
 70
     1
102
RTVSPropertyOp4
 70
     1
102
RTVSPropertyOp5
 70
     1
102
RTVSPropertyOp6
 70
     1
102
RTVSPropertyOp7
 70
     1
102
RTVSPropertyOp8
 70
     1
102
RTVSPropertyOp9
 70
     1
102
RTVSPropertyOp10
 70
     1
102
RTVSPropertyOp11
 70
     1
102
RTVSPropertyOp12
 70
     1
102
RTVSPropertyOp13
 70
     1
102
RTVSPropertyOp14
 70
     1
102
RTVSPropertyOp15
 70
     1
102
RTVSPropertyOp16
 70
     1
102
RTVSPropertyOp17
 70
     1
102
RTVSPropertyOp18
 70
     1
102
RTVSPropertyOp19
 70
     1
102
RTVSPropertyOp20
 70
     1
102
RTVSPropertyOp21
 70
     1
102
RTVSPropertyOp22
 70
     1
102
RTVSPropertyOp23
 70
     1
102
RTVSPropertyOp24
 70
     1
102
RTVSPropertyOp25
 70
     1
102
RTVSPropertyOp26
 70
     1
102
RTVSPropertyOp27
 70
     1
102
RTVSPropertyOp28
 70
     1
102
RTVSPropertyOp29
 70
     1
102
RTVSPropertyOp30
 70
     1
102
RTVSPropertyOp31
 70
     1
102
RTVSPropertyOp32
 70
     1
102
RTVSPropertyOp33
 70
     1
102
RTVSPropertyOp34
 70
     1
102
RTVSPropertyOp35
 70
     1
102
RTVSPropertyOp36
 70
     1
102
RTVSPropertyOp37
 70
     1
102
RTVSPropertyOp38
 70
     1
102
RTVSPropertyOp39
 70
     1
102
RTVSPropertyOp40
 70
     1
102
RTVSPropertyOp41
 70
     1
102
RTVSPropertyOp42
 70
     1
102
RTVSPropertyOp43
 70
     1
102
RTVSPropertyOp44
 70
     1
102
RTVSPropertyOp45
 70
     1
102
RTVSPropertyOp46
 70
     1
102
RTVSPropertyOp47
 70
     1
102
RTVSPropertyOp48
 70
     1
102
RTVSPropertyOp49
 70
     1
102
RTVSPropertyOp50
 70
     1
102
RTVSPropertyOp51
 70
     0
102
RTVSPropertyOp52
 70
     0
102
RTVSPropertyOp53
 70
     1
102
RTVSPropertyOp54
 70
     1
102
RTVSPropertyOp55
 70
     1
102
RTVSPropertyOp56
 70
     1
102
RTVSPropertyOp57
 70
     1
102
RTVSPropertyOp58
 70
     1
102
RTVSPropertyOp59
 70
     1
102
RTVSPropertyOp60
 70
     1
102
RTVSPropertyOp61
 70
     1
102
RTVSPropertyOp62
 70
     1
  0
XRECORD
  5
69A
102
{ACAD_REACTORS
330
699
102
}
330
699
100
AcDbXrecord
280
     1
102
RTVSPost2010Prop28
280
     0
102
RTVSPost2010PropOp28
 70
     1
102
RTVSPost2010Prop29
280
     1
102
RTVSPost2010PropOp29
 70
     1
102
RTVSPost2010Prop30
280
     1
102
RTVSPost2010PropOp30
 70
     1
102
RTVSPost2010Prop31
280
     0
102
RTVSPost2010PropOp31
 70
     1
102
RTVSPost2010Prop32
280
     0
102
RTVSPost2010PropOp32
 70
     1
102
RTVSPost2010Prop33
280
     0
102
RTVSPost2010PropOp33
 70
     1
102
RTVSPost2010Prop34
280
     0
102
RTVSPost2010PropOp34
 70
     1
102
RTVSPost2010Prop35
280
     0
102
RTVSPost2010PropOp35
 70
     1
102
RTVSPost2010Prop36
280
     0
102
RTVSPost2010PropOp36
 70
     1
102
RTVSPost2010Prop37
 90
       50
102
RTVSPost2010PropOp37
 70
     0
102
RTVSPost2010Prop38
140
0.0
102
RTVSPost2010PropOp38
 70
     0
102
RTVSPost2010Prop39
140
1.0
102
RTVSPost2010PropOp39
 70
     0
102
RTVSPost2010Prop40
 90
        0
102
RTVSPost2010PropOp40
 70
     0
102
RTVSPost2010Prop41ColorIndex
 90
       18
102
RTVSPost2010Prop41ColorRGB
 90
        0
102
RTVSPost2010PropOp41
 70
     0
102
RTVSPost2010Prop42
 90
       50
102
RTVSPost2010PropOp42
 70
     0
102
RTVSPost2010Prop43
 90
        3
102
RTVSPost2010PropOp43
 70
     0
102
RTVSPost2010Prop44ColorIndex
 90
        5
102
RTVSPost2010Prop44ColorRGB
 90
      255
102
RTVSPost2010PropOp44
 70
     0
102
RTVSPost2010Prop45
280
     0
102
RTVSPost2010PropOp45
 70
     1
102
RTVSPost2010Prop46
 90
       50
102
RTVSPost2010PropOp46
 70
     0
102
RTVSPost2010Prop47
 90
       50
102
RTVSPost2010PropOp47
 70
     0
102
RTVSPost2010Prop48
 90
       50
102
RTVSPost2010PropOp48
 70
     0
102
RTVSPost2010Prop49
280
     0
102
RTVSPost2010PropOp49
 70
     1
102
RTVSPost2010Prop50
 90
       50
102
RTVSPost2010PropOp50
 70
     0
102
RTVSPost2010Prop51ColorIndex
 90
      256
102
RTVSPost2010Prop51ColorRGB
 90
-16777216
102
RTVSPost2010PropOp51
 70
     0
102
RTVSPost2010Prop52
140
1.0
102
RTVSPost2010PropOp52
 70
     0
102
RTVSPost2010Prop53
 90
        2
102
RTVSPost2010PropOp53
 70
     0
102
RTVSPost2010Prop54
  1
strokes_ogs.tif
102
RTVSPost2010PropOp54
 70
     0
102
RTVSPost2010Prop55
280
     0
102
RTVSPost2010PropOp55
 70
     1
102
RTVSPost2010Prop56
140
1.0
102
RTVSPost2010PropOp56
 70
     0
102
RTVSPost2010Prop57
140
1.0
102
RTVSPost2010PropOp57
 70
     0
102
RTVSPropertyOp0
 70
     0
102
RTVSPropertyOp1
 70
     0
102
RTVSPropertyOp2
 70
     0
102
RTVSPropertyOp3
 70
     0
102
RTVSPropertyOp4
 70
     0
102
RTVSPropertyOp5
 70
     0
102
RTVSPropertyOp6
 70
     0
102
RTVSPropertyOp7
 70
     0
102
RTVSPropertyOp8
 70
     0
102
RTVSPropertyOp9
 70
     0
102
RTVSPropertyOp10
 70
     0
102
RTVSPropertyOp11
 70
     0
102
RTVSPropertyOp12
 70
     0
102
RTVSPropertyOp13
 70
     0
102
RTVSPropertyOp14
 70
     2
102
RTVSPropertyOp15
 70
     0
102
RTVSPropertyOp16
 70
     0
102
RTVSPropertyOp17
 70
     0
102
RTVSPropertyOp18
 70
     0
102
RTVSPropertyOp19
 70
     0
102
RTVSPropertyOp20
 70
     0
102
RTVSPropertyOp21
 70
     0
102
RTVSPropertyOp22
 70
     0
102
RTVSPropertyOp23
 70
     0
102
RTVSPropertyOp24
 70
     0
102
RTVSPropertyOp25
 70
     0
102
RTVSPropertyOp26
 70
     0
102
RTVSPropertyOp27
 70
     0
102
RTVSPropertyOp28
 70
     1
102
RTVSPropertyOp29
 70
     1
102
RTVSPropertyOp30
 70
     1
102
RTVSPropertyOp31
 70
     1
102
RTVSPropertyOp32
 70
     1
102
RTVSPropertyOp33
 70
     1
102
RTVSPropertyOp34
 70
     1
102
RTVSPropertyOp35
 70
     1
102
RTVSPropertyOp36
 70
     1
102
RTVSPropertyOp37
 70
     0
102
RTVSPropertyOp38
 70
     0
102
RTVSPropertyOp39
 70
     0
102
RTVSPropertyOp40
 70
     0
102
RTVSPropertyOp41
 70
     0
102
RTVSPropertyOp42
 70
     0
102
RTVSPropertyOp43
 70
     0
102
RTVSPropertyOp44
 70
     0
102
RTVSPropertyOp45
 70
     1
102
RTVSPropertyOp46
 70
     0
102
RTVSPropertyOp47
 70
     0
102
RTVSPropertyOp48
 70
     0
102
RTVSPropertyOp49
 70
     1
102
RTVSPropertyOp50
 70
     0
102
RTVSPropertyOp51
 70
     0
102
RTVSPropertyOp52
 70
     0
102
RTVSPropertyOp53
 70
     0
102
RTVSPropertyOp54
 70
     0
102
RTVSPropertyOp55
 70
     1
102
RTVSPropertyOp56
 70
     0
102
RTVSPropertyOp57
 70
     0
102
RTVSPropertyOp58
 70
     0
102
RTVSPropertyOp59
 70
     0
102
RTVSPropertyOp60
 70
     0
102
RTVSPropertyOp61
 70
     0
102
RTVSPropertyOp62
 70
     0
  0
XRECORD
  5
688
102
{ACAD_REACTORS
330
687
102
}
330
687
100
AcDbXrecord
280
     1
102
RTVSPost2010Prop28
280
     0
102
RTVSPost2010PropOp28
 70
     1
102
RTVSPost2010Prop29
280
     1
102
RTVSPost2010PropOp29
 70
     1
102
RTVSPost2010Prop30
280
     1
102
RTVSPost2010PropOp30
 70
     1
102
RTVSPost2010Prop31
280
     0
102
RTVSPost2010PropOp31
 70
     1
102
RTVSPost2010Prop32
280
     0
102
RTVSPost2010PropOp32
 70
     1
102
RTVSPost2010Prop33
280
     0
102
RTVSPost2010PropOp33
 70
     1
102
RTVSPost2010Prop34
280
     0
102
RTVSPost2010PropOp34
 70
     1
102
RTVSPost2010Prop35
280
     0
102
RTVSPost2010PropOp35
 70
     1
102
RTVSPost2010Prop36
280
     0
102
RTVSPost2010PropOp36
 70
     1
102
RTVSPost2010Prop37
 90
       50
102
RTVSPost2010PropOp37
 70
     1
102
RTVSPost2010Prop38
140
0.0
102
RTVSPost2010PropOp38
 70
     1
102
RTVSPost2010Prop39
140
1.0
102
RTVSPost2010PropOp39
 70
     1
102
RTVSPost2010Prop40
 90
        0
102
RTVSPost2010PropOp40
 70
     1
102
RTVSPost2010Prop41ColorIndex
 90
       18
102
RTVSPost2010Prop41ColorRGB
 90
        0
102
RTVSPost2010PropOp41
 70
     1
102
RTVSPost2010Prop42
 90
       50
102
RTVSPost2010PropOp42
 70
     1
102
RTVSPost2010Prop43
 90
        3
102
RTVSPost2010PropOp43
 70
     1
102
RTVSPost2010Prop44ColorIndex
 90
        5
102
RTVSPost2010Prop44ColorRGB
 90
      255
102
RTVSPost2010PropOp44
 70
     1
102
RTVSPost2010Prop45
280
     0
102
RTVSPost2010PropOp45
 70
     1
102
RTVSPost2010Prop46
 90
       50
102
RTVSPost2010PropOp46
 70
     1
102
RTVSPost2010Prop47
 90
       50
102
RTVSPost2010PropOp47
 70
     1
102
RTVSPost2010Prop48
 90
       50
102
RTVSPost2010PropOp48
 70
     1
102
RTVSPost2010Prop49
280
     0
102
RTVSPost2010PropOp49
 70
     1
102
RTVSPost2010Prop50
 90
       50
102
RTVSPost2010PropOp50
 70
     1
102
RTVSPost2010Prop51ColorIndex
 90
      256
102
RTVSPost2010Prop51ColorRGB
 90
-16777216
102
RTVSPost2010PropOp51
 70
     0
102
RTVSPost2010Prop52
140
1.0
102
RTVSPost2010PropOp52
 70
     0
102
RTVSPost2010Prop53
 90
        2
102
RTVSPost2010PropOp53
 70
     1
102
RTVSPost2010Prop54
  1
strokes_ogs.tif
102
RTVSPost2010PropOp54
 70
     1
102
RTVSPost2010Prop55
280
     0
102
RTVSPost2010PropOp55
 70
     1
102
RTVSPost2010Prop56
140
1.0
102
RTVSPost2010PropOp56
 70
     1
102
RTVSPost2010Prop57
140
1.0
102
RTVSPost2010PropOp57
 70
     1
102
RTVSPropertyOp0
 70
     1
102
RTVSPropertyOp1
 70
     1
102
RTVSPropertyOp2
 70
     1
102
RTVSPropertyOp3
 70
     1
102
RTVSPropertyOp4
 70
     1
102
RTVSPropertyOp5
 70
     1
102
RTVSPropertyOp6
 70
     1
102
RTVSPropertyOp7
 70
     1
102
RTVSPropertyOp8
 70
     1
102
RTVSPropertyOp9
 70
     1
102
RTVSPropertyOp10
 70
     1
102
RTVSPropertyOp11
 70
     1
102
RTVSPropertyOp12
 70
     1
102
RTVSPropertyOp13
 70
     1
102
RTVSPropertyOp14
 70
     1
102
RTVSPropertyOp15
 70
     1
102
RTVSPropertyOp16
 70
     1
102
RTVSPropertyOp17
 70
     1
102
RTVSPropertyOp18
 70
     1
102
RTVSPropertyOp19
 70
     1
102
RTVSPropertyOp20
 70
     1
102
RTVSPropertyOp21
 70
     1
102
RTVSPropertyOp22
 70
     1
102
RTVSPropertyOp23
 70
     1
102
RTVSPropertyOp24
 70
     1
102
RTVSPropertyOp25
 70
     1
102
RTVSPropertyOp26
 70
     1
102
RTVSPropertyOp27
 70
     1
102
RTVSPropertyOp28
 70
     1
102
RTVSPropertyOp29
 70
     1
102
RTVSPropertyOp30
 70
     1
102
RTVSPropertyOp31
 70
     1
102
RTVSPropertyOp32
 70
     1
102
RTVSPropertyOp33
 70
     1
102
RTVSPropertyOp34
 70
     1
102
RTVSPropertyOp35
 70
     1
102
RTVSPropertyOp36
 70
     1
102
RTVSPropertyOp37
 70
     1
102
RTVSPropertyOp38
 70
     1
102
RTVSPropertyOp39
 70
     1
102
RTVSPropertyOp40
 70
     1
102
RTVSPropertyOp41
 70
     1
102
RTVSPropertyOp42
 70
     1
102
RTVSPropertyOp43
 70
     1
102
RTVSPropertyOp44
 70
     1
102
RTVSPropertyOp45
 70
     1
102
RTVSPropertyOp46
 70
     1
102
RTVSPropertyOp47
 70
     1
102
RTVSPropertyOp48
 70
     1
102
RTVSPropertyOp49
 70
     1
102
RTVSPropertyOp50
 70
     1
102
RTVSPropertyOp51
 70
     0
102
RTVSPropertyOp52
 70
     0
102
RTVSPropertyOp53
 70
     1
102
RTVSPropertyOp54
 70
     1
102
RTVSPropertyOp55
 70
     1
102
RTVSPropertyOp56
 70
     1
102
RTVSPropertyOp57
 70
     1
102
RTVSPropertyOp58
 70
     1
102
RTVSPropertyOp59
 70
     1
102
RTVSPropertyOp60
 70
     1
102
RTVSPropertyOp61
 70
     1
102
RTVSPropertyOp62
 70
     1
  0
XRECORD
  5
66C
102
{ACAD_REACTORS
330
66B
102
}
330
66B
100
AcDbXrecord
280
     1
102
RTVSPost2010Prop28
280
     0
102
RTVSPost2010PropOp28
 70
     1
102
RTVSPost2010Prop29
280
     1
102
RTVSPost2010PropOp29
 70
     1
102
RTVSPost2010Prop30
280
     1
102
RTVSPost2010PropOp30
 70
     1
102
RTVSPost2010Prop31
280
     0
102
RTVSPost2010PropOp31
 70
     1
102
RTVSPost2010Prop32
280
     0
102
RTVSPost2010PropOp32
 70
     1
102
RTVSPost2010Prop33
280
     0
102
RTVSPost2010PropOp33
 70
     1
102
RTVSPost2010Prop34
280
     0
102
RTVSPost2010PropOp34
 70
     1
102
RTVSPost2010Prop35
280
     0
102
RTVSPost2010PropOp35
 70
     1
102
RTVSPost2010Prop36
280
     0
102
RTVSPost2010PropOp36
 70
     1
102
RTVSPost2010Prop37
 90
       50
102
RTVSPost2010PropOp37
 70
     1
102
RTVSPost2010Prop38
140
0.0
102
RTVSPost2010PropOp38
 70
     1
102
RTVSPost2010Prop39
140
1.0
102
RTVSPost2010PropOp39
 70
     1
102
RTVSPost2010Prop40
 90
        0
102
RTVSPost2010PropOp40
 70
     1
102
RTVSPost2010Prop41ColorIndex
 90
       18
102
RTVSPost2010Prop41ColorRGB
 90
        0
102
RTVSPost2010PropOp41
 70
     1
102
RTVSPost2010Prop42
 90
       50
102
RTVSPost2010PropOp42
 70
     1
102
RTVSPost2010Prop43
 90
        3
102
RTVSPost2010PropOp43
 70
     1
102
RTVSPost2010Prop44ColorIndex
 90
        5
102
RTVSPost2010Prop44ColorRGB
 90
      255
102
RTVSPost2010PropOp44
 70
     1
102
RTVSPost2010Prop45
280
     0
102
RTVSPost2010PropOp45
 70
     1
102
RTVSPost2010Prop46
 90
       50
102
RTVSPost2010PropOp46
 70
     1
102
RTVSPost2010Prop47
 90
       50
102
RTVSPost2010PropOp47
 70
     1
102
RTVSPost2010Prop48
 90
       50
102
RTVSPost2010PropOp48
 70
     1
102
RTVSPost2010Prop49
280
     0
102
RTVSPost2010PropOp49
 70
     1
102
RTVSPost2010Prop50
 90
       50
102
RTVSPost2010PropOp50
 70
     1
102
RTVSPost2010Prop51ColorIndex
 90
      256
102
RTVSPost2010Prop51ColorRGB
 90
-16777216
102
RTVSPost2010PropOp51
 70
     0
102
RTVSPost2010Prop52
140
1.0
102
RTVSPost2010PropOp52
 70
     0
102
RTVSPost2010Prop53
 90
        2
102
RTVSPost2010PropOp53
 70
     1
102
RTVSPost2010Prop54
  1
strokes_ogs.tif
102
RTVSPost2010PropOp54
 70
     1
102
RTVSPost2010Prop55
280
     0
102
RTVSPost2010PropOp55
 70
     1
102
RTVSPost2010Prop56
140
1.0
102
RTVSPost2010PropOp56
 70
     1
102
RTVSPost2010Prop57
140
1.0
102
RTVSPost2010PropOp57
 70
     1
102
RTVSPropertyOp0
 70
     1
102
RTVSPropertyOp1
 70
     1
102
RTVSPropertyOp2
 70
     1
102
RTVSPropertyOp3
 70
     1
102
RTVSPropertyOp4
 70
     1
102
RTVSPropertyOp5
 70
     1
102
RTVSPropertyOp6
 70
     1
102
RTVSPropertyOp7
 70
     1
102
RTVSPropertyOp8
 70
     1
102
RTVSPropertyOp9
 70
     1
102
RTVSPropertyOp10
 70
     1
102
RTVSPropertyOp11
 70
     1
102
RTVSPropertyOp12
 70
     1
102
RTVSPropertyOp13
 70
     1
102
RTVSPropertyOp14
 70
     1
102
RTVSPropertyOp15
 70
     1
102
RTVSPropertyOp16
 70
     1
102
RTVSPropertyOp17
 70
     1
102
RTVSPropertyOp18
 70
     1
102
RTVSPropertyOp19
 70
     1
102
RTVSPropertyOp20
 70
     1
102
RTVSPropertyOp21
 70
     1
102
RTVSPropertyOp22
 70
     1
102
RTVSPropertyOp23
 70
     1
102
RTVSPropertyOp24
 70
     1
102
RTVSPropertyOp25
 70
     1
102
RTVSPropertyOp26
 70
     1
102
RTVSPropertyOp27
 70
     1
102
RTVSPropertyOp28
 70
     1
102
RTVSPropertyOp29
 70
     1
102
RTVSPropertyOp30
 70
     1
102
RTVSPropertyOp31
 70
     1
102
RTVSPropertyOp32
 70
     1
102
RTVSPropertyOp33
 70
     1
102
RTVSPropertyOp34
 70
     1
102
RTVSPropertyOp35
 70
     1
102
RTVSPropertyOp36
 70
     1
102
RTVSPropertyOp37
 70
     1
102
RTVSPropertyOp38
 70
     1
102
RTVSPropertyOp39
 70
     1
102
RTVSPropertyOp40
 70
     1
102
RTVSPropertyOp41
 70
     1
102
RTVSPropertyOp42
 70
     1
102
RTVSPropertyOp43
 70
     1
102
RTVSPropertyOp44
 70
     1
102
RTVSPropertyOp45
 70
     1
102
RTVSPropertyOp46
 70
     1
102
RTVSPropertyOp47
 70
     1
102
RTVSPropertyOp48
 70
     1
102
RTVSPropertyOp49
 70
     1
102
RTVSPropertyOp50
 70
     1
102
RTVSPropertyOp51
 70
     0
102
RTVSPropertyOp52
 70
     0
102
RTVSPropertyOp53
 70
     1
102
RTVSPropertyOp54
 70
     1
102
RTVSPropertyOp55
 70
     1
102
RTVSPropertyOp56
 70
     1
102
RTVSPropertyOp57
 70
     1
102
RTVSPropertyOp58
 70
     1
102
RTVSPropertyOp59
 70
     1
102
RTVSPropertyOp60
 70
     1
102
RTVSPropertyOp61
 70
     1
102
RTVSPropertyOp62
 70
     1
  0
XRECORD
  5
66E
102
{ACAD_REACTORS
330
66D
102
}
330
66D
100
AcDbXrecord
280
     1
102
RTVSPost2010Prop28
280
     0
102
RTVSPost2010PropOp28
 70
     1
102
RTVSPost2010Prop29
280
     1
102
RTVSPost2010PropOp29
 70
     1
102
RTVSPost2010Prop30
280
     1
102
RTVSPost2010PropOp30
 70
     1
102
RTVSPost2010Prop31
280
     0
102
RTVSPost2010PropOp31
 70
     1
102
RTVSPost2010Prop32
280
     0
102
RTVSPost2010PropOp32
 70
     1
102
RTVSPost2010Prop33
280
     0
102
RTVSPost2010PropOp33
 70
     1
102
RTVSPost2010Prop34
280
     0
102
RTVSPost2010PropOp34
 70
     1
102
RTVSPost2010Prop35
280
     0
102
RTVSPost2010PropOp35
 70
     1
102
RTVSPost2010Prop36
280
     0
102
RTVSPost2010PropOp36
 70
     1
102
RTVSPost2010Prop37
 90
       50
102
RTVSPost2010PropOp37
 70
     1
102
RTVSPost2010Prop38
140
0.0
102
RTVSPost2010PropOp38
 70
     1
102
RTVSPost2010Prop39
140
1.0
102
RTVSPost2010PropOp39
 70
     1
102
RTVSPost2010Prop40
 90
        0
102
RTVSPost2010PropOp40
 70
     1
102
RTVSPost2010Prop41ColorIndex
 90
       18
102
RTVSPost2010Prop41ColorRGB
 90
        0
102
RTVSPost2010PropOp41
 70
     1
102
RTVSPost2010Prop42
 90
       50
102
RTVSPost2010PropOp42
 70
     1
102
RTVSPost2010Prop43
 90
        3
102
RTVSPost2010PropOp43
 70
     1
102
RTVSPost2010Prop44ColorIndex
 90
        5
102
RTVSPost2010Prop44ColorRGB
 90
      255
102
RTVSPost2010PropOp44
 70
     1
102
RTVSPost2010Prop45
280
     0
102
RTVSPost2010PropOp45
 70
     1
102
RTVSPost2010Prop46
 90
       50
102
RTVSPost2010PropOp46
 70
     1
102
RTVSPost2010Prop47
 90
       50
102
RTVSPost2010PropOp47
 70
     1
102
RTVSPost2010Prop48
 90
       50
102
RTVSPost2010PropOp48
 70
     1
102
RTVSPost2010Prop49
280
     0
102
RTVSPost2010PropOp49
 70
     1
102
RTVSPost2010Prop50
 90
       50
102
RTVSPost2010PropOp50
 70
     1
102
RTVSPost2010Prop51ColorIndex
 90
      256
102
RTVSPost2010Prop51ColorRGB
 90
-16777216
102
RTVSPost2010PropOp51
 70
     0
102
RTVSPost2010Prop52
140
1.0
102
RTVSPost2010PropOp52
 70
     0
102
RTVSPost2010Prop53
 90
        2
102
RTVSPost2010PropOp53
 70
     1
102
RTVSPost2010Prop54
  1
strokes_ogs.tif
102
RTVSPost2010PropOp54
 70
     1
102
RTVSPost2010Prop55
280
     0
102
RTVSPost2010PropOp55
 70
     1
102
RTVSPost2010Prop56
140
1.0
102
RTVSPost2010PropOp56
 70
     1
102
RTVSPost2010Prop57
140
1.0
102
RTVSPost2010PropOp57
 70
     1
102
RTVSPropertyOp0
 70
     1
102
RTVSPropertyOp1
 70
     1
102
RTVSPropertyOp2
 70
     1
102
RTVSPropertyOp3
 70
     1
102
RTVSPropertyOp4
 70
     1
102
RTVSPropertyOp5
 70
     1
102
RTVSPropertyOp6
 70
     1
102
RTVSPropertyOp7
 70
     1
102
RTVSPropertyOp8
 70
     1
102
RTVSPropertyOp9
 70
     1
102
RTVSPropertyOp10
 70
     1
102
RTVSPropertyOp11
 70
     1
102
RTVSPropertyOp12
 70
     1
102
RTVSPropertyOp13
 70
     1
102
RTVSPropertyOp14
 70
     1
102
RTVSPropertyOp15
 70
     1
102
RTVSPropertyOp16
 70
     1
102
RTVSPropertyOp17
 70
     1
102
RTVSPropertyOp18
 70
     1
102
RTVSPropertyOp19
 70
     1
102
RTVSPropertyOp20
 70
     1
102
RTVSPropertyOp21
 70
     1
102
RTVSPropertyOp22
 70
     1
102
RTVSPropertyOp23
 70
     1
102
RTVSPropertyOp24
 70
     1
102
RTVSPropertyOp25
 70
     1
102
RTVSPropertyOp26
 70
     1
102
RTVSPropertyOp27
 70
     1
102
RTVSPropertyOp28
 70
     1
102
RTVSPropertyOp29
 70
     1
102
RTVSPropertyOp30
 70
     1
102
RTVSPropertyOp31
 70
     1
102
RTVSPropertyOp32
 70
     1
102
RTVSPropertyOp33
 70
     1
102
RTVSPropertyOp34
 70
     1
102
RTVSPropertyOp35
 70
     1
102
RTVSPropertyOp36
 70
     1
102
RTVSPropertyOp37
 70
     1
102
RTVSPropertyOp38
 70
     1
102
RTVSPropertyOp39
 70
     1
102
RTVSPropertyOp40
 70
     1
102
RTVSPropertyOp41
 70
     1
102
RTVSPropertyOp42
 70
     1
102
RTVSPropertyOp43
 70
     1
102
RTVSPropertyOp44
 70
     1
102
RTVSPropertyOp45
 70
     1
102
RTVSPropertyOp46
 70
     1
102
RTVSPropertyOp47
 70
     1
102
RTVSPropertyOp48
 70
     1
102
RTVSPropertyOp49
 70
     1
102
RTVSPropertyOp50
 70
     1
102
RTVSPropertyOp51
 70
     0
102
RTVSPropertyOp52
 70
     0
102
RTVSPropertyOp53
 70
     1
102
RTVSPropertyOp54
 70
     1
102
RTVSPropertyOp55
 70
     1
102
RTVSPropertyOp56
 70
     1
102
RTVSPropertyOp57
 70
     1
102
RTVSPropertyOp58
 70
     1
102
RTVSPropertyOp59
 70
     1
102
RTVSPropertyOp60
 70
     1
102
RTVSPropertyOp61
 70
     1
102
RTVSPropertyOp62
 70
     1
  0
XRECORD
  5
670
102
{ACAD_REACTORS
330
66F
102
}
330
66F
100
AcDbXrecord
280
     1
102
RTVSPost2010Prop28
280
     0
102
RTVSPost2010PropOp28
 70
     1
102
RTVSPost2010Prop29
280
     1
102
RTVSPost2010PropOp29
 70
     1
102
RTVSPost2010Prop30
280
     1
102
RTVSPost2010PropOp30
 70
     1
102
RTVSPost2010Prop31
280
     0
102
RTVSPost2010PropOp31
 70
     1
102
RTVSPost2010Prop32
280
     0
102
RTVSPost2010PropOp32
 70
     1
102
RTVSPost2010Prop33
280
     0
102
RTVSPost2010PropOp33
 70
     1
102
RTVSPost2010Prop34
280
     0
102
RTVSPost2010PropOp34
 70
     1
102
RTVSPost2010Prop35
280
     0
102
RTVSPost2010PropOp35
 70
     1
102
RTVSPost2010Prop36
280
     0
102
RTVSPost2010PropOp36
 70
     1
102
RTVSPost2010Prop37
 90
       50
102
RTVSPost2010PropOp37
 70
     1
102
RTVSPost2010Prop38
140
0.0
102
RTVSPost2010PropOp38
 70
     1
102
RTVSPost2010Prop39
140
1.0
102
RTVSPost2010PropOp39
 70
     1
102
RTVSPost2010Prop40
 90
        0
102
RTVSPost2010PropOp40
 70
     1
102
RTVSPost2010Prop41ColorIndex
 90
       18
102
RTVSPost2010Prop41ColorRGB
 90
        0
102
RTVSPost2010PropOp41
 70
     1
102
RTVSPost2010Prop42
 90
       50
102
RTVSPost2010PropOp42
 70
     1
102
RTVSPost2010Prop43
 90
        3
102
RTVSPost2010PropOp43
 70
     1
102
RTVSPost2010Prop44ColorIndex
 90
        5
102
RTVSPost2010Prop44ColorRGB
 90
      255
102
RTVSPost2010PropOp44
 70
     1
102
RTVSPost2010Prop45
280
     0
102
RTVSPost2010PropOp45
 70
     1
102
RTVSPost2010Prop46
 90
       50
102
RTVSPost2010PropOp46
 70
     1
102
RTVSPost2010Prop47
 90
       50
102
RTVSPost2010PropOp47
 70
     1
102
RTVSPost2010Prop48
 90
       50
102
RTVSPost2010PropOp48
 70
     1
102
RTVSPost2010Prop49
280
     0
102
RTVSPost2010PropOp49
 70
     1
102
RTVSPost2010Prop50
 90
       50
102
RTVSPost2010PropOp50
 70
     1
102
RTVSPost2010Prop51ColorIndex
 90
      256
102
RTVSPost2010Prop51ColorRGB
 90
-16777216
102
RTVSPost2010PropOp51
 70
     0
102
RTVSPost2010Prop52
140
1.0
102
RTVSPost2010PropOp52
 70
     0
102
RTVSPost2010Prop53
 90
        2
102
RTVSPost2010PropOp53
 70
     1
102
RTVSPost2010Prop54
  1
strokes_ogs.tif
102
RTVSPost2010PropOp54
 70
     1
102
RTVSPost2010Prop55
280
     0
102
RTVSPost2010PropOp55
 70
     1
102
RTVSPost2010Prop56
140
1.0
102
RTVSPost2010PropOp56
 70
     1
102
RTVSPost2010Prop57
140
1.0
102
RTVSPost2010PropOp57
 70
     1
102
RTVSPropertyOp0
 70
     1
102
RTVSPropertyOp1
 70
     1
102
RTVSPropertyOp2
 70
     1
102
RTVSPropertyOp3
 70
     1
102
RTVSPropertyOp4
 70
     1
102
RTVSPropertyOp5
 70
     1
102
RTVSPropertyOp6
 70
     1
102
RTVSPropertyOp7
 70
     1
102
RTVSPropertyOp8
 70
     1
102
RTVSPropertyOp9
 70
     1
102
RTVSPropertyOp10
 70
     1
102
RTVSPropertyOp11
 70
     1
102
RTVSPropertyOp12
 70
     1
102
RTVSPropertyOp13
 70
     1
102
RTVSPropertyOp14
 70
     1
102
RTVSPropertyOp15
 70
     1
102
RTVSPropertyOp16
 70
     1
102
RTVSPropertyOp17
 70
     1
102
RTVSPropertyOp18
 70
     1
102
RTVSPropertyOp19
 70
     1
102
RTVSPropertyOp20
 70
     1
102
RTVSPropertyOp21
 70
     1
102
RTVSPropertyOp22
 70
     1
102
RTVSPropertyOp23
 70
     1
102
RTVSPropertyOp24
 70
     1
102
RTVSPropertyOp25
 70
     1
102
RTVSPropertyOp26
 70
     1
102
RTVSPropertyOp27
 70
     1
102
RTVSPropertyOp28
 70
     1
102
RTVSPropertyOp29
 70
     1
102
RTVSPropertyOp30
 70
     1
102
RTVSPropertyOp31
 70
     1
102
RTVSPropertyOp32
 70
     1
102
RTVSPropertyOp33
 70
     1
102
RTVSPropertyOp34
 70
     1
102
RTVSPropertyOp35
 70
     1
102
RTVSPropertyOp36
 70
     1
102
RTVSPropertyOp37
 70
     1
102
RTVSPropertyOp38
 70
     1
102
RTVSPropertyOp39
 70
     1
102
RTVSPropertyOp40
 70
     1
102
RTVSPropertyOp41
 70
     1
102
RTVSPropertyOp42
 70
     1
102
RTVSPropertyOp43
 70
     1
102
RTVSPropertyOp44
 70
     1
102
RTVSPropertyOp45
 70
     1
102
RTVSPropertyOp46
 70
     1
102
RTVSPropertyOp47
 70
     1
102
RTVSPropertyOp48
 70
     1
102
RTVSPropertyOp49
 70
     1
102
RTVSPropertyOp50
 70
     1
102
RTVSPropertyOp51
 70
     0
102
RTVSPropertyOp52
 70
     0
102
RTVSPropertyOp53
 70
     1
102
RTVSPropertyOp54
 70
     1
102
RTVSPropertyOp55
 70
     1
102
RTVSPropertyOp56
 70
     1
102
RTVSPropertyOp57
 70
     1
102
RTVSPropertyOp58
 70
     1
102
RTVSPropertyOp59
 70
     1
102
RTVSPropertyOp60
 70
     1
102
RTVSPropertyOp61
 70
     1
102
RTVSPropertyOp62
 70
     1
  0
XRECORD
  5
672
102
{ACAD_REACTORS
330
671
102
}
330
671
100
AcDbXrecord
280
     1
102
RTVSPost2010Prop28
280
     0
102
RTVSPost2010PropOp28
 70
     1
102
RTVSPost2010Prop29
280
     1
102
RTVSPost2010PropOp29
 70
     1
102
RTVSPost2010Prop30
280
     1
102
RTVSPost2010PropOp30
 70
     1
102
RTVSPost2010Prop31
280
     0
102
RTVSPost2010PropOp31
 70
     1
102
RTVSPost2010Prop32
280
     0
102
RTVSPost2010PropOp32
 70
     1
102
RTVSPost2010Prop33
280
     0
102
RTVSPost2010PropOp33
 70
     1
102
RTVSPost2010Prop34
280
     0
102
RTVSPost2010PropOp34
 70
     1
102
RTVSPost2010Prop35
280
     0
102
RTVSPost2010PropOp35
 70
     1
102
RTVSPost2010Prop36
280
     0
102
RTVSPost2010PropOp36
 70
     1
102
RTVSPost2010Prop37
 90
       50
102
RTVSPost2010PropOp37
 70
     1
102
RTVSPost2010Prop38
140
0.0
102
RTVSPost2010PropOp38
 70
     1
102
RTVSPost2010Prop39
140
1.0
102
RTVSPost2010PropOp39
 70
     1
102
RTVSPost2010Prop40
 90
        0
102
RTVSPost2010PropOp40
 70
     1
102
RTVSPost2010Prop41ColorIndex
 90
       18
102
RTVSPost2010Prop41ColorRGB
 90
        0
102
RTVSPost2010PropOp41
 70
     1
102
RTVSPost2010Prop42
 90
       50
102
RTVSPost2010PropOp42
 70
     1
102
RTVSPost2010Prop43
 90
        3
102
RTVSPost2010PropOp43
 70
     1
102
RTVSPost2010Prop44ColorIndex
 90
        5
102
RTVSPost2010Prop44ColorRGB
 90
      255
102
RTVSPost2010PropOp44
 70
     1
102
RTVSPost2010Prop45
280
     0
102
RTVSPost2010PropOp45
 70
     1
102
RTVSPost2010Prop46
 90
       50
102
RTVSPost2010PropOp46
 70
     1
102
RTVSPost2010Prop47
 90
       50
102
RTVSPost2010PropOp47
 70
     1
102
RTVSPost2010Prop48
 90
       50
102
RTVSPost2010PropOp48
 70
     1
102
RTVSPost2010Prop49
280
     0
102
RTVSPost2010PropOp49
 70
     1
102
RTVSPost2010Prop50
 90
       50
102
RTVSPost2010PropOp50
 70
     1
102
RTVSPost2010Prop51ColorIndex
 90
      256
102
RTVSPost2010Prop51ColorRGB
 90
-16777216
102
RTVSPost2010PropOp51
 70
     0
102
RTVSPost2010Prop52
140
1.0
102
RTVSPost2010PropOp52
 70
     0
102
RTVSPost2010Prop53
 90
        2
102
RTVSPost2010PropOp53
 70
     1
102
RTVSPost2010Prop54
  1
strokes_ogs.tif
102
RTVSPost2010PropOp54
 70
     1
102
RTVSPost2010Prop55
280
     0
102
RTVSPost2010PropOp55
 70
     1
102
RTVSPost2010Prop56
140
1.0
102
RTVSPost2010PropOp56
 70
     1
102
RTVSPost2010Prop57
140
1.0
102
RTVSPost2010PropOp57
 70
     1
102
RTVSPropertyOp0
 70
     1
102
RTVSPropertyOp1
 70
     1
102
RTVSPropertyOp2
 70
     1
102
RTVSPropertyOp3
 70
     1
102
RTVSPropertyOp4
 70
     1
102
RTVSPropertyOp5
 70
     1
102
RTVSPropertyOp6
 70
     1
102
RTVSPropertyOp7
 70
     1
102
RTVSPropertyOp8
 70
     1
102
RTVSPropertyOp9
 70
     1
102
RTVSPropertyOp10
 70
     1
102
RTVSPropertyOp11
 70
     1
102
RTVSPropertyOp12
 70
     1
102
RTVSPropertyOp13
 70
     1
102
RTVSPropertyOp14
 70
     1
102
RTVSPropertyOp15
 70
     1
102
RTVSPropertyOp16
 70
     1
102
RTVSPropertyOp17
 70
     1
102
RTVSPropertyOp18
 70
     1
102
RTVSPropertyOp19
 70
     1
102
RTVSPropertyOp20
 70
     1
102
RTVSPropertyOp21
 70
     1
102
RTVSPropertyOp22
 70
     1
102
RTVSPropertyOp23
 70
     1
102
RTVSPropertyOp24
 70
     1
102
RTVSPropertyOp25
 70
     1
102
RTVSPropertyOp26
 70
     1
102
RTVSPropertyOp27
 70
     1
102
RTVSPropertyOp28
 70
     1
102
RTVSPropertyOp29
 70
     1
102
RTVSPropertyOp30
 70
     1
102
RTVSPropertyOp31
 70
     1
102
RTVSPropertyOp32
 70
     1
102
RTVSPropertyOp33
 70
     1
102
RTVSPropertyOp34
 70
     1
102
RTVSPropertyOp35
 70
     1
102
RTVSPropertyOp36
 70
     1
102
RTVSPropertyOp37
 70
     1
102
RTVSPropertyOp38
 70
     1
102
RTVSPropertyOp39
 70
     1
102
RTVSPropertyOp40
 70
     1
102
RTVSPropertyOp41
 70
     1
102
RTVSPropertyOp42
 70
     1
102
RTVSPropertyOp43
 70
     1
102
RTVSPropertyOp44
 70
     1
102
RTVSPropertyOp45
 70
     1
102
RTVSPropertyOp46
 70
     1
102
RTVSPropertyOp47
 70
     1
102
RTVSPropertyOp48
 70
     1
102
RTVSPropertyOp49
 70
     1
102
RTVSPropertyOp50
 70
     1
102
RTVSPropertyOp51
 70
     0
102
RTVSPropertyOp52
 70
     0
102
RTVSPropertyOp53
 70
     1
102
RTVSPropertyOp54
 70
     1
102
RTVSPropertyOp55
 70
     1
102
RTVSPropertyOp56
 70
     1
102
RTVSPropertyOp57
 70
     1
102
RTVSPropertyOp58
 70
     1
102
RTVSPropertyOp59
 70
     1
102
RTVSPropertyOp60
 70
     1
102
RTVSPropertyOp61
 70
     1
102
RTVSPropertyOp62
 70
     1
  0
XRECORD
  5
67A
102
{ACAD_REACTORS
330
679
102
}
330
679
100
AcDbXrecord
280
     1
102
RTVSPost2010Prop28
280
     0
102
RTVSPost2010PropOp28
 70
     1
102
RTVSPost2010Prop29
280
     1
102
RTVSPost2010PropOp29
 70
     1
102
RTVSPost2010Prop30
280
     1
102
RTVSPost2010PropOp30
 70
     1
102
RTVSPost2010Prop31
280
     0
102
RTVSPost2010PropOp31
 70
     1
102
RTVSPost2010Prop32
280
     0
102
RTVSPost2010PropOp32
 70
     1
102
RTVSPost2010Prop33
280
     0
102
RTVSPost2010PropOp33
 70
     1
102
RTVSPost2010Prop34
280
     0
102
RTVSPost2010PropOp34
 70
     1
102
RTVSPost2010Prop35
280
     0
102
RTVSPost2010PropOp35
 70
     1
102
RTVSPost2010Prop36
280
     0
102
RTVSPost2010PropOp36
 70
     1
102
RTVSPost2010Prop37
 90
       50
102
RTVSPost2010PropOp37
 70
     1
102
RTVSPost2010Prop38
140
0.0
102
RTVSPost2010PropOp38
 70
     1
102
RTVSPost2010Prop39
140
1.0
102
RTVSPost2010PropOp39
 70
     1
102
RTVSPost2010Prop40
 90
        0
102
RTVSPost2010PropOp40
 70
     1
102
RTVSPost2010Prop41ColorIndex
 90
       18
102
RTVSPost2010Prop41ColorRGB
 90
        0
102
RTVSPost2010PropOp41
 70
     1
102
RTVSPost2010Prop42
 90
       50
102
RTVSPost2010PropOp42
 70
     1
102
RTVSPost2010Prop43
 90
        3
102
RTVSPost2010PropOp43
 70
     1
102
RTVSPost2010Prop44ColorIndex
 90
        5
102
RTVSPost2010Prop44ColorRGB
 90
      255
102
RTVSPost2010PropOp44
 70
     1
102
RTVSPost2010Prop45
280
     0
102
RTVSPost2010PropOp45
 70
     1
102
RTVSPost2010Prop46
 90
       50
102
RTVSPost2010PropOp46
 70
     1
102
RTVSPost2010Prop47
 90
       50
102
RTVSPost2010PropOp47
 70
     1
102
RTVSPost2010Prop48
 90
       50
102
RTVSPost2010PropOp48
 70
     1
102
RTVSPost2010Prop49
280
     0
102
RTVSPost2010PropOp49
 70
     1
102
RTVSPost2010Prop50
 90
       50
102
RTVSPost2010PropOp50
 70
     1
102
RTVSPost2010Prop51ColorIndex
 90
      256
102
RTVSPost2010Prop51ColorRGB
 90
-16777216
102
RTVSPost2010PropOp51
 70
     0
102
RTVSPost2010Prop52
140
1.0
102
RTVSPost2010PropOp52
 70
     0
102
RTVSPost2010Prop53
 90
        2
102
RTVSPost2010PropOp53
 70
     1
102
RTVSPost2010Prop54
  1
strokes_ogs.tif
102
RTVSPost2010PropOp54
 70
     1
102
RTVSPost2010Prop55
280
     0
102
RTVSPost2010PropOp55
 70
     1
102
RTVSPost2010Prop56
140
1.0
102
RTVSPost2010PropOp56
 70
     1
102
RTVSPost2010Prop57
140
1.0
102
RTVSPost2010PropOp57
 70
     1
102
RTVSPropertyOp0
 70
     1
102
RTVSPropertyOp1
 70
     1
102
RTVSPropertyOp2
 70
     1
102
RTVSPropertyOp3
 70
     1
102
RTVSPropertyOp4
 70
     1
102
RTVSPropertyOp5
 70
     1
102
RTVSPropertyOp6
 70
     1
102
RTVSPropertyOp7
 70
     1
102
RTVSPropertyOp8
 70
     1
102
RTVSPropertyOp9
 70
     1
102
RTVSPropertyOp10
 70
     1
102
RTVSPropertyOp11
 70
     1
102
RTVSPropertyOp12
 70
     1
102
RTVSPropertyOp13
 70
     1
102
RTVSPropertyOp14
 70
     1
102
RTVSPropertyOp15
 70
     1
102
RTVSPropertyOp16
 70
     1
102
RTVSPropertyOp17
 70
     1
102
RTVSPropertyOp18
 70
     1
102
RTVSPropertyOp19
 70
     1
102
RTVSPropertyOp20
 70
     1
102
RTVSPropertyOp21
 70
     1
102
RTVSPropertyOp22
 70
     1
102
RTVSPropertyOp23
 70
     1
102
RTVSPropertyOp24
 70
     1
102
RTVSPropertyOp25
 70
     1
102
RTVSPropertyOp26
 70
     1
102
RTVSPropertyOp27
 70
     1
102
RTVSPropertyOp28
 70
     1
102
RTVSPropertyOp29
 70
     1
102
RTVSPropertyOp30
 70
     1
102
RTVSPropertyOp31
 70
     1
102
RTVSPropertyOp32
 70
     1
102
RTVSPropertyOp33
 70
     1
102
RTVSPropertyOp34
 70
     1
102
RTVSPropertyOp35
 70
     1
102
RTVSPropertyOp36
 70
     1
102
RTVSPropertyOp37
 70
     1
102
RTVSPropertyOp38
 70
     1
102
RTVSPropertyOp39
 70
     1
102
RTVSPropertyOp40
 70
     1
102
RTVSPropertyOp41
 70
     1
102
RTVSPropertyOp42
 70
     1
102
RTVSPropertyOp43
 70
     1
102
RTVSPropertyOp44
 70
     1
102
RTVSPropertyOp45
 70
     1
102
RTVSPropertyOp46
 70
     1
102
RTVSPropertyOp47
 70
     1
102
RTVSPropertyOp48
 70
     1
102
RTVSPropertyOp49
 70
     1
102
RTVSPropertyOp50
 70
     1
102
RTVSPropertyOp51
 70
     0
102
RTVSPropertyOp52
 70
     0
102
RTVSPropertyOp53
 70
     1
102
RTVSPropertyOp54
 70
     1
102
RTVSPropertyOp55
 70
     1
102
RTVSPropertyOp56
 70
     1
102
RTVSPropertyOp57
 70
     1
102
RTVSPropertyOp58
 70
     1
102
RTVSPropertyOp59
 70
     1
102
RTVSPropertyOp60
 70
     1
102
RTVSPropertyOp61
 70
     1
102
RTVSPropertyOp62
 70
     1
  0
XRECORD
  5
696
102
{ACAD_REACTORS
330
695
102
}
330
695
100
AcDbXrecord
280
     1
102
RTVSPost2010Prop28
280
     0
102
RTVSPost2010PropOp28
 70
     1
102
RTVSPost2010Prop29
280
     1
102
RTVSPost2010PropOp29
 70
     1
102
RTVSPost2010Prop30
280
     1
102
RTVSPost2010PropOp30
 70
     1
102
RTVSPost2010Prop31
280
     0
102
RTVSPost2010PropOp31
 70
     1
102
RTVSPost2010Prop32
280
     0
102
RTVSPost2010PropOp32
 70
     1
102
RTVSPost2010Prop33
280
     0
102
RTVSPost2010PropOp33
 70
     1
102
RTVSPost2010Prop34
280
     0
102
RTVSPost2010PropOp34
 70
     1
102
RTVSPost2010Prop35
280
     0
102
RTVSPost2010PropOp35
 70
     1
102
RTVSPost2010Prop36
280
     0
102
RTVSPost2010PropOp36
 70
     1
102
RTVSPost2010Prop37
 90
       50
102
RTVSPost2010PropOp37
 70
     0
102
RTVSPost2010Prop38
140
0.0
102
RTVSPost2010PropOp38
 70
     0
102
RTVSPost2010Prop39
140
1.0
102
RTVSPost2010PropOp39
 70
     0
102
RTVSPost2010Prop40
 90
        0
102
RTVSPost2010PropOp40
 70
     0
102
RTVSPost2010Prop41ColorIndex
 90
       18
102
RTVSPost2010Prop41ColorRGB
 90
        0
102
RTVSPost2010PropOp41
 70
     0
102
RTVSPost2010Prop42
 90
       50
102
RTVSPost2010PropOp42
 70
     0
102
RTVSPost2010Prop43
 90
        3
102
RTVSPost2010PropOp43
 70
     0
102
RTVSPost2010Prop44ColorIndex
 90
        5
102
RTVSPost2010Prop44ColorRGB
 90
      255
102
RTVSPost2010PropOp44
 70
     0
102
RTVSPost2010Prop45
280
     0
102
RTVSPost2010PropOp45
 70
     1
102
RTVSPost2010Prop46
 90
       50
102
RTVSPost2010PropOp46
 70
     0
102
RTVSPost2010Prop47
 90
       50
102
RTVSPost2010PropOp47
 70
     0
102
RTVSPost2010Prop48
 90
       50
102
RTVSPost2010PropOp48
 70
     0
102
RTVSPost2010Prop49
280
     0
102
RTVSPost2010PropOp49
 70
     1
102
RTVSPost2010Prop50
 90
       50
102
RTVSPost2010PropOp50
 70
     0
102
RTVSPost2010Prop51ColorIndex
 90
      256
102
RTVSPost2010Prop51ColorRGB
 90
-16777216
102
RTVSPost2010PropOp51
 70
     0
102
RTVSPost2010Prop52
140
1.0
102
RTVSPost2010PropOp52
 70
     0
102
RTVSPost2010Prop53
 90
        2
102
RTVSPost2010PropOp53
 70
     0
102
RTVSPost2010Prop54
  1
strokes_ogs.tif
102
RTVSPost2010PropOp54
 70
     0
102
RTVSPost2010Prop55
280
     0
102
RTVSPost2010PropOp55
 70
     1
102
RTVSPost2010Prop56
140
1.0
102
RTVSPost2010PropOp56
 70
     0
102
RTVSPost2010Prop57
140
1.0
102
RTVSPost2010PropOp57
 70
     0
102
RTVSPropertyOp0
 70
     0
102
RTVSPropertyOp1
 70
     0
102
RTVSPropertyOp2
 70
     0
102
RTVSPropertyOp3
 70
     0
102
RTVSPropertyOp4
 70
     0
102
RTVSPropertyOp5
 70
     0
102
RTVSPropertyOp6
 70
     0
102
RTVSPropertyOp7
 70
     0
102
RTVSPropertyOp8
 70
     0
102
RTVSPropertyOp9
 70
     0
102
RTVSPropertyOp10
 70
     0
102
RTVSPropertyOp11
 70
     0
102
RTVSPropertyOp12
 70
     0
102
RTVSPropertyOp13
 70
     0
102
RTVSPropertyOp14
 70
     2
102
RTVSPropertyOp15
 70
     0
102
RTVSPropertyOp16
 70
     0
102
RTVSPropertyOp17
 70
     0
102
RTVSPropertyOp18
 70
     0
102
RTVSPropertyOp19
 70
     0
102
RTVSPropertyOp20
 70
     0
102
RTVSPropertyOp21
 70
     0
102
RTVSPropertyOp22
 70
     0
102
RTVSPropertyOp23
 70
     0
102
RTVSPropertyOp24
 70
     0
102
RTVSPropertyOp25
 70
     0
102
RTVSPropertyOp26
 70
     0
102
RTVSPropertyOp27
 70
     0
102
RTVSPropertyOp28
 70
     1
102
RTVSPropertyOp29
 70
     1
102
RTVSPropertyOp30
 70
     1
102
RTVSPropertyOp31
 70
     1
102
RTVSPropertyOp32
 70
     1
102
RTVSPropertyOp33
 70
     1
102
RTVSPropertyOp34
 70
     1
102
RTVSPropertyOp35
 70
     1
102
RTVSPropertyOp36
 70
     1
102
RTVSPropertyOp37
 70
     0
102
RTVSPropertyOp38
 70
     0
102
RTVSPropertyOp39
 70
     0
102
RTVSPropertyOp40
 70
     0
102
RTVSPropertyOp41
 70
     0
102
RTVSPropertyOp42
 70
     0
102
RTVSPropertyOp43
 70
     0
102
RTVSPropertyOp44
 70
     0
102
RTVSPropertyOp45
 70
     1
102
RTVSPropertyOp46
 70
     0
102
RTVSPropertyOp47
 70
     0
102
RTVSPropertyOp48
 70
     0
102
RTVSPropertyOp49
 70
     1
102
RTVSPropertyOp50
 70
     0
102
RTVSPropertyOp51
 70
     0
102
RTVSPropertyOp52
 70
     0
102
RTVSPropertyOp53
 70
     0
102
RTVSPropertyOp54
 70
     0
102
RTVSPropertyOp55
 70
     1
102
RTVSPropertyOp56
 70
     0
102
RTVSPropertyOp57
 70
     0
102
RTVSPropertyOp58
 70
     0
102
RTVSPropertyOp59
 70
     0
102
RTVSPropertyOp60
 70
     0
102
RTVSPropertyOp61
 70
     0
102
RTVSPropertyOp62
 70
     0
  0
XRECORD
  5
686
102
{ACAD_REACTORS
330
685
102
}
330
685
100
AcDbXrecord
280
     1
102
RTVSPost2010Prop28
280
     0
102
RTVSPost2010PropOp28
 70
     1
102
RTVSPost2010Prop29
280
     1
102
RTVSPost2010PropOp29
 70
     1
102
RTVSPost2010Prop30
280
     1
102
RTVSPost2010PropOp30
 70
     1
102
RTVSPost2010Prop31
280
     0
102
RTVSPost2010PropOp31
 70
     1
102
RTVSPost2010Prop32
280
     0
102
RTVSPost2010PropOp32
 70
     1
102
RTVSPost2010Prop33
280
     0
102
RTVSPost2010PropOp33
 70
     1
102
RTVSPost2010Prop34
280
     0
102
RTVSPost2010PropOp34
 70
     1
102
RTVSPost2010Prop35
280
     0
102
RTVSPost2010PropOp35
 70
     1
102
RTVSPost2010Prop36
280
     0
102
RTVSPost2010PropOp36
 70
     1
102
RTVSPost2010Prop37
 90
       50
102
RTVSPost2010PropOp37
 70
     1
102
RTVSPost2010Prop38
140
0.0
102
RTVSPost2010PropOp38
 70
     1
102
RTVSPost2010Prop39
140
1.0
102
RTVSPost2010PropOp39
 70
     1
102
RTVSPost2010Prop40
 90
        0
102
RTVSPost2010PropOp40
 70
     1
102
RTVSPost2010Prop41ColorIndex
 90
       18
102
RTVSPost2010Prop41ColorRGB
 90
        0
102
RTVSPost2010PropOp41
 70
     1
102
RTVSPost2010Prop42
 90
       50
102
RTVSPost2010PropOp42
 70
     1
102
RTVSPost2010Prop43
 90
        3
102
RTVSPost2010PropOp43
 70
     1
102
RTVSPost2010Prop44ColorIndex
 90
        5
102
RTVSPost2010Prop44ColorRGB
 90
      255
102
RTVSPost2010PropOp44
 70
     1
102
RTVSPost2010Prop45
280
     0
102
RTVSPost2010PropOp45
 70
     1
102
RTVSPost2010Prop46
 90
       50
102
RTVSPost2010PropOp46
 70
     1
102
RTVSPost2010Prop47
 90
       50
102
RTVSPost2010PropOp47
 70
     1
102
RTVSPost2010Prop48
 90
       50
102
RTVSPost2010PropOp48
 70
     1
102
RTVSPost2010Prop49
280
     0
102
RTVSPost2010PropOp49
 70
     1
102
RTVSPost2010Prop50
 90
       50
102
RTVSPost2010PropOp50
 70
     1
102
RTVSPost2010Prop51ColorIndex
 90
      256
102
RTVSPost2010Prop51ColorRGB
 90
-16777216
102
RTVSPost2010PropOp51
 70
     0
102
RTVSPost2010Prop52
140
1.0
102
RTVSPost2010PropOp52
 70
     0
102
RTVSPost2010Prop53
 90
        2
102
RTVSPost2010PropOp53
 70
     1
102
RTVSPost2010Prop54
  1
strokes_ogs.tif
102
RTVSPost2010PropOp54
 70
     1
102
RTVSPost2010Prop55
280
     0
102
RTVSPost2010PropOp55
 70
     1
102
RTVSPost2010Prop56
140
1.0
102
RTVSPost2010PropOp56
 70
     1
102
RTVSPost2010Prop57
140
1.0
102
RTVSPost2010PropOp57
 70
     1
102
RTVSPropertyOp0
 70
     1
102
RTVSPropertyOp1
 70
     1
102
RTVSPropertyOp2
 70
     1
102
RTVSPropertyOp3
 70
     1
102
RTVSPropertyOp4
 70
     1
102
RTVSPropertyOp5
 70
     1
102
RTVSPropertyOp6
 70
     1
102
RTVSPropertyOp7
 70
     1
102
RTVSPropertyOp8
 70
     1
102
RTVSPropertyOp9
 70
     1
102
RTVSPropertyOp10
 70
     1
102
RTVSPropertyOp11
 70
     1
102
RTVSPropertyOp12
 70
     1
102
RTVSPropertyOp13
 70
     1
102
RTVSPropertyOp14
 70
     1
102
RTVSPropertyOp15
 70
     1
102
RTVSPropertyOp16
 70
     1
102
RTVSPropertyOp17
 70
     1
102
RTVSPropertyOp18
 70
     1
102
RTVSPropertyOp19
 70
     1
102
RTVSPropertyOp20
 70
     1
102
RTVSPropertyOp21
 70
     1
102
RTVSPropertyOp22
 70
     1
102
RTVSPropertyOp23
 70
     1
102
RTVSPropertyOp24
 70
     1
102
RTVSPropertyOp25
 70
     1
102
RTVSPropertyOp26
 70
     1
102
RTVSPropertyOp27
 70
     1
102
RTVSPropertyOp28
 70
     1
102
RTVSPropertyOp29
 70
     1
102
RTVSPropertyOp30
 70
     1
102
RTVSPropertyOp31
 70
     1
102
RTVSPropertyOp32
 70
     1
102
RTVSPropertyOp33
 70
     1
102
RTVSPropertyOp34
 70
     1
102
RTVSPropertyOp35
 70
     1
102
RTVSPropertyOp36
 70
     1
102
RTVSPropertyOp37
 70
     1
102
RTVSPropertyOp38
 70
     1
102
RTVSPropertyOp39
 70
     1
102
RTVSPropertyOp40
 70
     1
102
RTVSPropertyOp41
 70
     1
102
RTVSPropertyOp42
 70
     1
102
RTVSPropertyOp43
 70
     1
102
RTVSPropertyOp44
 70
     1
102
RTVSPropertyOp45
 70
     1
102
RTVSPropertyOp46
 70
     1
102
RTVSPropertyOp47
 70
     1
102
RTVSPropertyOp48
 70
     1
102
RTVSPropertyOp49
 70
     1
102
RTVSPropertyOp50
 70
     1
102
RTVSPropertyOp51
 70
     0
102
RTVSPropertyOp52
 70
     0
102
RTVSPropertyOp53
 70
     1
102
RTVSPropertyOp54
 70
     1
102
RTVSPropertyOp55
 70
     1
102
RTVSPropertyOp56
 70
     1
102
RTVSPropertyOp57
 70
     1
102
RTVSPropertyOp58
 70
     1
102
RTVSPropertyOp59
 70
     1
102
RTVSPropertyOp60
 70
     1
102
RTVSPropertyOp61
 70
     1
102
RTVSPropertyOp62
 70
     1
  0
XRECORD
  5
698
102
{ACAD_REACTORS
330
697
102
}
330
697
100
AcDbXrecord
280
     1
102
RTVSPost2010Prop28
280
     0
102
RTVSPost2010PropOp28
 70
     1
102
RTVSPost2010Prop29
280
     1
102
RTVSPost2010PropOp29
 70
     1
102
RTVSPost2010Prop30
280
     1
102
RTVSPost2010PropOp30
 70
     1
102
RTVSPost2010Prop31
280
     0
102
RTVSPost2010PropOp31
 70
     1
102
RTVSPost2010Prop32
280
     0
102
RTVSPost2010PropOp32
 70
     1
102
RTVSPost2010Prop33
280
     0
102
RTVSPost2010PropOp33
 70
     1
102
RTVSPost2010Prop34
280
     0
102
RTVSPost2010PropOp34
 70
     1
102
RTVSPost2010Prop35
280
     0
102
RTVSPost2010PropOp35
 70
     1
102
RTVSPost2010Prop36
280
     0
102
RTVSPost2010PropOp36
 70
     1
102
RTVSPost2010Prop37
 90
       50
102
RTVSPost2010PropOp37
 70
     0
102
RTVSPost2010Prop38
140
0.0
102
RTVSPost2010PropOp38
 70
     0
102
RTVSPost2010Prop39
140
1.0
102
RTVSPost2010PropOp39
 70
     0
102
RTVSPost2010Prop40
 90
        0
102
RTVSPost2010PropOp40
 70
     0
102
RTVSPost2010Prop41ColorIndex
 90
       18
102
RTVSPost2010Prop41ColorRGB
 90
        0
102
RTVSPost2010PropOp41
 70
     0
102
RTVSPost2010Prop42
 90
       50
102
RTVSPost2010PropOp42
 70
     0
102
RTVSPost2010Prop43
 90
        3
102
RTVSPost2010PropOp43
 70
     0
102
RTVSPost2010Prop44ColorIndex
 90
        5
102
RTVSPost2010Prop44ColorRGB
 90
      255
102
RTVSPost2010PropOp44
 70
     0
102
RTVSPost2010Prop45
280
     0
102
RTVSPost2010PropOp45
 70
     1
102
RTVSPost2010Prop46
 90
       50
102
RTVSPost2010PropOp46
 70
     0
102
RTVSPost2010Prop47
 90
       50
102
RTVSPost2010PropOp47
 70
     0
102
RTVSPost2010Prop48
 90
       50
102
RTVSPost2010PropOp48
 70
     0
102
RTVSPost2010Prop49
280
     0
102
RTVSPost2010PropOp49
 70
     1
102
RTVSPost2010Prop50
 90
       50
102
RTVSPost2010PropOp50
 70
     0
102
RTVSPost2010Prop51ColorIndex
 90
      256
102
RTVSPost2010Prop51ColorRGB
 90
-16777216
102
RTVSPost2010PropOp51
 70
     0
102
RTVSPost2010Prop52
140
1.0
102
RTVSPost2010PropOp52
 70
     0
102
RTVSPost2010Prop53
 90
        2
102
RTVSPost2010PropOp53
 70
     0
102
RTVSPost2010Prop54
  1
strokes_ogs.tif
102
RTVSPost2010PropOp54
 70
     0
102
RTVSPost2010Prop55
280
     0
102
RTVSPost2010PropOp55
 70
     1
102
RTVSPost2010Prop56
140
1.0
102
RTVSPost2010PropOp56
 70
     0
102
RTVSPost2010Prop57
140
1.0
102
RTVSPost2010PropOp57
 70
     0
102
RTVSPropertyOp0
 70
     0
102
RTVSPropertyOp1
 70
     0
102
RTVSPropertyOp2
 70
     0
102
RTVSPropertyOp3
 70
     0
102
RTVSPropertyOp4
 70
     0
102
RTVSPropertyOp5
 70
     0
102
RTVSPropertyOp6
 70
     0
102
RTVSPropertyOp7
 70
     0
102
RTVSPropertyOp8
 70
     0
102
RTVSPropertyOp9
 70
     0
102
RTVSPropertyOp10
 70
     0
102
RTVSPropertyOp11
 70
     0
102
RTVSPropertyOp12
 70
     0
102
RTVSPropertyOp13
 70
     0
102
RTVSPropertyOp14
 70
     2
102
RTVSPropertyOp15
 70
     0
102
RTVSPropertyOp16
 70
     0
102
RTVSPropertyOp17
 70
     0
102
RTVSPropertyOp18
 70
     0
102
RTVSPropertyOp19
 70
     0
102
RTVSPropertyOp20
 70
     0
102
RTVSPropertyOp21
 70
     0
102
RTVSPropertyOp22
 70
     0
102
RTVSPropertyOp23
 70
     0
102
RTVSPropertyOp24
 70
     0
102
RTVSPropertyOp25
 70
     0
102
RTVSPropertyOp26
 70
     0
102
RTVSPropertyOp27
 70
     0
102
RTVSPropertyOp28
 70
     1
102
RTVSPropertyOp29
 70
     1
102
RTVSPropertyOp30
 70
     1
102
RTVSPropertyOp31
 70
     1
102
RTVSPropertyOp32
 70
     1
102
RTVSPropertyOp33
 70
     1
102
RTVSPropertyOp34
 70
     1
102
RTVSPropertyOp35
 70
     1
102
RTVSPropertyOp36
 70
     1
102
RTVSPropertyOp37
 70
     0
102
RTVSPropertyOp38
 70
     0
102
RTVSPropertyOp39
 70
     0
102
RTVSPropertyOp40
 70
     0
102
RTVSPropertyOp41
 70
     0
102
RTVSPropertyOp42
 70
     0
102
RTVSPropertyOp43
 70
     0
102
RTVSPropertyOp44
 70
     0
102
RTVSPropertyOp45
 70
     1
102
RTVSPropertyOp46
 70
     0
102
RTVSPropertyOp47
 70
     0
102
RTVSPropertyOp48
 70
     0
102
RTVSPropertyOp49
 70
     1
102
RTVSPropertyOp50
 70
     0
102
RTVSPropertyOp51
 70
     0
102
RTVSPropertyOp52
 70
     0
102
RTVSPropertyOp53
 70
     0
102
RTVSPropertyOp54
 70
     0
102
RTVSPropertyOp55
 70
     1
102
RTVSPropertyOp56
 70
     0
102
RTVSPropertyOp57
 70
     0
102
RTVSPropertyOp58
 70
     0
102
RTVSPropertyOp59
 70
     0
102
RTVSPropertyOp60
 70
     0
102
RTVSPropertyOp61
 70
     0
102
RTVSPropertyOp62
 70
     0
  0
XRECORD
  5
67E
102
{ACAD_REACTORS
330
67D
102
}
330
67D
100
AcDbXrecord
280
     1
102
RTVSPost2010Prop28
280
     0
102
RTVSPost2010PropOp28
 70
     1
102
RTVSPost2010Prop29
280
     1
102
RTVSPost2010PropOp29
 70
     1
102
RTVSPost2010Prop30
280
     1
102
RTVSPost2010PropOp30
 70
     1
102
RTVSPost2010Prop31
280
     0
102
RTVSPost2010PropOp31
 70
     1
102
RTVSPost2010Prop32
280
     0
102
RTVSPost2010PropOp32
 70
     1
102
RTVSPost2010Prop33
280
     0
102
RTVSPost2010PropOp33
 70
     1
102
RTVSPost2010Prop34
280
     0
102
RTVSPost2010PropOp34
 70
     1
102
RTVSPost2010Prop35
280
     0
102
RTVSPost2010PropOp35
 70
     1
102
RTVSPost2010Prop36
280
     0
102
RTVSPost2010PropOp36
 70
     1
102
RTVSPost2010Prop37
 90
       50
102
RTVSPost2010PropOp37
 70
     1
102
RTVSPost2010Prop38
140
0.0
102
RTVSPost2010PropOp38
 70
     1
102
RTVSPost2010Prop39
140
1.0
102
RTVSPost2010PropOp39
 70
     1
102
RTVSPost2010Prop40
 90
        0
102
RTVSPost2010PropOp40
 70
     1
102
RTVSPost2010Prop41ColorIndex
 90
       18
102
RTVSPost2010Prop41ColorRGB
 90
        0
102
RTVSPost2010PropOp41
 70
     1
102
RTVSPost2010Prop42
 90
       50
102
RTVSPost2010PropOp42
 70
     1
102
RTVSPost2010Prop43
 90
        3
102
RTVSPost2010PropOp43
 70
     1
102
RTVSPost2010Prop44ColorIndex
 90
        5
102
RTVSPost2010Prop44ColorRGB
 90
      255
102
RTVSPost2010PropOp44
 70
     1
102
RTVSPost2010Prop45
280
     0
102
RTVSPost2010PropOp45
 70
     1
102
RTVSPost2010Prop46
 90
       50
102
RTVSPost2010PropOp46
 70
     1
102
RTVSPost2010Prop47
 90
       50
102
RTVSPost2010PropOp47
 70
     1
102
RTVSPost2010Prop48
 90
       50
102
RTVSPost2010PropOp48
 70
     1
102
RTVSPost2010Prop49
280
     0
102
RTVSPost2010PropOp49
 70
     1
102
RTVSPost2010Prop50
 90
       50
102
RTVSPost2010PropOp50
 70
     1
102
RTVSPost2010Prop51ColorIndex
 90
      256
102
RTVSPost2010Prop51ColorRGB
 90
-16777216
102
RTVSPost2010PropOp51
 70
     0
102
RTVSPost2010Prop52
140
1.0
102
RTVSPost2010PropOp52
 70
     0
102
RTVSPost2010Prop53
 90
        2
102
RTVSPost2010PropOp53
 70
     1
102
RTVSPost2010Prop54
  1
strokes_ogs.tif
102
RTVSPost2010PropOp54
 70
     1
102
RTVSPost2010Prop55
280
     0
102
RTVSPost2010PropOp55
 70
     1
102
RTVSPost2010Prop56
140
1.0
102
RTVSPost2010PropOp56
 70
     1
102
RTVSPost2010Prop57
140
1.0
102
RTVSPost2010PropOp57
 70
     1
102
RTVSPropertyOp0
 70
     1
102
RTVSPropertyOp1
 70
     1
102
RTVSPropertyOp2
 70
     1
102
RTVSPropertyOp3
 70
     1
102
RTVSPropertyOp4
 70
     1
102
RTVSPropertyOp5
 70
     1
102
RTVSPropertyOp6
 70
     1
102
RTVSPropertyOp7
 70
     1
102
RTVSPropertyOp8
 70
     1
102
RTVSPropertyOp9
 70
     1
102
RTVSPropertyOp10
 70
     1
102
RTVSPropertyOp11
 70
     1
102
RTVSPropertyOp12
 70
     1
102
RTVSPropertyOp13
 70
     1
102
RTVSPropertyOp14
 70
     1
102
RTVSPropertyOp15
 70
     1
102
RTVSPropertyOp16
 70
     1
102
RTVSPropertyOp17
 70
     1
102
RTVSPropertyOp18
 70
     1
102
RTVSPropertyOp19
 70
     1
102
RTVSPropertyOp20
 70
     1
102
RTVSPropertyOp21
 70
     1
102
RTVSPropertyOp22
 70
     1
102
RTVSPropertyOp23
 70
     1
102
RTVSPropertyOp24
 70
     1
102
RTVSPropertyOp25
 70
     1
102
RTVSPropertyOp26
 70
     1
102
RTVSPropertyOp27
 70
     1
102
RTVSPropertyOp28
 70
     1
102
RTVSPropertyOp29
 70
     1
102
RTVSPropertyOp30
 70
     1
102
RTVSPropertyOp31
 70
     1
102
RTVSPropertyOp32
 70
     1
102
RTVSPropertyOp33
 70
     1
102
RTVSPropertyOp34
 70
     1
102
RTVSPropertyOp35
 70
     1
102
RTVSPropertyOp36
 70
     1
102
RTVSPropertyOp37
 70
     1
102
RTVSPropertyOp38
 70
     1
102
RTVSPropertyOp39
 70
     1
102
RTVSPropertyOp40
 70
     1
102
RTVSPropertyOp41
 70
     1
102
RTVSPropertyOp42
 70
     1
102
RTVSPropertyOp43
 70
     1
102
RTVSPropertyOp44
 70
     1
102
RTVSPropertyOp45
 70
     1
102
RTVSPropertyOp46
 70
     1
102
RTVSPropertyOp47
 70
     1
102
RTVSPropertyOp48
 70
     1
102
RTVSPropertyOp49
 70
     1
102
RTVSPropertyOp50
 70
     1
102
RTVSPropertyOp51
 70
     0
102
RTVSPropertyOp52
 70
     0
102
RTVSPropertyOp53
 70
     1
102
RTVSPropertyOp54
 70
     1
102
RTVSPropertyOp55
 70
     1
102
RTVSPropertyOp56
 70
     1
102
RTVSPropertyOp57
 70
     1
102
RTVSPropertyOp58
 70
     1
102
RTVSPropertyOp59
 70
     1
102
RTVSPropertyOp60
 70
     1
102
RTVSPropertyOp61
 70
     1
102
RTVSPropertyOp62
 70
     1
  0
XRECORD
  5
694
102
{ACAD_REACTORS
330
693
102
}
330
693
100
AcDbXrecord
280
     1
102
RTVSPost2010Prop28
280
     0
102
RTVSPost2010PropOp28
 70
     1
102
RTVSPost2010Prop29
280
     1
102
RTVSPost2010PropOp29
 70
     1
102
RTVSPost2010Prop30
280
     1
102
RTVSPost2010PropOp30
 70
     1
102
RTVSPost2010Prop31
280
     0
102
RTVSPost2010PropOp31
 70
     1
102
RTVSPost2010Prop32
280
     0
102
RTVSPost2010PropOp32
 70
     1
102
RTVSPost2010Prop33
280
     0
102
RTVSPost2010PropOp33
 70
     1
102
RTVSPost2010Prop34
280
     0
102
RTVSPost2010PropOp34
 70
     1
102
RTVSPost2010Prop35
280
     0
102
RTVSPost2010PropOp35
 70
     1
102
RTVSPost2010Prop36
280
     0
102
RTVSPost2010PropOp36
 70
     1
102
RTVSPost2010Prop37
 90
       50
102
RTVSPost2010PropOp37
 70
     1
102
RTVSPost2010Prop38
140
0.0
102
RTVSPost2010PropOp38
 70
     1
102
RTVSPost2010Prop39
140
1.0
102
RTVSPost2010PropOp39
 70
     1
102
RTVSPost2010Prop40
 90
        0
102
RTVSPost2010PropOp40
 70
     1
102
RTVSPost2010Prop41ColorIndex
 90
       18
102
RTVSPost2010Prop41ColorRGB
 90
        0
102
RTVSPost2010PropOp41
 70
     1
102
RTVSPost2010Prop42
 90
       50
102
RTVSPost2010PropOp42
 70
     1
102
RTVSPost2010Prop43
 90
        3
102
RTVSPost2010PropOp43
 70
     1
102
RTVSPost2010Prop44ColorIndex
 90
        5
102
RTVSPost2010Prop44ColorRGB
 90
      255
102
RTVSPost2010PropOp44
 70
     1
102
RTVSPost2010Prop45
280
     0
102
RTVSPost2010PropOp45
 70
     1
102
RTVSPost2010Prop46
 90
       50
102
RTVSPost2010PropOp46
 70
     1
102
RTVSPost2010Prop47
 90
       50
102
RTVSPost2010PropOp47
 70
     1
102
RTVSPost2010Prop48
 90
       50
102
RTVSPost2010PropOp48
 70
     1
102
RTVSPost2010Prop49
280
     0
102
RTVSPost2010PropOp49
 70
     1
102
RTVSPost2010Prop50
 90
       50
102
RTVSPost2010PropOp50
 70
     1
102
RTVSPost2010Prop51ColorIndex
 90
      256
102
RTVSPost2010Prop51ColorRGB
 90
-16777216
102
RTVSPost2010PropOp51
 70
     0
102
RTVSPost2010Prop52
140
1.0
102
RTVSPost2010PropOp52
 70
     0
102
RTVSPost2010Prop53
 90
        2
102
RTVSPost2010PropOp53
 70
     1
102
RTVSPost2010Prop54
  1
strokes_ogs.tif
102
RTVSPost2010PropOp54
 70
     1
102
RTVSPost2010Prop55
280
     0
102
RTVSPost2010PropOp55
 70
     1
102
RTVSPost2010Prop56
140
1.0
102
RTVSPost2010PropOp56
 70
     1
102
RTVSPost2010Prop57
140
1.0
102
RTVSPost2010PropOp57
 70
     1
102
RTVSPropertyOp0
 70
     1
102
RTVSPropertyOp1
 70
     1
102
RTVSPropertyOp2
 70
     1
102
RTVSPropertyOp3
 70
     1
102
RTVSPropertyOp4
 70
     1
102
RTVSPropertyOp5
 70
     1
102
RTVSPropertyOp6
 70
     1
102
RTVSPropertyOp7
 70
     1
102
RTVSPropertyOp8
 70
     1
102
RTVSPropertyOp9
 70
     1
102
RTVSPropertyOp10
 70
     1
102
RTVSPropertyOp11
 70
     1
102
RTVSPropertyOp12
 70
     1
102
RTVSPropertyOp13
 70
     1
102
RTVSPropertyOp14
 70
     1
102
RTVSPropertyOp15
 70
     1
102
RTVSPropertyOp16
 70
     1
102
RTVSPropertyOp17
 70
     1
102
RTVSPropertyOp18
 70
     1
102
RTVSPropertyOp19
 70
     1
102
RTVSPropertyOp20
 70
     1
102
RTVSPropertyOp21
 70
     1
102
RTVSPropertyOp22
 70
     1
102
RTVSPropertyOp23
 70
     1
102
RTVSPropertyOp24
 70
     1
102
RTVSPropertyOp25
 70
     1
102
RTVSPropertyOp26
 70
     1
102
RTVSPropertyOp27
 70
     1
102
RTVSPropertyOp28
 70
     1
102
RTVSPropertyOp29
 70
     1
102
RTVSPropertyOp30
 70
     1
102
RTVSPropertyOp31
 70
     1
102
RTVSPropertyOp32
 70
     1
102
RTVSPropertyOp33
 70
     1
102
RTVSPropertyOp34
 70
     1
102
RTVSPropertyOp35
 70
     1
102
RTVSPropertyOp36
 70
     1
102
RTVSPropertyOp37
 70
     1
102
RTVSPropertyOp38
 70
     1
102
RTVSPropertyOp39
 70
     1
102
RTVSPropertyOp40
 70
     1
102
RTVSPropertyOp41
 70
     1
102
RTVSPropertyOp42
 70
     1
102
RTVSPropertyOp43
 70
     1
102
RTVSPropertyOp44
 70
     1
102
RTVSPropertyOp45
 70
     1
102
RTVSPropertyOp46
 70
     1
102
RTVSPropertyOp47
 70
     1
102
RTVSPropertyOp48
 70
     1
102
RTVSPropertyOp49
 70
     1
102
RTVSPropertyOp50
 70
     1
102
RTVSPropertyOp51
 70
     0
102
RTVSPropertyOp52
 70
     0
102
RTVSPropertyOp53
 70
     1
102
RTVSPropertyOp54
 70
     1
102
RTVSPropertyOp55
 70
     1
102
RTVSPropertyOp56
 70
     1
102
RTVSPropertyOp57
 70
     1
102
RTVSPropertyOp58
 70
     1
102
RTVSPropertyOp59
 70
     1
102
RTVSPropertyOp60
 70
     1
102
RTVSPropertyOp61
 70
     1
102
RTVSPropertyOp62
 70
     1
  0
XRECORD
  5
692
102
{ACAD_REACTORS
330
691
102
}
330
691
100
AcDbXrecord
280
     1
102
RTVSPost2010Prop28
280
     0
102
RTVSPost2010PropOp28
 70
     1
102
RTVSPost2010Prop29
280
     1
102
RTVSPost2010PropOp29
 70
     1
102
RTVSPost2010Prop30
280
     1
102
RTVSPost2010PropOp30
 70
     1
102
RTVSPost2010Prop31
280
     0
102
RTVSPost2010PropOp31
 70
     1
102
RTVSPost2010Prop32
280
     0
102
RTVSPost2010PropOp32
 70
     1
102
RTVSPost2010Prop33
280
     0
102
RTVSPost2010PropOp33
 70
     1
102
RTVSPost2010Prop34
280
     0
102
RTVSPost2010PropOp34
 70
     1
102
RTVSPost2010Prop35
280
     0
102
RTVSPost2010PropOp35
 70
     1
102
RTVSPost2010Prop36
280
     0
102
RTVSPost2010PropOp36
 70
     1
102
RTVSPost2010Prop37
 90
       50
102
RTVSPost2010PropOp37
 70
     1
102
RTVSPost2010Prop38
140
0.0
102
RTVSPost2010PropOp38
 70
     1
102
RTVSPost2010Prop39
140
1.0
102
RTVSPost2010PropOp39
 70
     1
102
RTVSPost2010Prop40
 90
        0
102
RTVSPost2010PropOp40
 70
     1
102
RTVSPost2010Prop41ColorIndex
 90
       18
102
RTVSPost2010Prop41ColorRGB
 90
        0
102
RTVSPost2010PropOp41
 70
     1
102
RTVSPost2010Prop42
 90
       50
102
RTVSPost2010PropOp42
 70
     1
102
RTVSPost2010Prop43
 90
        3
102
RTVSPost2010PropOp43
 70
     1
102
RTVSPost2010Prop44ColorIndex
 90
        5
102
RTVSPost2010Prop44ColorRGB
 90
      255
102
RTVSPost2010PropOp44
 70
     1
102
RTVSPost2010Prop45
280
     0
102
RTVSPost2010PropOp45
 70
     1
102
RTVSPost2010Prop46
 90
       50
102
RTVSPost2010PropOp46
 70
     1
102
RTVSPost2010Prop47
 90
       50
102
RTVSPost2010PropOp47
 70
     1
102
RTVSPost2010Prop48
 90
       50
102
RTVSPost2010PropOp48
 70
     1
102
RTVSPost2010Prop49
280
     0
102
RTVSPost2010PropOp49
 70
     1
102
RTVSPost2010Prop50
 90
       50
102
RTVSPost2010PropOp50
 70
     1
102
RTVSPost2010Prop51ColorIndex
 90
      256
102
RTVSPost2010Prop51ColorRGB
 90
-16777216
102
RTVSPost2010PropOp51
 70
     0
102
RTVSPost2010Prop52
140
1.0
102
RTVSPost2010PropOp52
 70
     0
102
RTVSPost2010Prop53
 90
        2
102
RTVSPost2010PropOp53
 70
     1
102
RTVSPost2010Prop54
  1
strokes_ogs.tif
102
RTVSPost2010PropOp54
 70
     1
102
RTVSPost2010Prop55
280
     0
102
RTVSPost2010PropOp55
 70
     1
102
RTVSPost2010Prop56
140
1.0
102
RTVSPost2010PropOp56
 70
     1
102
RTVSPost2010Prop57
140
1.0
102
RTVSPost2010PropOp57
 70
     1
102
RTVSPropertyOp0
 70
     1
102
RTVSPropertyOp1
 70
     1
102
RTVSPropertyOp2
 70
     1
102
RTVSPropertyOp3
 70
     1
102
RTVSPropertyOp4
 70
     1
102
RTVSPropertyOp5
 70
     1
102
RTVSPropertyOp6
 70
     1
102
RTVSPropertyOp7
 70
     1
102
RTVSPropertyOp8
 70
     1
102
RTVSPropertyOp9
 70
     1
102
RTVSPropertyOp10
 70
     1
102
RTVSPropertyOp11
 70
     1
102
RTVSPropertyOp12
 70
     1
102
RTVSPropertyOp13
 70
     1
102
RTVSPropertyOp14
 70
     1
102
RTVSPropertyOp15
 70
     1
102
RTVSPropertyOp16
 70
     1
102
RTVSPropertyOp17
 70
     1
102
RTVSPropertyOp18
 70
     1
102
RTVSPropertyOp19
 70
     1
102
RTVSPropertyOp20
 70
     1
102
RTVSPropertyOp21
 70
     1
102
RTVSPropertyOp22
 70
     1
102
RTVSPropertyOp23
 70
     1
102
RTVSPropertyOp24
 70
     1
102
RTVSPropertyOp25
 70
     1
102
RTVSPropertyOp26
 70
     1
102
RTVSPropertyOp27
 70
     1
102
RTVSPropertyOp28
 70
     1
102
RTVSPropertyOp29
 70
     1
102
RTVSPropertyOp30
 70
     1
102
RTVSPropertyOp31
 70
     1
102
RTVSPropertyOp32
 70
     1
102
RTVSPropertyOp33
 70
     1
102
RTVSPropertyOp34
 70
     1
102
RTVSPropertyOp35
 70
     1
102
RTVSPropertyOp36
 70
     1
102
RTVSPropertyOp37
 70
     1
102
RTVSPropertyOp38
 70
     1
102
RTVSPropertyOp39
 70
     1
102
RTVSPropertyOp40
 70
     1
102
RTVSPropertyOp41
 70
     1
102
RTVSPropertyOp42
 70
     1
102
RTVSPropertyOp43
 70
     1
102
RTVSPropertyOp44
 70
     1
102
RTVSPropertyOp45
 70
     1
102
RTVSPropertyOp46
 70
     1
102
RTVSPropertyOp47
 70
     1
102
RTVSPropertyOp48
 70
     1
102
RTVSPropertyOp49
 70
     1
102
RTVSPropertyOp50
 70
     1
102
RTVSPropertyOp51
 70
     0
102
RTVSPropertyOp52
 70
     0
102
RTVSPropertyOp53
 70
     1
102
RTVSPropertyOp54
 70
     1
102
RTVSPropertyOp55
 70
     1
102
RTVSPropertyOp56
 70
     1
102
RTVSPropertyOp57
 70
     1
102
RTVSPropertyOp58
 70
     1
102
RTVSPropertyOp59
 70
     1
102
RTVSPropertyOp60
 70
     1
102
RTVSPropertyOp61
 70
     1
102
RTVSPropertyOp62
 70
     1
  0
XRECORD
  5
68C
102
{ACAD_REACTORS
330
68B
102
}
330
68B
100
AcDbXrecord
280
     1
102
RTVSPost2010Prop28
280
     0
102
RTVSPost2010PropOp28
 70
     1
102
RTVSPost2010Prop29
280
     1
102
RTVSPost2010PropOp29
 70
     1
102
RTVSPost2010Prop30
280
     1
102
RTVSPost2010PropOp30
 70
     1
102
RTVSPost2010Prop31
280
     0
102
RTVSPost2010PropOp31
 70
     1
102
RTVSPost2010Prop32
280
     0
102
RTVSPost2010PropOp32
 70
     1
102
RTVSPost2010Prop33
280
     0
102
RTVSPost2010PropOp33
 70
     1
102
RTVSPost2010Prop34
280
     0
102
RTVSPost2010PropOp34
 70
     1
102
RTVSPost2010Prop35
280
     0
102
RTVSPost2010PropOp35
 70
     1
102
RTVSPost2010Prop36
280
     0
102
RTVSPost2010PropOp36
 70
     1
102
RTVSPost2010Prop37
 90
       50
102
RTVSPost2010PropOp37
 70
     1
102
RTVSPost2010Prop38
140
0.0
102
RTVSPost2010PropOp38
 70
     1
102
RTVSPost2010Prop39
140
1.0
102
RTVSPost2010PropOp39
 70
     1
102
RTVSPost2010Prop40
 90
        0
102
RTVSPost2010PropOp40
 70
     1
102
RTVSPost2010Prop41ColorIndex
 90
       18
102
RTVSPost2010Prop41ColorRGB
 90
        0
102
RTVSPost2010PropOp41
 70
     1
102
RTVSPost2010Prop42
 90
       50
102
RTVSPost2010PropOp42
 70
     1
102
RTVSPost2010Prop43
 90
        3
102
RTVSPost2010PropOp43
 70
     1
102
RTVSPost2010Prop44ColorIndex
 90
        5
102
RTVSPost2010Prop44ColorRGB
 90
      255
102
RTVSPost2010PropOp44
 70
     1
102
RTVSPost2010Prop45
280
     0
102
RTVSPost2010PropOp45
 70
     1
102
RTVSPost2010Prop46
 90
       50
102
RTVSPost2010PropOp46
 70
     1
102
RTVSPost2010Prop47
 90
       50
102
RTVSPost2010PropOp47
 70
     1
102
RTVSPost2010Prop48
 90
       50
102
RTVSPost2010PropOp48
 70
     1
102
RTVSPost2010Prop49
280
     0
102
RTVSPost2010PropOp49
 70
     1
102
RTVSPost2010Prop50
 90
       50
102
RTVSPost2010PropOp50
 70
     1
102
RTVSPost2010Prop51ColorIndex
 90
      256
102
RTVSPost2010Prop51ColorRGB
 90
-16777216
102
RTVSPost2010PropOp51
 70
     0
102
RTVSPost2010Prop52
140
1.0
102
RTVSPost2010PropOp52
 70
     0
102
RTVSPost2010Prop53
 90
        2
102
RTVSPost2010PropOp53
 70
     1
102
RTVSPost2010Prop54
  1
strokes_ogs.tif
102
RTVSPost2010PropOp54
 70
     1
102
RTVSPost2010Prop55
280
     0
102
RTVSPost2010PropOp55
 70
     1
102
RTVSPost2010Prop56
140
1.0
102
RTVSPost2010PropOp56
 70
     1
102
RTVSPost2010Prop57
140
1.0
102
RTVSPost2010PropOp57
 70
     1
102
RTVSPropertyOp0
 70
     1
102
RTVSPropertyOp1
 70
     1
102
RTVSPropertyOp2
 70
     1
102
RTVSPropertyOp3
 70
     1
102
RTVSPropertyOp4
 70
     1
102
RTVSPropertyOp5
 70
     1
102
RTVSPropertyOp6
 70
     1
102
RTVSPropertyOp7
 70
     1
102
RTVSPropertyOp8
 70
     1
102
RTVSPropertyOp9
 70
     1
102
RTVSPropertyOp10
 70
     1
102
RTVSPropertyOp11
 70
     1
102
RTVSPropertyOp12
 70
     1
102
RTVSPropertyOp13
 70
     1
102
RTVSPropertyOp14
 70
     1
102
RTVSPropertyOp15
 70
     1
102
RTVSPropertyOp16
 70
     1
102
RTVSPropertyOp17
 70
     1
102
RTVSPropertyOp18
 70
     1
102
RTVSPropertyOp19
 70
     1
102
RTVSPropertyOp20
 70
     1
102
RTVSPropertyOp21
 70
     1
102
RTVSPropertyOp22
 70
     1
102
RTVSPropertyOp23
 70
     1
102
RTVSPropertyOp24
 70
     1
102
RTVSPropertyOp25
 70
     1
102
RTVSPropertyOp26
 70
     1
102
RTVSPropertyOp27
 70
     1
102
RTVSPropertyOp28
 70
     1
102
RTVSPropertyOp29
 70
     1
102
RTVSPropertyOp30
 70
     1
102
RTVSPropertyOp31
 70
     1
102
RTVSPropertyOp32
 70
     1
102
RTVSPropertyOp33
 70
     1
102
RTVSPropertyOp34
 70
     1
102
RTVSPropertyOp35
 70
     1
102
RTVSPropertyOp36
 70
     1
102
RTVSPropertyOp37
 70
     1
102
RTVSPropertyOp38
 70
     1
102
RTVSPropertyOp39
 70
     1
102
RTVSPropertyOp40
 70
     1
102
RTVSPropertyOp41
 70
     1
102
RTVSPropertyOp42
 70
     1
102
RTVSPropertyOp43
 70
     1
102
RTVSPropertyOp44
 70
     1
102
RTVSPropertyOp45
 70
     1
102
RTVSPropertyOp46
 70
     1
102
RTVSPropertyOp47
 70
     1
102
RTVSPropertyOp48
 70
     1
102
RTVSPropertyOp49
 70
     1
102
RTVSPropertyOp50
 70
     1
102
RTVSPropertyOp51
 70
     0
102
RTVSPropertyOp52
 70
     0
102
RTVSPropertyOp53
 70
     1
102
RTVSPropertyOp54
 70
     1
102
RTVSPropertyOp55
 70
     1
102
RTVSPropertyOp56
 70
     1
102
RTVSPropertyOp57
 70
     1
102
RTVSPropertyOp58
 70
     1
102
RTVSPropertyOp59
 70
     1
102
RTVSPropertyOp60
 70
     1
102
RTVSPropertyOp61
 70
     1
102
RTVSPropertyOp62
 70
     1
  0
XRECORD
  5
68E
102
{ACAD_REACTORS
330
68D
102
}
330
68D
100
AcDbXrecord
280
     1
102
RTVSPost2010Prop28
280
     0
102
RTVSPost2010PropOp28
 70
     1
102
RTVSPost2010Prop29
280
     1
102
RTVSPost2010PropOp29
 70
     1
102
RTVSPost2010Prop30
280
     1
102
RTVSPost2010PropOp30
 70
     1
102
RTVSPost2010Prop31
280
     0
102
RTVSPost2010PropOp31
 70
     1
102
RTVSPost2010Prop32
280
     0
102
RTVSPost2010PropOp32
 70
     1
102
RTVSPost2010Prop33
280
     0
102
RTVSPost2010PropOp33
 70
     1
102
RTVSPost2010Prop34
280
     0
102
RTVSPost2010PropOp34
 70
     1
102
RTVSPost2010Prop35
280
     0
102
RTVSPost2010PropOp35
 70
     1
102
RTVSPost2010Prop36
280
     0
102
RTVSPost2010PropOp36
 70
     1
102
RTVSPost2010Prop37
 90
       50
102
RTVSPost2010PropOp37
 70
     1
102
RTVSPost2010Prop38
140
0.0
102
RTVSPost2010PropOp38
 70
     1
102
RTVSPost2010Prop39
140
1.0
102
RTVSPost2010PropOp39
 70
     1
102
RTVSPost2010Prop40
 90
        0
102
RTVSPost2010PropOp40
 70
     1
102
RTVSPost2010Prop41ColorIndex
 90
       18
102
RTVSPost2010Prop41ColorRGB
 90
        0
102
RTVSPost2010PropOp41
 70
     1
102
RTVSPost2010Prop42
 90
       50
102
RTVSPost2010PropOp42
 70
     1
102
RTVSPost2010Prop43
 90
        3
102
RTVSPost2010PropOp43
 70
     1
102
RTVSPost2010Prop44ColorIndex
 90
        5
102
RTVSPost2010Prop44ColorRGB
 90
      255
102
RTVSPost2010PropOp44
 70
     1
102
RTVSPost2010Prop45
280
     0
102
RTVSPost2010PropOp45
 70
     1
102
RTVSPost2010Prop46
 90
       50
102
RTVSPost2010PropOp46
 70
     1
102
RTVSPost2010Prop47
 90
       50
102
RTVSPost2010PropOp47
 70
     1
102
RTVSPost2010Prop48
 90
       50
102
RTVSPost2010PropOp48
 70
     1
102
RTVSPost2010Prop49
280
     0
102
RTVSPost2010PropOp49
 70
     1
102
RTVSPost2010Prop50
 90
       50
102
RTVSPost2010PropOp50
 70
     1
102
RTVSPost2010Prop51ColorIndex
 90
      256
102
RTVSPost2010Prop51ColorRGB
 90
-16777216
102
RTVSPost2010PropOp51
 70
     0
102
RTVSPost2010Prop52
140
1.0
102
RTVSPost2010PropOp52
 70
     0
102
RTVSPost2010Prop53
 90
        2
102
RTVSPost2010PropOp53
 70
     1
102
RTVSPost2010Prop54
  1
strokes_ogs.tif
102
RTVSPost2010PropOp54
 70
     1
102
RTVSPost2010Prop55
280
     0
102
RTVSPost2010PropOp55
 70
     1
102
RTVSPost2010Prop56
140
1.0
102
RTVSPost2010PropOp56
 70
     1
102
RTVSPost2010Prop57
140
1.0
102
RTVSPost2010PropOp57
 70
     1
102
RTVSPropertyOp0
 70
     1
102
RTVSPropertyOp1
 70
     1
102
RTVSPropertyOp2
 70
     1
102
RTVSPropertyOp3
 70
     1
102
RTVSPropertyOp4
 70
     1
102
RTVSPropertyOp5
 70
     1
102
RTVSPropertyOp6
 70
     1
102
RTVSPropertyOp7
 70
     1
102
RTVSPropertyOp8
 70
     1
102
RTVSPropertyOp9
 70
     1
102
RTVSPropertyOp10
 70
     1
102
RTVSPropertyOp11
 70
     1
102
RTVSPropertyOp12
 70
     1
102
RTVSPropertyOp13
 70
     1
102
RTVSPropertyOp14
 70
     1
102
RTVSPropertyOp15
 70
     1
102
RTVSPropertyOp16
 70
     1
102
RTVSPropertyOp17
 70
     1
102
RTVSPropertyOp18
 70
     1
102
RTVSPropertyOp19
 70
     1
102
RTVSPropertyOp20
 70
     1
102
RTVSPropertyOp21
 70
     1
102
RTVSPropertyOp22
 70
     1
102
RTVSPropertyOp23
 70
     1
102
RTVSPropertyOp24
 70
     1
102
RTVSPropertyOp25
 70
     1
102
RTVSPropertyOp26
 70
     1
102
RTVSPropertyOp27
 70
     1
102
RTVSPropertyOp28
 70
     1
102
RTVSPropertyOp29
 70
     1
102
RTVSPropertyOp30
 70
     1
102
RTVSPropertyOp31
 70
     1
102
RTVSPropertyOp32
 70
     1
102
RTVSPropertyOp33
 70
     1
102
RTVSPropertyOp34
 70
     1
102
RTVSPropertyOp35
 70
     1
102
RTVSPropertyOp36
 70
     1
102
RTVSPropertyOp37
 70
     1
102
RTVSPropertyOp38
 70
     1
102
RTVSPropertyOp39
 70
     1
102
RTVSPropertyOp40
 70
     1
102
RTVSPropertyOp41
 70
     1
102
RTVSPropertyOp42
 70
     1
102
RTVSPropertyOp43
 70
     1
102
RTVSPropertyOp44
 70
     1
102
RTVSPropertyOp45
 70
     1
102
RTVSPropertyOp46
 70
     1
102
RTVSPropertyOp47
 70
     1
102
RTVSPropertyOp48
 70
     1
102
RTVSPropertyOp49
 70
     1
102
RTVSPropertyOp50
 70
     1
102
RTVSPropertyOp51
 70
     0
102
RTVSPropertyOp52
 70
     0
102
RTVSPropertyOp53
 70
     1
102
RTVSPropertyOp54
 70
     1
102
RTVSPropertyOp55
 70
     1
102
RTVSPropertyOp56
 70
     1
102
RTVSPropertyOp57
 70
     1
102
RTVSPropertyOp58
 70
     1
102
RTVSPropertyOp59
 70
     1
102
RTVSPropertyOp60
 70
     1
102
RTVSPropertyOp61
 70
     1
102
RTVSPropertyOp62
 70
     1
  0
XRECORD
  5
684
102
{ACAD_REACTORS
330
683
102
}
330
683
100
AcDbXrecord
280
     1
102
RTVSPost2010Prop28
280
     0
102
RTVSPost2010PropOp28
 70
     1
102
RTVSPost2010Prop29
280
     1
102
RTVSPost2010PropOp29
 70
     1
102
RTVSPost2010Prop30
280
     1
102
RTVSPost2010PropOp30
 70
     1
102
RTVSPost2010Prop31
280
     0
102
RTVSPost2010PropOp31
 70
     1
102
RTVSPost2010Prop32
280
     0
102
RTVSPost2010PropOp32
 70
     1
102
RTVSPost2010Prop33
280
     0
102
RTVSPost2010PropOp33
 70
     1
102
RTVSPost2010Prop34
280
     0
102
RTVSPost2010PropOp34
 70
     1
102
RTVSPost2010Prop35
280
     0
102
RTVSPost2010PropOp35
 70
     1
102
RTVSPost2010Prop36
280
     0
102
RTVSPost2010PropOp36
 70
     1
102
RTVSPost2010Prop37
 90
       50
102
RTVSPost2010PropOp37
 70
     1
102
RTVSPost2010Prop38
140
0.0
102
RTVSPost2010PropOp38
 70
     1
102
RTVSPost2010Prop39
140
1.0
102
RTVSPost2010PropOp39
 70
     1
102
RTVSPost2010Prop40
 90
        0
102
RTVSPost2010PropOp40
 70
     1
102
RTVSPost2010Prop41ColorIndex
 90
       18
102
RTVSPost2010Prop41ColorRGB
 90
        0
102
RTVSPost2010PropOp41
 70
     1
102
RTVSPost2010Prop42
 90
       50
102
RTVSPost2010PropOp42
 70
     1
102
RTVSPost2010Prop43
 90
        3
102
RTVSPost2010PropOp43
 70
     1
102
RTVSPost2010Prop44ColorIndex
 90
        5
102
RTVSPost2010Prop44ColorRGB
 90
      255
102
RTVSPost2010PropOp44
 70
     1
102
RTVSPost2010Prop45
280
     0
102
RTVSPost2010PropOp45
 70
     1
102
RTVSPost2010Prop46
 90
       50
102
RTVSPost2010PropOp46
 70
     1
102
RTVSPost2010Prop47
 90
       50
102
RTVSPost2010PropOp47
 70
     1
102
RTVSPost2010Prop48
 90
       50
102
RTVSPost2010PropOp48
 70
     1
102
RTVSPost2010Prop49
280
     0
102
RTVSPost2010PropOp49
 70
     1
102
RTVSPost2010Prop50
 90
       50
102
RTVSPost2010PropOp50
 70
     1
102
RTVSPost2010Prop51ColorIndex
 90
      256
102
RTVSPost2010Prop51ColorRGB
 90
-16777216
102
RTVSPost2010PropOp51
 70
     0
102
RTVSPost2010Prop52
140
1.0
102
RTVSPost2010PropOp52
 70
     0
102
RTVSPost2010Prop53
 90
        2
102
RTVSPost2010PropOp53
 70
     1
102
RTVSPost2010Prop54
  1
strokes_ogs.tif
102
RTVSPost2010PropOp54
 70
     1
102
RTVSPost2010Prop55
280
     0
102
RTVSPost2010PropOp55
 70
     1
102
RTVSPost2010Prop56
140
1.0
102
RTVSPost2010PropOp56
 70
     1
102
RTVSPost2010Prop57
140
1.0
102
RTVSPost2010PropOp57
 70
     1
102
RTVSPropertyOp0
 70
     1
102
RTVSPropertyOp1
 70
     1
102
RTVSPropertyOp2
 70
     1
102
RTVSPropertyOp3
 70
     1
102
RTVSPropertyOp4
 70
     1
102
RTVSPropertyOp5
 70
     1
102
RTVSPropertyOp6
 70
     1
102
RTVSPropertyOp7
 70
     1
102
RTVSPropertyOp8
 70
     1
102
RTVSPropertyOp9
 70
     1
102
RTVSPropertyOp10
 70
     1
102
RTVSPropertyOp11
 70
     1
102
RTVSPropertyOp12
 70
     1
102
RTVSPropertyOp13
 70
     1
102
RTVSPropertyOp14
 70
     1
102
RTVSPropertyOp15
 70
     1
102
RTVSPropertyOp16
 70
     1
102
RTVSPropertyOp17
 70
     1
102
RTVSPropertyOp18
 70
     1
102
RTVSPropertyOp19
 70
     1
102
RTVSPropertyOp20
 70
     1
102
RTVSPropertyOp21
 70
     1
102
RTVSPropertyOp22
 70
     1
102
RTVSPropertyOp23
 70
     1
102
RTVSPropertyOp24
 70
     1
102
RTVSPropertyOp25
 70
     1
102
RTVSPropertyOp26
 70
     1
102
RTVSPropertyOp27
 70
     1
102
RTVSPropertyOp28
 70
     1
102
RTVSPropertyOp29
 70
     1
102
RTVSPropertyOp30
 70
     1
102
RTVSPropertyOp31
 70
     1
102
RTVSPropertyOp32
 70
     1
102
RTVSPropertyOp33
 70
     1
102
RTVSPropertyOp34
 70
     1
102
RTVSPropertyOp35
 70
     1
102
RTVSPropertyOp36
 70
     1
102
RTVSPropertyOp37
 70
     1
102
RTVSPropertyOp38
 70
     1
102
RTVSPropertyOp39
 70
     1
102
RTVSPropertyOp40
 70
     1
102
RTVSPropertyOp41
 70
     1
102
RTVSPropertyOp42
 70
     1
102
RTVSPropertyOp43
 70
     1
102
RTVSPropertyOp44
 70
     1
102
RTVSPropertyOp45
 70
     1
102
RTVSPropertyOp46
 70
     1
102
RTVSPropertyOp47
 70
     1
102
RTVSPropertyOp48
 70
     1
102
RTVSPropertyOp49
 70
     1
102
RTVSPropertyOp50
 70
     1
102
RTVSPropertyOp51
 70
     0
102
RTVSPropertyOp52
 70
     0
102
RTVSPropertyOp53
 70
     1
102
RTVSPropertyOp54
 70
     1
102
RTVSPropertyOp55
 70
     1
102
RTVSPropertyOp56
 70
     1
102
RTVSPropertyOp57
 70
     1
102
RTVSPropertyOp58
 70
     1
102
RTVSPropertyOp59
 70
     1
102
RTVSPropertyOp60
 70
     1
102
RTVSPropertyOp61
 70
     1
102
RTVSPropertyOp62
 70
     1
  0
XRECORD
  5
678
102
{ACAD_REACTORS
330
677
102
}
330
677
100
AcDbXrecord
280
     1
102
RTVSPost2010Prop28
280
     0
102
RTVSPost2010PropOp28
 70
     1
102
RTVSPost2010Prop29
280
     1
102
RTVSPost2010PropOp29
 70
     1
102
RTVSPost2010Prop30
280
     1
102
RTVSPost2010PropOp30
 70
     1
102
RTVSPost2010Prop31
280
     0
102
RTVSPost2010PropOp31
 70
     1
102
RTVSPost2010Prop32
280
     0
102
RTVSPost2010PropOp32
 70
     1
102
RTVSPost2010Prop33
280
     0
102
RTVSPost2010PropOp33
 70
     1
102
RTVSPost2010Prop34
280
     0
102
RTVSPost2010PropOp34
 70
     1
102
RTVSPost2010Prop35
280
     0
102
RTVSPost2010PropOp35
 70
     1
102
RTVSPost2010Prop36
280
     0
102
RTVSPost2010PropOp36
 70
     1
102
RTVSPost2010Prop37
 90
       50
102
RTVSPost2010PropOp37
 70
     1
102
RTVSPost2010Prop38
140
0.0
102
RTVSPost2010PropOp38
 70
     1
102
RTVSPost2010Prop39
140
1.0
102
RTVSPost2010PropOp39
 70
     1
102
RTVSPost2010Prop40
 90
        0
102
RTVSPost2010PropOp40
 70
     1
102
RTVSPost2010Prop41ColorIndex
 90
       18
102
RTVSPost2010Prop41ColorRGB
 90
        0
102
RTVSPost2010PropOp41
 70
     1
102
RTVSPost2010Prop42
 90
       50
102
RTVSPost2010PropOp42
 70
     1
102
RTVSPost2010Prop43
 90
        3
102
RTVSPost2010PropOp43
 70
     1
102
RTVSPost2010Prop44ColorIndex
 90
        5
102
RTVSPost2010Prop44ColorRGB
 90
      255
102
RTVSPost2010PropOp44
 70
     1
102
RTVSPost2010Prop45
280
     0
102
RTVSPost2010PropOp45
 70
     1
102
RTVSPost2010Prop46
 90
       50
102
RTVSPost2010PropOp46
 70
     1
102
RTVSPost2010Prop47
 90
       50
102
RTVSPost2010PropOp47
 70
     1
102
RTVSPost2010Prop48
 90
       50
102
RTVSPost2010PropOp48
 70
     1
102
RTVSPost2010Prop49
280
     0
102
RTVSPost2010PropOp49
 70
     1
102
RTVSPost2010Prop50
 90
       50
102
RTVSPost2010PropOp50
 70
     1
102
RTVSPost2010Prop51ColorIndex
 90
      256
102
RTVSPost2010Prop51ColorRGB
 90
-16777216
102
RTVSPost2010PropOp51
 70
     0
102
RTVSPost2010Prop52
140
1.0
102
RTVSPost2010PropOp52
 70
     0
102
RTVSPost2010Prop53
 90
        2
102
RTVSPost2010PropOp53
 70
     1
102
RTVSPost2010Prop54
  1
strokes_ogs.tif
102
RTVSPost2010PropOp54
 70
     1
102
RTVSPost2010Prop55
280
     0
102
RTVSPost2010PropOp55
 70
     1
102
RTVSPost2010Prop56
140
1.0
102
RTVSPost2010PropOp56
 70
     1
102
RTVSPost2010Prop57
140
1.0
102
RTVSPost2010PropOp57
 70
     1
102
RTVSPropertyOp0
 70
     1
102
RTVSPropertyOp1
 70
     1
102
RTVSPropertyOp2
 70
     1
102
RTVSPropertyOp3
 70
     1
102
RTVSPropertyOp4
 70
     1
102
RTVSPropertyOp5
 70
     1
102
RTVSPropertyOp6
 70
     1
102
RTVSPropertyOp7
 70
     1
102
RTVSPropertyOp8
 70
     1
102
RTVSPropertyOp9
 70
     1
102
RTVSPropertyOp10
 70
     1
102
RTVSPropertyOp11
 70
     1
102
RTVSPropertyOp12
 70
     1
102
RTVSPropertyOp13
 70
     1
102
RTVSPropertyOp14
 70
     1
102
RTVSPropertyOp15
 70
     1
102
RTVSPropertyOp16
 70
     1
102
RTVSPropertyOp17
 70
     1
102
RTVSPropertyOp18
 70
     1
102
RTVSPropertyOp19
 70
     1
102
RTVSPropertyOp20
 70
     1
102
RTVSPropertyOp21
 70
     1
102
RTVSPropertyOp22
 70
     1
102
RTVSPropertyOp23
 70
     1
102
RTVSPropertyOp24
 70
     1
102
RTVSPropertyOp25
 70
     1
102
RTVSPropertyOp26
 70
     1
102
RTVSPropertyOp27
 70
     1
102
RTVSPropertyOp28
 70
     1
102
RTVSPropertyOp29
 70
     1
102
RTVSPropertyOp30
 70
     1
102
RTVSPropertyOp31
 70
     1
102
RTVSPropertyOp32
 70
     1
102
RTVSPropertyOp33
 70
     1
102
RTVSPropertyOp34
 70
     1
102
RTVSPropertyOp35
 70
     1
102
RTVSPropertyOp36
 70
     1
102
RTVSPropertyOp37
 70
     1
102
RTVSPropertyOp38
 70
     1
102
RTVSPropertyOp39
 70
     1
102
RTVSPropertyOp40
 70
     1
102
RTVSPropertyOp41
 70
     1
102
RTVSPropertyOp42
 70
     1
102
RTVSPropertyOp43
 70
     1
102
RTVSPropertyOp44
 70
     1
102
RTVSPropertyOp45
 70
     1
102
RTVSPropertyOp46
 70
     1
102
RTVSPropertyOp47
 70
     1
102
RTVSPropertyOp48
 70
     1
102
RTVSPropertyOp49
 70
     1
102
RTVSPropertyOp50
 70
     1
102
RTVSPropertyOp51
 70
     0
102
RTVSPropertyOp52
 70
     0
102
RTVSPropertyOp53
 70
     1
102
RTVSPropertyOp54
 70
     1
102
RTVSPropertyOp55
 70
     1
102
RTVSPropertyOp56
 70
     1
102
RTVSPropertyOp57
 70
     1
102
RTVSPropertyOp58
 70
     1
102
RTVSPropertyOp59
 70
     1
102
RTVSPropertyOp60
 70
     1
102
RTVSPropertyOp61
 70
     1
102
RTVSPropertyOp62
 70
     1
  0
XRECORD
  5
690
102
{ACAD_REACTORS
330
68F
102
}
330
68F
100
AcDbXrecord
280
     1
102
RTVSPost2010Prop28
280
     0
102
RTVSPost2010PropOp28
 70
     1
102
RTVSPost2010Prop29
280
     1
102
RTVSPost2010PropOp29
 70
     1
102
RTVSPost2010Prop30
280
     1
102
RTVSPost2010PropOp30
 70
     1
102
RTVSPost2010Prop31
280
     0
102
RTVSPost2010PropOp31
 70
     1
102
RTVSPost2010Prop32
280
     0
102
RTVSPost2010PropOp32
 70
     1
102
RTVSPost2010Prop33
280
     0
102
RTVSPost2010PropOp33
 70
     1
102
RTVSPost2010Prop34
280
     0
102
RTVSPost2010PropOp34
 70
     1
102
RTVSPost2010Prop35
280
     0
102
RTVSPost2010PropOp35
 70
     1
102
RTVSPost2010Prop36
280
     0
102
RTVSPost2010PropOp36
 70
     1
102
RTVSPost2010Prop37
 90
       50
102
RTVSPost2010PropOp37
 70
     1
102
RTVSPost2010Prop38
140
0.0
102
RTVSPost2010PropOp38
 70
     1
102
RTVSPost2010Prop39
140
1.0
102
RTVSPost2010PropOp39
 70
     1
102
RTVSPost2010Prop40
 90
        0
102
RTVSPost2010PropOp40
 70
     1
102
RTVSPost2010Prop41ColorIndex
 90
       18
102
RTVSPost2010Prop41ColorRGB
 90
        0
102
RTVSPost2010PropOp41
 70
     1
102
RTVSPost2010Prop42
 90
       50
102
RTVSPost2010PropOp42
 70
     1
102
RTVSPost2010Prop43
 90
        3
102
RTVSPost2010PropOp43
 70
     1
102
RTVSPost2010Prop44ColorIndex
 90
        5
102
RTVSPost2010Prop44ColorRGB
 90
      255
102
RTVSPost2010PropOp44
 70
     1
102
RTVSPost2010Prop45
280
     0
102
RTVSPost2010PropOp45
 70
     1
102
RTVSPost2010Prop46
 90
       50
102
RTVSPost2010PropOp46
 70
     1
102
RTVSPost2010Prop47
 90
       50
102
RTVSPost2010PropOp47
 70
     1
102
RTVSPost2010Prop48
 90
       50
102
RTVSPost2010PropOp48
 70
     1
102
RTVSPost2010Prop49
280
     0
102
RTVSPost2010PropOp49
 70
     1
102
RTVSPost2010Prop50
 90
       50
102
RTVSPost2010PropOp50
 70
     1
102
RTVSPost2010Prop51ColorIndex
 90
      256
102
RTVSPost2010Prop51ColorRGB
 90
-16777216
102
RTVSPost2010PropOp51
 70
     0
102
RTVSPost2010Prop52
140
1.0
102
RTVSPost2010PropOp52
 70
     0
102
RTVSPost2010Prop53
 90
        2
102
RTVSPost2010PropOp53
 70
     1
102
RTVSPost2010Prop54
  1
strokes_ogs.tif
102
RTVSPost2010PropOp54
 70
     1
102
RTVSPost2010Prop55
280
     0
102
RTVSPost2010PropOp55
 70
     1
102
RTVSPost2010Prop56
140
1.0
102
RTVSPost2010PropOp56
 70
     1
102
RTVSPost2010Prop57
140
1.0
102
RTVSPost2010PropOp57
 70
     1
102
RTVSPropertyOp0
 70
     1
102
RTVSPropertyOp1
 70
     1
102
RTVSPropertyOp2
 70
     1
102
RTVSPropertyOp3
 70
     1
102
RTVSPropertyOp4
 70
     1
102
RTVSPropertyOp5
 70
     1
102
RTVSPropertyOp6
 70
     1
102
RTVSPropertyOp7
 70
     1
102
RTVSPropertyOp8
 70
     1
102
RTVSPropertyOp9
 70
     1
102
RTVSPropertyOp10
 70
     1
102
RTVSPropertyOp11
 70
     1
102
RTVSPropertyOp12
 70
     1
102
RTVSPropertyOp13
 70
     1
102
RTVSPropertyOp14
 70
     1
102
RTVSPropertyOp15
 70
     1
102
RTVSPropertyOp16
 70
     1
102
RTVSPropertyOp17
 70
     1
102
RTVSPropertyOp18
 70
     1
102
RTVSPropertyOp19
 70
     1
102
RTVSPropertyOp20
 70
     1
102
RTVSPropertyOp21
 70
     1
102
RTVSPropertyOp22
 70
     1
102
RTVSPropertyOp23
 70
     1
102
RTVSPropertyOp24
 70
     1
102
RTVSPropertyOp25
 70
     1
102
RTVSPropertyOp26
 70
     1
102
RTVSPropertyOp27
 70
     1
102
RTVSPropertyOp28
 70
     1
102
RTVSPropertyOp29
 70
     1
102
RTVSPropertyOp30
 70
     1
102
RTVSPropertyOp31
 70
     1
102
RTVSPropertyOp32
 70
     1
102
RTVSPropertyOp33
 70
     1
102
RTVSPropertyOp34
 70
     1
102
RTVSPropertyOp35
 70
     1
102
RTVSPropertyOp36
 70
     1
102
RTVSPropertyOp37
 70
     1
102
RTVSPropertyOp38
 70
     1
102
RTVSPropertyOp39
 70
     1
102
RTVSPropertyOp40
 70
     1
102
RTVSPropertyOp41
 70
     1
102
RTVSPropertyOp42
 70
     1
102
RTVSPropertyOp43
 70
     1
102
RTVSPropertyOp44
 70
     1
102
RTVSPropertyOp45
 70
     1
102
RTVSPropertyOp46
 70
     1
102
RTVSPropertyOp47
 70
     1
102
RTVSPropertyOp48
 70
     1
102
RTVSPropertyOp49
 70
     1
102
RTVSPropertyOp50
 70
     1
102
RTVSPropertyOp51
 70
     0
102
RTVSPropertyOp52
 70
     0
102
RTVSPropertyOp53
 70
     1
102
RTVSPropertyOp54
 70
     1
102
RTVSPropertyOp55
 70
     1
102
RTVSPropertyOp56
 70
     1
102
RTVSPropertyOp57
 70
     1
102
RTVSPropertyOp58
 70
     1
102
RTVSPropertyOp59
 70
     1
102
RTVSPropertyOp60
 70
     1
102
RTVSPropertyOp61
 70
     1
102
RTVSPropertyOp62
 70
     1
  0
ENDSEC
  0
EOF
