  0
SECTION
  2
HEADER
  9
$ACADVER
  1
AC1015
  9
$ACADMAINTVER
 70
    20
  9
$DWGCODEPAGE
  3
ANSI_932
  9
$INSBASE
 10
0.0
 20
0.0
 30
0.0
  9
$EXTMIN
 10
9.9999975266385
 20
10.0
 30
0.0
  9
$EXTMAX
 10
577.6457943960077
 20
310.2500000001132
 30
0.0
  9
$LIMMIN
 10
0.0000015376081137
 20
-0.0000001931532552
  9
$LIMMAX
 10
645.0000015376082
 20
444.6590907159374
  9
$ORTHOMODE
 70
     1
  9
$REGENMODE
 70
     1
  9
$FILLMODE
 70
     1
  9
$QTEXTMODE
 70
     0
  9
$MIRRTEXT
 70
     1
  9
$LTSCALE
 40
1.0
  9
$ATTMODE
 70
     1
  9
$TEXTSIZE
 40
2.5
  9
$TRACEWID
 40
1.0
  9
$TEXTSTYLE
  7
STANDARD
  9
$CLAYER
  8
0
  9
$CELTYPE
  6
BYLAYER
  9
$CECOLOR
 62
   256
  9
$CELTSCALE
 40
1.0
  9
$DISPSILH
 70
     0
  9
$DIMSCALE
 40
1.0
  9
$DIMASZ
 40
3.0
  9
$DIMEXO
 40
1.0
  9
$DIMDLI
 40
8.0
  9
$DIMRND
 40
0.0
  9
$DIMDLE
 40
0.0
  9
$DIMEXE
 40
1.0
  9
$DIMTP
 40
0.0
  9
$DIMTM
 40
0.0
  9
$DIMTXT
 40
3.2
  9
$DIMCEN
 40
0.0
  9
$DIMTSZ
 40
0.0
  9
$DIMTOL
 70
     0
  9
$DIMLIM
 70
     0
  9
$DIMTIH
 70
     0
  9
$DIMTOH
 70
     0
  9
$DIMSE1
 70
     0
  9
$DIMSE2
 70
     0
  9
$DIMTAD
 70
     3
  9
$DIMZIN
 70
     8
  9
$DIMBLK
  1

  9
$DIMASO
 70
     1
  9
$DIMSHO
 70
     1
  9
$DIMPOST
  1

  9
$DIMAPOST
  1

  9
$DIMALT
 70
     0
  9
$DIMALTD
 70
     2
  9
$DIMALTF
 40
25.4
  9
$DIMLFAC
 40
1.0
  9
$DIMTOFL
 70
     1
  9
$DIMTVP
 40
0.0
  9
$DIMTIX
 70
     0
  9
$DIMSOXD
 70
     0
  9
$DIMSAH
 70
     1
  9
$DIMBLK1
  1
OPEN
  9
$DIMBLK2
  1
OPEN
  9
$DIMSTYLE
  2
STANDARD
  9
$DIMCLRD
 70
     0
  9
$DIMCLRE
 70
     0
  9
$DIMCLRT
 70
     0
  9
$DIMTFAC
 40
1.0
  9
$DIMGAP
 40
1.0
  9
$DIMJUST
 70
     0
  9
$DIMSD1
 70
     0
  9
$DIMSD2
 70
     0
  9
$DIMTOLJ
 70
     1
  9
$DIMTZIN
 70
     0
  9
$DIMALTZ
 70
     0
  9
$DIMALTTZ
 70
     0
  9
$DIMUPT
 70
     0
  9
$DIMDEC
 70
     4
  9
$DIMTDEC
 70
     4
  9
$DIMALTU
 70
     2
  9
$DIMALTTD
 70
     2
  9
$DIMTXSTY
  7
STANDARD
  9
$DIMAUNIT
 70
     0
  9
$DIMADEC
 70
     0
  9
$DIMALTRND
 40
0.0
  9
$DIMAZIN
 70
     0
  9
$DIMDSEP
 70
    46
  9
$DIMATFIT
 70
     3
  9
$DIMFRAC
 70
     0
  9
$DIMLDRBLK
  1
OPEN
  9
$DIMLUNIT
 70
     2
  9
$DIMLWD
 70
    -2
  9
$DIMLWE
 70
    -2
  9
$DIMTMOVE
 70
     0
  9
$LUNITS
 70
     2
  9
$LUPREC
 70
     4
  9
$SKETCHINC
 40
1.0
  9
$FILLETRAD
 40
2.0
  9
$AUNITS
 70
     0
  9
$AUPREC
 70
     0
  9
$MENU
  1
.
  9
$ELEVATION
 40
0.0
  9
$PELEVATION
 40
0.0
  9
$THICKNESS
 40
0.0
  9
$LIMCHECK
 70
     0
  9
$CHAMFERA
 40
10.0
  9
$CHAMFERB
 40
10.0
  9
$CHAMFERC
 40
20.0
  9
$CHAMFERD
 40
0.0
  9
$SKPOLY
 70
     0
  9
$TDCREATE
 40
2452051.395592083
  9
$TDUCREATE
 40
2452051.020592084
  9
$TDUPDATE
 40
2457192.642887107
  9
$TDUUPDATE
 40
2457192.267887107
  9
$TDINDWG
 40
0.6499716088
  9
$TDUSRTIMER
 40
0.6499716088
  9
$USRTIMER
 70
     1
  9
$ANGBASE
 50
0.0
  9
$ANGDIR
 70
     0
  9
$PDMODE
 70
     0
  9
$PDSIZE
 40
0.0
  9
$PLINEWID
 40
0.0
  9
$SPLFRAME
 70
     0
  9
$SPLINETYPE
 70
     6
  9
$SPLINESEGS
 70
     8
  9
$HANDSEED
  5
AA50
  9
$SURFTAB1
 70
     6
  9
$SURFTAB2
 70
     6
  9
$SURFTYPE
 70
     6
  9
$SURFU
 70
     6
  9
$SURFV
 70
     6
  9
$UCSBASE
  2

  9
$UCSNAME
  2

  9
$UCSORG
 10
0.0
 20
0.0
 30
0.0
  9
$UCSXDIR
 10
1.0
 20
0.0
 30
0.0
  9
$UCSYDIR
 10
0.0
 20
1.0
 30
0.0
  9
$UCSORTHOREF
  2

  9
$UCSORTHOVIEW
 70
     0
  9
$UCSORGTOP
 10
0.0
 20
0.0
 30
0.0
  9
$UCSORGBOTTOM
 10
0.0
 20
0.0
 30
0.0
  9
$UCSORGLEFT
 10
0.0
 20
0.0
 30
0.0
  9
$UCSORGRIGHT
 10
0.0
 20
0.0
 30
0.0
  9
$UCSORGFRONT
 10
0.0
 20
0.0
 30
0.0
  9
$UCSORGBACK
 10
0.0
 20
0.0
 30
0.0
  9
$PUCSBASE
  2

  9
$PUCSNAME
  2

  9
$PUCSORG
 10
0.0
 20
0.0
 30
0.0
  9
$PUCSXDIR
 10
1.0
 20
0.0
 30
0.0
  9
$PUCSYDIR
 10
0.0
 20
1.0
 30
0.0
  9
$PUCSORTHOREF
  2

  9
$PUCSORTHOVIEW
 70
     0
  9
$PUCSORGTOP
 10
0.0
 20
0.0
 30
0.0
  9
$PUCSORGBOTTOM
 10
0.0
 20
0.0
 30
0.0
  9
$PUCSORGLEFT
 10
0.0
 20
0.0
 30
0.0
  9
$PUCSORGRIGHT
 10
0.0
 20
0.0
 30
0.0
  9
$PUCSORGFRONT
 10
0.0
 20
0.0
 30
0.0
  9
$PUCSORGBACK
 10
0.0
 20
0.0
 30
0.0
  9
$USERI1
 70
     0
  9
$USERI2
 70
     0
  9
$USERI3
 70
     0
  9
$USERI4
 70
     0
  9
$USERI5
 70
     0
  9
$USERR1
 40
0.0
  9
$USERR2
 40
0.0
  9
$USERR3
 40
0.0
  9
$USERR4
 40
0.0
  9
$USERR5
 40
0.0
  9
$WORLDVIEW
 70
     1
  9
$SHADEDGE
 70
     3
  9
$SHADEDIF
 70
    70
  9
$TILEMODE
 70
     1
  9
$MAXACTVP
 70
    48
  9
$PINSBASE
 10
0.0
 20
0.0
 30
0.0
  9
$PLIMCHECK
 70
     0
  9
$PEXTMIN
 10
1.000000000000000E+20
 20
1.000000000000000E+20
 30
1.000000000000000E+20
  9
$PEXTMAX
 10
-1.000000000000000E+20
 20
-1.000000000000000E+20
 30
-1.000000000000000E+20
  9
$PLIMMIN
 10
0.0
 20
0.0
  9
$PLIMMAX
 10
420.0
 20
297.0
  9
$UNITMODE
 70
     0
  9
$VISRETAIN
 70
     1
  9
$PLINEGEN
 70
     0
  9
$PSLTSCALE
 70
     1
  9
$TREEDEPTH
 70
  3020
  9
$CMLSTYLE
  2
STANDARD
  9
$CMLJUST
 70
     0
  9
$CMLSCALE
 40
20.0
  9
$PROXYGRAPHICS
 70
     1
  9
$MEASUREMENT
 70
     0
  9
$CELWEIGHT
370
    -1
  9
$ENDCAPS
280
     0
  9
$JOINSTYLE
280
     0
  9
$LWDISPLAY
290
     0
  9
$INSUNITS
 70
     0
  9
$HYPERLINKBASE
  1

  9
$STYLESHEET
  1

  9
$XEDIT
290
     1
  9
$CEPSNTYPE
380
     0
  9
$PSTYLEMODE
290
     1
  9
$FINGERPRINTGUID
  2
{7F405CA1-99CC-4FFB-9250-27422227D7A0}
  9
$VERSIONGUID
  2
{3AC4E165-E8EB-4865-AE46-F06357B5FAF7}
  9
$EXTNAMES
290
     1
  9
$PSVPSCALE
 40
0.0
  9
$OLESTARTUP
290
     0
  0
ENDSEC
  0
SECTION
  2
CLASSES
  0
CLASS
  1
ACDBDICTIONARYWDFLT
  2
AcDbDictionaryWithDefault
  3
ObjectDBX Classes
 90
        0
280
     0
281
     0
  0
CLASS
  1
ACDBPLACEHOLDER
  2
AcDbPlaceHolder
  3
ObjectDBX Classes
 90
        0
280
     0
281
     0
  0
CLASS
  1
LAYOUT
  2
AcDbLayout
  3
ObjectDBX Classes
 90
        0
280
     0
281
     0
  0
CLASS
  1
DICTIONARYVAR
  2
AcDbDictionaryVar
  3
ObjectDBX Classes
 90
        0
280
     0
281
     0
  0
CLASS
  1
MATERIAL
  2
AcDbMaterial
  3
ObjectDBX Classes
 90
     1153
280
     0
281
     0
  0
CLASS
  1
VISUALSTYLE
  2
AcDbVisualStyle
  3
ObjectDBX Classes
 90
     4095
280
     0
281
     0
  0
CLASS
  1
TABLESTYLE
  2
AcDbTableStyle
  3
ObjectDBX Classes
 90
     4095
280
     0
281
     0
  0
CLASS
  1
SCALE
  2
AcDbScale
  3
ObjectDBX Classes
 90
     1153
280
     0
281
     0
  0
CLASS
  1
MLEADERSTYLE
  2
AcDbMLeaderStyle
  3
ACDB_MLEADERSTYLE_CLASS
 90
     4095
280
     0
281
     0
  0
CLASS
  1
ACDBSECTIONVIEWSTYLE
  2
AcDbSectionViewStyle
  3
ObjectDBX Classes
 90
     1025
280
     0
281
     0
  0
CLASS
  1
ACDBDETAILVIEWSTYLE
  2
AcDbDetailViewStyle
  3
ObjectDBX Classes
 90
     1025
280
     0
281
     0
  0
CLASS
  1
CELLSTYLEMAP
  2
AcDbCellStyleMap
  3
ObjectDBX Classes
 90
     1152
280
     0
281
     0
  0
ENDSEC
  0
SECTION
  2
TABLES
  0
TABLE
  2
VPORT
  5
8
330
0
100
AcDbSymbolTable
 70
     1
  0
VPORT
  5
A99A
330
8
100
AcDbSymbolTableRecord
100
AcDbViewportTableRecord
  2
*ACTIVE
 70
     0
 10
0.0
 20
0.0
 11
1.0
 21
1.0
 12
445.8014095989097
 22
160.128432089928
 13
0.0
 23
0.0
 14
10.0
 24
10.0
 15
10.0
 25
10.0
 16
0.0
 26
0.0
 36
1.0
 17
0.0
 27
0.0
 37
0.0
 40
372.1638647834803
 41
1.899603698811096
 42
50.0
 43
0.0
 44
0.0
 50
0.0
 51
0.0
 71
     0
 72
   100
 73
     1
 74
     0
 75
     0
 76
     0
 77
     0
 78
     0
281
     0
 65
     1
110
0.0
120
0.0
130
0.0
111
1.0
121
0.0
131
0.0
112
0.0
122
1.0
132
0.0
 79
     0
146
0.0
1001
ACAD_NAV_VCDISPLAY
1070
     3
  0
ENDTAB
  0
TABLE
  2
LTYPE
  5
5
330
0
100
AcDbSymbolTable
 70
     4
  0
LTYPE
  5
12
330
5
100
AcDbSymbolTableRecord
100
AcDbLinetypeTableRecord
  2
BYBLOCK
 70
     0
  3

 72
    65
 73
     0
 40
0.0
  0
LTYPE
  5
13
330
5
100
AcDbSymbolTableRecord
100
AcDbLinetypeTableRecord
  2
BYLAYER
 70
     0
  3

 72
    65
 73
     0
 40
0.0
  0
LTYPE
  5
14
330
5
100
AcDbSymbolTableRecord
100
AcDbLinetypeTableRecord
  2
CONTINUOUS
 70
     0
  3
Solid line
 72
    65
 73
     0
 40
0.0
  0
LTYPE
  5
4B
330
5
100
AcDbSymbolTableRecord
100
AcDbLinetypeTableRecord
  2
DASHED
 70
     0
  3
Dashed __ __ __ __ __ __ __ __ __ __ __ __ __ _
 72
    65
 73
     2
 40
19.04999999999999
 49
12.7
 74
     0
 49
-6.349999999999998
 74
     0
  0
LTYPE
  5
4C
330
5
100
AcDbSymbolTableRecord
100
AcDbLinetypeTableRecord
  2
CENTER
 70
     0
  3
Center ____ _ ____ _ ____ _ ____ _ ____ _ ____
 72
    65
 73
     4
 40
50.8
 49
31.75
 74
     0
 49
-6.349999999999998
 74
     0
 49
6.349999999999998
 74
     0
 49
-6.349999999999998
 74
     0
  0
LTYPE
  5
4D
330
5
100
AcDbSymbolTableRecord
100
AcDbLinetypeTableRecord
  2
PHANTOM
 70
     0
  3
Phantom ______  __  __  ______  __  __  ______
 72
    65
 73
     6
 40
63.5
 49
31.75
 74
     0
 49
-6.349999999999998
 74
     0
 49
6.349999999999998
 74
     0
 49
-6.349999999999998
 74
     0
 49
6.349999999999998
 74
     0
 49
-6.349999999999998
 74
     0
  0
ENDTAB
  0
TABLE
  2
LAYER
  5
2
330
0
100
AcDbSymbolTable
 70
     8
  0
LAYER
  5
E
102
{ACAD_XDICTIONARY
360
A9F4
102
}
330
2
100
AcDbSymbolTableRecord
100
AcDbLayerTableRecord
  2
0
 70
     0
 62
     7
  6
CONTINUOUS
370
    -3
390
A9A3
  0
LAYER
  5
4E
102
{ACAD_XDICTIONARY
360
A9F6
102
}
330
2
100
AcDbSymbolTableRecord
100
AcDbLayerTableRecord
  2
4
 70
     0
 62
     1
  6
CENTER
370
    -3
390
A9A3
  0
LAYER
  5
4F
102
{ACAD_XDICTIONARY
360
A9F8
102
}
330
2
100
AcDbSymbolTableRecord
100
AcDbLayerTableRecord
  2
5
 70
     0
 62
     6
  6
PHANTOM
370
    -3
390
A9A3
  0
LAYER
  5
50
102
{ACAD_XDICTIONARY
360
A9FA
102
}
330
2
100
AcDbSymbolTableRecord
100
AcDbLayerTableRecord
  2
1
 70
     0
 62
     7
  6
CONTINUOUS
370
    -3
390
A9A3
  0
LAYER
  5
51
102
{ACAD_XDICTIONARY
360
A9FC
102
}
330
2
100
AcDbSymbolTableRecord
100
AcDbLayerTableRecord
  2
2
 70
     0
 62
     4
  6
CONTINUOUS
370
    -3
390
A9A3
  0
LAYER
  5
52
102
{ACAD_XDICTIONARY
360
A9FE
102
}
330
2
100
AcDbSymbolTableRecord
100
AcDbLayerTableRecord
  2
3
 70
     0
 62
     2
  6
DASHED
370
    -3
390
A9A3
  0
LAYER
  5
53
102
{ACAD_XDICTIONARY
360
AA00
102
}
330
2
100
AcDbSymbolTableRecord
100
AcDbLayerTableRecord
  2
6
 70
     0
 62
     5
  6
CONTINUOUS
370
    -3
390
A9A3
  0
LAYER
  5
54
102
{ACAD_XDICTIONARY
360
AA02
102
}
330
2
100
AcDbSymbolTableRecord
100
AcDbLayerTableRecord
  2
7
 70
     0
 62
     3
  6
CONTINUOUS
370
    -3
390
A9A3
  0
ENDTAB
  0
TABLE
  2
STYLE
  5
3
330
0
100
AcDbSymbolTable
 70
     1
  0
STYLE
  5
F
330
3
100
AcDbSymbolTableRecord
100
AcDbTextStyleTableRecord
  2
STANDARD
 70
     0
 40
0.0
 41
1.0
 50
0.0
 71
     0
 42
2.5
  3
simplex.shx
  4

  0
ENDTAB
  0
TABLE
  2
VIEW
  5
6
330
0
100
AcDbSymbolTable
 70
     0
  0
ENDTAB
  0
TABLE
  2
UCS
  5
7
330
0
100
AcDbSymbolTable
 70
     0
  0
ENDTAB
  0
TABLE
  2
APPID
  5
9
330
0
100
AcDbSymbolTable
 70
     5
  0
APPID
  5
10
330
9
100
AcDbSymbolTableRecord
100
AcDbRegAppTableRecord
  2
ACAD
 70
     0
  0
APPID
  5
3E
330
9
100
AcDbSymbolTableRecord
100
AcDbRegAppTableRecord
  2
CONTENTTABDATA
 70
     0
  0
APPID
  5
3F
330
9
100
AcDbSymbolTableRecord
100
AcDbRegAppTableRecord
  2
CONTENTCURRENTTAB
 70
     0
  0
APPID
  5
AA0E
330
9
100
AcDbSymbolTableRecord
100
AcDbRegAppTableRecord
  2
ACAD_NAV_VCDISPLAY
 70
     0
  0
APPID
  5
AA47
330
9
100
AcDbSymbolTableRecord
100
AcDbRegAppTableRecord
  2
ACAD_MLEADERVER
 70
     0
  0
ENDTAB
  0
TABLE
  2
DIMSTYLE
  5
A
330
0
100
AcDbSymbolTable
 70
     1
100
AcDbDimStyleTable
 71
     0
  0
DIMSTYLE
105
1D
330
A
100
AcDbSymbolTableRecord
100
AcDbDimStyleTableRecord
  2
STANDARD
 70
     0
 41
3.0
 42
1.0
 43
8.0
 44
1.0
 73
     0
 74
     0
 77
     3
 78
     8
140
3.2
141
0.0
147
1.0
172
     1
173
     1
340
F
341
2E
343
2E
344
2E
  0
ENDTAB
  0
TABLE
  2
BLOCK_RECORD
  5
1
330
0
100
AcDbSymbolTable
 70
     1
  0
BLOCK_RECORD
  5
18
102
{ACAD_XDICTIONARY
360
A99D
102
}
330
1
100
AcDbSymbolTableRecord
100
AcDbBlockTableRecord
  2
*MODEL_SPACE
340
A9F1
  0
BLOCK_RECORD
  5
15
102
{ACAD_XDICTIONARY
360
A99B
102
}
330
1
100
AcDbSymbolTableRecord
100
AcDbBlockTableRecord
  2
*PAPER_SPACE
340
A9F2
  0
BLOCK_RECORD
  5
2E
330
1
100
AcDbSymbolTableRecord
100
AcDbBlockTableRecord
  2
_OPEN
340
0
  0
ENDTAB
  0
ENDSEC
  0
SECTION
  2
BLOCKS
  0
BLOCK
  5
19
330
18
100
AcDbEntity
  8
0
100
AcDbBlockBegin
  2
*MODEL_SPACE
 70
     0
 10
0.0
 20
0.0
 30
0.0
  3
*MODEL_SPACE
  1

  0
ENDBLK
  5
1A
330
18
100
AcDbEntity
  8
0
100
AcDbBlockEnd
  0
BLOCK
  5
16
330
15
100
AcDbEntity
 67
     1
  8
0
100
AcDbBlockBegin
  2
*PAPER_SPACE
 70
     0
 10
0.0
 20
0.0
 30
0.0
  3
*PAPER_SPACE
  1

  0
ENDBLK
  5
17
330
15
100
AcDbEntity
 67
     1
  8
0
100
AcDbBlockEnd
  0
BLOCK
  5
2F
330
2E
100
AcDbEntity
  8
0
100
AcDbBlockBegin
  2
_OPEN
 70
     0
 10
0.0
 20
0.0
 30
0.0
  3
_OPEN
  1

  0
LINE
  5
30
330
2E
100
AcDbEntity
  8
0
  6
ByBlock
 62
     0
100
AcDbLine
 10
-1.0
 20
0.1666666666666666
 30
0.0
 11
0.0
 21
0.0
 31
0.0
  0
LINE
  5
31
330
2E
100
AcDbEntity
  8
0
  6
ByBlock
 62
     0
100
AcDbLine
 10
0.0
 20
0.0
 30
0.0
 11
-1.0
 21
-0.1666666666666666
 31
0.0
  0
LINE
  5
32
330
2E
100
AcDbEntity
  8
0
  6
ByBlock
 62
     0
100
AcDbLine
 10
0.0
 20
0.0
 30
0.0
 11
-1.0
 21
0.0
 31
0.0
  0
ENDBLK
  5
33
330
2E
100
AcDbEntity
  8
0
100
AcDbBlockEnd
  0
ENDSEC
  0
SECTION
  2
ENTITIES
  0
TEXT
  5
63
330
18
100
AcDbEntity
  8
4
  6
CENTER
 48
0.25
100
AcDbText
 10
23.97950852663849
 20
10.0
 30
0.0
 40
1.399999999999999
  1
4
100
AcDbText
  0
TEXT
  5
64
330
18
100
AcDbEntity
  8
7
  6
Continuous
 48
0.25
100
AcDbText
 10
9.999997526638502
 20
26.0000007607689
 30
0.0
 40
3.0
  1
CODE No.13193
100
AcDbText
  0
TEXT
  5
65
330
18
100
AcDbEntity
  8
7
  6
Continuous
 48
0.25
100
AcDbText
 10
9.999997526638502
 20
18.00000076076889
 30
0.0
 40
3.0
  1
TYPE No.THA-429S-2K
100
AcDbText
  0
TEXT
  5
66
330
18
100
AcDbEntity
  8
1
  6
Continuous
 48
0.25
100
AcDbText
 10
9.999997526638502
 20
10.00000076076889
 30
0.0
 40
1.399999999999999
  1
LAYER
100
AcDbText
  0
TEXT
  5
67
330
18
100
AcDbEntity
  8
2
  6
Continuous
 48
0.25
100
AcDbText
 10
19.9795085266385
 20
10.0
 30
0.0
 40
1.399999999999999
  1
2
100
AcDbText
  0
TEXT
  5
68
330
18
100
AcDbEntity
  8
3
  6
DASHED
 48
0.25
100
AcDbText
 10
21.9795085266385
 20
10.0
 30
0.0
 40
1.399999999999999
  1
3
100
AcDbText
  0
TEXT
  5
69
330
18
100
AcDbEntity
  8
1
  6
Continuous
 48
0.25
100
AcDbText
 10
17.9795085266385
 20
10.0
 30
0.0
 40
1.399999999999999
  1
1
100
AcDbText
  0
TEXT
  5
6A
330
18
100
AcDbEntity
  8
5
  6
PHANTOM
 48
0.25
100
AcDbText
 10
25.9795085266385
 20
10.0
 30
0.0
 40
1.399999999999999
  1
5
100
AcDbText
  0
TEXT
  5
6B
330
18
100
AcDbEntity
  8
6
  6
Continuous
 48
0.25
100
AcDbText
 10
27.9795085266385
 20
10.0
 30
0.0
 40
1.399999999999999
  1
6
100
AcDbText
  0
TEXT
  5
6C
330
18
100
AcDbEntity
  8
7
  6
Continuous
 48
0.25
100
AcDbText
 10
29.9795085266385
 20
10.0
 30
0.0
 40
1.399999999999999
  1
7
100
AcDbText
  0
LINE
  5
418A
330
18
100
AcDbEntity
  8
4
  6
CENTER
 48
0.5
100
AcDbLine
 10
40.0
 20
180.0
 30
0.0
 11
87.00000054290113
 21
180.0
 31
0.0
  0
LINE
  5
42CE
330
18
100
AcDbEntity
  8
4
  6
CENTER
 48
0.5
100
AcDbLine
 10
388.3174016948038
 20
180.0000000000022
 30
0.0
 11
341.3174011519028
 21
180.0000000000022
 31
0.0
  0
LINE
  5
6465
330
18
100
AcDbEntity
  8
4
  6
CENTER
 48
0.5
100
AcDbLine
 10
272.8848025753959
 20
289.9999999999998
 30
0.0
 11
156.7500002713108
 21
289.9999999999998
 31
0.0
  0
LINE
  5
6467
330
18
100
AcDbEntity
  8
4
  6
CENTER
 48
0.5
100
AcDbLine
 10
272.884802575396
 20
70.0000000000001
 30
0.0
 11
156.7500002713108
 21
70.0000000000001
 31
0.0
  0
LINE
  5
676A
330
18
100
AcDbEntity
  8
1
  6
Continuous
100
AcDbLine
 10
261.750000271582
 20
81.25000000002859
 30
0.0
 11
188.750000271582
 21
81.2499999999712
 31
0.0
  0
ARC
  5
6790
330
18
100
AcDbEntity
  8
5
  6
PHANTOM
 48
0.1
100
AcDbCircle
 10
193.3204814219132
 20
76.61346655414758
 30
0.0
 40
25.0
100
AcDbArc
 50
211.0071100288019
 51
238.7088054832597
  0
ARC
  5
6795
330
18
100
AcDbEntity
  8
5
  6
PHANTOM
 48
0.1
100
AcDbCircle
 10
172.7500002714289
 20
64.24999999991695
 30
0.0
 40
1.0
100
AcDbArc
 50
90.0
 51
211.0071100288019
  0
LINE
  5
6797
330
18
100
AcDbEntity
  8
5
  6
PHANTOM
 48
0.1
100
AcDbLine
 10
180.3357867089869
 20
55.24999999995504
 30
0.0
 11
181.7500002712775
 21
55.24999999995504
 31
0.0
  0
LINE
  5
679D
330
18
100
AcDbEntity
  8
1
  6
Continuous
100
AcDbLine
 10
188.7500002715666
 20
82.24999999997368
 30
0.0
 11
188.7500002715666
 21
81.2499999999712
 31
0.0
  0
LINE
  5
67A8
330
18
100
AcDbEntity
  8
5
  6
PHANTOM
 48
0.1
100
AcDbLine
 10
228.5927218631353
 20
86.73744030118138
 30
0.0
 11
224.5795595082761
 21
93.7894938967028
 31
0.0
  0
LINE
  5
67D2
330
18
100
AcDbEntity
  8
1
  6
Continuous
100
AcDbLine
 10
74.75000027138822
 20
226.0000000004156
 30
0.0
 11
74.75000027138822
 21
134.0000000004155
 31
0.0
  0
ARC
  5
67D3
330
18
100
AcDbEntity
  8
1
  6
Continuous
100
AcDbCircle
 10
79.25000027145404
 20
216.4999999999999
 30
0.0
 40
1.0
100
AcDbArc
 50
0.0
 51
90.0
  0
LINE
  5
67DA
330
18
100
AcDbEntity
  8
1
  6
Continuous
100
AcDbLine
 10
74.75000027138822
 20
134.0000000004155
 30
0.0
 11
75.75000027138753
 21
134.0000000004142
 31
0.0
  0
ARC
  5
67DB
330
18
100
AcDbEntity
  8
1
  6
Continuous
100
AcDbCircle
 10
79.25000027145404
 20
143.4999999999999
 30
0.0
 40
1.0
100
AcDbArc
 50
270.0
 51
0.0
  0
LINE
  5
67DC
330
18
100
AcDbEntity
  8
1
  6
Continuous
100
AcDbLine
 10
79.25000027145404
 20
142.4999999999999
 30
0.0
 11
79.23264798826358
 21
142.4999999999999
 31
0.0
  0
LINE
  5
67EE
330
18
100
AcDbEntity
  8
1
  6
Continuous
100
AcDbLine
 10
74.75000027138822
 20
226.0000000004156
 30
0.0
 11
75.75000027138753
 21
226.0000000004142
 31
0.0
  0
LINE
  5
67FB
330
18
100
AcDbEntity
  8
1
  6
Continuous
100
AcDbLine
 10
79.25000027145404
 20
217.4999999999999
 30
0.0
 11
79.23264798811374
 21
217.4999999999999
 31
0.0
  0
LINE
  5
681A
330
18
100
AcDbEntity
  8
4
  6
CENTER
 48
0.2
100
AcDbLine
 10
251.2500237602478
 20
53.24796640306345
 30
0.0
 11
251.2500237602586
 21
65.25000000002011
 31
0.0
  0
LINE
  5
681E
330
18
100
AcDbEntity
  8
1
  6
Continuous
100
AcDbLine
 10
261.7500002715812
 20
82.25000000002859
 30
0.0
 11
261.7500002715812
 21
81.25000000002859
 31
0.0
  0
CIRCLE
  5
68C7
330
18
100
AcDbEntity
  8
1
  6
Continuous
100
AcDbCircle
 10
548.6457943965068
 20
180.0000000000739
 30
0.0
 40
1.5
  0
LINE
  5
68CC
330
18
100
AcDbEntity
  8
1
  6
Continuous
100
AcDbLine
 10
36.63465368448237
 20
292.299089857579
 30
0.0
 11
36.63465368448237
 21
284.510192408507
 31
0.0
  0
LINE
  5
68CD
330
18
100
AcDbEntity
  8
1
  6
Continuous
100
AcDbLine
 10
38.63465368448237
 20
291.9046411330431
 30
0.0
 11
38.63465368448237
 21
284.904641133043
 31
0.0
  0
LINE
  5
68CE
330
18
100
AcDbEntity
  8
1
  6
Continuous
100
AcDbLine
 10
42.63465368448225
 20
291.9046411330429
 30
0.0
 11
42.63465368448225
 21
284.904641133043
 31
0.0
  0
LINE
  5
68CF
330
18
100
AcDbEntity
  8
1
  6
Continuous
100
AcDbLine
 10
39.13465368448214
 20
284.4046411330431
 30
0.0
 11
42.13465368448225
 21
284.4046411330431
 31
0.0
  0
LINE
  5
68D0
330
18
100
AcDbEntity
  8
1
  6
Continuous
100
AcDbLine
 10
39.13465368448214
 20
292.4046411330431
 30
0.0
 11
42.13465368448225
 21
292.4046411330431
 31
0.0
  0
LINE
  5
68D1
330
18
100
AcDbEntity
  8
1
  6
Continuous
100
AcDbLine
 10
57.63465368448237
 20
283.9046411330429
 30
0.0
 11
64.33465368448231
 21
283.9046411330429
 31
0.0
  0
LINE
  5
68D2
330
18
100
AcDbEntity
  8
1
  6
Continuous
100
AcDbLine
 10
57.63465368448237
 20
292.9046411330428
 30
0.0
 11
64.33465368448231
 21
292.9046411330428
 31
0.0
  0
LINE
  5
68D3
330
18
100
AcDbEntity
  8
1
  6
Continuous
100
AcDbLine
 10
42.70502120145828
 20
276.404641133043
 30
0.0
 11
46.96798701781552
 21
276.404641133043
 31
0.0
  0
LINE
  5
68D4
330
18
100
AcDbEntity
  8
1
  6
Continuous
100
AcDbLine
 10
42.70502120145828
 20
300.4046411330429
 30
0.0
 11
46.96798701781552
 21
300.4046411330429
 31
0.0
  0
LINE
  5
68D5
330
18
100
AcDbEntity
  8
1
  6
Continuous
100
AcDbLine
 10
36.97055309580662
 20
283.4007920160563
 30
0.0
 11
41.04092061278254
 21
277.2952407405924
 31
0.0
  0
LINE
  5
68D6
330
18
100
AcDbEntity
  8
1
  6
Continuous
100
AcDbLine
 10
36.97055309580662
 20
293.4084902500294
 30
0.0
 11
41.04092061278264
 21
299.5140415254935
 31
0.0
  0
LINE
  5
68D7
330
18
100
AcDbEntity
  8
1
  6
Continuous
100
AcDbLine
 10
48.16798701781568
 20
276.8046411330431
 30
0.0
 11
57.63465368448237
 21
283.9046411330432
 31
0.0
  0
LINE
  5
68D8
330
18
100
AcDbEntity
  8
1
  6
Continuous
100
AcDbLine
 10
48.16798701781568
 20
300.004641133043
 30
0.0
 11
57.63465368448237
 21
292.904641133043
 31
0.0
  0
LINE
  5
68D9
330
18
100
AcDbEntity
  8
1
  6
Continuous
100
AcDbLine
 10
64.63465368448236
 20
292.6046411330431
 30
0.0
 11
64.63465368448236
 21
291.6046411330431
 31
0.0
  0
LINE
  5
68DA
330
18
100
AcDbEntity
  8
1
  6
Continuous
100
AcDbLine
 10
64.63465368448236
 20
285.2046411330432
 30
0.0
 11
64.63465368448236
 21
284.2046411330432
 31
0.0
  0
ARC
  5
68DB
330
18
100
AcDbEntity
  8
1
  6
Continuous
100
AcDbCircle
 10
64.33465368448217
 20
292.604641133043
 30
0.0
 40
0.3
100
AcDbArc
 50
0.0
 51
90.0
  0
ARC
  5
68DC
330
18
100
AcDbEntity
  8
1
  6
Continuous
100
AcDbCircle
 10
64.33465368448217
 20
284.204641133043
 30
0.0
 40
0.3
100
AcDbArc
 50
270.0
 51
0.0
  0
ARC
  5
68DD
330
18
100
AcDbEntity
  8
1
  6
Continuous
100
AcDbCircle
 10
39.13465368448214
 20
284.9046411330428
 30
0.0
 40
0.5
100
AcDbArc
 50
180.0
 51
270.0
  0
ARC
  5
68DE
330
18
100
AcDbEntity
  8
1
  6
Continuous
100
AcDbCircle
 10
42.13465368448225
 20
284.9046411330428
 30
0.0
 40
0.5
100
AcDbArc
 50
270.0
 51
0.0
  0
ARC
  5
68DF
330
18
100
AcDbEntity
  8
1
  6
Continuous
100
AcDbCircle
 10
42.13465368448225
 20
291.9046411330429
 30
0.0
 40
0.5
100
AcDbArc
 50
0.0
 51
90.0
  0
ARC
  5
68E0
330
18
100
AcDbEntity
  8
1
  6
Continuous
100
AcDbCircle
 10
46.96798701781562
 20
298.4046411330428
 30
0.0
 40
2.0
100
AcDbArc
 50
53.13010235415629
 51
90.0
  0
ARC
  5
68E1
330
18
100
AcDbEntity
  8
1
  6
Continuous
100
AcDbCircle
 10
42.70502120145828
 20
298.4046411330428
 30
0.0
 40
2.0
100
AcDbArc
 50
90.0
 51
146.3099324740211
  0
ARC
  5
68E3
330
18
100
AcDbEntity
  8
1
  6
Continuous
100
AcDbCircle
 10
38.63465368448214
 20
284.510192408507
 30
0.0
 40
2.0
100
AcDbArc
 50
180.0
 51
213.6900675259789
  0
ARC
  5
68E4
330
18
100
AcDbEntity
  8
1
  6
Continuous
100
AcDbCircle
 10
42.70502120145828
 20
278.4046411330429
 30
0.0
 40
2.0
100
AcDbArc
 50
213.6900675259788
 51
270.0
  0
ARC
  5
68E5
330
18
100
AcDbEntity
  8
1
  6
Continuous
100
AcDbCircle
 10
46.96798701781539
 20
278.4046411330429
 30
0.0
 40
2.0
100
AcDbArc
 50
270.0
 51
306.8698976458437
  0
LINE
  5
68E6
330
18
100
AcDbEntity
  8
1
  6
Continuous
100
AcDbLine
 10
57.63465368448203
 20
291.6546411330429
 30
0.0
 11
47.56798701781531
 21
299.204641133043
 31
0.0
  0
ARC
  5
68E7
330
18
100
AcDbEntity
  8
1
  6
Continuous
100
AcDbCircle
 10
46.96798701781562
 20
298.4046411330428
 30
0.0
 40
1.0
100
AcDbArc
 50
53.13010235415679
 51
90.0
  0
LINE
  5
68E8
330
18
100
AcDbEntity
  8
1
  6
Continuous
100
AcDbLine
 10
46.96798701781552
 20
299.404641133043
 30
0.0
 11
42.70502120145828
 21
299.404641133043
 31
0.0
  0
ARC
  5
68E9
330
18
100
AcDbEntity
  8
1
  6
Continuous
100
AcDbCircle
 10
42.70502120145828
 20
298.4046411330428
 30
0.0
 40
1.0
100
AcDbArc
 50
90.0
 51
146.3099324740212
  0
LINE
  5
68EA
330
18
100
AcDbEntity
  8
1
  6
Continuous
100
AcDbLine
 10
41.8729709071206
 20
298.9593413292684
 30
0.0
 11
37.80260339014455
 21
292.8537900538042
 31
0.0
  0
LINE
  5
68EC
330
18
100
AcDbEntity
  8
1
  6
Continuous
100
AcDbLine
 10
37.63465368448237
 20
292.299089857579
 30
0.0
 11
37.63465368448237
 21
284.510192408507
 31
0.0
  0
ARC
  5
68ED
330
18
100
AcDbEntity
  8
1
  6
Continuous
100
AcDbCircle
 10
38.63465368448214
 20
284.510192408507
 30
0.0
 40
1.0
100
AcDbArc
 50
180.0
 51
213.6900675259786
  0
LINE
  5
68EE
330
18
100
AcDbEntity
  8
1
  6
Continuous
100
AcDbLine
 10
37.80260339014444
 20
283.9554922122818
 30
0.0
 11
41.87297090712036
 21
277.8499409368177
 31
0.0
  0
ARC
  5
68EF
330
18
100
AcDbEntity
  8
1
  6
Continuous
100
AcDbCircle
 10
42.70502120145828
 20
278.4046411330429
 30
0.0
 40
1.0
100
AcDbArc
 50
213.6900675259791
 51
270.0
  0
LINE
  5
68F0
330
18
100
AcDbEntity
  8
1
  6
Continuous
100
AcDbLine
 10
42.70502120145828
 20
277.4046411330429
 30
0.0
 11
46.96798701781552
 21
277.4046411330429
 31
0.0
  0
ARC
  5
68F1
330
18
100
AcDbEntity
  8
1
  6
Continuous
100
AcDbCircle
 10
46.96798701781539
 20
278.4046411330429
 30
0.0
 40
1.0
100
AcDbArc
 50
270.0
 51
306.8698976458442
  0
LINE
  5
68F2
330
18
100
AcDbEntity
  8
1
  6
Continuous
100
AcDbLine
 10
47.56798701781565
 20
277.6046411330428
 30
0.0
 11
57.63465368448237
 21
285.1546411330428
 31
0.0
  0
LINE
  5
68F3
330
18
100
AcDbEntity
  8
1
  6
Continuous
100
AcDbLine
 10
57.63465368448203
 20
291.6546411330429
 30
0.0
 11
57.63465368448203
 21
285.1546411330431
 31
0.0
  0
LINE
  5
6904
330
18
100
AcDbEntity
  8
1
  6
Continuous
100
AcDbLine
 10
43.63465368448236
 20
280.4046411330429
 30
0.0
 11
43.63465368448236
 21
296.4046411330429
 31
0.0
  0
LINE
  5
6905
330
18
100
AcDbEntity
  8
1
  6
Continuous
100
AcDbLine
 10
47.63465368448236
 20
280.4046411330429
 30
0.0
 11
47.63465368448236
 21
296.4046411330429
 31
0.0
  0
LINE
  5
6906
330
18
100
AcDbEntity
  8
1
  6
Continuous
100
AcDbLine
 10
48.63465368448226
 20
283.4046411330429
 30
0.0
 11
48.63465368448226
 21
293.4046411330428
 31
0.0
  0
LINE
  5
6907
330
18
100
AcDbEntity
  8
1
  6
Continuous
100
AcDbLine
 10
51.63465368448236
 20
293.4046411330428
 30
0.0
 11
51.63465368448236
 21
283.4046411330429
 31
0.0
  0
LINE
  5
6908
330
18
100
AcDbEntity
  8
1
  6
Continuous
100
AcDbLine
 10
43.63465368448236
 20
296.4046411330429
 30
0.0
 11
47.63465368448236
 21
296.4046411330429
 31
0.0
  0
LINE
  5
6909
330
18
100
AcDbEntity
  8
1
  6
Continuous
100
AcDbLine
 10
48.63465368448226
 20
293.4046411330428
 30
0.0
 11
51.63465368448226
 21
293.4046411330428
 31
0.0
  0
LINE
  5
690A
330
18
100
AcDbEntity
  8
1
  6
Continuous
100
AcDbLine
 10
48.63465368448226
 20
283.4046411330429
 30
0.0
 11
51.63465368448226
 21
283.4046411330429
 31
0.0
  0
LINE
  5
690B
330
18
100
AcDbEntity
  8
1
  6
Continuous
100
AcDbLine
 10
43.63465368448226
 20
280.4046411330428
 30
0.0
 11
47.63465368448225
 21
280.4046411330428
 31
0.0
  0
LINE
  5
6936
330
18
100
AcDbEntity
  8
1
  6
Continuous
100
AcDbLine
 10
61.13465368447918
 20
289.9046411330433
 30
0.0
 11
83.34176046566676
 21
289.9046411330433
 31
0.0
  0
LINE
  5
6937
330
18
100
AcDbEntity
  8
1
  6
Continuous
100
AcDbLine
 10
64.63465368447919
 20
291.6046411330433
 30
0.0
 11
81.64176046566899
 21
291.6046411330433
 31
0.0
  0
LINE
  5
6938
330
18
100
AcDbEntity
  8
1
  6
Continuous
100
AcDbLine
 10
84.48820707507298
 20
288.7581945236359
 30
0.0
 11
81.64176046567218
 21
291.6046411330399
 31
0.0
  0
ARC
  5
6939
330
18
100
AcDbEntity
  8
1
  6
Continuous
100
AcDbCircle
 10
84.13465368447919
 20
288.4046411330432
 30
0.0
 40
0.5
100
AcDbArc
 50
315.0000000000407
 51
44.99999999996739
  0
LINE
  5
693A
330
18
100
AcDbEntity
  8
1
  6
Continuous
100
AcDbLine
 10
84.48820707507241
 20
288.0510877424498
 30
0.0
 11
81.6417604656649
 21
285.2046411330383
 31
0.0
  0
LINE
  5
693B
330
18
100
AcDbEntity
  8
1
  6
Continuous
100
AcDbLine
 10
64.63465368447919
 20
285.2046411330432
 30
0.0
 11
81.64176046566991
 21
285.2046411330432
 31
0.0
  0
LINE
  5
693C
330
18
100
AcDbEntity
  8
1
  6
Continuous
100
AcDbLine
 10
61.13465368447918
 20
291.9046411330432
 30
0.0
 11
61.13465368447918
 21
289.9046411330433
 31
0.0
  0
LINE
  5
693D
330
18
100
AcDbEntity
  8
1
  6
Continuous
100
AcDbLine
 10
61.13465368447918
 20
291.9046411330432
 30
0.0
 11
64.63465368448236
 21
291.9046411330429
 31
0.0
  0
ARC
  5
6944
330
18
100
AcDbEntity
  8
1
  6
Continuous
100
AcDbCircle
 10
39.13465368448214
 20
291.9046411330431
 30
0.0
 40
0.5
100
AcDbArc
 50
90.00000000000005
 51
180.0
  0
ARC
  5
6945
330
18
100
AcDbEntity
  8
1
  6
Continuous
100
AcDbCircle
 10
38.63465368448214
 20
292.299089857579
 30
0.0
 40
2.0
100
AcDbArc
 50
146.309932474021
 51
180.0
  0
ARC
  5
6946
330
18
100
AcDbEntity
  8
1
  6
Continuous
100
AcDbCircle
 10
38.63465368448214
 20
292.299089857579
 30
0.0
 40
1.0
100
AcDbArc
 50
146.3099324740212
 51
180.0
  0
LINE
  5
6947
330
18
100
AcDbEntity
  8
1
  6
Continuous
100
AcDbLine
 10
190.337954219456
 20
220.0000000000556
 30
0.0
 11
171.7500002711586
 21
220.0000000000567
 31
0.0
  0
LINE
  5
6948
330
18
100
AcDbEntity
  8
1
  6
Continuous
100
AcDbLine
 10
190.3379542194136
 20
140.0000000000557
 30
0.0
 11
171.7500002711541
 21
140.0000000000567
 31
0.0
  0
LINE
  5
6949
330
18
100
AcDbEntity
  8
1
  6
Continuous
100
AcDbLine
 10
171.7500002711585
 20
220.0000000000567
 30
0.0
 11
171.7500002712776
 21
140.0000000000874
 31
0.0
  0
LINE
  5
694A
330
18
100
AcDbEntity
  8
1
  6
Continuous
100
AcDbLine
 10
173.7500002711585
 20
220.0000000000567
 30
0.0
 11
173.7500002712774
 21
140.0000000000567
 31
0.0
  0
LINE
  5
694B
330
18
100
AcDbEntity
  8
1
  6
Continuous
100
AcDbLine
 10
178.905285246711
 20
172.7999999999667
 30
0.0
 11
173.7500002712287
 21
172.7999999999687
 31
0.0
  0
LINE
  5
694C
330
18
100
AcDbEntity
  8
1
  6
Continuous
100
AcDbLine
 10
178.905285246711
 20
187.1999999999666
 30
0.0
 11
173.7500002712073
 21
187.1999999999686
 31
0.0
  0
LINE
  5
694D
330
18
100
AcDbEntity
  8
1
  6
Continuous
100
AcDbLine
 10
178.905285246711
 20
187.1999999999665
 30
0.0
 11
178.905285246711
 21
172.7999999999664
 31
0.0
  0
LINE
  5
694E
330
18
100
AcDbEntity
  8
1
  6
Continuous
100
AcDbLine
 10
178.7309737612156
 20
187.1999999999666
 30
0.0
 11
178.7309737612156
 21
172.7999999999685
 31
0.0
  0
ARC
  5
694F
330
18
100
AcDbEntity
  8
1
  6
Continuous
100
AcDbCircle
 10
174.7500002707123
 20
214.5999999999376
 30
0.0
 40
1.0
100
AcDbArc
 50
180.0
 51
270.0
  0
LINE
  5
6950
330
18
100
AcDbEntity
  8
1
  6
Continuous
100
AcDbLine
 10
174.7500002707123
 20
213.5999999999376
 30
0.0
 11
175.7500002707123
 21
213.5999999999376
 31
0.0
  0
LINE
  5
6951
330
18
100
AcDbEntity
  8
1
  6
Continuous
100
AcDbLine
 10
175.7500002707123
 20
213.5999999999376
 30
0.0
 11
175.7500002707123
 21
206.3999999999377
 31
0.0
  0
LINE
  5
6952
330
18
100
AcDbEntity
  8
1
  6
Continuous
100
AcDbLine
 10
174.7500002707123
 20
206.3999999999377
 30
0.0
 11
175.7500002707123
 21
206.3999999999377
 31
0.0
  0
ARC
  5
6953
330
18
100
AcDbEntity
  8
1
  6
Continuous
100
AcDbCircle
 10
174.7500002707123
 20
205.3999999999377
 30
0.0
 40
1.0
100
AcDbArc
 50
90.0
 51
180.0
  0
ARC
  5
6954
330
18
100
AcDbEntity
  8
1
  6
Continuous
100
AcDbCircle
 10
174.7500002706825
 20
145.3999999999982
 30
0.0
 40
1.0
100
AcDbArc
 50
89.99999999995061
 51
179.9999999999511
  0
LINE
  5
6955
330
18
100
AcDbEntity
  8
1
  6
Continuous
100
AcDbLine
 10
174.7500002706833
 20
146.3999999999982
 30
0.0
 11
175.7500002706833
 21
146.3999999999973
 31
0.0
  0
LINE
  5
6956
330
18
100
AcDbEntity
  8
1
  6
Continuous
100
AcDbLine
 10
175.7500002706833
 20
146.3999999999973
 30
0.0
 11
175.7500002706895
 21
153.5999999999972
 31
0.0
  0
LINE
  5
6957
330
18
100
AcDbEntity
  8
1
  6
Continuous
100
AcDbLine
 10
174.7500002706895
 20
153.5999999999981
 30
0.0
 11
175.7500002706895
 21
153.5999999999972
 31
0.0
  0
ARC
  5
6958
330
18
100
AcDbEntity
  8
1
  6
Continuous
100
AcDbCircle
 10
174.7500002706904
 20
154.5999999999982
 30
0.0
 40
1.0
100
AcDbArc
 50
179.9999999999511
 51
269.9999999999505
  0
LINE
  5
6959
330
18
100
AcDbEntity
  8
4
  6
CENTER
 48
0.1
100
AcDbLine
 10
177.7500002707123
 20
209.9999999997423
 30
0.0
 11
169.7500002711734
 21
209.9999999997346
 31
0.0
  0
LINE
  5
695A
330
18
100
AcDbEntity
  8
4
  6
CENTER
 48
0.1
100
AcDbLine
 10
169.7500002712627
 20
149.9999999997346
 30
0.0
 11
177.7500002706864
 21
149.9999999997422
 31
0.0
  0
LINE
  5
695B
330
18
100
AcDbEntity
  8
4
  6
CENTER
 48
0.5
100
AcDbLine
 10
272.8848025753959
 20
179.9999999999746
 30
0.0
 11
156.7500002713108
 21
179.9999999999596
 31
0.0
  0
ARC
  5
695C
330
18
100
AcDbEntity
  8
1
  6
Continuous
100
AcDbCircle
 10
697.2500002713636
 20
179.999999999981
 30
0.0
 40
508.4999999999998
100
AcDbArc
 50
175.5315705257355
 51
184.4684294743004
  0
ARC
  5
695D
330
18
100
AcDbEntity
  8
1
  6
Continuous
100
AcDbCircle
 10
-246.7499997286361
 20
180.0000000000381
 30
0.0
 40
508.4999999999998
100
AcDbArc
 50
355.531570525693
 51
4.468429474257956
  0
ARC
  5
695E
330
18
100
AcDbEntity
  8
1
  6
Continuous
100
AcDbCircle
 10
225.2500002713652
 20
633.999999999819
 30
0.0
 40
500.0
100
AcDbArc
 50
266.6377301665975
 51
273.3622698334016
  0
ARC
  5
695F
330
18
100
AcDbEntity
  8
1
  6
Continuous
100
AcDbCircle
 10
225.2500002713652
 20
-274.0000000001811
 30
0.0
 40
500.0
100
AcDbArc
 50
86.63773016659439
 51
93.36226983340541
  0
ARC
  5
6960
330
18
100
AcDbEntity
  8
1
  6
Continuous
100
AcDbCircle
 10
196.2773921812724
 20
140.8503391660535
 30
0.0
 40
6.0
100
AcDbArc
 50
184.4684294743004
 51
266.6377301665975
  0
ARC
  5
6961
330
18
100
AcDbEntity
  8
1
  6
Continuous
100
AcDbCircle
 10
254.2226083614508
 20
140.850339166053
 30
0.0
 40
6.0
100
AcDbArc
 50
273.3622698334016
 51
355.531570525693
  0
ARC
  5
6962
330
18
100
AcDbEntity
  8
1
  6
Continuous
100
AcDbCircle
 10
196.2773921812469
 20
219.1496608335828
 30
0.0
 40
6.0
100
AcDbArc
 50
93.36226983340541
 51
175.5315705257355
  0
ARC
  5
6963
330
18
100
AcDbEntity
  8
1
  6
Continuous
100
AcDbCircle
 10
254.2226083614854
 20
219.1496608335828
 30
0.0
 40
6.0
100
AcDbArc
 50
4.468429474257956
 51
86.6377301665946
  0
LINE
  5
6964
330
18
100
AcDbEntity
  8
1
  6
Continuous
100
AcDbLine
 10
249.0160741408871
 20
142.0000000000282
 30
0.0
 11
197.7500002713656
 21
141.9999999999881
 31
0.0
  0
LINE
  5
6965
330
18
100
AcDbEntity
  8
1
  6
Continuous
100
AcDbLine
 10
249.0160741408839
 20
218.0000000000282
 30
0.0
 11
197.750000271362
 21
217.9999999999881
 31
0.0
  0
ARC
  5
6966
330
18
100
AcDbEntity
  8
1
  6
Continuous
100
AcDbCircle
 10
-246.7499997286361
 20
180.0000000000381
 30
0.0
 40
500.0
100
AcDbArc
 50
355.9617434041242
 51
4.038256595875782
  0
LINE
  5
6967
330
18
100
AcDbEntity
  8
1
  6
Continuous
100
AcDbLine
 10
197.2500002713624
 20
217.4999999999881
 30
0.0
 11
197.250000271365
 21
142.4999999999881
 31
0.0
  0
ARC
  5
6968
330
18
100
AcDbEntity
  8
1
  6
Continuous
100
AcDbCircle
 10
249.0160741408848
 20
145.0000000000282
 30
0.0
 40
3.0
100
AcDbArc
 50
270.0
 51
355.9617434041242
  0
ARC
  5
6969
330
18
100
AcDbEntity
  8
1
  6
Continuous
100
AcDbCircle
 10
249.0160741408861
 20
215.0000000000281
 30
0.0
 40
3.0
100
AcDbArc
 50
4.038256595875782
 51
90.0
  0
ARC
  5
696A
330
18
100
AcDbEntity
  8
1
  6
Continuous
100
AcDbCircle
 10
197.7500002713651
 20
142.4999999999881
 30
0.0
 40
0.5
100
AcDbArc
 50
180.0
 51
270.0
  0
ARC
  5
696B
330
18
100
AcDbEntity
  8
1
  6
Continuous
100
AcDbCircle
 10
197.7500002713625
 20
217.4999999999881
 30
0.0
 40
0.5
100
AcDbArc
 50
90.0
 51
180.0
  0
LINE
  5
696D
330
18
100
AcDbEntity
  8
1
  6
Continuous
100
AcDbLine
 10
211.2500002712343
 20
141.9999999999906
 30
0.0
 11
211.2500002712343
 21
142.5000000001406
 31
0.0
  0
LINE
  5
696E
330
18
100
AcDbEntity
  8
1
  6
Continuous
100
AcDbLine
 10
203.2500002712346
 20
141.9999999999906
 30
0.0
 11
203.2500002712346
 21
142.5000000001484
 31
0.0
  0
LINE
  5
696F
330
18
100
AcDbEntity
  8
1
  6
Continuous
100
AcDbLine
 10
227.2500002712347
 20
141.9999999999906
 30
0.0
 11
227.2500002712347
 21
142.5000000001254
 31
0.0
  0
LINE
  5
6970
330
18
100
AcDbEntity
  8
1
  6
Continuous
100
AcDbLine
 10
211.2500002711749
 20
218.0000000000065
 30
0.0
 11
211.2500002711757
 21
217.5000000001407
 31
0.0
  0
LINE
  5
6971
330
18
100
AcDbEntity
  8
1
  6
Continuous
100
AcDbLine
 10
203.250000271175
 20
217.999999999994
 30
0.0
 11
203.2500002711758
 21
217.5000000001484
 31
0.0
  0
LINE
  5
6972
330
18
100
AcDbEntity
  8
1
  6
Continuous
100
AcDbLine
 10
227.2500002711751
 20
218.0000000000316
 30
0.0
 11
227.2500002711759
 21
217.5000000001255
 31
0.0
  0
ARC
  5
6973
330
18
100
AcDbEntity
  8
1
  6
Continuous
100
AcDbCircle
 10
198.2500002713641
 20
173.2499999999876
 30
0.0
 40
1.0
100
AcDbArc
 50
119.9999999973386
 51
180.0
  0
ARC
  5
6974
330
18
100
AcDbEntity
  8
1
  6
Continuous
100
AcDbCircle
 10
198.2500002713636
 20
186.7499999999875
 30
0.0
 40
1.0
100
AcDbArc
 50
180.0
 51
240.0000000026924
  0
LINE
  5
6975
330
18
100
AcDbEntity
  8
1
  6
Continuous
100
AcDbLine
 10
197.7500002714042
 20
143.5000000001527
 30
0.0
 11
197.7500002714042
 21
216.5000000001527
 31
0.0
  0
LINE
  5
6976
330
18
100
AcDbEntity
  8
1
  6
Continuous
100
AcDbLine
 10
198.7500002714052
 20
217.5000000001527
 30
0.0
 11
231.0059526152712
 21
217.5000000001218
 31
0.0
  0
LINE
  5
6977
330
18
100
AcDbEntity
  8
1
  6
Continuous
100
AcDbLine
 10
198.7500002714033
 20
142.5000000001527
 30
0.0
 11
231.0059526152807
 21
142.5000000001218
 31
0.0
  0
ARC
  5
6978
330
18
100
AcDbEntity
  8
1
  6
Continuous
100
AcDbCircle
 10
198.7500002714043
 20
143.5000000001527
 30
0.0
 40
1.0
100
AcDbArc
 50
180.0
 51
270.0
  0
ARC
  5
6979
330
18
100
AcDbEntity
  8
1
  6
Continuous
100
AcDbCircle
 10
198.7500002714042
 20
216.5000000001527
 30
0.0
 40
1.0
100
AcDbArc
 50
90.0
 51
180.0
  0
ARC
  5
697A
330
18
100
AcDbEntity
  8
1
  6
Continuous
100
AcDbCircle
 10
-246.7499997285958
 20
180.0000000000184
 30
0.0
 40
482.0
100
AcDbArc
 50
355.8696921575507
 51
4.130307842472184
  0
ARC
  5
697B
330
18
100
AcDbEntity
  8
1
  6
Continuous
100
AcDbCircle
 10
231.0059526152684
 20
214.5000000001217
 30
0.0
 40
3.0
100
AcDbArc
 50
4.130307842472184
 51
90.0
  0
ARC
  5
697C
330
18
100
AcDbEntity
  8
1
  6
Continuous
100
AcDbCircle
 10
231.0059526152836
 20
145.5000000001218
 30
0.0
 40
3.0
100
AcDbArc
 50
270.0
 51
355.8696921575507
  0
LINE
  5
697E
330
18
100
AcDbEntity
  8
4
  6
CENTER
 48
0.2
100
AcDbLine
 10
230.4000002716802
 20
154.4999999996286
 30
0.0
 11
212.1000002716802
 21
154.4999999996286
 31
0.0
  0
LINE
  5
697F
330
18
100
AcDbEntity
  8
4
  6
CENTER
 48
0.2
100
AcDbLine
 10
221.2500002715893
 20
163.6499999996288
 30
0.0
 11
221.2500002715893
 21
145.3499999996288
 31
0.0
  0
LINE
  5
6980
330
18
100
AcDbEntity
  8
1
  6
Continuous
100
AcDbLine
 10
214.6742873824801
 20
156.8999999996288
 30
0.0
 11
214.5148313799599
 21
156.8999999996288
 31
0.0
  0
CIRCLE
  5
6981
330
18
100
AcDbEntity
  8
1
  6
Continuous
100
AcDbCircle
 10
221.2500002716802
 20
154.4999999996288
 30
0.0
 40
7.15
  0
LINE
  5
6982
330
18
100
AcDbEntity
  8
1
  6
Continuous
100
AcDbLine
 10
214.6742873824797
 20
152.0999999996288
 30
0.0
 11
214.5148313799599
 21
152.0999999996288
 31
0.0
  0
LINE
  5
6983
330
18
100
AcDbEntity
  8
1
  6
Continuous
100
AcDbLine
 10
218.8500002716803
 20
147.7648311079083
 30
0.0
 11
218.8500002716803
 21
147.9242871104858
 31
0.0
  0
LINE
  5
6984
330
18
100
AcDbEntity
  8
1
  6
Continuous
100
AcDbLine
 10
220.0344630280244
 20
147.6063457285246
 30
0.0
 11
220.0084158013776
 21
147.4586245655887
 31
0.0
  0
LINE
  5
6985
330
18
100
AcDbEntity
  8
1
  6
Continuous
100
AcDbLine
 10
228.1436545426759
 20
155.7155372432904
 30
0.0
 11
228.291375705716
 21
155.7415844699564
 31
0.0
  0
LINE
  5
6986
330
18
100
AcDbEntity
  8
1
  6
Continuous
100
AcDbLine
 10
227.9851691634007
 20
156.8999999996288
 30
0.0
 11
227.8257131606985
 21
156.8999999996288
 31
0.0
  0
LINE
  5
6987
330
18
100
AcDbEntity
  8
1
  6
Continuous
100
AcDbLine
 10
223.6500002716802
 20
161.0757128887048
 30
0.0
 11
223.6500002716802
 21
161.2351688913494
 31
0.0
  0
LINE
  5
6988
330
18
100
AcDbEntity
  8
1
  6
Continuous
100
AcDbLine
 10
218.8500002716803
 20
161.0757128887712
 30
0.0
 11
218.8500002716803
 21
161.2351688913494
 31
0.0
  0
LINE
  5
6989
330
18
100
AcDbEntity
  8
1
  6
Continuous
100
AcDbLine
 10
265.8848025754071
 20
142.4999999999458
 30
0.0
 11
260.3653717599418
 21
142.5000000000163
 31
0.0
  0
LINE
  5
698A
330
18
100
AcDbEntity
  8
1
  6
Continuous
100
AcDbLine
 10
265.8848025753974
 20
217.4999999999498
 30
0.0
 11
260.3653717599446
 21
217.5000000000204
 31
0.0
  0
LINE
  5
698B
330
18
100
AcDbEntity
  8
1
  6
Continuous
100
AcDbLine
 10
267.8848025753959
 20
215.4999999999498
 30
0.0
 11
267.8848025753959
 21
144.4999999999458
 31
0.0
  0
ARC
  5
698C
330
18
100
AcDbEntity
  8
1
  6
Continuous
100
AcDbCircle
 10
265.8848025754086
 20
144.4999999999458
 30
0.0
 40
2.0
100
AcDbArc
 50
270.0
 51
0.0
  0
ARC
  5
698D
330
18
100
AcDbEntity
  8
1
  6
Continuous
100
AcDbCircle
 10
265.8848025753959
 20
215.4999999999498
 30
0.0
 40
2.0
100
AcDbArc
 50
0.0
 51
90.0
  0
CIRCLE
  5
698E
330
18
100
AcDbEntity
  8
1
  6
Continuous
100
AcDbCircle
 10
221.2500002715893
 20
154.4999999996286
 30
0.0
 40
6.7
  0
CIRCLE
  5
698F
330
18
100
AcDbEntity
  8
1
  6
Continuous
100
AcDbCircle
 10
221.2500002715893
 20
154.4999999996286
 30
0.0
 40
7.0
  0
LINE
  5
6990
330
18
100
AcDbEntity
  8
1
  6
Continuous
100
AcDbLine
 10
217.9000002715893
 20
153.4499999996285
 30
0.0
 11
224.4000002715892
 21
153.4499999996285
 31
0.0
  0
LINE
  5
6991
330
18
100
AcDbEntity
  8
1
  6
Continuous
100
AcDbLine
 10
217.9000002715893
 20
155.5499999996285
 30
0.0
 11
217.9000002715893
 21
153.4499999996284
 31
0.0
  0
LINE
  5
6993
330
18
100
AcDbEntity
  8
1
  6
Continuous
100
AcDbLine
 10
217.9000002715893
 20
155.5499999996285
 30
0.0
 11
224.4000002715892
 21
155.5499999996285
 31
0.0
  0
LINE
  5
6995
330
18
100
AcDbEntity
  8
1
  6
Continuous
100
AcDbLine
 10
224.4000002715892
 20
155.5499999996283
 30
0.0
 11
224.4000002715892
 21
153.4499999996284
 31
0.0
  0
LINE
  5
6996
330
18
100
AcDbEntity
  8
1
  6
Continuous
100
AcDbLine
 10
80.25000027145404
 20
225.0000000004137
 30
0.0
 11
80.25000027145404
 21
135.0000000004137
 31
0.0
  0
LINE
  5
6997
330
18
100
AcDbEntity
  8
1
  6
Continuous
100
AcDbLine
 10
79.25000027145586
 20
134.0000000004137
 30
0.0
 11
75.7500002715566
 21
134.0000000004072
 31
0.0
  0
LINE
  5
6998
330
18
100
AcDbEntity
  8
1
  6
Continuous
100
AcDbLine
 10
79.25000027145234
 20
226.0000000004137
 30
0.0
 11
75.75000027138822
 21
226.0000000004073
 31
0.0
  0
LINE
  5
6999
330
18
100
AcDbEntity
  8
1
  6
Continuous
100
AcDbLine
 10
75.75000027138822
 20
226.0000000004156
 30
0.0
 11
75.75000027138822
 21
134.0000000004155
 31
0.0
  0
LINE
  5
699B
330
18
100
AcDbEntity
  8
1
  6
Continuous
100
AcDbLine
 10
79.75000027145404
 20
217.9999999999999
 30
0.0
 11
79.2326479881127
 21
217.9999999999999
 31
0.0
  0
LINE
  5
699C
330
18
100
AcDbEntity
  8
1
  6
Continuous
100
AcDbLine
 10
79.75000027145404
 20
141.9999999999999
 30
0.0
 11
79.23264798826472
 21
141.9999999999999
 31
0.0
  0
LINE
  5
699D
330
18
100
AcDbEntity
  8
1
  6
Continuous
100
AcDbLine
 10
79.2326479881127
 20
217.9999999999999
 30
0.0
 11
79.23264798826458
 21
141.9999999999999
 31
0.0
  0
ARC
  5
699E
330
18
100
AcDbEntity
  8
1
  6
Continuous
100
AcDbCircle
 10
79.75000027145404
 20
218.4999999999999
 30
0.0
 40
0.5
100
AcDbArc
 50
270.0
 51
0.0
  0
ARC
  5
699F
330
18
100
AcDbEntity
  8
1
  6
Continuous
100
AcDbCircle
 10
79.75000027145404
 20
141.4999999999999
 30
0.0
 40
0.5
100
AcDbArc
 50
0.0
 51
90.0
  0
ARC
  5
69A0
330
18
100
AcDbEntity
  8
1
  6
Continuous
100
AcDbCircle
 10
79.25000027145404
 20
225.0000000004137
 30
0.0
 40
1.0
100
AcDbArc
 50
0.0
 51
90.0
  0
ARC
  5
69A1
330
18
100
AcDbEntity
  8
1
  6
Continuous
100
AcDbCircle
 10
79.25000027145404
 20
135.0000000004137
 30
0.0
 40
1.0
100
AcDbArc
 50
270.0
 51
0.0
  0
LINE
  5
69A2
330
18
100
AcDbEntity
  8
1
  6
Continuous
100
AcDbLine
 10
74.75000027138822
 20
220.9999999999999
 30
0.0
 11
63.95000027145602
 21
220.9999999999999
 31
0.0
  0
LINE
  5
69A3
330
18
100
AcDbEntity
  8
1
  6
Continuous
100
AcDbLine
 10
74.75000027138822
 20
138.9999999999999
 30
0.0
 11
63.95000027145226
 21
138.9999999999999
 31
0.0
  0
LINE
  5
69A4
330
18
100
AcDbEntity
  8
1
  6
Continuous
100
AcDbLine
 10
58.95000027145375
 20
172.8999999999999
 30
0.0
 11
48.75000027149837
 21
172.8999999999999
 31
0.0
  0
LINE
  5
69A5
330
18
100
AcDbEntity
  8
1
  6
Continuous
100
AcDbLine
 10
58.95000027145465
 20
187.0999999999998
 30
0.0
 11
48.75000027149178
 21
187.0999999999998
 31
0.0
  0
LINE
  5
69A6
330
18
100
AcDbEntity
  8
1
  6
Continuous
100
AcDbLine
 10
58.95000027145465
 20
187.0999999999999
 30
0.0
 11
58.95000027144942
 21
172.8999999999804
 31
0.0
  0
LINE
  5
69A7
330
18
100
AcDbEntity
  8
1
  6
Continuous
100
AcDbLine
 10
58.95000027145021
 20
174.8999999999999
 30
0.0
 11
58.75000027144711
 21
174.8999999999999
 31
0.0
  0
LINE
  5
69A8
330
18
100
AcDbEntity
  8
1
  6
Continuous
100
AcDbLine
 10
58.95000027145385
 20
185.0999999999998
 30
0.0
 11
58.75000027144711
 21
185.0999999999998
 31
0.0
  0
ARC
  5
69A9
330
18
100
AcDbEntity
  8
1
  6
Continuous
100
AcDbCircle
 10
63.95000027145602
 20
215.9999999999998
 30
0.0
 40
5.0
100
AcDbArc
 50
90.0
 51
126.8698976491853
  0
ARC
  5
69AA
330
18
100
AcDbEntity
  8
1
  6
Continuous
100
AcDbCircle
 10
63.95000027145226
 20
143.9999999999999
 30
0.0
 40
5.0
100
AcDbArc
 50
233.1301023569914
 51
270.0
  0
LINE
  5
69AB
330
18
100
AcDbEntity
  8
1
  6
Continuous
100
AcDbLine
 10
46.75000027150645
 20
139.9999999998275
 30
0.0
 11
46.75000027138763
 21
219.9999999997968
 31
0.0
  0
LINE
  5
69AC
330
18
100
AcDbEntity
  8
1
  6
Continuous
100
AcDbLine
 10
65.75000027150361
 20
141.9999999998539
 30
0.0
 11
65.7500002713906
 21
217.999999999825
 31
0.0
  0
LINE
  5
69AD
330
18
100
AcDbEntity
  8
1
  6
Continuous
100
AcDbLine
 10
63.75000027150349
 20
139.9999999998509
 30
0.0
 11
46.75000027152487
 21
139.9999999998536
 31
0.0
  0
LINE
  5
69AE
330
18
100
AcDbEntity
  8
1
  6
Continuous
100
AcDbLine
 10
63.75000027139265
 20
219.9999999998221
 30
0.0
 11
46.75000027140845
 21
219.9999999998389
 31
0.0
  0
ARC
  5
69AF
330
18
100
AcDbEntity
  8
1
  6
Continuous
100
AcDbCircle
 10
63.75000027139059
 20
217.9999999998222
 30
0.0
 40
2.0
100
AcDbArc
 50
0.0
 51
90.0
  0
ARC
  5
69B0
330
18
100
AcDbEntity
  8
1
  6
Continuous
100
AcDbCircle
 10
63.75000027150349
 20
141.9999999998509
 30
0.0
 40
2.0
100
AcDbArc
 50
270.0
 51
0.0
  0
LINE
  5
69B1
330
18
100
AcDbEntity
  8
1
  6
Continuous
100
AcDbLine
 10
46.7500002714364
 20
187.1999999999997
 30
0.0
 11
58.95000027143634
 21
187.2000000000092
 31
0.0
  0
LINE
  5
69B2
330
18
100
AcDbEntity
  8
1
  6
Continuous
100
AcDbLine
 10
46.75000027145778
 20
172.7999999998937
 30
0.0
 11
58.95000027145782
 21
172.7999999999032
 31
0.0
  0
LINE
  5
69B3
330
18
100
AcDbEntity
  8
1
  6
Continuous
100
AcDbLine
 10
58.95000027145782
 20
172.7999999999032
 30
0.0
 11
58.95000027143634
 21
187.2000000000092
 31
0.0
  0
LINE
  5
69B4
330
18
100
AcDbEntity
  8
1
  6
Continuous
100
AcDbLine
 10
48.75000027145778
 20
172.7999999998953
 30
0.0
 11
48.75000027143642
 21
187.2000000000013
 31
0.0
  0
CIRCLE
  5
69B5
330
18
100
AcDbEntity
  8
2
  6
Continuous
100
AcDbCircle
 10
56.75000027149156
 20
149.9999999999544
 30
0.0
 40
2.5
  0
CIRCLE
  5
69B6
330
18
100
AcDbEntity
  8
1
  6
Continuous
100
AcDbCircle
 10
56.75000027149156
 20
149.9999999999544
 30
0.0
 40
2.066999999999999
  0
CIRCLE
  5
69B9
330
18
100
AcDbEntity
  8
2
  6
Continuous
100
AcDbCircle
 10
56.75000027140254
 20
209.9999999999544
 30
0.0
 40
2.5
  0
CIRCLE
  5
69BA
330
18
100
AcDbEntity
  8
1
  6
Continuous
100
AcDbCircle
 10
56.75000027140254
 20
209.9999999999544
 30
0.0
 40
2.066999999999999
  0
LINE
  5
69BB
330
18
100
AcDbEntity
  8
4
  6
CENTER
 48
0.1
100
AcDbLine
 10
61.25000027140254
 20
209.9999999999544
 30
0.0
 11
52.25000027140254
 21
209.9999999999544
 31
0.0
  0
LINE
  5
69BC
330
18
100
AcDbEntity
  8
4
  6
CENTER
 48
0.1
100
AcDbLine
 10
56.75000027140254
 20
205.4999999999544
 30
0.0
 11
56.75000027140254
 21
214.4999999999544
 31
0.0
  0
LINE
  5
69BD
330
18
100
AcDbEntity
  8
1
  6
Continuous
100
AcDbLine
 10
60.95000027145784
 20
172.7999999999062
 30
0.0
 11
60.95000027143634
 21
187.2000000000122
 31
0.0
  0
LINE
  5
69BE
330
18
100
AcDbEntity
  8
1
  6
Continuous
100
AcDbLine
 10
60.95000027143634
 20
187.2000000000122
 30
0.0
 11
58.95000027143634
 21
187.2000000000122
 31
0.0
  0
LINE
  5
69BF
330
18
100
AcDbEntity
  8
1
  6
Continuous
100
AcDbLine
 10
60.95000027145784
 20
172.7999999999062
 30
0.0
 11
58.95000027146011
 21
172.7999999999037
 31
0.0
  0
LINE
  5
69C0
330
18
100
AcDbEntity
  8
1
  6
Continuous
100
AcDbLine
 10
48.75000027144711
 20
186.0000000000133
 30
0.0
 11
48.75000027144711
 21
174.0000000000265
 31
0.0
  0
LINE
  5
69C1
330
18
100
AcDbEntity
  8
1
  6
Continuous
100
AcDbLine
 10
58.75000027144711
 20
186.0000000000215
 30
0.0
 11
58.75000027144711
 21
174.0000000000231
 31
0.0
  0
LINE
  5
69C2
330
18
100
AcDbEntity
  8
1
  6
Continuous
100
AcDbLine
 10
57.75000027144607
 20
187.0000000000215
 30
0.0
 11
49.75000027144607
 21
187.0000000000133
 31
0.0
  0
LINE
  5
69C3
330
18
100
AcDbEntity
  8
1
  6
Continuous
100
AcDbLine
 10
57.75000027144664
 20
173.0000000000231
 30
0.0
 11
49.75000027144664
 21
173.0000000000264
 31
0.0
  0
ARC
  5
69C4
330
18
100
AcDbEntity
  8
1
  6
Continuous
100
AcDbCircle
 10
57.7500002714471
 20
186.0000000000215
 30
0.0
 40
1.0
100
AcDbArc
 50
0.0
 51
90.0
  0
ARC
  5
69C5
330
18
100
AcDbEntity
  8
1
  6
Continuous
100
AcDbCircle
 10
57.7500002714471
 20
174.0000000000231
 30
0.0
 40
1.0
100
AcDbArc
 50
270.0
 51
0.0
  0
ARC
  5
69C6
330
18
100
AcDbEntity
  8
1
  6
Continuous
100
AcDbCircle
 10
49.75000027144711
 20
186.0000000000133
 30
0.0
 40
1.0
100
AcDbArc
 50
90.0
 51
180.0
  0
ARC
  5
69C7
330
18
100
AcDbEntity
  8
1
  6
Continuous
100
AcDbCircle
 10
49.75000027144711
 20
174.0000000000265
 30
0.0
 40
1.0
100
AcDbArc
 50
180.0
 51
270.0
  0
LINE
  5
69C8
330
18
100
AcDbEntity
  8
1
  6
Continuous
100
AcDbLine
 10
57.7500002714471
 20
186.0000000000215
 30
0.0
 11
57.7500002714471
 21
174.0000000000231
 31
0.0
  0
LINE
  5
69C9
330
18
100
AcDbEntity
  8
1
  6
Continuous
100
AcDbLine
 10
51.75000027144939
 20
178.4499999999999
 30
0.0
 11
51.75000027144482
 21
181.5499999999997
 31
0.0
  0
LINE
  5
69CA
330
18
100
AcDbEntity
  8
1
  6
Continuous
100
AcDbLine
 10
51.75000027144482
 20
181.5499999999999
 30
0.0
 11
48.75000027144711
 21
181.5499999999999
 31
0.0
  0
LINE
  5
69CB
330
18
100
AcDbEntity
  8
1
  6
Continuous
100
AcDbLine
 10
51.75000027144939
 20
178.4499999999999
 30
0.0
 11
48.75000027144711
 21
178.4499999999999
 31
0.0
  0
LINE
  5
69CC
330
18
100
AcDbEntity
  8
2
  6
Continuous
100
AcDbLine
 10
50.75000027142539
 20
181.4999999998144
 30
0.0
 11
48.75000027141709
 21
181.4999999998137
 31
0.0
  0
LINE
  5
69CD
330
18
100
AcDbEntity
  8
2
  6
Continuous
100
AcDbLine
 10
50.75000027142529
 20
178.4999999998144
 30
0.0
 11
50.75000027142539
 21
181.4999999998144
 31
0.0
  0
LINE
  5
69CE
330
18
100
AcDbEntity
  8
2
  6
Continuous
100
AcDbLine
 10
51.25000027142529
 20
178.9999999998146
 30
0.0
 11
51.25000027142539
 21
180.9999999998146
 31
0.0
  0
LINE
  5
69CF
330
18
100
AcDbEntity
  8
2
  6
Continuous
100
AcDbLine
 10
51.25000027142551
 20
180.9999999998146
 30
0.0
 11
50.75000027142572
 21
181.4999999998144
 31
0.0
  0
LINE
  5
69D0
330
18
100
AcDbEntity
  8
2
  6
Continuous
100
AcDbLine
 10
50.75000027142529
 20
178.4999999998144
 30
0.0
 11
48.75000027141823
 21
178.4999999998137
 31
0.0
  0
LINE
  5
69D1
330
18
100
AcDbEntity
  8
2
  6
Continuous
100
AcDbLine
 10
51.25000027142529
 20
178.9999999998144
 30
0.0
 11
50.75000027142504
 21
178.4999999998142
 31
0.0
  0
ARC
  5
69D2
330
18
100
AcDbEntity
  8
1
  6
Continuous
100
AcDbCircle
 10
48.75000027144699
 20
179.9999999998141
 30
0.0
 40
2.499999999999915
100
AcDbArc
 50
143.1301023541509
 51
216.8698976458419
  0
LINE
  5
69D3
330
18
100
AcDbEntity
  8
1
  6
Continuous
100
AcDbLine
 10
188.7500002715717
 20
84.32798860333972
 30
0.0
 11
188.7500002715666
 21
82.24999999997368
 31
0.0
  0
LINE
  5
69D4
330
18
100
AcDbEntity
  8
1
  6
Continuous
100
AcDbLine
 10
261.7500002715797
 20
84.32798860339429
 30
0.0
 11
261.7500002715812
 21
82.25000000003189
 31
0.0
  0
LINE
  5
69D5
330
18
100
AcDbEntity
  8
1
  6
Continuous
100
AcDbLine
 10
195.2500002716186
 20
55.24999999997618
 30
0.0
 11
195.2500002716527
 21
81.2499999999763
 31
0.0
  0
ARC
  5
69D6
330
18
100
AcDbEntity
  8
1
  6
Continuous
100
AcDbCircle
 10
225.2500002719266
 20
-358.0833333332577
 30
0.0
 40
444.8333333332576
100
AcDbArc
 50
85.41229765105567
 51
94.58770234903505
  0
ARC
  5
69D7
330
18
100
AcDbEntity
  8
1
  6
Continuous
100
AcDbCircle
 10
189.7500002715718
 20
84.32798860333724
 30
0.0
 40
1.0
100
AcDbArc
 50
94.58770234903472
 51
180.0
  0
ARC
  5
69D8
330
18
100
AcDbEntity
  8
1
  6
Continuous
100
AcDbCircle
 10
260.7500002715796
 20
84.32798860339351
 30
0.0
 40
1.0
100
AcDbArc
 50
0.0
 51
85.41229765105525
  0
ARC
  5
69D9
330
18
100
AcDbEntity
  8
1
  6
Continuous
100
AcDbCircle
 10
238.2500002715811
 20
82.44999999999997
 30
0.0
 40
17.0
100
AcDbArc
 50
270.0
 51
355.9522258032658
  0
LINE
  5
69DA
330
18
100
AcDbEntity
  8
1
  6
Continuous
100
AcDbLine
 10
261.7500002715812
 20
82.25000000002859
 30
0.0
 11
188.7500002715812
 21
82.2499999999712
 31
0.0
  0
LINE
  5
69DB
330
18
100
AcDbEntity
  8
1
  6
Continuous
100
AcDbLine
 10
238.250000271581
 20
65.44999999999999
 30
0.0
 11
195.250000271632
 21
65.44999999998464
 31
0.0
  0
CIRCLE
  5
69DC
330
18
100
AcDbEntity
  8
1
  6
Continuous
100
AcDbCircle
 10
207.2500002713992
 20
78.75000000004234
 30
0.0
 40
2.5
  0
LINE
  5
69DD
330
18
100
AcDbEntity
  8
4
  6
CENTER
 48
0.1
100
AcDbLine
 10
211.7500002713992
 20
78.75000000004234
 30
0.0
 11
202.7500002713992
 21
78.75000000004234
 31
0.0
  0
LINE
  5
69DE
330
18
100
AcDbEntity
  8
4
  6
CENTER
 48
0.1
100
AcDbLine
 10
207.2500002713992
 20
83.25000000004235
 30
0.0
 11
207.2500002713992
 21
74.25000000004235
 31
0.0
  0
LINE
  5
69DF
330
18
100
AcDbEntity
  8
1
  6
Continuous
100
AcDbLine
 10
255.2488237602819
 20
81.2500000000235
 30
0.0
 11
255.2488237602819
 21
65.25000000002164
 31
0.0
  0
LINE
  5
69E0
330
18
100
AcDbEntity
  8
1
  6
Continuous
100
AcDbLine
 10
245.2500002716539
 20
55.25000000018035
 30
0.0
 11
245.2500002716539
 21
66.95806661520322
 31
0.0
  0
LINE
  5
69E1
330
18
100
AcDbEntity
  8
1
  6
Continuous
100
AcDbLine
 10
253.2488237602837
 20
63.25000000002166
 30
0.0
 11
245.250000271654
 21
63.2500000000155
 31
0.0
  0
ARC
  5
69E2
330
18
100
AcDbEntity
  8
1
  6
Continuous
100
AcDbCircle
 10
253.2488237602819
 20
65.25000000002164
 30
0.0
 40
2.0
100
AcDbArc
 50
270.0
 51
0.0
  0
LINE
  5
69E3
330
18
100
AcDbEntity
  8
1
  6
Continuous
100
AcDbLine
 10
250.2500002716185
 20
55.24999999990399
 30
0.0
 11
250.250000271629
 21
63.25000000001928
 31
0.0
  0
LINE
  5
69E5
330
18
100
AcDbEntity
  8
1
  6
Continuous
100
AcDbLine
 10
232.7500002718055
 20
57.7500000000769
 30
0.0
 11
232.7500002718134
 21
55.25000000013569
 31
0.0
  0
LINE
  5
69E6
330
18
100
AcDbEntity
  8
1
  6
Continuous
100
AcDbLine
 10
226.7500002718055
 20
57.75000000005803
 30
0.0
 11
226.7500002718134
 21
55.25000000011693
 31
0.0
  0
LINE
  5
69E7
330
18
100
AcDbEntity
  8
1
  6
Continuous
100
AcDbLine
 10
224.7500002717846
 20
64.4499999999951
 30
0.0
 11
224.7500002718056
 21
57.75000000005485
 31
0.0
  0
LINE
  5
69E8
330
18
100
AcDbEntity
  8
1
  6
Continuous
100
AcDbLine
 10
224.7500002718056
 20
57.75000000003917
 30
0.0
 11
234.7500002718056
 21
57.75000000005485
 31
0.0
  0
LINE
  5
69E9
330
18
100
AcDbEntity
  8
1
  6
Continuous
100
AcDbLine
 10
234.750000271803
 20
58.55000000005503
 30
0.0
 11
234.7500002718055
 21
57.75000000007077
 31
0.0
  0
LINE
  5
69EC
330
18
100
AcDbEntity
  8
1
  6
Continuous
100
AcDbLine
 10
216.7500002715529
 20
63.25000000000232
 30
0.0
 11
216.7500002715529
 21
55.25000000003917
 31
0.0
  0
LINE
  5
69ED
330
18
100
AcDbEntity
  8
1
  6
Continuous
100
AcDbLine
 10
205.2500002716294
 20
55.24999999996459
 30
0.0
 11
205.2500002716416
 21
64.44999999998827
 31
0.0
  0
LINE
  5
69EE
330
18
100
AcDbEntity
  8
1
  6
Continuous
100
AcDbLine
 10
216.7500002715527
 20
63.24999999999572
 30
0.0
 11
224.7500002717884
 21
63.24999999998333
 31
0.0
  0
LINE
  5
69EF
330
18
100
AcDbEntity
  8
1
  6
Continuous
100
AcDbLine
 10
235.25000027165
 20
55.25000000000756
 30
0.0
 11
235.2500002716514
 21
58.55000000005571
 31
0.0
  0
LINE
  5
69F0
330
18
100
AcDbEntity
  8
1
  6
Continuous
100
AcDbLine
 10
237.2500002715885
 20
64.44999999999963
 30
0.0
 11
195.250000271632
 21
64.44999999998464
 31
0.0
  0
LINE
  5
69F1
330
18
100
AcDbEntity
  8
1
  6
Continuous
100
AcDbLine
 10
230.7009088964537
 20
58.55000000004856
 30
0.0
 11
230.700908896454
 21
64.44999999999419
 31
0.0
  0
LINE
  5
69F2
330
18
100
AcDbEntity
  8
1
  6
Continuous
100
AcDbLine
 10
235.8038599450947
 20
58.55000000005663
 30
0.0
 11
235.8038599450947
 21
64.44999999999419
 31
0.0
  0
LINE
  5
69F3
330
18
100
AcDbEntity
  8
1
  6
Continuous
100
AcDbLine
 10
238.250000271581
 20
65.44999999999999
 30
0.0
 11
237.2500002715886
 21
64.45000000000145
 31
0.0
  0
LINE
  5
69F4
330
18
100
AcDbEntity
  8
1
  6
Continuous
100
AcDbLine
 10
230.7009088964537
 20
58.55000000004856
 30
0.0
 11
235.8038599450947
 21
58.55000000005663
 31
0.0
  0
LINE
  5
69F5
330
18
100
AcDbEntity
  8
1
  6
Continuous
100
AcDbLine
 10
257.3316047741645
 20
61.51088473956207
 30
0.0
 11
259.6794103757483
 21
77.5398525434303
 31
0.0
  0
LINE
  5
69F6
330
18
100
AcDbEntity
  8
1
  6
Continuous
100
AcDbLine
 10
267.8848025753958
 20
78.35932728386609
 30
0.0
 11
261.9481478332096
 21
79.22888491408179
 31
0.0
  0
ARC
  5
69F7
330
18
100
AcDbEntity
  8
1
  6
Continuous
100
AcDbCircle
 10
261.6582952898052
 20
77.25000000002506
 30
0.0
 40
2.0
100
AcDbArc
 50
81.66699022896059
 51
171.666990228962
  0
LINE
  5
69F8
330
18
100
AcDbEntity
  8
1
  6
Continuous
100
AcDbLine
 10
250.250000271628
 20
62.54814621034853
 30
0.0
 11
257.3316047741567
 21
61.5108847395632
 31
0.0
  0
LINE
  5
69F9
330
18
100
AcDbEntity
  8
1
  6
Continuous
100
AcDbLine
 10
250.2500002716256
 20
60.52680582234193
 30
0.0
 11
257.0417522307486
 21
59.53199982550683
 31
0.0
  0
LINE
  5
69FA
330
18
100
AcDbEntity
  8
1
  6
Continuous
100
AcDbLine
 10
259.3104896882211
 20
61.22103219615684
 30
0.0
 11
261.6582952898052
 21
77.25000000002506
 31
0.0
  0
ARC
  5
69FB
330
18
100
AcDbEntity
  8
1
  6
Continuous
100
AcDbCircle
 10
257.3316047741645
 20
61.51088473956207
 30
0.0
 40
2.0
100
AcDbArc
 50
261.6669902289607
 51
351.666990228962
  0
LINE
  5
69FC
330
18
100
AcDbEntity
  8
1
  6
Continuous
100
AcDbLine
 10
267.8848025753959
 20
78.35932728386609
 30
0.0
 11
267.5949500319891
 21
76.38044236980483
 31
0.0
  0
LINE
  5
69FD
330
18
100
AcDbEntity
  8
1
  6
Continuous
100
AcDbLine
 10
267.5949500319906
 20
76.38044236980448
 30
0.0
 11
261.6582952898045
 21
77.2500000000203
 31
0.0
  0
ARC
  5
69FE
330
18
100
AcDbEntity
  8
1
  6
Continuous
100
AcDbCircle
 10
251.2500237602539
 20
64.24796640306346
 30
0.0
 40
9.0
100
AcDbArc
 50
263.620479326558
 51
285.8808500082798
  0
LINE
  5
69FF
330
18
100
AcDbEntity
  8
1
  6
Continuous
100
AcDbLine
 10
254.7500237602539
 20
57.84796640306336
 30
0.0
 11
254.6520876213647
 21
56.72855121322896
 31
0.0
  0
ARC
  5
6A00
330
18
100
AcDbEntity
  8
1
  6
Continuous
100
AcDbCircle
 10
253.3570345138401
 20
56.84185367884065
 30
0.0
 40
1.3
100
AcDbArc
 50
285.8808500082798
 51
355.0000000000002
  0
LINE
  5
6A01
330
18
100
AcDbEntity
  8
1
  6
Continuous
100
AcDbLine
 10
250.2500002716233
 20
58.84796640306337
 30
0.0
 11
256.2500237602539
 21
58.84796640306337
 31
0.0
  0
LINE
  5
6A02
330
18
100
AcDbEntity
  8
1
  6
Continuous
100
AcDbLine
 10
250.2500002716219
 20
57.84796640306336
 30
0.0
 11
255.0500237602538
 21
57.84796640306336
 31
0.0
  0
LINE
  5
6A03
330
18
100
AcDbEntity
  8
1
  6
Continuous
100
AcDbLine
 10
255.0500237602538
 20
57.84796640306336
 30
0.0
 11
255.0500237602538
 21
58.84796640306337
 31
0.0
  0
LINE
  5
6A05
330
18
100
AcDbEntity
  8
1
  6
Continuous
100
AcDbLine
 10
256.2500237602539
 20
58.84796640306337
 30
0.0
 11
256.2500237602539
 21
59.64796640306342
 31
0.0
  0
LINE
  5
6A06
330
18
100
AcDbEntity
  8
1
  6
Continuous
100
AcDbLine
 10
250.2500002716243
 20
59.64796640306445
 30
0.0
 11
256.250023760279
 21
59.64796640306594
 31
0.0
  0
LINE
  5
6A07
330
18
100
AcDbEntity
  8
2
  6
Continuous
100
AcDbLine
 10
252.7500237606013
 20
60.16062072400046
 30
0.0
 11
252.7500237606013
 21
59.64796640306502
 31
0.0
  0
LINE
  5
6A08
330
18
100
AcDbEntity
  8
2
  6
Continuous
100
AcDbLine
 10
252.7500237606013
 20
63.2500000000212
 30
0.0
 11
252.7500237606013
 21
62.18196111200763
 31
0.0
  0
LINE
  5
6A09
330
18
100
AcDbEntity
  8
1
  6
Continuous
100
AcDbLine
 10
253.2500237606013
 20
60.08738439243082
 30
0.0
 11
253.2500237606013
 21
59.64796640306525
 31
0.0
  0
LINE
  5
6A0A
330
18
100
AcDbEntity
  8
1
  6
Continuous
100
AcDbLine
 10
253.2500237606013
 20
63.25000000002166
 30
0.0
 11
253.2500237606013
 21
62.10872478043786
 31
0.0
  0
LINE
  5
6A0B
330
18
100
AcDbEntity
  8
1
  6
Continuous
100
AcDbLine
 10
171.7500002712776
 20
72.24999999999416
 30
0.0
 11
171.7500002712776
 21
55.24999999999403
 31
0.0
  0
LINE
  5
6A0C
330
18
100
AcDbEntity
  8
1
  6
Continuous
100
AcDbLine
 10
250.2500002714413
 20
55.24999999998971
 30
0.0
 11
250.2500002714413
 21
53.24999999998971
 31
0.0
  0
LINE
  5
6A0D
330
18
100
AcDbEntity
  8
1
  6
Continuous
100
AcDbLine
 10
250.2500002714413
 20
53.24999999998971
 30
0.0
 11
173.7500002712774
 21
53.24999999999403
 31
0.0
  0
LINE
  5
6A0E
330
18
100
AcDbEntity
  8
1
  6
Continuous
100
AcDbLine
 10
250.2500002714413
 20
55.24999999998971
 30
0.0
 11
173.7500002712776
 21
55.24999999999403
 31
0.0
  0
LINE
  5
6A10
330
18
100
AcDbEntity
  8
1
  6
Continuous
100
AcDbLine
 10
173.7500002712776
 20
72.24999999999393
 30
0.0
 11
171.7500002713974
 21
72.24999999999416
 31
0.0
  0
LINE
  5
6A11
330
18
100
AcDbEntity
  8
1
  6
Continuous
100
AcDbLine
 10
173.7500002712776
 20
72.24999999999393
 30
0.0
 11
173.7500002712776
 21
55.24999999999403
 31
0.0
  0
ARC
  5
6A12
330
18
100
AcDbEntity
  8
1
  6
Continuous
100
AcDbCircle
 10
173.7500002712776
 20
55.24999999999403
 30
0.0
 40
2.0
100
AcDbArc
 50
180.0
 51
270.0
  0
LINE
  5
6A13
330
18
100
AcDbEntity
  8
1
  6
Continuous
100
AcDbLine
 10
174.7500002712776
 20
66.84999999996029
 30
0.0
 11
175.7500002712776
 21
66.84999999996029
 31
0.0
  0
ARC
  5
6A14
330
18
100
AcDbEntity
  8
1
  6
Continuous
100
AcDbCircle
 10
174.7500002712776
 20
67.84999999996029
 30
0.0
 40
1.0
100
AcDbArc
 50
180.0
 51
270.0
  0
LINE
  5
6A15
330
18
100
AcDbEntity
  8
1
  6
Continuous
100
AcDbLine
 10
174.7500002712776
 20
59.64999999996035
 30
0.0
 11
175.7500002712776
 21
59.64999999996035
 31
0.0
  0
ARC
  5
6A16
330
18
100
AcDbEntity
  8
1
  6
Continuous
100
AcDbCircle
 10
174.7500002712776
 20
58.64999999996036
 30
0.0
 40
1.0
100
AcDbArc
 50
90.0
 51
180.0
  0
LINE
  5
6A17
330
18
100
AcDbEntity
  8
1
  6
Continuous
100
AcDbLine
 10
175.7500002712776
 20
66.84999999996029
 30
0.0
 11
175.7500002712776
 21
59.64999999996035
 31
0.0
  0
LINE
  5
6A18
330
18
100
AcDbEntity
  8
1
  6
Continuous
100
AcDbLine
 10
178.7309737617364
 20
67.88577871373201
 30
0.0
 11
173.8304455393106
 21
67.45703804898124
 31
0.0
  0
LINE
  5
6A19
330
18
100
AcDbEntity
  8
1
  6
Continuous
100
AcDbLine
 10
178.7309737617362
 20
67.88577871373201
 30
0.0
 11
178.9052852472316
 21
65.89338931754849
 31
0.0
  0
LINE
  5
6A1A
330
18
100
AcDbEntity
  8
1
  6
Continuous
100
AcDbLine
 10
178.9052852472316
 20
65.89338931754849
 30
0.0
 11
175.7500002712776
 21
65.61733765195896
 31
0.0
  0
LINE
  5
6A1B
330
18
100
AcDbEntity
  8
4
  6
CENTER
 48
0.1
100
AcDbLine
 10
177.7500002712775
 20
63.25000000022967
 30
0.0
 11
169.7500002712776
 21
63.25000000022604
 31
0.0
  0
ARC
  5
6A1C
330
18
100
AcDbEntity
  8
1
  6
Continuous
100
AcDbCircle
 10
162.750000271429
 20
64.24999999991752
 30
0.0
 40
1.0
100
AcDbArc
 50
90.0
 51
211.0071100287989
  0
ARC
  5
6A1D
330
18
100
AcDbEntity
  8
1
  6
Continuous
100
AcDbCircle
 10
183.3269889007076
 20
76.62639220624183
 30
0.0
 40
25.0122373532236
100
AcDbArc
 50
211.0248088064218
 51
238.7196936527001
  0
LINE
  5
6A1E
330
18
100
AcDbEntity
  8
1
  6
Continuous
100
AcDbLine
 10
170.3400002714288
 20
55.24999999995561
 30
0.0
 11
171.7500002712776
 21
55.24999999995561
 31
0.0
  0
LINE
  5
6A1F
330
18
100
AcDbEntity
  8
1
  6
Continuous
100
AcDbLine
 10
162.7500002714792
 20
65.24999999991752
 30
0.0
 11
171.7500002712776
 21
65.24999999991866
 31
0.0
  0
LINE
  5
6A20
330
18
100
AcDbEntity
  8
1
  6
Continuous
100
AcDbLine
 10
175.7500002712776
 20
65.24999999991933
 30
0.0
 11
195.2500002716317
 21
65.24999999992195
 31
0.0
  0
LINE
  5
6A21
330
18
100
AcDbEntity
  8
1
  6
Continuous
100
AcDbLine
 10
216.7500002715504
 20
62.74999999994093
 30
0.0
 11
224.7500002717901
 21
62.74999999993331
 31
0.0
  0
LINE
  5
6A22
330
18
100
AcDbEntity
  8
1
  6
Continuous
100
AcDbLine
 10
216.7500002715504
 20
57.74999999994093
 30
0.0
 11
224.7500002718056
 21
57.74999999993331
 31
0.0
  0
LINE
  5
6A23
330
18
100
AcDbEntity
  8
1
  6
Continuous
100
AcDbLine
 10
468.510992091924
 20
142.5000000001521
 30
0.0
 11
487.1457943960344
 21
142.5000000000537
 31
0.0
  0
LINE
  5
6A24
330
18
100
AcDbEntity
  8
1
  6
Continuous
100
AcDbLine
 10
468.5109920919209
 20
217.5000000001562
 30
0.0
 11
487.1457943960314
 21
217.5000000000578
 31
0.0
  0
LINE
  5
6A2B
330
18
100
AcDbEntity
  8
1
  6
Continuous
100
AcDbLine
 10
484.1457943956432
 20
190.0000000000422
 30
0.0
 11
484.1457943956432
 21
170.0000000000422
 31
0.0
  0
LINE
  5
6A2E
330
18
100
AcDbEntity
  8
4
  6
CENTER
 48
0.2
100
AcDbLine
 10
476.1457943956823
 20
209.9999999999383
 30
0.0
 11
490.1457943956824
 21
209.9999999999383
 31
0.0
  0
LINE
  5
6A2F
330
18
100
AcDbEntity
  8
4
  6
CENTER
 48
0.2
100
AcDbLine
 10
483.1457943956431
 20
217.0000000001709
 30
0.0
 11
483.1457943956431
 21
203.0000000001709
 31
0.0
  0
LINE
  5
6A30
330
18
100
AcDbEntity
  8
1
  6
Continuous
100
AcDbLine
 10
484.1457943956432
 20
170.0000000000422
 30
0.0
 11
487.1457943956414
 21
170.0000000000446
 31
0.0
  0
LINE
  5
6A31
330
18
100
AcDbEntity
  8
1
  6
Continuous
100
AcDbLine
 10
484.1457943956432
 20
190.0000000000422
 30
0.0
 11
487.1457943956446
 21
190.0000000000446
 31
0.0
  0
LINE
  5
6A32
330
18
100
AcDbEntity
  8
1
  6
Continuous
100
AcDbLine
 10
489.1457943956432
 20
168.0000000000446
 30
0.0
 11
489.1457943956432
 21
144.5000000000537
 31
0.0
  0
LINE
  5
6A33
330
18
100
AcDbEntity
  8
1
  6
Continuous
100
AcDbLine
 10
489.1457943956432
 20
215.5000000000578
 30
0.0
 11
489.1457943956432
 21
192.0000000000446
 31
0.0
  0
ARC
  5
6A34
330
18
100
AcDbEntity
  8
1
  6
Continuous
100
AcDbCircle
 10
487.1457943956431
 20
192.0000000000446
 30
0.0
 40
2.0
100
AcDbArc
 50
270.0
 51
0.000000000000007
  0
ARC
  5
6A35
330
18
100
AcDbEntity
  8
1
  6
Continuous
100
AcDbCircle
 10
487.1457943956431
 20
168.0000000000446
 30
0.0
 40
2.0
100
AcDbArc
 50
0.000000000000007
 51
90.0
  0
CIRCLE
  5
6A36
330
18
100
AcDbEntity
  8
1
  6
Continuous
100
AcDbCircle
 10
483.1457943956825
 20
210.0000000001709
 30
0.0
 40
3.5
  0
LINE
  5
6A37
330
18
100
AcDbEntity
  8
1
  6
Continuous
100
AcDbLine
 10
483.1457943955065
 20
211.1416794926813
 30
0.0
 11
482.706703486416
 21
211.310230700792
 31
0.0
  0
LINE
  5
6A38
330
18
100
AcDbEntity
  8
1
  6
Continuous
100
AcDbLine
 10
483.1457943955065
 20
211.1416794926813
 30
0.0
 11
483.5848853045978
 21
211.3102307007923
 31
0.0
  0
LINE
  5
6A39
330
18
100
AcDbEntity
  8
1
  6
Continuous
100
AcDbLine
 10
482.706703486416
 20
211.310230700792
 30
0.0
 11
482.1492975856092
 21
211.8485113222125
 31
0.0
  0
LINE
  5
6A3A
330
18
100
AcDbEntity
  8
1
  6
Continuous
100
AcDbLine
 10
483.5848853045978
 20
211.3102307007923
 30
0.0
 11
484.1422912054041
 21
211.8485113222122
 31
0.0
  0
LINE
  5
6A3B
330
18
100
AcDbEntity
  8
1
  6
Continuous
100
AcDbLine
 10
481.8355636948449
 20
210.4390909092212
 30
0.0
 11
481.2972830734246
 21
210.996496810028
 31
0.0
  0
LINE
  5
6A3C
330
18
100
AcDbEntity
  8
1
  6
Continuous
100
AcDbLine
 10
482.0041149029558
 20
210.0000000001305
 30
0.0
 11
481.8355636948449
 21
210.4390909092213
 31
0.0
  0
LINE
  5
6A3D
330
18
100
AcDbEntity
  8
1
  6
Continuous
100
AcDbLine
 10
482.0041149029558
 20
210.0000000001305
 30
0.0
 11
481.8355636948448
 21
209.5609090910392
 31
0.0
  0
LINE
  5
6A3E
330
18
100
AcDbEntity
  8
1
  6
Continuous
100
AcDbLine
 10
481.8355636948449
 20
209.5609090910394
 30
0.0
 11
481.2972830734249
 21
209.0035031902332
 31
0.0
  0
LINE
  5
6A3F
330
18
100
AcDbEntity
  8
1
  6
Continuous
100
AcDbLine
 10
482.7067034864158
 20
208.6897692994691
 30
0.0
 11
482.1492975856089
 21
208.1514886780486
 31
0.0
  0
LINE
  5
6A40
330
18
100
AcDbEntity
  8
1
  6
Continuous
100
AcDbLine
 10
483.1457943955063
 20
208.8583205075799
 30
0.0
 11
482.7067034864158
 21
208.6897692994691
 31
0.0
  0
LINE
  5
6A41
330
18
100
AcDbEntity
  8
1
  6
Continuous
100
AcDbLine
 10
483.1457943955063
 20
208.8583205075799
 30
0.0
 11
483.5848853045978
 21
208.6897692994689
 31
0.0
  0
LINE
  5
6A42
330
18
100
AcDbEntity
  8
1
  6
Continuous
100
AcDbLine
 10
483.584885304598
 20
208.689769299469
 30
0.0
 11
484.1422912054039
 21
208.1514886780489
 31
0.0
  0
LINE
  5
6A43
330
18
100
AcDbEntity
  8
1
  6
Continuous
100
AcDbLine
 10
484.456025096168
 20
209.5609090910401
 30
0.0
 11
484.9943057175884
 21
209.0035031902334
 31
0.0
  0
LINE
  5
6A44
330
18
100
AcDbEntity
  8
1
  6
Continuous
100
AcDbLine
 10
484.2874738880571
 20
210.0000000001307
 30
0.0
 11
484.456025096168
 21
209.5609090910401
 31
0.0
  0
LINE
  5
6A45
330
18
100
AcDbEntity
  8
1
  6
Continuous
100
AcDbLine
 10
484.2874738880571
 20
210.0000000001307
 30
0.0
 11
484.4560250961682
 21
210.439090909222
 31
0.0
  0
LINE
  5
6A46
330
18
100
AcDbEntity
  8
1
  6
Continuous
100
AcDbLine
 10
484.4560250961682
 20
210.4390909092219
 30
0.0
 11
484.9943057175884
 21
210.9964968100282
 31
0.0
  0
ARC
  5
6A47
330
18
100
AcDbEntity
  8
1
  6
Continuous
100
AcDbCircle
 10
483.1457943955065
 20
210.0000000001306
 30
0.0
 40
2.1
100
AcDbArc
 50
208.3282509640234
 51
241.6717490359971
  0
ARC
  5
6A48
330
18
100
AcDbEntity
  8
1
  6
Continuous
100
AcDbCircle
 10
483.1457943955065
 20
210.0000000001306
 30
0.0
 40
2.1
100
AcDbArc
 50
298.3282509640267
 51
331.6717490359908
  0
ARC
  5
6A49
330
18
100
AcDbEntity
  8
1
  6
Continuous
100
AcDbCircle
 10
483.1457943955065
 20
210.0000000001306
 30
0.0
 40
2.1
100
AcDbArc
 50
118.3282509640122
 51
151.6717490359877
  0
ARC
  5
6A4A
330
18
100
AcDbEntity
  8
1
  6
Continuous
100
AcDbCircle
 10
483.1457943955065
 20
210.0000000001306
 30
0.0
 40
2.1
100
AcDbArc
 50
28.32825096402353
 51
61.67174903598368
  0
CIRCLE
  5
6A4B
330
18
100
AcDbEntity
  8
1
  6
Continuous
100
AcDbCircle
 10
483.1457943956825
 20
210.0000000001709
 30
0.0
 40
3.799999999999998
  0
CIRCLE
  5
6A4C
330
18
100
AcDbEntity
  8
1
  6
Continuous
100
AcDbCircle
 10
483.1457943956825
 20
210.0000000001709
 30
0.0
 40
5.0
  0
CIRCLE
  5
6A4D
330
18
100
AcDbEntity
  8
1
  6
Continuous
100
AcDbCircle
 10
483.1457943956303
 20
150.0000000001669
 30
0.0
 40
3.5
  0
LINE
  5
6A4E
330
18
100
AcDbEntity
  8
1
  6
Continuous
100
AcDbLine
 10
483.1457943954545
 20
151.1416794926773
 30
0.0
 11
482.7067034863641
 21
151.3102307007881
 31
0.0
  0
LINE
  5
6A4F
330
18
100
AcDbEntity
  8
1
  6
Continuous
100
AcDbLine
 10
483.1457943954545
 20
151.1416794926773
 30
0.0
 11
483.5848853045455
 21
151.3102307007882
 31
0.0
  0
LINE
  5
6A50
330
18
100
AcDbEntity
  8
1
  6
Continuous
100
AcDbLine
 10
482.7067034863641
 20
151.3102307007881
 30
0.0
 11
482.1492975855569
 21
151.8485113222085
 31
0.0
  0
LINE
  5
6A51
330
18
100
AcDbEntity
  8
1
  6
Continuous
100
AcDbLine
 10
483.5848853045455
 20
151.3102307007882
 30
0.0
 11
484.1422912053521
 21
151.8485113222083
 31
0.0
  0
LINE
  5
6A52
330
18
100
AcDbEntity
  8
1
  6
Continuous
100
AcDbLine
 10
481.8355636947931
 20
150.4390909092173
 30
0.0
 11
481.2972830733726
 21
150.9964968100241
 31
0.0
  0
LINE
  5
6A53
330
18
100
AcDbEntity
  8
1
  6
Continuous
100
AcDbLine
 10
482.0041149029038
 20
150.0000000001266
 30
0.0
 11
481.835563694793
 21
150.4390909092172
 31
0.0
  0
LINE
  5
6A54
330
18
100
AcDbEntity
  8
1
  6
Continuous
100
AcDbLine
 10
482.0041149029038
 20
150.0000000001265
 30
0.0
 11
481.8355636947927
 21
149.5609090910352
 31
0.0
  0
LINE
  5
6A55
330
18
100
AcDbEntity
  8
1
  6
Continuous
100
AcDbLine
 10
481.8355636947927
 20
149.5609090910354
 30
0.0
 11
481.2972830733728
 21
149.0035031902291
 31
0.0
  0
LINE
  5
6A56
330
18
100
AcDbEntity
  8
1
  6
Continuous
100
AcDbLine
 10
482.7067034863636
 20
148.689769299465
 30
0.0
 11
482.1492975855568
 21
148.1514886780446
 31
0.0
  0
LINE
  5
6A57
330
18
100
AcDbEntity
  8
1
  6
Continuous
100
AcDbLine
 10
483.1457943954545
 20
148.858320507576
 30
0.0
 11
482.7067034863638
 21
148.6897692994651
 31
0.0
  0
LINE
  5
6A58
330
18
100
AcDbEntity
  8
1
  6
Continuous
100
AcDbLine
 10
483.1457943954545
 20
148.858320507576
 30
0.0
 11
483.5848853045458
 21
148.6897692994649
 31
0.0
  0
LINE
  5
6A59
330
18
100
AcDbEntity
  8
1
  6
Continuous
100
AcDbLine
 10
483.5848853045458
 20
148.6897692994649
 30
0.0
 11
484.1422912053522
 21
148.151488678045
 31
0.0
  0
LINE
  5
6A5A
330
18
100
AcDbEntity
  8
1
  6
Continuous
100
AcDbLine
 10
484.4560250961158
 20
149.560909091036
 30
0.0
 11
484.9943057175361
 21
149.0035031902293
 31
0.0
  0
LINE
  5
6A5B
330
18
100
AcDbEntity
  8
1
  6
Continuous
100
AcDbLine
 10
484.2874738880049
 20
150.0000000001266
 30
0.0
 11
484.4560250961158
 21
149.560909091036
 31
0.0
  0
LINE
  5
6A5C
330
18
100
AcDbEntity
  8
1
  6
Continuous
100
AcDbLine
 10
484.2874738880049
 20
150.0000000001266
 30
0.0
 11
484.4560250961162
 21
150.439090909218
 31
0.0
  0
LINE
  5
6A5D
330
18
100
AcDbEntity
  8
1
  6
Continuous
100
AcDbLine
 10
484.456025096116
 20
150.4390909092179
 30
0.0
 11
484.9943057175361
 21
150.9964968100242
 31
0.0
  0
ARC
  5
6A5E
330
18
100
AcDbEntity
  8
1
  6
Continuous
100
AcDbCircle
 10
483.1457943954545
 20
150.0000000001266
 30
0.0
 40
2.1
100
AcDbArc
 50
208.3282509640234
 51
241.6717490359971
  0
ARC
  5
6A5F
330
18
100
AcDbEntity
  8
1
  6
Continuous
100
AcDbCircle
 10
483.1457943954545
 20
150.0000000001266
 30
0.0
 40
2.1
100
AcDbArc
 50
298.3282509640267
 51
331.6717490359908
  0
ARC
  5
6A60
330
18
100
AcDbEntity
  8
1
  6
Continuous
100
AcDbCircle
 10
483.1457943954545
 20
150.0000000001266
 30
0.0
 40
2.1
100
AcDbArc
 50
118.3282509640122
 51
151.6717490359877
  0
ARC
  5
6A61
330
18
100
AcDbEntity
  8
1
  6
Continuous
100
AcDbCircle
 10
483.1457943954545
 20
150.0000000001266
 30
0.0
 40
2.1
100
AcDbArc
 50
28.32825096402353
 51
61.67174903598368
  0
CIRCLE
  5
6A62
330
18
100
AcDbEntity
  8
1
  6
Continuous
100
AcDbCircle
 10
483.1457943956303
 20
150.0000000001669
 30
0.0
 40
3.799999999999998
  0
CIRCLE
  5
6A63
330
18
100
AcDbEntity
  8
1
  6
Continuous
100
AcDbCircle
 10
483.1457943956303
 20
150.0000000001669
 30
0.0
 40
5.0
  0
LINE
  5
6A64
330
18
100
AcDbEntity
  8
1
  6
Continuous
100
AcDbLine
 10
492.1457943960326
 20
220.0000000001636
 30
0.0
 11
562.6457943961598
 21
220.0000000001676
 31
0.0
  0
LINE
  5
6A65
330
18
100
AcDbEntity
  8
1
  6
Continuous
100
AcDbLine
 10
492.1457943960332
 20
140.0000000001636
 30
0.0
 11
562.6457943961644
 21
140.0000000001676
 31
0.0
  0
LINE
  5
6A66
330
18
100
AcDbEntity
  8
4
  6
CENTER
 48
0.5
100
AcDbLine
 10
460.1000954347052
 20
179.999999999922
 30
0.0
 11
566.8999051082809
 21
180.0000000000818
 31
0.0
  0
LINE
  5
6A67
330
18
100
AcDbEntity
  8
1
  6
Continuous
100
AcDbLine
 10
489.1457943960331
 20
217.0000000001636
 30
0.0
 11
489.145794396033
 21
191.6000000000856
 31
0.0
  0
LINE
  5
6A68
330
18
100
AcDbEntity
  8
1
  6
Continuous
100
AcDbLine
 10
487.1457943960328
 20
189.6000000000856
 30
0.0
 11
486.1457943959883
 21
189.6000000000858
 31
0.0
  0
LINE
  5
6A6A
330
18
100
AcDbEntity
  8
1
  6
Continuous
100
AcDbLine
 10
487.1457943960333
 20
170.4000000000856
 30
0.0
 11
486.1457943959881
 21
170.4000000000856
 31
0.0
  0
LINE
  5
6A6B
330
18
100
AcDbEntity
  8
1
  6
Continuous
100
AcDbLine
 10
489.145794396033
 20
168.4000000000856
 30
0.0
 11
489.1457943960328
 21
143.0000000001636
 31
0.0
  0
LINE
  5
6A6E
330
18
100
AcDbEntity
  8
4
  6
CENTER
 48
0.2
100
AcDbLine
 10
494.1457943960611
 20
196.3000000001494
 30
0.0
 11
494.1457943960751
 21
208.9000000001494
 31
0.0
  0
LINE
  5
6A6F
330
18
100
AcDbEntity
  8
4
  6
CENTER
 48
0.2
100
AcDbLine
 10
487.8457943960686
 20
202.6000000001567
 30
0.0
 11
500.4457943960683
 21
202.6000000001426
 31
0.0
  0
LINE
  5
6A70
330
18
100
AcDbEntity
  8
4
  6
CENTER
 48
0.1
100
AcDbLine
 10
504.6457943961808
 20
202.250000000152
 30
0.0
 11
504.6457943961808
 21
192.750000000152
 31
0.0
  0
LINE
  5
6A71
330
18
100
AcDbEntity
  8
4
  6
CENTER
 48
0.1
100
AcDbLine
 10
499.8957943961808
 20
197.500000000152
 30
0.0
 11
509.3957943961807
 21
197.500000000152
 31
0.0
  0
LINE
  5
6A72
330
18
100
AcDbEntity
  8
4
  6
CENTER
 48
0.2
100
AcDbLine
 10
527.8457943961528
 20
210.0000000000814
 30
0.0
 11
540.4457943961528
 21
210.0000000000814
 31
0.0
  0
LINE
  5
6A73
330
18
100
AcDbEntity
  8
4
  6
CENTER
 48
0.2
100
AcDbLine
 10
534.1457943961528
 20
216.3000000000814
 30
0.0
 11
534.1457943961528
 21
203.7000000000814
 31
0.0
  0
ARC
  5
6A78
330
18
100
AcDbEntity
  8
1
  6
Continuous
100
AcDbCircle
 10
486.1457943959881
 20
172.4000000000856
 30
0.0
 40
2.0
100
AcDbArc
 50
180.0
 51
270.0
  0
ARC
  5
6A79
330
18
100
AcDbEntity
  8
1
  6
Continuous
100
AcDbCircle
 10
486.1457943959881
 20
187.6000000000858
 30
0.0
 40
2.0
100
AcDbArc
 50
90.0
 51
180.0
  0
ARC
  5
6A7A
330
18
100
AcDbEntity
  8
1
  6
Continuous
100
AcDbCircle
 10
492.145794396033
 20
143.0000000001636
 30
0.0
 40
3.0
100
AcDbArc
 50
180.0
 51
270.0
  0
ARC
  5
6A7B
330
18
100
AcDbEntity
  8
1
  6
Continuous
100
AcDbCircle
 10
492.145794396033
 20
217.0000000001636
 30
0.0
 40
3.0
100
AcDbArc
 50
90.0
 51
180.0
  0
CIRCLE
  5
6A7C
330
18
100
AcDbEntity
  8
1
  6
Continuous
100
AcDbCircle
 10
494.1457943960683
 20
202.6000000001495
 30
0.0
 40
4.299999999999998
  0
CIRCLE
  5
6A7D
330
18
100
AcDbEntity
  8
1
  6
Continuous
100
AcDbCircle
 10
494.145794396033
 20
157.4000000000849
 30
0.0
 40
4.299999999999998
  0
CIRCLE
  5
6A7E
330
18
100
AcDbEntity
  8
1
  6
Continuous
100
AcDbCircle
 10
534.1457943961505
 20
150.0000000000789
 30
0.0
 40
4.299999999999998
  0
CIRCLE
  5
6A7F
330
18
100
AcDbEntity
  8
1
  6
Continuous
100
AcDbCircle
 10
534.1457943961528
 20
210.0000000000814
 30
0.0
 40
4.299999999999998
  0
CIRCLE
  5
6A80
330
18
100
AcDbEntity
  8
1
  6
Continuous
100
AcDbCircle
 10
504.6457943961808
 20
197.500000000152
 30
0.0
 40
2.75
  0
CIRCLE
  5
6A81
330
18
100
AcDbEntity
  8
1
  6
Continuous
100
AcDbCircle
 10
504.6457943961808
 20
162.5000000001522
 30
0.0
 40
2.75
  0
ARC
  5
6A82
330
18
100
AcDbEntity
  8
1
  6
Continuous
100
AcDbCircle
 10
487.1457943960328
 20
168.4000000000856
 30
0.0
 40
2.0
100
AcDbArc
 50
0.000000000000007
 51
90.0
  0
ARC
  5
6A83
330
18
100
AcDbEntity
  8
1
  6
Continuous
100
AcDbCircle
 10
487.145794396033
 20
191.6000000000856
 30
0.0
 40
2.0
100
AcDbArc
 50
270.0
 51
0.000000000000007
  0
LINE
  5
6A84
330
18
100
AcDbEntity
  8
1
  6
Continuous
100
AcDbLine
 10
560.6457943961112
 20
187.2000000000793
 30
0.0
 11
560.6457943960897
 21
172.8000000000793
 31
0.0
  0
LINE
  5
6A85
330
18
100
AcDbEntity
  8
1
  6
Continuous
100
AcDbLine
 10
560.6457943960897
 20
172.8000000000793
 30
0.0
 11
562.6457943960899
 21
172.8000000000801
 31
0.0
  0
LINE
  5
6A86
330
18
100
AcDbEntity
  8
1
  6
Continuous
100
AcDbLine
 10
560.6457943961112
 20
187.2000000000793
 30
0.0
 11
562.6457943961112
 21
187.2000000000801
 31
0.0
  0
ARC
  5
6A87
330
18
100
AcDbEntity
  8
1
  6
Continuous
100
AcDbCircle
 10
524.145794396291
 20
180.000000000062
 30
0.0
 40
2.5
100
AcDbArc
 50
270.0
 51
90.0
  0
ARC
  5
6A88
330
18
100
AcDbEntity
  8
1
  6
Continuous
100
AcDbCircle
 10
514.1457943962911
 20
180.0000000000581
 30
0.0
 40
2.5
100
AcDbArc
 50
90.0
 51
270.0
  0
LINE
  5
6A89
330
18
100
AcDbEntity
  8
1
  6
Continuous
100
AcDbLine
 10
524.145794396291
 20
182.500000000062
 30
0.0
 11
514.1457943962911
 21
182.500000000062
 31
0.0
  0
LINE
  5
6A8A
330
18
100
AcDbEntity
  8
1
  6
Continuous
100
AcDbLine
 10
524.145794396291
 20
177.500000000062
 30
0.0
 11
514.1457943962911
 21
177.500000000062
 31
0.0
  0
LINE
  5
6A8B
330
18
100
AcDbEntity
  8
4
  6
CENTER
 48
0.1
100
AcDbLine
 10
548.6457943965068
 20
183.5000000000739
 30
0.0
 11
548.6457943965068
 21
176.5000000000739
 31
0.0
  0
LINE
  5
6A8C
330
18
100
AcDbEntity
  8
1
  6
Continuous
100
AcDbLine
 10
562.6457943960899
 20
173.0000000000828
 30
0.0
 11
562.6457943960408
 21
140.0000000001983
 31
0.0
  0
LINE
  5
6A8D
330
18
100
AcDbEntity
  8
1
  6
Continuous
100
AcDbLine
 10
562.6457943961598
 20
220.0000000001676
 30
0.0
 11
562.6457943961106
 21
187.0000000000828
 31
0.0
  0
LINE
  5
6A8E
330
18
100
AcDbEntity
  8
1
  6
Continuous
100
AcDbLine
 10
572.6457943961246
 20
174.0000000000828
 30
0.0
 11
572.6457943961246
 21
186.0000000000828
 31
0.0
  0
LINE
  5
6A8F
330
18
100
AcDbEntity
  8
1
  6
Continuous
100
AcDbLine
 10
571.6457943961246
 20
173.0000000000828
 30
0.0
 11
560.6457943960901
 21
173.0000000000828
 31
0.0
  0
LINE
  5
6A90
330
18
100
AcDbEntity
  8
1
  6
Continuous
100
AcDbLine
 10
571.6457943961246
 20
187.0000000000828
 30
0.0
 11
560.6457943961109
 21
187.0000000000828
 31
0.0
  0
ARC
  5
6A91
330
18
100
AcDbEntity
  8
1
  6
Continuous
100
AcDbCircle
 10
571.6457943961246
 20
186.0000000000828
 30
0.0
 40
1.0
100
AcDbArc
 50
0.000000000000007
 51
90.0
  0
ARC
  5
6A92
330
18
100
AcDbEntity
  8
1
  6
Continuous
100
AcDbCircle
 10
571.6457943961246
 20
174.0000000000828
 30
0.0
 40
1.0
100
AcDbArc
 50
270.0
 51
0.000000000000007
  0
CIRCLE
  5
6A93
330
18
100
AcDbEntity
  8
1
  6
Continuous
100
AcDbCircle
 10
524.1457943962226
 20
180.0000000000811
 30
0.0
 40
1.620999999999999
  0
CIRCLE
  5
6A94
330
18
100
AcDbEntity
  8
2
  6
Continuous
100
AcDbCircle
 10
524.1457943962226
 20
180.0000000000811
 30
0.0
 40
2.0
  0
CIRCLE
  5
6A95
330
18
100
AcDbEntity
  8
1
  6
Continuous
100
AcDbCircle
 10
524.1457943962226
 20
180.0000000000811
 30
0.0
 40
2.1
  0
LINE
  5
6A96
330
18
100
AcDbEntity
  8
1
  6
Continuous
100
AcDbLine
 10
568.0394841983376
 20
178.4500000000842
 30
0.0
 11
560.6457943960982
 21
178.4500000000861
 31
0.0
  0
LINE
  5
6A97
330
18
100
AcDbEntity
  8
1
  6
Continuous
100
AcDbLine
 10
568.0394841983384
 20
181.5500000000842
 30
0.0
 11
560.6457943961028
 21
181.5500000000863
 31
0.0
  0
LINE
  5
6A98
330
18
100
AcDbEntity
  8
1
  6
Continuous
100
AcDbLine
 10
568.0394841983384
 20
181.5500000000842
 30
0.0
 11
568.0394841983379
 21
178.4500000000816
 31
0.0
  0
LINE
  5
6A99
330
18
100
AcDbEntity
  8
1
  6
Continuous
100
AcDbLine
 10
564.0600079585616
 20
174.0000000000828
 30
0.0
 11
564.0600079585616
 21
178.4500000000853
 31
0.0
  0
LINE
  5
6A9A
330
18
100
AcDbEntity
  8
1
  6
Continuous
100
AcDbLine
 10
564.0600079585616
 20
181.5500000000852
 30
0.0
 11
564.0600079585616
 21
186.0000000000828
 31
0.0
  0
LINE
  5
6A9B
330
18
100
AcDbEntity
  8
4
  6
CENTER
 48
0.1
100
AcDbLine
 10
524.1457943962226
 20
184.5000000000619
 30
0.0
 11
524.1457943962226
 21
175.5000000000619
 31
0.0
  0
LINE
  5
6A9C
330
18
100
AcDbEntity
  8
1
  6
Continuous
100
AcDbLine
 10
161.7500002713106
 20
173.9999999999715
 30
0.0
 11
161.7500002713106
 21
185.9999999999715
 31
0.0
  0
ARC
  5
6A9D
330
18
100
AcDbEntity
  8
1
  6
Continuous
100
AcDbCircle
 10
162.7500002713107
 20
185.9999999999715
 30
0.0
 40
1.0
100
AcDbArc
 50
90.0
 51
180.0
  0
ARC
  5
6A9E
330
18
100
AcDbEntity
  8
1
  6
Continuous
100
AcDbCircle
 10
162.7500002713107
 20
173.9999999999715
 30
0.0
 40
1.0
100
AcDbArc
 50
180.0
 51
270.0
  0
LINE
  5
6A9F
330
18
100
AcDbEntity
  8
1
  6
Continuous
100
AcDbLine
 10
162.7500002713107
 20
186.9999999999715
 30
0.0
 11
171.7500002712076
 21
186.9999999999715
 31
0.0
  0
LINE
  5
6AA0
330
18
100
AcDbEntity
  8
1
  6
Continuous
100
AcDbLine
 10
178.905285246711
 20
186.9999999999715
 30
0.0
 11
188.7981834784643
 21
186.9999999999715
 31
0.0
  0
LINE
  5
6AA1
330
18
100
AcDbEntity
  8
1
  6
Continuous
100
AcDbLine
 10
162.7500002713107
 20
172.9999999999715
 30
0.0
 11
171.7500002712284
 21
172.9999999999715
 31
0.0
  0
LINE
  5
6AA2
330
18
100
AcDbEntity
  8
1
  6
Continuous
100
AcDbLine
 10
178.905285246711
 20
172.9999999999715
 30
0.0
 11
188.7981834784645
 21
172.9999999999715
 31
0.0
  0
LINE
  5
6AA3
330
18
100
AcDbEntity
  8
1
  6
Continuous
100
AcDbLine
 10
251.2500237602529
 20
58.84796640306337
 30
0.0
 11
252.25002376025
 21
57.84796640306348
 31
0.0
  0
LINE
  5
6AA4
330
18
100
AcDbEntity
  8
1
  6
Continuous
100
AcDbLine
 10
250.2500237602542
 20
58.84796640306337
 30
0.0
 11
251.2500237602514
 21
57.84796640306348
 31
0.0
  0
LINE
  5
6AA5
330
18
100
AcDbEntity
  8
4
  6
CENTER
 48
0.1
100
AcDbLine
 10
185.7500002712144
 20
49.74999999997649
 30
0.0
 11
185.7500002712144
 21
58.24999999999334
 31
0.0
  0
ARC
  5
6AA6
330
18
100
AcDbEntity
  8
1
  6
Continuous
100
AcDbCircle
 10
185.7500002713998
 20
55.2499999999764
 30
0.0
 40
2.499999999999915
100
AcDbArc
 50
233.1301023541519
 51
306.8698976458425
  0
LINE
  5
6AA7
330
18
100
AcDbEntity
  8
5
  6
PHANTOM
 48
0.1
100
AcDbLine
 10
211.8550709391712
 20
86.54827857996162
 30
0.0
 11
225.4084065854432
 21
94.26117180484181
 31
0.0
  0
ARC
  5
6AA8
330
18
100
AcDbEntity
  8
5
  6
PHANTOM
 48
0.1
100
AcDbCircle
 10
438.9508670945706
 20
-292.0087359757003
 30
0.0
 40
444.8333000000001
100
AcDbArc
 50
118.6355125049598
 51
121.742913402711
  0
ARC
  5
6AA9
330
18
100
AcDbEntity
  8
5
  6
PHANTOM
 48
0.1
100
AcDbCircle
 10
226.832636356927
 20
96.47051945318418
 30
0.0
 40
2.215772432633048
100
AcDbArc
 50
253.1968032084741
 51
118.635512580888
  0
ARC
  5
6AAA
330
18
100
AcDbEntity
  8
5
  6
PHANTOM
 48
0.1
100
AcDbCircle
 10
225.9030041089134
 20
93.39204966740835
 30
0.0
 40
1.0
100
AcDbArc
 50
73.19680320847417
 51
119.6432140823917
  0
LINE
  5
6AB9
330
18
100
AcDbEntity
  8
4
  6
CENTER
 48
0.5
100
AcDbLine
 10
458.8761897883208
 20
180.0000000000377
 30
0.0
 11
577.6457943960077
 21
180.0000000000705
 31
0.0
  0
LINE
  5
6B0A
330
18
100
AcDbEntity
  8
1
  6
Continuous
100
AcDbLine
 10
381.5674014232975
 20
139.9999999998298
 30
0.0
 11
381.5674014234163
 21
219.9999999997991
 31
0.0
  0
LINE
  5
6B0B
330
18
100
AcDbEntity
  8
1
  6
Continuous
100
AcDbLine
 10
349.0847537066912
 20
218.0000000000022
 30
0.0
 11
349.0847537065393
 21
142.0000000000022
 31
0.0
  0
LINE
  5
6B0C
330
18
100
AcDbEntity
  8
1
  6
Continuous
100
AcDbLine
 10
352.5674014234157
 20
226.0000000004178
 30
0.0
 11
352.5674014234157
 21
134.0000000004178
 31
0.0
  0
LINE
  5
6B0D
330
18
100
AcDbEntity
  8
1
  6
Continuous
100
AcDbLine
 10
348.0674014233498
 20
225.000000000416
 30
0.0
 11
348.0674014233498
 21
135.000000000416
 31
0.0
  0
LINE
  5
6B0E
330
18
100
AcDbEntity
  8
1
  6
Continuous
100
AcDbLine
 10
353.5674014234158
 20
226.0000000004178
 30
0.0
 11
353.5674014234158
 21
134.0000000004178
 31
0.0
  0
LINE
  5
6B12
330
18
100
AcDbEntity
  8
1
  6
Continuous
100
AcDbLine
 10
367.3674014231536
 20
139.9999999998536
 30
0.0
 11
381.5674014232791
 21
139.9999999998559
 31
0.0
  0
ARC
  5
6B13
330
18
100
AcDbEntity
  8
1
  6
Continuous
100
AcDbCircle
 10
349.0674014233499
 20
135.000000000416
 30
0.0
 40
1.0
100
AcDbArc
 50
180.0
 51
270.0
  0
LINE
  5
6B14
330
18
100
AcDbEntity
  8
1
  6
Continuous
100
AcDbLine
 10
353.5674014234158
 20
134.0000000004178
 30
0.0
 11
352.5674014234165
 21
134.0000000004164
 31
0.0
  0
LINE
  5
6B15
330
18
100
AcDbEntity
  8
1
  6
Continuous
100
AcDbLine
 10
349.0674014233481
 20
134.000000000416
 30
0.0
 11
352.5674014232474
 21
134.0000000004095
 31
0.0
  0
LINE
  5
6B16
330
18
100
AcDbEntity
  8
1
  6
Continuous
100
AcDbLine
 10
353.5674014234158
 20
139.0000000000022
 30
0.0
 11
364.3674014233517
 21
139.0000000000022
 31
0.0
  0
ARC
  5
6B19
330
18
100
AcDbEntity
  8
1
  6
Continuous
100
AcDbCircle
 10
364.3674014233517
 20
144.0000000000022
 30
0.0
 40
5.0
100
AcDbArc
 50
270.0
 51
342.5423968754793
  0
ARC
  5
6B1A
330
18
100
AcDbEntity
  8
1
  6
Continuous
100
AcDbCircle
 10
348.5674014233499
 20
141.5000000000022
 30
0.0
 40
0.5
100
AcDbArc
 50
90.0
 51
180.0
  0
ARC
  5
6B1B
330
18
100
AcDbEntity
  8
1
  6
Continuous
100
AcDbCircle
 10
349.0674014233499
 20
143.5000000000021
 30
0.0
 40
1.0
100
AcDbArc
 50
180.0
 51
270.0
  0
LINE
  5
6B1C
330
18
100
AcDbEntity
  8
1
  6
Continuous
100
AcDbLine
 10
348.5674014233499
 20
142.0000000000022
 30
0.0
 11
349.0847537065393
 21
142.0000000000022
 31
0.0
  0
LINE
  5
6B1D
330
18
100
AcDbEntity
  8
1
  6
Continuous
100
AcDbLine
 10
349.0674014233499
 20
142.5000000000022
 30
0.0
 11
349.0847537065404
 21
142.5000000000022
 31
0.0
  0
LINE
  5
6B21
330
18
100
AcDbEntity
  8
1
  6
Continuous
100
AcDbLine
 10
367.3674014235813
 20
219.9999999998271
 30
0.0
 11
381.5674014233954
 21
219.9999999998412
 31
0.0
  0
LINE
  5
6B41
330
18
100
AcDbEntity
  8
1
  6
Continuous
100
AcDbLine
 10
353.5674014234158
 20
221.0000000000022
 30
0.0
 11
364.367401423348
 21
221.0000000000022
 31
0.0
  0
ARC
  5
6B44
330
18
100
AcDbEntity
  8
1
  6
Continuous
100
AcDbCircle
 10
364.367401423348
 20
216.0000000000021
 30
0.0
 40
5.0
100
AcDbArc
 50
17.45760312297409
 51
90.0
  0
ARC
  5
6B45
330
18
100
AcDbEntity
  8
1
  6
Continuous
100
AcDbCircle
 10
348.5674014233499
 20
218.5000000000022
 30
0.0
 40
0.5
100
AcDbArc
 50
180.0
 51
270.0
  0
ARC
  5
6B46
330
18
100
AcDbEntity
  8
1
  6
Continuous
100
AcDbCircle
 10
349.0674014233499
 20
216.5000000000022
 30
0.0
 40
1.0
100
AcDbArc
 50
90.0
 51
180.0
  0
LINE
  5
6B47
330
18
100
AcDbEntity
  8
1
  6
Continuous
100
AcDbLine
 10
348.5674014233499
 20
218.0000000000022
 30
0.0
 11
349.0847537066912
 21
218.0000000000022
 31
0.0
  0
LINE
  5
6B48
330
18
100
AcDbEntity
  8
1
  6
Continuous
100
AcDbLine
 10
349.0674014233499
 20
217.5000000000022
 30
0.0
 11
349.0847537066902
 21
217.5000000000022
 31
0.0
  0
ARC
  5
6B49
330
18
100
AcDbEntity
  8
1
  6
Continuous
100
AcDbCircle
 10
349.0674014233499
 20
225.000000000416
 30
0.0
 40
1.0
100
AcDbArc
 50
90.0
 51
180.0
  0
LINE
  5
6B4A
330
18
100
AcDbEntity
  8
1
  6
Continuous
100
AcDbLine
 10
353.5674014234158
 20
226.0000000004178
 30
0.0
 11
352.5674014234165
 21
226.0000000004164
 31
0.0
  0
LINE
  5
6B4B
330
18
100
AcDbEntity
  8
1
  6
Continuous
100
AcDbLine
 10
349.0674014233517
 20
226.000000000416
 30
0.0
 11
352.5674014234157
 21
226.0000000004096
 31
0.0
  0
LINE
  5
6B4C
330
18
100
AcDbEntity
  8
4
  6
CENTER
 48
0.1
100
AcDbLine
 10
61.25000027149154
 20
149.9999999999544
 30
0.0
 11
52.25000027149157
 21
149.9999999999544
 31
0.0
  0
LINE
  5
6B4D
330
18
100
AcDbEntity
  8
4
  6
CENTER
 48
0.1
100
AcDbLine
 10
56.75000027149156
 20
145.4999999999544
 30
0.0
 11
56.75000027149156
 21
154.4999999999544
 31
0.0
  0
LINE
  5
6B4E
330
18
100
AcDbEntity
  8
4
  6
CENTER
 48
0.2
100
AcDbLine
 10
476.1457943956303
 20
149.9999999999343
 30
0.0
 11
490.1457943956303
 21
149.9999999999343
 31
0.0
  0
LINE
  5
6B4F
330
18
100
AcDbEntity
  8
4
  6
CENTER
 48
0.2
100
AcDbLine
 10
483.1457943955911
 20
157.0000000001669
 30
0.0
 11
483.1457943955911
 21
143.0000000001669
 31
0.0
  0
LINE
  5
6B50
330
18
100
AcDbEntity
  8
4
  6
CENTER
 48
0.2
100
AcDbLine
 10
487.8457943960686
 20
157.399999999963
 30
0.0
 11
500.4457943960683
 21
157.3999999999771
 31
0.0
  0
LINE
  5
6B51
330
18
100
AcDbEntity
  8
4
  6
CENTER
 48
0.2
100
AcDbLine
 10
494.1457943960611
 20
163.6999999999703
 30
0.0
 11
494.1457943960751
 21
151.0999999999703
 31
0.0
  0
LINE
  5
6B52
330
18
100
AcDbEntity
  8
4
  6
CENTER
 48
0.1
100
AcDbLine
 10
504.6457943961808
 20
157.7499999999677
 30
0.0
 11
504.6457943961808
 21
167.2499999999677
 31
0.0
  0
LINE
  5
6B53
330
18
100
AcDbEntity
  8
4
  6
CENTER
 48
0.1
100
AcDbLine
 10
499.8957943961808
 20
162.4999999999677
 30
0.0
 11
509.3957943961807
 21
162.4999999999677
 31
0.0
  0
LINE
  5
6B54
330
18
100
AcDbEntity
  8
4
  6
CENTER
 48
0.2
100
AcDbLine
 10
527.8457943961528
 20
150.0000000000383
 30
0.0
 11
540.4457943961528
 21
150.0000000000383
 31
0.0
  0
LINE
  5
6B55
330
18
100
AcDbEntity
  8
4
  6
CENTER
 48
0.2
100
AcDbLine
 10
534.1457943961528
 20
143.7000000000383
 30
0.0
 11
534.1457943961528
 21
156.3000000000383
 31
0.0
  0
ARC
  5
6BB4
330
18
100
AcDbEntity
  8
1
  6
Continuous
100
AcDbCircle
 10
509.1457943959531
 20
-274.0000000000703
 30
0.0
 40
500.0
100
AcDbArc
 50
86.63773016659462
 51
93.36226983340559
  0
ARC
  5
6BB5
330
18
100
AcDbEntity
  8
1
  6
Continuous
100
AcDbCircle
 10
538.1184024860714
 20
219.1496608336936
 30
0.0
 40
6.0
100
AcDbArc
 50
8.147572367073777
 51
86.63773016659462
  0
ARC
  5
6BB6
330
18
100
AcDbEntity
  8
1
  6
Continuous
100
AcDbCircle
 10
480.1731863058329
 20
219.1496608336936
 30
0.0
 40
6.0
100
AcDbArc
 50
93.36226983340541
 51
175.531570525742
  0
ARC
  5
6BB7
330
18
100
AcDbEntity
  8
1
  6
Continuous
100
AcDbCircle
 10
981.1457943959544
 20
180.000000000149
 30
0.0
 40
508.4999999999998
100
AcDbArc
 50
175.531570525742
 51
175.7708081819165
  0
ARC
  5
6BB9
330
18
100
AcDbEntity
  8
1
  6
Continuous
100
AcDbCircle
 10
509.1457943959531
 20
633.9999999999299
 30
0.0
 40
500.0
100
AcDbArc
 50
266.6377301665983
 51
273.3622698334024
  0
ARC
  5
6BBA
330
18
100
AcDbEntity
  8
1
  6
Continuous
100
AcDbCircle
 10
538.1184024860458
 20
140.8503391661643
 30
0.0
 40
6.0
100
AcDbArc
 50
273.3622698334024
 51
351.8524276375103
  0
ARC
  5
6BBB
330
18
100
AcDbEntity
  8
1
  6
Continuous
100
AcDbCircle
 10
480.1731863058676
 20
140.8503391661639
 30
0.0
 40
6.0
100
AcDbArc
 50
184.4684294743069
 51
266.6377301665983
  0
ARC
  5
6BBC
330
18
100
AcDbEntity
  8
1
  6
Continuous
100
AcDbCircle
 10
981.1457943959544
 20
180.000000000149
 30
0.0
 40
508.4999999999998
100
AcDbArc
 50
184.2291918181068
 51
184.4684294743069
  0
LINE
  5
6BBE
330
18
100
AcDbEntity
  8
1
  6
Continuous
100
AcDbLine
 10
375.306516683725
 20
217.4999999999398
 30
0.0
 11
355.567401423262
 21
217.4999999999398
 31
0.0
  0
LINE
  5
6BBF
330
18
100
AcDbEntity
  8
1
  6
Continuous
100
AcDbLine
 10
375.306516683725
 20
142.4999999999356
 30
0.0
 11
355.567401423262
 21
142.4999999999356
 31
0.0
  0
LINE
  5
6BC0
330
18
100
AcDbEntity
  8
1
  6
Continuous
100
AcDbLine
 10
355.5674014232621
 20
142.4999999999356
 30
0.0
 11
355.5674014232621
 21
217.4999999999398
 31
0.0
  0
LINE
  5
6BC1
330
18
100
AcDbEntity
  8
1
  6
Continuous
100
AcDbLine
 10
356.458074139421
 20
142.4999999999356
 30
0.0
 11
356.4580741394212
 21
217.4999999999398
 31
0.0
  0
LINE
  5
6BC2
330
18
100
AcDbEntity
  8
1
  6
Continuous
100
AcDbLine
 10
358.4369590534826
 20
142.4999999999356
 30
0.0
 11
358.4369590534827
 21
217.4999999999398
 31
0.0
  0
LINE
  5
6BC3
330
18
100
AcDbEntity
  8
1
  6
Continuous
100
AcDbLine
 10
375.306516683725
 20
142.4999999999356
 30
0.0
 11
375.306516683725
 21
217.4999999999398
 31
0.0
  0
LINE
  5
6BC4
330
18
100
AcDbEntity
  8
1
  6
Continuous
100
AcDbLine
 10
379.5674014232972
 20
139.9999999998555
 30
0.0
 11
379.5674014232972
 21
148.4237000185039
 31
0.0
  0
LINE
  5
6BC5
330
18
100
AcDbEntity
  8
1
  6
Continuous
100
AcDbLine
 10
379.5674014232972
 20
189.9999999999335
 30
0.0
 11
375.3065166837251
 21
189.9999999999335
 31
0.0
  0
LINE
  5
6BC6
330
18
100
AcDbEntity
  8
1
  6
Continuous
100
AcDbLine
 10
379.5674014232972
 20
169.9999999999335
 30
0.0
 11
375.306516683725
 21
169.9999999999335
 31
0.0
  0
LINE
  5
6BC9
330
18
100
AcDbEntity
  8
1
  6
Continuous
100
AcDbLine
 10
379.5674014232972
 20
189.5999999999772
 30
0.0
 11
381.5674014233712
 21
189.5999999999772
 31
0.0
  0
LINE
  5
6BCA
330
18
100
AcDbEntity
  8
1
  6
Continuous
100
AcDbLine
 10
379.5674014232972
 20
170.3999999999771
 30
0.0
 11
381.5674014233426
 21
170.3999999999771
 31
0.0
  0
LINE
  5
6BCD
330
18
100
AcDbEntity
  8
1
  6
Continuous
100
AcDbLine
 10
379.3806160606671
 20
207.6000000000481
 30
0.0
 11
379.5674014232972
 21
207.6000000000481
 31
0.0
  0
LINE
  5
6BCF
330
18
100
AcDbEntity
  8
1
  6
Continuous
100
AcDbLine
 10
379.3806160605468
 20
152.3999999998545
 30
0.0
 11
379.56740142323
 21
152.3999999998545
 31
0.0
  0
LINE
  5
6BD0
330
18
100
AcDbEntity
  8
1
  6
Continuous
100
AcDbLine
 10
375.3065166836578
 20
162.3999999998545
 30
0.0
 11
379.56740142323
 21
162.3999999998544
 31
0.0
  0
LINE
  5
6BD8
330
18
100
AcDbEntity
  8
1
  6
Continuous
100
AcDbLine
 10
376.1065166837263
 20
208.9999999998314
 30
0.0
 11
377.1065166837264
 21
209.999999999829
 31
0.0
  0
LINE
  5
6BD9
330
18
100
AcDbEntity
  8
1
  6
Continuous
100
AcDbLine
 10
376.1065166837263
 20
209.999999999829
 30
0.0
 11
377.1065166837264
 21
210.9999999998265
 31
0.0
  0
LINE
  5
6BDA
330
18
100
AcDbEntity
  8
1
  6
Continuous
100
AcDbLine
 10
377.1065166837264
 20
213.7999999998301
 30
0.0
 11
376.1065166837263
 21
213.7999999998301
 31
0.0
  0
LINE
  5
6BDB
330
18
100
AcDbEntity
  8
1
  6
Continuous
100
AcDbLine
 10
376.1065166837263
 20
214.9999999998301
 30
0.0
 11
375.3065166837263
 21
214.9999999998301
 31
0.0
  0
LINE
  5
6BDC
330
18
100
AcDbEntity
  8
1
  6
Continuous
100
AcDbLine
 10
376.1065166837263
 20
204.9999999998294
 30
0.0
 11
376.1065166837263
 21
214.9999999998301
 31
0.0
  0
LINE
  5
6BDD
330
18
100
AcDbEntity
  8
1
  6
Continuous
100
AcDbLine
 10
375.3065166837263
 20
204.9999999998294
 30
0.0
 11
375.3065166837239
 21
214.9999999998552
 31
0.0
  0
ARC
  5
6BDE
330
18
100
AcDbEntity
  8
1
  6
Continuous
100
AcDbCircle
 10
378.112629407949
 20
212.1070107534164
 30
0.0
 40
1.3
100
AcDbArc
 50
15.88085000827979
 51
85.00000000000019
  0
LINE
  5
6BDF
330
18
100
AcDbEntity
  8
1
  6
Continuous
100
AcDbLine
 10
377.1065166837264
 20
213.4999999998301
 30
0.0
 11
378.2259318735608
 21
213.4020638609409
 31
0.0
  0
LINE
  5
6BE0
330
18
100
AcDbEntity
  8
1
  6
Continuous
100
AcDbLine
 10
377.1065166837264
 20
206.1999999998294
 30
0.0
 11
377.1065166837264
 21
213.7999999998301
 31
0.0
  0
ARC
  5
6BE1
330
18
100
AcDbEntity
  8
1
  6
Continuous
100
AcDbCircle
 10
370.7065166837264
 20
209.9999999998301
 30
0.0
 40
9.0
100
AcDbArc
 50
344.1191499917144
 51
15.88085000827979
  0
LINE
  5
6BE2
330
18
100
AcDbEntity
  8
4
  6
CENTER
 48
0.2
100
AcDbLine
 10
383.5674014234015
 20
209.9999999998599
 30
0.0
 11
373.306516683725
 21
209.9999999999544
 31
0.0
  0
LINE
  5
6BE3
330
18
100
AcDbEntity
  8
1
  6
Continuous
100
AcDbLine
 10
376.1065166837263
 20
204.9999999998294
 30
0.0
 11
375.3065166837263
 21
204.9999999998294
 31
0.0
  0
LINE
  5
6BE4
330
18
100
AcDbEntity
  8
1
  6
Continuous
100
AcDbLine
 10
377.1065166837264
 20
206.1999999998294
 30
0.0
 11
376.1065166837263
 21
206.1999999998294
 31
0.0
  0
LINE
  5
6BE5
330
18
100
AcDbEntity
  8
1
  6
Continuous
100
AcDbLine
 10
377.1065166837264
 20
206.4999999998294
 30
0.0
 11
378.2259318735608
 21
206.5979361387185
 31
0.0
  0
ARC
  5
6BE6
330
18
100
AcDbEntity
  8
1
  6
Continuous
100
AcDbCircle
 10
378.112629407949
 20
207.8929892462431
 30
0.0
 40
1.3
100
AcDbArc
 50
274.9999999999997
 51
344.1191499917201
  0
LINE
  5
6BE9
330
18
100
AcDbEntity
  8
1
  6
Continuous
100
AcDbLine
 10
377.1065166836744
 20
146.1999999998254
 30
0.0
 11
377.1065166836744
 21
153.7999999998261
 31
0.0
  0
ARC
  5
6BEA
330
18
100
AcDbEntity
  8
1
  6
Continuous
100
AcDbCircle
 10
370.7065166836742
 20
149.9999999998262
 30
0.0
 40
9.0
100
AcDbArc
 50
344.1191499917144
 51
15.88085000827979
  0
LINE
  5
6BEB
330
18
100
AcDbEntity
  8
1
  6
Continuous
100
AcDbLine
 10
376.1065166836743
 20
144.9999999998254
 30
0.0
 11
376.1065166836743
 21
154.9999999998261
 31
0.0
  0
LINE
  5
6BEC
330
18
100
AcDbEntity
  8
1
  6
Continuous
100
AcDbLine
 10
375.3065166836742
 20
144.9999999998254
 30
0.0
 11
375.3065166836718
 21
154.9999999998513
 31
0.0
  0
LINE
  5
6BED
330
18
100
AcDbEntity
  8
1
  6
Continuous
100
AcDbLine
 10
376.1065166836743
 20
149.999999999825
 30
0.0
 11
377.1065166836744
 21
150.9999999998225
 31
0.0
  0
LINE
  5
6BEE
330
18
100
AcDbEntity
  8
4
  6
CENTER
 48
0.2
100
AcDbLine
 10
383.5674014233124
 20
149.9999999999343
 30
0.0
 11
373.306516683673
 21
149.9999999998624
 31
0.0
  0
ARC
  5
6BEF
330
18
100
AcDbEntity
  8
1
  6
Continuous
100
AcDbCircle
 10
378.112629407897
 20
147.8929892462391
 30
0.0
 40
1.3
100
AcDbArc
 50
274.9999999999997
 51
344.1191499917201
  0
LINE
  5
6BF0
330
18
100
AcDbEntity
  8
1
  6
Continuous
100
AcDbLine
 10
377.1065166836744
 20
146.4999999998254
 30
0.0
 11
378.2259318735087
 21
146.5979361387146
 31
0.0
  0
LINE
  5
6BF1
330
18
100
AcDbEntity
  8
1
  6
Continuous
100
AcDbLine
 10
376.1065166836743
 20
144.9999999998254
 30
0.0
 11
375.3065166836743
 21
144.9999999998254
 31
0.0
  0
LINE
  5
6BF2
330
18
100
AcDbEntity
  8
1
  6
Continuous
100
AcDbLine
 10
377.1065166836744
 20
146.1999999998254
 30
0.0
 11
376.1065166836743
 21
146.1999999998254
 31
0.0
  0
LINE
  5
6BF3
330
18
100
AcDbEntity
  8
1
  6
Continuous
100
AcDbLine
 10
376.1065166836743
 20
148.9999999998275
 30
0.0
 11
377.1065166836744
 21
149.999999999825
 31
0.0
  0
LINE
  5
6BF4
330
18
100
AcDbEntity
  8
1
  6
Continuous
100
AcDbLine
 10
377.1065166836744
 20
153.4999999998261
 30
0.0
 11
378.2259318735087
 21
153.4020638609369
 31
0.0
  0
ARC
  5
6BF5
330
18
100
AcDbEntity
  8
1
  6
Continuous
100
AcDbCircle
 10
378.112629407897
 20
152.1070107534124
 30
0.0
 40
1.3
100
AcDbArc
 50
15.88085000827979
 51
85.00000000000019
  0
LINE
  5
6BF6
330
18
100
AcDbEntity
  8
1
  6
Continuous
100
AcDbLine
 10
376.1065166836743
 20
154.9999999998261
 30
0.0
 11
375.3065166836743
 21
154.9999999998261
 31
0.0
  0
LINE
  5
6BF7
330
18
100
AcDbEntity
  8
1
  6
Continuous
100
AcDbLine
 10
377.1065166836744
 20
153.7999999998261
 30
0.0
 11
376.1065166836743
 21
153.7999999998261
 31
0.0
  0
LINE
  5
6BF8
330
18
100
AcDbEntity
  8
1
  6
Continuous
100
AcDbLine
 10
379.5674014232972
 20
151.5762999811484
 30
0.0
 11
379.5674014232972
 21
208.4237000182152
 31
0.0
  0
LINE
  5
6BF9
330
18
100
AcDbEntity
  8
1
  6
Continuous
100
AcDbLine
 10
379.5674014232972
 20
211.576299981445
 30
0.0
 11
379.5674014232972
 21
219.9999999998393
 31
0.0
  0
LINE
  5
6C87
330
18
100
AcDbEntity
  8
1
  6
Continuous
 48
0.25
100
AcDbLine
 10
495.3337337884618
 20
203.1699280657858
 30
0.0
 11
496.0061923373701
 21
203.8664282452546
 31
0.0
  0
LINE
  5
6C88
330
18
100
AcDbEntity
  8
1
  6
Continuous
 48
0.25
100
AcDbLine
 10
494.1457943960683
 20
203.5800499988739
 30
0.0
 11
494.7157224617048
 21
203.7879393925428
 31
0.0
  0
LINE
  5
6C89
330
18
100
AcDbEntity
  8
1
  6
Continuous
 48
0.25
100
AcDbLine
 10
494.1457943960683
 20
203.5800499988739
 30
0.0
 11
493.5765734372132
 21
203.7872322857616
 31
0.0
  0
LINE
  5
6C8A
330
18
100
AcDbEntity
  8
1
  6
Continuous
 48
0.25
100
AcDbLine
 10
492.9585621104561
 20
203.1692209590045
 30
0.0
 11
492.2861035615476
 21
203.8657211384734
 31
0.0
  0
CIRCLE
  5
6C8B
330
18
100
AcDbEntity
  8
1
  6
Continuous
 48
0.25
100
AcDbCircle
 10
494.1457943960683
 20
202.6000000001495
 30
0.0
 40
4.0
  0
LINE
  5
6C8C
330
18
100
AcDbEntity
  8
1
  6
Continuous
 48
0.25
100
AcDbLine
 10
495.3330266816807
 20
202.0307790412942
 30
0.0
 11
496.0061923373703
 21
201.3335717550443
 31
0.0
  0
LINE
  5
6C8D
330
18
100
AcDbEntity
  8
1
  6
Continuous
 48
0.25
100
AcDbLine
 10
495.125844394793
 20
202.6000000001495
 30
0.0
 11
495.3330266816807
 21
202.0307790412942
 31
0.0
  0
LINE
  5
6C8E
330
18
100
AcDbEntity
  8
1
  6
Continuous
 48
0.25
100
AcDbLine
 10
495.125844394793
 20
202.6000000001495
 30
0.0
 11
495.3337337884618
 21
203.1699280657858
 31
0.0
  0
ARC
  5
6C8F
330
18
100
AcDbEntity
  8
1
  6
Continuous
 48
0.25
100
AcDbCircle
 10
494.1457943960683
 20
202.6000000001495
 30
0.0
 40
2.25
100
AcDbArc
 50
304.2420000000017
 51
325.7580000000006
  0
LINE
  5
6C90
330
18
100
AcDbEntity
  8
1
  6
Continuous
 48
0.25
100
AcDbLine
 10
494.1457943960683
 20
201.6199500014248
 30
0.0
 11
494.7150153549237
 21
201.4127677145372
 31
0.0
  0
LINE
  5
6C91
330
18
100
AcDbEntity
  8
1
  6
Continuous
 48
0.25
100
AcDbLine
 10
493.1657443973439
 20
202.6000000001495
 30
0.0
 11
492.9585621104561
 21
202.0307790412942
 31
0.0
  0
LINE
  5
6C92
330
18
100
AcDbEntity
  8
1
  6
Continuous
 48
0.25
100
AcDbLine
 10
493.1657443973439
 20
202.6000000001495
 30
0.0
 11
492.9585621104561
 21
203.1692209590045
 31
0.0
  0
LINE
  5
6C93
330
18
100
AcDbEntity
  8
1
  6
Continuous
 48
0.25
100
AcDbLine
 10
494.1457943960683
 20
201.6199500014248
 30
0.0
 11
493.5765734372132
 21
201.4127677145371
 31
0.0
  0
LINE
  5
6C94
330
18
100
AcDbEntity
  8
1
  6
Continuous
 48
0.25
100
AcDbLine
 10
493.5765734372132
 20
201.4127677145371
 30
0.0
 11
492.8800732577445
 21
200.7403091656288
 31
0.0
  0
LINE
  5
6C95
330
18
100
AcDbEntity
  8
1
  6
Continuous
 48
0.25
100
AcDbLine
 10
492.9585621104561
 20
202.0307790412942
 30
0.0
 11
492.2861035615478
 21
201.3342788618255
 31
0.0
  0
ARC
  5
6C96
330
18
100
AcDbEntity
  8
1
  6
Continuous
 48
0.25
100
AcDbCircle
 10
494.1457943960683
 20
202.6000000001495
 30
0.0
 40
2.25
100
AcDbArc
 50
214.2419999999994
 51
235.7579999999984
  0
LINE
  5
6C97
330
18
100
AcDbEntity
  8
1
  6
Continuous
 48
0.25
100
AcDbLine
 10
494.7150153549237
 20
201.4127677145372
 30
0.0
 11
495.4122226411734
 21
200.7396020588475
 31
0.0
  0
ARC
  5
6C98
330
18
100
AcDbEntity
  8
1
  6
Continuous
 48
0.25
100
AcDbCircle
 10
494.1457943960683
 20
202.6000000001495
 30
0.0
 40
2.25
100
AcDbArc
 50
34.24199999999943
 51
55.75829999999974
  0
LINE
  5
6C99
330
18
100
AcDbEntity
  8
1
  6
Continuous
 48
0.25
100
AcDbLine
 10
493.5765734372132
 20
203.7872322857616
 30
0.0
 11
492.8800732577445
 21
204.45969083467
 31
0.0
  0
ARC
  5
6C9A
330
18
100
AcDbEntity
  8
1
  6
Continuous
 48
0.25
100
AcDbCircle
 10
494.1457943960683
 20
202.6000000001495
 30
0.0
 40
2.25
100
AcDbArc
 50
124.2417000000002
 51
145.7580000000005
  0
LINE
  5
6C9B
330
18
100
AcDbEntity
  8
1
  6
Continuous
 48
0.25
100
AcDbLine
 10
494.7157224617048
 20
203.7879393925428
 30
0.0
 11
495.4122226411734
 21
204.4603979414512
 31
0.0
  0
LINE
  5
6C9C
330
18
100
AcDbEntity
  8
1
  6
Continuous
 48
0.25
100
AcDbLine
 10
535.3337337885459
 20
210.5699280657178
 30
0.0
 11
536.0061923374545
 21
211.2664282451865
 31
0.0
  0
LINE
  5
6C9D
330
18
100
AcDbEntity
  8
1
  6
Continuous
 48
0.25
100
AcDbLine
 10
534.1457943961528
 20
210.9800499988059
 30
0.0
 11
534.7157224617891
 21
211.1879393924748
 31
0.0
  0
LINE
  5
6C9E
330
18
100
AcDbEntity
  8
1
  6
Continuous
 48
0.25
100
AcDbLine
 10
534.1457943961528
 20
210.9800499988059
 30
0.0
 11
533.5765734372975
 21
211.1872322856936
 31
0.0
  0
LINE
  5
6C9F
330
18
100
AcDbEntity
  8
1
  6
Continuous
 48
0.25
100
AcDbLine
 10
532.9585621105406
 20
210.5692209589365
 30
0.0
 11
532.2861035616321
 21
211.2657211384054
 31
0.0
  0
CIRCLE
  5
6CA0
330
18
100
AcDbEntity
  8
1
  6
Continuous
 48
0.25
100
AcDbCircle
 10
534.1457943961528
 20
210.0000000000814
 30
0.0
 40
4.0
  0
LINE
  5
6CA1
330
18
100
AcDbEntity
  8
1
  6
Continuous
 48
0.25
100
AcDbLine
 10
535.3330266817648
 20
209.4307790412262
 30
0.0
 11
536.0061923374545
 21
208.7335717549763
 31
0.0
  0
LINE
  5
6CA2
330
18
100
AcDbEntity
  8
1
  6
Continuous
 48
0.25
100
AcDbLine
 10
535.125844394877
 20
210.0000000000814
 30
0.0
 11
535.3330266817648
 21
209.4307790412262
 31
0.0
  0
LINE
  5
6CA3
330
18
100
AcDbEntity
  8
1
  6
Continuous
 48
0.25
100
AcDbLine
 10
535.125844394877
 20
210.0000000000814
 30
0.0
 11
535.3337337885459
 21
210.5699280657178
 31
0.0
  0
ARC
  5
6CA4
330
18
100
AcDbEntity
  8
1
  6
Continuous
 48
0.25
100
AcDbCircle
 10
534.1457943961528
 20
210.0000000000814
 30
0.0
 40
2.25
100
AcDbArc
 50
304.2420000000017
 51
325.7580000000006
  0
LINE
  5
6CA5
330
18
100
AcDbEntity
  8
1
  6
Continuous
 48
0.25
100
AcDbLine
 10
534.1457943961525
 20
209.0199500013568
 30
0.0
 11
534.7150153550078
 21
208.8127677144692
 31
0.0
  0
LINE
  5
6CA6
330
18
100
AcDbEntity
  8
1
  6
Continuous
 48
0.25
100
AcDbLine
 10
533.1657443974282
 20
210.0000000000814
 30
0.0
 11
532.9585621105406
 21
209.4307790412262
 31
0.0
  0
LINE
  5
6CA7
330
18
100
AcDbEntity
  8
1
  6
Continuous
 48
0.25
100
AcDbLine
 10
533.1657443974282
 20
210.0000000000814
 30
0.0
 11
532.9585621105406
 21
210.5692209589365
 31
0.0
  0
LINE
  5
6CA8
330
18
100
AcDbEntity
  8
1
  6
Continuous
 48
0.25
100
AcDbLine
 10
534.1457943961525
 20
209.0199500013568
 30
0.0
 11
533.5765734372975
 21
208.8127677144691
 31
0.0
  0
LINE
  5
6CA9
330
18
100
AcDbEntity
  8
1
  6
Continuous
 48
0.25
100
AcDbLine
 10
533.5765734372975
 20
208.8127677144691
 30
0.0
 11
532.8800732578287
 21
208.1403091655608
 31
0.0
  0
LINE
  5
6CAA
330
18
100
AcDbEntity
  8
1
  6
Continuous
 48
0.25
100
AcDbLine
 10
532.9585621105406
 20
209.4307790412262
 30
0.0
 11
532.2861035616321
 21
208.7342788617575
 31
0.0
  0
ARC
  5
6CAB
330
18
100
AcDbEntity
  8
1
  6
Continuous
 48
0.25
100
AcDbCircle
 10
534.1457943961528
 20
210.0000000000814
 30
0.0
 40
2.25
100
AcDbArc
 50
214.2419999999994
 51
235.7579999999984
  0
LINE
  5
6CAC
330
18
100
AcDbEntity
  8
1
  6
Continuous
 48
0.25
100
AcDbLine
 10
534.7150153550078
 20
208.8127677144692
 30
0.0
 11
535.4122226412577
 21
208.1396020587795
 31
0.0
  0
ARC
  5
6CAD
330
18
100
AcDbEntity
  8
1
  6
Continuous
 48
0.25
100
AcDbCircle
 10
534.1457943961528
 20
210.0000000000814
 30
0.0
 40
2.25
100
AcDbArc
 50
34.24199999999943
 51
55.75829999999974
  0
LINE
  5
6CAE
330
18
100
AcDbEntity
  8
1
  6
Continuous
 48
0.25
100
AcDbLine
 10
533.5765734372975
 20
211.1872322856936
 30
0.0
 11
532.8800732578287
 21
211.859690834602
 31
0.0
  0
ARC
  5
6CAF
330
18
100
AcDbEntity
  8
1
  6
Continuous
 48
0.25
100
AcDbCircle
 10
534.1457943961528
 20
210.0000000000814
 30
0.0
 40
2.25
100
AcDbArc
 50
124.2417000000002
 51
145.7580000000005
  0
LINE
  5
6CB0
330
18
100
AcDbEntity
  8
1
  6
Continuous
 48
0.25
100
AcDbLine
 10
534.7157224617891
 20
211.1879393924748
 30
0.0
 11
535.4122226412577
 21
211.8603979413832
 31
0.0
  0
LINE
  5
6CB1
330
18
100
AcDbEntity
  8
1
  6
Continuous
 48
0.25
100
AcDbLine
 10
495.3337337884617
 20
157.9699280656065
 30
0.0
 11
496.0061923373698
 21
158.6664282450753
 31
0.0
  0
LINE
  5
6CB2
330
18
100
AcDbEntity
  8
1
  6
Continuous
 48
0.25
100
AcDbLine
 10
494.1457943960681
 20
158.3800499986946
 30
0.0
 11
494.7157224617044
 21
158.5879393923635
 31
0.0
  0
LINE
  5
6CB3
330
18
100
AcDbEntity
  8
1
  6
Continuous
 48
0.25
100
AcDbLine
 10
494.1457943960681
 20
158.3800499986946
 30
0.0
 11
493.5765734372131
 21
158.5872322855823
 31
0.0
  0
LINE
  5
6CB4
330
18
100
AcDbEntity
  8
1
  6
Continuous
 48
0.25
100
AcDbLine
 10
492.958562110456
 20
157.9692209588252
 30
0.0
 11
492.2861035615475
 21
158.6657211382941
 31
0.0
  0
CIRCLE
  5
6CB5
330
18
100
AcDbEntity
  8
1
  6
Continuous
 48
0.25
100
AcDbCircle
 10
494.1457943960681
 20
157.3999999999701
 30
0.0
 40
4.0
  0
LINE
  5
6CB6
330
18
100
AcDbEntity
  8
1
  6
Continuous
 48
0.25
100
AcDbLine
 10
495.3330266816805
 20
156.8307790411149
 30
0.0
 11
496.0061923373698
 21
156.133571754865
 31
0.0
  0
LINE
  5
6CB7
330
18
100
AcDbEntity
  8
1
  6
Continuous
 48
0.25
100
AcDbLine
 10
495.1258443947928
 20
157.3999999999701
 30
0.0
 11
495.3330266816805
 21
156.8307790411149
 31
0.0
  0
LINE
  5
6CB8
330
18
100
AcDbEntity
  8
1
  6
Continuous
 48
0.25
100
AcDbLine
 10
495.1258443947928
 20
157.3999999999701
 30
0.0
 11
495.3337337884617
 21
157.9699280656065
 31
0.0
  0
ARC
  5
6CB9
330
18
100
AcDbEntity
  8
1
  6
Continuous
 48
0.25
100
AcDbCircle
 10
494.1457943960681
 20
157.3999999999701
 30
0.0
 40
2.25
100
AcDbArc
 50
304.2420000000017
 51
325.7580000000006
  0
LINE
  5
6CBA
330
18
100
AcDbEntity
  8
1
  6
Continuous
 48
0.25
100
AcDbLine
 10
494.1457943960681
 20
156.4199500012455
 30
0.0
 11
494.7150153549233
 21
156.2127677143579
 31
0.0
  0
LINE
  5
6CBB
330
18
100
AcDbEntity
  8
1
  6
Continuous
 48
0.25
100
AcDbLine
 10
493.1657443973437
 20
157.3999999999701
 30
0.0
 11
492.958562110456
 21
156.8307790411149
 31
0.0
  0
LINE
  5
6CBC
330
18
100
AcDbEntity
  8
1
  6
Continuous
 48
0.25
100
AcDbLine
 10
493.1657443973437
 20
157.3999999999701
 30
0.0
 11
492.958562110456
 21
157.9692209588252
 31
0.0
  0
LINE
  5
6CBD
330
18
100
AcDbEntity
  8
1
  6
Continuous
 48
0.25
100
AcDbLine
 10
494.1457943960681
 20
156.4199500012455
 30
0.0
 11
493.5765734372131
 21
156.2127677143578
 31
0.0
  0
LINE
  5
6CBE
330
18
100
AcDbEntity
  8
1
  6
Continuous
 48
0.25
100
AcDbLine
 10
493.5765734372131
 20
156.2127677143578
 30
0.0
 11
492.8800732577443
 21
155.5403091654495
 31
0.0
  0
LINE
  5
6CBF
330
18
100
AcDbEntity
  8
1
  6
Continuous
 48
0.25
100
AcDbLine
 10
492.958562110456
 20
156.8307790411149
 30
0.0
 11
492.2861035615476
 21
156.1342788616462
 31
0.0
  0
ARC
  5
6CC0
330
18
100
AcDbEntity
  8
1
  6
Continuous
 48
0.25
100
AcDbCircle
 10
494.1457943960681
 20
157.3999999999701
 30
0.0
 40
2.25
100
AcDbArc
 50
214.2419999999994
 51
235.7579999999984
  0
LINE
  5
6CC1
330
18
100
AcDbEntity
  8
1
  6
Continuous
 48
0.25
100
AcDbLine
 10
494.7150153549233
 20
156.2127677143579
 30
0.0
 11
495.4122226411733
 21
155.5396020586683
 31
0.0
  0
ARC
  5
6CC2
330
18
100
AcDbEntity
  8
1
  6
Continuous
 48
0.25
100
AcDbCircle
 10
494.1457943960681
 20
157.3999999999701
 30
0.0
 40
2.25
100
AcDbArc
 50
34.24199999999943
 51
55.75829999999974
  0
LINE
  5
6CC3
330
18
100
AcDbEntity
  8
1
  6
Continuous
 48
0.25
100
AcDbLine
 10
493.5765734372131
 20
158.5872322855823
 30
0.0
 11
492.8800732577443
 21
159.2596908344907
 31
0.0
  0
ARC
  5
6CC4
330
18
100
AcDbEntity
  8
1
  6
Continuous
 48
0.25
100
AcDbCircle
 10
494.1457943960681
 20
157.3999999999701
 30
0.0
 40
2.25
100
AcDbArc
 50
124.2417000000002
 51
145.7580000000005
  0
LINE
  5
6CC5
330
18
100
AcDbEntity
  8
1
  6
Continuous
 48
0.25
100
AcDbLine
 10
494.7157224617044
 20
158.5879393923635
 30
0.0
 11
495.4122226411733
 21
159.2603979412719
 31
0.0
  0
LINE
  5
6CC6
330
18
100
AcDbEntity
  8
1
  6
Continuous
 48
0.25
100
AcDbLine
 10
535.3337337885459
 20
150.5699280656747
 30
0.0
 11
536.0061923374545
 21
151.2664282451435
 31
0.0
  0
LINE
  5
6CC7
330
18
100
AcDbEntity
  8
1
  6
Continuous
 48
0.25
100
AcDbLine
 10
534.1457943961528
 20
150.9800499987628
 30
0.0
 11
534.7157224617891
 21
151.1879393924316
 31
0.0
  0
LINE
  5
6CC8
330
18
100
AcDbEntity
  8
1
  6
Continuous
 48
0.25
100
AcDbLine
 10
534.1457943961528
 20
150.9800499987628
 30
0.0
 11
533.5765734372975
 21
151.1872322856505
 31
0.0
  0
LINE
  5
6CC9
330
18
100
AcDbEntity
  8
1
  6
Continuous
 48
0.25
100
AcDbLine
 10
532.9585621105406
 20
150.5692209588934
 30
0.0
 11
532.2861035616321
 21
151.2657211383623
 31
0.0
  0
CIRCLE
  5
6CCA
330
18
100
AcDbEntity
  8
1
  6
Continuous
 48
0.25
100
AcDbCircle
 10
534.1457943961528
 20
150.0000000000383
 30
0.0
 40
4.0
  0
LINE
  5
6CCB
330
18
100
AcDbEntity
  8
1
  6
Continuous
 48
0.25
100
AcDbLine
 10
535.3330266817648
 20
149.4307790411832
 30
0.0
 11
536.0061923374545
 21
148.7335717549332
 31
0.0
  0
LINE
  5
6CCC
330
18
100
AcDbEntity
  8
1
  6
Continuous
 48
0.25
100
AcDbLine
 10
535.125844394877
 20
150.0000000000383
 30
0.0
 11
535.3330266817648
 21
149.4307790411832
 31
0.0
  0
LINE
  5
6CCD
330
18
100
AcDbEntity
  8
1
  6
Continuous
 48
0.25
100
AcDbLine
 10
535.125844394877
 20
150.0000000000383
 30
0.0
 11
535.3337337885459
 21
150.5699280656747
 31
0.0
  0
ARC
  5
6CCE
330
18
100
AcDbEntity
  8
1
  6
Continuous
 48
0.25
100
AcDbCircle
 10
534.1457943961528
 20
150.0000000000383
 30
0.0
 40
2.25
100
AcDbArc
 50
304.2420000000017
 51
325.7580000000006
  0
LINE
  5
6CCF
330
18
100
AcDbEntity
  8
1
  6
Continuous
 48
0.25
100
AcDbLine
 10
534.1457943961525
 20
149.0199500013136
 30
0.0
 11
534.7150153550078
 21
148.8127677144261
 31
0.0
  0
LINE
  5
6CD0
330
18
100
AcDbEntity
  8
1
  6
Continuous
 48
0.25
100
AcDbLine
 10
533.1657443974282
 20
150.0000000000383
 30
0.0
 11
532.9585621105406
 21
149.4307790411832
 31
0.0
  0
LINE
  5
6CD1
330
18
100
AcDbEntity
  8
1
  6
Continuous
 48
0.25
100
AcDbLine
 10
533.1657443974282
 20
150.0000000000383
 30
0.0
 11
532.9585621105406
 21
150.5692209588934
 31
0.0
  0
LINE
  5
6CD2
330
18
100
AcDbEntity
  8
1
  6
Continuous
 48
0.25
100
AcDbLine
 10
534.1457943961525
 20
149.0199500013136
 30
0.0
 11
533.5765734372975
 21
148.8127677144261
 31
0.0
  0
LINE
  5
6CD3
330
18
100
AcDbEntity
  8
1
  6
Continuous
 48
0.25
100
AcDbLine
 10
533.5765734372975
 20
148.8127677144261
 30
0.0
 11
532.8800732578287
 21
148.1403091655177
 31
0.0
  0
LINE
  5
6CD4
330
18
100
AcDbEntity
  8
1
  6
Continuous
 48
0.25
100
AcDbLine
 10
532.9585621105406
 20
149.4307790411832
 30
0.0
 11
532.2861035616321
 21
148.7342788617144
 31
0.0
  0
ARC
  5
6CD5
330
18
100
AcDbEntity
  8
1
  6
Continuous
 48
0.25
100
AcDbCircle
 10
534.1457943961528
 20
150.0000000000383
 30
0.0
 40
2.25
100
AcDbArc
 50
214.2419999999994
 51
235.7579999999984
  0
LINE
  5
6CD6
330
18
100
AcDbEntity
  8
1
  6
Continuous
 48
0.25
100
AcDbLine
 10
534.7150153550078
 20
148.8127677144261
 30
0.0
 11
535.4122226412577
 21
148.1396020587365
 31
0.0
  0
ARC
  5
6CD7
330
18
100
AcDbEntity
  8
1
  6
Continuous
 48
0.25
100
AcDbCircle
 10
534.1457943961528
 20
150.0000000000383
 30
0.0
 40
2.25
100
AcDbArc
 50
34.24199999999943
 51
55.75829999999974
  0
LINE
  5
6CD8
330
18
100
AcDbEntity
  8
1
  6
Continuous
 48
0.25
100
AcDbLine
 10
533.5765734372975
 20
151.1872322856505
 30
0.0
 11
532.8800732578287
 21
151.8596908345589
 31
0.0
  0
ARC
  5
6CD9
330
18
100
AcDbEntity
  8
1
  6
Continuous
 48
0.25
100
AcDbCircle
 10
534.1457943961528
 20
150.0000000000383
 30
0.0
 40
2.25
100
AcDbArc
 50
124.2417000000002
 51
145.7580000000005
  0
LINE
  5
6CDA
330
18
100
AcDbEntity
  8
1
  6
Continuous
 48
0.25
100
AcDbLine
 10
534.7157224617891
 20
151.1879393924316
 30
0.0
 11
535.4122226412577
 21
151.8603979413401
 31
0.0
  0
LINE
  5
6DB7
330
18
100
AcDbEntity
  8
4
  6
CENTER
 48
0.1
100
AcDbLine
 10
200.2500002712847
 20
51.24999999999253
 30
0.0
 11
200.2500002712847
 21
57.24999999999254
 31
0.0
  0
LINE
  5
6DB8
330
18
100
AcDbEntity
  8
4
  6
CENTER
 48
0.1
100
AcDbLine
 10
210.2500002712148
 20
51.24999999999197
 30
0.0
 11
210.2500002712148
 21
57.24999999999198
 31
0.0
  0
LINE
  5
6DB9
330
18
100
AcDbEntity
  8
4
  6
CENTER
 48
0.1
100
AcDbLine
 10
229.7500002712566
 20
51.24999999999086
 30
0.0
 11
229.7500002712566
 21
57.24999999999084
 31
0.0
  0
LINE
  5
6DC1
330
18
100
AcDbEntity
  8
1
  6
Continuous
100
AcDbLine
 10
466.5109920919225
 20
215.5000000001562
 30
0.0
 11
466.5109920919225
 21
144.5000000001521
 31
0.0
  0
LINE
  5
6E24
330
18
100
AcDbEntity
  8
4
  6
CENTER
 48
0.1
100
AcDbLine
 10
240.2500002712566
 20
51.24999999999086
 30
0.0
 11
240.2500002712566
 21
57.24999999999084
 31
0.0
  0
LINE
  5
73D9
330
18
100
AcDbEntity
  8
4
  6
CENTER
 48
0.1
100
AcDbLine
 10
559.645794396145
 20
209.9999999999544
 30
0.0
 11
565.6457943961449
 21
209.9999999999544
 31
0.0
  0
LINE
  5
73DA
330
18
100
AcDbEntity
  8
4
  6
CENTER
 48
0.1
100
AcDbLine
 10
559.6457943960558
 20
149.9999999999544
 30
0.0
 11
565.6457943960559
 21
149.9999999999544
 31
0.0
  0
LINE
  5
75AB
330
18
100
AcDbEntity
  8
1
  6
Continuous
100
AcDbLine
 10
245.2500002714413
 20
53.24999999998971
 30
0.0
 11
245.2500002714414
 21
55.24999999999
 31
0.0
  0
LINE
  5
78C3
330
18
100
AcDbEntity
  8
1
  6
Continuous
100
AcDbLine
 10
377.0674014232223
 20
194.5000000007009
 30
0.0
 11
379.5674014231635
 21
194.5000000007087
 31
0.0
  0
LINE
  5
78C6
330
18
100
AcDbEntity
  8
1
  6
Continuous
100
AcDbLine
 10
377.067401423241
 20
197.60000000015
 30
0.0
 11
377.0674014232569
 21
192.500000000701
 31
0.0
  0
LINE
  5
78C7
330
18
100
AcDbEntity
  8
1
  6
Continuous
100
AcDbLine
 10
377.0674014232569
 20
192.500000000701
 30
0.0
 11
375.3065166837175
 21
192.500000000701
 31
0.0
  0
LINE
  5
78C8
330
18
100
AcDbEntity
  8
1
  6
Continuous
100
AcDbLine
 10
375.3065166836578
 20
197.60000000015
 30
0.0
 11
379.56740142323
 21
197.60000000015
 31
0.0
  0
LINE
  5
78C9
330
18
100
AcDbEntity
  8
1
  6
Continuous
100
AcDbLine
 10
377.0674014232223
 20
165.4999999993036
 30
0.0
 11
379.5674014231635
 21
165.4999999992956
 31
0.0
  0
LINE
  5
78CA
330
18
100
AcDbEntity
  8
1
  6
Continuous
100
AcDbLine
 10
377.067401423241
 20
162.3999999998544
 30
0.0
 11
377.0674014232569
 21
167.4999999993035
 31
0.0
  0
LINE
  5
78CB
330
18
100
AcDbEntity
  8
1
  6
Continuous
100
AcDbLine
 10
377.0674014232569
 20
167.4999999993035
 30
0.0
 11
375.3065166837175
 21
167.4999999993034
 31
0.0
  0
LINE
  5
78CE
330
18
100
AcDbEntity
  8
4
  6
CENTER
 48
0.1
100
AcDbLine
 10
377.5674014232972
 20
202.6000000001567
 30
0.0
 11
383.5674014233905
 21
202.6000000001567
 31
0.0
  0
LINE
  5
78CF
330
18
100
AcDbEntity
  8
4
  6
CENTER
 48
0.1
100
AcDbLine
 10
377.5674014232897
 20
197.500000000152
 30
0.0
 11
383.5674014233831
 21
197.500000000152
 31
0.0
  0
LINE
  5
78D0
330
18
100
AcDbEntity
  8
4
  6
CENTER
 48
0.1
100
AcDbLine
 10
377.5674014232375
 20
162.4999999999677
 30
0.0
 11
383.5674014233309
 21
162.4999999999677
 31
0.0
  0
LINE
  5
78D1
330
18
100
AcDbEntity
  8
4
  6
CENTER
 48
0.1
100
AcDbLine
 10
377.56740142323
 20
157.399999999963
 30
0.0
 11
383.5674014233233
 21
157.399999999963
 31
0.0
  0
LINE
  5
7B59
330
18
100
AcDbEntity
  8
4
  6
CENTER
 48
0.1
100
AcDbLine
 10
207.2500002713992
 20
276.7500000000473
 30
0.0
 11
207.2500002713992
 21
285.7500000000473
 31
0.0
  0
LINE
  5
7B5A
330
18
100
AcDbEntity
  8
1
  6
Continuous
100
AcDbLine
 10
261.7500002715797
 20
275.6720113966953
 30
0.0
 11
261.7500002715812
 21
277.7500000000578
 31
0.0
  0
LINE
  5
7B5B
330
18
100
AcDbEntity
  8
1
  6
Continuous
100
AcDbLine
 10
188.7500002715717
 20
275.6720113967499
 30
0.0
 11
188.7500002715666
 21
277.750000000116
 31
0.0
  0
LINE
  5
7B5F
330
18
100
AcDbEntity
  8
1
  6
Continuous
100
AcDbLine
 10
250.2500002714413
 20
304.7500000000999
 30
0.0
 11
173.7500002712776
 21
304.7500000000956
 31
0.0
  0
ARC
  5
7B60
330
18
100
AcDbEntity
  8
1
  6
Continuous
100
AcDbCircle
 10
238.2500002715811
 20
277.5500000000897
 30
0.0
 40
17.0
100
AcDbArc
 50
4.047774196734068
 51
90.00000000000005
  0
LINE
  5
7B61
330
18
100
AcDbEntity
  8
1
  6
Continuous
100
AcDbLine
 10
261.750000271582
 20
278.7500000000611
 30
0.0
 11
188.750000271582
 21
278.7500000001184
 31
0.0
  0
LINE
  5
7B62
330
18
100
AcDbEntity
  8
1
  6
Continuous
100
AcDbLine
 10
261.7500002715812
 20
277.750000000061
 30
0.0
 11
188.7500002715812
 21
277.7500000001185
 31
0.0
  0
LINE
  5
7B63
330
18
100
AcDbEntity
  8
1
  6
Continuous
100
AcDbLine
 10
250.2500002714413
 20
306.7500000000999
 30
0.0
 11
173.7500002712774
 21
306.7500000000956
 31
0.0
  0
LINE
  5
7B67
330
18
100
AcDbEntity
  8
1
  6
Continuous
100
AcDbLine
 10
175.7500002712776
 20
294.7500000001703
 30
0.0
 11
195.2500002716317
 21
294.7500000001677
 31
0.0
  0
LINE
  5
7B68
330
18
100
AcDbEntity
  8
5
  6
PHANTOM
 48
0.1
100
AcDbLine
 10
180.3357867089869
 20
304.7500000001346
 30
0.0
 11
181.7500002712775
 21
304.7500000001346
 31
0.0
  0
LINE
  5
7B6A
330
18
100
AcDbEntity
  8
1
  6
Continuous
100
AcDbLine
 10
175.7500002712776
 20
293.1500000001293
 30
0.0
 11
175.7500002712776
 21
300.3500000001293
 31
0.0
  0
LINE
  5
7B6B
330
18
100
AcDbEntity
  8
1
  6
Continuous
100
AcDbLine
 10
171.7500002712776
 20
287.7500000000955
 30
0.0
 11
171.7500002712776
 21
304.7500000000956
 31
0.0
  0
LINE
  5
7B6C
330
18
100
AcDbEntity
  8
1
  6
Continuous
100
AcDbLine
 10
173.7500002712776
 20
287.7500000000956
 30
0.0
 11
173.7500002712776
 21
304.7500000000956
 31
0.0
  0
ARC
  5
7B6D
330
18
100
AcDbEntity
  8
1
  6
Continuous
100
AcDbCircle
 10
183.3269889007077
 20
283.3736077938478
 30
0.0
 40
25.01223735322362
100
AcDbArc
 50
121.2803063472999
 51
148.9751911935782
  0
ARC
  5
7B6E
330
18
100
AcDbEntity
  8
5
  6
PHANTOM
 48
0.1
100
AcDbCircle
 10
193.3204814219132
 20
283.3865334459421
 30
0.0
 40
25.0
100
AcDbArc
 50
121.2911945167402
 51
148.992889971198
  0
ARC
  5
7B6F
330
18
100
AcDbEntity
  8
1
  6
Continuous
100
AcDbCircle
 10
173.7500002712776
 20
304.7500000000956
 30
0.0
 40
2.0
100
AcDbArc
 50
90.00000000000005
 51
180.0
  0
LINE
  5
7B70
330
18
100
AcDbEntity
  8
1
  6
Continuous
100
AcDbLine
 10
170.3400002714288
 20
304.7500000001341
 30
0.0
 11
171.7500002712776
 21
304.7500000001341
 31
0.0
  0
LINE
  5
7B71
330
18
100
AcDbEntity
  8
1
  6
Continuous
100
AcDbLine
 10
174.7500002712776
 20
300.3500000001293
 30
0.0
 11
175.7500002712776
 21
300.3500000001293
 31
0.0
  0
ARC
  5
7B72
330
18
100
AcDbEntity
  8
1
  6
Continuous
100
AcDbCircle
 10
174.7500002712776
 20
301.3500000001294
 30
0.0
 40
1.0
100
AcDbArc
 50
180.0
 51
270.0
  0
LINE
  5
7B73
330
18
100
AcDbEntity
  8
1
  6
Continuous
100
AcDbLine
 10
162.7500002714792
 20
294.7500000001721
 30
0.0
 11
171.7500002712776
 21
294.750000000171
 31
0.0
  0
ARC
  5
7B74
330
18
100
AcDbEntity
  8
1
  6
Continuous
100
AcDbCircle
 10
162.750000271429
 20
295.7500000001721
 30
0.0
 40
1.0
100
AcDbArc
 50
148.992889971201
 51
270.0
  0
LINE
  5
7B75
330
18
100
AcDbEntity
  8
4
  6
CENTER
 48
0.1
100
AcDbLine
 10
177.7500002712775
 20
296.74999999986
 30
0.0
 11
169.7500002712776
 21
296.7499999998636
 31
0.0
  0
ARC
  5
7B76
330
18
100
AcDbEntity
  8
5
  6
PHANTOM
 48
0.1
100
AcDbCircle
 10
172.7500002714289
 20
295.7500000001727
 30
0.0
 40
1.0
100
AcDbArc
 50
148.992889971198
 51
270.0
  0
LINE
  5
7B77
330
18
100
AcDbEntity
  8
1
  6
Continuous
100
AcDbLine
 10
178.9052852472316
 20
294.1066106825412
 30
0.0
 11
175.7500002712776
 21
294.3826623481307
 31
0.0
  0
LINE
  5
7B78
330
18
100
AcDbEntity
  8
1
  6
Continuous
100
AcDbLine
 10
174.7500002712776
 20
293.1500000001293
 30
0.0
 11
175.7500002712776
 21
293.1500000001293
 31
0.0
  0
LINE
  5
7B79
330
18
100
AcDbEntity
  8
1
  6
Continuous
100
AcDbLine
 10
178.7309737617362
 20
292.1142212863577
 30
0.0
 11
178.9052852472316
 21
294.1066106825412
 31
0.0
  0
LINE
  5
7B7A
330
18
100
AcDbEntity
  8
1
  6
Continuous
100
AcDbLine
 10
178.7309737617364
 20
292.1142212863577
 30
0.0
 11
173.8304455393106
 21
292.5429619511083
 31
0.0
  0
ARC
  5
7B7B
330
18
100
AcDbEntity
  8
1
  6
Continuous
100
AcDbCircle
 10
174.7500002712776
 20
292.1500000001294
 30
0.0
 40
1.0
100
AcDbArc
 50
90.00000000000005
 51
180.0
  0
LINE
  5
7B7C
330
18
100
AcDbEntity
  8
1
  6
Continuous
100
AcDbLine
 10
173.7500002712776
 20
287.7500000000956
 30
0.0
 11
171.7500002713974
 21
287.7500000000955
 31
0.0
  0
LINE
  5
7B7E
330
18
100
AcDbEntity
  8
4
  6
CENTER
 48
0.1
100
AcDbLine
 10
211.7500002713992
 20
281.2500000000473
 30
0.0
 11
202.7500002713992
 21
281.2500000000473
 31
0.0
  0
LINE
  5
7B7F
330
18
100
AcDbEntity
  8
1
  6
Continuous
100
AcDbLine
 10
238.250000271581
 20
294.5500000000897
 30
0.0
 11
195.250000271632
 21
294.550000000105
 31
0.0
  0
LINE
  5
7B80
330
18
100
AcDbEntity
  8
1
  6
Continuous
100
AcDbLine
 10
237.2500002715885
 20
295.55000000009
 30
0.0
 11
195.250000271632
 21
295.550000000105
 31
0.0
  0
LINE
  5
7B81
330
18
100
AcDbEntity
  8
1
  6
Continuous
100
AcDbLine
 10
205.2500002716294
 20
304.7500000001251
 30
0.0
 11
205.2500002716416
 21
295.5500000001014
 31
0.0
  0
LINE
  5
7B82
330
18
100
AcDbEntity
  8
1
  6
Continuous
100
AcDbLine
 10
195.2500002716186
 20
304.7500000001134
 30
0.0
 11
195.2500002716527
 21
278.7500000001134
 31
0.0
  0
LINE
  5
7B84
330
18
100
AcDbEntity
  8
4
  6
CENTER
 48
0.1
100
AcDbLine
 10
185.7500002712144
 20
310.2500000001132
 30
0.0
 11
185.7500002712144
 21
301.7500000000963
 31
0.0
  0
ARC
  5
7B85
330
18
100
AcDbEntity
  8
1
  6
Continuous
100
AcDbCircle
 10
185.7500002713998
 20
304.7500000001132
 30
0.0
 40
2.499999999999915
100
AcDbArc
 50
53.13010235415746
 51
126.869897645848
  0
LINE
  5
7B87
330
18
100
AcDbEntity
  8
4
  6
CENTER
 48
0.1
100
AcDbLine
 10
200.2500002712847
 20
308.7500000000972
 30
0.0
 11
200.2500002712847
 21
302.7500000000971
 31
0.0
  0
LINE
  5
7B88
330
18
100
AcDbEntity
  8
4
  6
CENTER
 48
0.1
100
AcDbLine
 10
210.2500002712148
 20
308.7500000000977
 30
0.0
 11
210.2500002712148
 21
302.7500000000977
 31
0.0
  0
LINE
  5
7B89
330
18
100
AcDbEntity
  8
1
  6
Continuous
100
AcDbLine
 10
188.7500002715666
 20
277.750000000116
 30
0.0
 11
188.7500002715666
 21
278.7500000001184
 31
0.0
  0
CIRCLE
  5
7B8A
330
18
100
AcDbEntity
  8
1
  6
Continuous
100
AcDbCircle
 10
207.2500002713992
 20
281.2500000000473
 30
0.0
 40
2.5
  0
LINE
  5
7B8B
330
18
100
AcDbEntity
  8
1
  6
Continuous
100
AcDbLine
 10
216.7500002715529
 20
296.7500000000873
 30
0.0
 11
216.7500002715529
 21
304.7500000000505
 31
0.0
  0
LINE
  5
7B8C
330
18
100
AcDbEntity
  8
1
  6
Continuous
100
AcDbLine
 10
235.8038599450947
 20
301.450000000033
 30
0.0
 11
235.8038599450947
 21
295.5500000000954
 31
0.0
  0
LINE
  5
7B8D
330
18
100
AcDbEntity
  8
1
  6
Continuous
100
AcDbLine
 10
224.7500002717846
 20
295.5500000000947
 30
0.0
 11
224.7500002718056
 21
302.2500000000349
 31
0.0
  0
LINE
  5
7B8E
330
18
100
AcDbEntity
  8
1
  6
Continuous
100
AcDbLine
 10
230.7009088964537
 20
301.4500000000412
 30
0.0
 11
230.700908896454
 21
295.5500000000954
 31
0.0
  0
LINE
  5
7B8F
330
18
100
AcDbEntity
  8
1
  6
Continuous
100
AcDbLine
 10
224.7500002718056
 20
302.2500000000505
 30
0.0
 11
234.7500002718056
 21
302.2500000000349
 31
0.0
  0
LINE
  5
7B90
330
18
100
AcDbEntity
  8
1
  6
Continuous
100
AcDbLine
 10
216.7500002715504
 20
302.2500000001487
 30
0.0
 11
224.7500002718056
 21
302.2500000001564
 31
0.0
  0
LINE
  5
7B91
330
18
100
AcDbEntity
  8
1
  6
Continuous
100
AcDbLine
 10
226.7500002718055
 20
302.2500000000316
 30
0.0
 11
226.7500002718134
 21
304.7499999999727
 31
0.0
  0
LINE
  5
7B93
330
18
100
AcDbEntity
  8
1
  6
Continuous
100
AcDbLine
 10
230.7009088964537
 20
301.4500000000412
 30
0.0
 11
235.8038599450947
 21
301.450000000033
 31
0.0
  0
LINE
  5
7B94
330
18
100
AcDbEntity
  8
4
  6
CENTER
 48
0.1
100
AcDbLine
 10
229.7500002712566
 20
308.7500000000988
 30
0.0
 11
229.7500002712566
 21
302.7500000000988
 31
0.0
  0
LINE
  5
7B95
330
18
100
AcDbEntity
  8
1
  6
Continuous
100
AcDbLine
 10
232.7500002718055
 20
302.2500000000127
 30
0.0
 11
232.7500002718134
 21
304.749999999954
 31
0.0
  0
LINE
  5
7B96
330
18
100
AcDbEntity
  8
4
  6
CENTER
 48
0.1
100
AcDbLine
 10
240.2500002712566
 20
308.7500000000988
 30
0.0
 11
240.2500002712566
 21
302.7500000000988
 31
0.0
  0
LINE
  5
7B97
330
18
100
AcDbEntity
  8
1
  6
Continuous
100
AcDbLine
 10
234.750000271803
 20
301.4500000000347
 30
0.0
 11
234.7500002718055
 21
302.2500000000189
 31
0.0
  0
LINE
  5
7B98
330
18
100
AcDbEntity
  8
1
  6
Continuous
100
AcDbLine
 10
235.25000027165
 20
304.7500000000821
 30
0.0
 11
235.2500002716514
 21
301.4500000000339
 31
0.0
  0
LINE
  5
7B99
330
18
100
AcDbEntity
  8
1
  6
Continuous
100
AcDbLine
 10
216.7500002715527
 20
296.7500000000939
 30
0.0
 11
224.7500002717884
 21
296.7500000001063
 31
0.0
  0
LINE
  5
7B9A
330
18
100
AcDbEntity
  8
1
  6
Continuous
100
AcDbLine
 10
216.7500002715504
 20
297.2500000001487
 30
0.0
 11
224.7500002717901
 21
297.2500000001563
 31
0.0
  0
LINE
  5
7B9B
330
18
100
AcDbEntity
  8
1
  6
Continuous
100
AcDbLine
 10
238.250000271581
 20
294.5500000000897
 30
0.0
 11
237.2500002715886
 21
295.5500000000882
 31
0.0
  0
LINE
  5
7B9C
330
18
100
AcDbEntity
  8
4
  6
CENTER
 48
0.2
100
AcDbLine
 10
251.2500237602478
 20
306.7520335970262
 30
0.0
 11
251.2500237602586
 21
294.7500000000695
 31
0.0
  0
LINE
  5
7B9D
330
18
100
AcDbEntity
  8
1
  6
Continuous
100
AcDbLine
 10
250.2500002716185
 20
304.7500000001857
 30
0.0
 11
250.250000271629
 21
296.7500000000704
 31
0.0
  0
LINE
  5
7B9E
330
18
100
AcDbEntity
  8
1
  6
Continuous
100
AcDbLine
 10
245.2500002716539
 20
304.7499999999093
 30
0.0
 11
245.2500002716539
 21
293.0419333848864
 31
0.0
  0
LINE
  5
7BA0
330
18
100
AcDbEntity
  8
1
  6
Continuous
100
AcDbLine
 10
245.2500002714413
 20
306.7500000000999
 30
0.0
 11
245.2500002714414
 21
304.7500000000997
 31
0.0
  0
ARC
  5
7BA1
330
18
100
AcDbEntity
  8
1
  6
Continuous
100
AcDbCircle
 10
253.3570345138401
 20
303.158146321249
 30
0.0
 40
1.3
100
AcDbArc
 50
4.999999999999803
 51
74.11914999172021
  0
LINE
  5
7BA2
330
18
100
AcDbEntity
  8
2
  6
Continuous
100
AcDbLine
 10
252.7500237606013
 20
299.8393792760892
 30
0.0
 11
252.7500237606013
 21
300.3520335970246
 31
0.0
  0
LINE
  5
7BA3
330
18
100
AcDbEntity
  8
1
  6
Continuous
100
AcDbLine
 10
253.2500237606013
 20
299.9126156076588
 30
0.0
 11
253.2500237606013
 21
300.3520335970244
 31
0.0
  0
LINE
  5
7BA4
330
18
100
AcDbEntity
  8
1
  6
Continuous
100
AcDbLine
 10
256.2500237602539
 20
301.1520335970264
 30
0.0
 11
256.2500237602539
 21
300.3520335970261
 31
0.0
  0
LINE
  5
7BA5
330
18
100
AcDbEntity
  8
1
  6
Continuous
100
AcDbLine
 10
254.7500237602539
 20
302.1520335970263
 30
0.0
 11
254.6520876213647
 21
303.2714487868607
 31
0.0
  0
LINE
  5
7BA6
330
18
100
AcDbEntity
  8
1
  6
Continuous
100
AcDbLine
 10
255.0500237602538
 20
302.1520335970263
 30
0.0
 11
255.0500237602538
 21
301.1520335970264
 31
0.0
  0
LINE
  5
7BA7
330
18
100
AcDbEntity
  8
1
  6
Continuous
100
AcDbLine
 10
252.2500237602507
 20
301.1520335970282
 30
0.0
 11
251.2500237602516
 21
302.1520335970262
 31
0.0
  0
LINE
  5
7BA8
330
18
100
AcDbEntity
  8
1
  6
Continuous
100
AcDbLine
 10
250.2500002714413
 20
304.7500000000999
 30
0.0
 11
250.2500002714413
 21
306.7500000000999
 31
0.0
  0
LINE
  5
7BA9
330
18
100
AcDbEntity
  8
1
  6
Continuous
100
AcDbLine
 10
250.2500002716219
 20
302.1520335970263
 30
0.0
 11
255.0500237602538
 21
302.1520335970263
 31
0.0
  0
LINE
  5
7BAB
330
18
100
AcDbEntity
  8
1
  6
Continuous
100
AcDbLine
 10
250.2500002716233
 20
301.1520335970264
 30
0.0
 11
256.2500237602539
 21
301.1520335970264
 31
0.0
  0
ARC
  5
7BAD
330
18
100
AcDbEntity
  8
1
  6
Continuous
100
AcDbCircle
 10
251.2500237602539
 20
295.7520335970262
 30
0.0
 40
9.0
100
AcDbArc
 50
74.11914999172021
 51
96.37952067344208
  0
LINE
  5
7BAE
330
18
100
AcDbEntity
  8
1
  6
Continuous
100
AcDbLine
 10
251.2500237602521
 20
301.1520335970264
 30
0.0
 11
250.250023760253
 21
302.1520335970242
 31
0.0
  0
LINE
  5
7BB0
330
18
100
AcDbEntity
  8
1
  6
Continuous
100
AcDbLine
 10
255.2488237602819
 20
278.7500000000662
 30
0.0
 11
255.2488237602819
 21
294.7500000000681
 31
0.0
  0
LINE
  5
7BB1
330
18
100
AcDbEntity
  8
1
  6
Continuous
100
AcDbLine
 10
253.2488237602837
 20
296.7500000000681
 30
0.0
 11
245.250000271654
 21
296.7500000000741
 31
0.0
  0
ARC
  5
7BB2
330
18
100
AcDbEntity
  8
1
  6
Continuous
100
AcDbCircle
 10
253.2488237602819
 20
294.7500000000681
 30
0.0
 40
2.0
100
AcDbArc
 50
0.0
 51
90.00000000000005
  0
LINE
  5
7BB3
330
18
100
AcDbEntity
  8
2
  6
Continuous
100
AcDbLine
 10
252.7500237606013
 20
296.7500000000685
 30
0.0
 11
252.7500237606013
 21
297.818038888082
 31
0.0
  0
LINE
  5
7BB4
330
18
100
AcDbEntity
  8
1
  6
Continuous
100
AcDbLine
 10
253.2500237606013
 20
296.7500000000681
 30
0.0
 11
253.2500237606013
 21
297.8912752196518
 31
0.0
  0
LINE
  5
7BBA
330
18
100
AcDbEntity
  8
1
  6
Continuous
100
AcDbLine
 10
261.7500002715812
 20
277.750000000061
 30
0.0
 11
261.7500002715812
 21
278.7500000000611
 31
0.0
  0
ARC
  5
7BBC
330
18
100
AcDbEntity
  8
1
  6
Continuous
100
AcDbCircle
 10
225.2500002719266
 20
718.0833333333473
 30
0.0
 40
444.8333333332576
100
AcDbArc
 50
265.4122976509649
 51
274.5877023489443
  0
ARC
  5
7BBD
330
18
100
AcDbEntity
  8
5
  6
PHANTOM
 48
0.1
100
AcDbCircle
 10
438.9508670945706
 20
652.00873597579
 30
0.0
 40
444.8333000000001
100
AcDbArc
 50
238.2570865972889
 51
241.3644874950401
  0
ARC
  5
7BBE
330
18
100
AcDbEntity
  8
1
  6
Continuous
100
AcDbCircle
 10
189.7500002715718
 20
275.6720113967524
 30
0.0
 40
1.0
100
AcDbArc
 50
180.0
 51
265.4122976509652
  0
ARC
  5
7BBF
330
18
100
AcDbEntity
  8
5
  6
PHANTOM
 48
0.1
100
AcDbCircle
 10
226.832636356927
 20
263.5294805469055
 30
0.0
 40
2.215772432633048
100
AcDbArc
 50
241.364487419112
 51
106.8031967915258
  0
LINE
  5
7BC0
330
18
100
AcDbEntity
  8
5
  6
PHANTOM
 48
0.1
100
AcDbLine
 10
228.5927218631353
 20
273.2625596989083
 30
0.0
 11
224.5795595082761
 21
266.2105061033869
 31
0.0
  0
LINE
  5
7BC1
330
18
100
AcDbEntity
  8
5
  6
PHANTOM
 48
0.1
100
AcDbLine
 10
211.8550709391712
 20
273.4517214201281
 30
0.0
 11
225.4084065854432
 21
265.7388281952478
 31
0.0
  0
ARC
  5
7BC2
330
18
100
AcDbEntity
  8
5
  6
PHANTOM
 48
0.1
100
AcDbCircle
 10
225.9030041089134
 20
266.6079503326813
 30
0.0
 40
1.0
100
AcDbArc
 50
240.3567859176082
 51
286.8031967915258
  0
ARC
  5
7BC3
330
18
100
AcDbEntity
  8
1
  6
Continuous
100
AcDbCircle
 10
260.7500002715796
 20
275.6720113966961
 30
0.0
 40
1.0
100
AcDbArc
 50
274.5877023489447
 51
0.0
  0
ARC
  5
8BC3
330
18
100
AcDbEntity
  8
1
  6
Continuous
100
AcDbCircle
 10
487.1457943960328
 20
144.5000000000537
 30
0.0
 40
2.0
100
AcDbArc
 50
270.0000000000447
 51
0.0
  0
ARC
  5
8BC4
330
18
100
AcDbEntity
  8
1
  6
Continuous
100
AcDbCircle
 10
468.5109920919225
 20
144.5000000001521
 30
0.0
 40
2.0
100
AcDbArc
 50
180.0
 51
270.0000000000447
  0
ARC
  5
8BC5
330
18
100
AcDbEntity
  8
1
  6
Continuous
100
AcDbCircle
 10
468.5109920919225
 20
215.5000000001562
 30
0.0
 40
2.0
100
AcDbArc
 50
90.00000000004472
 51
180.0
  0
ARC
  5
8BC6
330
18
100
AcDbEntity
  8
1
  6
Continuous
100
AcDbCircle
 10
487.1457943960329
 20
215.5000000000578
 30
0.0
 40
2.0
100
AcDbArc
 50
0.0
 51
90.00000000004467
  0
LINE
  5
8F33
330
18
100
AcDbEntity
  8
1
  6
Continuous
100
AcDbLine
 10
267.8848025753959
 20
281.6406727160289
 30
0.0
 11
267.5949500319891
 21
283.6195576300902
 31
0.0
  0
LINE
  5
8F34
330
18
100
AcDbEntity
  8
1
  6
Continuous
100
AcDbLine
 10
267.8848025753958
 20
281.6406727160289
 30
0.0
 11
261.9481478332096
 21
280.7711150858132
 31
0.0
  0
LINE
  5
8F35
330
18
100
AcDbEntity
  8
1
  6
Continuous
100
AcDbLine
 10
259.3104896882211
 20
298.7789678037382
 30
0.0
 11
261.6582952898052
 21
282.7499999998699
 31
0.0
  0
LINE
  5
8F36
330
18
100
AcDbEntity
  8
1
  6
Continuous
100
AcDbLine
 10
257.3316047741645
 20
298.489115260333
 30
0.0
 11
259.6794103757483
 21
282.4601474564648
 31
0.0
  0
ARC
  5
8F37
330
18
100
AcDbEntity
  8
1
  6
Continuous
100
AcDbCircle
 10
261.6582952898052
 20
282.7499999998699
 30
0.0
 40
2.0
100
AcDbArc
 50
188.3330097710379
 51
278.3330097710393
  0
LINE
  5
8F38
330
18
100
AcDbEntity
  8
1
  6
Continuous
100
AcDbLine
 10
267.5949500319906
 20
283.6195576300905
 30
0.0
 11
261.6582952898045
 21
282.7499999998746
 31
0.0
  0
LINE
  5
8F39
330
18
100
AcDbEntity
  8
1
  6
Continuous
100
AcDbLine
 10
250.250000271628
 20
297.4518537895465
 30
0.0
 11
257.3316047741567
 21
298.4891152603318
 31
0.0
  0
ARC
  5
8F3A
330
18
100
AcDbEntity
  8
1
  6
Continuous
100
AcDbCircle
 10
257.3316047741645
 20
298.489115260333
 30
0.0
 40
2.0
100
AcDbArc
 50
8.333009771037973
 51
98.33300977103931
  0
LINE
  5
8F3B
330
18
100
AcDbEntity
  8
1
  6
Continuous
100
AcDbLine
 10
250.2500002716256
 20
299.4731941775531
 30
0.0
 11
257.0417522307486
 21
300.4680001743882
 31
0.0
  0
LINE
  5
8FFA
330
18
100
AcDbEntity
  8
1
  6
Continuous
100
AcDbLine
 10
256.2500237602539
 20
300.3520335968315
 30
0.0
 11
250.2500002716242
 21
300.3520335968237
 31
0.0
  0
LINE
  5
92B1
330
18
100
AcDbEntity
  8
1
  6
Continuous
100
AcDbLine
 10
474.4265317487299
 20
142.5000000001209
 30
0.0
 11
474.4265317491261
 21
217.5000000001249
 31
0.0
  0
LINE
  5
A8C0
330
18
100
AcDbEntity
  8
1
  6
Continuous
100
AcDbLine
 10
49.13465368448226
 20
284.8546411330433
 30
0.0
 11
51.13465368448226
 21
284.8546411330433
 31
0.0
  0
LINE
  5
A8C1
330
18
100
AcDbEntity
  8
1
  6
Continuous
100
AcDbLine
 10
50.13465368448226
 20
285.1546411330427
 30
0.0
 11
51.13465368448226
 21
285.9546411330423
 31
0.0
  0
ARC
  5
A8C2
330
18
100
AcDbEntity
  8
1
  6
Continuous
100
AcDbCircle
 10
49.63465368448229
 20
285.4546411330423
 30
0.0
 40
0.5
100
AcDbArc
 50
359.9999999999643
 51
179.9999999999625
  0
LINE
  5
A8C3
330
18
100
AcDbEntity
  8
1
  6
Continuous
100
AcDbLine
 10
50.13465368448226
 20
284.8546411330433
 30
0.0
 11
50.13465368448226
 21
285.4546411330423
 31
0.0
  0
LINE
  5
A8C4
330
18
100
AcDbEntity
  8
1
  6
Continuous
100
AcDbLine
 10
49.13465368448226
 20
284.8546411330433
 30
0.0
 11
49.13465368448226
 21
285.4546411330423
 31
0.0
  0
ARC
  5
A93E
330
18
100
AcDbEntity
  8
1
  6
Continuous
100
AcDbCircle
 10
50.63465368448229
 20
289.4046411330428
 30
0.0
 40
0.5
100
AcDbArc
 50
270.0
 51
90.0
  0
LINE
  5
A940
330
18
100
AcDbEntity
  8
1
  6
Continuous
100
AcDbLine
 10
49.63465368448225
 20
289.9046411330429
 30
0.0
 11
50.63465368448226
 21
289.9046411330429
 31
0.0
  0
LINE
  5
A941
330
18
100
AcDbEntity
  8
1
  6
Continuous
100
AcDbLine
 10
49.63465368448225
 20
288.9046411330428
 30
0.0
 11
50.63465368448226
 21
288.9046411330428
 31
0.0
  0
ARC
  5
A942
330
18
100
AcDbEntity
  8
1
  6
Continuous
100
AcDbCircle
 10
49.63465368448229
 20
289.4046411330428
 30
0.0
 40
0.5
100
AcDbArc
 50
90.0
 51
270.0
  0
LINE
  5
A943
330
18
100
AcDbEntity
  8
1
  6
Continuous
100
AcDbLine
 10
49.93465368448227
 20
287.8046411330428
 30
0.0
 11
51.13465368448226
 21
286.9046411330428
 31
0.0
  0
ARC
  5
A944
330
18
100
AcDbEntity
  8
1
  6
Continuous
100
AcDbCircle
 10
49.63465368448229
 20
287.4046411330429
 30
0.0
 40
0.5000000000000006
100
AcDbArc
 50
53.13010235415486
 51
270.0
  0
LINE
  5
A945
330
18
100
AcDbEntity
  8
1
  6
Continuous
100
AcDbLine
 10
51.13465368448226
 20
287.9046411330429
 30
0.0
 11
51.13465368448226
 21
286.9046411330428
 31
0.0
  0
LINE
  5
A946
330
18
100
AcDbEntity
  8
1
  6
Continuous
100
AcDbLine
 10
49.63465368448225
 20
291.9046411330429
 30
0.0
 11
50.63465368448226
 21
291.9046411330429
 31
0.0
  0
LINE
  5
A947
330
18
100
AcDbEntity
  8
1
  6
Continuous
100
AcDbLine
 10
49.63465368448225
 20
290.9046411330428
 30
0.0
 11
50.63465368448226
 21
290.9046411330428
 31
0.0
  0
ARC
  5
A948
330
18
100
AcDbEntity
  8
1
  6
Continuous
100
AcDbCircle
 10
50.63465368448229
 20
291.4046411330428
 30
0.0
 40
0.5
100
AcDbArc
 50
270.0
 51
90.0
  0
ARC
  5
A949
330
18
100
AcDbEntity
  8
1
  6
Continuous
100
AcDbCircle
 10
49.63465368448229
 20
291.4046411330428
 30
0.0
 40
0.5
100
AcDbArc
 50
90.0
 51
270.0
  0
ARC
  5
A96D
330
18
100
AcDbEntity
  8
1
  6
Continuous
100
AcDbCircle
 10
45.4899576919034
 20
289.4917612641084
 30
0.0
 40
2.281208007415607
100
AcDbArc
 50
54.94066185634778
 51
86.3633132383595
  0
LINE
  5
A96E
330
18
100
AcDbEntity
  8
1
  6
Continuous
100
AcDbLine
 10
45.63465368448237
 20
291.7683756457787
 30
0.0
 11
45.63465368448237
 21
290.7346978290807
 31
0.0
  0
ARC
  5
A96F
330
18
100
AcDbEntity
  8
1
  6
Continuous
100
AcDbCircle
 10
46.42334833365626
 20
285.7308869215271
 30
0.0
 40
0.7113053508261391
100
AcDbArc
 50
302.0053832080826
 51
57.99461679191722
  0
ARC
  5
A970
330
18
100
AcDbEntity
  8
1
  6
Continuous
100
AcDbCircle
 10
44.84595903530852
 20
285.7308869215271
 30
0.0
 40
0.7113053508261391
100
AcDbArc
 50
122.0053832080826
 51
237.9946167919173
  0
LINE
  5
A971
330
18
100
AcDbEntity
  8
1
  6
Continuous
100
AcDbLine
 10
44.13465368448236
 20
282.4546411330429
 30
0.0
 11
44.13465368448236
 21
280.6546411330428
 31
0.0
  0
LINE
  5
A972
330
18
100
AcDbEntity
  8
1
  6
Continuous
100
AcDbLine
 10
44.13465368448236
 20
281.5546411330428
 30
0.0
 11
47.13465368448236
 21
281.5546411330428
 31
0.0
  0
ARC
  5
A973
330
18
100
AcDbEntity
  8
1
  6
Continuous
100
AcDbCircle
 10
45.63465368448239
 20
284.8087312120276
 30
0.0
 40
2.199411438678189
100
AcDbArc
 50
237.9946167919172
 51
302.0053832080827
  0
ARC
  5
A974
330
18
100
AcDbEntity
  8
1
  6
Continuous
100
AcDbCircle
 10
45.63465368448239
 20
282.2849083346712
 30
0.0
 40
2.199411438678189
100
AcDbArc
 50
57.99461679191722
 51
122.0053832080826
  0
ARC
  5
A975
330
18
100
AcDbEntity
  8
1
  6
Continuous
100
AcDbCircle
 10
46.42334833365626
 20
283.5468197733494
 30
0.0
 40
0.7113053508261391
100
AcDbArc
 50
302.0053832080826
 51
57.99461679191722
  0
ARC
  5
A976
330
18
100
AcDbEntity
  8
1
  6
Continuous
100
AcDbCircle
 10
45.63465368448239
 20
286.9927983602052
 30
0.0
 40
2.199411438678189
100
AcDbArc
 50
237.9946167919172
 51
302.0053832080827
  0
ARC
  5
A977
330
18
100
AcDbEntity
  8
1
  6
Continuous
100
AcDbCircle
 10
44.84595903530852
 20
283.5468197733494
 30
0.0
 40
0.7113053508261391
100
AcDbArc
 50
122.0053832080826
 51
237.9946167919173
  0
LINE
  5
A978
330
18
100
AcDbEntity
  8
1
  6
Continuous
100
AcDbLine
 10
45.63465368448237
 20
286.7271585791089
 30
0.0
 11
45.63465368448237
 21
288.4521585791089
 31
0.0
  0
LINE
  5
A979
330
18
100
AcDbEntity
  8
1
  6
Continuous
100
AcDbLine
 10
44.13465368448236
 20
288.4521585791089
 30
0.0
 11
47.13465368448236
 21
288.4521585791089
 31
0.0
  0
LINE
  5
A97A
330
18
100
AcDbEntity
  8
1
  6
Continuous
100
AcDbLine
 10
44.13465368448236
 20
286.7271585791089
 30
0.0
 11
47.13465368448236
 21
286.7271585791089
 31
0.0
  0
ARC
  5
A97B
330
18
100
AcDbEntity
  8
1
  6
Continuous
100
AcDbCircle
 10
45.77934967706143
 20
289.4917612641084
 30
0.0
 40
2.281208007415607
100
AcDbArc
 50
115.7201063039164
 51
125.0593381436522
  0
ARC
  5
A97C
330
18
100
AcDbEntity
  8
1
  6
Continuous
100
AcDbCircle
 10
45.63465368448239
 20
291.9427870844569
 30
0.0
 40
2.199411438678189
100
AcDbArc
 50
237.9946167919172
 51
302.0053832080827
  0
LINE
  5
A97D
330
18
100
AcDbEntity
  8
1
  6
Continuous
100
AcDbLine
 10
44.13465368448236
 20
289.1271585791088
 30
0.0
 11
47.13465368448236
 21
289.1271585791088
 31
0.0
  0
ARC
  5
A97E
330
18
100
AcDbEntity
  8
1
  6
Continuous
100
AcDbCircle
 10
44.91572150759618
 20
290.7183756457787
 30
0.0
 40
0.781067823113782
100
AcDbArc
 50
124.8882680994091
 51
235.1117319005908
  0
ARC
  5
A97F
330
18
100
AcDbEntity
  8
1
  6
Continuous
100
AcDbCircle
 10
46.35358586136859
 20
290.7183756457787
 30
0.0
 40
0.781067823113782
100
AcDbArc
 50
304.888268099409
 51
55.11173190059082
  0
LINE
  5
A980
330
18
100
AcDbEntity
  8
1
  6
Continuous
100
AcDbLine
 10
45.63465368448237
 20
293.6837913846069
 30
0.0
 11
44.13465368448236
 21
294.583791384607
 31
0.0
  0
LINE
  5
A981
330
18
100
AcDbEntity
  8
1
  6
Continuous
100
AcDbLine
 10
45.63465368448237
 20
291.7683756457787
 30
0.0
 11
46.98929145534072
 21
291.7683756457787
 31
0.0
  0
LINE
  5
A982
330
18
100
AcDbEntity
  8
1
  6
Continuous
100
AcDbLine
 10
45.63465368448237
 20
293.6837913846069
 30
0.0
 11
47.13465368448236
 21
293.6837913846069
 31
0.0
  0
LINE
  5
A983
330
18
100
AcDbEntity
  8
1
  6
Continuous
100
AcDbLine
 10
44.13465368448236
 20
292.3527199020731
 30
0.0
 11
47.13465368448236
 21
292.3527199020731
 31
0.0
  0
LINE
  5
A984
330
18
100
AcDbEntity
  8
1
  6
Continuous
100
AcDbLine
 10
44.13465368448236
 20
292.783791384607
 30
0.0
 11
45.63465368448237
 21
293.6837913846069
 31
0.0
  0
LINE
  5
A985
330
18
100
AcDbEntity
  8
1
  6
Continuous
100
AcDbLine
 10
46.00965368448236
 20
294.644177684388
 30
0.0
 11
46.00965368448236
 21
295.769177684388
 31
0.0
  0
LINE
  5
A986
330
18
100
AcDbEntity
  8
1
  6
Continuous
100
AcDbLine
 10
47.13465368448236
 20
294.306677684388
 30
0.0
 11
44.13465368448236
 21
295.206677684388
 31
0.0
  0
LINE
  5
A987
330
18
100
AcDbEntity
  8
1
  6
Continuous
100
AcDbLine
 10
44.13465368448236
 20
295.206677684388
 30
0.0
 11
47.13465368448236
 21
296.106677684388
 31
0.0
  0
ENDSEC
  0
SECTION
  2
OBJECTS
  0
DICTIONARY
  5
C
330
0
100
AcDbDictionary
281
     1
  3
ACAD_CIP_PREVIOUS_PRODUCT_INFO
350
A9F3
  3
ACAD_COLOR
350
A9D6
  3
ACAD_DETAILVIEWSTYLE
350
A9EF
  3
ACAD_GROUP
350
D
  3
ACAD_LAYOUT
350
94
  3
ACAD_MATERIAL
350
A9A4
  3
ACAD_MLEADERSTYLE
350
A9EB
  3
ACAD_MLINESTYLE
350
1B
  3
ACAD_PLOTSETTINGS
350
95
  3
ACAD_PLOTSTYLENAME
350
A9A2
  3
ACAD_SCALELIST
350
A9D9
  3
ACAD_SECTIONVIEWSTYLE
350
A9ED
  3
ACAD_TABLESTYLE
350
A9D7
  3
ACAD_VISUALSTYLE
350
A9BD
  3
ACDB_RECOMPOSE_DATA
350
AA11
  3
AcDbVariableDictionary
350
AA04
  3
CONTENTDICTIONARY
350
3D
  3
DWGPROPS
350
AA12
  0
DICTIONARY
  5
A9F4
330
E
100
AcDbDictionary
280
     1
281
     1
  3
ADSK_XREC_LAYER_RECONCILED
360
A9F5
  0
DICTIONARY
  5
A9F6
330
4E
100
AcDbDictionary
280
     1
281
     1
  3
ADSK_XREC_LAYER_RECONCILED
360
A9F7
  0
DICTIONARY
  5
A9F8
330
4F
100
AcDbDictionary
280
     1
281
     1
  3
ADSK_XREC_LAYER_RECONCILED
360
A9F9
  0
DICTIONARY
  5
A9FA
330
50
100
AcDbDictionary
280
     1
281
     1
  3
ADSK_XREC_LAYER_RECONCILED
360
A9FB
  0
DICTIONARY
  5
A9FC
330
51
100
AcDbDictionary
280
     1
281
     1
  3
ADSK_XREC_LAYER_RECONCILED
360
A9FD
  0
DICTIONARY
  5
A9FE
330
52
100
AcDbDictionary
280
     1
281
     1
  3
ADSK_XREC_LAYER_RECONCILED
360
A9FF
  0
DICTIONARY
  5
AA00
330
53
100
AcDbDictionary
280
     1
281
     1
  3
ADSK_XREC_LAYER_RECONCILED
360
AA01
  0
DICTIONARY
  5
AA02
330
54
100
AcDbDictionary
280
     1
281
     1
  3
ADSK_XREC_LAYER_RECONCILED
360
AA03
  0
DICTIONARY
  5
A99D
330
18
100
AcDbDictionary
281
     1
  3
ACAD_LAYOUTSELFREF
350
A99E
  0
DICTIONARY
  5
A99B
330
15
100
AcDbDictionary
281
     1
  3
ACAD_LAYOUTSELFREF
350
A99C
  0
XRECORD
  5
A9F3
102
{ACAD_REACTORS
330
C
102
}
330
C
100
AcDbXrecord
280
     1
300
ACDLT
300
2014
300
ACDLT_F_S
  0
DICTIONARY
  5
A9D6
102
{ACAD_REACTORS
330
C
102
}
330
C
100
AcDbDictionary
281
     1
  0
DICTIONARY
  5
A9EF
102
{ACAD_REACTORS
330
C
102
}
330
C
100
AcDbDictionary
281
     1
  3
Imperial24
350
A9F0
  0
DICTIONARY
  5
D
102
{ACAD_REACTORS
330
C
102
}
330
C
100
AcDbDictionary
281
     1
  0
DICTIONARY
  5
94
102
{ACAD_REACTORS
330
C
102
}
330
C
100
AcDbDictionary
281
     1
  3
Model
350
A9F1
  3
レイアウト1
350
A9F2
  0
DICTIONARY
  5
A9A4
102
{ACAD_REACTORS
330
C
102
}
330
C
100
AcDbDictionary
281
     1
  3
ByBlock
350
A9AD
  3
ByLayer
350
A9A5
  3
Global
350
A9B5
  0
DICTIONARY
  5
A9EB
102
{ACAD_REACTORS
330
C
102
}
330
C
100
AcDbDictionary
281
     1
  3
Standard
350
A9EC
  0
DICTIONARY
  5
1B
102
{ACAD_REACTORS
330
C
102
}
330
C
100
AcDbDictionary
281
     1
  3
STANDARD
350
1C
  0
DICTIONARY
  5
95
102
{ACAD_REACTORS
330
C
102
}
330
C
100
AcDbDictionary
281
     1
  0
ACDBDICTIONARYWDFLT
  5
A9A2
102
{ACAD_REACTORS
330
C
102
}
330
C
100
AcDbDictionary
281
     1
  3
Normal
350
A9A3
100
AcDbDictionaryWithDefault
340
A9A3
  0
DICTIONARY
  5
A9D9
102
{ACAD_REACTORS
330
C
102
}
330
C
100
AcDbDictionary
281
     1
  3
A0
350
A9DA
  3
A1
350
A9DB
  3
A2
350
A9DC
  3
A3
350
A9DD
  3
A4
350
A9DE
  3
A5
350
A9DF
  3
A6
350
A9E0
  3
A7
350
A9E1
  3
A8
350
A9E2
  3
A9
350
A9E3
  3
B0
350
A9E4
  3
B1
350
A9E5
  3
B2
350
A9E6
  3
B3
350
A9E7
  3
B4
350
A9E8
  3
B5
350
A9E9
  3
B6
350
A9EA
  0
DICTIONARY
  5
A9ED
102
{ACAD_REACTORS
330
C
102
}
330
C
100
AcDbDictionary
281
     1
  3
Imperial24
350
A9EE
  0
DICTIONARY
  5
A9D7
102
{ACAD_REACTORS
330
C
102
}
330
C
100
AcDbDictionary
281
     1
  3
Standard
350
A9D8
  0
DICTIONARY
  5
A9BD
102
{ACAD_REACTORS
330
C
102
}
330
C
100
AcDbDictionary
281
     1
  3
2dWireframe
350
A9C3
  3
Basic
350
A9C2
  3
Brighten
350
A9C9
  3
ColorChange
350
A9CD
  3
Conceptual
350
A9C6
  3
Dim
350
A9C8
  3
EdgeColorOff
350
A9D5
  3
Facepattern
350
A9CC
  3
Flat
350
A9BE
  3
FlatWithEdges
350
A9BF
  3
Gouraud
350
A9C0
  3
GouraudWithEdges
350
A9C1
  3
Hidden
350
A9C5
  3
JitterOff
350
A9D3
  3
Linepattern
350
A9CB
  3
OverhangOff
350
A9D4
  3
Realistic
350
A9C7
  3
Shaded
350
A9D2
  3
Shaded with edges
350
A9D1
  3
Shades of Gray
350
A9CE
  3
Sketchy
350
A9CF
  3
Thicken
350
A9CA
  3
Wireframe
350
A9C4
  3
X-Ray
350
A9D0
  0
XRECORD
  5
AA11
102
{ACAD_REACTORS
330
C
102
}
330
C
100
AcDbXrecord
280
     1
 90
        1
330
A9D8
  0
DICTIONARY
  5
AA04
102
{ACAD_REACTORS
330
C
102
}
330
C
100
AcDbDictionary
281
     1
  3
CANNOSCALE
350
AA09
  3
CMLEADERSTYLE
350
AA06
  3
CTABLESTYLE
350
AA05
  3
CVIEWDETAILSTYLE
350
AA07
  3
CVIEWSECTIONSTYLE
350
AA08
  3
DIMASSOC
350
AA0C
  3
INDEXCTL
350
AA0B
  3
SORTENTS
350
AA0A
  3
XCLIPFRAME
350
AA0D
  0
DICTIONARY
  5
3D
102
{ACAD_REACTORS
330
C
102
}
330
C
100
AcDbDictionary
281
     1
  0
XRECORD
  5
AA12
102
{ACAD_REACTORS
330
C
102
}
330
C
100
AcDbXrecord
280
     1
  1
DWGPROPS COOKIE
  2

  3

  4

  6

  7

  8
Yoshitsune
  9

300
=
301
=
302
=
303
=
304
=
305
=
306
=
307
=
308
=
309
=
 40
0.6499707986111111
 41
2452051.395592083
 42
2457192.642887107
  1

 90
        0
  0
XRECORD
  5
A9F5
102
{ACAD_REACTORS
330
A9F4
102
}
330
A9F4
100
AcDbXrecord
280
     1
290
     1
  0
XRECORD
  5
A9F7
102
{ACAD_REACTORS
330
A9F6
102
}
330
A9F6
100
AcDbXrecord
280
     1
290
     1
  0
XRECORD
  5
A9F9
102
{ACAD_REACTORS
330
A9F8
102
}
330
A9F8
100
AcDbXrecord
280
     1
290
     1
  0
XRECORD
  5
A9FB
102
{ACAD_REACTORS
330
A9FA
102
}
330
A9FA
100
AcDbXrecord
280
     1
290
     1
  0
XRECORD
  5
A9FD
102
{ACAD_REACTORS
330
A9FC
102
}
330
A9FC
100
AcDbXrecord
280
     1
290
     1
  0
XRECORD
  5
A9FF
102
{ACAD_REACTORS
330
A9FE
102
}
330
A9FE
100
AcDbXrecord
280
     1
290
     1
  0
XRECORD
  5
AA01
102
{ACAD_REACTORS
330
AA00
102
}
330
AA00
100
AcDbXrecord
280
     1
290
     1
  0
XRECORD
  5
AA03
102
{ACAD_REACTORS
330
AA02
102
}
330
AA02
100
AcDbXrecord
280
     1
290
     1
  0
XRECORD
  5
A99E
102
{ACAD_REACTORS
330
A99D
102
}
330
A99D
100
AcDbXrecord
280
     1
340
18
  0
XRECORD
  5
A99C
102
{ACAD_REACTORS
330
A99B
102
}
330
A99B
100
AcDbXrecord
280
     1
340
15
  0
ACDBDETAILVIEWSTYLE
  5
A9F0
102
{ACAD_XDICTIONARY
360
AA4A
102
}
102
{ACAD_REACTORS
330
A9EF
102
}
330
A9EF
100
AcDbModelDocViewStyle
 70
     0
  3
Imperial24
290
     0
100
AcDbDetailViewStyle
 70
     0
 71
     0
 90
        3
 71
     1
340
F
 40
0.24
340
0
 40
0.24
300

 40
0.36
280
     3
 71
     2
340
14
 90
       25
 71
     3
340
F
 40
0.24
 90
        1
 40
0.75
 90
        1
300
%<\AcVar ViewType \f "%tc1">% %<\AcVar ViewDetailId>%\PSCALE %<\AcVar ViewScale \f "%sn">%
 71
     4
340
14
 90
       25
340
14
 90
       25
280
     0
  0
LAYOUT
  5
A9F1
102
{ACAD_XDICTIONARY
360
AA4C
102
}
102
{ACAD_REACTORS
330
94
102
}
330
94
100
AcDbPlotSettings
  1

  2
Canon LBP9100C
  4

  6

 40
0.0
 41
0.0
 42
0.0
 43
0.0
 44
0.0
 45
0.0
 46
0.0
 47
0.0
 48
0.0
 49
0.0
140
0.0
141
0.0
142
1.0
143
1.0
 70
  1712
 72
     0
 73
     0
 74
     0
  7

 75
     0
147
1.0
148
0.0
149
0.0
100
AcDbLayout
  1
Model
 70
     1
 71
     0
 10
0.0
 20
0.0
 11
12.0
 21
9.0
 12
0.0
 22
0.0
 32
0.0
 14
0.0
 24
0.0
 34
0.0
 15
0.0
 25
0.0
 35
0.0
146
0.0
 13
0.0
 23
0.0
 33
0.0
 16
1.0
 26
0.0
 36
0.0
 17
0.0
 27
1.0
 37
0.0
 76
     0
330
18
331
A99A
  0
LAYOUT
  5
A9F2
102
{ACAD_XDICTIONARY
360
AA4E
102
}
102
{ACAD_REACTORS
330
94
102
}
330
94
100
AcDbPlotSettings
  1

  2
Canon LBP9100C
  4

  6

 40
0.0
 41
0.0
 42
0.0
 43
0.0
 44
0.0
 45
0.0
 46
0.0
 47
0.0
 48
0.0
 49
0.0
140
0.0
141
0.0
142
1.0
143
1.0
 70
   688
 72
     0
 73
     0
 74
     5
  7

 75
    16
147
1.0
148
0.0
149
0.0
100
AcDbLayout
  1
レイアウト1
 70
     1
 71
     1
 10
0.0
 20
0.0
 11
420.0
 21
297.0
 12
0.0
 22
0.0
 32
0.0
 14
1.000000000000000E+20
 24
1.000000000000000E+20
 34
1.000000000000000E+20
 15
-1.000000000000000E+20
 25
-1.000000000000000E+20
 35
-1.000000000000000E+20
146
0.0
 13
0.0
 23
0.0
 33
0.0
 16
1.0
 26
0.0
 36
0.0
 17
0.0
 27
1.0
 37
0.0
 76
     0
330
15
  0
MATERIAL
  5
A9AD
102
{ACAD_XDICTIONARY
360
A9AE
102
}
102
{ACAD_REACTORS
330
A9A4
102
}
330
A9A4
100
AcDbMaterial
  1
ByBlock
 72
     0
 43
0.0208333333333333
 43
0.0
 43
0.0
 43
0.0
 43
0.0
 43
0.0208333333333333
 43
0.0
 43
0.0
 43
0.0
 43
0.0
 43
1.0
 43
0.0
 43
0.0
 43
0.0
 43
0.0
 43
1.0
 77
     0
 47
0.0208333333333333
 47
0.0
 47
0.0
 47
0.0
 47
0.0
 47
0.0208333333333333
 47
0.0
 47
0.0
 47
0.0
 47
0.0
 47
1.0
 47
0.0
 47
0.0
 47
0.0
 47
0.0
 47
1.0
171
     0
 49
0.0208333333333333
 49
0.0
 49
0.0
 49
0.0
 49
0.0
 49
0.0208333333333333
 49
0.0
 49
0.0
 49
0.0
 49
0.0
 49
1.0
 49
0.0
 49
0.0
 49
0.0
 49
0.0
 49
1.0
175
     0
142
0.0208333333333333
142
0.0
142
0.0
142
0.0
142
0.0
142
0.0208333333333333
142
0.0
142
0.0
142
0.0
142
0.0
142
1.0
142
0.0
142
0.0
142
0.0
142
0.0
142
1.0
179
     0
144
0.0208333333333333
144
0.0
144
0.0
144
0.0
144
0.0
144
0.0208333333333333
144
0.0
144
0.0
144
0.0
144
0.0
144
1.0
144
0.0
144
0.0
144
0.0
144
0.0
144
1.0
147
0.0208333333333333
147
0.0
147
0.0
147
0.0
147
0.0
147
0.0208333333333333
147
0.0
147
0.0
147
0.0
147
0.0
147
1.0
147
0.0
147
0.0
147
0.0
147
0.0
147
1.0
  0
MATERIAL
  5
A9A5
102
{ACAD_XDICTIONARY
360
A9A6
102
}
102
{ACAD_REACTORS
330
A9A4
102
}
330
A9A4
100
AcDbMaterial
  1
ByLayer
 72
     0
 43
0.0208333333333333
 43
0.0
 43
0.0
 43
0.0
 43
0.0
 43
0.0208333333333333
 43
0.0
 43
0.0
 43
0.0
 43
0.0
 43
1.0
 43
0.0
 43
0.0
 43
0.0
 43
0.0
 43
1.0
 77
     0
 47
0.0208333333333333
 47
0.0
 47
0.0
 47
0.0
 47
0.0
 47
0.0208333333333333
 47
0.0
 47
0.0
 47
0.0
 47
0.0
 47
1.0
 47
0.0
 47
0.0
 47
0.0
 47
0.0
 47
1.0
171
     0
 49
0.0208333333333333
 49
0.0
 49
0.0
 49
0.0
 49
0.0
 49
0.0208333333333333
 49
0.0
 49
0.0
 49
0.0
 49
0.0
 49
1.0
 49
0.0
 49
0.0
 49
0.0
 49
0.0
 49
1.0
175
     0
142
0.0208333333333333
142
0.0
142
0.0
142
0.0
142
0.0
142
0.0208333333333333
142
0.0
142
0.0
142
0.0
142
0.0
142
1.0
142
0.0
142
0.0
142
0.0
142
0.0
142
1.0
179
     0
144
0.0208333333333333
144
0.0
144
0.0
144
0.0
144
0.0
144
0.0208333333333333
144
0.0
144
0.0
144
0.0
144
0.0
144
1.0
144
0.0
144
0.0
144
0.0
144
0.0
144
1.0
147
0.0208333333333333
147
0.0
147
0.0
147
0.0
147
0.0
147
0.0208333333333333
147
0.0
147
0.0
147
0.0
147
0.0
147
1.0
147
0.0
147
0.0
147
0.0
147
0.0
147
1.0
  0
MATERIAL
  5
A9B5
102
{ACAD_XDICTIONARY
360
A9B6
102
}
102
{ACAD_REACTORS
330
A9A4
102
}
330
A9A4
100
AcDbMaterial
  1
Global
 72
     0
 43
0.0208333333333333
 43
0.0
 43
0.0
 43
0.0
 43
0.0
 43
0.0208333333333333
 43
0.0
 43
0.0
 43
0.0
 43
0.0
 43
1.0
 43
0.0
 43
0.0
 43
0.0
 43
0.0
 43
1.0
 77
     0
 47
0.0208333333333333
 47
0.0
 47
0.0
 47
0.0
 47
0.0
 47
0.0208333333333333
 47
0.0
 47
0.0
 47
0.0
 47
0.0
 47
1.0
 47
0.0
 47
0.0
 47
0.0
 47
0.0
 47
1.0
171
     0
 49
0.0208333333333333
 49
0.0
 49
0.0
 49
0.0
 49
0.0
 49
0.0208333333333333
 49
0.0
 49
0.0
 49
0.0
 49
0.0
 49
1.0
 49
0.0
 49
0.0
 49
0.0
 49
0.0
 49
1.0
175
     0
142
0.0208333333333333
142
0.0
142
0.0
142
0.0
142
0.0
142
0.0208333333333333
142
0.0
142
0.0
142
0.0
142
0.0
142
1.0
142
0.0
142
0.0
142
0.0
142
0.0
142
1.0
179
     0
144
0.0208333333333333
144
0.0
144
0.0
144
0.0
144
0.0
144
0.0208333333333333
144
0.0
144
0.0
144
0.0
144
0.0
144
1.0
144
0.0
144
0.0
144
0.0
144
0.0
144
1.0
147
0.0208333333333333
147
0.0
147
0.0
147
0.0
147
0.0
147
0.0208333333333333
147
0.0
147
0.0
147
0.0
147
0.0
147
1.0
147
0.0
147
0.0
147
0.0
147
0.0
147
1.0
  0
MLEADERSTYLE
  5
A9EC
102
{ACAD_REACTORS
330
A9EB
102
}
330
A9EB
100
AcDbMLeaderStyle
170
     2
171
     1
172
     0
 90
        2
 40
0.0
 41
0.0
173
     1
 91
-1056964608
340
12
 92
       -2
290
     1
 42
0.09
291
     1
 43
0.36
  3
Standard
 44
0.18
300

342
F
174
     1
178
     6
175
     1
176
     0
 93
-1056964608
 45
0.18
292
     0
297
     0
 46
0.18
 94
-1056964608
 47
1.0
 49
1.0
140
1.0
293
     1
141
0.0
294
     1
177
     0
142
1.0
295
     0
296
     0
143
0.125
1001
ACAD_MLEADERVER
1070
     2
  0
MLINESTYLE
  5
1C
102
{ACAD_REACTORS
330
1B
102
}
330
1B
100
AcDbMlineStyle
  2
STANDARD
 70
     0
  3

 62
   256
 51
90.0
 52
90.0
 71
     2
 49
0.5
 62
   256
  6
BYLAYER
 49
-0.5
 62
   256
  6
BYLAYER
  0
ACDBPLACEHOLDER
  5
A9A3
102
{ACAD_REACTORS
330
A9A2
102
}
330
A9A2
  0
SCALE
  5
A9DA
102
{ACAD_REACTORS
330
A9D9
102
}
330
A9D9
100
AcDbScale
 70
     0
300
1:1
140
1.0
141
1.0
290
     1
  0
SCALE
  5
A9DB
102
{ACAD_REACTORS
330
A9D9
102
}
330
A9D9
100
AcDbScale
 70
     0
300
1/128" = 1'-0"
140
0.0078125
141
12.0
290
     0
  0
SCALE
  5
A9DC
102
{ACAD_REACTORS
330
A9D9
102
}
330
A9D9
100
AcDbScale
 70
     0
300
1/64" = 1'-0"
140
0.015625
141
12.0
290
     0
  0
SCALE
  5
A9DD
102
{ACAD_REACTORS
330
A9D9
102
}
330
A9D9
100
AcDbScale
 70
     0
300
1/32" = 1'-0"
140
0.03125
141
12.0
290
     0
  0
SCALE
  5
A9DE
102
{ACAD_REACTORS
330
A9D9
102
}
330
A9D9
100
AcDbScale
 70
     0
300
1/16" = 1'-0"
140
0.0625
141
12.0
290
     0
  0
SCALE
  5
A9DF
102
{ACAD_REACTORS
330
A9D9
102
}
330
A9D9
100
AcDbScale
 70
     0
300
3/32" = 1'-0"
140
0.09375
141
12.0
290
     0
  0
SCALE
  5
A9E0
102
{ACAD_REACTORS
330
A9D9
102
}
330
A9D9
100
AcDbScale
 70
     0
300
1/8" = 1'-0"
140
0.125
141
12.0
290
     0
  0
SCALE
  5
A9E1
102
{ACAD_REACTORS
330
A9D9
102
}
330
A9D9
100
AcDbScale
 70
     0
300
3/16" = 1'-0"
140
0.1875
141
12.0
290
     0
  0
SCALE
  5
A9E2
102
{ACAD_REACTORS
330
A9D9
102
}
330
A9D9
100
AcDbScale
 70
     0
300
1/4" = 1'-0"
140
0.25
141
12.0
290
     0
  0
SCALE
  5
A9E3
102
{ACAD_REACTORS
330
A9D9
102
}
330
A9D9
100
AcDbScale
 70
     0
300
3/8" = 1'-0"
140
0.375
141
12.0
290
     0
  0
SCALE
  5
A9E4
102
{ACAD_REACTORS
330
A9D9
102
}
330
A9D9
100
AcDbScale
 70
     0
300
1/2" = 1'-0"
140
0.5
141
12.0
290
     0
  0
SCALE
  5
A9E5
102
{ACAD_REACTORS
330
A9D9
102
}
330
A9D9
100
AcDbScale
 70
     0
300
3/4" = 1'-0"
140
0.75
141
12.0
290
     0
  0
SCALE
  5
A9E6
102
{ACAD_REACTORS
330
A9D9
102
}
330
A9D9
100
AcDbScale
 70
     0
300
1" = 1'-0"
140
1.0
141
12.0
290
     0
  0
SCALE
  5
A9E7
102
{ACAD_REACTORS
330
A9D9
102
}
330
A9D9
100
AcDbScale
 70
     0
300
1-1/2" = 1'-0"
140
1.5
141
12.0
290
     0
  0
SCALE
  5
A9E8
102
{ACAD_REACTORS
330
A9D9
102
}
330
A9D9
100
AcDbScale
 70
     0
300
3" = 1'-0"
140
3.0
141
12.0
290
     0
  0
SCALE
  5
A9E9
102
{ACAD_REACTORS
330
A9D9
102
}
330
A9D9
100
AcDbScale
 70
     0
300
6" = 1'-0"
140
6.0
141
12.0
290
     0
  0
SCALE
  5
A9EA
102
{ACAD_REACTORS
330
A9D9
102
}
330
A9D9
100
AcDbScale
 70
     0
300
1'-0" = 1'-0"
140
12.0
141
12.0
290
     0
  0
ACDBSECTIONVIEWSTYLE
  5
A9EE
102
{ACAD_XDICTIONARY
360
AA48
102
}
102
{ACAD_REACTORS
330
A9ED
102
}
330
A9ED
100
AcDbModelDocViewStyle
 70
     0
  3
Imperial24
290
     0
100
AcDbSectionViewStyle
 70
     0
 71
     0
 90
       78
 71
     1
340
F
 40
0.24
340
0
340
0
 40
0.24
300
I, O, Q, S, X, Z
 40
0.48
 90
        3
 40
0.18
 90
        1
 71
     2
340
14
 90
       25
340
14
 90
       50
 40
0.24
 40
0.0
 40
0.24
 71
     3
340
F
 40
0.24
 90
        1
 40
0.75
 90
        1
300
%<\AcVar ViewType \f "%tc1">% %<\AcVar ViewSectionStartId>%-%<\AcVar ViewSectionEndId>%\PSCALE %<\AcVar ViewScale \f "%sn">%
 71
     4
300
ANSI31
 40
1.0
 90
        0
290
     0
290
     0
 90
        6
 40
0.0
 40
1.570796326794896
 40
0.2617993877991494
 40
1.308996938995747
 40
-0.2617993877991494
 40
1.832595714594046
  0
TABLESTYLE
  5
A9D8
102
{ACAD_XDICTIONARY
360
AA0F
102
}
102
{ACAD_REACTORS
330
A9D7
102
}
330
A9D7
100
AcDbTableStyle
  3
Standard
 70
     0
 71
     0
 40
0.06
 41
0.06
280
     0
281
     0
  7
STANDARD
140
0.18
170
     2
 62
     0
 63
     7
283
     0
274
    -2
284
     1
 64
     0
275
    -2
285
     1
 65
     0
276
    -2
286
     1
 66
     0
277
    -2
287
     1
 67
     0
278
    -2
288
     1
 68
     0
279
    -2
289
     1
 69
     0
  7
STANDARD
140
0.25
170
     5
 62
     0
 63
     7
283
     0
274
    -2
284
     1
 64
     0
275
    -2
285
     1
 65
     0
276
    -2
286
     1
 66
     0
277
    -2
287
     1
 67
     0
278
    -2
288
     1
 68
     0
279
    -2
289
     1
 69
     0
  7
STANDARD
140
0.18
170
     5
 62
     0
 63
     7
283
     0
274
    -2
284
     1
 64
     0
275
    -2
285
     1
 65
     0
276
    -2
286
     1
 66
     0
277
    -2
287
     1
 67
     0
278
    -2
288
     1
 68
     0
279
    -2
289
     1
 69
     0
  0
VISUALSTYLE
  5
A9C3
102
{ACAD_XDICTIONARY
360
AA20
102
}
102
{ACAD_REACTORS
330
A9BD
102
}
330
A9BD
100
AcDbVisualStyle
  2
2dWireframe
 70
     4
 71
     0
 72
     2
 73
     0
 90
        0
 40
-0.6
 41
-30.0
 62
     5
 63
     7
 74
     1
 91
        4
 64
     7
 65
   257
 75
     1
175
     1
 42
1.0
 92
        0
 66
   257
 43
1.0
 76
     1
 77
     6
 78
     2
 67
     7
 79
     5
170
     0
171
     0
290
     0
174
     0
 93
        1
 44
0.0
173
     0
291
     0
 45
0.0
1001
ACAD
1000
AcDbSavedByObjectVersion
1070
     0
  0
VISUALSTYLE
  5
A9C2
102
{ACAD_XDICTIONARY
360
AA1E
102
}
102
{ACAD_REACTORS
330
A9BD
102
}
330
A9BD
100
AcDbVisualStyle
  2
Basic
 70
     7
 71
     1
 72
     0
 73
     1
 90
        0
 40
-0.6
 41
-30.0
 62
     5
 63
     7
 74
     0
 91
        4
 64
     7
 65
   257
 75
     1
175
     1
 42
1.0
 92
        8
 66
     7
 43
1.0
 76
     1
 77
     6
 78
     2
 67
     7
 79
     5
170
     0
171
     0
290
     0
174
     0
 93
        1
 44
0.0
173
     0
291
     1
 45
0.0
1001
ACAD
1000
AcDbSavedByObjectVersion
1070
     0
  0
VISUALSTYLE
  5
A9C9
102
{ACAD_XDICTIONARY
360
AA2C
102
}
102
{ACAD_REACTORS
330
A9BD
102
}
330
A9BD
100
AcDbVisualStyle
  2
Brighten
 70
    12
 71
     2
 72
     2
 73
     0
 90
        0
 40
-0.6
 41
-30.0
 62
     5
 63
     7
 74
     1
 91
        4
 64
     7
 65
   257
 75
     1
175
     1
 42
1.0
 92
        8
 66
     7
 43
1.0
 76
     1
 77
     6
 78
     2
 67
     7
 79
     5
170
     0
171
     0
290
     0
174
     0
 93
        1
 44
50.0
173
     0
291
     1
 45
0.0
1001
ACAD
1000
AcDbSavedByObjectVersion
1070
     0
  0
VISUALSTYLE
  5
A9CD
102
{ACAD_XDICTIONARY
360
AA34
102
}
102
{ACAD_REACTORS
330
A9BD
102
}
330
A9BD
100
AcDbVisualStyle
  2
ColorChange
 70
    16
 71
     2
 72
     2
 73
     3
 90
        0
 40
-0.6
 41
-30.0
 62
     5
 63
     8
 74
     1
 91
        4
 64
     7
 65
   257
 75
     1
175
     1
 42
1.0
 92
        8
 66
     8
 43
1.0
 76
     1
 77
     6
 78
     2
 67
     7
 79
     5
170
     0
171
     0
290
     0
174
     0
 93
        1
 44
0.0
173
     0
291
     1
 45
0.0
1001
ACAD
1000
AcDbSavedByObjectVersion
1070
     0
  0
VISUALSTYLE
  5
A9C6
102
{ACAD_XDICTIONARY
360
AA26
102
}
102
{ACAD_REACTORS
330
A9BD
102
}
330
A9BD
100
AcDbVisualStyle
  2
Conceptual
 70
     9
 71
     3
 72
     2
 73
     0
 90
        0
 40
-0.6
 41
-30.0
 62
     5
 63
     7
 74
     2
 91
        2
 64
     7
 65
   257
 75
     1
175
     1
 42
179.0
 92
        8
 66
     7
 43
1.0
 76
     1
 77
     6
 78
     2
 67
     7
 79
     3
170
     0
171
     0
290
     0
174
     0
 93
        1
 44
0.0
173
     0
291
     0
 45
0.0
1001
ACAD
1000
AcDbSavedByObjectVersion
1070
     0
  0
VISUALSTYLE
  5
A9C8
102
{ACAD_XDICTIONARY
360
AA2A
102
}
102
{ACAD_REACTORS
330
A9BD
102
}
330
A9BD
100
AcDbVisualStyle
  2
Dim
 70
    11
 71
     2
 72
     2
 73
     0
 90
        0
 40
-0.6
 41
-30.0
 62
     5
 63
     7
 74
     1
 91
        4
 64
     7
 65
   257
 75
     1
175
     1
 42
1.0
 92
        8
 66
     7
 43
1.0
 76
     1
 77
     6
 78
     2
 67
     7
 79
     5
170
     0
171
     0
290
     0
174
     0
 93
        1
 44
-50.0
173
     0
291
     1
 45
0.0
1001
ACAD
1000
AcDbSavedByObjectVersion
1070
     0
  0
VISUALSTYLE
  5
A9D5
102
{ACAD_XDICTIONARY
360
AA44
102
}
102
{ACAD_REACTORS
330
A9BD
102
}
330
A9BD
100
AcDbVisualStyle
  2
EdgeColorOff
 70
    22
 71
     2
 72
     2
 73
     0
 90
        0
 40
-0.6
 41
-30.0
 62
     5
 63
     7
 74
     1
 91
        4
 64
     7
 65
   257
 75
     1
175
     1
 42
1.0
 92
        8
 66
     7
 43
1.0
 76
     1
 77
     6
 78
     2
 67
     7
 79
     5
170
     0
171
     0
290
     0
174
     0
 93
        1
 44
0.0
173
     0
291
     1
 45
0.0
1001
ACAD
1000
AcDbSavedByObjectVersion
1070
     0
  0
VISUALSTYLE
  5
A9CC
102
{ACAD_XDICTIONARY
360
AA32
102
}
102
{ACAD_REACTORS
330
A9BD
102
}
330
A9BD
100
AcDbVisualStyle
  2
Facepattern
 70
    15
 71
     2
 72
     2
 73
     0
 90
        0
 40
-0.6
 41
-30.0
 62
     5
 63
     7
 74
     1
 91
        4
 64
     7
 65
   257
 75
     1
175
     1
 42
1.0
 92
        8
 66
     7
 43
1.0
 76
     1
 77
     6
 78
     2
 67
     7
 79
     5
170
     0
171
     0
290
     0
174
     0
 93
        1
 44
0.0
173
     0
291
     1
 45
0.0
1001
ACAD
1000
AcDbSavedByObjectVersion
1070
     0
  0
VISUALSTYLE
  5
A9BE
102
{ACAD_XDICTIONARY
360
AA16
102
}
102
{ACAD_REACTORS
330
A9BD
102
}
330
A9BD
100
AcDbVisualStyle
  2
Flat
 70
     0
 71
     2
 72
     1
 73
     1
 90
        2
 40
-0.6
 41
30.0
 62
     5
 63
     7
 74
     0
 91
        0
 64
     7
 65
   257
 75
     1
175
     1
 42
1.0
 92
        8
 66
     7
 43
1.0
 76
     1
 77
     6
 78
     2
 67
     7
 79
     5
170
     0
171
     0
290
     0
174
     0
 93
       13
 44
0.0
173
     0
291
     1
 45
0.0
1001
ACAD
1000
AcDbSavedByObjectVersion
1070
     0
  0
VISUALSTYLE
  5
A9BF
102
{ACAD_XDICTIONARY
360
AA18
102
}
102
{ACAD_REACTORS
330
A9BD
102
}
330
A9BD
100
AcDbVisualStyle
  2
FlatWithEdges
 70
     1
 71
     2
 72
     1
 73
     1
 90
        2
 40
-0.6
 41
30.0
 62
     5
 63
     7
 74
     1
 91
        0
 64
     7
 65
   257
 75
     1
175
     1
 42
1.0
 92
        0
 66
   257
 43
1.0
 76
     1
 77
     6
 78
     2
 67
     7
 79
     5
170
     0
171
     0
290
     0
174
     0
 93
       13
 44
0.0
173
     0
291
     1
 45
0.0
1001
ACAD
1000
AcDbSavedByObjectVersion
1070
     0
  0
VISUALSTYLE
  5
A9C0
102
{ACAD_XDICTIONARY
360
AA1A
102
}
102
{ACAD_REACTORS
330
A9BD
102
}
330
A9BD
100
AcDbVisualStyle
  2
Gouraud
 70
     2
 71
     2
 72
     2
 73
     1
 90
        2
 40
-0.6
 41
30.0
 62
     5
 63
     7
 74
     0
 91
        0
 64
     7
 65
   257
 75
     1
175
     1
 42
1.0
 92
        0
 66
     7
 43
1.0
 76
     1
 77
     6
 78
     2
 67
     7
 79
     5
170
     0
171
     0
290
     0
174
     0
 93
       13
 44
0.0
173
     0
291
     1
 45
0.0
1001
ACAD
1000
AcDbSavedByObjectVersion
1070
     0
  0
VISUALSTYLE
  5
A9C1
102
{ACAD_XDICTIONARY
360
AA1C
102
}
102
{ACAD_REACTORS
330
A9BD
102
}
330
A9BD
100
AcDbVisualStyle
  2
GouraudWithEdges
 70
     3
 71
     2
 72
     2
 73
     1
 90
        2
 40
-0.6
 41
30.0
 62
     5
 63
     7
 74
     1
 91
        0
 64
     7
 65
   257
 75
     1
175
     1
 42
1.0
 92
        0
 66
   257
 43
1.0
 76
     1
 77
     6
 78
     2
 67
     7
 79
     5
170
     0
171
     0
290
     0
174
     0
 93
       13
 44
0.0
173
     0
291
     1
 45
0.0
1001
ACAD
1000
AcDbSavedByObjectVersion
1070
     0
  0
VISUALSTYLE
  5
A9C5
102
{ACAD_XDICTIONARY
360
AA24
102
}
102
{ACAD_REACTORS
330
A9BD
102
}
330
A9BD
100
AcDbVisualStyle
  2
Hidden
 70
     6
 71
     1
 72
     2
 73
     2
 90
        0
 40
-0.6
 41
-30.0
 62
     5
 63
     7
 74
     2
 91
        2
 64
     7
 65
   257
 75
     2
175
     1
 42
40.0
 92
        0
 66
   257
 43
1.0
 76
     1
 77
     6
 78
     2
 67
     7
 79
     3
170
     0
171
     0
290
     0
174
     0
 93
        1
 44
0.0
173
     0
291
     0
 45
0.0
1001
ACAD
1000
AcDbSavedByObjectVersion
1070
     0
  0
VISUALSTYLE
  5
A9D3
102
{ACAD_XDICTIONARY
360
AA40
102
}
102
{ACAD_REACTORS
330
A9BD
102
}
330
A9BD
100
AcDbVisualStyle
  2
JitterOff
 70
    20
 71
     2
 72
     2
 73
     0
 90
        0
 40
-0.6
 41
-30.0
 62
     5
 63
     7
 74
     1
 91
        4
 64
     7
 65
   257
 75
     1
175
     1
 42
1.0
 92
       10
 66
     7
 43
1.0
 76
     1
 77
     6
 78
     2
 67
     7
 79
     5
170
     0
171
     0
290
     0
174
     0
 93
        1
 44
0.0
173
     0
291
     1
 45
0.0
1001
ACAD
1000
AcDbSavedByObjectVersion
1070
     0
  0
VISUALSTYLE
  5
A9CB
102
{ACAD_XDICTIONARY
360
AA30
102
}
102
{ACAD_REACTORS
330
A9BD
102
}
330
A9BD
100
AcDbVisualStyle
  2
Linepattern
 70
    14
 71
     2
 72
     2
 73
     0
 90
        0
 40
-0.6
 41
-30.0
 62
     5
 63
     7
 74
     1
 91
        4
 64
     7
 65
   257
 75
     7
175
     7
 42
1.0
 92
        8
 66
     7
 43
1.0
 76
     1
 77
     6
 78
     2
 67
     7
 79
     5
170
     0
171
     0
290
     0
174
     0
 93
        1
 44
0.0
173
     0
291
     1
 45
0.0
1001
ACAD
1000
AcDbSavedByObjectVersion
1070
     0
  0
VISUALSTYLE
  5
A9D4
102
{ACAD_XDICTIONARY
360
AA42
102
}
102
{ACAD_REACTORS
330
A9BD
102
}
330
A9BD
100
AcDbVisualStyle
  2
OverhangOff
 70
    21
 71
     2
 72
     2
 73
     0
 90
        0
 40
-0.6
 41
-30.0
 62
     5
 63
     7
 74
     1
 91
        4
 64
     7
 65
   257
 75
     1
175
     1
 42
1.0
 92
        9
 66
     7
 43
1.0
 76
     1
 77
     6
 78
     2
 67
     7
 79
     5
170
     0
171
     0
290
     0
174
     0
 93
        1
 44
0.0
173
     0
291
     1
 45
0.0
1001
ACAD
1000
AcDbSavedByObjectVersion
1070
     0
  0
VISUALSTYLE
  5
A9C7
102
{ACAD_XDICTIONARY
360
AA28
102
}
102
{ACAD_REACTORS
330
A9BD
102
}
330
A9BD
100
AcDbVisualStyle
  2
Realistic
 70
     8
 71
     2
 72
     3
 73
     0
 90
        2
 40
-0.6
 41
30.0
 62
     5
 63
     7
 74
     0
 91
        0
 64
     7
 65
   257
 75
     1
175
     1
 42
1.0
 92
        8
 66
   257
 43
1.0
 76
     1
 77
     6
 78
     2
 67
     7
 79
     3
170
     0
171
     0
290
     0
174
     0
 93
       13
 44
0.0
173
     0
291
     0
 45
0.0
1001
ACAD
1000
AcDbSavedByObjectVersion
1070
     0
  0
VISUALSTYLE
  5
A9D2
102
{ACAD_XDICTIONARY
360
AA3E
102
}
102
{ACAD_REACTORS
330
A9BD
102
}
330
A9BD
100
AcDbVisualStyle
  2
Shaded
 70
    27
 71
     2
 72
     2
 73
     1
 90
        2
 40
-0.6
 41
30.0
 62
     5
 63
     7
 74
     0
 91
        4
 64
     7
 65
   257
 75
     1
175
     1
 42
1.0
 92
        8
 66
   257
 43
1.0
 76
     1
 77
     6
 78
     2
 67
     8
 79
     3
170
     0
171
     0
290
     0
174
     0
 93
        5
 44
0.0
173
     0
291
     0
 45
0.0
1001
ACAD
1000
AcDbSavedByObjectVersion
1070
     0
  0
VISUALSTYLE
  5
A9D1
102
{ACAD_XDICTIONARY
360
AA3C
102
}
102
{ACAD_REACTORS
330
A9BD
102
}
330
A9BD
100
AcDbVisualStyle
  2
Shaded with edges
 70
    26
 71
     2
 72
     2
 73
     1
 90
        2
 40
-0.6
 41
30.0
 62
     5
 63
     7
 74
     1
 91
       10
 64
     7
 65
   257
 75
     2
175
     1
 42
1.0
 92
        8
 66
   257
 43
1.0
 76
     1
 77
     6
 78
     2
 67
     7
 79
     3
170
     0
171
     0
290
     0
174
     0
 93
        5
 44
0.0
173
     0
291
     0
 45
0.0
1001
ACAD
1000
AcDbSavedByObjectVersion
1070
     0
  0
VISUALSTYLE
  5
A9CE
102
{ACAD_XDICTIONARY
360
AA36
102
}
102
{ACAD_REACTORS
330
A9BD
102
}
330
A9BD
100
AcDbVisualStyle
  2
Shades of Gray
 70
    23
 71
     2
 72
     2
 73
     3
 90
        0
 40
-0.6
 41
-30.0
 62
     5
 63
     7
 74
     2
 91
        2
 64
     7
 65
     7
 75
     1
175
     1
 42
40.0
 92
        8
 66
     7
 43
1.0
 76
     1
 77
     6
 78
     2
 67
     7
 79
     3
170
     0
171
     0
290
     0
174
     0
 93
        1
 44
0.0
173
     0
291
     0
 45
0.0
1001
ACAD
1000
AcDbSavedByObjectVersion
1070
     0
  0
VISUALSTYLE
  5
A9CF
102
{ACAD_XDICTIONARY
360
AA38
102
}
102
{ACAD_REACTORS
330
A9BD
102
}
330
A9BD
100
AcDbVisualStyle
  2
Sketchy
 70
    24
 71
     1
 72
     2
 73
     2
 90
        0
 40
-0.6
 41
-30.0
 62
     5
 63
     7
 74
     2
 91
        2
 64
     7
 65
     7
 75
     1
175
     1
 42
40.0
 92
       11
 66
     7
 43
1.0
 76
     1
 77
     6
 78
     2
 67
     7
 79
     6
170
     0
171
     0
290
     0
174
     0
 93
        1
 44
0.0
173
     0
291
     0
 45
0.0
1001
ACAD
1000
AcDbSavedByObjectVersion
1070
     0
  0
VISUALSTYLE
  5
A9CA
102
{ACAD_XDICTIONARY
360
AA2E
102
}
102
{ACAD_REACTORS
330
A9BD
102
}
330
A9BD
100
AcDbVisualStyle
  2
Thicken
 70
    13
 71
     2
 72
     2
 73
     0
 90
        0
 40
-0.6
 41
-30.0
 62
     5
 63
     7
 74
     1
 91
        4
 64
     7
 65
   257
 75
     1
175
     1
 42
1.0
 92
       12
 66
     7
 43
1.0
 76
     1
 77
     6
 78
     2
 67
     7
 79
     5
170
     0
171
     0
290
     0
174
     0
 93
        1
 44
0.0
173
     0
291
     1
 45
0.0
1001
ACAD
1000
AcDbSavedByObjectVersion
1070
     0
  0
VISUALSTYLE
  5
A9C4
102
{ACAD_XDICTIONARY
360
AA22
102
}
102
{ACAD_REACTORS
330
A9BD
102
}
330
A9BD
100
AcDbVisualStyle
  2
Wireframe
 70
     5
 71
     0
 72
     2
 73
     0
 90
        0
 40
-0.6
 41
-30.0
 62
     5
 63
     7
 74
     1
 91
        4
 64
     7
 65
   257
 75
     1
175
     1
 42
1.0
 92
        0
 66
   257
 43
1.0
 76
     1
 77
     6
 78
     2
 67
     7
 79
     3
170
     0
171
     0
290
     0
174
     0
 93
        1
 44
0.0
173
     0
291
     0
 45
0.0
1001
ACAD
1000
AcDbSavedByObjectVersion
1070
     0
  0
VISUALSTYLE
  5
A9D0
102
{ACAD_XDICTIONARY
360
AA3A
102
}
102
{ACAD_REACTORS
330
A9BD
102
}
330
A9BD
100
AcDbVisualStyle
  2
X-Ray
 70
    25
 71
     2
 72
     2
 73
     1
 90
        1
 40
0.5
 41
-30.0
 62
     5
 63
     7
 74
     1
 91
        0
 64
     7
 65
   257
 75
     1
175
     1
 42
1.0
 92
        8
 66
     7
 43
1.0
 76
     1
 77
     6
 78
     2
 67
     7
 79
     3
170
     0
171
     0
290
     0
174
     0
 93
       13
 44
0.0
173
     0
291
     0
 45
0.0
1001
ACAD
1000
AcDbSavedByObjectVersion
1070
     0
  0
DICTIONARYVAR
  5
AA09
102
{ACAD_REACTORS
330
AA04
102
}
330
AA04
100
DictionaryVariables
280
     0
  1
1:1
  0
DICTIONARYVAR
  5
AA06
102
{ACAD_REACTORS
330
AA04
102
}
330
AA04
100
DictionaryVariables
280
     0
  1
STANDARD
  0
DICTIONARYVAR
  5
AA05
102
{ACAD_REACTORS
330
AA04
102
}
330
AA04
100
DictionaryVariables
280
     0
  1
STANDARD
  0
DICTIONARYVAR
  5
AA07
102
{ACAD_REACTORS
330
AA04
102
}
330
AA04
100
DictionaryVariables
280
     0
  1
Imperial24
  0
DICTIONARYVAR
  5
AA08
102
{ACAD_REACTORS
330
AA04
102
}
330
AA04
100
DictionaryVariables
280
     0
  1
Imperial24
  0
DICTIONARYVAR
  5
AA0C
102
{ACAD_REACTORS
330
AA04
102
}
330
AA04
100
DictionaryVariables
280
     0
  1
1
  0
DICTIONARYVAR
  5
AA0B
102
{ACAD_REACTORS
330
AA04
102
}
330
AA04
100
DictionaryVariables
280
     0
  1
0
  0
DICTIONARYVAR
  5
AA0A
102
{ACAD_REACTORS
330
AA04
102
}
330
AA04
100
DictionaryVariables
280
     0
  1
127
  0
DICTIONARYVAR
  5
AA0D
102
{ACAD_REACTORS
330
AA04
102
}
330
AA04
100
DictionaryVariables
280
     0
  1
2
  0
DICTIONARY
  5
AA4A
330
A9F0
100
AcDbDictionary
280
     1
281
     1
  3
ACAD_XREC_ROUNDTRIP
360
AA4B
  0
DICTIONARY
  5
AA4C
330
A9F1
100
AcDbDictionary
280
     1
281
     1
  3
ACAD_XREC_ROUNDTRIP
360
AA4D
  0
DICTIONARY
  5
AA4E
330
A9F2
100
AcDbDictionary
280
     1
281
     1
  3
ACAD_XREC_ROUNDTRIP
360
AA4F
  0
DICTIONARY
  5
A9AE
330
A9AD
100
AcDbDictionary
280
     1
281
     1
  3
ACAD_XREC_ROUNDTRIP
360
AA14
  3
BUMPTILE
360
A9B0
  3
DIFFUSETILE
360
A9AF
  3
OPACITYTILE
360
A9B3
  3
REFLECTIONTILE
360
A9B2
  3
REFRACTIONTILE
360
A9B4
  3
SPECULARTILE
360
A9B1
  0
DICTIONARY
  5
A9A6
330
A9A5
100
AcDbDictionary
280
     1
281
     1
  3
ACAD_XREC_ROUNDTRIP
360
AA13
  3
BUMPTILE
360
A9A8
  3
DIFFUSETILE
360
A9A7
  3
OPACITYTILE
360
A9AB
  3
REFLECTIONTILE
360
A9AA
  3
REFRACTIONTILE
360
A9AC
  3
SPECULARTILE
360
A9A9
  0
DICTIONARY
  5
A9B6
330
A9B5
100
AcDbDictionary
280
     1
281
     1
  3
ACAD_XREC_ROUNDTRIP
360
AA15
  3
BUMPTILE
360
A9B8
  3
DIFFUSETILE
360
A9B7
  3
OPACITYTILE
360
A9BB
  3
REFLECTIONTILE
360
A9BA
  3
REFRACTIONTILE
360
A9BC
  3
SPECULARTILE
360
A9B9
  0
DICTIONARY
  5
AA48
330
A9EE
100
AcDbDictionary
280
     1
281
     1
  3
ACAD_XREC_ROUNDTRIP
360
AA49
  0
DICTIONARY
  5
AA0F
330
A9D8
100
AcDbDictionary
280
     1
281
     1
  3
ACAD_ROUNDTRIP_2008_TABLESTYLE_CELLSTYLEMAP
360
AA10
  3
ACAD_XREC_ROUNDTRIP
360
AA46
  0
DICTIONARY
  5
AA20
330
A9C3
100
AcDbDictionary
280
     1
281
     1
  3
ACAD_XREC_ROUNDTRIP
360
AA21
  0
DICTIONARY
  5
AA1E
330
A9C2
100
AcDbDictionary
280
     1
281
     1
  3
ACAD_XREC_ROUNDTRIP
360
AA1F
  0
DICTIONARY
  5
AA2C
330
A9C9
100
AcDbDictionary
280
     1
281
     1
  3
ACAD_XREC_ROUNDTRIP
360
AA2D
  0
DICTIONARY
  5
AA34
330
A9CD
100
AcDbDictionary
280
     1
281
     1
  3
ACAD_XREC_ROUNDTRIP
360
AA35
  0
DICTIONARY
  5
AA26
330
A9C6
100
AcDbDictionary
280
     1
281
     1
  3
ACAD_XREC_ROUNDTRIP
360
AA27
  0
DICTIONARY
  5
AA2A
330
A9C8
100
AcDbDictionary
280
     1
281
     1
  3
ACAD_XREC_ROUNDTRIP
360
AA2B
  0
DICTIONARY
  5
AA44
330
A9D5
100
AcDbDictionary
280
     1
281
     1
  3
ACAD_XREC_ROUNDTRIP
360
AA45
  0
DICTIONARY
  5
AA32
330
A9CC
100
AcDbDictionary
280
     1
281
     1
  3
ACAD_XREC_ROUNDTRIP
360
AA33
  0
DICTIONARY
  5
AA16
330
A9BE
100
AcDbDictionary
280
     1
281
     1
  3
ACAD_XREC_ROUNDTRIP
360
AA17
  0
DICTIONARY
  5
AA18
330
A9BF
100
AcDbDictionary
280
     1
281
     1
  3
ACAD_XREC_ROUNDTRIP
360
AA19
  0
DICTIONARY
  5
AA1A
330
A9C0
100
AcDbDictionary
280
     1
281
     1
  3
ACAD_XREC_ROUNDTRIP
360
AA1B
  0
DICTIONARY
  5
AA1C
330
A9C1
100
AcDbDictionary
280
     1
281
     1
  3
ACAD_XREC_ROUNDTRIP
360
AA1D
  0
DICTIONARY
  5
AA24
330
A9C5
100
AcDbDictionary
280
     1
281
     1
  3
ACAD_XREC_ROUNDTRIP
360
AA25
  0
DICTIONARY
  5
AA40
330
A9D3
100
AcDbDictionary
280
     1
281
     1
  3
ACAD_XREC_ROUNDTRIP
360
AA41
  0
DICTIONARY
  5
AA30
330
A9CB
100
AcDbDictionary
280
     1
281
     1
  3
ACAD_XREC_ROUNDTRIP
360
AA31
  0
DICTIONARY
  5
AA42
330
A9D4
100
AcDbDictionary
280
     1
281
     1
  3
ACAD_XREC_ROUNDTRIP
360
AA43
  0
DICTIONARY
  5
AA28
330
A9C7
100
AcDbDictionary
280
     1
281
     1
  3
ACAD_XREC_ROUNDTRIP
360
AA29
  0
DICTIONARY
  5
AA3E
330
A9D2
100
AcDbDictionary
280
     1
281
     1
  3
ACAD_XREC_ROUNDTRIP
360
AA3F
  0
DICTIONARY
  5
AA3C
330
A9D1
100
AcDbDictionary
280
     1
281
     1
  3
ACAD_XREC_ROUNDTRIP
360
AA3D
  0
DICTIONARY
  5
AA36
330
A9CE
100
AcDbDictionary
280
     1
281
     1
  3
ACAD_XREC_ROUNDTRIP
360
AA37
  0
DICTIONARY
  5
AA38
330
A9CF
100
AcDbDictionary
280
     1
281
     1
  3
ACAD_XREC_ROUNDTRIP
360
AA39
  0
DICTIONARY
  5
AA2E
330
A9CA
100
AcDbDictionary
280
     1
281
     1
  3
ACAD_XREC_ROUNDTRIP
360
AA2F
  0
DICTIONARY
  5
AA22
330
A9C4
100
AcDbDictionary
280
     1
281
     1
  3
ACAD_XREC_ROUNDTRIP
360
AA23
  0
DICTIONARY
  5
AA3A
330
A9D0
100
AcDbDictionary
280
     1
281
     1
  3
ACAD_XREC_ROUNDTRIP
360
AA3B
  0
XRECORD
  5
AA4B
102
{ACAD_REACTORS
330
AA4A
102
}
330
AA4A
100
AcDbXrecord
280
     1
102
DISPLAYNAME
  1
Imperial24
102
FLAGS
 90
        0
  0
XRECORD
  5
AA4D
102
{ACAD_REACTORS
330
AA4C
102
}
330
AA4C
100
AcDbXrecord
280
     1
102
SHADEPLOT
 70
     0
102
SHADEPLOTRESLEVEL
 70
     2
102
SHADEPLOTCUSTOMDPI
 70
   300
  0
XRECORD
  5
AA4F
102
{ACAD_REACTORS
330
AA4E
102
}
330
AA4E
100
AcDbXrecord
280
     1
102
SHADEPLOT
 70
     0
102
SHADEPLOTRESLEVEL
 70
     2
102
SHADEPLOTCUSTOMDPI
 70
   300
  0
XRECORD
  5
AA14
102
{ACAD_REACTORS
330
A9AE
102
}
330
A9AE
100
AcDbXrecord
280
     1
102
MATERIAL
148
0.0
149
0.0
149
0.0
 93
        0
 94
      127
282
     0
 72
     0
 77
     0
171
     0
175
     0
179
     0
273
     0
  0
XRECORD
  5
A9B0
102
{ACAD_REACTORS
330
A9AE
102
}
330
A9AE
100
AcDbXrecord
280
     1
270
     1
271
     1
  0
XRECORD
  5
A9AF
102
{ACAD_REACTORS
330
A9AE
102
}
330
A9AE
100
AcDbXrecord
280
     1
270
     1
271
     1
  0
XRECORD
  5
A9B3
102
{ACAD_REACTORS
330
A9AE
102
}
330
A9AE
100
AcDbXrecord
280
     1
270
     1
271
     1
  0
XRECORD
  5
A9B2
102
{ACAD_REACTORS
330
A9AE
102
}
330
A9AE
100
AcDbXrecord
280
     1
270
     1
271
     1
  0
XRECORD
  5
A9B4
102
{ACAD_REACTORS
330
A9AE
102
}
330
A9AE
100
AcDbXrecord
280
     1
270
     1
271
     1
  0
XRECORD
  5
A9B1
102
{ACAD_REACTORS
330
A9AE
102
}
330
A9AE
100
AcDbXrecord
280
     1
270
     1
271
     1
  0
XRECORD
  5
AA13
102
{ACAD_REACTORS
330
A9A6
102
}
330
A9A6
100
AcDbXrecord
280
     1
102
MATERIAL
148
0.0
149
0.0
149
0.0
 93
        0
 94
      127
282
     0
 72
     0
 77
     0
171
     0
175
     0
179
     0
273
     0
  0
XRECORD
  5
A9A8
102
{ACAD_REACTORS
330
A9A6
102
}
330
A9A6
100
AcDbXrecord
280
     1
270
     1
271
     1
  0
XRECORD
  5
A9A7
102
{ACAD_REACTORS
330
A9A6
102
}
330
A9A6
100
AcDbXrecord
280
     1
270
     1
271
     1
  0
XRECORD
  5
A9AB
102
{ACAD_REACTORS
330
A9A6
102
}
330
A9A6
100
AcDbXrecord
280
     1
270
     1
271
     1
  0
XRECORD
  5
A9AA
102
{ACAD_REACTORS
330
A9A6
102
}
330
A9A6
100
AcDbXrecord
280
     1
270
     1
271
     1
  0
XRECORD
  5
A9AC
102
{ACAD_REACTORS
330
A9A6
102
}
330
A9A6
100
AcDbXrecord
280
     1
270
     1
271
     1
  0
XRECORD
  5
A9A9
102
{ACAD_REACTORS
330
A9A6
102
}
330
A9A6
100
AcDbXrecord
280
     1
270
     1
271
     1
  0
XRECORD
  5
AA15
102
{ACAD_REACTORS
330
A9B6
102
}
330
A9B6
100
AcDbXrecord
280
     1
102
MATERIAL
148
0.0
149
0.0
149
0.0
 93
        0
 94
      127
282
     0
 72
     0
 77
     0
171
     0
175
     0
179
     0
273
     0
  0
XRECORD
  5
A9B8
102
{ACAD_REACTORS
330
A9B6
102
}
330
A9B6
100
AcDbXrecord
280
     1
270
     1
271
     1
  0
XRECORD
  5
A9B7
102
{ACAD_REACTORS
330
A9B6
102
}
330
A9B6
100
AcDbXrecord
280
     1
270
     1
271
     1
  0
XRECORD
  5
A9BB
102
{ACAD_REACTORS
330
A9B6
102
}
330
A9B6
100
AcDbXrecord
280
     1
270
     1
271
     1
  0
XRECORD
  5
A9BA
102
{ACAD_REACTORS
330
A9B6
102
}
330
A9B6
100
AcDbXrecord
280
     1
270
     1
271
     1
  0
XRECORD
  5
A9BC
102
{ACAD_REACTORS
330
A9B6
102
}
330
A9B6
100
AcDbXrecord
280
     1
270
     1
271
     1
  0
XRECORD
  5
A9B9
102
{ACAD_REACTORS
330
A9B6
102
}
330
A9B6
100
AcDbXrecord
280
     1
270
     1
271
     1
  0
XRECORD
  5
AA49
102
{ACAD_REACTORS
330
AA48
102
}
330
AA48
100
AcDbXrecord
280
     1
102
DISPLAYNAME
  1
Imperial24
102
FLAGS
 90
        0
  0
CELLSTYLEMAP
  5
AA10
102
{ACAD_REACTORS
330
AA0F
102
}
330
AA0F
100
AcDbCellStyleMap
 90
        3
300
CELLSTYLE
  1
TABLEFORMAT_BEGIN
 90
        5
170
     1
 91
        0
 92
    32768
 62
   257
 93
        1
300
CONTENTFORMAT
  1
CONTENTFORMAT_BEGIN
 90
        0
 91
        0
 92
      512
 93
        0
300

 40
0.0
140
1.0
 94
        5
 62
     0
340
F
144
0.25
309
CONTENTFORMAT_END
171
     0
 94
        0
309
TABLEFORMAT_END
  1
CELLSTYLE_BEGIN
 90
        1
 91
        1
300
_TITLE
309
CELLSTYLE_END
300
CELLSTYLE
  1
TABLEFORMAT_BEGIN
 90
        5
170
     1
 91
        0
 92
        0
 62
   257
 93
        1
300
CONTENTFORMAT
  1
CONTENTFORMAT_BEGIN
 90
        0
 91
        0
 92
      512
 93
        0
300

 40
0.0
140
1.0
 94
        5
 62
     0
340
F
144
0.18
309
CONTENTFORMAT_END
171
     0
 94
        0
309
TABLEFORMAT_END
  1
CELLSTYLE_BEGIN
 90
        2
 91
        1
300
_HEADER
309
CELLSTYLE_END
300
CELLSTYLE
  1
TABLEFORMAT_BEGIN
 90
        5
170
     1
 91
        0
 92
        0
 62
   257
 93
        1
300
CONTENTFORMAT
  1
CONTENTFORMAT_BEGIN
 90
        0
 91
        0
 92
      512
 93
        0
300

 40
0.0
140
1.0
 94
        2
 62
     0
340
F
144
0.18
309
CONTENTFORMAT_END
171
     0
 94
        0
309
TABLEFORMAT_END
  1
CELLSTYLE_BEGIN
 90
        3
 91
        2
300
_DATA
309
CELLSTYLE_END
  0
XRECORD
  5
AA46
102
{ACAD_REACTORS
330
AA0F
102
}
330
AA0F
100
AcDbXrecord
280
     1
102
ACAD_ROUNDTRIP_PRE2007_TABLESTYLE
 90
      512
 91
        0
  1

 92
      512
 93
        0
  2

 94
      512
 95
        0
  3

  0
XRECORD
  5
AA21
102
{ACAD_REACTORS
330
AA20
102
}
330
AA20
100
AcDbXrecord
280
     1
102
RTVSPost2010Prop28
280
     1
102
RTVSPost2010PropOp28
 70
     1
102
RTVSPost2010Prop29
280
     1
102
RTVSPost2010PropOp29
 70
     1
102
RTVSPost2010Prop30
280
     0
102
RTVSPost2010PropOp30
 70
     1
102
RTVSPost2010Prop31
280
     0
102
RTVSPost2010PropOp31
 70
     1
102
RTVSPost2010Prop32
280
     0
102
RTVSPost2010PropOp32
 70
     1
102
RTVSPost2010Prop33
280
     0
102
RTVSPost2010PropOp33
 70
     1
102
RTVSPost2010Prop34
280
     0
102
RTVSPost2010PropOp34
 70
     1
102
RTVSPost2010Prop35
280
     0
102
RTVSPost2010PropOp35
 70
     1
102
RTVSPost2010Prop36
280
     0
102
RTVSPost2010PropOp36
 70
     1
102
RTVSPost2010Prop37
 90
       50
102
RTVSPost2010PropOp37
 70
     1
102
RTVSPost2010Prop38
140
0.0
102
RTVSPost2010PropOp38
 70
     1
102
RTVSPost2010Prop39
140
1.0
102
RTVSPost2010PropOp39
 70
     1
102
RTVSPost2010Prop40
 90
        0
102
RTVSPost2010PropOp40
 70
     1
102
RTVSPost2010Prop41ColorIndex
 90
       18
102
RTVSPost2010Prop41ColorRGB
 90
        0
102
RTVSPost2010PropOp41
 70
     1
102
RTVSPost2010Prop42
 90
       50
102
RTVSPost2010PropOp42
 70
     1
102
RTVSPost2010Prop43
 90
        3
102
RTVSPost2010PropOp43
 70
     1
102
RTVSPost2010Prop44ColorIndex
 90
        5
102
RTVSPost2010Prop44ColorRGB
 90
      255
102
RTVSPost2010PropOp44
 70
     1
102
RTVSPost2010Prop45
280
     0
102
RTVSPost2010PropOp45
 70
     1
102
RTVSPost2010Prop46
 90
       50
102
RTVSPost2010PropOp46
 70
     1
102
RTVSPost2010Prop47
 90
       50
102
RTVSPost2010PropOp47
 70
     1
102
RTVSPost2010Prop48
 90
       50
102
RTVSPost2010PropOp48
 70
     1
102
RTVSPost2010Prop49
280
     0
102
RTVSPost2010PropOp49
 70
     1
102
RTVSPost2010Prop50
 90
       50
102
RTVSPost2010PropOp50
 70
     1
102
RTVSPost2010Prop51ColorIndex
 90
      256
102
RTVSPost2010Prop51ColorRGB
 90
-16777216
102
RTVSPost2010PropOp51
 70
     0
102
RTVSPost2010Prop52
140
1.0
102
RTVSPost2010PropOp52
 70
     0
102
RTVSPost2010Prop53
 90
        2
102
RTVSPost2010PropOp53
 70
     1
102
RTVSPost2010Prop54
  1
strokes_ogs.tif
102
RTVSPost2010PropOp54
 70
     1
102
RTVSPost2010Prop55
280
     0
102
RTVSPost2010PropOp55
 70
     1
102
RTVSPost2010Prop56
140
1.0
102
RTVSPost2010PropOp56
 70
     1
102
RTVSPost2010Prop57
140
1.0
102
RTVSPost2010PropOp57
 70
     1
102
RTVSPropertyOp0
 70
     1
102
RTVSPropertyOp1
 70
     1
102
RTVSPropertyOp2
 70
     1
102
RTVSPropertyOp3
 70
     1
102
RTVSPropertyOp4
 70
     1
102
RTVSPropertyOp5
 70
     1
102
RTVSPropertyOp6
 70
     1
102
RTVSPropertyOp7
 70
     1
102
RTVSPropertyOp8
 70
     1
102
RTVSPropertyOp9
 70
     1
102
RTVSPropertyOp10
 70
     1
102
RTVSPropertyOp11
 70
     1
102
RTVSPropertyOp12
 70
     1
102
RTVSPropertyOp13
 70
     1
102
RTVSPropertyOp14
 70
     1
102
RTVSPropertyOp15
 70
     1
102
RTVSPropertyOp16
 70
     1
102
RTVSPropertyOp17
 70
     1
102
RTVSPropertyOp18
 70
     1
102
RTVSPropertyOp19
 70
     1
102
RTVSPropertyOp20
 70
     1
102
RTVSPropertyOp21
 70
     1
102
RTVSPropertyOp22
 70
     1
102
RTVSPropertyOp23
 70
     1
102
RTVSPropertyOp24
 70
     1
102
RTVSPropertyOp25
 70
     1
102
RTVSPropertyOp26
 70
     1
102
RTVSPropertyOp27
 70
     1
102
RTVSPropertyOp28
 70
     1
102
RTVSPropertyOp29
 70
     1
102
RTVSPropertyOp30
 70
     1
102
RTVSPropertyOp31
 70
     1
102
RTVSPropertyOp32
 70
     1
102
RTVSPropertyOp33
 70
     1
102
RTVSPropertyOp34
 70
     1
102
RTVSPropertyOp35
 70
     1
102
RTVSPropertyOp36
 70
     1
102
RTVSPropertyOp37
 70
     1
102
RTVSPropertyOp38
 70
     1
102
RTVSPropertyOp39
 70
     1
102
RTVSPropertyOp40
 70
     1
102
RTVSPropertyOp41
 70
     1
102
RTVSPropertyOp42
 70
     1
102
RTVSPropertyOp43
 70
     1
102
RTVSPropertyOp44
 70
     1
102
RTVSPropertyOp45
 70
     1
102
RTVSPropertyOp46
 70
     1
102
RTVSPropertyOp47
 70
     1
102
RTVSPropertyOp48
 70
     1
102
RTVSPropertyOp49
 70
     1
102
RTVSPropertyOp50
 70
     1
102
RTVSPropertyOp51
 70
     0
102
RTVSPropertyOp52
 70
     0
102
RTVSPropertyOp53
 70
     1
102
RTVSPropertyOp54
 70
     1
102
RTVSPropertyOp55
 70
     1
102
RTVSPropertyOp56
 70
     1
102
RTVSPropertyOp57
 70
     1
102
RTVSPropertyOp58
 70
     1
102
RTVSPropertyOp59
 70
     1
102
RTVSPropertyOp60
 70
     1
102
RTVSPropertyOp61
 70
     1
102
RTVSPropertyOp62
 70
     1
  0
XRECORD
  5
AA1F
102
{ACAD_REACTORS
330
AA1E
102
}
330
AA1E
100
AcDbXrecord
280
     1
102
RTVSPost2010Prop28
280
     0
102
RTVSPost2010PropOp28
 70
     1
102
RTVSPost2010Prop29
280
     1
102
RTVSPost2010PropOp29
 70
     1
102
RTVSPost2010Prop30
280
     1
102
RTVSPost2010PropOp30
 70
     1
102
RTVSPost2010Prop31
280
     0
102
RTVSPost2010PropOp31
 70
     1
102
RTVSPost2010Prop32
280
     0
102
RTVSPost2010PropOp32
 70
     1
102
RTVSPost2010Prop33
280
     0
102
RTVSPost2010PropOp33
 70
     1
102
RTVSPost2010Prop34
280
     0
102
RTVSPost2010PropOp34
 70
     1
102
RTVSPost2010Prop35
280
     0
102
RTVSPost2010PropOp35
 70
     1
102
RTVSPost2010Prop36
280
     0
102
RTVSPost2010PropOp36
 70
     1
102
RTVSPost2010Prop37
 90
       50
102
RTVSPost2010PropOp37
 70
     1
102
RTVSPost2010Prop38
140
0.0
102
RTVSPost2010PropOp38
 70
     1
102
RTVSPost2010Prop39
140
1.0
102
RTVSPost2010PropOp39
 70
     1
102
RTVSPost2010Prop40
 90
        0
102
RTVSPost2010PropOp40
 70
     1
102
RTVSPost2010Prop41ColorIndex
 90
       18
102
RTVSPost2010Prop41ColorRGB
 90
        0
102
RTVSPost2010PropOp41
 70
     1
102
RTVSPost2010Prop42
 90
       50
102
RTVSPost2010PropOp42
 70
     1
102
RTVSPost2010Prop43
 90
        3
102
RTVSPost2010PropOp43
 70
     1
102
RTVSPost2010Prop44ColorIndex
 90
        5
102
RTVSPost2010Prop44ColorRGB
 90
      255
102
RTVSPost2010PropOp44
 70
     1
102
RTVSPost2010Prop45
280
     0
102
RTVSPost2010PropOp45
 70
     1
102
RTVSPost2010Prop46
 90
       50
102
RTVSPost2010PropOp46
 70
     1
102
RTVSPost2010Prop47
 90
       50
102
RTVSPost2010PropOp47
 70
     1
102
RTVSPost2010Prop48
 90
       50
102
RTVSPost2010PropOp48
 70
     1
102
RTVSPost2010Prop49
280
     0
102
RTVSPost2010PropOp49
 70
     1
102
RTVSPost2010Prop50
 90
       50
102
RTVSPost2010PropOp50
 70
     1
102
RTVSPost2010Prop51ColorIndex
 90
      256
102
RTVSPost2010Prop51ColorRGB
 90
-16777216
102
RTVSPost2010PropOp51
 70
     0
102
RTVSPost2010Prop52
140
1.0
102
RTVSPost2010PropOp52
 70
     0
102
RTVSPost2010Prop53
 90
        2
102
RTVSPost2010PropOp53
 70
     1
102
RTVSPost2010Prop54
  1
strokes_ogs.tif
102
RTVSPost2010PropOp54
 70
     1
102
RTVSPost2010Prop55
280
     0
102
RTVSPost2010PropOp55
 70
     1
102
RTVSPost2010Prop56
140
1.0
102
RTVSPost2010PropOp56
 70
     1
102
RTVSPost2010Prop57
140
1.0
102
RTVSPost2010PropOp57
 70
     1
102
RTVSPropertyOp0
 70
     1
102
RTVSPropertyOp1
 70
     1
102
RTVSPropertyOp2
 70
     1
102
RTVSPropertyOp3
 70
     1
102
RTVSPropertyOp4
 70
     1
102
RTVSPropertyOp5
 70
     1
102
RTVSPropertyOp6
 70
     1
102
RTVSPropertyOp7
 70
     1
102
RTVSPropertyOp8
 70
     1
102
RTVSPropertyOp9
 70
     1
102
RTVSPropertyOp10
 70
     1
102
RTVSPropertyOp11
 70
     1
102
RTVSPropertyOp12
 70
     1
102
RTVSPropertyOp13
 70
     1
102
RTVSPropertyOp14
 70
     1
102
RTVSPropertyOp15
 70
     1
102
RTVSPropertyOp16
 70
     1
102
RTVSPropertyOp17
 70
     1
102
RTVSPropertyOp18
 70
     1
102
RTVSPropertyOp19
 70
     1
102
RTVSPropertyOp20
 70
     1
102
RTVSPropertyOp21
 70
     1
102
RTVSPropertyOp22
 70
     1
102
RTVSPropertyOp23
 70
     1
102
RTVSPropertyOp24
 70
     1
102
RTVSPropertyOp25
 70
     1
102
RTVSPropertyOp26
 70
     1
102
RTVSPropertyOp27
 70
     1
102
RTVSPropertyOp28
 70
     1
102
RTVSPropertyOp29
 70
     1
102
RTVSPropertyOp30
 70
     1
102
RTVSPropertyOp31
 70
     1
102
RTVSPropertyOp32
 70
     1
102
RTVSPropertyOp33
 70
     1
102
RTVSPropertyOp34
 70
     1
102
RTVSPropertyOp35
 70
     1
102
RTVSPropertyOp36
 70
     1
102
RTVSPropertyOp37
 70
     1
102
RTVSPropertyOp38
 70
     1
102
RTVSPropertyOp39
 70
     1
102
RTVSPropertyOp40
 70
     1
102
RTVSPropertyOp41
 70
     1
102
RTVSPropertyOp42
 70
     1
102
RTVSPropertyOp43
 70
     1
102
RTVSPropertyOp44
 70
     1
102
RTVSPropertyOp45
 70
     1
102
RTVSPropertyOp46
 70
     1
102
RTVSPropertyOp47
 70
     1
102
RTVSPropertyOp48
 70
     1
102
RTVSPropertyOp49
 70
     1
102
RTVSPropertyOp50
 70
     1
102
RTVSPropertyOp51
 70
     0
102
RTVSPropertyOp52
 70
     0
102
RTVSPropertyOp53
 70
     1
102
RTVSPropertyOp54
 70
     1
102
RTVSPropertyOp55
 70
     1
102
RTVSPropertyOp56
 70
     1
102
RTVSPropertyOp57
 70
     1
102
RTVSPropertyOp58
 70
     1
102
RTVSPropertyOp59
 70
     1
102
RTVSPropertyOp60
 70
     1
102
RTVSPropertyOp61
 70
     1
102
RTVSPropertyOp62
 70
     1
  0
XRECORD
  5
AA2D
102
{ACAD_REACTORS
330
AA2C
102
}
330
AA2C
100
AcDbXrecord
280
     1
102
RTVSPost2010Prop28
280
     0
102
RTVSPost2010PropOp28
 70
     1
102
RTVSPost2010Prop29
280
     1
102
RTVSPost2010PropOp29
 70
     1
102
RTVSPost2010Prop30
280
     1
102
RTVSPost2010PropOp30
 70
     1
102
RTVSPost2010Prop31
280
     0
102
RTVSPost2010PropOp31
 70
     1
102
RTVSPost2010Prop32
280
     0
102
RTVSPost2010PropOp32
 70
     1
102
RTVSPost2010Prop33
280
     0
102
RTVSPost2010PropOp33
 70
     1
102
RTVSPost2010Prop34
280
     0
102
RTVSPost2010PropOp34
 70
     1
102
RTVSPost2010Prop35
280
     0
102
RTVSPost2010PropOp35
 70
     1
102
RTVSPost2010Prop36
280
     0
102
RTVSPost2010PropOp36
 70
     1
102
RTVSPost2010Prop37
 90
       50
102
RTVSPost2010PropOp37
 70
     1
102
RTVSPost2010Prop38
140
0.0
102
RTVSPost2010PropOp38
 70
     1
102
RTVSPost2010Prop39
140
1.0
102
RTVSPost2010PropOp39
 70
     1
102
RTVSPost2010Prop40
 90
        0
102
RTVSPost2010PropOp40
 70
     1
102
RTVSPost2010Prop41ColorIndex
 90
       18
102
RTVSPost2010Prop41ColorRGB
 90
        0
102
RTVSPost2010PropOp41
 70
     1
102
RTVSPost2010Prop42
 90
       50
102
RTVSPost2010PropOp42
 70
     1
102
RTVSPost2010Prop43
 90
        3
102
RTVSPost2010PropOp43
 70
     1
102
RTVSPost2010Prop44ColorIndex
 90
        5
102
RTVSPost2010Prop44ColorRGB
 90
      255
102
RTVSPost2010PropOp44
 70
     1
102
RTVSPost2010Prop45
280
     0
102
RTVSPost2010PropOp45
 70
     1
102
RTVSPost2010Prop46
 90
       50
102
RTVSPost2010PropOp46
 70
     1
102
RTVSPost2010Prop47
 90
       50
102
RTVSPost2010PropOp47
 70
     1
102
RTVSPost2010Prop48
 90
       50
102
RTVSPost2010PropOp48
 70
     1
102
RTVSPost2010Prop49
280
     0
102
RTVSPost2010PropOp49
 70
     1
102
RTVSPost2010Prop50
 90
       50
102
RTVSPost2010PropOp50
 70
     1
102
RTVSPost2010Prop51ColorIndex
 90
      256
102
RTVSPost2010Prop51ColorRGB
 90
-16777216
102
RTVSPost2010PropOp51
 70
     0
102
RTVSPost2010Prop52
140
1.0
102
RTVSPost2010PropOp52
 70
     0
102
RTVSPost2010Prop53
 90
        2
102
RTVSPost2010PropOp53
 70
     1
102
RTVSPost2010Prop54
  1
strokes_ogs.tif
102
RTVSPost2010PropOp54
 70
     1
102
RTVSPost2010Prop55
280
     0
102
RTVSPost2010PropOp55
 70
     1
102
RTVSPost2010Prop56
140
1.0
102
RTVSPost2010PropOp56
 70
     1
102
RTVSPost2010Prop57
140
1.0
102
RTVSPost2010PropOp57
 70
     1
102
RTVSPropertyOp0
 70
     1
102
RTVSPropertyOp1
 70
     1
102
RTVSPropertyOp2
 70
     1
102
RTVSPropertyOp3
 70
     1
102
RTVSPropertyOp4
 70
     1
102
RTVSPropertyOp5
 70
     1
102
RTVSPropertyOp6
 70
     1
102
RTVSPropertyOp7
 70
     1
102
RTVSPropertyOp8
 70
     1
102
RTVSPropertyOp9
 70
     1
102
RTVSPropertyOp10
 70
     1
102
RTVSPropertyOp11
 70
     1
102
RTVSPropertyOp12
 70
     1
102
RTVSPropertyOp13
 70
     1
102
RTVSPropertyOp14
 70
     1
102
RTVSPropertyOp15
 70
     1
102
RTVSPropertyOp16
 70
     1
102
RTVSPropertyOp17
 70
     1
102
RTVSPropertyOp18
 70
     1
102
RTVSPropertyOp19
 70
     1
102
RTVSPropertyOp20
 70
     1
102
RTVSPropertyOp21
 70
     1
102
RTVSPropertyOp22
 70
     1
102
RTVSPropertyOp23
 70
     1
102
RTVSPropertyOp24
 70
     1
102
RTVSPropertyOp25
 70
     1
102
RTVSPropertyOp26
 70
     1
102
RTVSPropertyOp27
 70
     1
102
RTVSPropertyOp28
 70
     1
102
RTVSPropertyOp29
 70
     1
102
RTVSPropertyOp30
 70
     1
102
RTVSPropertyOp31
 70
     1
102
RTVSPropertyOp32
 70
     1
102
RTVSPropertyOp33
 70
     1
102
RTVSPropertyOp34
 70
     1
102
RTVSPropertyOp35
 70
     1
102
RTVSPropertyOp36
 70
     1
102
RTVSPropertyOp37
 70
     1
102
RTVSPropertyOp38
 70
     1
102
RTVSPropertyOp39
 70
     1
102
RTVSPropertyOp40
 70
     1
102
RTVSPropertyOp41
 70
     1
102
RTVSPropertyOp42
 70
     1
102
RTVSPropertyOp43
 70
     1
102
RTVSPropertyOp44
 70
     1
102
RTVSPropertyOp45
 70
     1
102
RTVSPropertyOp46
 70
     1
102
RTVSPropertyOp47
 70
     1
102
RTVSPropertyOp48
 70
     1
102
RTVSPropertyOp49
 70
     1
102
RTVSPropertyOp50
 70
     1
102
RTVSPropertyOp51
 70
     0
102
RTVSPropertyOp52
 70
     0
102
RTVSPropertyOp53
 70
     1
102
RTVSPropertyOp54
 70
     1
102
RTVSPropertyOp55
 70
     1
102
RTVSPropertyOp56
 70
     1
102
RTVSPropertyOp57
 70
     1
102
RTVSPropertyOp58
 70
     1
102
RTVSPropertyOp59
 70
     1
102
RTVSPropertyOp60
 70
     1
102
RTVSPropertyOp61
 70
     1
102
RTVSPropertyOp62
 70
     1
  0
XRECORD
  5
AA35
102
{ACAD_REACTORS
330
AA34
102
}
330
AA34
100
AcDbXrecord
280
     1
102
RTVSPost2010Prop28
280
     0
102
RTVSPost2010PropOp28
 70
     1
102
RTVSPost2010Prop29
280
     1
102
RTVSPost2010PropOp29
 70
     1
102
RTVSPost2010Prop30
280
     1
102
RTVSPost2010PropOp30
 70
     1
102
RTVSPost2010Prop31
280
     0
102
RTVSPost2010PropOp31
 70
     1
102
RTVSPost2010Prop32
280
     0
102
RTVSPost2010PropOp32
 70
     1
102
RTVSPost2010Prop33
280
     0
102
RTVSPost2010PropOp33
 70
     1
102
RTVSPost2010Prop34
280
     0
102
RTVSPost2010PropOp34
 70
     1
102
RTVSPost2010Prop35
280
     0
102
RTVSPost2010PropOp35
 70
     1
102
RTVSPost2010Prop36
280
     0
102
RTVSPost2010PropOp36
 70
     1
102
RTVSPost2010Prop37
 90
       50
102
RTVSPost2010PropOp37
 70
     1
102
RTVSPost2010Prop38
140
0.0
102
RTVSPost2010PropOp38
 70
     1
102
RTVSPost2010Prop39
140
1.0
102
RTVSPost2010PropOp39
 70
     1
102
RTVSPost2010Prop40
 90
        0
102
RTVSPost2010PropOp40
 70
     1
102
RTVSPost2010Prop41ColorIndex
 90
       18
102
RTVSPost2010Prop41ColorRGB
 90
        0
102
RTVSPost2010PropOp41
 70
     1
102
RTVSPost2010Prop42
 90
       50
102
RTVSPost2010PropOp42
 70
     1
102
RTVSPost2010Prop43
 90
        3
102
RTVSPost2010PropOp43
 70
     1
102
RTVSPost2010Prop44ColorIndex
 90
        5
102
RTVSPost2010Prop44ColorRGB
 90
      255
102
RTVSPost2010PropOp44
 70
     1
102
RTVSPost2010Prop45
280
     0
102
RTVSPost2010PropOp45
 70
     1
102
RTVSPost2010Prop46
 90
       50
102
RTVSPost2010PropOp46
 70
     1
102
RTVSPost2010Prop47
 90
       50
102
RTVSPost2010PropOp47
 70
     1
102
RTVSPost2010Prop48
 90
       50
102
RTVSPost2010PropOp48
 70
     1
102
RTVSPost2010Prop49
280
     0
102
RTVSPost2010PropOp49
 70
     1
102
RTVSPost2010Prop50
 90
       50
102
RTVSPost2010PropOp50
 70
     1
102
RTVSPost2010Prop51ColorIndex
 90
      256
102
RTVSPost2010Prop51ColorRGB
 90
-16777216
102
RTVSPost2010PropOp51
 70
     0
102
RTVSPost2010Prop52
140
1.0
102
RTVSPost2010PropOp52
 70
     0
102
RTVSPost2010Prop53
 90
        2
102
RTVSPost2010PropOp53
 70
     1
102
RTVSPost2010Prop54
  1
strokes_ogs.tif
102
RTVSPost2010PropOp54
 70
     1
102
RTVSPost2010Prop55
280
     0
102
RTVSPost2010PropOp55
 70
     1
102
RTVSPost2010Prop56
140
1.0
102
RTVSPost2010PropOp56
 70
     1
102
RTVSPost2010Prop57
140
1.0
102
RTVSPost2010PropOp57
 70
     1
102
RTVSPropertyOp0
 70
     1
102
RTVSPropertyOp1
 70
     1
102
RTVSPropertyOp2
 70
     1
102
RTVSPropertyOp3
 70
     1
102
RTVSPropertyOp4
 70
     1
102
RTVSPropertyOp5
 70
     1
102
RTVSPropertyOp6
 70
     1
102
RTVSPropertyOp7
 70
     1
102
RTVSPropertyOp8
 70
     1
102
RTVSPropertyOp9
 70
     1
102
RTVSPropertyOp10
 70
     1
102
RTVSPropertyOp11
 70
     1
102
RTVSPropertyOp12
 70
     1
102
RTVSPropertyOp13
 70
     1
102
RTVSPropertyOp14
 70
     1
102
RTVSPropertyOp15
 70
     1
102
RTVSPropertyOp16
 70
     1
102
RTVSPropertyOp17
 70
     1
102
RTVSPropertyOp18
 70
     1
102
RTVSPropertyOp19
 70
     1
102
RTVSPropertyOp20
 70
     1
102
RTVSPropertyOp21
 70
     1
102
RTVSPropertyOp22
 70
     1
102
RTVSPropertyOp23
 70
     1
102
RTVSPropertyOp24
 70
     1
102
RTVSPropertyOp25
 70
     1
102
RTVSPropertyOp26
 70
     1
102
RTVSPropertyOp27
 70
     1
102
RTVSPropertyOp28
 70
     1
102
RTVSPropertyOp29
 70
     1
102
RTVSPropertyOp30
 70
     1
102
RTVSPropertyOp31
 70
     1
102
RTVSPropertyOp32
 70
     1
102
RTVSPropertyOp33
 70
     1
102
RTVSPropertyOp34
 70
     1
102
RTVSPropertyOp35
 70
     1
102
RTVSPropertyOp36
 70
     1
102
RTVSPropertyOp37
 70
     1
102
RTVSPropertyOp38
 70
     1
102
RTVSPropertyOp39
 70
     1
102
RTVSPropertyOp40
 70
     1
102
RTVSPropertyOp41
 70
     1
102
RTVSPropertyOp42
 70
     1
102
RTVSPropertyOp43
 70
     1
102
RTVSPropertyOp44
 70
     1
102
RTVSPropertyOp45
 70
     1
102
RTVSPropertyOp46
 70
     1
102
RTVSPropertyOp47
 70
     1
102
RTVSPropertyOp48
 70
     1
102
RTVSPropertyOp49
 70
     1
102
RTVSPropertyOp50
 70
     1
102
RTVSPropertyOp51
 70
     0
102
RTVSPropertyOp52
 70
     0
102
RTVSPropertyOp53
 70
     1
102
RTVSPropertyOp54
 70
     1
102
RTVSPropertyOp55
 70
     1
102
RTVSPropertyOp56
 70
     1
102
RTVSPropertyOp57
 70
     1
102
RTVSPropertyOp58
 70
     1
102
RTVSPropertyOp59
 70
     1
102
RTVSPropertyOp60
 70
     1
102
RTVSPropertyOp61
 70
     1
102
RTVSPropertyOp62
 70
     1
  0
XRECORD
  5
AA27
102
{ACAD_REACTORS
330
AA26
102
}
330
AA26
100
AcDbXrecord
280
     1
102
RTVSPost2010Prop28
280
     0
102
RTVSPost2010PropOp28
 70
     1
102
RTVSPost2010Prop29
280
     1
102
RTVSPost2010PropOp29
 70
     1
102
RTVSPost2010Prop30
280
     1
102
RTVSPost2010PropOp30
 70
     1
102
RTVSPost2010Prop31
280
     0
102
RTVSPost2010PropOp31
 70
     1
102
RTVSPost2010Prop32
280
     0
102
RTVSPost2010PropOp32
 70
     1
102
RTVSPost2010Prop33
280
     0
102
RTVSPost2010PropOp33
 70
     1
102
RTVSPost2010Prop34
280
     0
102
RTVSPost2010PropOp34
 70
     1
102
RTVSPost2010Prop35
280
     0
102
RTVSPost2010PropOp35
 70
     1
102
RTVSPost2010Prop36
280
     0
102
RTVSPost2010PropOp36
 70
     1
102
RTVSPost2010Prop37
 90
       50
102
RTVSPost2010PropOp37
 70
     1
102
RTVSPost2010Prop38
140
0.0
102
RTVSPost2010PropOp38
 70
     1
102
RTVSPost2010Prop39
140
1.0
102
RTVSPost2010PropOp39
 70
     1
102
RTVSPost2010Prop40
 90
        0
102
RTVSPost2010PropOp40
 70
     1
102
RTVSPost2010Prop41ColorIndex
 90
       18
102
RTVSPost2010Prop41ColorRGB
 90
        0
102
RTVSPost2010PropOp41
 70
     1
102
RTVSPost2010Prop42
 90
       50
102
RTVSPost2010PropOp42
 70
     1
102
RTVSPost2010Prop43
 90
        3
102
RTVSPost2010PropOp43
 70
     1
102
RTVSPost2010Prop44ColorIndex
 90
        5
102
RTVSPost2010Prop44ColorRGB
 90
      255
102
RTVSPost2010PropOp44
 70
     1
102
RTVSPost2010Prop45
280
     0
102
RTVSPost2010PropOp45
 70
     1
102
RTVSPost2010Prop46
 90
       50
102
RTVSPost2010PropOp46
 70
     1
102
RTVSPost2010Prop47
 90
       50
102
RTVSPost2010PropOp47
 70
     1
102
RTVSPost2010Prop48
 90
       50
102
RTVSPost2010PropOp48
 70
     1
102
RTVSPost2010Prop49
280
     0
102
RTVSPost2010PropOp49
 70
     1
102
RTVSPost2010Prop50
 90
       50
102
RTVSPost2010PropOp50
 70
     1
102
RTVSPost2010Prop51ColorIndex
 90
      256
102
RTVSPost2010Prop51ColorRGB
 90
-16777216
102
RTVSPost2010PropOp51
 70
     0
102
RTVSPost2010Prop52
140
1.0
102
RTVSPost2010PropOp52
 70
     0
102
RTVSPost2010Prop53
 90
        2
102
RTVSPost2010PropOp53
 70
     1
102
RTVSPost2010Prop54
  1
strokes_ogs.tif
102
RTVSPost2010PropOp54
 70
     1
102
RTVSPost2010Prop55
280
     0
102
RTVSPost2010PropOp55
 70
     1
102
RTVSPost2010Prop56
140
1.0
102
RTVSPost2010PropOp56
 70
     1
102
RTVSPost2010Prop57
140
1.0
102
RTVSPost2010PropOp57
 70
     1
102
RTVSPropertyOp0
 70
     1
102
RTVSPropertyOp1
 70
     1
102
RTVSPropertyOp2
 70
     1
102
RTVSPropertyOp3
 70
     1
102
RTVSPropertyOp4
 70
     1
102
RTVSPropertyOp5
 70
     1
102
RTVSPropertyOp6
 70
     1
102
RTVSPropertyOp7
 70
     1
102
RTVSPropertyOp8
 70
     1
102
RTVSPropertyOp9
 70
     1
102
RTVSPropertyOp10
 70
     1
102
RTVSPropertyOp11
 70
     1
102
RTVSPropertyOp12
 70
     1
102
RTVSPropertyOp13
 70
     1
102
RTVSPropertyOp14
 70
     1
102
RTVSPropertyOp15
 70
     1
102
RTVSPropertyOp16
 70
     1
102
RTVSPropertyOp17
 70
     1
102
RTVSPropertyOp18
 70
     1
102
RTVSPropertyOp19
 70
     1
102
RTVSPropertyOp20
 70
     1
102
RTVSPropertyOp21
 70
     1
102
RTVSPropertyOp22
 70
     1
102
RTVSPropertyOp23
 70
     1
102
RTVSPropertyOp24
 70
     1
102
RTVSPropertyOp25
 70
     1
102
RTVSPropertyOp26
 70
     1
102
RTVSPropertyOp27
 70
     1
102
RTVSPropertyOp28
 70
     1
102
RTVSPropertyOp29
 70
     1
102
RTVSPropertyOp30
 70
     1
102
RTVSPropertyOp31
 70
     1
102
RTVSPropertyOp32
 70
     1
102
RTVSPropertyOp33
 70
     1
102
RTVSPropertyOp34
 70
     1
102
RTVSPropertyOp35
 70
     1
102
RTVSPropertyOp36
 70
     1
102
RTVSPropertyOp37
 70
     1
102
RTVSPropertyOp38
 70
     1
102
RTVSPropertyOp39
 70
     1
102
RTVSPropertyOp40
 70
     1
102
RTVSPropertyOp41
 70
     1
102
RTVSPropertyOp42
 70
     1
102
RTVSPropertyOp43
 70
     1
102
RTVSPropertyOp44
 70
     1
102
RTVSPropertyOp45
 70
     1
102
RTVSPropertyOp46
 70
     1
102
RTVSPropertyOp47
 70
     1
102
RTVSPropertyOp48
 70
     1
102
RTVSPropertyOp49
 70
     1
102
RTVSPropertyOp50
 70
     1
102
RTVSPropertyOp51
 70
     0
102
RTVSPropertyOp52
 70
     0
102
RTVSPropertyOp53
 70
     1
102
RTVSPropertyOp54
 70
     1
102
RTVSPropertyOp55
 70
     1
102
RTVSPropertyOp56
 70
     1
102
RTVSPropertyOp57
 70
     1
102
RTVSPropertyOp58
 70
     1
102
RTVSPropertyOp59
 70
     1
102
RTVSPropertyOp60
 70
     1
102
RTVSPropertyOp61
 70
     1
102
RTVSPropertyOp62
 70
     1
  0
XRECORD
  5
AA2B
102
{ACAD_REACTORS
330
AA2A
102
}
330
AA2A
100
AcDbXrecord
280
     1
102
RTVSPost2010Prop28
280
     0
102
RTVSPost2010PropOp28
 70
     1
102
RTVSPost2010Prop29
280
     1
102
RTVSPost2010PropOp29
 70
     1
102
RTVSPost2010Prop30
280
     1
102
RTVSPost2010PropOp30
 70
     1
102
RTVSPost2010Prop31
280
     0
102
RTVSPost2010PropOp31
 70
     1
102
RTVSPost2010Prop32
280
     0
102
RTVSPost2010PropOp32
 70
     1
102
RTVSPost2010Prop33
280
     0
102
RTVSPost2010PropOp33
 70
     1
102
RTVSPost2010Prop34
280
     0
102
RTVSPost2010PropOp34
 70
     1
102
RTVSPost2010Prop35
280
     0
102
RTVSPost2010PropOp35
 70
     1
102
RTVSPost2010Prop36
280
     0
102
RTVSPost2010PropOp36
 70
     1
102
RTVSPost2010Prop37
 90
       50
102
RTVSPost2010PropOp37
 70
     1
102
RTVSPost2010Prop38
140
0.0
102
RTVSPost2010PropOp38
 70
     1
102
RTVSPost2010Prop39
140
1.0
102
RTVSPost2010PropOp39
 70
     1
102
RTVSPost2010Prop40
 90
        0
102
RTVSPost2010PropOp40
 70
     1
102
RTVSPost2010Prop41ColorIndex
 90
       18
102
RTVSPost2010Prop41ColorRGB
 90
        0
102
RTVSPost2010PropOp41
 70
     1
102
RTVSPost2010Prop42
 90
       50
102
RTVSPost2010PropOp42
 70
     1
102
RTVSPost2010Prop43
 90
        3
102
RTVSPost2010PropOp43
 70
     1
102
RTVSPost2010Prop44ColorIndex
 90
        5
102
RTVSPost2010Prop44ColorRGB
 90
      255
102
RTVSPost2010PropOp44
 70
     1
102
RTVSPost2010Prop45
280
     0
102
RTVSPost2010PropOp45
 70
     1
102
RTVSPost2010Prop46
 90
       50
102
RTVSPost2010PropOp46
 70
     1
102
RTVSPost2010Prop47
 90
       50
102
RTVSPost2010PropOp47
 70
     1
102
RTVSPost2010Prop48
 90
       50
102
RTVSPost2010PropOp48
 70
     1
102
RTVSPost2010Prop49
280
     0
102
RTVSPost2010PropOp49
 70
     1
102
RTVSPost2010Prop50
 90
       50
102
RTVSPost2010PropOp50
 70
     1
102
RTVSPost2010Prop51ColorIndex
 90
      256
102
RTVSPost2010Prop51ColorRGB
 90
-16777216
102
RTVSPost2010PropOp51
 70
     0
102
RTVSPost2010Prop52
140
1.0
102
RTVSPost2010PropOp52
 70
     0
102
RTVSPost2010Prop53
 90
        2
102
RTVSPost2010PropOp53
 70
     1
102
RTVSPost2010Prop54
  1
strokes_ogs.tif
102
RTVSPost2010PropOp54
 70
     1
102
RTVSPost2010Prop55
280
     0
102
RTVSPost2010PropOp55
 70
     1
102
RTVSPost2010Prop56
140
1.0
102
RTVSPost2010PropOp56
 70
     1
102
RTVSPost2010Prop57
140
1.0
102
RTVSPost2010PropOp57
 70
     1
102
RTVSPropertyOp0
 70
     1
102
RTVSPropertyOp1
 70
     1
102
RTVSPropertyOp2
 70
     1
102
RTVSPropertyOp3
 70
     1
102
RTVSPropertyOp4
 70
     1
102
RTVSPropertyOp5
 70
     1
102
RTVSPropertyOp6
 70
     1
102
RTVSPropertyOp7
 70
     1
102
RTVSPropertyOp8
 70
     1
102
RTVSPropertyOp9
 70
     1
102
RTVSPropertyOp10
 70
     1
102
RTVSPropertyOp11
 70
     1
102
RTVSPropertyOp12
 70
     1
102
RTVSPropertyOp13
 70
     1
102
RTVSPropertyOp14
 70
     1
102
RTVSPropertyOp15
 70
     1
102
RTVSPropertyOp16
 70
     1
102
RTVSPropertyOp17
 70
     1
102
RTVSPropertyOp18
 70
     1
102
RTVSPropertyOp19
 70
     1
102
RTVSPropertyOp20
 70
     1
102
RTVSPropertyOp21
 70
     1
102
RTVSPropertyOp22
 70
     1
102
RTVSPropertyOp23
 70
     1
102
RTVSPropertyOp24
 70
     1
102
RTVSPropertyOp25
 70
     1
102
RTVSPropertyOp26
 70
     1
102
RTVSPropertyOp27
 70
     1
102
RTVSPropertyOp28
 70
     1
102
RTVSPropertyOp29
 70
     1
102
RTVSPropertyOp30
 70
     1
102
RTVSPropertyOp31
 70
     1
102
RTVSPropertyOp32
 70
     1
102
RTVSPropertyOp33
 70
     1
102
RTVSPropertyOp34
 70
     1
102
RTVSPropertyOp35
 70
     1
102
RTVSPropertyOp36
 70
     1
102
RTVSPropertyOp37
 70
     1
102
RTVSPropertyOp38
 70
     1
102
RTVSPropertyOp39
 70
     1
102
RTVSPropertyOp40
 70
     1
102
RTVSPropertyOp41
 70
     1
102
RTVSPropertyOp42
 70
     1
102
RTVSPropertyOp43
 70
     1
102
RTVSPropertyOp44
 70
     1
102
RTVSPropertyOp45
 70
     1
102
RTVSPropertyOp46
 70
     1
102
RTVSPropertyOp47
 70
     1
102
RTVSPropertyOp48
 70
     1
102
RTVSPropertyOp49
 70
     1
102
RTVSPropertyOp50
 70
     1
102
RTVSPropertyOp51
 70
     0
102
RTVSPropertyOp52
 70
     0
102
RTVSPropertyOp53
 70
     1
102
RTVSPropertyOp54
 70
     1
102
RTVSPropertyOp55
 70
     1
102
RTVSPropertyOp56
 70
     1
102
RTVSPropertyOp57
 70
     1
102
RTVSPropertyOp58
 70
     1
102
RTVSPropertyOp59
 70
     1
102
RTVSPropertyOp60
 70
     1
102
RTVSPropertyOp61
 70
     1
102
RTVSPropertyOp62
 70
     1
  0
XRECORD
  5
AA45
102
{ACAD_REACTORS
330
AA44
102
}
330
AA44
100
AcDbXrecord
280
     1
102
RTVSPost2010Prop28
280
     0
102
RTVSPost2010PropOp28
 70
     1
102
RTVSPost2010Prop29
280
     1
102
RTVSPost2010PropOp29
 70
     1
102
RTVSPost2010Prop30
280
     1
102
RTVSPost2010PropOp30
 70
     1
102
RTVSPost2010Prop31
280
     0
102
RTVSPost2010PropOp31
 70
     1
102
RTVSPost2010Prop32
280
     0
102
RTVSPost2010PropOp32
 70
     1
102
RTVSPost2010Prop33
280
     0
102
RTVSPost2010PropOp33
 70
     1
102
RTVSPost2010Prop34
280
     0
102
RTVSPost2010PropOp34
 70
     1
102
RTVSPost2010Prop35
280
     0
102
RTVSPost2010PropOp35
 70
     1
102
RTVSPost2010Prop36
280
     0
102
RTVSPost2010PropOp36
 70
     1
102
RTVSPost2010Prop37
 90
       50
102
RTVSPost2010PropOp37
 70
     0
102
RTVSPost2010Prop38
140
0.0
102
RTVSPost2010PropOp38
 70
     0
102
RTVSPost2010Prop39
140
1.0
102
RTVSPost2010PropOp39
 70
     0
102
RTVSPost2010Prop40
 90
        0
102
RTVSPost2010PropOp40
 70
     0
102
RTVSPost2010Prop41ColorIndex
 90
       18
102
RTVSPost2010Prop41ColorRGB
 90
        0
102
RTVSPost2010PropOp41
 70
     0
102
RTVSPost2010Prop42
 90
       50
102
RTVSPost2010PropOp42
 70
     0
102
RTVSPost2010Prop43
 90
        3
102
RTVSPost2010PropOp43
 70
     0
102
RTVSPost2010Prop44ColorIndex
 90
        5
102
RTVSPost2010Prop44ColorRGB
 90
      255
102
RTVSPost2010PropOp44
 70
     0
102
RTVSPost2010Prop45
280
     0
102
RTVSPost2010PropOp45
 70
     1
102
RTVSPost2010Prop46
 90
       50
102
RTVSPost2010PropOp46
 70
     0
102
RTVSPost2010Prop47
 90
       50
102
RTVSPost2010PropOp47
 70
     0
102
RTVSPost2010Prop48
 90
       50
102
RTVSPost2010PropOp48
 70
     0
102
RTVSPost2010Prop49
280
     0
102
RTVSPost2010PropOp49
 70
     1
102
RTVSPost2010Prop50
 90
       50
102
RTVSPost2010PropOp50
 70
     0
102
RTVSPost2010Prop51ColorIndex
 90
      256
102
RTVSPost2010Prop51ColorRGB
 90
-16777216
102
RTVSPost2010PropOp51
 70
     0
102
RTVSPost2010Prop52
140
1.0
102
RTVSPost2010PropOp52
 70
     0
102
RTVSPost2010Prop53
 90
        2
102
RTVSPost2010PropOp53
 70
     0
102
RTVSPost2010Prop54
  1
strokes_ogs.tif
102
RTVSPost2010PropOp54
 70
     0
102
RTVSPost2010Prop55
280
     0
102
RTVSPost2010PropOp55
 70
     1
102
RTVSPost2010Prop56
140
1.0
102
RTVSPost2010PropOp56
 70
     0
102
RTVSPost2010Prop57
140
1.0
102
RTVSPost2010PropOp57
 70
     0
102
RTVSPropertyOp0
 70
     0
102
RTVSPropertyOp1
 70
     0
102
RTVSPropertyOp2
 70
     0
102
RTVSPropertyOp3
 70
     0
102
RTVSPropertyOp4
 70
     0
102
RTVSPropertyOp5
 70
     0
102
RTVSPropertyOp6
 70
     0
102
RTVSPropertyOp7
 70
     0
102
RTVSPropertyOp8
 70
     0
102
RTVSPropertyOp9
 70
     0
102
RTVSPropertyOp10
 70
     0
102
RTVSPropertyOp11
 70
     0
102
RTVSPropertyOp12
 70
     0
102
RTVSPropertyOp13
 70
     0
102
RTVSPropertyOp14
 70
     2
102
RTVSPropertyOp15
 70
     0
102
RTVSPropertyOp16
 70
     0
102
RTVSPropertyOp17
 70
     0
102
RTVSPropertyOp18
 70
     0
102
RTVSPropertyOp19
 70
     0
102
RTVSPropertyOp20
 70
     0
102
RTVSPropertyOp21
 70
     0
102
RTVSPropertyOp22
 70
     0
102
RTVSPropertyOp23
 70
     0
102
RTVSPropertyOp24
 70
     0
102
RTVSPropertyOp25
 70
     0
102
RTVSPropertyOp26
 70
     0
102
RTVSPropertyOp27
 70
     0
102
RTVSPropertyOp28
 70
     1
102
RTVSPropertyOp29
 70
     1
102
RTVSPropertyOp30
 70
     1
102
RTVSPropertyOp31
 70
     1
102
RTVSPropertyOp32
 70
     1
102
RTVSPropertyOp33
 70
     1
102
RTVSPropertyOp34
 70
     1
102
RTVSPropertyOp35
 70
     1
102
RTVSPropertyOp36
 70
     1
102
RTVSPropertyOp37
 70
     0
102
RTVSPropertyOp38
 70
     0
102
RTVSPropertyOp39
 70
     0
102
RTVSPropertyOp40
 70
     0
102
RTVSPropertyOp41
 70
     0
102
RTVSPropertyOp42
 70
     0
102
RTVSPropertyOp43
 70
     0
102
RTVSPropertyOp44
 70
     0
102
RTVSPropertyOp45
 70
     1
102
RTVSPropertyOp46
 70
     0
102
RTVSPropertyOp47
 70
     0
102
RTVSPropertyOp48
 70
     0
102
RTVSPropertyOp49
 70
     1
102
RTVSPropertyOp50
 70
     0
102
RTVSPropertyOp51
 70
     0
102
RTVSPropertyOp52
 70
     0
102
RTVSPropertyOp53
 70
     0
102
RTVSPropertyOp54
 70
     0
102
RTVSPropertyOp55
 70
     1
102
RTVSPropertyOp56
 70
     0
102
RTVSPropertyOp57
 70
     0
102
RTVSPropertyOp58
 70
     0
102
RTVSPropertyOp59
 70
     0
102
RTVSPropertyOp60
 70
     0
102
RTVSPropertyOp61
 70
     0
102
RTVSPropertyOp62
 70
     0
  0
XRECORD
  5
AA33
102
{ACAD_REACTORS
330
AA32
102
}
330
AA32
100
AcDbXrecord
280
     1
102
RTVSPost2010Prop28
280
     0
102
RTVSPost2010PropOp28
 70
     1
102
RTVSPost2010Prop29
280
     1
102
RTVSPost2010PropOp29
 70
     1
102
RTVSPost2010Prop30
280
     1
102
RTVSPost2010PropOp30
 70
     1
102
RTVSPost2010Prop31
280
     0
102
RTVSPost2010PropOp31
 70
     1
102
RTVSPost2010Prop32
280
     0
102
RTVSPost2010PropOp32
 70
     1
102
RTVSPost2010Prop33
280
     0
102
RTVSPost2010PropOp33
 70
     1
102
RTVSPost2010Prop34
280
     0
102
RTVSPost2010PropOp34
 70
     1
102
RTVSPost2010Prop35
280
     0
102
RTVSPost2010PropOp35
 70
     1
102
RTVSPost2010Prop36
280
     0
102
RTVSPost2010PropOp36
 70
     1
102
RTVSPost2010Prop37
 90
       50
102
RTVSPost2010PropOp37
 70
     1
102
RTVSPost2010Prop38
140
0.0
102
RTVSPost2010PropOp38
 70
     1
102
RTVSPost2010Prop39
140
1.0
102
RTVSPost2010PropOp39
 70
     1
102
RTVSPost2010Prop40
 90
        0
102
RTVSPost2010PropOp40
 70
     1
102
RTVSPost2010Prop41ColorIndex
 90
       18
102
RTVSPost2010Prop41ColorRGB
 90
        0
102
RTVSPost2010PropOp41
 70
     1
102
RTVSPost2010Prop42
 90
       50
102
RTVSPost2010PropOp42
 70
     1
102
RTVSPost2010Prop43
 90
        3
102
RTVSPost2010PropOp43
 70
     1
102
RTVSPost2010Prop44ColorIndex
 90
        5
102
RTVSPost2010Prop44ColorRGB
 90
      255
102
RTVSPost2010PropOp44
 70
     1
102
RTVSPost2010Prop45
280
     0
102
RTVSPost2010PropOp45
 70
     1
102
RTVSPost2010Prop46
 90
       50
102
RTVSPost2010PropOp46
 70
     1
102
RTVSPost2010Prop47
 90
       50
102
RTVSPost2010PropOp47
 70
     1
102
RTVSPost2010Prop48
 90
       50
102
RTVSPost2010PropOp48
 70
     1
102
RTVSPost2010Prop49
280
     0
102
RTVSPost2010PropOp49
 70
     1
102
RTVSPost2010Prop50
 90
       50
102
RTVSPost2010PropOp50
 70
     1
102
RTVSPost2010Prop51ColorIndex
 90
      256
102
RTVSPost2010Prop51ColorRGB
 90
-16777216
102
RTVSPost2010PropOp51
 70
     0
102
RTVSPost2010Prop52
140
1.0
102
RTVSPost2010PropOp52
 70
     0
102
RTVSPost2010Prop53
 90
        2
102
RTVSPost2010PropOp53
 70
     1
102
RTVSPost2010Prop54
  1
strokes_ogs.tif
102
RTVSPost2010PropOp54
 70
     1
102
RTVSPost2010Prop55
280
     0
102
RTVSPost2010PropOp55
 70
     1
102
RTVSPost2010Prop56
140
1.0
102
RTVSPost2010PropOp56
 70
     1
102
RTVSPost2010Prop57
140
1.0
102
RTVSPost2010PropOp57
 70
     1
102
RTVSPropertyOp0
 70
     1
102
RTVSPropertyOp1
 70
     1
102
RTVSPropertyOp2
 70
     1
102
RTVSPropertyOp3
 70
     1
102
RTVSPropertyOp4
 70
     1
102
RTVSPropertyOp5
 70
     1
102
RTVSPropertyOp6
 70
     1
102
RTVSPropertyOp7
 70
     1
102
RTVSPropertyOp8
 70
     1
102
RTVSPropertyOp9
 70
     1
102
RTVSPropertyOp10
 70
     1
102
RTVSPropertyOp11
 70
     1
102
RTVSPropertyOp12
 70
     1
102
RTVSPropertyOp13
 70
     1
102
RTVSPropertyOp14
 70
     1
102
RTVSPropertyOp15
 70
     1
102
RTVSPropertyOp16
 70
     1
102
RTVSPropertyOp17
 70
     1
102
RTVSPropertyOp18
 70
     1
102
RTVSPropertyOp19
 70
     1
102
RTVSPropertyOp20
 70
     1
102
RTVSPropertyOp21
 70
     1
102
RTVSPropertyOp22
 70
     1
102
RTVSPropertyOp23
 70
     1
102
RTVSPropertyOp24
 70
     1
102
RTVSPropertyOp25
 70
     1
102
RTVSPropertyOp26
 70
     1
102
RTVSPropertyOp27
 70
     1
102
RTVSPropertyOp28
 70
     1
102
RTVSPropertyOp29
 70
     1
102
RTVSPropertyOp30
 70
     1
102
RTVSPropertyOp31
 70
     1
102
RTVSPropertyOp32
 70
     1
102
RTVSPropertyOp33
 70
     1
102
RTVSPropertyOp34
 70
     1
102
RTVSPropertyOp35
 70
     1
102
RTVSPropertyOp36
 70
     1
102
RTVSPropertyOp37
 70
     1
102
RTVSPropertyOp38
 70
     1
102
RTVSPropertyOp39
 70
     1
102
RTVSPropertyOp40
 70
     1
102
RTVSPropertyOp41
 70
     1
102
RTVSPropertyOp42
 70
     1
102
RTVSPropertyOp43
 70
     1
102
RTVSPropertyOp44
 70
     1
102
RTVSPropertyOp45
 70
     1
102
RTVSPropertyOp46
 70
     1
102
RTVSPropertyOp47
 70
     1
102
RTVSPropertyOp48
 70
     1
102
RTVSPropertyOp49
 70
     1
102
RTVSPropertyOp50
 70
     1
102
RTVSPropertyOp51
 70
     0
102
RTVSPropertyOp52
 70
     0
102
RTVSPropertyOp53
 70
     1
102
RTVSPropertyOp54
 70
     1
102
RTVSPropertyOp55
 70
     1
102
RTVSPropertyOp56
 70
     1
102
RTVSPropertyOp57
 70
     1
102
RTVSPropertyOp58
 70
     1
102
RTVSPropertyOp59
 70
     1
102
RTVSPropertyOp60
 70
     1
102
RTVSPropertyOp61
 70
     1
102
RTVSPropertyOp62
 70
     1
  0
XRECORD
  5
AA17
102
{ACAD_REACTORS
330
AA16
102
}
330
AA16
100
AcDbXrecord
280
     1
102
RTVSPost2010Prop28
280
     0
102
RTVSPost2010PropOp28
 70
     1
102
RTVSPost2010Prop29
280
     1
102
RTVSPost2010PropOp29
 70
     1
102
RTVSPost2010Prop30
280
     1
102
RTVSPost2010PropOp30
 70
     1
102
RTVSPost2010Prop31
280
     0
102
RTVSPost2010PropOp31
 70
     1
102
RTVSPost2010Prop32
280
     0
102
RTVSPost2010PropOp32
 70
     1
102
RTVSPost2010Prop33
280
     0
102
RTVSPost2010PropOp33
 70
     1
102
RTVSPost2010Prop34
280
     0
102
RTVSPost2010PropOp34
 70
     1
102
RTVSPost2010Prop35
280
     0
102
RTVSPost2010PropOp35
 70
     1
102
RTVSPost2010Prop36
280
     0
102
RTVSPost2010PropOp36
 70
     1
102
RTVSPost2010Prop37
 90
       50
102
RTVSPost2010PropOp37
 70
     1
102
RTVSPost2010Prop38
140
0.0
102
RTVSPost2010PropOp38
 70
     1
102
RTVSPost2010Prop39
140
1.0
102
RTVSPost2010PropOp39
 70
     1
102
RTVSPost2010Prop40
 90
        0
102
RTVSPost2010PropOp40
 70
     1
102
RTVSPost2010Prop41ColorIndex
 90
       18
102
RTVSPost2010Prop41ColorRGB
 90
        0
102
RTVSPost2010PropOp41
 70
     1
102
RTVSPost2010Prop42
 90
       50
102
RTVSPost2010PropOp42
 70
     1
102
RTVSPost2010Prop43
 90
        3
102
RTVSPost2010PropOp43
 70
     1
102
RTVSPost2010Prop44ColorIndex
 90
        5
102
RTVSPost2010Prop44ColorRGB
 90
      255
102
RTVSPost2010PropOp44
 70
     1
102
RTVSPost2010Prop45
280
     0
102
RTVSPost2010PropOp45
 70
     1
102
RTVSPost2010Prop46
 90
       50
102
RTVSPost2010PropOp46
 70
     1
102
RTVSPost2010Prop47
 90
       50
102
RTVSPost2010PropOp47
 70
     1
102
RTVSPost2010Prop48
 90
       50
102
RTVSPost2010PropOp48
 70
     1
102
RTVSPost2010Prop49
280
     0
102
RTVSPost2010PropOp49
 70
     1
102
RTVSPost2010Prop50
 90
       50
102
RTVSPost2010PropOp50
 70
     1
102
RTVSPost2010Prop51ColorIndex
 90
      256
102
RTVSPost2010Prop51ColorRGB
 90
-16777216
102
RTVSPost2010PropOp51
 70
     0
102
RTVSPost2010Prop52
140
1.0
102
RTVSPost2010PropOp52
 70
     0
102
RTVSPost2010Prop53
 90
        2
102
RTVSPost2010PropOp53
 70
     1
102
RTVSPost2010Prop54
  1
strokes_ogs.tif
102
RTVSPost2010PropOp54
 70
     1
102
RTVSPost2010Prop55
280
     0
102
RTVSPost2010PropOp55
 70
     1
102
RTVSPost2010Prop56
140
1.0
102
RTVSPost2010PropOp56
 70
     1
102
RTVSPost2010Prop57
140
1.0
102
RTVSPost2010PropOp57
 70
     1
102
RTVSPropertyOp0
 70
     1
102
RTVSPropertyOp1
 70
     1
102
RTVSPropertyOp2
 70
     1
102
RTVSPropertyOp3
 70
     1
102
RTVSPropertyOp4
 70
     1
102
RTVSPropertyOp5
 70
     1
102
RTVSPropertyOp6
 70
     1
102
RTVSPropertyOp7
 70
     1
102
RTVSPropertyOp8
 70
     1
102
RTVSPropertyOp9
 70
     1
102
RTVSPropertyOp10
 70
     1
102
RTVSPropertyOp11
 70
     1
102
RTVSPropertyOp12
 70
     1
102
RTVSPropertyOp13
 70
     1
102
RTVSPropertyOp14
 70
     1
102
RTVSPropertyOp15
 70
     1
102
RTVSPropertyOp16
 70
     1
102
RTVSPropertyOp17
 70
     1
102
RTVSPropertyOp18
 70
     1
102
RTVSPropertyOp19
 70
     1
102
RTVSPropertyOp20
 70
     1
102
RTVSPropertyOp21
 70
     1
102
RTVSPropertyOp22
 70
     1
102
RTVSPropertyOp23
 70
     1
102
RTVSPropertyOp24
 70
     1
102
RTVSPropertyOp25
 70
     1
102
RTVSPropertyOp26
 70
     1
102
RTVSPropertyOp27
 70
     1
102
RTVSPropertyOp28
 70
     1
102
RTVSPropertyOp29
 70
     1
102
RTVSPropertyOp30
 70
     1
102
RTVSPropertyOp31
 70
     1
102
RTVSPropertyOp32
 70
     1
102
RTVSPropertyOp33
 70
     1
102
RTVSPropertyOp34
 70
     1
102
RTVSPropertyOp35
 70
     1
102
RTVSPropertyOp36
 70
     1
102
RTVSPropertyOp37
 70
     1
102
RTVSPropertyOp38
 70
     1
102
RTVSPropertyOp39
 70
     1
102
RTVSPropertyOp40
 70
     1
102
RTVSPropertyOp41
 70
     1
102
RTVSPropertyOp42
 70
     1
102
RTVSPropertyOp43
 70
     1
102
RTVSPropertyOp44
 70
     1
102
RTVSPropertyOp45
 70
     1
102
RTVSPropertyOp46
 70
     1
102
RTVSPropertyOp47
 70
     1
102
RTVSPropertyOp48
 70
     1
102
RTVSPropertyOp49
 70
     1
102
RTVSPropertyOp50
 70
     1
102
RTVSPropertyOp51
 70
     0
102
RTVSPropertyOp52
 70
     0
102
RTVSPropertyOp53
 70
     1
102
RTVSPropertyOp54
 70
     1
102
RTVSPropertyOp55
 70
     1
102
RTVSPropertyOp56
 70
     1
102
RTVSPropertyOp57
 70
     1
102
RTVSPropertyOp58
 70
     1
102
RTVSPropertyOp59
 70
     1
102
RTVSPropertyOp60
 70
     1
102
RTVSPropertyOp61
 70
     1
102
RTVSPropertyOp62
 70
     1
  0
XRECORD
  5
AA19
102
{ACAD_REACTORS
330
AA18
102
}
330
AA18
100
AcDbXrecord
280
     1
102
RTVSPost2010Prop28
280
     0
102
RTVSPost2010PropOp28
 70
     1
102
RTVSPost2010Prop29
280
     1
102
RTVSPost2010PropOp29
 70
     1
102
RTVSPost2010Prop30
280
     1
102
RTVSPost2010PropOp30
 70
     1
102
RTVSPost2010Prop31
280
     0
102
RTVSPost2010PropOp31
 70
     1
102
RTVSPost2010Prop32
280
     0
102
RTVSPost2010PropOp32
 70
     1
102
RTVSPost2010Prop33
280
     0
102
RTVSPost2010PropOp33
 70
     1
102
RTVSPost2010Prop34
280
     0
102
RTVSPost2010PropOp34
 70
     1
102
RTVSPost2010Prop35
280
     0
102
RTVSPost2010PropOp35
 70
     1
102
RTVSPost2010Prop36
280
     0
102
RTVSPost2010PropOp36
 70
     1
102
RTVSPost2010Prop37
 90
       50
102
RTVSPost2010PropOp37
 70
     1
102
RTVSPost2010Prop38
140
0.0
102
RTVSPost2010PropOp38
 70
     1
102
RTVSPost2010Prop39
140
1.0
102
RTVSPost2010PropOp39
 70
     1
102
RTVSPost2010Prop40
 90
        0
102
RTVSPost2010PropOp40
 70
     1
102
RTVSPost2010Prop41ColorIndex
 90
       18
102
RTVSPost2010Prop41ColorRGB
 90
        0
102
RTVSPost2010PropOp41
 70
     1
102
RTVSPost2010Prop42
 90
       50
102
RTVSPost2010PropOp42
 70
     1
102
RTVSPost2010Prop43
 90
        3
102
RTVSPost2010PropOp43
 70
     1
102
RTVSPost2010Prop44ColorIndex
 90
        5
102
RTVSPost2010Prop44ColorRGB
 90
      255
102
RTVSPost2010PropOp44
 70
     1
102
RTVSPost2010Prop45
280
     0
102
RTVSPost2010PropOp45
 70
     1
102
RTVSPost2010Prop46
 90
       50
102
RTVSPost2010PropOp46
 70
     1
102
RTVSPost2010Prop47
 90
       50
102
RTVSPost2010PropOp47
 70
     1
102
RTVSPost2010Prop48
 90
       50
102
RTVSPost2010PropOp48
 70
     1
102
RTVSPost2010Prop49
280
     0
102
RTVSPost2010PropOp49
 70
     1
102
RTVSPost2010Prop50
 90
       50
102
RTVSPost2010PropOp50
 70
     1
102
RTVSPost2010Prop51ColorIndex
 90
      256
102
RTVSPost2010Prop51ColorRGB
 90
-16777216
102
RTVSPost2010PropOp51
 70
     0
102
RTVSPost2010Prop52
140
1.0
102
RTVSPost2010PropOp52
 70
     0
102
RTVSPost2010Prop53
 90
        2
102
RTVSPost2010PropOp53
 70
     1
102
RTVSPost2010Prop54
  1
strokes_ogs.tif
102
RTVSPost2010PropOp54
 70
     1
102
RTVSPost2010Prop55
280
     0
102
RTVSPost2010PropOp55
 70
     1
102
RTVSPost2010Prop56
140
1.0
102
RTVSPost2010PropOp56
 70
     1
102
RTVSPost2010Prop57
140
1.0
102
RTVSPost2010PropOp57
 70
     1
102
RTVSPropertyOp0
 70
     1
102
RTVSPropertyOp1
 70
     1
102
RTVSPropertyOp2
 70
     1
102
RTVSPropertyOp3
 70
     1
102
RTVSPropertyOp4
 70
     1
102
RTVSPropertyOp5
 70
     1
102
RTVSPropertyOp6
 70
     1
102
RTVSPropertyOp7
 70
     1
102
RTVSPropertyOp8
 70
     1
102
RTVSPropertyOp9
 70
     1
102
RTVSPropertyOp10
 70
     1
102
RTVSPropertyOp11
 70
     1
102
RTVSPropertyOp12
 70
     1
102
RTVSPropertyOp13
 70
     1
102
RTVSPropertyOp14
 70
     1
102
RTVSPropertyOp15
 70
     1
102
RTVSPropertyOp16
 70
     1
102
RTVSPropertyOp17
 70
     1
102
RTVSPropertyOp18
 70
     1
102
RTVSPropertyOp19
 70
     1
102
RTVSPropertyOp20
 70
     1
102
RTVSPropertyOp21
 70
     1
102
RTVSPropertyOp22
 70
     1
102
RTVSPropertyOp23
 70
     1
102
RTVSPropertyOp24
 70
     1
102
RTVSPropertyOp25
 70
     1
102
RTVSPropertyOp26
 70
     1
102
RTVSPropertyOp27
 70
     1
102
RTVSPropertyOp28
 70
     1
102
RTVSPropertyOp29
 70
     1
102
RTVSPropertyOp30
 70
     1
102
RTVSPropertyOp31
 70
     1
102
RTVSPropertyOp32
 70
     1
102
RTVSPropertyOp33
 70
     1
102
RTVSPropertyOp34
 70
     1
102
RTVSPropertyOp35
 70
     1
102
RTVSPropertyOp36
 70
     1
102
RTVSPropertyOp37
 70
     1
102
RTVSPropertyOp38
 70
     1
102
RTVSPropertyOp39
 70
     1
102
RTVSPropertyOp40
 70
     1
102
RTVSPropertyOp41
 70
     1
102
RTVSPropertyOp42
 70
     1
102
RTVSPropertyOp43
 70
     1
102
RTVSPropertyOp44
 70
     1
102
RTVSPropertyOp45
 70
     1
102
RTVSPropertyOp46
 70
     1
102
RTVSPropertyOp47
 70
     1
102
RTVSPropertyOp48
 70
     1
102
RTVSPropertyOp49
 70
     1
102
RTVSPropertyOp50
 70
     1
102
RTVSPropertyOp51
 70
     0
102
RTVSPropertyOp52
 70
     0
102
RTVSPropertyOp53
 70
     1
102
RTVSPropertyOp54
 70
     1
102
RTVSPropertyOp55
 70
     1
102
RTVSPropertyOp56
 70
     1
102
RTVSPropertyOp57
 70
     1
102
RTVSPropertyOp58
 70
     1
102
RTVSPropertyOp59
 70
     1
102
RTVSPropertyOp60
 70
     1
102
RTVSPropertyOp61
 70
     1
102
RTVSPropertyOp62
 70
     1
  0
XRECORD
  5
AA1B
102
{ACAD_REACTORS
330
AA1A
102
}
330
AA1A
100
AcDbXrecord
280
     1
102
RTVSPost2010Prop28
280
     0
102
RTVSPost2010PropOp28
 70
     1
102
RTVSPost2010Prop29
280
     1
102
RTVSPost2010PropOp29
 70
     1
102
RTVSPost2010Prop30
280
     1
102
RTVSPost2010PropOp30
 70
     1
102
RTVSPost2010Prop31
280
     0
102
RTVSPost2010PropOp31
 70
     1
102
RTVSPost2010Prop32
280
     0
102
RTVSPost2010PropOp32
 70
     1
102
RTVSPost2010Prop33
280
     0
102
RTVSPost2010PropOp33
 70
     1
102
RTVSPost2010Prop34
280
     0
102
RTVSPost2010PropOp34
 70
     1
102
RTVSPost2010Prop35
280
     0
102
RTVSPost2010PropOp35
 70
     1
102
RTVSPost2010Prop36
280
     0
102
RTVSPost2010PropOp36
 70
     1
102
RTVSPost2010Prop37
 90
       50
102
RTVSPost2010PropOp37
 70
     1
102
RTVSPost2010Prop38
140
0.0
102
RTVSPost2010PropOp38
 70
     1
102
RTVSPost2010Prop39
140
1.0
102
RTVSPost2010PropOp39
 70
     1
102
RTVSPost2010Prop40
 90
        0
102
RTVSPost2010PropOp40
 70
     1
102
RTVSPost2010Prop41ColorIndex
 90
       18
102
RTVSPost2010Prop41ColorRGB
 90
        0
102
RTVSPost2010PropOp41
 70
     1
102
RTVSPost2010Prop42
 90
       50
102
RTVSPost2010PropOp42
 70
     1
102
RTVSPost2010Prop43
 90
        3
102
RTVSPost2010PropOp43
 70
     1
102
RTVSPost2010Prop44ColorIndex
 90
        5
102
RTVSPost2010Prop44ColorRGB
 90
      255
102
RTVSPost2010PropOp44
 70
     1
102
RTVSPost2010Prop45
280
     0
102
RTVSPost2010PropOp45
 70
     1
102
RTVSPost2010Prop46
 90
       50
102
RTVSPost2010PropOp46
 70
     1
102
RTVSPost2010Prop47
 90
       50
102
RTVSPost2010PropOp47
 70
     1
102
RTVSPost2010Prop48
 90
       50
102
RTVSPost2010PropOp48
 70
     1
102
RTVSPost2010Prop49
280
     0
102
RTVSPost2010PropOp49
 70
     1
102
RTVSPost2010Prop50
 90
       50
102
RTVSPost2010PropOp50
 70
     1
102
RTVSPost2010Prop51ColorIndex
 90
      256
102
RTVSPost2010Prop51ColorRGB
 90
-16777216
102
RTVSPost2010PropOp51
 70
     0
102
RTVSPost2010Prop52
140
1.0
102
RTVSPost2010PropOp52
 70
     0
102
RTVSPost2010Prop53
 90
        2
102
RTVSPost2010PropOp53
 70
     1
102
RTVSPost2010Prop54
  1
strokes_ogs.tif
102
RTVSPost2010PropOp54
 70
     1
102
RTVSPost2010Prop55
280
     0
102
RTVSPost2010PropOp55
 70
     1
102
RTVSPost2010Prop56
140
1.0
102
RTVSPost2010PropOp56
 70
     1
102
RTVSPost2010Prop57
140
1.0
102
RTVSPost2010PropOp57
 70
     1
102
RTVSPropertyOp0
 70
     1
102
RTVSPropertyOp1
 70
     1
102
RTVSPropertyOp2
 70
     1
102
RTVSPropertyOp3
 70
     1
102
RTVSPropertyOp4
 70
     1
102
RTVSPropertyOp5
 70
     1
102
RTVSPropertyOp6
 70
     1
102
RTVSPropertyOp7
 70
     1
102
RTVSPropertyOp8
 70
     1
102
RTVSPropertyOp9
 70
     1
102
RTVSPropertyOp10
 70
     1
102
RTVSPropertyOp11
 70
     1
102
RTVSPropertyOp12
 70
     1
102
RTVSPropertyOp13
 70
     1
102
RTVSPropertyOp14
 70
     1
102
RTVSPropertyOp15
 70
     1
102
RTVSPropertyOp16
 70
     1
102
RTVSPropertyOp17
 70
     1
102
RTVSPropertyOp18
 70
     1
102
RTVSPropertyOp19
 70
     1
102
RTVSPropertyOp20
 70
     1
102
RTVSPropertyOp21
 70
     1
102
RTVSPropertyOp22
 70
     1
102
RTVSPropertyOp23
 70
     1
102
RTVSPropertyOp24
 70
     1
102
RTVSPropertyOp25
 70
     1
102
RTVSPropertyOp26
 70
     1
102
RTVSPropertyOp27
 70
     1
102
RTVSPropertyOp28
 70
     1
102
RTVSPropertyOp29
 70
     1
102
RTVSPropertyOp30
 70
     1
102
RTVSPropertyOp31
 70
     1
102
RTVSPropertyOp32
 70
     1
102
RTVSPropertyOp33
 70
     1
102
RTVSPropertyOp34
 70
     1
102
RTVSPropertyOp35
 70
     1
102
RTVSPropertyOp36
 70
     1
102
RTVSPropertyOp37
 70
     1
102
RTVSPropertyOp38
 70
     1
102
RTVSPropertyOp39
 70
     1
102
RTVSPropertyOp40
 70
     1
102
RTVSPropertyOp41
 70
     1
102
RTVSPropertyOp42
 70
     1
102
RTVSPropertyOp43
 70
     1
102
RTVSPropertyOp44
 70
     1
102
RTVSPropertyOp45
 70
     1
102
RTVSPropertyOp46
 70
     1
102
RTVSPropertyOp47
 70
     1
102
RTVSPropertyOp48
 70
     1
102
RTVSPropertyOp49
 70
     1
102
RTVSPropertyOp50
 70
     1
102
RTVSPropertyOp51
 70
     0
102
RTVSPropertyOp52
 70
     0
102
RTVSPropertyOp53
 70
     1
102
RTVSPropertyOp54
 70
     1
102
RTVSPropertyOp55
 70
     1
102
RTVSPropertyOp56
 70
     1
102
RTVSPropertyOp57
 70
     1
102
RTVSPropertyOp58
 70
     1
102
RTVSPropertyOp59
 70
     1
102
RTVSPropertyOp60
 70
     1
102
RTVSPropertyOp61
 70
     1
102
RTVSPropertyOp62
 70
     1
  0
XRECORD
  5
AA1D
102
{ACAD_REACTORS
330
AA1C
102
}
330
AA1C
100
AcDbXrecord
280
     1
102
RTVSPost2010Prop28
280
     0
102
RTVSPost2010PropOp28
 70
     1
102
RTVSPost2010Prop29
280
     1
102
RTVSPost2010PropOp29
 70
     1
102
RTVSPost2010Prop30
280
     1
102
RTVSPost2010PropOp30
 70
     1
102
RTVSPost2010Prop31
280
     0
102
RTVSPost2010PropOp31
 70
     1
102
RTVSPost2010Prop32
280
     0
102
RTVSPost2010PropOp32
 70
     1
102
RTVSPost2010Prop33
280
     0
102
RTVSPost2010PropOp33
 70
     1
102
RTVSPost2010Prop34
280
     0
102
RTVSPost2010PropOp34
 70
     1
102
RTVSPost2010Prop35
280
     0
102
RTVSPost2010PropOp35
 70
     1
102
RTVSPost2010Prop36
280
     0
102
RTVSPost2010PropOp36
 70
     1
102
RTVSPost2010Prop37
 90
       50
102
RTVSPost2010PropOp37
 70
     1
102
RTVSPost2010Prop38
140
0.0
102
RTVSPost2010PropOp38
 70
     1
102
RTVSPost2010Prop39
140
1.0
102
RTVSPost2010PropOp39
 70
     1
102
RTVSPost2010Prop40
 90
        0
102
RTVSPost2010PropOp40
 70
     1
102
RTVSPost2010Prop41ColorIndex
 90
       18
102
RTVSPost2010Prop41ColorRGB
 90
        0
102
RTVSPost2010PropOp41
 70
     1
102
RTVSPost2010Prop42
 90
       50
102
RTVSPost2010PropOp42
 70
     1
102
RTVSPost2010Prop43
 90
        3
102
RTVSPost2010PropOp43
 70
     1
102
RTVSPost2010Prop44ColorIndex
 90
        5
102
RTVSPost2010Prop44ColorRGB
 90
      255
102
RTVSPost2010PropOp44
 70
     1
102
RTVSPost2010Prop45
280
     0
102
RTVSPost2010PropOp45
 70
     1
102
RTVSPost2010Prop46
 90
       50
102
RTVSPost2010PropOp46
 70
     1
102
RTVSPost2010Prop47
 90
       50
102
RTVSPost2010PropOp47
 70
     1
102
RTVSPost2010Prop48
 90
       50
102
RTVSPost2010PropOp48
 70
     1
102
RTVSPost2010Prop49
280
     0
102
RTVSPost2010PropOp49
 70
     1
102
RTVSPost2010Prop50
 90
       50
102
RTVSPost2010PropOp50
 70
     1
102
RTVSPost2010Prop51ColorIndex
 90
      256
102
RTVSPost2010Prop51ColorRGB
 90
-16777216
102
RTVSPost2010PropOp51
 70
     0
102
RTVSPost2010Prop52
140
1.0
102
RTVSPost2010PropOp52
 70
     0
102
RTVSPost2010Prop53
 90
        2
102
RTVSPost2010PropOp53
 70
     1
102
RTVSPost2010Prop54
  1
strokes_ogs.tif
102
RTVSPost2010PropOp54
 70
     1
102
RTVSPost2010Prop55
280
     0
102
RTVSPost2010PropOp55
 70
     1
102
RTVSPost2010Prop56
140
1.0
102
RTVSPost2010PropOp56
 70
     1
102
RTVSPost2010Prop57
140
1.0
102
RTVSPost2010PropOp57
 70
     1
102
RTVSPropertyOp0
 70
     1
102
RTVSPropertyOp1
 70
     1
102
RTVSPropertyOp2
 70
     1
102
RTVSPropertyOp3
 70
     1
102
RTVSPropertyOp4
 70
     1
102
RTVSPropertyOp5
 70
     1
102
RTVSPropertyOp6
 70
     1
102
RTVSPropertyOp7
 70
     1
102
RTVSPropertyOp8
 70
     1
102
RTVSPropertyOp9
 70
     1
102
RTVSPropertyOp10
 70
     1
102
RTVSPropertyOp11
 70
     1
102
RTVSPropertyOp12
 70
     1
102
RTVSPropertyOp13
 70
     1
102
RTVSPropertyOp14
 70
     1
102
RTVSPropertyOp15
 70
     1
102
RTVSPropertyOp16
 70
     1
102
RTVSPropertyOp17
 70
     1
102
RTVSPropertyOp18
 70
     1
102
RTVSPropertyOp19
 70
     1
102
RTVSPropertyOp20
 70
     1
102
RTVSPropertyOp21
 70
     1
102
RTVSPropertyOp22
 70
     1
102
RTVSPropertyOp23
 70
     1
102
RTVSPropertyOp24
 70
     1
102
RTVSPropertyOp25
 70
     1
102
RTVSPropertyOp26
 70
     1
102
RTVSPropertyOp27
 70
     1
102
RTVSPropertyOp28
 70
     1
102
RTVSPropertyOp29
 70
     1
102
RTVSPropertyOp30
 70
     1
102
RTVSPropertyOp31
 70
     1
102
RTVSPropertyOp32
 70
     1
102
RTVSPropertyOp33
 70
     1
102
RTVSPropertyOp34
 70
     1
102
RTVSPropertyOp35
 70
     1
102
RTVSPropertyOp36
 70
     1
102
RTVSPropertyOp37
 70
     1
102
RTVSPropertyOp38
 70
     1
102
RTVSPropertyOp39
 70
     1
102
RTVSPropertyOp40
 70
     1
102
RTVSPropertyOp41
 70
     1
102
RTVSPropertyOp42
 70
     1
102
RTVSPropertyOp43
 70
     1
102
RTVSPropertyOp44
 70
     1
102
RTVSPropertyOp45
 70
     1
102
RTVSPropertyOp46
 70
     1
102
RTVSPropertyOp47
 70
     1
102
RTVSPropertyOp48
 70
     1
102
RTVSPropertyOp49
 70
     1
102
RTVSPropertyOp50
 70
     1
102
RTVSPropertyOp51
 70
     0
102
RTVSPropertyOp52
 70
     0
102
RTVSPropertyOp53
 70
     1
102
RTVSPropertyOp54
 70
     1
102
RTVSPropertyOp55
 70
     1
102
RTVSPropertyOp56
 70
     1
102
RTVSPropertyOp57
 70
     1
102
RTVSPropertyOp58
 70
     1
102
RTVSPropertyOp59
 70
     1
102
RTVSPropertyOp60
 70
     1
102
RTVSPropertyOp61
 70
     1
102
RTVSPropertyOp62
 70
     1
  0
XRECORD
  5
AA25
102
{ACAD_REACTORS
330
AA24
102
}
330
AA24
100
AcDbXrecord
280
     1
102
RTVSPost2010Prop28
280
     0
102
RTVSPost2010PropOp28
 70
     1
102
RTVSPost2010Prop29
280
     1
102
RTVSPost2010PropOp29
 70
     1
102
RTVSPost2010Prop30
280
     1
102
RTVSPost2010PropOp30
 70
     1
102
RTVSPost2010Prop31
280
     0
102
RTVSPost2010PropOp31
 70
     1
102
RTVSPost2010Prop32
280
     0
102
RTVSPost2010PropOp32
 70
     1
102
RTVSPost2010Prop33
280
     0
102
RTVSPost2010PropOp33
 70
     1
102
RTVSPost2010Prop34
280
     0
102
RTVSPost2010PropOp34
 70
     1
102
RTVSPost2010Prop35
280
     0
102
RTVSPost2010PropOp35
 70
     1
102
RTVSPost2010Prop36
280
     0
102
RTVSPost2010PropOp36
 70
     1
102
RTVSPost2010Prop37
 90
       50
102
RTVSPost2010PropOp37
 70
     1
102
RTVSPost2010Prop38
140
0.0
102
RTVSPost2010PropOp38
 70
     1
102
RTVSPost2010Prop39
140
1.0
102
RTVSPost2010PropOp39
 70
     1
102
RTVSPost2010Prop40
 90
        0
102
RTVSPost2010PropOp40
 70
     1
102
RTVSPost2010Prop41ColorIndex
 90
       18
102
RTVSPost2010Prop41ColorRGB
 90
        0
102
RTVSPost2010PropOp41
 70
     1
102
RTVSPost2010Prop42
 90
       50
102
RTVSPost2010PropOp42
 70
     1
102
RTVSPost2010Prop43
 90
        3
102
RTVSPost2010PropOp43
 70
     1
102
RTVSPost2010Prop44ColorIndex
 90
        5
102
RTVSPost2010Prop44ColorRGB
 90
      255
102
RTVSPost2010PropOp44
 70
     1
102
RTVSPost2010Prop45
280
     0
102
RTVSPost2010PropOp45
 70
     1
102
RTVSPost2010Prop46
 90
       50
102
RTVSPost2010PropOp46
 70
     1
102
RTVSPost2010Prop47
 90
       50
102
RTVSPost2010PropOp47
 70
     1
102
RTVSPost2010Prop48
 90
       50
102
RTVSPost2010PropOp48
 70
     1
102
RTVSPost2010Prop49
280
     0
102
RTVSPost2010PropOp49
 70
     1
102
RTVSPost2010Prop50
 90
       50
102
RTVSPost2010PropOp50
 70
     1
102
RTVSPost2010Prop51ColorIndex
 90
      256
102
RTVSPost2010Prop51ColorRGB
 90
-16777216
102
RTVSPost2010PropOp51
 70
     0
102
RTVSPost2010Prop52
140
1.0
102
RTVSPost2010PropOp52
 70
     0
102
RTVSPost2010Prop53
 90
        2
102
RTVSPost2010PropOp53
 70
     1
102
RTVSPost2010Prop54
  1
strokes_ogs.tif
102
RTVSPost2010PropOp54
 70
     1
102
RTVSPost2010Prop55
280
     0
102
RTVSPost2010PropOp55
 70
     1
102
RTVSPost2010Prop56
140
1.0
102
RTVSPost2010PropOp56
 70
     1
102
RTVSPost2010Prop57
140
1.0
102
RTVSPost2010PropOp57
 70
     1
102
RTVSPropertyOp0
 70
     1
102
RTVSPropertyOp1
 70
     1
102
RTVSPropertyOp2
 70
     1
102
RTVSPropertyOp3
 70
     1
102
RTVSPropertyOp4
 70
     1
102
RTVSPropertyOp5
 70
     1
102
RTVSPropertyOp6
 70
     1
102
RTVSPropertyOp7
 70
     1
102
RTVSPropertyOp8
 70
     1
102
RTVSPropertyOp9
 70
     1
102
RTVSPropertyOp10
 70
     1
102
RTVSPropertyOp11
 70
     1
102
RTVSPropertyOp12
 70
     1
102
RTVSPropertyOp13
 70
     1
102
RTVSPropertyOp14
 70
     1
102
RTVSPropertyOp15
 70
     1
102
RTVSPropertyOp16
 70
     1
102
RTVSPropertyOp17
 70
     1
102
RTVSPropertyOp18
 70
     1
102
RTVSPropertyOp19
 70
     1
102
RTVSPropertyOp20
 70
     1
102
RTVSPropertyOp21
 70
     1
102
RTVSPropertyOp22
 70
     1
102
RTVSPropertyOp23
 70
     1
102
RTVSPropertyOp24
 70
     1
102
RTVSPropertyOp25
 70
     1
102
RTVSPropertyOp26
 70
     1
102
RTVSPropertyOp27
 70
     1
102
RTVSPropertyOp28
 70
     1
102
RTVSPropertyOp29
 70
     1
102
RTVSPropertyOp30
 70
     1
102
RTVSPropertyOp31
 70
     1
102
RTVSPropertyOp32
 70
     1
102
RTVSPropertyOp33
 70
     1
102
RTVSPropertyOp34
 70
     1
102
RTVSPropertyOp35
 70
     1
102
RTVSPropertyOp36
 70
     1
102
RTVSPropertyOp37
 70
     1
102
RTVSPropertyOp38
 70
     1
102
RTVSPropertyOp39
 70
     1
102
RTVSPropertyOp40
 70
     1
102
RTVSPropertyOp41
 70
     1
102
RTVSPropertyOp42
 70
     1
102
RTVSPropertyOp43
 70
     1
102
RTVSPropertyOp44
 70
     1
102
RTVSPropertyOp45
 70
     1
102
RTVSPropertyOp46
 70
     1
102
RTVSPropertyOp47
 70
     1
102
RTVSPropertyOp48
 70
     1
102
RTVSPropertyOp49
 70
     1
102
RTVSPropertyOp50
 70
     1
102
RTVSPropertyOp51
 70
     0
102
RTVSPropertyOp52
 70
     0
102
RTVSPropertyOp53
 70
     1
102
RTVSPropertyOp54
 70
     1
102
RTVSPropertyOp55
 70
     1
102
RTVSPropertyOp56
 70
     1
102
RTVSPropertyOp57
 70
     1
102
RTVSPropertyOp58
 70
     1
102
RTVSPropertyOp59
 70
     1
102
RTVSPropertyOp60
 70
     1
102
RTVSPropertyOp61
 70
     1
102
RTVSPropertyOp62
 70
     1
  0
XRECORD
  5
AA41
102
{ACAD_REACTORS
330
AA40
102
}
330
AA40
100
AcDbXrecord
280
     1
102
RTVSPost2010Prop28
280
     0
102
RTVSPost2010PropOp28
 70
     1
102
RTVSPost2010Prop29
280
     1
102
RTVSPost2010PropOp29
 70
     1
102
RTVSPost2010Prop30
280
     1
102
RTVSPost2010PropOp30
 70
     1
102
RTVSPost2010Prop31
280
     0
102
RTVSPost2010PropOp31
 70
     1
102
RTVSPost2010Prop32
280
     0
102
RTVSPost2010PropOp32
 70
     1
102
RTVSPost2010Prop33
280
     0
102
RTVSPost2010PropOp33
 70
     1
102
RTVSPost2010Prop34
280
     0
102
RTVSPost2010PropOp34
 70
     1
102
RTVSPost2010Prop35
280
     0
102
RTVSPost2010PropOp35
 70
     1
102
RTVSPost2010Prop36
280
     0
102
RTVSPost2010PropOp36
 70
     1
102
RTVSPost2010Prop37
 90
       50
102
RTVSPost2010PropOp37
 70
     0
102
RTVSPost2010Prop38
140
0.0
102
RTVSPost2010PropOp38
 70
     0
102
RTVSPost2010Prop39
140
1.0
102
RTVSPost2010PropOp39
 70
     0
102
RTVSPost2010Prop40
 90
        0
102
RTVSPost2010PropOp40
 70
     0
102
RTVSPost2010Prop41ColorIndex
 90
       18
102
RTVSPost2010Prop41ColorRGB
 90
        0
102
RTVSPost2010PropOp41
 70
     0
102
RTVSPost2010Prop42
 90
       50
102
RTVSPost2010PropOp42
 70
     0
102
RTVSPost2010Prop43
 90
        3
102
RTVSPost2010PropOp43
 70
     0
102
RTVSPost2010Prop44ColorIndex
 90
        5
102
RTVSPost2010Prop44ColorRGB
 90
      255
102
RTVSPost2010PropOp44
 70
     0
102
RTVSPost2010Prop45
280
     0
102
RTVSPost2010PropOp45
 70
     1
102
RTVSPost2010Prop46
 90
       50
102
RTVSPost2010PropOp46
 70
     0
102
RTVSPost2010Prop47
 90
       50
102
RTVSPost2010PropOp47
 70
     0
102
RTVSPost2010Prop48
 90
       50
102
RTVSPost2010PropOp48
 70
     0
102
RTVSPost2010Prop49
280
     0
102
RTVSPost2010PropOp49
 70
     1
102
RTVSPost2010Prop50
 90
       50
102
RTVSPost2010PropOp50
 70
     0
102
RTVSPost2010Prop51ColorIndex
 90
      256
102
RTVSPost2010Prop51ColorRGB
 90
-16777216
102
RTVSPost2010PropOp51
 70
     0
102
RTVSPost2010Prop52
140
1.0
102
RTVSPost2010PropOp52
 70
     0
102
RTVSPost2010Prop53
 90
        2
102
RTVSPost2010PropOp53
 70
     0
102
RTVSPost2010Prop54
  1
strokes_ogs.tif
102
RTVSPost2010PropOp54
 70
     0
102
RTVSPost2010Prop55
280
     0
102
RTVSPost2010PropOp55
 70
     1
102
RTVSPost2010Prop56
140
1.0
102
RTVSPost2010PropOp56
 70
     0
102
RTVSPost2010Prop57
140
1.0
102
RTVSPost2010PropOp57
 70
     0
102
RTVSPropertyOp0
 70
     0
102
RTVSPropertyOp1
 70
     0
102
RTVSPropertyOp2
 70
     0
102
RTVSPropertyOp3
 70
     0
102
RTVSPropertyOp4
 70
     0
102
RTVSPropertyOp5
 70
     0
102
RTVSPropertyOp6
 70
     0
102
RTVSPropertyOp7
 70
     0
102
RTVSPropertyOp8
 70
     0
102
RTVSPropertyOp9
 70
     0
102
RTVSPropertyOp10
 70
     0
102
RTVSPropertyOp11
 70
     0
102
RTVSPropertyOp12
 70
     0
102
RTVSPropertyOp13
 70
     0
102
RTVSPropertyOp14
 70
     2
102
RTVSPropertyOp15
 70
     0
102
RTVSPropertyOp16
 70
     0
102
RTVSPropertyOp17
 70
     0
102
RTVSPropertyOp18
 70
     0
102
RTVSPropertyOp19
 70
     0
102
RTVSPropertyOp20
 70
     0
102
RTVSPropertyOp21
 70
     0
102
RTVSPropertyOp22
 70
     0
102
RTVSPropertyOp23
 70
     0
102
RTVSPropertyOp24
 70
     0
102
RTVSPropertyOp25
 70
     0
102
RTVSPropertyOp26
 70
     0
102
RTVSPropertyOp27
 70
     0
102
RTVSPropertyOp28
 70
     1
102
RTVSPropertyOp29
 70
     1
102
RTVSPropertyOp30
 70
     1
102
RTVSPropertyOp31
 70
     1
102
RTVSPropertyOp32
 70
     1
102
RTVSPropertyOp33
 70
     1
102
RTVSPropertyOp34
 70
     1
102
RTVSPropertyOp35
 70
     1
102
RTVSPropertyOp36
 70
     1
102
RTVSPropertyOp37
 70
     0
102
RTVSPropertyOp38
 70
     0
102
RTVSPropertyOp39
 70
     0
102
RTVSPropertyOp40
 70
     0
102
RTVSPropertyOp41
 70
     0
102
RTVSPropertyOp42
 70
     0
102
RTVSPropertyOp43
 70
     0
102
RTVSPropertyOp44
 70
     0
102
RTVSPropertyOp45
 70
     1
102
RTVSPropertyOp46
 70
     0
102
RTVSPropertyOp47
 70
     0
102
RTVSPropertyOp48
 70
     0
102
RTVSPropertyOp49
 70
     1
102
RTVSPropertyOp50
 70
     0
102
RTVSPropertyOp51
 70
     0
102
RTVSPropertyOp52
 70
     0
102
RTVSPropertyOp53
 70
     0
102
RTVSPropertyOp54
 70
     0
102
RTVSPropertyOp55
 70
     1
102
RTVSPropertyOp56
 70
     0
102
RTVSPropertyOp57
 70
     0
102
RTVSPropertyOp58
 70
     0
102
RTVSPropertyOp59
 70
     0
102
RTVSPropertyOp60
 70
     0
102
RTVSPropertyOp61
 70
     0
102
RTVSPropertyOp62
 70
     0
  0
XRECORD
  5
AA31
102
{ACAD_REACTORS
330
AA30
102
}
330
AA30
100
AcDbXrecord
280
     1
102
RTVSPost2010Prop28
280
     0
102
RTVSPost2010PropOp28
 70
     1
102
RTVSPost2010Prop29
280
     1
102
RTVSPost2010PropOp29
 70
     1
102
RTVSPost2010Prop30
280
     1
102
RTVSPost2010PropOp30
 70
     1
102
RTVSPost2010Prop31
280
     0
102
RTVSPost2010PropOp31
 70
     1
102
RTVSPost2010Prop32
280
     0
102
RTVSPost2010PropOp32
 70
     1
102
RTVSPost2010Prop33
280
     0
102
RTVSPost2010PropOp33
 70
     1
102
RTVSPost2010Prop34
280
     0
102
RTVSPost2010PropOp34
 70
     1
102
RTVSPost2010Prop35
280
     0
102
RTVSPost2010PropOp35
 70
     1
102
RTVSPost2010Prop36
280
     0
102
RTVSPost2010PropOp36
 70
     1
102
RTVSPost2010Prop37
 90
       50
102
RTVSPost2010PropOp37
 70
     1
102
RTVSPost2010Prop38
140
0.0
102
RTVSPost2010PropOp38
 70
     1
102
RTVSPost2010Prop39
140
1.0
102
RTVSPost2010PropOp39
 70
     1
102
RTVSPost2010Prop40
 90
        0
102
RTVSPost2010PropOp40
 70
     1
102
RTVSPost2010Prop41ColorIndex
 90
       18
102
RTVSPost2010Prop41ColorRGB
 90
        0
102
RTVSPost2010PropOp41
 70
     1
102
RTVSPost2010Prop42
 90
       50
102
RTVSPost2010PropOp42
 70
     1
102
RTVSPost2010Prop43
 90
        3
102
RTVSPost2010PropOp43
 70
     1
102
RTVSPost2010Prop44ColorIndex
 90
        5
102
RTVSPost2010Prop44ColorRGB
 90
      255
102
RTVSPost2010PropOp44
 70
     1
102
RTVSPost2010Prop45
280
     0
102
RTVSPost2010PropOp45
 70
     1
102
RTVSPost2010Prop46
 90
       50
102
RTVSPost2010PropOp46
 70
     1
102
RTVSPost2010Prop47
 90
       50
102
RTVSPost2010PropOp47
 70
     1
102
RTVSPost2010Prop48
 90
       50
102
RTVSPost2010PropOp48
 70
     1
102
RTVSPost2010Prop49
280
     0
102
RTVSPost2010PropOp49
 70
     1
102
RTVSPost2010Prop50
 90
       50
102
RTVSPost2010PropOp50
 70
     1
102
RTVSPost2010Prop51ColorIndex
 90
      256
102
RTVSPost2010Prop51ColorRGB
 90
-16777216
102
RTVSPost2010PropOp51
 70
     0
102
RTVSPost2010Prop52
140
1.0
102
RTVSPost2010PropOp52
 70
     0
102
RTVSPost2010Prop53
 90
        2
102
RTVSPost2010PropOp53
 70
     1
102
RTVSPost2010Prop54
  1
strokes_ogs.tif
102
RTVSPost2010PropOp54
 70
     1
102
RTVSPost2010Prop55
280
     0
102
RTVSPost2010PropOp55
 70
     1
102
RTVSPost2010Prop56
140
1.0
102
RTVSPost2010PropOp56
 70
     1
102
RTVSPost2010Prop57
140
1.0
102
RTVSPost2010PropOp57
 70
     1
102
RTVSPropertyOp0
 70
     1
102
RTVSPropertyOp1
 70
     1
102
RTVSPropertyOp2
 70
     1
102
RTVSPropertyOp3
 70
     1
102
RTVSPropertyOp4
 70
     1
102
RTVSPropertyOp5
 70
     1
102
RTVSPropertyOp6
 70
     1
102
RTVSPropertyOp7
 70
     1
102
RTVSPropertyOp8
 70
     1
102
RTVSPropertyOp9
 70
     1
102
RTVSPropertyOp10
 70
     1
102
RTVSPropertyOp11
 70
     1
102
RTVSPropertyOp12
 70
     1
102
RTVSPropertyOp13
 70
     1
102
RTVSPropertyOp14
 70
     1
102
RTVSPropertyOp15
 70
     1
102
RTVSPropertyOp16
 70
     1
102
RTVSPropertyOp17
 70
     1
102
RTVSPropertyOp18
 70
     1
102
RTVSPropertyOp19
 70
     1
102
RTVSPropertyOp20
 70
     1
102
RTVSPropertyOp21
 70
     1
102
RTVSPropertyOp22
 70
     1
102
RTVSPropertyOp23
 70
     1
102
RTVSPropertyOp24
 70
     1
102
RTVSPropertyOp25
 70
     1
102
RTVSPropertyOp26
 70
     1
102
RTVSPropertyOp27
 70
     1
102
RTVSPropertyOp28
 70
     1
102
RTVSPropertyOp29
 70
     1
102
RTVSPropertyOp30
 70
     1
102
RTVSPropertyOp31
 70
     1
102
RTVSPropertyOp32
 70
     1
102
RTVSPropertyOp33
 70
     1
102
RTVSPropertyOp34
 70
     1
102
RTVSPropertyOp35
 70
     1
102
RTVSPropertyOp36
 70
     1
102
RTVSPropertyOp37
 70
     1
102
RTVSPropertyOp38
 70
     1
102
RTVSPropertyOp39
 70
     1
102
RTVSPropertyOp40
 70
     1
102
RTVSPropertyOp41
 70
     1
102
RTVSPropertyOp42
 70
     1
102
RTVSPropertyOp43
 70
     1
102
RTVSPropertyOp44
 70
     1
102
RTVSPropertyOp45
 70
     1
102
RTVSPropertyOp46
 70
     1
102
RTVSPropertyOp47
 70
     1
102
RTVSPropertyOp48
 70
     1
102
RTVSPropertyOp49
 70
     1
102
RTVSPropertyOp50
 70
     1
102
RTVSPropertyOp51
 70
     0
102
RTVSPropertyOp52
 70
     0
102
RTVSPropertyOp53
 70
     1
102
RTVSPropertyOp54
 70
     1
102
RTVSPropertyOp55
 70
     1
102
RTVSPropertyOp56
 70
     1
102
RTVSPropertyOp57
 70
     1
102
RTVSPropertyOp58
 70
     1
102
RTVSPropertyOp59
 70
     1
102
RTVSPropertyOp60
 70
     1
102
RTVSPropertyOp61
 70
     1
102
RTVSPropertyOp62
 70
     1
  0
XRECORD
  5
AA43
102
{ACAD_REACTORS
330
AA42
102
}
330
AA42
100
AcDbXrecord
280
     1
102
RTVSPost2010Prop28
280
     0
102
RTVSPost2010PropOp28
 70
     1
102
RTVSPost2010Prop29
280
     1
102
RTVSPost2010PropOp29
 70
     1
102
RTVSPost2010Prop30
280
     1
102
RTVSPost2010PropOp30
 70
     1
102
RTVSPost2010Prop31
280
     0
102
RTVSPost2010PropOp31
 70
     1
102
RTVSPost2010Prop32
280
     0
102
RTVSPost2010PropOp32
 70
     1
102
RTVSPost2010Prop33
280
     0
102
RTVSPost2010PropOp33
 70
     1
102
RTVSPost2010Prop34
280
     0
102
RTVSPost2010PropOp34
 70
     1
102
RTVSPost2010Prop35
280
     0
102
RTVSPost2010PropOp35
 70
     1
102
RTVSPost2010Prop36
280
     0
102
RTVSPost2010PropOp36
 70
     1
102
RTVSPost2010Prop37
 90
       50
102
RTVSPost2010PropOp37
 70
     0
102
RTVSPost2010Prop38
140
0.0
102
RTVSPost2010PropOp38
 70
     0
102
RTVSPost2010Prop39
140
1.0
102
RTVSPost2010PropOp39
 70
     0
102
RTVSPost2010Prop40
 90
        0
102
RTVSPost2010PropOp40
 70
     0
102
RTVSPost2010Prop41ColorIndex
 90
       18
102
RTVSPost2010Prop41ColorRGB
 90
        0
102
RTVSPost2010PropOp41
 70
     0
102
RTVSPost2010Prop42
 90
       50
102
RTVSPost2010PropOp42
 70
     0
102
RTVSPost2010Prop43
 90
        3
102
RTVSPost2010PropOp43
 70
     0
102
RTVSPost2010Prop44ColorIndex
 90
        5
102
RTVSPost2010Prop44ColorRGB
 90
      255
102
RTVSPost2010PropOp44
 70
     0
102
RTVSPost2010Prop45
280
     0
102
RTVSPost2010PropOp45
 70
     1
102
RTVSPost2010Prop46
 90
       50
102
RTVSPost2010PropOp46
 70
     0
102
RTVSPost2010Prop47
 90
       50
102
RTVSPost2010PropOp47
 70
     0
102
RTVSPost2010Prop48
 90
       50
102
RTVSPost2010PropOp48
 70
     0
102
RTVSPost2010Prop49
280
     0
102
RTVSPost2010PropOp49
 70
     1
102
RTVSPost2010Prop50
 90
       50
102
RTVSPost2010PropOp50
 70
     0
102
RTVSPost2010Prop51ColorIndex
 90
      256
102
RTVSPost2010Prop51ColorRGB
 90
-16777216
102
RTVSPost2010PropOp51
 70
     0
102
RTVSPost2010Prop52
140
1.0
102
RTVSPost2010PropOp52
 70
     0
102
RTVSPost2010Prop53
 90
        2
102
RTVSPost2010PropOp53
 70
     0
102
RTVSPost2010Prop54
  1
strokes_ogs.tif
102
RTVSPost2010PropOp54
 70
     0
102
RTVSPost2010Prop55
280
     0
102
RTVSPost2010PropOp55
 70
     1
102
RTVSPost2010Prop56
140
1.0
102
RTVSPost2010PropOp56
 70
     0
102
RTVSPost2010Prop57
140
1.0
102
RTVSPost2010PropOp57
 70
     0
102
RTVSPropertyOp0
 70
     0
102
RTVSPropertyOp1
 70
     0
102
RTVSPropertyOp2
 70
     0
102
RTVSPropertyOp3
 70
     0
102
RTVSPropertyOp4
 70
     0
102
RTVSPropertyOp5
 70
     0
102
RTVSPropertyOp6
 70
     0
102
RTVSPropertyOp7
 70
     0
102
RTVSPropertyOp8
 70
     0
102
RTVSPropertyOp9
 70
     0
102
RTVSPropertyOp10
 70
     0
102
RTVSPropertyOp11
 70
     0
102
RTVSPropertyOp12
 70
     0
102
RTVSPropertyOp13
 70
     0
102
RTVSPropertyOp14
 70
     2
102
RTVSPropertyOp15
 70
     0
102
RTVSPropertyOp16
 70
     0
102
RTVSPropertyOp17
 70
     0
102
RTVSPropertyOp18
 70
     0
102
RTVSPropertyOp19
 70
     0
102
RTVSPropertyOp20
 70
     0
102
RTVSPropertyOp21
 70
     0
102
RTVSPropertyOp22
 70
     0
102
RTVSPropertyOp23
 70
     0
102
RTVSPropertyOp24
 70
     0
102
RTVSPropertyOp25
 70
     0
102
RTVSPropertyOp26
 70
     0
102
RTVSPropertyOp27
 70
     0
102
RTVSPropertyOp28
 70
     1
102
RTVSPropertyOp29
 70
     1
102
RTVSPropertyOp30
 70
     1
102
RTVSPropertyOp31
 70
     1
102
RTVSPropertyOp32
 70
     1
102
RTVSPropertyOp33
 70
     1
102
RTVSPropertyOp34
 70
     1
102
RTVSPropertyOp35
 70
     1
102
RTVSPropertyOp36
 70
     1
102
RTVSPropertyOp37
 70
     0
102
RTVSPropertyOp38
 70
     0
102
RTVSPropertyOp39
 70
     0
102
RTVSPropertyOp40
 70
     0
102
RTVSPropertyOp41
 70
     0
102
RTVSPropertyOp42
 70
     0
102
RTVSPropertyOp43
 70
     0
102
RTVSPropertyOp44
 70
     0
102
RTVSPropertyOp45
 70
     1
102
RTVSPropertyOp46
 70
     0
102
RTVSPropertyOp47
 70
     0
102
RTVSPropertyOp48
 70
     0
102
RTVSPropertyOp49
 70
     1
102
RTVSPropertyOp50
 70
     0
102
RTVSPropertyOp51
 70
     0
102
RTVSPropertyOp52
 70
     0
102
RTVSPropertyOp53
 70
     0
102
RTVSPropertyOp54
 70
     0
102
RTVSPropertyOp55
 70
     1
102
RTVSPropertyOp56
 70
     0
102
RTVSPropertyOp57
 70
     0
102
RTVSPropertyOp58
 70
     0
102
RTVSPropertyOp59
 70
     0
102
RTVSPropertyOp60
 70
     0
102
RTVSPropertyOp61
 70
     0
102
RTVSPropertyOp62
 70
     0
  0
XRECORD
  5
AA29
102
{ACAD_REACTORS
330
AA28
102
}
330
AA28
100
AcDbXrecord
280
     1
102
RTVSPost2010Prop28
280
     0
102
RTVSPost2010PropOp28
 70
     1
102
RTVSPost2010Prop29
280
     1
102
RTVSPost2010PropOp29
 70
     1
102
RTVSPost2010Prop30
280
     1
102
RTVSPost2010PropOp30
 70
     1
102
RTVSPost2010Prop31
280
     0
102
RTVSPost2010PropOp31
 70
     1
102
RTVSPost2010Prop32
280
     0
102
RTVSPost2010PropOp32
 70
     1
102
RTVSPost2010Prop33
280
     0
102
RTVSPost2010PropOp33
 70
     1
102
RTVSPost2010Prop34
280
     0
102
RTVSPost2010PropOp34
 70
     1
102
RTVSPost2010Prop35
280
     0
102
RTVSPost2010PropOp35
 70
     1
102
RTVSPost2010Prop36
280
     0
102
RTVSPost2010PropOp36
 70
     1
102
RTVSPost2010Prop37
 90
       50
102
RTVSPost2010PropOp37
 70
     1
102
RTVSPost2010Prop38
140
0.0
102
RTVSPost2010PropOp38
 70
     1
102
RTVSPost2010Prop39
140
1.0
102
RTVSPost2010PropOp39
 70
     1
102
RTVSPost2010Prop40
 90
        0
102
RTVSPost2010PropOp40
 70
     1
102
RTVSPost2010Prop41ColorIndex
 90
       18
102
RTVSPost2010Prop41ColorRGB
 90
        0
102
RTVSPost2010PropOp41
 70
     1
102
RTVSPost2010Prop42
 90
       50
102
RTVSPost2010PropOp42
 70
     1
102
RTVSPost2010Prop43
 90
        3
102
RTVSPost2010PropOp43
 70
     1
102
RTVSPost2010Prop44ColorIndex
 90
        5
102
RTVSPost2010Prop44ColorRGB
 90
      255
102
RTVSPost2010PropOp44
 70
     1
102
RTVSPost2010Prop45
280
     0
102
RTVSPost2010PropOp45
 70
     1
102
RTVSPost2010Prop46
 90
       50
102
RTVSPost2010PropOp46
 70
     1
102
RTVSPost2010Prop47
 90
       50
102
RTVSPost2010PropOp47
 70
     1
102
RTVSPost2010Prop48
 90
       50
102
RTVSPost2010PropOp48
 70
     1
102
RTVSPost2010Prop49
280
     0
102
RTVSPost2010PropOp49
 70
     1
102
RTVSPost2010Prop50
 90
       50
102
RTVSPost2010PropOp50
 70
     1
102
RTVSPost2010Prop51ColorIndex
 90
      256
102
RTVSPost2010Prop51ColorRGB
 90
-16777216
102
RTVSPost2010PropOp51
 70
     0
102
RTVSPost2010Prop52
140
1.0
102
RTVSPost2010PropOp52
 70
     0
102
RTVSPost2010Prop53
 90
        2
102
RTVSPost2010PropOp53
 70
     1
102
RTVSPost2010Prop54
  1
strokes_ogs.tif
102
RTVSPost2010PropOp54
 70
     1
102
RTVSPost2010Prop55
280
     0
102
RTVSPost2010PropOp55
 70
     1
102
RTVSPost2010Prop56
140
1.0
102
RTVSPost2010PropOp56
 70
     1
102
RTVSPost2010Prop57
140
1.0
102
RTVSPost2010PropOp57
 70
     1
102
RTVSPropertyOp0
 70
     1
102
RTVSPropertyOp1
 70
     1
102
RTVSPropertyOp2
 70
     1
102
RTVSPropertyOp3
 70
     1
102
RTVSPropertyOp4
 70
     1
102
RTVSPropertyOp5
 70
     1
102
RTVSPropertyOp6
 70
     1
102
RTVSPropertyOp7
 70
     1
102
RTVSPropertyOp8
 70
     1
102
RTVSPropertyOp9
 70
     1
102
RTVSPropertyOp10
 70
     1
102
RTVSPropertyOp11
 70
     1
102
RTVSPropertyOp12
 70
     1
102
RTVSPropertyOp13
 70
     1
102
RTVSPropertyOp14
 70
     1
102
RTVSPropertyOp15
 70
     1
102
RTVSPropertyOp16
 70
     1
102
RTVSPropertyOp17
 70
     1
102
RTVSPropertyOp18
 70
     1
102
RTVSPropertyOp19
 70
     1
102
RTVSPropertyOp20
 70
     1
102
RTVSPropertyOp21
 70
     1
102
RTVSPropertyOp22
 70
     1
102
RTVSPropertyOp23
 70
     1
102
RTVSPropertyOp24
 70
     1
102
RTVSPropertyOp25
 70
     1
102
RTVSPropertyOp26
 70
     1
102
RTVSPropertyOp27
 70
     1
102
RTVSPropertyOp28
 70
     1
102
RTVSPropertyOp29
 70
     1
102
RTVSPropertyOp30
 70
     1
102
RTVSPropertyOp31
 70
     1
102
RTVSPropertyOp32
 70
     1
102
RTVSPropertyOp33
 70
     1
102
RTVSPropertyOp34
 70
     1
102
RTVSPropertyOp35
 70
     1
102
RTVSPropertyOp36
 70
     1
102
RTVSPropertyOp37
 70
     1
102
RTVSPropertyOp38
 70
     1
102
RTVSPropertyOp39
 70
     1
102
RTVSPropertyOp40
 70
     1
102
RTVSPropertyOp41
 70
     1
102
RTVSPropertyOp42
 70
     1
102
RTVSPropertyOp43
 70
     1
102
RTVSPropertyOp44
 70
     1
102
RTVSPropertyOp45
 70
     1
102
RTVSPropertyOp46
 70
     1
102
RTVSPropertyOp47
 70
     1
102
RTVSPropertyOp48
 70
     1
102
RTVSPropertyOp49
 70
     1
102
RTVSPropertyOp50
 70
     1
102
RTVSPropertyOp51
 70
     0
102
RTVSPropertyOp52
 70
     0
102
RTVSPropertyOp53
 70
     1
102
RTVSPropertyOp54
 70
     1
102
RTVSPropertyOp55
 70
     1
102
RTVSPropertyOp56
 70
     1
102
RTVSPropertyOp57
 70
     1
102
RTVSPropertyOp58
 70
     1
102
RTVSPropertyOp59
 70
     1
102
RTVSPropertyOp60
 70
     1
102
RTVSPropertyOp61
 70
     1
102
RTVSPropertyOp62
 70
     1
  0
XRECORD
  5
AA3F
102
{ACAD_REACTORS
330
AA3E
102
}
330
AA3E
100
AcDbXrecord
280
     1
102
RTVSPost2010Prop28
280
     0
102
RTVSPost2010PropOp28
 70
     1
102
RTVSPost2010Prop29
280
     1
102
RTVSPost2010PropOp29
 70
     1
102
RTVSPost2010Prop30
280
     1
102
RTVSPost2010PropOp30
 70
     1
102
RTVSPost2010Prop31
280
     0
102
RTVSPost2010PropOp31
 70
     1
102
RTVSPost2010Prop32
280
     0
102
RTVSPost2010PropOp32
 70
     1
102
RTVSPost2010Prop33
280
     0
102
RTVSPost2010PropOp33
 70
     1
102
RTVSPost2010Prop34
280
     0
102
RTVSPost2010PropOp34
 70
     1
102
RTVSPost2010Prop35
280
     0
102
RTVSPost2010PropOp35
 70
     1
102
RTVSPost2010Prop36
280
     0
102
RTVSPost2010PropOp36
 70
     1
102
RTVSPost2010Prop37
 90
       50
102
RTVSPost2010PropOp37
 70
     1
102
RTVSPost2010Prop38
140
0.0
102
RTVSPost2010PropOp38
 70
     1
102
RTVSPost2010Prop39
140
1.0
102
RTVSPost2010PropOp39
 70
     1
102
RTVSPost2010Prop40
 90
        0
102
RTVSPost2010PropOp40
 70
     1
102
RTVSPost2010Prop41ColorIndex
 90
       18
102
RTVSPost2010Prop41ColorRGB
 90
        0
102
RTVSPost2010PropOp41
 70
     1
102
RTVSPost2010Prop42
 90
       50
102
RTVSPost2010PropOp42
 70
     1
102
RTVSPost2010Prop43
 90
        3
102
RTVSPost2010PropOp43
 70
     1
102
RTVSPost2010Prop44ColorIndex
 90
        5
102
RTVSPost2010Prop44ColorRGB
 90
      255
102
RTVSPost2010PropOp44
 70
     1
102
RTVSPost2010Prop45
280
     0
102
RTVSPost2010PropOp45
 70
     1
102
RTVSPost2010Prop46
 90
       50
102
RTVSPost2010PropOp46
 70
     1
102
RTVSPost2010Prop47
 90
       50
102
RTVSPost2010PropOp47
 70
     1
102
RTVSPost2010Prop48
 90
       50
102
RTVSPost2010PropOp48
 70
     1
102
RTVSPost2010Prop49
280
     0
102
RTVSPost2010PropOp49
 70
     1
102
RTVSPost2010Prop50
 90
       50
102
RTVSPost2010PropOp50
 70
     1
102
RTVSPost2010Prop51ColorIndex
 90
      256
102
RTVSPost2010Prop51ColorRGB
 90
-16777216
102
RTVSPost2010PropOp51
 70
     0
102
RTVSPost2010Prop52
140
1.0
102
RTVSPost2010PropOp52
 70
     0
102
RTVSPost2010Prop53
 90
        2
102
RTVSPost2010PropOp53
 70
     1
102
RTVSPost2010Prop54
  1
strokes_ogs.tif
102
RTVSPost2010PropOp54
 70
     1
102
RTVSPost2010Prop55
280
     0
102
RTVSPost2010PropOp55
 70
     1
102
RTVSPost2010Prop56
140
1.0
102
RTVSPost2010PropOp56
 70
     1
102
RTVSPost2010Prop57
140
1.0
102
RTVSPost2010PropOp57
 70
     1
102
RTVSPropertyOp0
 70
     1
102
RTVSPropertyOp1
 70
     1
102
RTVSPropertyOp2
 70
     1
102
RTVSPropertyOp3
 70
     1
102
RTVSPropertyOp4
 70
     1
102
RTVSPropertyOp5
 70
     1
102
RTVSPropertyOp6
 70
     1
102
RTVSPropertyOp7
 70
     1
102
RTVSPropertyOp8
 70
     1
102
RTVSPropertyOp9
 70
     1
102
RTVSPropertyOp10
 70
     1
102
RTVSPropertyOp11
 70
     1
102
RTVSPropertyOp12
 70
     1
102
RTVSPropertyOp13
 70
     1
102
RTVSPropertyOp14
 70
     1
102
RTVSPropertyOp15
 70
     1
102
RTVSPropertyOp16
 70
     1
102
RTVSPropertyOp17
 70
     1
102
RTVSPropertyOp18
 70
     1
102
RTVSPropertyOp19
 70
     1
102
RTVSPropertyOp20
 70
     1
102
RTVSPropertyOp21
 70
     1
102
RTVSPropertyOp22
 70
     1
102
RTVSPropertyOp23
 70
     1
102
RTVSPropertyOp24
 70
     1
102
RTVSPropertyOp25
 70
     1
102
RTVSPropertyOp26
 70
     1
102
RTVSPropertyOp27
 70
     1
102
RTVSPropertyOp28
 70
     1
102
RTVSPropertyOp29
 70
     1
102
RTVSPropertyOp30
 70
     1
102
RTVSPropertyOp31
 70
     1
102
RTVSPropertyOp32
 70
     1
102
RTVSPropertyOp33
 70
     1
102
RTVSPropertyOp34
 70
     1
102
RTVSPropertyOp35
 70
     1
102
RTVSPropertyOp36
 70
     1
102
RTVSPropertyOp37
 70
     1
102
RTVSPropertyOp38
 70
     1
102
RTVSPropertyOp39
 70
     1
102
RTVSPropertyOp40
 70
     1
102
RTVSPropertyOp41
 70
     1
102
RTVSPropertyOp42
 70
     1
102
RTVSPropertyOp43
 70
     1
102
RTVSPropertyOp44
 70
     1
102
RTVSPropertyOp45
 70
     1
102
RTVSPropertyOp46
 70
     1
102
RTVSPropertyOp47
 70
     1
102
RTVSPropertyOp48
 70
     1
102
RTVSPropertyOp49
 70
     1
102
RTVSPropertyOp50
 70
     1
102
RTVSPropertyOp51
 70
     0
102
RTVSPropertyOp52
 70
     0
102
RTVSPropertyOp53
 70
     1
102
RTVSPropertyOp54
 70
     1
102
RTVSPropertyOp55
 70
     1
102
RTVSPropertyOp56
 70
     1
102
RTVSPropertyOp57
 70
     1
102
RTVSPropertyOp58
 70
     1
102
RTVSPropertyOp59
 70
     1
102
RTVSPropertyOp60
 70
     1
102
RTVSPropertyOp61
 70
     1
102
RTVSPropertyOp62
 70
     1
  0
XRECORD
  5
AA3D
102
{ACAD_REACTORS
330
AA3C
102
}
330
AA3C
100
AcDbXrecord
280
     1
102
RTVSPost2010Prop28
280
     0
102
RTVSPost2010PropOp28
 70
     1
102
RTVSPost2010Prop29
280
     1
102
RTVSPost2010PropOp29
 70
     1
102
RTVSPost2010Prop30
280
     1
102
RTVSPost2010PropOp30
 70
     1
102
RTVSPost2010Prop31
280
     0
102
RTVSPost2010PropOp31
 70
     1
102
RTVSPost2010Prop32
280
     0
102
RTVSPost2010PropOp32
 70
     1
102
RTVSPost2010Prop33
280
     0
102
RTVSPost2010PropOp33
 70
     1
102
RTVSPost2010Prop34
280
     0
102
RTVSPost2010PropOp34
 70
     1
102
RTVSPost2010Prop35
280
     0
102
RTVSPost2010PropOp35
 70
     1
102
RTVSPost2010Prop36
280
     0
102
RTVSPost2010PropOp36
 70
     1
102
RTVSPost2010Prop37
 90
       50
102
RTVSPost2010PropOp37
 70
     1
102
RTVSPost2010Prop38
140
0.0
102
RTVSPost2010PropOp38
 70
     1
102
RTVSPost2010Prop39
140
1.0
102
RTVSPost2010PropOp39
 70
     1
102
RTVSPost2010Prop40
 90
        0
102
RTVSPost2010PropOp40
 70
     1
102
RTVSPost2010Prop41ColorIndex
 90
       18
102
RTVSPost2010Prop41ColorRGB
 90
        0
102
RTVSPost2010PropOp41
 70
     1
102
RTVSPost2010Prop42
 90
       50
102
RTVSPost2010PropOp42
 70
     1
102
RTVSPost2010Prop43
 90
        3
102
RTVSPost2010PropOp43
 70
     1
102
RTVSPost2010Prop44ColorIndex
 90
        5
102
RTVSPost2010Prop44ColorRGB
 90
      255
102
RTVSPost2010PropOp44
 70
     1
102
RTVSPost2010Prop45
280
     0
102
RTVSPost2010PropOp45
 70
     1
102
RTVSPost2010Prop46
 90
       50
102
RTVSPost2010PropOp46
 70
     1
102
RTVSPost2010Prop47
 90
       50
102
RTVSPost2010PropOp47
 70
     1
102
RTVSPost2010Prop48
 90
       50
102
RTVSPost2010PropOp48
 70
     1
102
RTVSPost2010Prop49
280
     0
102
RTVSPost2010PropOp49
 70
     1
102
RTVSPost2010Prop50
 90
       50
102
RTVSPost2010PropOp50
 70
     1
102
RTVSPost2010Prop51ColorIndex
 90
      256
102
RTVSPost2010Prop51ColorRGB
 90
-16777216
102
RTVSPost2010PropOp51
 70
     0
102
RTVSPost2010Prop52
140
1.0
102
RTVSPost2010PropOp52
 70
     0
102
RTVSPost2010Prop53
 90
        2
102
RTVSPost2010PropOp53
 70
     1
102
RTVSPost2010Prop54
  1
strokes_ogs.tif
102
RTVSPost2010PropOp54
 70
     1
102
RTVSPost2010Prop55
280
     0
102
RTVSPost2010PropOp55
 70
     1
102
RTVSPost2010Prop56
140
1.0
102
RTVSPost2010PropOp56
 70
     1
102
RTVSPost2010Prop57
140
1.0
102
RTVSPost2010PropOp57
 70
     1
102
RTVSPropertyOp0
 70
     1
102
RTVSPropertyOp1
 70
     1
102
RTVSPropertyOp2
 70
     1
102
RTVSPropertyOp3
 70
     1
102
RTVSPropertyOp4
 70
     1
102
RTVSPropertyOp5
 70
     1
102
RTVSPropertyOp6
 70
     1
102
RTVSPropertyOp7
 70
     1
102
RTVSPropertyOp8
 70
     1
102
RTVSPropertyOp9
 70
     1
102
RTVSPropertyOp10
 70
     1
102
RTVSPropertyOp11
 70
     1
102
RTVSPropertyOp12
 70
     1
102
RTVSPropertyOp13
 70
     1
102
RTVSPropertyOp14
 70
     1
102
RTVSPropertyOp15
 70
     1
102
RTVSPropertyOp16
 70
     1
102
RTVSPropertyOp17
 70
     1
102
RTVSPropertyOp18
 70
     1
102
RTVSPropertyOp19
 70
     1
102
RTVSPropertyOp20
 70
     1
102
RTVSPropertyOp21
 70
     1
102
RTVSPropertyOp22
 70
     1
102
RTVSPropertyOp23
 70
     1
102
RTVSPropertyOp24
 70
     1
102
RTVSPropertyOp25
 70
     1
102
RTVSPropertyOp26
 70
     1
102
RTVSPropertyOp27
 70
     1
102
RTVSPropertyOp28
 70
     1
102
RTVSPropertyOp29
 70
     1
102
RTVSPropertyOp30
 70
     1
102
RTVSPropertyOp31
 70
     1
102
RTVSPropertyOp32
 70
     1
102
RTVSPropertyOp33
 70
     1
102
RTVSPropertyOp34
 70
     1
102
RTVSPropertyOp35
 70
     1
102
RTVSPropertyOp36
 70
     1
102
RTVSPropertyOp37
 70
     1
102
RTVSPropertyOp38
 70
     1
102
RTVSPropertyOp39
 70
     1
102
RTVSPropertyOp40
 70
     1
102
RTVSPropertyOp41
 70
     1
102
RTVSPropertyOp42
 70
     1
102
RTVSPropertyOp43
 70
     1
102
RTVSPropertyOp44
 70
     1
102
RTVSPropertyOp45
 70
     1
102
RTVSPropertyOp46
 70
     1
102
RTVSPropertyOp47
 70
     1
102
RTVSPropertyOp48
 70
     1
102
RTVSPropertyOp49
 70
     1
102
RTVSPropertyOp50
 70
     1
102
RTVSPropertyOp51
 70
     0
102
RTVSPropertyOp52
 70
     0
102
RTVSPropertyOp53
 70
     1
102
RTVSPropertyOp54
 70
     1
102
RTVSPropertyOp55
 70
     1
102
RTVSPropertyOp56
 70
     1
102
RTVSPropertyOp57
 70
     1
102
RTVSPropertyOp58
 70
     1
102
RTVSPropertyOp59
 70
     1
102
RTVSPropertyOp60
 70
     1
102
RTVSPropertyOp61
 70
     1
102
RTVSPropertyOp62
 70
     1
  0
XRECORD
  5
AA37
102
{ACAD_REACTORS
330
AA36
102
}
330
AA36
100
AcDbXrecord
280
     1
102
RTVSPost2010Prop28
280
     0
102
RTVSPost2010PropOp28
 70
     1
102
RTVSPost2010Prop29
280
     1
102
RTVSPost2010PropOp29
 70
     1
102
RTVSPost2010Prop30
280
     1
102
RTVSPost2010PropOp30
 70
     1
102
RTVSPost2010Prop31
280
     0
102
RTVSPost2010PropOp31
 70
     1
102
RTVSPost2010Prop32
280
     0
102
RTVSPost2010PropOp32
 70
     1
102
RTVSPost2010Prop33
280
     0
102
RTVSPost2010PropOp33
 70
     1
102
RTVSPost2010Prop34
280
     0
102
RTVSPost2010PropOp34
 70
     1
102
RTVSPost2010Prop35
280
     0
102
RTVSPost2010PropOp35
 70
     1
102
RTVSPost2010Prop36
280
     0
102
RTVSPost2010PropOp36
 70
     1
102
RTVSPost2010Prop37
 90
       50
102
RTVSPost2010PropOp37
 70
     1
102
RTVSPost2010Prop38
140
0.0
102
RTVSPost2010PropOp38
 70
     1
102
RTVSPost2010Prop39
140
1.0
102
RTVSPost2010PropOp39
 70
     1
102
RTVSPost2010Prop40
 90
        0
102
RTVSPost2010PropOp40
 70
     1
102
RTVSPost2010Prop41ColorIndex
 90
       18
102
RTVSPost2010Prop41ColorRGB
 90
        0
102
RTVSPost2010PropOp41
 70
     1
102
RTVSPost2010Prop42
 90
       50
102
RTVSPost2010PropOp42
 70
     1
102
RTVSPost2010Prop43
 90
        3
102
RTVSPost2010PropOp43
 70
     1
102
RTVSPost2010Prop44ColorIndex
 90
        5
102
RTVSPost2010Prop44ColorRGB
 90
      255
102
RTVSPost2010PropOp44
 70
     1
102
RTVSPost2010Prop45
280
     0
102
RTVSPost2010PropOp45
 70
     1
102
RTVSPost2010Prop46
 90
       50
102
RTVSPost2010PropOp46
 70
     1
102
RTVSPost2010Prop47
 90
       50
102
RTVSPost2010PropOp47
 70
     1
102
RTVSPost2010Prop48
 90
       50
102
RTVSPost2010PropOp48
 70
     1
102
RTVSPost2010Prop49
280
     0
102
RTVSPost2010PropOp49
 70
     1
102
RTVSPost2010Prop50
 90
       50
102
RTVSPost2010PropOp50
 70
     1
102
RTVSPost2010Prop51ColorIndex
 90
      256
102
RTVSPost2010Prop51ColorRGB
 90
-16777216
102
RTVSPost2010PropOp51
 70
     0
102
RTVSPost2010Prop52
140
1.0
102
RTVSPost2010PropOp52
 70
     0
102
RTVSPost2010Prop53
 90
        2
102
RTVSPost2010PropOp53
 70
     1
102
RTVSPost2010Prop54
  1
strokes_ogs.tif
102
RTVSPost2010PropOp54
 70
     1
102
RTVSPost2010Prop55
280
     0
102
RTVSPost2010PropOp55
 70
     1
102
RTVSPost2010Prop56
140
1.0
102
RTVSPost2010PropOp56
 70
     1
102
RTVSPost2010Prop57
140
1.0
102
RTVSPost2010PropOp57
 70
     1
102
RTVSPropertyOp0
 70
     1
102
RTVSPropertyOp1
 70
     1
102
RTVSPropertyOp2
 70
     1
102
RTVSPropertyOp3
 70
     1
102
RTVSPropertyOp4
 70
     1
102
RTVSPropertyOp5
 70
     1
102
RTVSPropertyOp6
 70
     1
102
RTVSPropertyOp7
 70
     1
102
RTVSPropertyOp8
 70
     1
102
RTVSPropertyOp9
 70
     1
102
RTVSPropertyOp10
 70
     1
102
RTVSPropertyOp11
 70
     1
102
RTVSPropertyOp12
 70
     1
102
RTVSPropertyOp13
 70
     1
102
RTVSPropertyOp14
 70
     1
102
RTVSPropertyOp15
 70
     1
102
RTVSPropertyOp16
 70
     1
102
RTVSPropertyOp17
 70
     1
102
RTVSPropertyOp18
 70
     1
102
RTVSPropertyOp19
 70
     1
102
RTVSPropertyOp20
 70
     1
102
RTVSPropertyOp21
 70
     1
102
RTVSPropertyOp22
 70
     1
102
RTVSPropertyOp23
 70
     1
102
RTVSPropertyOp24
 70
     1
102
RTVSPropertyOp25
 70
     1
102
RTVSPropertyOp26
 70
     1
102
RTVSPropertyOp27
 70
     1
102
RTVSPropertyOp28
 70
     1
102
RTVSPropertyOp29
 70
     1
102
RTVSPropertyOp30
 70
     1
102
RTVSPropertyOp31
 70
     1
102
RTVSPropertyOp32
 70
     1
102
RTVSPropertyOp33
 70
     1
102
RTVSPropertyOp34
 70
     1
102
RTVSPropertyOp35
 70
     1
102
RTVSPropertyOp36
 70
     1
102
RTVSPropertyOp37
 70
     1
102
RTVSPropertyOp38
 70
     1
102
RTVSPropertyOp39
 70
     1
102
RTVSPropertyOp40
 70
     1
102
RTVSPropertyOp41
 70
     1
102
RTVSPropertyOp42
 70
     1
102
RTVSPropertyOp43
 70
     1
102
RTVSPropertyOp44
 70
     1
102
RTVSPropertyOp45
 70
     1
102
RTVSPropertyOp46
 70
     1
102
RTVSPropertyOp47
 70
     1
102
RTVSPropertyOp48
 70
     1
102
RTVSPropertyOp49
 70
     1
102
RTVSPropertyOp50
 70
     1
102
RTVSPropertyOp51
 70
     0
102
RTVSPropertyOp52
 70
     0
102
RTVSPropertyOp53
 70
     1
102
RTVSPropertyOp54
 70
     1
102
RTVSPropertyOp55
 70
     1
102
RTVSPropertyOp56
 70
     1
102
RTVSPropertyOp57
 70
     1
102
RTVSPropertyOp58
 70
     1
102
RTVSPropertyOp59
 70
     1
102
RTVSPropertyOp60
 70
     1
102
RTVSPropertyOp61
 70
     1
102
RTVSPropertyOp62
 70
     1
  0
XRECORD
  5
AA39
102
{ACAD_REACTORS
330
AA38
102
}
330
AA38
100
AcDbXrecord
280
     1
102
RTVSPost2010Prop28
280
     0
102
RTVSPost2010PropOp28
 70
     1
102
RTVSPost2010Prop29
280
     1
102
RTVSPost2010PropOp29
 70
     1
102
RTVSPost2010Prop30
280
     1
102
RTVSPost2010PropOp30
 70
     1
102
RTVSPost2010Prop31
280
     0
102
RTVSPost2010PropOp31
 70
     1
102
RTVSPost2010Prop32
280
     0
102
RTVSPost2010PropOp32
 70
     1
102
RTVSPost2010Prop33
280
     0
102
RTVSPost2010PropOp33
 70
     1
102
RTVSPost2010Prop34
280
     0
102
RTVSPost2010PropOp34
 70
     1
102
RTVSPost2010Prop35
280
     0
102
RTVSPost2010PropOp35
 70
     1
102
RTVSPost2010Prop36
280
     0
102
RTVSPost2010PropOp36
 70
     1
102
RTVSPost2010Prop37
 90
       50
102
RTVSPost2010PropOp37
 70
     1
102
RTVSPost2010Prop38
140
0.0
102
RTVSPost2010PropOp38
 70
     1
102
RTVSPost2010Prop39
140
1.0
102
RTVSPost2010PropOp39
 70
     1
102
RTVSPost2010Prop40
 90
        0
102
RTVSPost2010PropOp40
 70
     1
102
RTVSPost2010Prop41ColorIndex
 90
       18
102
RTVSPost2010Prop41ColorRGB
 90
        0
102
RTVSPost2010PropOp41
 70
     1
102
RTVSPost2010Prop42
 90
       50
102
RTVSPost2010PropOp42
 70
     1
102
RTVSPost2010Prop43
 90
        3
102
RTVSPost2010PropOp43
 70
     1
102
RTVSPost2010Prop44ColorIndex
 90
        5
102
RTVSPost2010Prop44ColorRGB
 90
      255
102
RTVSPost2010PropOp44
 70
     1
102
RTVSPost2010Prop45
280
     0
102
RTVSPost2010PropOp45
 70
     1
102
RTVSPost2010Prop46
 90
       50
102
RTVSPost2010PropOp46
 70
     1
102
RTVSPost2010Prop47
 90
       50
102
RTVSPost2010PropOp47
 70
     1
102
RTVSPost2010Prop48
 90
       50
102
RTVSPost2010PropOp48
 70
     1
102
RTVSPost2010Prop49
280
     0
102
RTVSPost2010PropOp49
 70
     1
102
RTVSPost2010Prop50
 90
       50
102
RTVSPost2010PropOp50
 70
     1
102
RTVSPost2010Prop51ColorIndex
 90
      256
102
RTVSPost2010Prop51ColorRGB
 90
-16777216
102
RTVSPost2010PropOp51
 70
     0
102
RTVSPost2010Prop52
140
1.0
102
RTVSPost2010PropOp52
 70
     0
102
RTVSPost2010Prop53
 90
        2
102
RTVSPost2010PropOp53
 70
     1
102
RTVSPost2010Prop54
  1
strokes_ogs.tif
102
RTVSPost2010PropOp54
 70
     1
102
RTVSPost2010Prop55
280
     0
102
RTVSPost2010PropOp55
 70
     1
102
RTVSPost2010Prop56
140
1.0
102
RTVSPost2010PropOp56
 70
     1
102
RTVSPost2010Prop57
140
1.0
102
RTVSPost2010PropOp57
 70
     1
102
RTVSPropertyOp0
 70
     1
102
RTVSPropertyOp1
 70
     1
102
RTVSPropertyOp2
 70
     1
102
RTVSPropertyOp3
 70
     1
102
RTVSPropertyOp4
 70
     1
102
RTVSPropertyOp5
 70
     1
102
RTVSPropertyOp6
 70
     1
102
RTVSPropertyOp7
 70
     1
102
RTVSPropertyOp8
 70
     1
102
RTVSPropertyOp9
 70
     1
102
RTVSPropertyOp10
 70
     1
102
RTVSPropertyOp11
 70
     1
102
RTVSPropertyOp12
 70
     1
102
RTVSPropertyOp13
 70
     1
102
RTVSPropertyOp14
 70
     1
102
RTVSPropertyOp15
 70
     1
102
RTVSPropertyOp16
 70
     1
102
RTVSPropertyOp17
 70
     1
102
RTVSPropertyOp18
 70
     1
102
RTVSPropertyOp19
 70
     1
102
RTVSPropertyOp20
 70
     1
102
RTVSPropertyOp21
 70
     1
102
RTVSPropertyOp22
 70
     1
102
RTVSPropertyOp23
 70
     1
102
RTVSPropertyOp24
 70
     1
102
RTVSPropertyOp25
 70
     1
102
RTVSPropertyOp26
 70
     1
102
RTVSPropertyOp27
 70
     1
102
RTVSPropertyOp28
 70
     1
102
RTVSPropertyOp29
 70
     1
102
RTVSPropertyOp30
 70
     1
102
RTVSPropertyOp31
 70
     1
102
RTVSPropertyOp32
 70
     1
102
RTVSPropertyOp33
 70
     1
102
RTVSPropertyOp34
 70
     1
102
RTVSPropertyOp35
 70
     1
102
RTVSPropertyOp36
 70
     1
102
RTVSPropertyOp37
 70
     1
102
RTVSPropertyOp38
 70
     1
102
RTVSPropertyOp39
 70
     1
102
RTVSPropertyOp40
 70
     1
102
RTVSPropertyOp41
 70
     1
102
RTVSPropertyOp42
 70
     1
102
RTVSPropertyOp43
 70
     1
102
RTVSPropertyOp44
 70
     1
102
RTVSPropertyOp45
 70
     1
102
RTVSPropertyOp46
 70
     1
102
RTVSPropertyOp47
 70
     1
102
RTVSPropertyOp48
 70
     1
102
RTVSPropertyOp49
 70
     1
102
RTVSPropertyOp50
 70
     1
102
RTVSPropertyOp51
 70
     0
102
RTVSPropertyOp52
 70
     0
102
RTVSPropertyOp53
 70
     1
102
RTVSPropertyOp54
 70
     1
102
RTVSPropertyOp55
 70
     1
102
RTVSPropertyOp56
 70
     1
102
RTVSPropertyOp57
 70
     1
102
RTVSPropertyOp58
 70
     1
102
RTVSPropertyOp59
 70
     1
102
RTVSPropertyOp60
 70
     1
102
RTVSPropertyOp61
 70
     1
102
RTVSPropertyOp62
 70
     1
  0
XRECORD
  5
AA2F
102
{ACAD_REACTORS
330
AA2E
102
}
330
AA2E
100
AcDbXrecord
280
     1
102
RTVSPost2010Prop28
280
     0
102
RTVSPost2010PropOp28
 70
     1
102
RTVSPost2010Prop29
280
     1
102
RTVSPost2010PropOp29
 70
     1
102
RTVSPost2010Prop30
280
     1
102
RTVSPost2010PropOp30
 70
     1
102
RTVSPost2010Prop31
280
     0
102
RTVSPost2010PropOp31
 70
     1
102
RTVSPost2010Prop32
280
     0
102
RTVSPost2010PropOp32
 70
     1
102
RTVSPost2010Prop33
280
     0
102
RTVSPost2010PropOp33
 70
     1
102
RTVSPost2010Prop34
280
     0
102
RTVSPost2010PropOp34
 70
     1
102
RTVSPost2010Prop35
280
     0
102
RTVSPost2010PropOp35
 70
     1
102
RTVSPost2010Prop36
280
     0
102
RTVSPost2010PropOp36
 70
     1
102
RTVSPost2010Prop37
 90
       50
102
RTVSPost2010PropOp37
 70
     1
102
RTVSPost2010Prop38
140
0.0
102
RTVSPost2010PropOp38
 70
     1
102
RTVSPost2010Prop39
140
1.0
102
RTVSPost2010PropOp39
 70
     1
102
RTVSPost2010Prop40
 90
        0
102
RTVSPost2010PropOp40
 70
     1
102
RTVSPost2010Prop41ColorIndex
 90
       18
102
RTVSPost2010Prop41ColorRGB
 90
        0
102
RTVSPost2010PropOp41
 70
     1
102
RTVSPost2010Prop42
 90
       50
102
RTVSPost2010PropOp42
 70
     1
102
RTVSPost2010Prop43
 90
        3
102
RTVSPost2010PropOp43
 70
     1
102
RTVSPost2010Prop44ColorIndex
 90
        5
102
RTVSPost2010Prop44ColorRGB
 90
      255
102
RTVSPost2010PropOp44
 70
     1
102
RTVSPost2010Prop45
280
     0
102
RTVSPost2010PropOp45
 70
     1
102
RTVSPost2010Prop46
 90
       50
102
RTVSPost2010PropOp46
 70
     1
102
RTVSPost2010Prop47
 90
       50
102
RTVSPost2010PropOp47
 70
     1
102
RTVSPost2010Prop48
 90
       50
102
RTVSPost2010PropOp48
 70
     1
102
RTVSPost2010Prop49
280
     0
102
RTVSPost2010PropOp49
 70
     1
102
RTVSPost2010Prop50
 90
       50
102
RTVSPost2010PropOp50
 70
     1
102
RTVSPost2010Prop51ColorIndex
 90
      256
102
RTVSPost2010Prop51ColorRGB
 90
-16777216
102
RTVSPost2010PropOp51
 70
     0
102
RTVSPost2010Prop52
140
1.0
102
RTVSPost2010PropOp52
 70
     0
102
RTVSPost2010Prop53
 90
        2
102
RTVSPost2010PropOp53
 70
     1
102
RTVSPost2010Prop54
  1
strokes_ogs.tif
102
RTVSPost2010PropOp54
 70
     1
102
RTVSPost2010Prop55
280
     0
102
RTVSPost2010PropOp55
 70
     1
102
RTVSPost2010Prop56
140
1.0
102
RTVSPost2010PropOp56
 70
     1
102
RTVSPost2010Prop57
140
1.0
102
RTVSPost2010PropOp57
 70
     1
102
RTVSPropertyOp0
 70
     1
102
RTVSPropertyOp1
 70
     1
102
RTVSPropertyOp2
 70
     1
102
RTVSPropertyOp3
 70
     1
102
RTVSPropertyOp4
 70
     1
102
RTVSPropertyOp5
 70
     1
102
RTVSPropertyOp6
 70
     1
102
RTVSPropertyOp7
 70
     1
102
RTVSPropertyOp8
 70
     1
102
RTVSPropertyOp9
 70
     1
102
RTVSPropertyOp10
 70
     1
102
RTVSPropertyOp11
 70
     1
102
RTVSPropertyOp12
 70
     1
102
RTVSPropertyOp13
 70
     1
102
RTVSPropertyOp14
 70
     1
102
RTVSPropertyOp15
 70
     1
102
RTVSPropertyOp16
 70
     1
102
RTVSPropertyOp17
 70
     1
102
RTVSPropertyOp18
 70
     1
102
RTVSPropertyOp19
 70
     1
102
RTVSPropertyOp20
 70
     1
102
RTVSPropertyOp21
 70
     1
102
RTVSPropertyOp22
 70
     1
102
RTVSPropertyOp23
 70
     1
102
RTVSPropertyOp24
 70
     1
102
RTVSPropertyOp25
 70
     1
102
RTVSPropertyOp26
 70
     1
102
RTVSPropertyOp27
 70
     1
102
RTVSPropertyOp28
 70
     1
102
RTVSPropertyOp29
 70
     1
102
RTVSPropertyOp30
 70
     1
102
RTVSPropertyOp31
 70
     1
102
RTVSPropertyOp32
 70
     1
102
RTVSPropertyOp33
 70
     1
102
RTVSPropertyOp34
 70
     1
102
RTVSPropertyOp35
 70
     1
102
RTVSPropertyOp36
 70
     1
102
RTVSPropertyOp37
 70
     1
102
RTVSPropertyOp38
 70
     1
102
RTVSPropertyOp39
 70
     1
102
RTVSPropertyOp40
 70
     1
102
RTVSPropertyOp41
 70
     1
102
RTVSPropertyOp42
 70
     1
102
RTVSPropertyOp43
 70
     1
102
RTVSPropertyOp44
 70
     1
102
RTVSPropertyOp45
 70
     1
102
RTVSPropertyOp46
 70
     1
102
RTVSPropertyOp47
 70
     1
102
RTVSPropertyOp48
 70
     1
102
RTVSPropertyOp49
 70
     1
102
RTVSPropertyOp50
 70
     1
102
RTVSPropertyOp51
 70
     0
102
RTVSPropertyOp52
 70
     0
102
RTVSPropertyOp53
 70
     1
102
RTVSPropertyOp54
 70
     1
102
RTVSPropertyOp55
 70
     1
102
RTVSPropertyOp56
 70
     1
102
RTVSPropertyOp57
 70
     1
102
RTVSPropertyOp58
 70
     1
102
RTVSPropertyOp59
 70
     1
102
RTVSPropertyOp60
 70
     1
102
RTVSPropertyOp61
 70
     1
102
RTVSPropertyOp62
 70
     1
  0
XRECORD
  5
AA23
102
{ACAD_REACTORS
330
AA22
102
}
330
AA22
100
AcDbXrecord
280
     1
102
RTVSPost2010Prop28
280
     0
102
RTVSPost2010PropOp28
 70
     1
102
RTVSPost2010Prop29
280
     1
102
RTVSPost2010PropOp29
 70
     1
102
RTVSPost2010Prop30
280
     1
102
RTVSPost2010PropOp30
 70
     1
102
RTVSPost2010Prop31
280
     0
102
RTVSPost2010PropOp31
 70
     1
102
RTVSPost2010Prop32
280
     0
102
RTVSPost2010PropOp32
 70
     1
102
RTVSPost2010Prop33
280
     0
102
RTVSPost2010PropOp33
 70
     1
102
RTVSPost2010Prop34
280
     0
102
RTVSPost2010PropOp34
 70
     1
102
RTVSPost2010Prop35
280
     0
102
RTVSPost2010PropOp35
 70
     1
102
RTVSPost2010Prop36
280
     0
102
RTVSPost2010PropOp36
 70
     1
102
RTVSPost2010Prop37
 90
       50
102
RTVSPost2010PropOp37
 70
     1
102
RTVSPost2010Prop38
140
0.0
102
RTVSPost2010PropOp38
 70
     1
102
RTVSPost2010Prop39
140
1.0
102
RTVSPost2010PropOp39
 70
     1
102
RTVSPost2010Prop40
 90
        0
102
RTVSPost2010PropOp40
 70
     1
102
RTVSPost2010Prop41ColorIndex
 90
       18
102
RTVSPost2010Prop41ColorRGB
 90
        0
102
RTVSPost2010PropOp41
 70
     1
102
RTVSPost2010Prop42
 90
       50
102
RTVSPost2010PropOp42
 70
     1
102
RTVSPost2010Prop43
 90
        3
102
RTVSPost2010PropOp43
 70
     1
102
RTVSPost2010Prop44ColorIndex
 90
        5
102
RTVSPost2010Prop44ColorRGB
 90
      255
102
RTVSPost2010PropOp44
 70
     1
102
RTVSPost2010Prop45
280
     0
102
RTVSPost2010PropOp45
 70
     1
102
RTVSPost2010Prop46
 90
       50
102
RTVSPost2010PropOp46
 70
     1
102
RTVSPost2010Prop47
 90
       50
102
RTVSPost2010PropOp47
 70
     1
102
RTVSPost2010Prop48
 90
       50
102
RTVSPost2010PropOp48
 70
     1
102
RTVSPost2010Prop49
280
     0
102
RTVSPost2010PropOp49
 70
     1
102
RTVSPost2010Prop50
 90
       50
102
RTVSPost2010PropOp50
 70
     1
102
RTVSPost2010Prop51ColorIndex
 90
      256
102
RTVSPost2010Prop51ColorRGB
 90
-16777216
102
RTVSPost2010PropOp51
 70
     0
102
RTVSPost2010Prop52
140
1.0
102
RTVSPost2010PropOp52
 70
     0
102
RTVSPost2010Prop53
 90
        2
102
RTVSPost2010PropOp53
 70
     1
102
RTVSPost2010Prop54
  1
strokes_ogs.tif
102
RTVSPost2010PropOp54
 70
     1
102
RTVSPost2010Prop55
280
     0
102
RTVSPost2010PropOp55
 70
     1
102
RTVSPost2010Prop56
140
1.0
102
RTVSPost2010PropOp56
 70
     1
102
RTVSPost2010Prop57
140
1.0
102
RTVSPost2010PropOp57
 70
     1
102
RTVSPropertyOp0
 70
     1
102
RTVSPropertyOp1
 70
     1
102
RTVSPropertyOp2
 70
     1
102
RTVSPropertyOp3
 70
     1
102
RTVSPropertyOp4
 70
     1
102
RTVSPropertyOp5
 70
     1
102
RTVSPropertyOp6
 70
     1
102
RTVSPropertyOp7
 70
     1
102
RTVSPropertyOp8
 70
     1
102
RTVSPropertyOp9
 70
     1
102
RTVSPropertyOp10
 70
     1
102
RTVSPropertyOp11
 70
     1
102
RTVSPropertyOp12
 70
     1
102
RTVSPropertyOp13
 70
     1
102
RTVSPropertyOp14
 70
     1
102
RTVSPropertyOp15
 70
     1
102
RTVSPropertyOp16
 70
     1
102
RTVSPropertyOp17
 70
     1
102
RTVSPropertyOp18
 70
     1
102
RTVSPropertyOp19
 70
     1
102
RTVSPropertyOp20
 70
     1
102
RTVSPropertyOp21
 70
     1
102
RTVSPropertyOp22
 70
     1
102
RTVSPropertyOp23
 70
     1
102
RTVSPropertyOp24
 70
     1
102
RTVSPropertyOp25
 70
     1
102
RTVSPropertyOp26
 70
     1
102
RTVSPropertyOp27
 70
     1
102
RTVSPropertyOp28
 70
     1
102
RTVSPropertyOp29
 70
     1
102
RTVSPropertyOp30
 70
     1
102
RTVSPropertyOp31
 70
     1
102
RTVSPropertyOp32
 70
     1
102
RTVSPropertyOp33
 70
     1
102
RTVSPropertyOp34
 70
     1
102
RTVSPropertyOp35
 70
     1
102
RTVSPropertyOp36
 70
     1
102
RTVSPropertyOp37
 70
     1
102
RTVSPropertyOp38
 70
     1
102
RTVSPropertyOp39
 70
     1
102
RTVSPropertyOp40
 70
     1
102
RTVSPropertyOp41
 70
     1
102
RTVSPropertyOp42
 70
     1
102
RTVSPropertyOp43
 70
     1
102
RTVSPropertyOp44
 70
     1
102
RTVSPropertyOp45
 70
     1
102
RTVSPropertyOp46
 70
     1
102
RTVSPropertyOp47
 70
     1
102
RTVSPropertyOp48
 70
     1
102
RTVSPropertyOp49
 70
     1
102
RTVSPropertyOp50
 70
     1
102
RTVSPropertyOp51
 70
     0
102
RTVSPropertyOp52
 70
     0
102
RTVSPropertyOp53
 70
     1
102
RTVSPropertyOp54
 70
     1
102
RTVSPropertyOp55
 70
     1
102
RTVSPropertyOp56
 70
     1
102
RTVSPropertyOp57
 70
     1
102
RTVSPropertyOp58
 70
     1
102
RTVSPropertyOp59
 70
     1
102
RTVSPropertyOp60
 70
     1
102
RTVSPropertyOp61
 70
     1
102
RTVSPropertyOp62
 70
     1
  0
XRECORD
  5
AA3B
102
{ACAD_REACTORS
330
AA3A
102
}
330
AA3A
100
AcDbXrecord
280
     1
102
RTVSPost2010Prop28
280
     0
102
RTVSPost2010PropOp28
 70
     1
102
RTVSPost2010Prop29
280
     1
102
RTVSPost2010PropOp29
 70
     1
102
RTVSPost2010Prop30
280
     1
102
RTVSPost2010PropOp30
 70
     1
102
RTVSPost2010Prop31
280
     0
102
RTVSPost2010PropOp31
 70
     1
102
RTVSPost2010Prop32
280
     0
102
RTVSPost2010PropOp32
 70
     1
102
RTVSPost2010Prop33
280
     0
102
RTVSPost2010PropOp33
 70
     1
102
RTVSPost2010Prop34
280
     0
102
RTVSPost2010PropOp34
 70
     1
102
RTVSPost2010Prop35
280
     0
102
RTVSPost2010PropOp35
 70
     1
102
RTVSPost2010Prop36
280
     0
102
RTVSPost2010PropOp36
 70
     1
102
RTVSPost2010Prop37
 90
       50
102
RTVSPost2010PropOp37
 70
     1
102
RTVSPost2010Prop38
140
0.0
102
RTVSPost2010PropOp38
 70
     1
102
RTVSPost2010Prop39
140
1.0
102
RTVSPost2010PropOp39
 70
     1
102
RTVSPost2010Prop40
 90
        0
102
RTVSPost2010PropOp40
 70
     1
102
RTVSPost2010Prop41ColorIndex
 90
       18
102
RTVSPost2010Prop41ColorRGB
 90
        0
102
RTVSPost2010PropOp41
 70
     1
102
RTVSPost2010Prop42
 90
       50
102
RTVSPost2010PropOp42
 70
     1
102
RTVSPost2010Prop43
 90
        3
102
RTVSPost2010PropOp43
 70
     1
102
RTVSPost2010Prop44ColorIndex
 90
        5
102
RTVSPost2010Prop44ColorRGB
 90
      255
102
RTVSPost2010PropOp44
 70
     1
102
RTVSPost2010Prop45
280
     0
102
RTVSPost2010PropOp45
 70
     1
102
RTVSPost2010Prop46
 90
       50
102
RTVSPost2010PropOp46
 70
     1
102
RTVSPost2010Prop47
 90
       50
102
RTVSPost2010PropOp47
 70
     1
102
RTVSPost2010Prop48
 90
       50
102
RTVSPost2010PropOp48
 70
     1
102
RTVSPost2010Prop49
280
     0
102
RTVSPost2010PropOp49
 70
     1
102
RTVSPost2010Prop50
 90
       50
102
RTVSPost2010PropOp50
 70
     1
102
RTVSPost2010Prop51ColorIndex
 90
      256
102
RTVSPost2010Prop51ColorRGB
 90
-16777216
102
RTVSPost2010PropOp51
 70
     0
102
RTVSPost2010Prop52
140
1.0
102
RTVSPost2010PropOp52
 70
     0
102
RTVSPost2010Prop53
 90
        2
102
RTVSPost2010PropOp53
 70
     1
102
RTVSPost2010Prop54
  1
strokes_ogs.tif
102
RTVSPost2010PropOp54
 70
     1
102
RTVSPost2010Prop55
280
     0
102
RTVSPost2010PropOp55
 70
     1
102
RTVSPost2010Prop56
140
1.0
102
RTVSPost2010PropOp56
 70
     1
102
RTVSPost2010Prop57
140
1.0
102
RTVSPost2010PropOp57
 70
     1
102
RTVSPropertyOp0
 70
     1
102
RTVSPropertyOp1
 70
     1
102
RTVSPropertyOp2
 70
     1
102
RTVSPropertyOp3
 70
     1
102
RTVSPropertyOp4
 70
     1
102
RTVSPropertyOp5
 70
     1
102
RTVSPropertyOp6
 70
     1
102
RTVSPropertyOp7
 70
     1
102
RTVSPropertyOp8
 70
     1
102
RTVSPropertyOp9
 70
     1
102
RTVSPropertyOp10
 70
     1
102
RTVSPropertyOp11
 70
     1
102
RTVSPropertyOp12
 70
     1
102
RTVSPropertyOp13
 70
     1
102
RTVSPropertyOp14
 70
     1
102
RTVSPropertyOp15
 70
     1
102
RTVSPropertyOp16
 70
     1
102
RTVSPropertyOp17
 70
     1
102
RTVSPropertyOp18
 70
     1
102
RTVSPropertyOp19
 70
     1
102
RTVSPropertyOp20
 70
     1
102
RTVSPropertyOp21
 70
     1
102
RTVSPropertyOp22
 70
     1
102
RTVSPropertyOp23
 70
     1
102
RTVSPropertyOp24
 70
     1
102
RTVSPropertyOp25
 70
     1
102
RTVSPropertyOp26
 70
     1
102
RTVSPropertyOp27
 70
     1
102
RTVSPropertyOp28
 70
     1
102
RTVSPropertyOp29
 70
     1
102
RTVSPropertyOp30
 70
     1
102
RTVSPropertyOp31
 70
     1
102
RTVSPropertyOp32
 70
     1
102
RTVSPropertyOp33
 70
     1
102
RTVSPropertyOp34
 70
     1
102
RTVSPropertyOp35
 70
     1
102
RTVSPropertyOp36
 70
     1
102
RTVSPropertyOp37
 70
     1
102
RTVSPropertyOp38
 70
     1
102
RTVSPropertyOp39
 70
     1
102
RTVSPropertyOp40
 70
     1
102
RTVSPropertyOp41
 70
     1
102
RTVSPropertyOp42
 70
     1
102
RTVSPropertyOp43
 70
     1
102
RTVSPropertyOp44
 70
     1
102
RTVSPropertyOp45
 70
     1
102
RTVSPropertyOp46
 70
     1
102
RTVSPropertyOp47
 70
     1
102
RTVSPropertyOp48
 70
     1
102
RTVSPropertyOp49
 70
     1
102
RTVSPropertyOp50
 70
     1
102
RTVSPropertyOp51
 70
     0
102
RTVSPropertyOp52
 70
     0
102
RTVSPropertyOp53
 70
     1
102
RTVSPropertyOp54
 70
     1
102
RTVSPropertyOp55
 70
     1
102
RTVSPropertyOp56
 70
     1
102
RTVSPropertyOp57
 70
     1
102
RTVSPropertyOp58
 70
     1
102
RTVSPropertyOp59
 70
     1
102
RTVSPropertyOp60
 70
     1
102
RTVSPropertyOp61
 70
     1
102
RTVSPropertyOp62
 70
     1
  0
ENDSEC
  0
EOF
