  0
SECTION
  2
HEADER
  9
$ACADVER
  1
AC1024
  9
$DWGCODEPAGE
  3
ANSI_932
  9
$LTSCALE
 40
20.0
  9
$FILLMODE
 70
     1
  9
$CLAYER
  8
0
  9
$PDMODE
 70
     0
  9
$SPLFRAME
 70
     0
  9
$SPLINETYPE
 70
     6
  9
$SPLINESEGS
 70
     8
  9
$DIMASZ
 40
2.000000
  9
$DIMEXE
 40
1.500000
  9
$DIMEXO
 40
0.800000
  9
$DIMTAD
 70
     1
  9
$DIMTIH
 70
     0
  9
$DIMTOH
 70
     0
  9
$DIMTVP
 40
0.500000
  9
$DIMTXT
 40
3.100000
  9
$EXTMIN
 10
0.000000
 20
0.000000
 30
0.000000
  9
$EXTMAX
 10
297.000000
 20
420.000000
 30
0.000000
  9
$MEASUREMENT
 70
  1
  9
$LIMMIN
 10
0.000000
 20
0.000000
  9
$LIMMAX
 10
297.000000
 20
420.000000
  9
$HANDSEED
  5
142
  9
$LWDISPLAY
290
     0
  9
$DIMBLK
  1
_OPEN
  9
$DIMDEC
 70
     2
  9
$DIMADEC
 70
     2
  9
$DIMAUNIT
 70
     0
  9
$DIMZIN
 70
     8
  9
$DIMAZIN
 70
     2
  9
$DIMTOFL
 70
     1
  0
ENDSEC
  0
SECTION
  2
CLASSES
  0
ENDSEC
  0
SECTION
  2
TABLES
  0
TABLE
  2
VPORT
  5
10C
100
AcDbSymbolTable
 70
     1
  0
VPORT
  5
10D
100
AcDbSymbolTableRecord
100
AcDbViewportTableRecord
  2
*ACTIVE
 70
     0
 12
182.423139
 22
110.750085
 40
185.500169
 41
1.859008
  0
ENDTAB
  0
TABLE
  2
LTYPE
  5
10E
100
AcDbSymbolTable
 70
     3
  0
LTYPE
  5
10F
100
AcDbSymbolTableRecord
100
AcDbLinetypeTableRecord
  2
BYBLOCK
 70
     0
  3

 72
    65
 73
     0
 40
0.0
  0
LTYPE
  5
110
100
AcDbSymbolTableRecord
100
AcDbLinetypeTableRecord
  2
BYLAYER
 70
     0
  3

 72
    65
 73
     0
 40
0.0
  0
LTYPE
  5
111
100
AcDbSymbolTableRecord
100
AcDbLinetypeTableRecord
  2
CONTINUOUS
 70
     0
  3
Solid line (NEC CAE2D for Win R18.0 : 2023.10.19)
 72
    65
 73
     0
 40
0.0
  0
LTYPE
  5
112
100
AcDbSymbolTableRecord
100
AcDbLinetypeTableRecord
  2
DASHED
 70
     0
  3
__ __ __ __ __ __ __ __ __ __ __ __ __ _
 72
    65
 73
     2
 40
0.75
 49
0.5
 74
     0
 49
-0.25
 74
     0
  0
LTYPE
  5
113
100
AcDbSymbolTableRecord
100
AcDbLinetypeTableRecord
  2
CENTER
 70
     0
  3
____ _ ____ _ ____ _ ____ _ ____ _ ____
 72
    65
 73
     4
 40
2.0
 49
1.25
 74
     0
 49
-0.25
 74
     0
 49
0.25
 74
     0
 49
-0.25
 74
     0
  0
ENDTAB
  0
TABLE
  2
LAYER
  5
114
100
AcDbSymbolTable
 70
    15
  0
LAYER
  5
115
100
AcDbSymbolTableRecord
100
AcDbLayerTableRecord
  2
0
 70
     0
 62
     7
  6
CONTINUOUS
370
    -3
390

  0
LAYER
  5
116
100
AcDbSymbolTableRecord
100
AcDbLayerTableRecord
  2
A0
 70
     0
 62
     9
  6
CONTINUOUS
370
    -3
390

  0
LAYER
  5
117
100
AcDbSymbolTableRecord
100
AcDbLayerTableRecord
  2
A1
 70
     0
 62
    12
  6
CONTINUOUS
370
    -3
390

  0
LAYER
  5
118
100
AcDbSymbolTableRecord
100
AcDbLayerTableRecord
  2
A3
 70
     0
 62
    12
  6
CONTINUOUS
370
    -3
390

  0
LAYER
  5
119
100
AcDbSymbolTableRecord
100
AcDbLayerTableRecord
  2
A4
 70
     0
 62
     9
  6
CONTINUOUS
370
    -3
390

  0
LAYER
  5
11A
100
AcDbSymbolTableRecord
100
AcDbLayerTableRecord
  2
A5
 70
     0
 62
     8
  6
CONTINUOUS
370
    -3
390

  0
LAYER
  5
11B
100
AcDbSymbolTableRecord
100
AcDbLayerTableRecord
  2
A6
 70
     0
 62
    12
  6
CONTINUOUS
370
    -3
390

  0
LAYER
  5
11C
100
AcDbSymbolTableRecord
100
AcDbLayerTableRecord
  2
A8
 70
     0
 62
    10
  6
CONTINUOUS
370
    -3
390

  0
LAYER
  5
11D
100
AcDbSymbolTableRecord
100
AcDbLayerTableRecord
  2
A9
 70
     0
 62
     9
  6
CONTINUOUS
370
    -3
390

  0
LAYER
  5
11E
100
AcDbSymbolTableRecord
100
AcDbLayerTableRecord
  2
A10
 70
     0
 62
     6
  6
CONTINUOUS
370
    -3
390

  0
LAYER
  5
11F
100
AcDbSymbolTableRecord
100
AcDbLayerTableRecord
  2
A20
 70
     0
 62
     1
  6
CONTINUOUS
370
    -3
390

  0
LAYER
  5
120
100
AcDbSymbolTableRecord
100
AcDbLayerTableRecord
  2
A30
 70
     0
 62
     1
  6
CONTINUOUS
370
    -3
390

  0
LAYER
  5
121
100
AcDbSymbolTableRecord
100
AcDbLayerTableRecord
  2
A40
 70
     0
 62
     9
  6
CONTINUOUS
370
    -3
390

  0
LAYER
  5
122
100
AcDbSymbolTableRecord
100
AcDbLayerTableRecord
  2
A50
 70
     0
 62
    12
  6
CONTINUOUS
370
    -3
390

  0
LAYER
  5
123
100
AcDbSymbolTableRecord
100
AcDbLayerTableRecord
  2
A1023
 70
     0
 62
    16
  6
CONTINUOUS
370
    -3
390

  0
ENDTAB
  0
TABLE
  2
STYLE
  5
124
100
AcDbSymbolTable
 70
     4
  0
STYLE
  5
125
100
AcDbSymbolTableRecord
100
AcDbTextStyleTableRecord
  2
STANDARD
 70
    64
 40
0.0
 41
1.0
 50
0.0
 71
     0
 42
2.500000000000000
  3
TXT
  4

  0
STYLE
  5
126
100
AcDbSymbolTableRecord
100
AcDbTextStyleTableRecord
  2
ANKTATE
 70
    68
 40
0.0
 41
1.0
 50
0.0
 71
     0
 42
2.500000000000000
  3
TXT
  4

  0
STYLE
  5
127
100
AcDbSymbolTableRecord
100
AcDbTextStyleTableRecord
  2
KNJYOKO
 70
    64
 40
0.0
 41
1.0
 50
0.0
 71
     0
 42
2.500000000000000
  3
TXT
  4
BIGFONT
  0
STYLE
  5
128
100
AcDbSymbolTableRecord
100
AcDbTextStyleTableRecord
  2
KNJTATE
 70
    68
 40
0.0
 41
1.0
 50
0.0
 71
     0
 42
2.500000000000000
  3
TXT
  4
BIGFONT
  0
ENDTAB
  0
TABLE
  2
VIEW
  5
129
100
AcDbSymbolTable
 70
     0
  0
ENDTAB
  0
TABLE
  2
UCS
  5
12A
100
AcDbSymbolTable
 70
     0
  0
ENDTAB
  0
TABLE
  2
APPID
  5
12B
100
AcDbSymbolTable
 70
     1
  0
APPID
  5
12C
100
AcDbSymbolTableRecord
100
AcDbRegAppTableRecord
  2
ACAD
 70
     0
  0
ENDTAB
  0
TABLE
  2
DIMSTYLE
  5
12D
100
AcDbSymbolTable
 70
     2
100
AcDbDimStyleTable
  0
DIMSTYLE
105
12E
100
AcDbSymbolTableRecord
100
AcDbDimStyleTableRecord
  2
STANDARD
 70
     0
 41
2.000000
 44
1.500000
 42
0.800000
145
0.661290
140
3.100000
144
1.000000
146
0.645161
340
125
  0
DIMSTYLE
105
12F
100
AcDbSymbolTableRecord
100
AcDbDimStyleTableRecord
  2
A001
 70
     0
 41
2.000000
 44
1.500000
 42
0.800000
145
0.661290
140
3.100000
144
1.000000
146
0.645161
 77
     1
 73
     0
 74
     0
271
     2
179
     2
275
     0
 78
     8
 79
     2
172
     1
340
125
  0
ENDTAB
  0
TABLE
  2
BLOCK_RECORD
  5
130
100
AcDbSymbolTable
 70
    12
  0
BLOCK_RECORD
  5
131
100
AcDbSymbolTableRecord
100
AcDbBlockTableRecord
  2
*MODEL_SPACE
  0
BLOCK_RECORD
  5
132
100
AcDbSymbolTableRecord
100
AcDbBlockTableRecord
  2
*PAPER_SPACE
  0
BLOCK_RECORD
  5
133
100
AcDbSymbolTableRecord
100
AcDbBlockTableRecord
  2
*PAPER_SPACE0
  0
BLOCK_RECORD
  5
1
100
AcDbSymbolTableRecord
100
AcDbBlockTableRecord
  2
_NONE
  0
BLOCK_RECORD
  5
4
100
AcDbSymbolTableRecord
100
AcDbBlockTableRecord
  2
_CLOSED
  0
BLOCK_RECORD
  5
B
100
AcDbSymbolTableRecord
100
AcDbBlockTableRecord
  2
_DOT
  0
BLOCK_RECORD
  5
13
100
AcDbSymbolTableRecord
100
AcDbBlockTableRecord
  2
_OPEN
  0
BLOCK_RECORD
  5
19
100
AcDbSymbolTableRecord
100
AcDbBlockTableRecord
  2
_ORIGIN
  0
BLOCK_RECORD
  5
1E
100
AcDbSymbolTableRecord
100
AcDbBlockTableRecord
  2
_OPEN30
  0
BLOCK_RECORD
  5
24
100
AcDbSymbolTableRecord
100
AcDbBlockTableRecord
  2
_BOXFILLED
  0
BLOCK_RECORD
  5
29
100
AcDbSymbolTableRecord
100
AcDbBlockTableRecord
  2
_BOXBLANK
  0
BLOCK_RECORD
  5
31
100
AcDbSymbolTableRecord
100
AcDbBlockTableRecord
  2
_OBLIQUE
  0
BLOCK_RECORD
  5
35
100
AcDbSymbolTableRecord
100
AcDbBlockTableRecord
  2
_OPEN90
  0
BLOCK_RECORD
  5
3B
100
AcDbSymbolTableRecord
100
AcDbBlockTableRecord
  2
_CLOSEDBLANK
  0
BLOCK_RECORD
  5
41
100
AcDbSymbolTableRecord
100
AcDbBlockTableRecord
  2
_DOTBLANK
  0
ENDTAB
  0
ENDSEC
  0
SECTION
  2
BLOCKS
  0
BLOCK
  5
134
100
AcDbEntity
  8
0
100
AcDbBlockBegin
  2
*MODEL_SPACE
 70
     0
 10
0.0
 20
0.0
 30
0.0
  3
*MODEL_SPACE
  1

  0
ENDBLK
  5
135
100
AcDbEntity
  8
0
100
AcDbBlockEnd
  0
BLOCK
  5
136
100
AcDbEntity
  8
0
100
AcDbBlockBegin
  2
*PAPER_SPACE
 70
     0
 10
0.0
 20
0.0
 30
0.0
  3
*PAPER_SPACE
  1

  0
ENDBLK
  5
137
100
AcDbEntity
  8
0
100
AcDbBlockEnd
  0
BLOCK
  5
138
100
AcDbEntity
  8
0
100
AcDbBlockBegin
  2
*PAPER_SPACE0
 70
     0
 10
0.0
 20
0.0
 30
0.0
  3
*PAPER_SPACE0
  1

  0
ENDBLK
  5
139
100
AcDbEntity
  8
0
100
AcDbBlockEnd
  0
BLOCK
  5
2
330
1
100
AcDbEntity
  8
0
100
AcDbBlockBegin
  2
_NONE
 70
     0
 10
0.0
 20
0.0
 30
0.0
  3
_NONE
  1

  0
ENDBLK
  5
3
330
1
100
AcDbEntity
  8
0
100
AcDbBlockEnd
  0
BLOCK
  5
5
330
4
100
AcDbEntity
  8
0
100
AcDbBlockBegin
  2
_CLOSED
 70
     0
 10
0.0
 20
0.0
 30
0.0
  3
_CLOSED
  1

  0
LINE
  5
6
330
4
100
AcDbEntity
  8
0
  6
BYBLOCK
 62
     0
370
    -2
100
AcDbLine
 10
-1.0
 20
0.166667
 30
0.0
 11
0.0
 21
0.0
 31
0.0
  0
LINE
  5
7
330
4
100
AcDbEntity
  8
0
  6
BYBLOCK
 62
     0
370
    -2
100
AcDbLine
 10
0.0
 20
0.0
 30
0.0
 11
-1.0
 21
-0.166667
 31
0.0
  0
LINE
  5
8
330
4
100
AcDbEntity
  8
0
  6
BYBLOCK
 62
     0
370
    -2
100
AcDbLine
 10
-1.0
 20
0.166667
 30
0.0
 11
-1.0
 21
-0.166667
 31
0.0
  0
LINE
  5
9
330
4
100
AcDbEntity
  8
0
  6
BYBLOCK
 62
     0
370
    -2
100
AcDbLine
 10
0.0
 20
0.0
 30
0.0
 11
-1.0
 21
0.0
 31
0.0
  0
ENDBLK
  5
A
330
4
100
AcDbEntity
  8
0
100
AcDbBlockEnd
  0
BLOCK
  5
C
330
B
100
AcDbEntity
  8
0
100
AcDbBlockBegin
  2
_DOT
 70
     0
 10
0.0
 20
0.0
 30
0.0
  3
_DOT
  1

  0
POLYLINE
  5
D
330
B
100
AcDbEntity
  8
0
  6
BYBLOCK
 62
     0
370
    -2
100
AcDb2dPolyline
 66
     1
 10
0.0
 20
0.0
 30
0.0
 70
     1
 40
0.5
 41
0.5
  0
VERTEX
  5
E
330
B
100
AcDbEntity
  8
0
  6
BYBLOCK
 62
     0
370
    -2
100
AcDbVertex
100
AcDb2dVertex
 10
-0.25
 20
0.0
 30
0.0
 42
1.0
  0
VERTEX
  5
F
330
B
100
AcDbEntity
  8
0
  6
BYBLOCK
 62
     0
370
    -2
100
AcDbVertex
100
AcDb2dVertex
 10
0.25
 20
0.0
 30
0.0
 42
1.0
  0
SEQEND
  5
10
330
B
100
AcDbEntity
  8
0
  6
BYBLOCK
 62
     0
370
    -2
  0
LINE
  5
11
330
B
100
AcDbEntity
  8
0
  6
BYBLOCK
 62
     0
370
    -2
100
AcDbLine
 10
-0.5
 20
0.0
 30
0.0
 11
-1.0
 21
0.0
 31
0.0
  0
ENDBLK
  5
12
330
B
100
AcDbEntity
  8
0
100
AcDbBlockEnd
  0
BLOCK
  5
14
330
13
100
AcDbEntity
  8
0
100
AcDbBlockBegin
  2
_OPEN
 70
     0
 10
0.0
 20
0.0
 30
0.0
  3
_OPEN
  1

  0
LINE
  5
15
330
13
100
AcDbEntity
  8
0
  6
BYBLOCK
 62
     0
370
    -2
100
AcDbLine
 10
-1.0
 20
0.166667
 30
0.0
 11
0.0
 21
0.0
 31
0.0
  0
LINE
  5
16
330
13
100
AcDbEntity
  8
0
  6
BYBLOCK
 62
     0
370
    -2
100
AcDbLine
 10
0.0
 20
0.0
 30
0.0
 11
-1.0
 21
-0.166667
 31
0.0
  0
LINE
  5
17
330
13
100
AcDbEntity
  8
0
  6
BYBLOCK
 62
     0
370
    -2
100
AcDbLine
 10
0.0
 20
0.0
 30
0.0
 11
-1.0
 21
0.0
 31
0.0
  0
ENDBLK
  5
18
330
13
100
AcDbEntity
  8
0
100
AcDbBlockEnd
  0
BLOCK
  5
1A
330
19
100
AcDbEntity
  8
0
100
AcDbBlockBegin
  2
_ORIGIN
 70
     0
 10
0.0
 20
0.0
 30
0.0
  3
_ORIGIN
  1

  0
CIRCLE
  5
1B
330
19
100
AcDbEntity
  8
0
  6
BYBLOCK
 62
     0
370
    -2
100
AcDbCircle
 10
0.0
 20
0.0
 30
0.0
 40
0.5
  0
LINE
  5
1C
330
19
100
AcDbEntity
  8
0
  6
BYBLOCK
 62
     0
370
    -2
100
AcDbLine
 10
0.0
 20
0.0
 30
0.0
 11
-1.0
 21
0.0
 31
0.0
  0
ENDBLK
  5
1D
330
19
100
AcDbEntity
  8
0
100
AcDbBlockEnd
  0
BLOCK
  5
1F
330
1E
100
AcDbEntity
  8
0
100
AcDbBlockBegin
  2
_OPEN30
 70
     0
 10
0.0
 20
0.0
 30
0.0
  3
_OPEN30
  1

  0
LINE
  5
20
330
1E
100
AcDbEntity
  8
0
  6
BYBLOCK
 62
     0
370
    -2
100
AcDbLine
 10
-1.0
 20
0.267949
 30
0.0
 11
0.0
 21
0.0
 31
0.0
  0
LINE
  5
21
330
1E
100
AcDbEntity
  8
0
  6
BYBLOCK
 62
     0
370
    -2
100
AcDbLine
 10
0.0
 20
0.0
 30
0.0
 11
-1.0
 21
-0.267949
 31
0.0
  0
LINE
  5
22
330
1E
100
AcDbEntity
  8
0
  6
BYBLOCK
 62
     0
370
    -2
100
AcDbLine
 10
0.0
 20
0.0
 30
0.0
 11
-1.0
 21
0.0
 31
0.0
  0
ENDBLK
  5
23
330
1E
100
AcDbEntity
  8
0
100
AcDbBlockEnd
  0
BLOCK
  5
25
330
24
100
AcDbEntity
  8
0
100
AcDbBlockBegin
  2
_BOXFILLED
 70
     0
 10
0.0
 20
0.0
 30
0.0
  3
_BOXFILLED
  1

  0
SOLID
  5
26
330
24
100
AcDbEntity
  8
0
  6
BYBLOCK
 62
     0
370
    -2
100
AcDbTrace
 10
-0.5
 20
0.5
 30
0.0
 11
0.5
 21
0.5
 31
0.0
 12
-0.5
 22
-0.5
 32
0.0
 13
0.5
 23
-0.5
 33
0.0
  0
LINE
  5
27
330
24
100
AcDbEntity
  8
0
  6
BYBLOCK
 62
     0
370
    -2
100
AcDbLine
 10
-0.5
 20
0.0
 30
0.0
 11
-1.0
 21
0.0
 31
0.0
  0
ENDBLK
  5
28
330
24
100
AcDbEntity
  8
0
100
AcDbBlockEnd
  0
BLOCK
  5
2A
330
29
100
AcDbEntity
  8
0
100
AcDbBlockBegin
  2
_BOXBLANK
 70
     0
 10
0.0
 20
0.0
 30
0.0
  3
_BOXBLANK
  1

  0
LINE
  5
2B
330
29
100
AcDbEntity
  8
0
  6
BYBLOCK
 62
     0
370
    -2
100
AcDbLine
 10
-0.5
 20
-0.5
 30
0.0
 11
0.5
 21
-0.5
 31
0.0
  0
LINE
  5
2C
330
29
100
AcDbEntity
  8
0
  6
BYBLOCK
 62
     0
370
    -2
100
AcDbLine
 10
0.5
 20
-0.5
 30
0.0
 11
0.5
 21
0.5
 31
0.0
  0
LINE
  5
2D
330
29
100
AcDbEntity
  8
0
  6
BYBLOCK
 62
     0
370
    -2
100
AcDbLine
 10
0.5
 20
0.5
 30
0.0
 11
-0.5
 21
0.5
 31
0.0
  0
LINE
  5
2E
330
29
100
AcDbEntity
  8
0
  6
BYBLOCK
 62
     0
370
    -2
100
AcDbLine
 10
-0.5
 20
0.5
 30
0.0
 11
-0.5
 21
-0.5
 31
0.0
  0
LINE
  5
2F
330
29
100
AcDbEntity
  8
0
  6
BYBLOCK
 62
     0
370
    -2
100
AcDbLine
 10
-0.5
 20
0.0
 30
0.0
 11
-1.0
 21
0.0
 31
0.0
  0
ENDBLK
  5
30
330
29
100
AcDbEntity
  8
0
100
AcDbBlockEnd
  0
BLOCK
  5
32
330
31
100
AcDbEntity
  8
0
100
AcDbBlockBegin
  2
_OBLIQUE
 70
     0
 10
0.0
 20
0.0
 30
0.0
  3
_OBLIQUE
  1

  0
LINE
  5
33
330
31
100
AcDbEntity
  8
0
  6
BYBLOCK
 62
     0
370
    -2
100
AcDbLine
 10
-0.5
 20
-0.5
 30
0.0
 11
0.5
 21
0.5
 31
0.0
  0
ENDBLK
  5
34
330
31
100
AcDbEntity
  8
0
100
AcDbBlockEnd
  0
BLOCK
  5
36
330
35
100
AcDbEntity
  8
0
100
AcDbBlockBegin
  2
_OPEN90
 70
     0
 10
0.0
 20
0.0
 30
0.0
  3
_OPEN90
  1

  0
LINE
  5
37
330
35
100
AcDbEntity
  8
0
  6
BYBLOCK
 62
     0
370
    -2
100
AcDbLine
 10
-0.5
 20
0.5
 30
0.0
 11
0.0
 21
0.0
 31
0.0
  0
LINE
  5
38
330
35
100
AcDbEntity
  8
0
  6
BYBLOCK
 62
     0
370
    -2
100
AcDbLine
 10
0.0
 20
0.0
 30
0.0
 11
-0.5
 21
-0.5
 31
0.0
  0
LINE
  5
39
330
35
100
AcDbEntity
  8
0
  6
BYBLOCK
 62
     0
370
    -2
100
AcDbLine
 10
0.0
 20
0.0
 30
0.0
 11
-1.0
 21
0.0
 31
0.0
  0
ENDBLK
  5
3A
330
35
100
AcDbEntity
  8
0
100
AcDbBlockEnd
  0
BLOCK
  5
3C
330
3B
100
AcDbEntity
  8
0
100
AcDbBlockBegin
  2
_CLOSEDBLANK
 70
     0
 10
0.0
 20
0.0
 30
0.0
  3
_CLOSEDBLANK
  1

  0
LINE
  5
3D
330
3B
100
AcDbEntity
  8
0
  6
BYBLOCK
 62
     0
370
    -2
100
AcDbLine
 10
-1.0
 20
0.1666666666666666
 30
0.0
 11
0.0
 21
0.0
 31
0.0
  0
LINE
  5
3E
330
3B
100
AcDbEntity
  8
0
  6
BYBLOCK
 62
     0
370
    -2
100
AcDbLine
 10
0.0
 20
0.0
 30
0.0
 11
-1.0
 21
-0.1666666666666666
 31
0.0
  0
LINE
  5
3F
330
3B
100
AcDbEntity
  8
0
  6
BYBLOCK
 62
     0
370
    -2
100
AcDbLine
 10
-1.0
 20
0.1666666666666666
 30
0.0
 11
-1.0
 21
-0.1666666666666666
 31
0.0
  0
ENDBLK
  5
40
330
3B
100
AcDbEntity
  8
0
100
AcDbBlockEnd
  0
BLOCK
  5
42
330
41
100
AcDbEntity
  8
0
100
AcDbBlockBegin
  2
_DOTBLANK
 70
     0
 10
0.0
 20
0.0
 30
0.0
  3
_DOTBLANK
  1

  0
CIRCLE
  5
43
330
41
100
AcDbEntity
  8
0
  6
BYBLOCK
 62
     0
370
    -2
100
AcDbCircle
 10
0.0
 20
0.0
 30
0.0
 40
0.5
  0
LINE
  5
44
330
41
100
AcDbEntity
  8
0
  6
BYBLOCK
 62
     0
370
    -2
100
AcDbLine
 10
-0.5
 20
0.0
 30
0.0
 11
-1.0
 21
0.0
 31
0.0
  0
ENDBLK
  5
45
330
41
100
AcDbEntity
  8
0
100
AcDbBlockEnd
  0
ENDSEC
  0
SECTION
  2
ENTITIES
  0
MTEXT
  5
46
100
AcDbEntity
  8
A8
  6
CONTINUOUS
 62
3
100
AcDbMText
 10
9.999997526638502
 20
18.00000076076889
 30
0.000000000000000
 40
3.000000000000000
 41
0.000000000000000
 44
0.6739999771118164
 71
     7
 72
     1
  1
{\H0.93x;{TYPE No.THA-438B}}
 11
1.000000000000000
 21
0.000000000000000
 31
0.000000000000000
  7
STANDARD
  0
POINT
  5
47
100
AcDbEntity
  8
A0
  6
CONTINUOUS
 62
3
100
AcDbPoint
 10
9.999997526638502
 20
18.00000076076889
 30
0.000000000000000
  0
LINE
  5
48
100
AcDbEntity
  8
A4
  6
CENTER
 62
1
100
AcDbLine
 10
86.37333311430459
 20
121.4887768346717
 30
0.000000000000000
 11
86.37333311430459
 21
129.4887768346801
 31
0.000000000000000
  0
LINE
  5
49
100
AcDbEntity
  8
A3
  6
DASHED
 62
2
100
AcDbLine
 10
88.62333311430493
 20
122.9887768346649
 30
0.000000000000000
 11
88.62333311430493
 21
127.9887768346649
 31
0.000000000000000
  0
LINE
  5
4A
100
AcDbEntity
  8
A3
  6
DASHED
 62
2
100
AcDbLine
 10
84.12333311430493
 20
122.9887768346609
 30
0.000000000000000
 11
84.12333311430493
 21
127.9887768346609
 31
0.000000000000000
  0
LINE
  5
4B
100
AcDbEntity
  8
A3
  6
DASHED
 62
2
100
AcDbLine
 10
92.47685833473427
 20
127.9887768346720
 30
0.000000000000000
 11
81.70985429406538
 21
127.9887768346862
 31
0.000000000000000
  0
LINE
  5
4C
100
AcDbEntity
  8
A1
  6
CONTINUOUS
 62
7
100
AcDbLine
 10
96.37333311430461
 20
122.9887768346718
 30
0.000000000000000
 11
80.97333311429713
 21
122.9887768346582
 31
0.000000000000000
  0
ARC
  5
4D
100
AcDbEntity
  8
A3
  6
DASHED
 62
2
100
AcDbCircle
 10
81.70985429406468
 20
127.4887768346862
 30
0.000000000000000
 40
0.5000000000000000
100
AcDbArc
 50
90.00000000000000
 51
177.0000000001673
  0
LINE
  5
4E
100
AcDbEntity
  8
A1
  6
CONTINUOUS
 62
7
100
AcDbLine
 10
166.0515853264932
 20
148.9887768347335
 30
0.000000000000000
 11
93.69508090211426
 21
148.9887768346693
 31
0.000000000000000
  0
LINE
  5
4F
100
AcDbEntity
  8
A4
  6
CENTER
 62
1
100
AcDbLine
 10
129.8733331143047
 20
140.0887768346583
 30
0.000000000000000
 11
129.8733331143047
 21
150.0887768346581
 31
0.000000000000000
  0
ARC
  5
50
100
AcDbEntity
  8
A1
  6
CONTINUOUS
 62
7
100
AcDbCircle
 10
93.69508090211522
 20
147.9887768346694
 30
0.000000000000000
 40
1.000000000000000
100
AcDbArc
 50
90.00000000000000
 51
149.5173341194084
  0
LINE
  5
51
100
AcDbEntity
  8
A4
  6
CENTER
 62
1
100
AcDbLine
 10
173.3733331143048
 20
121.4887768346717
 30
0.000000000000000
 11
173.3733331143048
 21
129.4887768346801
 31
0.000000000000000
  0
LINE
  5
52
100
AcDbEntity
  8
A3
  6
DASHED
 62
2
100
AcDbLine
 10
170.8233331143047
 20
122.9887768346717
 30
0.000000000000000
 11
170.8233331143047
 21
127.9887768346717
 31
0.000000000000000
  0
LINE
  5
53
100
AcDbEntity
  8
A3
  6
DASHED
 62
2
100
AcDbLine
 10
175.9233331143048
 20
122.9887768346717
 30
0.000000000000000
 11
175.9233331143048
 21
127.9887768346717
 31
0.000000000000000
  0
LINE
  5
54
100
AcDbEntity
  8
A3
  6
DASHED
 62
2
100
AcDbLine
 10
167.2698078938748
 20
127.9887768346720
 30
0.000000000000000
 11
178.0368119345440
 21
127.9887768346863
 31
0.000000000000000
  0
LINE
  5
55
100
AcDbEntity
  8
A1
  6
CONTINUOUS
 62
7
100
AcDbLine
 10
163.3733331143048
 20
122.9887768346717
 30
0.000000000000000
 11
178.7733331143122
 21
122.9887768346581
 31
0.000000000000000
  0
LINE
  5
56
100
AcDbEntity
  8
A1
  6
CONTINUOUS
 62
7
100
AcDbLine
 10
178.7733331143051
 20
122.9887768346719
 30
0.000000000000000
 11
178.4542850907882
 21
129.0765757816875
 31
0.000000000000000
  0
ARC
  5
57
100
AcDbEntity
  8
A3
  6
DASHED
 62
2
100
AcDbCircle
 10
178.0368119345447
 20
127.4887768346862
 30
0.000000000000000
 40
0.5000000000000000
100
AcDbArc
 50
2.999999999832694
 51
90.00000000000000
  0
LINE
  5
58
100
AcDbEntity
  8
A1
  6
CONTINUOUS
 62
7
100
AcDbLine
 10
178.3127988919135
 20
129.5393177824177
 30
0.000000000000000
 11
166.9196429142533
 21
148.4987152653441
 31
0.000000000000000
  0
ARC
  5
59
100
AcDbEntity
  8
A1
  6
CONTINUOUS
 62
7
100
AcDbCircle
 10
166.0515853264942
 20
147.9887768346694
 30
0.000000000000000
 40
1.000000000000000
100
AcDbArc
 50
30.48266588059164
 51
90.00000000000000
  0
ARC
  5
5A
100
AcDbEntity
  8
A1
  6
CONTINUOUS
 62
7
100
AcDbCircle
 10
177.4556555560335
 20
129.0242398254475
 30
0.000000000000000
 40
1.000000000000000
100
AcDbArc
 50
2.999999999831419
 51
31.00266588058884
  0
LINE
  5
5B
100
AcDbEntity
  8
A1
  6
CONTINUOUS
 62
7
100
AcDbLine
 10
81.43386733669745
 20
129.5393177824176
 30
0.000000000000000
 11
92.82702331435772
 21
148.4987152653439
 31
0.000000000000000
  0
LINE
  5
5C
100
AcDbEntity
  8
A1
  6
CONTINUOUS
 62
7
100
AcDbLine
 10
80.97333311430597
 20
122.9887768346718
 30
0.000000000000000
 11
81.29238113782284
 21
129.0765757816875
 31
0.000000000000000
  0
ARC
  5
5D
100
AcDbEntity
  8
A1
  6
CONTINUOUS
 62
7
100
AcDbCircle
 10
82.29101067257747
 20
129.0242398254475
 30
0.000000000000000
 40
1.000000000000000
100
AcDbArc
 50
148.9973341194112
 51
177.0000000001686
  0
LINE
  5
5E
100
AcDbEntity
  8
A3
  6
DASHED
 62
2
100
AcDbLine
 10
166.7698204089793
 20
128.4852391873731
 30
0.000000000000000
 11
166.6260321100746
 21
148.8073187656870
 31
0.000000000000000
  0
ARC
  5
5F
100
AcDbEntity
  8
A3
  6
DASHED
 62
2
100
AcDbCircle
 10
167.2698078938742
 20
128.4887768346720
 30
0.000000000000000
 40
0.5000000000000000
100
AcDbArc
 50
180.4053879015778
 51
270.0000000000000
  0
LINE
  5
60
100
AcDbEntity
  8
A3
  6
DASHED
 62
2
100
AcDbLine
 10
92.97684581962979
 20
128.4852391873732
 30
0.000000000000000
 11
93.12063411853451
 21
148.8073187656871
 31
0.000000000000000
  0
ARC
  5
61
100
AcDbEntity
  8
A3
  6
DASHED
 62
2
100
AcDbCircle
 10
92.47685833473494
 20
128.4887768346720
 30
0.000000000000000
 40
0.5000000000000000
100
AcDbArc
 50
270.0000000000000
 51
359.5946120984222
  0
LINE
  5
62
100
AcDbEntity
  8
A1
  6
CONTINUOUS
 62
7
100
AcDbLine
 10
178.8733331142788
 20
202.0487925697361
 30
0.000000000000000
 11
178.8733331142788
 21
188.0487925697361
 31
0.000000000000000
  0
ARC
  5
63
100
AcDbEntity
  8
A1
  6
CONTINUOUS
 62
7
100
AcDbCircle
 10
177.8733331142788
 20
202.0487925697361
 30
0.000000000000000
 40
1.000000000000000
100
AcDbArc
 50
0.000000000000000
 51
90.00000000000000
  0
ARC
  5
64
100
AcDbEntity
  8
A1
  6
CONTINUOUS
 62
7
100
AcDbCircle
 10
177.8733331142788
 20
188.0487925697361
 30
0.000000000000000
 40
1.000000000000000
100
AcDbArc
 50
270.0000000000000
 51
360.0000000000000
  0
LINE
  5
65
100
AcDbEntity
  8
A4
  6
CENTER
 62
1
100
AcDbLine
 10
78.37333311427867
 20
195.0487925697757
 30
0.000000000000000
 11
181.3733331142787
 21
195.0487925697757
 31
0.000000000000000
  0
LINE
  5
66
100
AcDbEntity
  8
A1
  6
CONTINUOUS
 62
7
100
AcDbLine
 10
178.5361267019223
 20
200.0487925697757
 30
0.000000000000000
 11
171.6233331143033
 21
200.0487925697757
 31
0.000000000000000
  0
LINE
  5
67
100
AcDbEntity
  8
A1
  6
CONTINUOUS
 62
7
100
AcDbLine
 10
178.5361267019223
 20
190.0487925697757
 30
0.000000000000000
 11
171.6233331143033
 21
190.0487925697757
 31
0.000000000000000
  0
LINE
  5
68
100
AcDbEntity
  8
A4
  6
CENTER
 62
1
100
AcDbLine
 10
173.3733331143047
 20
198.7487925697758
 30
0.000000000000000
 11
173.3733331143047
 21
191.3487925697758
 31
0.000000000000000
  0
LINE
  5
69
100
AcDbEntity
  8
A1
  6
CONTINUOUS
 62
7
100
AcDbLine
 10
166.5696333419450
 20
201.7385980876996
 30
0.000000000000000
 11
93.17703288666459
 21
201.7385980876996
 31
0.000000000000000
  0
LINE
  5
6A
100
AcDbEntity
  8
A1
  6
CONTINUOUS
 62
7
100
AcDbLine
 10
161.4756140302261
 20
202.0001694196347
 30
0.000000000000000
 11
98.27105219838330
 21
202.0001694196347
 31
0.000000000000000
  0
LINE
  5
6B
100
AcDbEntity
  8
A1
  6
CONTINUOUS
 62
7
100
AcDbLine
 10
166.5696333419450
 20
188.3589870518520
 30
0.000000000000000
 11
93.17703288666459
 21
188.3589870518520
 31
0.000000000000000
  0
LINE
  5
6C
100
AcDbEntity
  8
A1
  6
CONTINUOUS
 62
7
100
AcDbLine
 10
161.4756140302261
 20
188.0974157199169
 30
0.000000000000000
 11
98.27105219838330
 21
188.0974157199169
 31
0.000000000000000
  0
LINE
  5
6D
100
AcDbEntity
  8
A1
  6
CONTINUOUS
 62
7
100
AcDbLine
 10
163.6624534821192
 20
203.0487925697361
 30
0.000000000000000
 11
177.8733331142788
 21
203.0487925697361
 31
0.000000000000000
  0
LINE
  5
6E
100
AcDbEntity
  8
A1
  6
CONTINUOUS
 62
7
100
AcDbLine
 10
163.6624534821192
 20
187.0487925697361
 30
0.000000000000000
 11
177.8733331142788
 21
187.0487925697361
 31
0.000000000000000
  0
LINE
  5
6F
100
AcDbEntity
  8
A4
  6
CENTER
 62
1
100
AcDbLine
 10
129.8733331143047
 20
203.5001694196346
 30
0.000000000000000
 11
129.8733331143047
 21
186.5974157199169
 31
0.000000000000000
  0
LINE
  5
70
100
AcDbEntity
  8
A1
  6
CONTINUOUS
 62
7
100
AcDbLine
 10
80.87333311433085
 20
202.0487925697361
 30
0.000000000000000
 11
80.87333311433085
 21
188.0487925697361
 31
0.000000000000000
  0
ARC
  5
71
100
AcDbEntity
  8
A1
  6
CONTINUOUS
 62
7
100
AcDbCircle
 10
81.87333311433085
 20
202.0487925697361
 30
0.000000000000000
 40
1.000000000000000
100
AcDbArc
 50
90.00000000000000
 51
180.0000000000000
  0
ARC
  5
72
100
AcDbEntity
  8
A1
  6
CONTINUOUS
 62
7
100
AcDbCircle
 10
81.87333311433085
 20
188.0487925697361
 30
0.000000000000000
 40
1.000000000000000
100
AcDbArc
 50
180.0000000000000
 51
270.0000000000000
  0
LINE
  5
73
100
AcDbEntity
  8
A1
  6
CONTINUOUS
 62
7
100
AcDbLine
 10
81.21053952668733
 20
200.0487925697757
 30
0.000000000000000
 11
88.12333311430629
 21
200.0487925697757
 31
0.000000000000000
  0
LINE
  5
74
100
AcDbEntity
  8
A1
  6
CONTINUOUS
 62
7
100
AcDbLine
 10
81.21053952668733
 20
190.0487925697757
 30
0.000000000000000
 11
88.12333311430629
 21
190.0487925697757
 31
0.000000000000000
  0
LINE
  5
75
100
AcDbEntity
  8
A4
  6
CENTER
 62
1
100
AcDbLine
 10
86.37333311430493
 20
198.7487925697758
 30
0.000000000000000
 11
86.37333311430493
 21
191.3487925697758
 31
0.000000000000000
  0
LINE
  5
76
100
AcDbEntity
  8
A1
  6
CONTINUOUS
 62
7
100
AcDbLine
 10
96.08421274649046
 20
203.0487925697361
 30
0.000000000000000
 11
81.87333311433085
 21
203.0487925697361
 31
0.000000000000000
  0
LINE
  5
77
100
AcDbEntity
  8
A1
  6
CONTINUOUS
 62
7
100
AcDbLine
 10
96.08421274649046
 20
187.0487925697361
 30
0.000000000000000
 11
81.87333311433085
 21
187.0487925697361
 31
0.000000000000000
  0
LINE
  5
78
100
AcDbEntity
  8
A1
  6
CONTINUOUS
 62
7
100
AcDbLine
 10
173.0733331143046
 20
192.7987925697757
 30
0.000000000000000
 11
173.6733331143047
 21
192.7987925697757
 31
0.000000000000000
  0
LINE
  5
79
100
AcDbEntity
  8
A1
  6
CONTINUOUS
 62
7
100
AcDbLine
 10
173.0733331143046
 20
197.2987925697757
 30
0.000000000000000
 11
173.6733331143047
 21
197.2987925697757
 31
0.000000000000000
  0
ARC
  5
7A
100
AcDbEntity
  8
A1
  6
CONTINUOUS
 62
7
100
AcDbCircle
 10
173.0733331143046
 20
195.0487925697757
 30
0.000000000000000
 40
2.250000000000028
100
AcDbArc
 50
90.00000000000000
 51
270.0000000000000
  0
ARC
  5
7B
100
AcDbEntity
  8
A1
  6
CONTINUOUS
 62
7
100
AcDbCircle
 10
173.6733331143047
 20
195.0487925697757
 30
0.000000000000000
 40
2.250000000000000
100
AcDbArc
 50
270.0000000000000
 51
450.0000000000000
  0
CIRCLE
  5
7C
100
AcDbEntity
  8
A1
  6
CONTINUOUS
 62
7
100
AcDbCircle
 10
86.37333311430493
 20
195.0487925697757
 30
0.000000000000000
 40
2.250000000000000
  0
LINE
  5
7D
100
AcDbEntity
  8
A1
  6
CONTINUOUS
 62
7
100
AcDbLine
 10
166.6233331143033
 20
189.3589870518518
 30
0.000000000000000
 11
166.6233331143033
 21
200.7385980876996
 31
0.000000000000000
  0
ARC
  5
7E
100
AcDbEntity
  8
A1
  6
CONTINUOUS
 62
7
100
AcDbCircle
 10
171.6233331143033
 20
195.0487925697757
 30
0.000000000000000
 40
4.999999999999886
100
AcDbArc
 50
90.00000000000000
 51
270.0000000000000
  0
LINE
  5
7F
100
AcDbEntity
  8
A1
  6
CONTINUOUS
 62
7
100
AcDbLine
 10
178.2181185254041
 20
202.9874741026723
 30
0.000000000000000
 11
166.6767240728094
 21
201.7443488355687
 31
0.000000000000000
  0
ARC
  5
80
100
AcDbEntity
  8
A1
  6
CONTINUOUS
 62
7
100
AcDbCircle
 10
166.5696333419450
 20
202.7385980876996
 30
0.000000000000000
 40
1.000000000000000
100
AcDbArc
 50
270.0000000000000
 51
276.1476359290878
  0
LINE
  5
81
100
AcDbEntity
  8
A1
  6
CONTINUOUS
 62
7
100
AcDbLine
 10
178.2181185254040
 20
187.1101110368788
 30
0.000000000000000
 11
166.6767240728093
 21
188.3532363039824
 31
0.000000000000000
  0
ARC
  5
82
100
AcDbEntity
  8
A1
  6
CONTINUOUS
 62
7
100
AcDbCircle
 10
166.5696333419450
 20
187.3589870518515
 30
0.000000000000000
 40
1.000000000000000
100
AcDbArc
 50
83.85236407091219
 51
90.00000000000000
  0
LINE
  5
83
100
AcDbEntity
  8
A1
  6
CONTINUOUS
 62
7
100
AcDbLine
 10
93.12333311430629
 20
189.3589870518518
 30
0.000000000000000
 11
93.12333311430629
 21
200.7385980876996
 31
0.000000000000000
  0
ARC
  5
84
100
AcDbEntity
  8
A1
  6
CONTINUOUS
 62
7
100
AcDbCircle
 10
88.12333311430629
 20
195.0487925697757
 30
0.000000000000000
 40
4.999999999999886
100
AcDbArc
 50
270.0000000000000
 51
450.0000000000000
  0
LINE
  5
85
100
AcDbEntity
  8
A1
  6
CONTINUOUS
 62
7
100
AcDbLine
 10
81.52854770320565
 20
202.9874741026722
 30
0.000000000000000
 11
93.06994215580028
 21
201.7443488355686
 31
0.000000000000000
  0
ARC
  5
86
100
AcDbEntity
  8
A1
  6
CONTINUOUS
 62
7
100
AcDbCircle
 10
93.17703288666459
 20
202.7385980876996
 30
0.000000000000000
 40
1.000000000000000
100
AcDbArc
 50
263.8523640709122
 51
270.0000000000000
  0
LINE
  5
87
100
AcDbEntity
  8
A1
  6
CONTINUOUS
 62
7
100
AcDbLine
 10
81.52854770320569
 20
187.1101110368788
 30
0.000000000000000
 11
93.06994215580035
 21
188.3532363039824
 31
0.000000000000000
  0
ARC
  5
88
100
AcDbEntity
  8
A1
  6
CONTINUOUS
 62
7
100
AcDbCircle
 10
93.17703288666459
 20
187.3589870518515
 30
0.000000000000000
 40
1.000000000000000
100
AcDbArc
 50
90.00000000000000
 51
96.14763592908783
  0
ARC
  5
89
100
AcDbEntity
  8
A1
  6
CONTINUOUS
 62
7
100
AcDbCircle
 10
163.6624534821192
 20
188.0487925697361
 30
0.000000000000000
 40
1.000000000000000
100
AcDbArc
 50
237.7486827297036
 51
270.0000000000000
  0
ARC
  5
8A
100
AcDbEntity
  8
A1
  6
CONTINUOUS
 62
7
100
AcDbCircle
 10
163.6624534821192
 20
202.0487925698151
 30
0.000000000000000
 40
1.000000000000000
100
AcDbArc
 50
90.00000000000000
 51
122.2513172702964
  0
ARC
  5
8B
100
AcDbEntity
  8
A1
  6
CONTINUOUS
 62
7
100
AcDbCircle
 10
96.08421274649046
 20
202.0487925698151
 30
0.000000000000000
 40
1.000000000000000
100
AcDbArc
 50
57.74868272970362
 51
90.00000000000000
  0
ARC
  5
8C
100
AcDbEntity
  8
A1
  6
CONTINUOUS
 62
7
100
AcDbCircle
 10
96.08421274649046
 20
188.0487925697361
 30
0.000000000000000
 40
1.000000000000000
100
AcDbArc
 50
270.0000000000000
 51
302.2513172702964
  0
ARC
  5
8D
100
AcDbEntity
  8
A1
  6
CONTINUOUS
 62
7
100
AcDbCircle
 10
171.7733331143050
 20
195.0487925697757
 30
0.000000000000000
 40
4.999999999999972
100
AcDbArc
 50
90.00000000000000
 51
270.0000000000000
  0
ARC
  5
8E
100
AcDbEntity
  8
A1
  6
CONTINUOUS
 62
7
100
AcDbCircle
 10
87.97333311430609
 20
195.0487925697757
 30
0.000000000000000
 40
4.999999999999972
100
AcDbArc
 50
270.0000000000000
 51
450.0000000000000
  0
LINE
  5
8F
100
AcDbEntity
  8
A1
  6
CONTINUOUS
 62
7
100
AcDbLine
 10
163.1107330496951
 20
187.2147634548690
 30
0.000000000000000
 11
162.0273344626501
 21
187.9314448347839
 31
0.000000000000000
  0
ARC
  5
90
100
AcDbEntity
  8
A1
  6
CONTINUOUS
 62
7
100
AcDbCircle
 10
161.4756140302261
 20
187.0974157199169
 30
0.000000000000000
 40
1.000000000000000
100
AcDbArc
 50
56.51487793673570
 51
90.00000000000000
  0
LINE
  5
91
100
AcDbEntity
  8
A1
  6
CONTINUOUS
 62
7
100
AcDbLine
 10
163.1107330496951
 20
202.8828216846826
 30
0.000000000000000
 11
162.0273344626501
 21
202.1661403047677
 31
0.000000000000000
  0
ARC
  5
92
100
AcDbEntity
  8
A1
  6
CONTINUOUS
 62
7
100
AcDbCircle
 10
161.4756140302261
 20
203.0001694196347
 30
0.000000000000000
 40
1.000000000000000
100
AcDbArc
 50
270.0000000000000
 51
303.4851220632643
  0
LINE
  5
93
100
AcDbEntity
  8
A1
  6
CONTINUOUS
 62
7
100
AcDbLine
 10
96.63593317891431
 20
202.8828216846825
 30
0.000000000000000
 11
97.71933176595931
 21
202.1661403047677
 31
0.000000000000000
  0
ARC
  5
94
100
AcDbEntity
  8
A1
  6
CONTINUOUS
 62
7
100
AcDbCircle
 10
98.27105219838330
 20
203.0001694196347
 30
0.000000000000000
 40
1.000000000000000
100
AcDbArc
 50
236.5148779367356
 51
270.0000000000000
  0
LINE
  5
95
100
AcDbEntity
  8
A1
  6
CONTINUOUS
 62
7
100
AcDbLine
 10
96.63593317891427
 20
187.2147634548690
 30
0.000000000000000
 11
97.71933176595930
 21
187.9314448347839
 31
0.000000000000000
  0
ARC
  5
96
100
AcDbEntity
  8
A1
  6
CONTINUOUS
 62
7
100
AcDbCircle
 10
98.27105219838330
 20
187.0974157199169
 30
0.000000000000000
 40
1.000000000000000
100
AcDbArc
 50
90.00000000000000
 51
123.4851220632643
  0
LINE
  5
97
100
AcDbEntity
  8
A1
  6
CONTINUOUS
 62
7
100
AcDbLine
 10
163.3733331143052
 20
122.9887768346719
 30
0.000000000000000
 11
161.8549797427770
 21
142.2812856351689
 31
0.000000000000000
  0
ARC
  5
98
100
AcDbEntity
  8
A1
  6
CONTINUOUS
 62
7
100
AcDbCircle
 10
160.8580624090439
 20
142.2028265394411
 30
0.000000000000000
 40
1.000000000000000
100
AcDbArc
 50
4.500000000000307
 51
94.48765320052897
  0
ARC
  5
99
100
AcDbEntity
  8
A1
  6
CONTINUOUS
 62
7
100
AcDbCircle
 10
129.8733331143047
 20
536.9887768347014
 30
0.000000000000000
 40
395.0000000000000
100
AcDbArc
 50
265.5123467994711
 51
274.4876532005289
  0
ARC
  5
9A
100
AcDbEntity
  8
A1
  6
CONTINUOUS
 62
7
100
AcDbCircle
 10
98.88860381956528
 20
142.2028265394411
 30
0.000000000000000
 40
1.000000000000000
100
AcDbArc
 50
85.51234679947102
 51
175.4999999999996
  0
LINE
  5
9B
100
AcDbEntity
  8
A1
  6
CONTINUOUS
 62
7
100
AcDbLine
 10
96.37333311430399
 20
122.9887768346717
 30
0.000000000000000
 11
97.89168648583217
 21
142.2812856351690
 31
0.000000000000000
  0
LINE
  5
9C
100
AcDbEntity
  8
A4
  6
CENTER
 62
1
100
AcDbLine
 10
220.1985200540593
 20
121.4887768346582
 30
0.000000000000000
 11
220.1985200540593
 21
150.4887768347014
 31
0.000000000000000
  0
LINE
  5
9D
100
AcDbEntity
  8
A1
  6
CONTINUOUS
 62
7
100
AcDbLine
 10
215.1985200540593
 20
127.9887768346581
 30
0.000000000000000
 11
215.1985200540593
 21
143.8073187656870
 31
0.000000000000000
  0
LINE
  5
9E
100
AcDbEntity
  8
A1
  6
CONTINUOUS
 62
7
100
AcDbLine
 10
225.1985200540593
 20
127.9887768346581
 30
0.000000000000000
 11
225.1985200540593
 21
143.8073187656870
 31
0.000000000000000
  0
ARC
  5
9F
100
AcDbEntity
  8
A3
  6
DASHED
 62
2
100
AcDbCircle
 10
220.1985200540593
 20
161.9887768347013
 30
0.000000000000000
 40
20.00000000000000
100
AcDbArc
 50
251.9051588108896
 51
288.1602363510238
  0
LINE
  5
A0
100
AcDbEntity
  8
A1
  6
CONTINUOUS
 62
7
100
AcDbLine
 10
212.1985200540593
 20
122.9887768346581
 30
0.000000000000000
 11
228.1985200540593
 21
122.9887768346581
 31
0.000000000000000
  0
LINE
  5
A1
100
AcDbEntity
  8
A1
  6
CONTINUOUS
 62
7
100
AcDbLine
 10
228.1985200540590
 20
122.9887768346581
 30
0.000000000000000
 11
226.8855827607373
 21
148.0411127909443
 31
0.000000000000000
  0
LINE
  5
A2
100
AcDbEntity
  8
A1
  6
CONTINUOUS
 62
7
100
AcDbLine
 10
212.1985200540594
 20
122.9887768346581
 30
0.000000000000000
 11
213.5114573473810
 21
148.0411127909444
 31
0.000000000000000
  0
ARC
  5
A3
100
AcDbEntity
  8
A3
  6
DASHED
 62
2
100
AcDbCircle
 10
226.1203556271204
 20
143.9351937153971
 30
0.000000000000000
 40
1.000000000000000
100
AcDbArc
 50
288.1602363510253
 51
363.0000000000007
  0
LINE
  5
A4
100
AcDbEntity
  8
A3
  6
DASHED
 62
2
100
AcDbLine
 10
217.9485200540593
 20
122.9887768346581
 30
0.000000000000000
 11
217.9485200540593
 21
127.9887768346581
 31
0.000000000000000
  0
LINE
  5
A5
100
AcDbEntity
  8
A3
  6
DASHED
 62
2
100
AcDbLine
 10
222.4485200540593
 20
122.9887768346581
 30
0.000000000000000
 11
222.4485200540593
 21
127.9887768346581
 31
0.000000000000000
  0
LINE
  5
A6
100
AcDbEntity
  8
A1
  6
CONTINUOUS
 62
7
100
AcDbLine
 10
215.1985200540593
 20
127.9887768346581
 30
0.000000000000000
 11
225.1985200540593
 21
127.9887768346581
 31
0.000000000000000
  0
ARC
  5
A7
100
AcDbEntity
  8
A1
  6
CONTINUOUS
 62
7
100
AcDbCircle
 10
220.1985200540593
 20
143.8073187656870
 30
0.000000000000000
 40
5.000000000000000
100
AcDbArc
 50
0.000000000000000
 51
180.0000000000000
  0
LINE
  5
A8
100
AcDbEntity
  8
A1
  6
CONTINUOUS
 62
7
100
AcDbLine
 10
225.6985200540593
 20
129.3255867658513
 30
0.000000000000000
 11
227.3796268799786
 21
129.3255867658513
 31
0.000000000000000
  0
LINE
  5
A9
100
AcDbEntity
  8
A1
  6
CONTINUOUS
 62
7
100
AcDbLine
 10
214.6985200540594
 20
129.3255867658513
 30
0.000000000000000
 11
213.0174132281401
 21
129.3255867658513
 31
0.000000000000000
  0
LINE
  5
AA
100
AcDbEntity
  8
A1
  6
CONTINUOUS
 62
7
100
AcDbLine
 10
214.5100868821356
 20
148.9887768347014
 30
0.000000000000000
 11
225.8869532259828
 21
148.9887768347014
 31
0.000000000000000
  0
ARC
  5
AB
100
AcDbEntity
  8
A1
  6
CONTINUOUS
 62
7
100
AcDbCircle
 10
214.5100868821356
 20
147.9887768347014
 30
0.000000000000000
 40
1.000000000000000
100
AcDbArc
 50
90.00000000000000
 51
176.9999999999993
  0
ARC
  5
AC
100
AcDbEntity
  8
A1
  6
CONTINUOUS
 62
7
100
AcDbCircle
 10
225.8869532259828
 20
147.9887768347014
 30
0.000000000000000
 40
1.000000000000000
100
AcDbArc
 50
2.999999999999090
 51
90.00000000000000
  0
ARC
  5
AD
100
AcDbEntity
  8
A3
  6
DASHED
 62
2
100
AcDbCircle
 10
214.2972939874268
 20
143.9284465245853
 30
0.000000000000000
 40
1.000000000000000
100
AcDbArc
 50
176.9999999999993
 51
251.9051588108894
  0
LINE
  5
AE
100
AcDbEntity
  8
A1
  6
CONTINUOUS
 62
7
100
AcDbLine
 10
81.21053952668733
 20
190.0487925697757
 30
0.000000000000000
 11
81.21053952668733
 21
200.0487925697758
 31
0.000000000000000
  0
LINE
  5
AF
100
AcDbEntity
  8
A1
  6
CONTINUOUS
 62
7
100
AcDbLine
 10
178.5361267019223
 20
190.0487925697757
 30
0.000000000000000
 11
178.5361267019223
 21
200.0487925697758
 31
0.000000000000000
  0
LINE
  5
B0
100
AcDbEntity
  8
A4
  6
CENTER
 62
1
100
AcDbLine
 10
44.12554697577411
 20
121.4887768345020
 30
0.000000000000000
 11
44.12554697577411
 21
150.4887768345452
 31
0.000000000000000
  0
LINE
  5
B1
100
AcDbEntity
  8
A1
  6
CONTINUOUS
 62
7
100
AcDbLine
 10
39.12554697577411
 20
127.9887768345019
 30
0.000000000000000
 11
39.12554697577411
 21
143.8073187655308
 31
0.000000000000000
  0
LINE
  5
B2
100
AcDbEntity
  8
A1
  6
CONTINUOUS
 62
7
100
AcDbLine
 10
49.12554697577411
 20
127.9887768345019
 30
0.000000000000000
 11
49.12554697577411
 21
143.8073187655308
 31
0.000000000000000
  0
ARC
  5
B3
100
AcDbEntity
  8
A3
  6
DASHED
 62
2
100
AcDbCircle
 10
44.12554697577411
 20
161.9887768345451
 30
0.000000000000000
 40
20.00000000000000
100
AcDbArc
 50
251.9051588108896
 51
288.1602363510238
  0
LINE
  5
B4
100
AcDbEntity
  8
A1
  6
CONTINUOUS
 62
7
100
AcDbLine
 10
36.12554697577411
 20
122.9887768345019
 30
0.000000000000000
 11
52.12554697577411
 21
122.9887768345019
 31
0.000000000000000
  0
LINE
  5
B5
100
AcDbEntity
  8
A1
  6
CONTINUOUS
 62
7
100
AcDbLine
 10
52.12554697577389
 20
122.9887768345019
 30
0.000000000000000
 11
50.81260968245216
 21
148.0411127907882
 31
0.000000000000000
  0
LINE
  5
B6
100
AcDbEntity
  8
A1
  6
CONTINUOUS
 62
7
100
AcDbLine
 10
36.12554697577422
 20
122.9887768345018
 30
0.000000000000000
 11
37.43848426909587
 21
148.0411127907882
 31
0.000000000000000
  0
ARC
  5
B7
100
AcDbEntity
  8
A3
  6
DASHED
 62
2
100
AcDbCircle
 10
50.04738254883523
 20
143.9351937152409
 30
0.000000000000000
 40
1.000000000000000
100
AcDbArc
 50
288.1602363510253
 51
363.0000000000007
  0
LINE
  5
B8
100
AcDbEntity
  8
A3
  6
DASHED
 62
2
100
AcDbLine
 10
41.87554697577411
 20
122.9887768345019
 30
0.000000000000000
 11
41.87554697577411
 21
127.9887768345019
 31
0.000000000000000
  0
LINE
  5
B9
100
AcDbEntity
  8
A3
  6
DASHED
 62
2
100
AcDbLine
 10
46.37554697577411
 20
122.9887768345019
 30
0.000000000000000
 11
46.37554697577411
 21
127.9887768345019
 31
0.000000000000000
  0
LINE
  5
BA
100
AcDbEntity
  8
A1
  6
CONTINUOUS
 62
7
100
AcDbLine
 10
39.12554697577411
 20
127.9887768345019
 30
0.000000000000000
 11
49.12554697577411
 21
127.9887768345019
 31
0.000000000000000
  0
ARC
  5
BB
100
AcDbEntity
  8
A1
  6
CONTINUOUS
 62
7
100
AcDbCircle
 10
44.12554697577411
 20
143.8073187655308
 30
0.000000000000000
 40
5.000000000000000
100
AcDbArc
 50
0.000000000000000
 51
180.0000000000000
  0
LINE
  5
BC
100
AcDbEntity
  8
A1
  6
CONTINUOUS
 62
7
100
AcDbLine
 10
49.62554697577411
 20
129.3255867656951
 30
0.000000000000000
 11
51.30665380169341
 21
129.3255867656951
 31
0.000000000000000
  0
LINE
  5
BD
100
AcDbEntity
  8
A1
  6
CONTINUOUS
 62
7
100
AcDbLine
 10
38.62554697577423
 20
129.3255867656951
 30
0.000000000000000
 11
36.94444014985493
 21
129.3255867656951
 31
0.000000000000000
  0
LINE
  5
BE
100
AcDbEntity
  8
A1
  6
CONTINUOUS
 62
7
100
AcDbLine
 10
38.43711380385042
 20
148.9887768345452
 30
0.000000000000000
 11
49.81398014769763
 21
148.9887768345452
 31
0.000000000000000
  0
ARC
  5
BF
100
AcDbEntity
  8
A1
  6
CONTINUOUS
 62
7
100
AcDbCircle
 10
38.43711380385042
 20
147.9887768345452
 30
0.000000000000000
 40
1.000000000000000
100
AcDbArc
 50
90.00000000000000
 51
176.9999999999993
  0
ARC
  5
C0
100
AcDbEntity
  8
A1
  6
CONTINUOUS
 62
7
100
AcDbCircle
 10
49.81398014769763
 20
147.9887768345452
 30
0.000000000000000
 40
1.000000000000000
100
AcDbArc
 50
2.999999999999090
 51
90.00000000000000
  0
ARC
  5
C1
100
AcDbEntity
  8
A3
  6
DASHED
 62
2
100
AcDbCircle
 10
38.22432090914162
 20
143.9284465244291
 30
0.000000000000000
 40
1.000000000000000
100
AcDbArc
 50
176.9999999999993
 51
251.9051588108894
  0
LINE
  5
C2
100
AcDbEntity
  8
A4
  6
CENTER
 62
1
100
AcDbLine
 10
262.4462810051471
 20
121.4887768346717
 30
0.000000000000000
 11
262.4462810051471
 21
129.4887768346801
 31
0.000000000000000
  0
LINE
  5
C3
100
AcDbEntity
  8
A3
  6
DASHED
 62
2
100
AcDbLine
 10
264.6962810051474
 20
122.9887768346649
 30
0.000000000000000
 11
264.6962810051474
 21
127.9887768346649
 31
0.000000000000000
  0
LINE
  5
C4
100
AcDbEntity
  8
A3
  6
DASHED
 62
2
100
AcDbLine
 10
260.1962810051474
 20
122.9887768346609
 30
0.000000000000000
 11
260.1962810051474
 21
127.9887768346609
 31
0.000000000000000
  0
LINE
  5
C5
100
AcDbEntity
  8
A3
  6
DASHED
 62
2
100
AcDbLine
 10
268.5498062255767
 20
127.9887768346720
 30
0.000000000000000
 11
257.7828021849078
 21
127.9887768346862
 31
0.000000000000000
  0
LINE
  5
C6
100
AcDbEntity
  8
A1
  6
CONTINUOUS
 62
7
100
AcDbLine
 10
272.4462810051471
 20
122.9887768346718
 30
0.000000000000000
 11
257.0462810051396
 21
122.9887768346582
 31
0.000000000000000
  0
ARC
  5
C7
100
AcDbEntity
  8
A3
  6
DASHED
 62
2
100
AcDbCircle
 10
257.7828021849072
 20
127.4887768346862
 30
0.000000000000000
 40
0.5000000000000000
100
AcDbArc
 50
90.00000000000000
 51
177.0000000001673
  0
LINE
  5
C8
100
AcDbEntity
  8
A1
  6
CONTINUOUS
 62
7
100
AcDbLine
 10
342.1245332173356
 20
148.9887768347335
 30
0.000000000000000
 11
269.7680287929567
 21
148.9887768346693
 31
0.000000000000000
  0
LINE
  5
C9
100
AcDbEntity
  8
A4
  6
CENTER
 62
1
100
AcDbLine
 10
305.9462810051472
 20
140.0887768346583
 30
0.000000000000000
 11
305.9462810051472
 21
150.0887768346581
 31
0.000000000000000
  0
ARC
  5
CA
100
AcDbEntity
  8
A1
  6
CONTINUOUS
 62
7
100
AcDbCircle
 10
269.7680287929577
 20
147.9887768346694
 30
0.000000000000000
 40
1.000000000000000
100
AcDbArc
 50
90.00000000000000
 51
149.5173341194084
  0
LINE
  5
CB
100
AcDbEntity
  8
A4
  6
CENTER
 62
1
100
AcDbLine
 10
349.4462810051473
 20
121.4887768346717
 30
0.000000000000000
 11
349.4462810051473
 21
129.4887768346801
 31
0.000000000000000
  0
LINE
  5
CC
100
AcDbEntity
  8
A3
  6
DASHED
 62
2
100
AcDbLine
 10
346.8962810051472
 20
122.9887768346717
 30
0.000000000000000
 11
346.8962810051472
 21
127.9887768346717
 31
0.000000000000000
  0
LINE
  5
CD
100
AcDbEntity
  8
A3
  6
DASHED
 62
2
100
AcDbLine
 10
351.9962810051472
 20
122.9887768346717
 30
0.000000000000000
 11
351.9962810051472
 21
127.9887768346717
 31
0.000000000000000
  0
LINE
  5
CE
100
AcDbEntity
  8
A3
  6
DASHED
 62
2
100
AcDbLine
 10
343.3427557847173
 20
127.9887768346720
 30
0.000000000000000
 11
354.1097598253864
 21
127.9887768346863
 31
0.000000000000000
  0
LINE
  5
CF
100
AcDbEntity
  8
A1
  6
CONTINUOUS
 62
7
100
AcDbLine
 10
339.4462810051472
 20
122.9887768346717
 30
0.000000000000000
 11
354.8462810051547
 21
122.9887768346581
 31
0.000000000000000
  0
LINE
  5
D0
100
AcDbEntity
  8
A1
  6
CONTINUOUS
 62
7
100
AcDbLine
 10
354.8462810051475
 20
122.9887768346719
 30
0.000000000000000
 11
354.5272329816307
 21
129.0765757816875
 31
0.000000000000000
  0
ARC
  5
D1
100
AcDbEntity
  8
A3
  6
DASHED
 62
2
100
AcDbCircle
 10
354.1097598253872
 20
127.4887768346862
 30
0.000000000000000
 40
0.5000000000000000
100
AcDbArc
 50
2.999999999832694
 51
90.00000000000000
  0
LINE
  5
D2
100
AcDbEntity
  8
A1
  6
CONTINUOUS
 62
7
100
AcDbLine
 10
354.3857467827560
 20
129.5393177824177
 30
0.000000000000000
 11
342.9925908050957
 21
148.4987152653441
 31
0.000000000000000
  0
ARC
  5
D3
100
AcDbEntity
  8
A1
  6
CONTINUOUS
 62
7
100
AcDbCircle
 10
342.1245332173366
 20
147.9887768346694
 30
0.000000000000000
 40
1.000000000000000
100
AcDbArc
 50
30.48266588059164
 51
90.00000000000000
  0
ARC
  5
D4
100
AcDbEntity
  8
A1
  6
CONTINUOUS
 62
7
100
AcDbCircle
 10
353.5286034468760
 20
129.0242398254475
 30
0.000000000000000
 40
1.000000000000000
100
AcDbArc
 50
2.999999999831419
 51
31.00266588058884
  0
LINE
  5
D5
100
AcDbEntity
  8
A1
  6
CONTINUOUS
 62
7
100
AcDbLine
 10
257.5068152275398
 20
129.5393177824176
 30
0.000000000000000
 11
268.8999712052001
 21
148.4987152653439
 31
0.000000000000000
  0
LINE
  5
D6
100
AcDbEntity
  8
A1
  6
CONTINUOUS
 62
7
100
AcDbLine
 10
257.0462810051484
 20
122.9887768346719
 30
0.000000000000000
 11
257.3653290286653
 21
129.0765757816876
 31
0.000000000000000
  0
ARC
  5
D7
100
AcDbEntity
  8
A1
  6
CONTINUOUS
 62
7
100
AcDbCircle
 10
258.3639585634199
 20
129.0242398254475
 30
0.000000000000000
 40
1.000000000000000
100
AcDbArc
 50
148.9973341194112
 51
177.0000000001686
  0
LINE
  5
D8
100
AcDbEntity
  8
A3
  6
DASHED
 62
2
100
AcDbLine
 10
342.8427682998218
 20
128.4852391873731
 30
0.000000000000000
 11
342.6989800009171
 21
148.8073187656870
 31
0.000000000000000
  0
ARC
  5
D9
100
AcDbEntity
  8
A3
  6
DASHED
 62
2
100
AcDbCircle
 10
343.3427557847166
 20
128.4887768346720
 30
0.000000000000000
 40
0.5000000000000000
100
AcDbArc
 50
180.4053879015778
 51
270.0000000000000
  0
LINE
  5
DA
100
AcDbEntity
  8
A3
  6
DASHED
 62
2
100
AcDbLine
 10
269.0497937104722
 20
128.4852391873732
 30
0.000000000000000
 11
269.1935820093769
 21
148.8073187656871
 31
0.000000000000000
  0
ARC
  5
DB
100
AcDbEntity
  8
A3
  6
DASHED
 62
2
100
AcDbCircle
 10
268.5498062255774
 20
128.4887768346720
 30
0.000000000000000
 40
0.5000000000000000
100
AcDbArc
 50
270.0000000000000
 51
359.5946120984222
  0
LINE
  5
DC
100
AcDbEntity
  8
A1
  6
CONTINUOUS
 62
7
100
AcDbLine
 10
339.4462810051475
 20
122.9887768346719
 30
0.000000000000000
 11
337.9279276336193
 21
142.2812856351689
 31
0.000000000000000
  0
ARC
  5
DD
100
AcDbEntity
  8
A1
  6
CONTINUOUS
 62
7
100
AcDbCircle
 10
336.9310102998863
 20
142.2028265394411
 30
0.000000000000000
 40
1.000000000000000
100
AcDbArc
 50
4.500000000000307
 51
94.48765320052897
  0
ARC
  5
DE
100
AcDbEntity
  8
A1
  6
CONTINUOUS
 62
7
100
AcDbCircle
 10
305.9462810051472
 20
536.9887768347014
 30
0.000000000000000
 40
395.0000000000000
100
AcDbArc
 50
265.5123467994711
 51
274.4876532005289
  0
ARC
  5
DF
100
AcDbEntity
  8
A1
  6
CONTINUOUS
 62
7
100
AcDbCircle
 10
274.9615517104077
 20
142.2028265394411
 30
0.000000000000000
 40
1.000000000000000
100
AcDbArc
 50
85.51234679947102
 51
175.4999999999996
  0
LINE
  5
E0
100
AcDbEntity
  8
A1
  6
CONTINUOUS
 62
7
100
AcDbLine
 10
272.4462810051464
 20
122.9887768346717
 30
0.000000000000000
 11
273.9646343766746
 21
142.2812856351690
 31
0.000000000000000
  0
LINE
  5
E1
100
AcDbEntity
  8
A4
  6
CENTER
 62
1
100
AcDbLine
 10
173.3733331143070
 20
67.66110462876618
 30
0.000000000000000
 11
173.3733331143070
 21
75.06110462876615
 31
0.000000000000000
  0
LINE
  5
E2
100
AcDbEntity
  8
A1
  6
CONTINUOUS
 62
7
100
AcDbLine
 10
161.5664626761656
 20
64.40972777890723
 30
0.000000000000000
 11
98.18020355244832
 21
64.40972777890723
 31
0.000000000000000
  0
LINE
  5
E3
100
AcDbEntity
  8
A1
  6
CONTINUOUS
 62
7
100
AcDbLine
 10
161.5664626761498
 20
78.31248147862510
 30
0.000000000000000
 11
98.18020355246418
 21
78.31248147862510
 31
0.000000000000000
  0
LINE
  5
E4
100
AcDbEntity
  8
A1
  6
CONTINUOUS
 62
7
100
AcDbLine
 10
164.3733331143047
 20
63.36110462880585
 30
0.000000000000000
 11
177.8733331142809
 21
63.36110462880585
 31
0.000000000000000
  0
LINE
  5
E5
100
AcDbEntity
  8
A1
  6
CONTINUOUS
 62
7
100
AcDbLine
 10
164.3733331143047
 20
79.36110462880583
 30
0.000000000000000
 11
177.8733331142811
 21
79.36110462880583
 31
0.000000000000000
  0
LINE
  5
E6
100
AcDbEntity
  8
A1
  6
CONTINUOUS
 62
7
100
AcDbLine
 10
117.3733331143070
 20
68.36110462876617
 30
0.000000000000000
 11
117.3733331143070
 21
74.36110462876610
 31
0.000000000000000
  0
LINE
  5
E7
100
AcDbEntity
  8
A1
  6
CONTINUOUS
 62
7
100
AcDbLine
 10
142.3733331143070
 20
68.36110462876611
 30
0.000000000000000
 11
142.3733331143070
 21
74.36110462876616
 31
0.000000000000000
  0
LINE
  5
E8
100
AcDbEntity
  8
A1
  6
CONTINUOUS
 62
7
100
AcDbLine
 10
117.3733331143070
 20
68.36110462876617
 30
0.000000000000000
 11
142.3733331143070
 21
68.36110462876617
 31
0.000000000000000
  0
LINE
  5
E9
100
AcDbEntity
  8
A1
  6
CONTINUOUS
 62
7
100
AcDbLine
 10
117.3733331143070
 20
74.36110462876616
 30
0.000000000000000
 11
142.3733331143070
 21
74.36110462876616
 31
0.000000000000000
  0
LINE
  5
EA
100
AcDbEntity
  8
A1
  6
CONTINUOUS
 62
7
100
AcDbLine
 10
178.8733331142811
 20
64.36110462880585
 30
0.000000000000000
 11
178.8733331142811
 21
78.36110462880583
 31
0.000000000000000
  0
ARC
  5
EB
100
AcDbEntity
  8
A1
  6
CONTINUOUS
 62
7
100
AcDbCircle
 10
177.8733331142809
 20
64.36110462880585
 30
0.000000000000000
 40
1.000000000000000
100
AcDbArc
 50
270.0000000000000
 51
360.0000000000000
  0
ARC
  5
EC
100
AcDbEntity
  8
A1
  6
CONTINUOUS
 62
7
100
AcDbCircle
 10
177.8733331142811
 20
78.36110462880583
 30
0.000000000000000
 40
1.000000000000000
100
AcDbArc
 50
0.000000000000000
 51
90.00000000000000
  0
ARC
  5
ED
100
AcDbEntity
  8
A1
  6
CONTINUOUS
 62
7
100
AcDbCircle
 10
173.6733331143069
 20
71.36110462876616
 30
0.000000000000000
 40
2.250000000000000
100
AcDbArc
 50
270.0000000000000
 51
450.0000000000000
  0
LINE
  5
EE
100
AcDbEntity
  8
A1
  6
CONTINUOUS
 62
7
100
AcDbLine
 10
173.0733331143069
 20
73.61110462876616
 30
0.000000000000000
 11
173.6733331143069
 21
73.61110462876616
 31
0.000000000000000
  0
ARC
  5
EF
100
AcDbEntity
  8
A1
  6
CONTINUOUS
 62
7
100
AcDbCircle
 10
173.0733331143069
 20
71.36110462876616
 30
0.000000000000000
 40
2.250000000000028
100
AcDbArc
 50
90.00000000000000
 51
270.0000000000000
  0
LINE
  5
F0
100
AcDbEntity
  8
A1
  6
CONTINUOUS
 62
7
100
AcDbLine
 10
173.0733331143069
 20
69.11110462876617
 30
0.000000000000000
 11
173.6733331143069
 21
69.11110462876617
 31
0.000000000000000
  0
LINE
  5
F1
100
AcDbEntity
  8
A1
  6
CONTINUOUS
 62
7
100
AcDbLine
 10
95.37333311430862
 20
63.36110462880585
 30
0.000000000000000
 11
81.87333311433051
 21
63.36110462880585
 31
0.000000000000000
  0
LINE
  5
F2
100
AcDbEntity
  8
A1
  6
CONTINUOUS
 62
7
100
AcDbLine
 10
95.37333311430862
 20
79.36110462880583
 30
0.000000000000000
 11
81.87333311433051
 21
79.36110462880583
 31
0.000000000000000
  0
LINE
  5
F3
100
AcDbEntity
  8
A1
  6
CONTINUOUS
 62
7
100
AcDbLine
 10
80.87333311433051
 20
64.36110462880585
 30
0.000000000000000
 11
80.87333311433051
 21
78.36110462880583
 31
0.000000000000000
  0
ARC
  5
F4
100
AcDbEntity
  8
A1
  6
CONTINUOUS
 62
7
100
AcDbCircle
 10
81.87333311433051
 20
64.36110462880585
 30
0.000000000000000
 40
1.000000000000000
100
AcDbArc
 50
180.0000000000000
 51
270.0000000000000
  0
ARC
  5
F5
100
AcDbEntity
  8
A1
  6
CONTINUOUS
 62
7
100
AcDbCircle
 10
81.87333311433051
 20
78.36110462880583
 30
0.000000000000000
 40
1.000000000000000
100
AcDbArc
 50
90.00000000000000
 51
180.0000000000000
  0
CIRCLE
  5
F6
100
AcDbEntity
  8
A1
  6
CONTINUOUS
 62
7
100
AcDbCircle
 10
86.37333311430459
 20
71.36110462876616
 30
0.000000000000000
 40
2.250000000000000
  0
LINE
  5
F7
100
AcDbEntity
  8
A4
  6
CENTER
 62
1
100
AcDbLine
 10
86.37333311430459
 20
75.11110462876616
 30
0.000000000000000
 11
86.37333311430459
 21
67.61110462876616
 31
0.000000000000000
  0
LINE
  5
F8
100
AcDbEntity
  8
A1
  6
CONTINUOUS
 62
7
100
AcDbLine
 10
163.3733331143047
 20
78.36110462880583
 30
0.000000000000000
 11
163.3733331143047
 21
64.36110462880585
 31
0.000000000000000
  0
ARC
  5
F9
100
AcDbEntity
  8
A1
  6
CONTINUOUS
 62
7
100
AcDbCircle
 10
164.3733331143047
 20
78.36110462880583
 30
0.000000000000000
 40
1.000000000000000
100
AcDbArc
 50
90.00000000000000
 51
180.0000000000000
  0
ARC
  5
FA
100
AcDbEntity
  8
A1
  6
CONTINUOUS
 62
7
100
AcDbCircle
 10
164.3733331143047
 20
64.36110462880585
 30
0.000000000000000
 40
1.000000000000000
100
AcDbArc
 50
180.0000000000000
 51
270.0000000000000
  0
ARC
  5
FB
100
AcDbEntity
  8
A1
  6
CONTINUOUS
 62
7
100
AcDbCircle
 10
95.37333311430862
 20
78.36110462880583
 30
0.000000000000000
 40
1.000000000000000
100
AcDbArc
 50
0.000000000000000
 51
90.00000000000000
  0
LINE
  5
FC
100
AcDbEntity
  8
A1
  6
CONTINUOUS
 62
7
100
AcDbLine
 10
96.37333311430862
 20
78.36110462880583
 30
0.000000000000000
 11
96.37333311430862
 21
64.36110462880585
 31
0.000000000000000
  0
ARC
  5
FD
100
AcDbEntity
  8
A1
  6
CONTINUOUS
 62
7
100
AcDbCircle
 10
95.37333311430862
 20
64.36110462880585
 30
0.000000000000000
 40
1.000000000000000
100
AcDbArc
 50
270.0000000000000
 51
360.0000000000000
  0
LINE
  5
FE
100
AcDbEntity
  8
A1
  6
CONTINUOUS
 62
7
100
AcDbLine
 10
161.7764382799349
 20
77.81248147862510
 30
0.000000000000000
 11
161.7764382799349
 21
64.90972777890723
 31
0.000000000000000
  0
LINE
  5
FF
100
AcDbEntity
  8
A1
  6
CONTINUOUS
 62
7
100
AcDbLine
 10
163.9711155789952
 20
79.27664875897625
 30
0.000000000000000
 11
161.9686802114593
 21
78.39693734845467
 31
0.000000000000000
  0
ARC
  5
100
100
AcDbEntity
  8
A1
  6
CONTINUOUS
 62
7
100
AcDbCircle
 10
161.5664626761498
 20
79.31248147862510
 30
0.000000000000000
 40
1.000000000000000
100
AcDbArc
 50
270.0000000000000
 51
293.7168807071627
  0
LINE
  5
101
100
AcDbEntity
  8
A1
  6
CONTINUOUS
 62
7
100
AcDbLine
 10
163.9711155790229
 20
63.44556049862326
 30
0.000000000000000
 11
161.9686802114474
 21
64.32527190908984
 31
0.000000000000000
  0
ARC
  5
102
100
AcDbEntity
  8
A1
  6
CONTINUOUS
 62
7
100
AcDbCircle
 10
161.5664626761656
 20
63.40972777890723
 30
0.000000000000000
 40
1.000000000000000
100
AcDbArc
 50
66.28311929457459
 51
90.00000000000000
  0
LINE
  5
103
100
AcDbEntity
  8
A1
  6
CONTINUOUS
 62
7
100
AcDbLine
 10
97.97022794867902
 20
77.81248147862510
 30
0.000000000000000
 11
97.97022794867902
 21
64.90972777890723
 31
0.000000000000000
  0
LINE
  5
104
100
AcDbEntity
  8
A1
  6
CONTINUOUS
 62
7
100
AcDbLine
 10
95.77555064961876
 20
79.27664875897628
 30
0.000000000000000
 11
97.77798601715459
 21
78.39693734845468
 31
0.000000000000000
  0
ARC
  5
105
100
AcDbEntity
  8
A1
  6
CONTINUOUS
 62
7
100
AcDbCircle
 10
98.18020355246418
 20
79.31248147862510
 30
0.000000000000000
 40
1.000000000000000
100
AcDbArc
 50
246.2831192928373
 51
270.0000000000000
  0
LINE
  5
106
100
AcDbEntity
  8
A1
  6
CONTINUOUS
 62
7
100
AcDbLine
 10
95.77555064959103
 20
63.44556049862324
 30
0.000000000000000
 11
97.77798601716648
 21
64.32527190908981
 31
0.000000000000000
  0
ARC
  5
107
100
AcDbEntity
  8
A1
  6
CONTINUOUS
 62
7
100
AcDbCircle
 10
98.18020355244832
 20
63.40972777890723
 30
0.000000000000000
 40
1.000000000000000
100
AcDbArc
 50
90.00000000000000
 51
113.7168807054254
  0
MTEXT
  5
108
100
AcDbEntity
  8
A1
  6
CONTINUOUS
 62
7
100
AcDbMText
 10
120.2733331143070
 20
74.11110462880595
 30
0.000000000000000
 40
2.500000000000000
 41
0.000000000000000
 44
0.2688000011444092
 71
     1
 72
     1
  1
{\H0.90x;{TOCHIGIYA}}
 11
1.000000000000000
 21
0.000000000000000
 31
0.000000000000000
  7
STANDARD
  0
MTEXT
  5
109
100
AcDbEntity
  8
A1
  6
CONTINUOUS
 62
7
100
AcDbMText
 10
120.2733331143070
 20
71.11110462880596
 30
0.000000000000000
 40
2.500000000000000
 41
0.000000000000000
 44
0.2688000011444092
 71
     1
 72
     1
  1
{\H0.89x;{THA-438}}
 11
1.000000000000000
 21
0.000000000000000
 31
0.000000000000000
  7
STANDARD
  0
LINE
  5
10A
100
AcDbEntity
  8
A4
  6
CENTER
 62
1
100
AcDbLine
 10
79.37333311433049
 20
71.36110462876616
 30
0.000000000000000
 11
180.3733331142811
 21
71.36110462876616
 31
0.000000000000000
  0
LINE
  5
10B
100
AcDbEntity
  8
A4
  6
CENTER
 62
1
100
AcDbLine
 10
129.8733331143070
 20
62.90972777890723
 30
0.000000000000000
 11
129.8733331143070
 21
79.81248147862510
 31
0.000000000000000
  0
ENDSEC
  0
SECTION
  2
OBJECTS
  0
DICTIONARY
  5
13A
100
AcDbDictionary
  3
ACAD_GROUP
350
13B
  3
ACAD_LAYOUT
350
13C
  3
ACAD_MLINESTYLE
350
13D
  0
DICTIONARY
  5
13B
102
{ACAD_REACTORS
330
13A
102
}
330
13A
100
AcDbDictionary
  0
DICTIONARY
  5
13C
102
{ACAD_REACTORS
330
13A
102
}
330
13A
100
AcDbDictionary
  3
Model
350
13E
  3
ﾚｲｱｳﾄ1
350
13F
  3
ﾚｲｱｳﾄ2
350
140
  0
DICTIONARY
  5
13D
102
{ACAD_REACTORS
330
13A
102
}
330
13A
100
AcDbDictionary
  3
STANDARD
350
141
  0
LAYOUT
  5
13E
102
{ACAD_REACTORS
330
13C
102
}
330
13C
100
AcDbPlotSettings
 70
11952
  4
A3
 44
297.000000
 45
420.000000
 73
  1
 72
  1
100
AcDbLayout
  1
Model
 71
0
330
131
  0
LAYOUT
  5
13F
102
{ACAD_REACTORS
330
13C
102
}
330
13C
100
AcDbPlotSettings
100
AcDbLayout
  1
ﾚｲｱｳﾄ1
 71
1
330
132
  0
LAYOUT
  5
140
102
{ACAD_REACTORS
330
13C
102
}
330
13C
100
AcDbPlotSettings
100
AcDbLayout
  1
ﾚｲｱｳﾄ2
 71
2
330
133
  0
MLINESTYLE
  5
141
102
{ACAD_REACTORS
330
13D
102
}
330
13D
100
AcDbMlineStyle
  2
STANDARD
 70
     0
  3

 62
   256
 51
90.00
 52
90.00
 71
     2
 49
0.50
 62
   256
  6
BYLAYER
 49
-0.50
 62
   256
  6
BYLAYER
  0
ENDSEC
  0
EOF
