  0
SECTION
  2
HEADER
  9
$ACADVER
  1
AC1015
  9
$DWGCODEPAGE
  3
ANSI_932
  9
$LTSCALE
 40
20.0
  9
$FILLMODE
 70
     1
  9
$CLAYER
  8
0
  9
$PDMODE
 70
     0
  9
$SPLFRAME
 70
     0
  9
$SPLINETYPE
 70
     6
  9
$SPLINESEGS
 70
     8
  9
$DIMASZ
 40
2.000000
  9
$DIMEXE
 40
1.500000
  9
$DIMEXO
 40
0.800000
  9
$DIMTAD
 70
     1
  9
$DIMTIH
 70
     0
  9
$DIMTOH
 70
     0
  9
$DIMTVP
 40
0.500000
  9
$DIMTXT
 40
3.100000
  9
$EXTMIN
 10
0.000000
 20
0.000000
 30
0.000000
  9
$EXTMAX
 10
297.000000
 20
420.000000
 30
0.000000
  9
$MEASUREMENT
 70
  1
  9
$LIMMIN
 10
0.000000
 20
0.000000
  9
$LIMMAX
 10
297.000000
 20
420.000000
  9
$HANDSEED
  5
1FF
  9
$LWDISPLAY
290
     0
  9
$DIMBLK
  1
_OPEN
  9
$DIMDEC
 70
     2
  9
$DIMADEC
 70
     2
  9
$DIMAUNIT
 70
     0
  9
$DIMZIN
 70
     8
  9
$DIMAZIN
 70
     2
  9
$DIMTOFL
 70
     1
  0
ENDSEC
  0
SECTION
  2
CLASSES
  0
ENDSEC
  0
SECTION
  2
TABLES
  0
TABLE
  2
VPORT
  5
1CA
100
AcDbSymbolTable
 70
     1
  0
VPORT
  5
1CB
100
AcDbSymbolTableRecord
100
AcDbViewportTableRecord
  2
*ACTIVE
 70
     0
 12
248.019348
 22
158.108248
 40
302.140825
 41
1.892078
  0
ENDTAB
  0
TABLE
  2
LTYPE
  5
1CC
100
AcDbSymbolTable
 70
     3
  0
LTYPE
  5
1CD
100
AcDbSymbolTableRecord
100
AcDbLinetypeTableRecord
  2
BYBLOCK
 70
     0
  3

 72
    65
 73
     0
 40
0.0
  0
LTYPE
  5
1CE
100
AcDbSymbolTableRecord
100
AcDbLinetypeTableRecord
  2
BYLAYER
 70
     0
  3

 72
    65
 73
     0
 40
0.0
  0
LTYPE
  5
1CF
100
AcDbSymbolTableRecord
100
AcDbLinetypeTableRecord
  2
CONTINUOUS
 70
     0
  3
Solid line (NEC CAE2D for Win R16.0 : 2021.03.12)
 72
    65
 73
     0
 40
0.0
  0
LTYPE
  5
1D0
100
AcDbSymbolTableRecord
100
AcDbLinetypeTableRecord
  2
CENTER
 70
     0
  3
____ _ ____ _ ____ _ ____ _ ____ _ ____
 72
    65
 73
     4
 40
2.0
 49
1.25
 74
     0
 49
-0.25
 74
     0
 49
0.25
 74
     0
 49
-0.25
 74
     0
  0
LTYPE
  5
1D1
100
AcDbSymbolTableRecord
100
AcDbLinetypeTableRecord
  2
PHANTOM
 70
     0
  3
______  __  __  ______  __  __  ______ 
 72
    65
 73
     6
 40
2.5
 49
1.25
 74
     0
 49
-0.25
 74
     0
 49
0.25
 74
     0
 49
-0.25
 74
     0
 49
0.25
 74
     0
 49
-0.25
 74
     0
  0
ENDTAB
  0
TABLE
  2
LAYER
  5
1D2
100
AcDbSymbolTable
 70
    14
  0
LAYER
  5
1D3
100
AcDbSymbolTableRecord
100
AcDbLayerTableRecord
  2
0
 70
     0
 62
     7
  6
CONTINUOUS
370
    -3
390

  0
LAYER
  5
1D4
100
AcDbSymbolTableRecord
100
AcDbLayerTableRecord
  2
DXF0
 70
     0
 62
     7
  6
CONTINUOUS
370
    -3
390

  0
LAYER
  5
1D5
100
AcDbSymbolTableRecord
100
AcDbLayerTableRecord
  2
DXF0
 70
     0
 62
     7
  6
CONTINUOUS
370
    -3
390

  0
LAYER
  5
1D6
100
AcDbSymbolTableRecord
100
AcDbLayerTableRecord
  2
4
 70
     0
 62
     1
  6
CONTINUOUS
370
    -3
390

  0
LAYER
  5
1D7
100
AcDbSymbolTableRecord
100
AcDbLayerTableRecord
  2
5
 70
     0
 62
     6
  6
CONTINUOUS
370
    -3
390

  0
LAYER
  5
1D8
100
AcDbSymbolTableRecord
100
AcDbLayerTableRecord
  2
1
 70
     0
 62
     7
  6
CONTINUOUS
370
    -3
390

  0
LAYER
  5
1D9
100
AcDbSymbolTableRecord
100
AcDbLayerTableRecord
  2
2
 70
     0
 62
     4
  6
CONTINUOUS
370
    -3
390

  0
LAYER
  5
1DA
100
AcDbSymbolTableRecord
100
AcDbLayerTableRecord
  2
3
 70
     0
 62
     2
  6
CONTINUOUS
370
    -3
390

  0
LAYER
  5
1DB
100
AcDbSymbolTableRecord
100
AcDbLayerTableRecord
  2
6
 70
     0
 62
     5
  6
CONTINUOUS
370
    -3
390

  0
LAYER
  5
1DC
100
AcDbSymbolTableRecord
100
AcDbLayerTableRecord
  2
7
 70
     0
 62
     7
  6
CONTINUOUS
370
    -3
390

  0
LAYER
  5
1DD
100
AcDbSymbolTableRecord
100
AcDbLayerTableRecord
  2
DXF10
 70
     0
 62
    12
  6
CONTINUOUS
370
    -3
390

  0
LAYER
  5
1DE
100
AcDbSymbolTableRecord
100
AcDbLayerTableRecord
  2
DXF15
 70
     0
 62
    14
  6
CONTINUOUS
370
    -3
390

  0
LAYER
  5
1DF
100
AcDbSymbolTableRecord
100
AcDbLayerTableRecord
  2
DXF1023
 70
     0
 62
     8
  6
CONTINUOUS
370
    -3
390

  0
LAYER
  5
1E0
100
AcDbSymbolTableRecord
100
AcDbLayerTableRecord
  2
DXF1023
 70
     0
 62
    16
  6
CONTINUOUS
370
    -3
390

  0
ENDTAB
  0
TABLE
  2
STYLE
  5
1E1
100
AcDbSymbolTable
 70
     4
  0
STYLE
  5
1E2
100
AcDbSymbolTableRecord
100
AcDbTextStyleTableRecord
  2
STANDARD
 70
    64
 40
0.0
 41
1.0
 50
0.0
 71
     0
 42
3.000000000000000
  3
TXT
  4

  0
STYLE
  5
1E3
100
AcDbSymbolTableRecord
100
AcDbTextStyleTableRecord
  2
ANKTATE
 70
    68
 40
0.0
 41
1.0
 50
0.0
 71
     0
 42
3.000000000000000
  3
TXT
  4

  0
STYLE
  5
1E4
100
AcDbSymbolTableRecord
100
AcDbTextStyleTableRecord
  2
KNJYOKO
 70
    64
 40
0.0
 41
1.0
 50
0.0
 71
     0
 42
3.000000000000000
  3
TXT
  4
BIGFONT
  0
STYLE
  5
1E5
100
AcDbSymbolTableRecord
100
AcDbTextStyleTableRecord
  2
KNJTATE
 70
    68
 40
0.0
 41
1.0
 50
0.0
 71
     0
 42
3.000000000000000
  3
TXT
  4
BIGFONT
  0
ENDTAB
  0
TABLE
  2
VIEW
  5
1E6
100
AcDbSymbolTable
 70
     0
  0
ENDTAB
  0
TABLE
  2
UCS
  5
1E7
100
AcDbSymbolTable
 70
     0
  0
ENDTAB
  0
TABLE
  2
APPID
  5
1E8
100
AcDbSymbolTable
 70
     1
  0
APPID
  5
1E9
100
AcDbSymbolTableRecord
100
AcDbRegAppTableRecord
  2
ACAD
 70
     0
  0
ENDTAB
  0
TABLE
  2
DIMSTYLE
  5
1EA
100
AcDbSymbolTable
 70
     2
100
AcDbDimStyleTable
  0
DIMSTYLE
105
1EB
100
AcDbSymbolTableRecord
100
AcDbDimStyleTableRecord
  2
STANDARD
 70
     0
 41
2.000000
 44
1.500000
 42
0.800000
145
0.661290
140
3.100000
144
1.000000
146
0.645161
340
1E2
  0
DIMSTYLE
105
1EC
100
AcDbSymbolTableRecord
100
AcDbDimStyleTableRecord
  2
DXF001
 70
     0
 41
2.000000
 44
1.500000
 42
0.800000
145
0.661290
140
3.100000
144
1.000000
146
0.645161
 77
     1
 73
     0
 74
     0
271
     2
179
     2
275
     0
 78
     8
 79
     2
172
     1
340
1E2
  0
ENDTAB
  0
TABLE
  2
BLOCK_RECORD
  5
1ED
100
AcDbSymbolTable
 70
    12
  0
BLOCK_RECORD
  5
1EE
100
AcDbSymbolTableRecord
100
AcDbBlockTableRecord
  2
*MODEL_SPACE
  0
BLOCK_RECORD
  5
1EF
100
AcDbSymbolTableRecord
100
AcDbBlockTableRecord
  2
*PAPER_SPACE
  0
BLOCK_RECORD
  5
1F0
100
AcDbSymbolTableRecord
100
AcDbBlockTableRecord
  2
*PAPER_SPACE0
  0
BLOCK_RECORD
  5
1
100
AcDbSymbolTableRecord
100
AcDbBlockTableRecord
  2
_NONE
  0
BLOCK_RECORD
  5
4
100
AcDbSymbolTableRecord
100
AcDbBlockTableRecord
  2
_CLOSED
  0
BLOCK_RECORD
  5
B
100
AcDbSymbolTableRecord
100
AcDbBlockTableRecord
  2
_DOT
  0
BLOCK_RECORD
  5
13
100
AcDbSymbolTableRecord
100
AcDbBlockTableRecord
  2
_OPEN
  0
BLOCK_RECORD
  5
19
100
AcDbSymbolTableRecord
100
AcDbBlockTableRecord
  2
_ORIGIN
  0
BLOCK_RECORD
  5
1E
100
AcDbSymbolTableRecord
100
AcDbBlockTableRecord
  2
_OPEN30
  0
BLOCK_RECORD
  5
24
100
AcDbSymbolTableRecord
100
AcDbBlockTableRecord
  2
_BOXFILLED
  0
BLOCK_RECORD
  5
29
100
AcDbSymbolTableRecord
100
AcDbBlockTableRecord
  2
_BOXBLANK
  0
BLOCK_RECORD
  5
31
100
AcDbSymbolTableRecord
100
AcDbBlockTableRecord
  2
_OBLIQUE
  0
BLOCK_RECORD
  5
35
100
AcDbSymbolTableRecord
100
AcDbBlockTableRecord
  2
_OPEN90
  0
BLOCK_RECORD
  5
3B
100
AcDbSymbolTableRecord
100
AcDbBlockTableRecord
  2
_CLOSEDBLANK
  0
BLOCK_RECORD
  5
41
100
AcDbSymbolTableRecord
100
AcDbBlockTableRecord
  2
_DOTBLANK
  0
ENDTAB
  0
ENDSEC
  0
SECTION
  2
BLOCKS
  0
BLOCK
  5
1F1
100
AcDbEntity
  8
0
100
AcDbBlockBegin
  2
*MODEL_SPACE
 70
     0
 10
0.0
 20
0.0
 30
0.0
  3
*MODEL_SPACE
  1

  0
ENDBLK
  5
1F2
100
AcDbEntity
  8
0
100
AcDbBlockEnd
  0
BLOCK
  5
1F3
100
AcDbEntity
  8
0
100
AcDbBlockBegin
  2
*PAPER_SPACE
 70
     0
 10
0.0
 20
0.0
 30
0.0
  3
*PAPER_SPACE
  1

  0
ENDBLK
  5
1F4
100
AcDbEntity
  8
0
100
AcDbBlockEnd
  0
BLOCK
  5
1F5
100
AcDbEntity
  8
0
100
AcDbBlockBegin
  2
*PAPER_SPACE0
 70
     0
 10
0.0
 20
0.0
 30
0.0
  3
*PAPER_SPACE0
  1

  0
ENDBLK
  5
1F6
100
AcDbEntity
  8
0
100
AcDbBlockEnd
  0
BLOCK
  5
2
330
1
100
AcDbEntity
  8
0
100
AcDbBlockBegin
  2
_NONE
 70
     0
 10
0.0
 20
0.0
 30
0.0
  3
_NONE
  1

  0
ENDBLK
  5
3
330
1
100
AcDbEntity
  8
0
100
AcDbBlockEnd
  0
BLOCK
  5
5
330
4
100
AcDbEntity
  8
0
100
AcDbBlockBegin
  2
_CLOSED
 70
     0
 10
0.0
 20
0.0
 30
0.0
  3
_CLOSED
  1

  0
LINE
  5
6
330
4
100
AcDbEntity
  8
0
  6
BYBLOCK
 62
     0
370
    -2
100
AcDbLine
 10
-1.0
 20
0.166667
 30
0.0
 11
0.0
 21
0.0
 31
0.0
  0
LINE
  5
7
330
4
100
AcDbEntity
  8
0
  6
BYBLOCK
 62
     0
370
    -2
100
AcDbLine
 10
0.0
 20
0.0
 30
0.0
 11
-1.0
 21
-0.166667
 31
0.0
  0
LINE
  5
8
330
4
100
AcDbEntity
  8
0
  6
BYBLOCK
 62
     0
370
    -2
100
AcDbLine
 10
-1.0
 20
0.166667
 30
0.0
 11
-1.0
 21
-0.166667
 31
0.0
  0
LINE
  5
9
330
4
100
AcDbEntity
  8
0
  6
BYBLOCK
 62
     0
370
    -2
100
AcDbLine
 10
0.0
 20
0.0
 30
0.0
 11
-1.0
 21
0.0
 31
0.0
  0
ENDBLK
  5
A
330
4
100
AcDbEntity
  8
0
100
AcDbBlockEnd
  0
BLOCK
  5
C
330
B
100
AcDbEntity
  8
0
100
AcDbBlockBegin
  2
_DOT
 70
     0
 10
0.0
 20
0.0
 30
0.0
  3
_DOT
  1

  0
POLYLINE
  5
D
330
B
100
AcDbEntity
  8
0
  6
BYBLOCK
 62
     0
370
    -2
100
AcDb2dPolyline
 66
     1
 10
0.0
 20
0.0
 30
0.0
 70
     1
 40
0.5
 41
0.5
  0
VERTEX
  5
E
330
B
100
AcDbEntity
  8
0
  6
BYBLOCK
 62
     0
370
    -2
100
AcDbVertex
100
AcDb2dVertex
 10
-0.25
 20
0.0
 30
0.0
 42
1.0
  0
VERTEX
  5
F
330
B
100
AcDbEntity
  8
0
  6
BYBLOCK
 62
     0
370
    -2
100
AcDbVertex
100
AcDb2dVertex
 10
0.25
 20
0.0
 30
0.0
 42
1.0
  0
SEQEND
  5
10
330
B
100
AcDbEntity
  8
0
  6
BYBLOCK
 62
     0
370
    -2
  0
LINE
  5
11
330
B
100
AcDbEntity
  8
0
  6
BYBLOCK
 62
     0
370
    -2
100
AcDbLine
 10
-0.5
 20
0.0
 30
0.0
 11
-1.0
 21
0.0
 31
0.0
  0
ENDBLK
  5
12
330
B
100
AcDbEntity
  8
0
100
AcDbBlockEnd
  0
BLOCK
  5
14
330
13
100
AcDbEntity
  8
0
100
AcDbBlockBegin
  2
_OPEN
 70
     0
 10
0.0
 20
0.0
 30
0.0
  3
_OPEN
  1

  0
LINE
  5
15
330
13
100
AcDbEntity
  8
0
  6
BYBLOCK
 62
     0
370
    -2
100
AcDbLine
 10
-1.0
 20
0.166667
 30
0.0
 11
0.0
 21
0.0
 31
0.0
  0
LINE
  5
16
330
13
100
AcDbEntity
  8
0
  6
BYBLOCK
 62
     0
370
    -2
100
AcDbLine
 10
0.0
 20
0.0
 30
0.0
 11
-1.0
 21
-0.166667
 31
0.0
  0
LINE
  5
17
330
13
100
AcDbEntity
  8
0
  6
BYBLOCK
 62
     0
370
    -2
100
AcDbLine
 10
0.0
 20
0.0
 30
0.0
 11
-1.0
 21
0.0
 31
0.0
  0
ENDBLK
  5
18
330
13
100
AcDbEntity
  8
0
100
AcDbBlockEnd
  0
BLOCK
  5
1A
330
19
100
AcDbEntity
  8
0
100
AcDbBlockBegin
  2
_ORIGIN
 70
     0
 10
0.0
 20
0.0
 30
0.0
  3
_ORIGIN
  1

  0
CIRCLE
  5
1B
330
19
100
AcDbEntity
  8
0
  6
BYBLOCK
 62
     0
370
    -2
100
AcDbCircle
 10
0.0
 20
0.0
 30
0.0
 40
0.5
  0
LINE
  5
1C
330
19
100
AcDbEntity
  8
0
  6
BYBLOCK
 62
     0
370
    -2
100
AcDbLine
 10
0.0
 20
0.0
 30
0.0
 11
-1.0
 21
0.0
 31
0.0
  0
ENDBLK
  5
1D
330
19
100
AcDbEntity
  8
0
100
AcDbBlockEnd
  0
BLOCK
  5
1F
330
1E
100
AcDbEntity
  8
0
100
AcDbBlockBegin
  2
_OPEN30
 70
     0
 10
0.0
 20
0.0
 30
0.0
  3
_OPEN30
  1

  0
LINE
  5
20
330
1E
100
AcDbEntity
  8
0
  6
BYBLOCK
 62
     0
370
    -2
100
AcDbLine
 10
-1.0
 20
0.267949
 30
0.0
 11
0.0
 21
0.0
 31
0.0
  0
LINE
  5
21
330
1E
100
AcDbEntity
  8
0
  6
BYBLOCK
 62
     0
370
    -2
100
AcDbLine
 10
0.0
 20
0.0
 30
0.0
 11
-1.0
 21
-0.267949
 31
0.0
  0
LINE
  5
22
330
1E
100
AcDbEntity
  8
0
  6
BYBLOCK
 62
     0
370
    -2
100
AcDbLine
 10
0.0
 20
0.0
 30
0.0
 11
-1.0
 21
0.0
 31
0.0
  0
ENDBLK
  5
23
330
1E
100
AcDbEntity
  8
0
100
AcDbBlockEnd
  0
BLOCK
  5
25
330
24
100
AcDbEntity
  8
0
100
AcDbBlockBegin
  2
_BOXFILLED
 70
     0
 10
0.0
 20
0.0
 30
0.0
  3
_BOXFILLED
  1

  0
SOLID
  5
26
330
24
100
AcDbEntity
  8
0
  6
BYBLOCK
 62
     0
370
    -2
100
AcDbTrace
 10
-0.5
 20
0.5
 30
0.0
 11
0.5
 21
0.5
 31
0.0
 12
-0.5
 22
-0.5
 32
0.0
 13
0.5
 23
-0.5
 33
0.0
  0
LINE
  5
27
330
24
100
AcDbEntity
  8
0
  6
BYBLOCK
 62
     0
370
    -2
100
AcDbLine
 10
-0.5
 20
0.0
 30
0.0
 11
-1.0
 21
0.0
 31
0.0
  0
ENDBLK
  5
28
330
24
100
AcDbEntity
  8
0
100
AcDbBlockEnd
  0
BLOCK
  5
2A
330
29
100
AcDbEntity
  8
0
100
AcDbBlockBegin
  2
_BOXBLANK
 70
     0
 10
0.0
 20
0.0
 30
0.0
  3
_BOXBLANK
  1

  0
LINE
  5
2B
330
29
100
AcDbEntity
  8
0
  6
BYBLOCK
 62
     0
370
    -2
100
AcDbLine
 10
-0.5
 20
-0.5
 30
0.0
 11
0.5
 21
-0.5
 31
0.0
  0
LINE
  5
2C
330
29
100
AcDbEntity
  8
0
  6
BYBLOCK
 62
     0
370
    -2
100
AcDbLine
 10
0.5
 20
-0.5
 30
0.0
 11
0.5
 21
0.5
 31
0.0
  0
LINE
  5
2D
330
29
100
AcDbEntity
  8
0
  6
BYBLOCK
 62
     0
370
    -2
100
AcDbLine
 10
0.5
 20
0.5
 30
0.0
 11
-0.5
 21
0.5
 31
0.0
  0
LINE
  5
2E
330
29
100
AcDbEntity
  8
0
  6
BYBLOCK
 62
     0
370
    -2
100
AcDbLine
 10
-0.5
 20
0.5
 30
0.0
 11
-0.5
 21
-0.5
 31
0.0
  0
LINE
  5
2F
330
29
100
AcDbEntity
  8
0
  6
BYBLOCK
 62
     0
370
    -2
100
AcDbLine
 10
-0.5
 20
0.0
 30
0.0
 11
-1.0
 21
0.0
 31
0.0
  0
ENDBLK
  5
30
330
29
100
AcDbEntity
  8
0
100
AcDbBlockEnd
  0
BLOCK
  5
32
330
31
100
AcDbEntity
  8
0
100
AcDbBlockBegin
  2
_OBLIQUE
 70
     0
 10
0.0
 20
0.0
 30
0.0
  3
_OBLIQUE
  1

  0
LINE
  5
33
330
31
100
AcDbEntity
  8
0
  6
BYBLOCK
 62
     0
370
    -2
100
AcDbLine
 10
-0.5
 20
-0.5
 30
0.0
 11
0.5
 21
0.5
 31
0.0
  0
ENDBLK
  5
34
330
31
100
AcDbEntity
  8
0
100
AcDbBlockEnd
  0
BLOCK
  5
36
330
35
100
AcDbEntity
  8
0
100
AcDbBlockBegin
  2
_OPEN90
 70
     0
 10
0.0
 20
0.0
 30
0.0
  3
_OPEN90
  1

  0
LINE
  5
37
330
35
100
AcDbEntity
  8
0
  6
BYBLOCK
 62
     0
370
    -2
100
AcDbLine
 10
-0.5
 20
0.5
 30
0.0
 11
0.0
 21
0.0
 31
0.0
  0
LINE
  5
38
330
35
100
AcDbEntity
  8
0
  6
BYBLOCK
 62
     0
370
    -2
100
AcDbLine
 10
0.0
 20
0.0
 30
0.0
 11
-0.5
 21
-0.5
 31
0.0
  0
LINE
  5
39
330
35
100
AcDbEntity
  8
0
  6
BYBLOCK
 62
     0
370
    -2
100
AcDbLine
 10
0.0
 20
0.0
 30
0.0
 11
-1.0
 21
0.0
 31
0.0
  0
ENDBLK
  5
3A
330
35
100
AcDbEntity
  8
0
100
AcDbBlockEnd
  0
BLOCK
  5
3C
330
3B
100
AcDbEntity
  8
0
100
AcDbBlockBegin
  2
_CLOSEDBLANK
 70
     0
 10
0.0
 20
0.0
 30
0.0
  3
_CLOSEDBLANK
  1

  0
LINE
  5
3D
330
3B
100
AcDbEntity
  8
0
  6
BYBLOCK
 62
     0
370
    -2
100
AcDbLine
 10
-1.0
 20
0.1666666666666666
 30
0.0
 11
0.0
 21
0.0
 31
0.0
  0
LINE
  5
3E
330
3B
100
AcDbEntity
  8
0
  6
BYBLOCK
 62
     0
370
    -2
100
AcDbLine
 10
0.0
 20
0.0
 30
0.0
 11
-1.0
 21
-0.1666666666666666
 31
0.0
  0
LINE
  5
3F
330
3B
100
AcDbEntity
  8
0
  6
BYBLOCK
 62
     0
370
    -2
100
AcDbLine
 10
-1.0
 20
0.1666666666666666
 30
0.0
 11
-1.0
 21
-0.1666666666666666
 31
0.0
  0
ENDBLK
  5
40
330
3B
100
AcDbEntity
  8
0
100
AcDbBlockEnd
  0
BLOCK
  5
42
330
41
100
AcDbEntity
  8
0
100
AcDbBlockBegin
  2
_DOTBLANK
 70
     0
 10
0.0
 20
0.0
 30
0.0
  3
_DOTBLANK
  1

  0
CIRCLE
  5
43
330
41
100
AcDbEntity
  8
0
  6
BYBLOCK
 62
     0
370
    -2
100
AcDbCircle
 10
0.0
 20
0.0
 30
0.0
 40
0.5
  0
LINE
  5
44
330
41
100
AcDbEntity
  8
0
  6
BYBLOCK
 62
     0
370
    -2
100
AcDbLine
 10
-0.5
 20
0.0
 30
0.0
 11
-1.0
 21
0.0
 31
0.0
  0
ENDBLK
  5
45
330
41
100
AcDbEntity
  8
0
100
AcDbBlockEnd
  0
ENDSEC
  0
SECTION
  2
ENTITIES
  0
MTEXT
  5
46
100
AcDbEntity
  8
7
  6
CONTINUOUS
 62
7
100
AcDbMText
 10
9.999997526638502
 20
18.00000076076889
 30
0.000000000000000
 40
3.000000000000000
 41
0.000000000000000
 44
0.6739999771118164
 71
     7
 72
     1
  1
{\H0.94x;{TYPE No.THA-455-H}}
 11
1.000000000000000
 21
0.000000000000000
 31
0.000000000000000
  7
STANDARD
  0
ARC
  5
47
100
AcDbEntity
  8
1
  6
CONTINUOUS
 62
7
100
AcDbCircle
 10
205.0886178872654
 20
274.7415323058701
 30
0.000000000000000
 40
1.000000000000000
100
AcDbArc
 50
276.2809046606282
 51
354.3332063527082
  0
ARC
  5
48
100
AcDbEntity
  8
1
  6
CONTINUOUS
 62
7
100
AcDbCircle
 10
205.0886178872654
 20
274.7415323058701
 30
0.000000000000000
 40
1.000000000000000
100
AcDbArc
 50
263.2069938468851
 51
263.2557548756608
  0
ARC
  5
49
100
AcDbEntity
  8
1
  6
CONTINUOUS
 62
7
100
AcDbCircle
 10
149.4886178872654
 20
274.7415323058701
 30
0.000000000000000
 40
1.000000000000000
100
AcDbArc
 50
185.3439723753961
 51
263.7227123688171
  0
ARC
  5
4A
100
AcDbEntity
  8
1
  6
CONTINUOUS
 62
7
100
AcDbCircle
 10
177.2856765655800
 20
527.2958103945200
 30
0.000000000000000
 40
255.0792862608448
100
AcDbArc
 50
263.7190789380646
 51
270.0006606781814
  0
ARC
  5
4B
100
AcDbEntity
  8
1
  6
CONTINUOUS
 62
7
100
AcDbCircle
 10
177.2915592100404
 20
527.2958102495853
 30
0.000000000000000
 40
255.0792861188487
100
AcDbArc
 50
269.9993393215741
 51
276.2809261536604
  0
ARC
  5
4C
100
AcDbEntity
  8
1
  6
CONTINUOUS
 62
7
100
AcDbCircle
 10
205.0886178872651
 20
194.5011307019353
 30
0.000000000000000
 40
1.000000000000000
100
AcDbArc
 50
0.000000000000000
 51
65.48538303721750
  0
ARC
  5
4D
100
AcDbEntity
  8
1
  6
CONTINUOUS
 62
7
100
AcDbCircle
 10
149.4886178872650
 20
194.5011307019353
 30
0.000000000000000
 40
1.000000000000000
100
AcDbArc
 50
114.5146169627825
 51
180.0000000000000
  0
ARC
  5
4E
100
AcDbEntity
  8
1
  6
CONTINUOUS
 62
7
100
AcDbCircle
 10
177.2886178872651
 20
133.5408157421190
 30
0.000000000000000
 40
68.00000000000000
100
AcDbArc
 50
65.48538303721750
 51
114.5146169627825
  0
ARC
  5
4F
100
AcDbEntity
  8
1
  6
CONTINUOUS
 62
7
100
AcDbCircle
 10
149.4886178872650
 20
180.3070061211256
 30
0.000000000000000
 40
1.000000000000000
100
AcDbArc
 50
180.0000000000000
 51
239.0362434679810
  0
ARC
  5
50
100
AcDbEntity
  8
1
  6
CONTINUOUS
 62
7
100
AcDbCircle
 10
203.3116339223135
 20
179.2408157421599
 30
0.000000000000000
 40
1.000000000000000
100
AcDbArc
 50
270.0000000000000
 51
300.9637565324136
  0
ARC
  5
51
100
AcDbEntity
  8
1
  6
CONTINUOUS
 62
7
100
AcDbCircle
 10
151.2656018522167
 20
179.2408157421568
 30
0.000000000000000
 40
1.000000000000000
100
AcDbArc
 50
239.0362434679810
 51
270.0000000000000
  0
ARC
  5
52
100
AcDbEntity
  8
1
  6
CONTINUOUS
 62
7
100
AcDbCircle
 10
205.0886178872651
 20
180.3070061211453
 30
0.000000000000000
 40
1.000000000000000
100
AcDbArc
 50
300.9637565324136
 51
360.0000000000000
  0
LINE
  5
53
100
AcDbEntity
  8
1
  6
CONTINUOUS
 62
7
100
AcDbLine
 10
150.7511060967901
 20
178.3833228164439
 30
0.000000000000000
 11
148.9741221318384
 21
179.4495131954125
 31
0.000000000000000
  0
LINE
  5
54
100
AcDbEntity
  8
1
  6
CONTINUOUS
 62
7
100
AcDbLine
 10
203.8261296777458
 20
178.3833228164501
 30
0.000000000000000
 11
205.6031136426973
 21
179.4495131954354
 31
0.000000000000000
  0
LINE
  5
55
100
AcDbEntity
  8
1
  6
CONTINUOUS
 62
7
100
AcDbLine
 10
206.0886178872651
 20
194.5011307019353
 30
0.000000000000000
 11
206.0886178872651
 21
177.6408157422495
 31
0.000000000000000
  0
ARC
  5
56
100
AcDbEntity
  8
1
  6
CONTINUOUS
 62
7
100
AcDbCircle
 10
136.2886178872651
 20
165.5408157421538
 30
0.000000000000000
 40
4.000000000000000
100
AcDbArc
 50
180.0000000000000
 51
270.0000000000000
  0
ARC
  5
57
100
AcDbEntity
  8
1
  6
CONTINUOUS
 62
7
100
AcDbCircle
 10
218.2886178872644
 20
165.5408157421538
 30
0.000000000000000
 40
4.000000000000000
100
AcDbArc
 50
270.0000000000000
 51
360.0000000000000
  0
ARC
  5
58
100
AcDbEntity
  8
1
  6
CONTINUOUS
 62
7
100
AcDbCircle
 10
218.2886178872644
 20
217.5408157421534
 30
0.000000000000000
 40
4.000000000000000
100
AcDbArc
 50
0.000000000000000
 51
90.00000000000000
  0
ARC
  5
59
100
AcDbEntity
  8
1
  6
CONTINUOUS
 62
7
100
AcDbCircle
 10
136.2886178872651
 20
217.5408157421535
 30
0.000000000000000
 40
4.000000000000000
100
AcDbArc
 50
90.00000000000000
 51
180.0000000000000
  0
ARC
  5
5A
100
AcDbEntity
  8
1
  6
CONTINUOUS
 62
7
100
AcDbCircle
 10
203.7886178872651
 20
207.3055571031002
 30
0.000000000000000
 40
2.500000000000000
100
AcDbArc
 50
0.000000000000000
 51
61.47921871359844
  0
ARC
  5
5B
100
AcDbEntity
  8
1
  6
CONTINUOUS
 62
7
100
AcDbCircle
 10
150.7886178872651
 20
207.3055571031002
 30
0.000000000000000
 40
2.500000000000000
100
AcDbArc
 50
118.5207812864029
 51
180.0000000000000
  0
ARC
  5
5C
100
AcDbEntity
  8
1
  6
CONTINUOUS
 62
7
100
AcDbCircle
 10
205.7886178872651
 20
178.0408157422495
 30
0.000000000000000
 40
0.5000000000000000
100
AcDbArc
 50
270.0000000000000
 51
360.0000000000000
  0
ARC
  5
5D
100
AcDbEntity
  8
1
  6
CONTINUOUS
 62
7
100
AcDbCircle
 10
148.7886178872651
 20
178.0408157422495
 30
0.000000000000000
 40
0.5000000000000000
100
AcDbArc
 50
180.0000000000000
 51
270.0000000000000
  0
LINE
  5
5E
100
AcDbEntity
  8
1
  6
CONTINUOUS
 62
7
100
AcDbLine
 10
148.7886178872651
 20
177.5408157422494
 30
0.000000000000000
 11
205.7886178872651
 21
177.5408157422494
 31
0.000000000000000
  0
LINE
  5
5F
100
AcDbEntity
  8
1
  6
CONTINUOUS
 62
7
100
AcDbLine
 10
206.2886178872651
 20
178.0408157422495
 30
0.000000000000000
 11
206.2886178872651
 21
207.3055571031002
 31
0.000000000000000
  0
LINE
  5
60
100
AcDbEntity
  8
1
  6
CONTINUOUS
 62
7
100
AcDbLine
 10
132.2886178872651
 20
217.5408157421535
 30
0.000000000000000
 11
132.2886178872651
 21
165.5408157421538
 31
0.000000000000000
  0
LINE
  5
61
100
AcDbEntity
  8
1
  6
CONTINUOUS
 62
7
100
AcDbLine
 10
218.2886178872644
 20
161.5408157421538
 30
0.000000000000000
 11
136.2886178872651
 21
161.5408157421538
 31
0.000000000000000
  0
LINE
  5
62
100
AcDbEntity
  8
1
  6
CONTINUOUS
 62
7
100
AcDbLine
 10
222.2886178872644
 20
217.5408157421534
 30
0.000000000000000
 11
222.2886178872644
 21
165.5408157421538
 31
0.000000000000000
  0
LINE
  5
63
100
AcDbEntity
  8
1
  6
CONTINUOUS
 62
7
100
AcDbLine
 10
218.2886178872644
 20
221.5408157421535
 30
0.000000000000000
 11
136.2886178872651
 21
221.5408157421535
 31
0.000000000000000
  0
ARC
  5
64
100
AcDbEntity
  8
1
  6
CONTINUOUS
 62
7
100
AcDbCircle
 10
177.2886178872651
 20
158.5408157421538
 30
0.000000000000000
 40
58.00000000000000
100
AcDbArc
 50
61.47921871359844
 51
118.5207812864029
  0
LINE
  5
65
100
AcDbEntity
  8
4
  6
CENTER
 62
1
100
AcDbLine
 10
129.2886178872651
 20
182.5408157421538
 30
0.000000000000000
 11
225.2886178872644
 21
182.5408157421538
 31
0.000000000000000
  0
LINE
  5
66
100
AcDbEntity
  8
4
  6
CENTER
 62
1
100
AcDbLine
 10
141.2886178872761
 20
84.43500916540731
 30
0.000000000000000
 11
141.2886178872761
 21
97.04439959993719
 31
0.000000000000000
  0
LINE
  5
67
100
AcDbEntity
  8
4
  6
CENTER
 62
1
100
AcDbLine
 10
213.2886178872539
 20
97.04439959993719
 30
0.000000000000000
 11
213.2886178872539
 21
84.43500916540731
 31
0.000000000000000
  0
LINE
  5
68
100
AcDbEntity
  8
1
  6
CONTINUOUS
 62
7
100
AcDbLine
 10
187.2886178872893
 20
161.5408157421538
 30
0.000000000000000
 11
187.2886178872893
 21
156.5408157421488
 31
0.000000000000000
  0
ARC
  5
69
100
AcDbEntity
  8
1
  6
CONTINUOUS
 62
7
100
AcDbCircle
 10
185.2886178872892
 20
156.5408157421488
 30
0.000000000000000
 40
2.000000000000000
100
AcDbArc
 50
270.0000000000000
 51
360.0000000000000
  0
LINE
  5
6A
100
AcDbEntity
  8
1
  6
CONTINUOUS
 62
7
100
AcDbLine
 10
185.2886178872892
 20
154.5408157421488
 30
0.000000000000000
 11
169.2886178872891
 21
154.5408157421488
 31
0.000000000000000
  0
ARC
  5
6B
100
AcDbEntity
  8
1
  6
CONTINUOUS
 62
7
100
AcDbCircle
 10
169.2886178872891
 20
156.5408157421488
 30
0.000000000000000
 40
2.000000000000000
100
AcDbArc
 50
180.0000000000000
 51
270.0000000000000
  0
LINE
  5
6C
100
AcDbEntity
  8
1
  6
CONTINUOUS
 62
7
100
AcDbLine
 10
167.2886178872891
 20
161.5408157421538
 30
0.000000000000000
 11
167.2886178872891
 21
156.5408157421488
 31
0.000000000000000
  0
ARC
  5
6D
100
AcDbEntity
  8
1
  6
CONTINUOUS
 62
7
100
AcDbCircle
 10
168.2886178872474
 20
87.85479224106933
 30
0.000000000000000
 40
1.000000000000000
100
AcDbArc
 50
90.00000000000000
 51
180.0000000000000
  0
LINE
  5
6E
100
AcDbEntity
  8
1
  6
CONTINUOUS
 62
7
100
AcDbLine
 10
167.2886178872476
 20
87.85479224106933
 30
0.000000000000000
 11
167.2886178872476
 21
80.85479224106942
 31
0.000000000000000
  0
ARC
  5
6F
100
AcDbEntity
  8
1
  6
CONTINUOUS
 62
7
100
AcDbCircle
 10
168.2886178872474
 20
80.85479224106942
 30
0.000000000000000
 40
1.000000000000000
100
AcDbArc
 50
180.0000000000000
 51
270.0000000000000
  0
LINE
  5
70
100
AcDbEntity
  8
1
  6
CONTINUOUS
 62
7
100
AcDbLine
 10
187.2886178872476
 20
87.85479224106940
 30
0.000000000000000
 11
187.2886178872476
 21
80.85479224106942
 31
0.000000000000000
  0
ARC
  5
71
100
AcDbEntity
  8
1
  6
CONTINUOUS
 62
7
100
AcDbCircle
 10
186.2886178872474
 20
87.85479224106940
 30
0.000000000000000
 40
1.000000000000000
100
AcDbArc
 50
0.000000000000000
 51
90.00000000000000
  0
LINE
  5
72
100
AcDbEntity
  8
1
  6
CONTINUOUS
 62
7
100
AcDbLine
 10
168.2886178872476
 20
87.85479224106940
 30
0.000000000000000
 11
186.2886178872475
 21
87.85479224106940
 31
0.000000000000000
  0
ARC
  5
73
100
AcDbEntity
  8
1
  6
CONTINUOUS
 62
7
100
AcDbCircle
 10
186.2886178872474
 20
80.85479224106942
 30
0.000000000000000
 40
1.000000000000000
100
AcDbArc
 50
270.0000000000000
 51
360.0000000000000
  0
LINE
  5
74
100
AcDbEntity
  8
1
  6
CONTINUOUS
 62
7
100
AcDbLine
 10
168.2886178872476
 20
79.85479224106942
 30
0.000000000000000
 11
186.2886178872475
 21
79.85479224106942
 31
0.000000000000000
  0
ARC
  5
75
100
AcDbEntity
  8
1
  6
CONTINUOUS
 62
7
100
AcDbCircle
 10
149.4886178872651
 20
103.3297840828943
 30
0.000000000000000
 40
1.000000000000000
100
AcDbArc
 50
96.27728763118276
 51
157.0364415445144
  0
ARC
  5
76
100
AcDbEntity
  8
1
  6
CONTINUOUS
 62
7
100
AcDbCircle
 10
177.2856765655798
 20
-149.2244940057559
 30
0.000000000000000
 40
255.0792862608448
100
AcDbArc
 50
89.99933932181852
 51
96.28092106193542
  0
ARC
  5
77
100
AcDbEntity
  8
1
  6
CONTINUOUS
 62
7
100
AcDbCircle
 10
177.2915592089502
 20
-149.2244940057559
 30
0.000000000000000
 40
255.0792862608448
100
AcDbArc
 50
83.71907893806460
 51
90.00066067818146
  0
ARC
  5
78
100
AcDbEntity
  8
1
  6
CONTINUOUS
 62
7
100
AcDbCircle
 10
205.0886178872648
 20
103.3297840828943
 30
0.000000000000000
 40
1.000000000000000
100
AcDbArc
 50
22.96355845548557
 51
83.72271236881727
  0
LINE
  5
79
100
AcDbEntity
  8
1
  6
CONTINUOUS
 62
7
100
AcDbLine
 10
177.2773204536430
 20
272.2165238692697
 30
0.000000000000000
 11
177.2886178872650
 21
272.2165241476948
 31
0.000000000000000
  0
LINE
  5
7A
100
AcDbEntity
  8
1
  6
CONTINUOUS
 62
7
100
AcDbLine
 10
206.0886178872650
 20
188.5408157423498
 30
0.000000000000000
 11
206.2886178872649
 21
188.5408157423499
 31
0.000000000000000
  0
LINE
  5
7B
100
AcDbEntity
  8
1
  6
CONTINUOUS
 62
7
100
AcDbLine
 10
148.2886178872649
 20
188.5408157422950
 30
0.000000000000000
 11
148.4886178872650
 21
188.5408157422953
 31
0.000000000000000
  0
LINE
  5
7C
100
AcDbEntity
  8
1
  6
CONTINUOUS
 62
7
100
AcDbLine
 10
206.2886178872651
 20
186.5408157420872
 30
0.000000000000000
 11
206.0886178872651
 21
186.5408157420869
 31
0.000000000000000
  0
LINE
  5
7D
100
AcDbEntity
  8
1
  6
CONTINUOUS
 62
7
100
AcDbLine
 10
149.4886178872651
 20
179.7408157421558
 30
0.000000000000000
 11
205.0886178872652
 21
179.7408157421583
 31
0.000000000000000
  0
LINE
  5
7E
100
AcDbEntity
  8
1
  6
CONTINUOUS
 62
7
100
AcDbLine
 10
151.2656018522168
 20
178.2408157421568
 30
0.000000000000000
 11
203.3116339223135
 21
178.2408157421599
 31
0.000000000000000
  0
LINE
  5
7F
100
AcDbEntity
  8
1
  6
CONTINUOUS
 62
7
100
AcDbLine
 10
148.4886178872650
 20
194.5011307019353
 30
0.000000000000000
 11
148.4886178872650
 21
177.6408157422494
 31
0.000000000000000
  0
ARC
  5
80
100
AcDbEntity
  8
1
  6
CONTINUOUS
 62
7
100
AcDbCircle
 10
168.0886178872651
 20
80.65479224115683
 30
0.000000000000000
 40
1.000000000000000
100
AcDbArc
 50
180.0000000000000
 51
270.0000000000000
  0
ARC
  5
81
100
AcDbEntity
  8
1
  6
CONTINUOUS
 62
7
100
AcDbCircle
 10
168.0886178872651
 20
87.85479224106940
 30
0.000000000000000
 40
1.000000000000000
100
AcDbArc
 50
90.00000000000000
 51
180.0000000000000
  0
ARC
  5
82
100
AcDbEntity
  8
1
  6
CONTINUOUS
 62
7
100
AcDbCircle
 10
186.4886178872649
 20
87.85479224106940
 30
0.000000000000000
 40
1.000000000000000
100
AcDbArc
 50
0.000000000000000
 51
90.00000000000000
  0
ARC
  5
83
100
AcDbEntity
  8
1
  6
CONTINUOUS
 62
7
100
AcDbCircle
 10
186.4886178872649
 20
80.65479224115683
 30
0.000000000000000
 40
1.000000000000000
100
AcDbArc
 50
270.0000000000000
 51
360.0000000000000
  0
LINE
  5
84
100
AcDbEntity
  8
1
  6
CONTINUOUS
 62
7
100
AcDbLine
 10
210.2886178872651
 20
93.35479224106950
 30
0.000000000000000
 11
209.2886178872649
 21
93.35479224106950
 31
0.000000000000000
  0
LINE
  5
85
100
AcDbEntity
  8
1
  6
CONTINUOUS
 62
7
100
AcDbLine
 10
145.2886178872648
 20
93.35479224106950
 30
0.000000000000000
 11
144.2886178872649
 21
93.35479224106950
 31
0.000000000000000
  0
ARC
  5
86
100
AcDbEntity
  8
1
  6
CONTINUOUS
 62
7
100
AcDbCircle
 10
221.2886178872644
 20
101.0166589061072
 30
0.000000000000000
 40
1.000000000000000
100
AcDbArc
 50
0.000000000000000
 51
80.02938169589937
  0
ARC
  5
87
100
AcDbEntity
  8
1
  6
CONTINUOUS
 62
7
100
AcDbCircle
 10
133.2886178872651
 20
101.0166589061026
 30
0.000000000000000
 40
1.000000000000000
100
AcDbArc
 50
99.97061830410730
 51
180.0000000000000
  0
ARC
  5
88
100
AcDbEntity
  8
1
  6
CONTINUOUS
 62
7
100
AcDbCircle
 10
147.7886178872651
 20
103.6401333206698
 30
0.000000000000000
 40
0.5000000000000000
100
AcDbArc
 50
6.263384266495955
 51
96.65303787558372
  0
ARC
  5
89
100
AcDbEntity
  8
1
  6
CONTINUOUS
 62
7
100
AcDbCircle
 10
206.7886178871373
 20
103.6401333206878
 30
0.000000000000000
 40
0.5000000000000000
100
AcDbArc
 50
83.34696212445238
 51
180.0000000000000
  0
ARC
  5
8A
100
AcDbEntity
  8
1
  6
CONTINUOUS
 62
7
100
AcDbCircle
 10
135.7886178872653
 20
99.35479224106950
 30
0.000000000000000
 40
0.5000000000000000
100
AcDbArc
 50
0.000000000000000
 51
90.00000000000000
  0
ARC
  5
8B
100
AcDbEntity
  8
1
  6
CONTINUOUS
 62
7
100
AcDbCircle
 10
218.7886178872649
 20
99.35479224106950
 30
0.000000000000000
 40
0.5000000000000000
100
AcDbArc
 50
90.00000000000000
 51
180.0000000000000
  0
ARC
  5
8C
100
AcDbEntity
  8
1
  6
CONTINUOUS
 62
7
100
AcDbCircle
 10
195.2886178872651
 20
76.85479224106940
 30
0.000000000000000
 40
2.000000000000000
100
AcDbArc
 50
270.0000000000000
 51
360.0000000000000
  0
ARC
  5
8D
100
AcDbEntity
  8
1
  6
CONTINUOUS
 62
7
100
AcDbCircle
 10
159.2886178872651
 20
76.85479224106940
 30
0.000000000000000
 40
2.000000000000000
100
AcDbArc
 50
180.0000000000000
 51
270.0000000000000
  0
LINE
  5
8E
100
AcDbEntity
  8
1
  6
CONTINUOUS
 62
7
100
AcDbLine
 10
195.2886178872651
 20
74.85479224106942
 30
0.000000000000000
 11
159.2886178872651
 21
74.85479224106942
 31
0.000000000000000
  0
LINE
  5
8F
100
AcDbEntity
  8
1
  6
CONTINUOUS
 62
7
100
AcDbLine
 10
157.2886178872651
 20
83.85479224106942
 30
0.000000000000000
 11
157.2886178872651
 21
76.85479224106940
 31
0.000000000000000
  0
ARC
  5
90
100
AcDbEntity
  8
1
  6
CONTINUOUS
 62
7
100
AcDbCircle
 10
152.2886178872651
 20
83.85479224106942
 30
0.000000000000000
 40
5.000000000000000
100
AcDbArc
 50
0.000000000000000
 51
90.00000000000000
  0
ARC
  5
91
100
AcDbEntity
  8
1
  6
CONTINUOUS
 62
7
100
AcDbCircle
 10
202.2886178872651
 20
83.85479224106942
 30
0.000000000000000
 40
5.000000000000000
100
AcDbArc
 50
90.00000000000000
 51
180.0000000000000
  0
LINE
  5
92
100
AcDbEntity
  8
1
  6
CONTINUOUS
 62
7
100
AcDbLine
 10
197.2886178872651
 20
83.85479224106942
 30
0.000000000000000
 11
197.2886178872651
 21
76.85479224106940
 31
0.000000000000000
  0
LINE
  5
93
100
AcDbEntity
  8
4
  6
CENTER
 62
1
100
AcDbLine
 10
207.3730012112823
 20
96.85479224106940
 30
0.000000000000000
 11
211.7886178872653
 21
96.85479224106940
 31
0.000000000000000
  0
LINE
  5
94
100
AcDbEntity
  8
4
  6
CENTER
 62
1
100
AcDbLine
 10
177.2886178872651
 20
108.8547922381307
 30
0.000000000000000
 11
177.2886178872651
 21
71.85479224106940
 31
0.000000000000000
  0
LINE
  5
95
100
AcDbEntity
  8
1
  6
CONTINUOUS
 62
7
100
AcDbLine
 10
136.2886178872653
 20
88.85479224106942
 30
0.000000000000000
 11
152.2886178872651
 21
88.85479224106942
 31
0.000000000000000
  0
ARC
  5
96
100
AcDbEntity
  8
1
  6
CONTINUOUS
 62
7
100
AcDbCircle
 10
177.2886178872781
 20
-218.9364753441251
 30
0.000000000000000
 40
323.9321493135798
100
AcDbArc
 50
84.86372327177645
 51
95.13680675339060
  0
ARC
  5
97
100
AcDbEntity
  8
1
  6
CONTINUOUS
 62
7
100
AcDbCircle
 10
177.2886178872781
 20
-149.2702077590853
 30
0.000000000000000
 40
255.1250000001549
100
AcDbArc
 50
96.65303787558372
 51
99.97061830410730
  0
ARC
  5
98
100
AcDbEntity
  8
1
  6
CONTINUOUS
 62
7
100
AcDbCircle
 10
177.2886178872781
 20
-149.2702077590853
 30
0.000000000000000
 40
255.1250000001549
100
AcDbArc
 50
80.02938169589937
 51
83.34696212445074
  0
LINE
  5
99
100
AcDbEntity
  8
1
  6
CONTINUOUS
 62
7
100
AcDbLine
 10
132.7431524778967
 20
101.8547922410695
 30
0.000000000000000
 11
221.8340832966413
 21
101.8547922410695
 31
0.000000000000000
  0
LINE
  5
9A
100
AcDbEntity
  8
1
  6
CONTINUOUS
 62
7
100
AcDbLine
 10
222.2886178872644
 20
101.0166589061072
 30
0.000000000000000
 11
222.2886178872644
 21
99.85479224106950
 31
0.000000000000000
  0
LINE
  5
9B
100
AcDbEntity
  8
1
  6
CONTINUOUS
 62
7
100
AcDbLine
 10
222.2886178872651
 20
99.85479224106950
 30
0.000000000000000
 11
132.2886178872651
 21
99.85479224106950
 31
0.000000000000000
  0
LINE
  5
9C
100
AcDbEntity
  8
1
  6
CONTINUOUS
 62
7
100
AcDbLine
 10
132.2886178872651
 20
99.85479224106950
 30
0.000000000000000
 11
132.2886178872651
 21
101.0166589061026
 31
0.000000000000000
  0
LINE
  5
9D
100
AcDbEntity
  8
1
  6
CONTINUOUS
 62
7
100
AcDbLine
 10
187.4886178872649
 20
87.85479224106940
 30
0.000000000000000
 11
187.4886178872649
 21
80.65479224115683
 31
0.000000000000000
  0
LINE
  5
9E
100
AcDbEntity
  8
1
  6
CONTINUOUS
 62
7
100
AcDbLine
 10
167.0886178872651
 20
80.65479224115683
 30
0.000000000000000
 11
167.0886178872651
 21
87.85479224106940
 31
0.000000000000000
  0
LINE
  5
9F
100
AcDbEntity
  8
1
  6
CONTINUOUS
 62
7
100
AcDbLine
 10
186.4886178872649
 20
79.65479224115681
 30
0.000000000000000
 11
168.0886178872651
 21
79.65479224115681
 31
0.000000000000000
  0
LINE
  5
A0
100
AcDbEntity
  8
1
  6
CONTINUOUS
 62
7
100
AcDbLine
 10
168.0886178872651
 20
88.85479224106942
 30
0.000000000000000
 11
186.4886178872649
 21
88.85479224106942
 31
0.000000000000000
  0
LINE
  5
A1
100
AcDbEntity
  8
1
  6
CONTINUOUS
 62
7
100
AcDbLine
 10
145.2886178872649
 20
99.85479224106950
 30
0.000000000000000
 11
145.2886178872649
 21
88.85479224106942
 31
0.000000000000000
  0
LINE
  5
A2
100
AcDbEntity
  8
1
  6
CONTINUOUS
 62
7
100
AcDbLine
 10
209.2886178872649
 20
99.85479224106950
 30
0.000000000000000
 11
209.2886178872649
 21
88.85479224106942
 31
0.000000000000000
  0
LINE
  5
A3
100
AcDbEntity
  8
1
  6
CONTINUOUS
 62
7
100
AcDbLine
 10
210.2886178872653
 20
99.85479224106945
 30
0.000000000000000
 11
210.2886178872651
 21
93.35479224106950
 31
0.000000000000000
  0
LINE
  5
A4
100
AcDbEntity
  8
1
  6
CONTINUOUS
 62
7
100
AcDbLine
 10
144.2886178872647
 20
99.85479224106945
 30
0.000000000000000
 11
144.2886178872648
 21
93.35479224106950
 31
0.000000000000000
  0
LINE
  5
A5
100
AcDbEntity
  8
1
  6
CONTINUOUS
 62
7
100
AcDbLine
 10
136.2886178872649
 20
99.35479224106950
 30
0.000000000000000
 11
136.2886178872649
 21
88.85479224106942
 31
0.000000000000000
  0
LINE
  5
A6
100
AcDbEntity
  8
1
  6
CONTINUOUS
 62
7
100
AcDbLine
 10
218.2886178872649
 20
88.85479224106942
 30
0.000000000000000
 11
202.2886178872651
 21
88.85479224106942
 31
0.000000000000000
  0
LINE
  5
A7
100
AcDbEntity
  8
1
  6
CONTINUOUS
 62
7
100
AcDbLine
 10
218.2886178872649
 20
88.85479224106942
 30
0.000000000000000
 11
218.2886178872649
 21
99.35479224106950
 31
0.000000000000000
  0
ARC
  5
A8
100
AcDbEntity
  8
1
  6
CONTINUOUS
 62
7
100
AcDbCircle
 10
133.2886178872651
 20
277.0333310389942
 30
0.000000000000000
 40
1.000000000000000
100
AcDbArc
 50
180.0000000000000
 51
260.0571532201360
  0
ARC
  5
A9
100
AcDbEntity
  8
1
  6
CONTINUOUS
 62
7
100
AcDbCircle
 10
221.2886178872642
 20
277.0759868589617
 30
0.000000000000000
 40
1.000000000000000
100
AcDbArc
 50
279.9983921949636
 51
360.0000000000000
  0
ARC
  5
AA
100
AcDbEntity
  8
1
  6
CONTINUOUS
 62
7
100
AcDbCircle
 10
147.6672975437094
 20
274.4311542221824
 30
0.000000000000000
 40
0.5000000000000000
100
AcDbArc
 50
263.3469621244163
 51
360.0000000000000
  0
ARC
  5
AB
100
AcDbEntity
  8
1
  6
CONTINUOUS
 62
7
100
AcDbCircle
 10
206.6672975437092
 20
274.4311542221795
 30
0.000000000000000
 40
0.5000000000000000
100
AcDbArc
 50
180.0000000000000
 51
276.6530378755771
  0
LINE
  5
AC
100
AcDbEntity
  8
1
  6
CONTINUOUS
 62
7
100
AcDbLine
 10
148.1672975437094
 20
274.4311542221824
 30
0.000000000000000
 11
148.1672975437094
 21
274.6408424759290
 31
0.000000000000000
  0
LINE
  5
AD
100
AcDbEntity
  8
1
  6
CONTINUOUS
 62
7
100
AcDbLine
 10
206.1672975437092
 20
274.4311542221795
 30
0.000000000000000
 11
206.1672975437092
 21
274.6408424759284
 31
0.000000000000000
  0
ARC
  5
AE
100
AcDbEntity
  8
1
  6
CONTINUOUS
 62
7
100
AcDbCircle
 10
159.2886178872651
 20
301.2164953017866
 30
0.000000000000000
 40
2.000000000000000
100
AcDbArc
 50
90.00000000000000
 51
180.0000000000000
  0
LINE
  5
AF
100
AcDbEntity
  8
1
  6
CONTINUOUS
 62
7
100
AcDbLine
 10
157.2886178872651
 20
294.2164953017865
 30
0.000000000000000
 11
157.2886178872651
 21
301.2164953017866
 31
0.000000000000000
  0
ARC
  5
B0
100
AcDbEntity
  8
1
  6
CONTINUOUS
 62
7
100
AcDbCircle
 10
152.2886178872651
 20
294.2164953017865
 30
0.000000000000000
 40
5.000000000000000
100
AcDbArc
 50
270.0000000000000
 51
360.0000000000000
  0
ARC
  5
B1
100
AcDbEntity
  8
1
  6
CONTINUOUS
 62
7
100
AcDbCircle
 10
195.2886178872651
 20
301.2164953017866
 30
0.000000000000000
 40
2.000000000000000
100
AcDbArc
 50
0.000000000000000
 51
90.00000000000000
  0
LINE
  5
B2
100
AcDbEntity
  8
1
  6
CONTINUOUS
 62
7
100
AcDbLine
 10
195.2886178872651
 20
303.2164953017866
 30
0.000000000000000
 11
159.2886178872651
 21
303.2164953017866
 31
0.000000000000000
  0
ARC
  5
B3
100
AcDbEntity
  8
1
  6
CONTINUOUS
 62
7
100
AcDbCircle
 10
202.2886178872651
 20
294.2164953017865
 30
0.000000000000000
 40
5.000000000000000
100
AcDbArc
 50
180.0000000000000
 51
270.0000000000000
  0
LINE
  5
B4
100
AcDbEntity
  8
1
  6
CONTINUOUS
 62
7
100
AcDbLine
 10
197.2886178872651
 20
294.2164953017865
 30
0.000000000000000
 11
197.2886178872651
 21
301.2164953017866
 31
0.000000000000000
  0
ARC
  5
B5
100
AcDbEntity
  8
1
  6
CONTINUOUS
 62
7
100
AcDbCircle
 10
177.1672975437222
 20
527.3414953019376
 30
0.000000000000000
 40
255.1250000001549
100
AcDbArc
 50
276.6530378755771
 51
279.9983921949636
  0
ARC
  5
B6
100
AcDbEntity
  8
1
  6
CONTINUOUS
 62
7
100
AcDbCircle
 10
177.1672975437222
 20
527.3414953019376
 30
0.000000000000000
 40
255.1250000001549
100
AcDbArc
 50
260.0571532201360
 51
263.3469621244163
  0
ARC
  5
B7
100
AcDbEntity
  8
1
  6
CONTINUOUS
 62
7
100
AcDbCircle
 10
177.1672975436974
 20
-968.3995902322202
 30
0.000000000000000
 40
1243.378670135234
100
AcDbArc
 50
88.66353804435396
 51
91.33646195564440
  0
ARC
  5
B8
100
AcDbEntity
  8
1
  6
CONTINUOUS
 62
7
100
AcDbCircle
 10
192.2886178872241
 20
291.2164953017864
 30
0.000000000000000
 40
2.000000000000000
100
AcDbArc
 50
180.0000000000000
 51
270.0000000000000
  0
ARC
  5
B9
100
AcDbEntity
  8
1
  6
CONTINUOUS
 62
7
100
AcDbCircle
 10
162.2886178872241
 20
291.2164953017864
 30
0.000000000000000
 40
2.000000000000000
100
AcDbArc
 50
270.0000000000000
 51
360.0000000000000
  0
ARC
  5
BA
100
AcDbEntity
  8
1
  6
CONTINUOUS
 62
7
100
AcDbCircle
 10
150.2886178872647
 20
284.2164953017864
 30
0.000000000000000
 40
5.000000000000000
100
AcDbArc
 50
90.00000000000000
 51
180.0000000000000
  0
ARC
  5
BB
100
AcDbEntity
  8
1
  6
CONTINUOUS
 62
7
100
AcDbCircle
 10
204.2886178872647
 20
284.2164953017864
 30
0.000000000000000
 40
5.000000000000000
100
AcDbArc
 50
0.000000000000000
 51
90.00000000000000
  0
LINE
  5
BC
100
AcDbEntity
  8
1
  6
CONTINUOUS
 62
7
100
AcDbLine
 10
162.2886178872241
 20
289.2164953017864
 30
0.000000000000000
 11
136.2886178872649
 21
289.2164953017864
 31
0.000000000000000
  0
LINE
  5
BD
100
AcDbEntity
  8
1
  6
CONTINUOUS
 62
7
100
AcDbLine
 10
218.2886178872649
 20
289.2164953017864
 30
0.000000000000000
 11
192.2886178872241
 21
289.2164953017864
 31
0.000000000000000
  0
LINE
  5
BE
100
AcDbEntity
  8
1
  6
CONTINUOUS
 62
7
100
AcDbLine
 10
190.2886178872241
 20
288.9013150313882
 30
0.000000000000000
 11
164.2886178872242
 21
288.9013150313882
 31
0.000000000000000
  0
ARC
  5
BF
100
AcDbEntity
  8
1
  6
CONTINUOUS
 62
7
100
AcDbCircle
 10
188.2886178872240
 20
299.2164953017864
 30
0.000000000000000
 40
2.000000000000000
100
AcDbArc
 50
0.000000000000000
 51
90.00000000000000
  0
ARC
  5
C0
100
AcDbEntity
  8
1
  6
CONTINUOUS
 62
7
100
AcDbCircle
 10
166.2886178872241
 20
299.2164953017864
 30
0.000000000000000
 40
2.000000000000000
100
AcDbArc
 50
90.00000000000000
 51
180.0000000000000
  0
LINE
  5
C1
100
AcDbEntity
  8
1
  6
CONTINUOUS
 62
7
100
AcDbLine
 10
190.2886178872241
 20
299.2164953017864
 30
0.000000000000000
 11
190.2886178872241
 21
291.2164953017864
 31
0.000000000000000
  0
LINE
  5
C2
100
AcDbEntity
  8
1
  6
CONTINUOUS
 62
7
100
AcDbLine
 10
164.2886178872242
 20
299.2164953017864
 30
0.000000000000000
 11
164.2886178872242
 21
291.2164953017864
 31
0.000000000000000
  0
LINE
  5
C3
100
AcDbEntity
  8
1
  6
CONTINUOUS
 62
7
100
AcDbLine
 10
188.2886178872240
 20
301.2164953017864
 30
0.000000000000000
 11
166.2886178872241
 21
301.2164953017864
 31
0.000000000000000
  0
LINE
  5
C4
100
AcDbEntity
  8
4
  6
CENTER
 62
1
100
AcDbLine
 10
177.2886178872651
 20
269.2165241506334
 30
0.000000000000000
 11
177.2886178872651
 21
306.2164953017866
 31
0.000000000000000
  0
LINE
  5
C5
100
AcDbEntity
  8
1
  6
CONTINUOUS
 62
7
100
AcDbLine
 10
132.7117475565839
 20
276.2164953017864
 30
0.000000000000000
 11
221.7997678292041
 21
276.2164953017864
 31
0.000000000000000
  0
LINE
  5
C6
100
AcDbEntity
  8
1
  6
CONTINUOUS
 62
7
100
AcDbLine
 10
222.2886178872641
 20
278.2164953017864
 30
0.000000000000000
 11
132.2886178872651
 21
278.2164953017864
 31
0.000000000000000
  0
LINE
  5
C7
100
AcDbEntity
  8
1
  6
CONTINUOUS
 62
7
100
AcDbLine
 10
222.2886178872641
 20
277.0759868589617
 30
0.000000000000000
 11
222.2886178872641
 21
278.2164953017864
 31
0.000000000000000
  0
LINE
  5
C8
100
AcDbEntity
  8
1
  6
CONTINUOUS
 62
7
100
AcDbLine
 10
132.2886178872651
 20
278.2164953017864
 30
0.000000000000000
 11
132.2886178872651
 21
277.0333310389942
 31
0.000000000000000
  0
LINE
  5
C9
100
AcDbEntity
  8
1
  6
CONTINUOUS
 62
7
100
AcDbLine
 10
145.2886178872646
 20
278.2164953017864
 30
0.000000000000000
 11
145.2886178872646
 21
284.2164953017864
 31
0.000000000000000
  0
LINE
  5
CA
100
AcDbEntity
  8
1
  6
CONTINUOUS
 62
7
100
AcDbLine
 10
209.2886178872647
 20
278.2164953017864
 30
0.000000000000000
 11
209.2886178872647
 21
284.2164953017864
 31
0.000000000000000
  0
LINE
  5
CB
100
AcDbEntity
  8
1
  6
CONTINUOUS
 62
7
100
AcDbLine
 10
136.2886178872649
 20
278.2164953017864
 30
0.000000000000000
 11
136.2886178872649
 21
289.2164953017863
 31
0.000000000000000
  0
LINE
  5
CC
100
AcDbEntity
  8
1
  6
CONTINUOUS
 62
7
100
AcDbLine
 10
218.2886178872649
 20
289.2164953017863
 30
0.000000000000000
 11
218.2886178872649
 21
278.2164953017864
 31
0.000000000000000
  0
LINE
  5
CD
100
AcDbEntity
  8
1
  6
CONTINUOUS
 62
7
100
AcDbLine
 10
148.2886178872651
 20
178.0408157422495
 30
0.000000000000000
 11
148.2886178872651
 21
207.3055571031002
 31
0.000000000000000
  0
LINE
  5
CE
100
AcDbEntity
  8
1
  6
CONTINUOUS
 62
7
100
AcDbLine
 10
148.4886178872651
 20
186.5408157420475
 30
0.000000000000000
 11
148.2886178872652
 21
186.5408157420475
 31
0.000000000000000
  0
LINE
  5
CF
100
AcDbEntity
  8
4
  6
CENTER
 62
1
100
AcDbLine
 10
177.2886178872651
 20
224.5408157421536
 30
0.000000000000000
 11
177.2886178872651
 21
151.5408157421488
 31
0.000000000000000
  0
LINE
  5
D0
100
AcDbEntity
  8
1
  6
CONTINUOUS
 62
7
100
AcDbLine
 10
286.0521589020284
 20
182.0408157421545
 30
0.000000000000000
 11
286.0521589020212
 21
186.5408157421557
 31
0.000000000000000
  0
LINE
  5
D1
100
AcDbEntity
  8
1
  6
CONTINUOUS
 62
7
100
AcDbLine
 10
279.5521589020288
 20
179.0408157421538
 30
0.000000000000000
 11
283.0521589020283
 21
179.0408157421538
 31
0.000000000000000
  0
ARC
  5
D2
100
AcDbEntity
  8
1
  6
CONTINUOUS
 62
7
100
AcDbCircle
 10
283.0521589020283
 20
182.0408157421538
 30
0.000000000000000
 40
3.000000000000000
100
AcDbArc
 50
270.0000000000000
 51
360.0000000000000
  0
ARC
  5
D3
100
AcDbEntity
  8
5
  6
PHANTOM
 62
1
100
AcDbCircle
 10
277.4151944057637
 20
196.4907389476453
 30
0.000000000000000
 40
8.000000000000000
100
AcDbArc
 50
222.9687068761077
 51
239.9998882252968
  0
LINE
  5
D4
100
AcDbEntity
  8
5
  6
PHANTOM
 62
1
100
AcDbLine
 10
273.5735686686886
 20
189.4710978820697
 30
0.000000000000000
 11
273.4151808899789
 21
189.5625435207294
 31
0.000000000000000
  0
ARC
  5
D5
100
AcDbEntity
  8
5
  6
PHANTOM
 62
1
100
AcDbCircle
 10
277.4151944057579
 20
196.4907389476400
 30
0.000000000000000
 40
7.999999999992146
100
AcDbArc
 50
220.0427227549483
 51
222.9687068761095
  0
ARC
  5
D6
100
AcDbEntity
  8
5
  6
PHANTOM
 62
1
100
AcDbCircle
 10
267.3575703504604
 20
194.4857935158720
 30
0.000000000000000
 40
0.5000000000000000
100
AcDbArc
 50
45.68042291295355
 51
124.9998882252962
  0
LINE
  5
D7
100
AcDbEntity
  8
5
  6
PHANTOM
 62
1
100
AcDbLine
 10
265.3848591969820
 20
193.7148784913775
 30
0.000000000000000
 11
267.0707829313014
 21
194.8953700974927
 31
0.000000000000000
  0
ARC
  5
D8
100
AcDbEntity
  8
5
  6
PHANTOM
 62
1
100
AcDbCircle
 10
265.9584340353001
 20
192.8957253281361
 30
0.000000000000000
 40
1.000000000000000
100
AcDbArc
 50
124.9998882252962
 51
210.5222803353600
  0
ARC
  5
D9
100
AcDbEntity
  8
5
  6
PHANTOM
 62
1
100
AcDbCircle
 10
363.7309355364931
 20
250.5393542059158
 30
0.000000000000000
 40
114.5000000000000
100
AcDbArc
 50
210.5222803353600
 51
219.4370291327475
  0
ARC
  5
DA
100
AcDbEntity
  8
1
  6
CONTINUOUS
 62
7
100
AcDbCircle
 10
274.8986722790728
 20
200.5408157421188
 30
0.000000000000000
 40
1.000000000000000
100
AcDbArc
 50
90.00000000000000
 51
175.5223921100632
  0
LINE
  5
DB
100
AcDbEntity
  8
1
  6
CONTINUOUS
 62
7
100
AcDbLine
 10
275.4650327157460
 20
201.5408157421188
 30
0.000000000000000
 11
274.8986722790726
 21
201.5408157421188
 31
0.000000000000000
  0
ARC
  5
DC
100
AcDbEntity
  8
1
  6
CONTINUOUS
 62
7
100
AcDbCircle
 10
388.0522612754384
 20
191.6799299375520
 30
0.000000000000000
 40
114.5000000000000
100
AcDbArc
 50
175.5223921100624
 51
185.7468601900384
  0
ARC
  5
DD
100
AcDbEntity
  8
1
  6
CONTINUOUS
 62
7
100
AcDbCircle
 10
299.0521589020289
 20
162.3337089609531
 30
0.000000000000000
 40
0.5000000000000000
100
AcDbArc
 50
314.9999999999636
 51
360.0000000000000
  0
LINE
  5
DE
100
AcDbEntity
  8
1
  6
CONTINUOUS
 62
7
100
AcDbLine
 10
299.5521589020288
 20
166.3579507564222
 30
0.000000000000000
 11
299.5521589020288
 21
162.3337089609531
 31
0.000000000000000
  0
ARC
  5
DF
100
AcDbEntity
  8
5
  6
PHANTOM
 62
1
100
AcDbCircle
 10
291.5521589020290
 20
163.5527081905979
 30
0.000000000000000
 40
1.000000000000000
100
AcDbArc
 50
180.0000000000000
 51
314.9999999999636
  0
LINE
  5
E0
100
AcDbEntity
  8
5
  6
PHANTOM
 62
1
100
AcDbLine
 10
292.2592656832152
 20
162.8456014094112
 30
0.000000000000000
 11
299.4057122926217
 21
169.9920480188085
 31
0.000000000000000
  0
LINE
  5
E1
100
AcDbEntity
  8
1
  6
CONTINUOUS
 62
7
100
AcDbLine
 10
292.2592656832152
 20
154.8337089609623
 30
0.000000000000000
 11
299.4057122926217
 21
161.9801555703595
 31
0.000000000000000
  0
ARC
  5
E2
100
AcDbEntity
  8
1
  6
CONTINUOUS
 62
7
100
AcDbCircle
 10
291.5521589020290
 20
155.5408157421488
 30
0.000000000000000
 40
1.000000000000000
100
AcDbArc
 50
180.0000000000000
 51
314.9999999999636
  0
LINE
  5
E3
100
AcDbEntity
  8
1
  6
CONTINUOUS
 62
7
100
AcDbLine
 10
290.5521589020287
 20
166.2503443323221
 30
0.000000000000000
 11
290.5521589020287
 21
155.5408157421488
 31
0.000000000000000
  0
LINE
  5
E4
100
AcDbEntity
  8
4
  6
CENTER
 62
1
100
AcDbLine
 10
438.0386983861049
 20
224.5408157421534
 30
0.000000000000000
 11
438.0386983861049
 21
151.5408157421488
 31
0.000000000000000
  0
ARC
  5
E5
100
AcDbEntity
  8
1
  6
CONTINUOUS
 62
7
100
AcDbCircle
 10
275.1227114735726
 20
180.3147734692955
 30
0.000000000000000
 40
1.000000000000000
100
AcDbArc
 50
185.7468601900377
 51
236.6100781585839
  0
LINE
  5
E6
100
AcDbEntity
  8
1
  6
CONTINUOUS
 62
7
100
AcDbLine
 10
275.6278805887997
 20
178.7841191461473
 30
0.000000000000000
 11
274.5723775892789
 21
179.4798287910094
 31
0.000000000000000
  0
LINE
  5
E7
100
AcDbEntity
  8
1
  6
CONTINUOUS
 62
7
100
AcDbLine
 10
304.5521589020289
 20
171.4575466102301
 30
0.000000000000000
 11
304.5521589020289
 21
165.5408157421538
 31
0.000000000000000
  0
LINE
  5
E8
100
AcDbEntity
  8
1
  6
CONTINUOUS
 62
7
100
AcDbLine
 10
299.7521589019413
 20
165.5408157421537
 30
0.000000000000000
 11
304.5521589020289
 21
165.5408157421537
 31
0.000000000000000
  0
LINE
  5
E9
100
AcDbEntity
  8
1
  6
CONTINUOUS
 62
7
100
AcDbLine
 10
299.7521589019413
 20
166.2503443323227
 30
0.000000000000000
 11
299.7521589019413
 21
165.5408157421537
 31
0.000000000000000
  0
LINE
  5
EA
100
AcDbEntity
  8
1
  6
CONTINUOUS
 62
7
100
AcDbLine
 10
291.5521589020288
 20
166.4141720017890
 30
0.000000000000000
 11
298.7521589019414
 21
166.4141720017890
 31
0.000000000000000
  0
LINE
  5
EB
100
AcDbEntity
  8
1
  6
CONTINUOUS
 62
7
100
AcDbLine
 10
302.5521589020289
 20
168.9722732472299
 30
0.000000000000000
 11
295.5521589020289
 21
168.9722732472299
 31
0.000000000000000
  0
LINE
  5
EC
100
AcDbEntity
  8
1
  6
CONTINUOUS
 62
7
100
AcDbLine
 10
302.5521589020289
 20
172.1647911618237
 30
0.000000000000000
 11
295.5521589020289
 21
172.1647911618237
 31
0.000000000000000
  0
CIRCLE
  5
ED
100
AcDbEntity
  8
1
  6
CONTINUOUS
 62
7
100
AcDbCircle
 10
282.5521589020289
 20
182.5408157421538
 30
0.000000000000000
 40
3.000000000000000
  0
ARC
  5
EE
100
AcDbEntity
  8
1
  6
CONTINUOUS
 62
7
100
AcDbCircle
 10
291.7480639896681
 20
209.5408157421538
 30
0.000000000000000
 40
2.000000000000000
100
AcDbArc
 50
198.8453882442779
 51
270.0000000000000
  0
ARC
  5
EF
100
AcDbEntity
  8
1
  6
CONTINUOUS
 62
7
100
AcDbCircle
 10
388.0521589020256
 20
191.5408157421537
 30
0.000000000000000
 40
114.4999999999972
100
AcDbArc
 50
165.1963938844915
 51
167.3884122071331
  0
ARC
  5
F0
100
AcDbEntity
  8
1
  6
CONTINUOUS
 62
7
100
AcDbCircle
 10
278.3195292971566
 20
220.5408157421539
 30
0.000000000000000
 40
1.000000000000000
100
AcDbArc
 50
90.00000000000000
 51
165.1963938844915
  0
ARC
  5
F1
100
AcDbEntity
  8
1
  6
CONTINUOUS
 62
7
100
AcDbCircle
 10
274.9780681473333
 20
177.0408157421896
 30
0.000000000000000
 40
0.5000000000000000
100
AcDbArc
 50
90.00000000000000
 51
187.3074154473905
  0
ARC
  5
F2
100
AcDbEntity
  8
1
  6
CONTINUOUS
 62
7
100
AcDbCircle
 10
280.0521589020289
 20
165.0408157421536
 30
0.000000000000000
 40
0.5000000000000000
100
AcDbArc
 50
90.00000000000000
 51
180.0000000000000
  0
ARC
  5
F3
100
AcDbEntity
  8
1
  6
CONTINUOUS
 62
7
100
AcDbCircle
 10
280.0521589020289
 20
217.9620823247677
 30
0.000000000000000
 40
0.5000000000000000
100
AcDbArc
 50
180.0000000000000
 51
259.3280707142359
  0
LINE
  5
F4
100
AcDbEntity
  8
1
  6
CONTINUOUS
 62
7
100
AcDbLine
 10
302.5521589020289
 20
205.5408157421538
 30
0.000000000000000
 11
302.5521589020289
 21
186.5408157421535
 31
0.000000000000000
  0
LINE
  5
F5
100
AcDbEntity
  8
1
  6
CONTINUOUS
 62
7
100
AcDbLine
 10
275.9765060761835
 20
208.7702891616514
 30
0.000000000000000
 11
276.3147435032685
 21
216.5408157422529
 31
0.000000000000000
  0
ARC
  5
F6
100
AcDbEntity
  8
1
  6
CONTINUOUS
 62
7
100
AcDbCircle
 10
468.1596817036060
 20
191.5408157421533
 30
0.000000000000000
 40
192.9539524045928
100
AcDbArc
 50
174.8770540088067
 51
184.1608185469599
  0
LINE
  5
F7
100
AcDbEntity
  8
1
  6
CONTINUOUS
 62
7
100
AcDbLine
 10
275.7142927005048
 20
177.5408157421896
 30
0.000000000000000
 11
274.9780681473333
 21
177.5408157421896
 31
0.000000000000000
  0
ARC
  5
F8
100
AcDbEntity
  8
1
  6
CONTINUOUS
 62
7
100
AcDbCircle
 10
300.5521589020289
 20
205.5408157421538
 30
0.000000000000000
 40
2.000000000000000
100
AcDbArc
 50
0.000000000000000
 51
90.00000000000000
  0
LINE
  5
F9
100
AcDbEntity
  8
1
  6
CONTINUOUS
 62
7
100
AcDbLine
 10
300.5521589020289
 20
207.5408157421538
 30
0.000000000000000
 11
291.7480639896681
 21
207.5408157421538
 31
0.000000000000000
  0
LINE
  5
FA
100
AcDbEntity
  8
1
  6
CONTINUOUS
 62
7
100
AcDbLine
 10
279.5521589020288
 20
221.5408157421539
 30
0.000000000000000
 11
278.3195292971566
 21
221.5408157421539
 31
0.000000000000000
  0
ARC
  5
FB
100
AcDbEntity
  8
1
  6
CONTINUOUS
 62
7
100
AcDbCircle
 10
277.5521589020289
 20
204.6955831633460
 30
0.000000000000000
 40
13.00000000000000
100
AcDbArc
 50
0.000000000000000
 51
79.32807071423751
  0
LINE
  5
FC
100
AcDbEntity
  8
1
  6
CONTINUOUS
 62
7
100
AcDbLine
 10
279.5521589020288
 20
186.5408157421535
 30
0.000000000000000
 11
302.5521589020288
 21
186.5408157421535
 31
0.000000000000000
  0
LINE
  5
FD
100
AcDbEntity
  8
1
  6
CONTINUOUS
 62
7
100
AcDbLine
 10
279.5521589020288
 20
196.5408157421538
 30
0.000000000000000
 11
290.5521589020289
 21
196.5408157421538
 31
0.000000000000000
  0
LINE
  5
FE
100
AcDbEntity
  8
1
  6
CONTINUOUS
 62
7
100
AcDbLine
 10
280.0521589020289
 20
165.5408157421537
 30
0.000000000000000
 11
290.5521589020289
 21
165.5408157421537
 31
0.000000000000000
  0
ARC
  5
FF
100
AcDbEntity
  8
1
  6
CONTINUOUS
 62
7
100
AcDbCircle
 10
397.0386983861047
 20
165.5408157421537
 30
0.000000000000000
 40
4.000000000000000
100
AcDbArc
 50
180.0000000000000
 51
270.0000000000000
  0
ARC
  5
100
100
AcDbEntity
  8
1
  6
CONTINUOUS
 62
7
100
AcDbCircle
 10
397.0386983861047
 20
217.5408157421534
 30
0.000000000000000
 40
4.000000000000000
100
AcDbArc
 50
90.00000000000000
 51
180.0000000000000
  0
ARC
  5
101
100
AcDbEntity
  8
1
  6
CONTINUOUS
 62
7
100
AcDbCircle
 10
479.0386983861038
 20
217.5408157421534
 30
0.000000000000000
 40
4.000000000000000
100
AcDbArc
 50
0.000000000000000
 51
90.00000000000000
  0
ARC
  5
102
100
AcDbEntity
  8
1
  6
CONTINUOUS
 62
7
100
AcDbCircle
 10
479.0386983861038
 20
165.5408157421537
 30
0.000000000000000
 40
4.000000000000000
100
AcDbArc
 50
270.0000000000000
 51
360.0000000000000
  0
LINE
  5
103
100
AcDbEntity
  8
1
  6
CONTINUOUS
 62
7
100
AcDbLine
 10
479.0386983861038
 20
161.5408157421537
 30
0.000000000000000
 11
448.0386983861048
 21
161.5408157421537
 31
0.000000000000000
  0
LINE
  5
104
100
AcDbEntity
  8
1
  6
CONTINUOUS
 62
7
100
AcDbLine
 10
428.0386983861048
 20
161.5408157421537
 30
0.000000000000000
 11
397.0386983861047
 21
161.5408157421537
 31
0.000000000000000
  0
LINE
  5
105
100
AcDbEntity
  8
1
  6
CONTINUOUS
 62
7
100
AcDbLine
 10
393.0386983861047
 20
217.5408157421534
 30
0.000000000000000
 11
393.0386983861047
 21
165.5408157421537
 31
0.000000000000000
  0
LINE
  5
106
100
AcDbEntity
  8
1
  6
CONTINUOUS
 62
7
100
AcDbLine
 10
483.0386983861038
 20
217.5408157421534
 30
0.000000000000000
 11
483.0386983861038
 21
165.5408157421537
 31
0.000000000000000
  0
LINE
  5
107
100
AcDbEntity
  8
1
  6
CONTINUOUS
 62
7
100
AcDbLine
 10
479.0386983861038
 20
221.5408157421534
 30
0.000000000000000
 11
397.0386983861047
 21
221.5408157421534
 31
0.000000000000000
  0
LINE
  5
108
100
AcDbEntity
  8
4
  6
CENTER
 62
1
100
AcDbLine
 10
390.0386983861047
 20
182.5408157421536
 30
0.000000000000000
 11
486.0386983861038
 21
182.5408157421536
 31
0.000000000000000
  0
ARC
  5
109
100
AcDbEntity
  8
1
  6
CONTINUOUS
 62
7
100
AcDbCircle
 10
278.3195292971566
 20
162.5408157421537
 30
0.000000000000000
 40
1.000000000000000
100
AcDbArc
 50
194.8036061155083
 51
270.0000000000000
  0
ARC
  5
10A
100
AcDbEntity
  8
1
  6
CONTINUOUS
 62
7
100
AcDbCircle
 10
388.0521589020256
 20
191.5408157421537
 30
0.000000000000000
 40
114.4999999999972
100
AcDbArc
 50
187.3074154473913
 51
194.8036061155083
  0
LINE
  5
10B
100
AcDbEntity
  8
1
  6
CONTINUOUS
 62
7
100
AcDbLine
 10
277.5521589020286
 20
221.1820198256412
 30
0.000000000000000
 11
277.5521589020286
 21
161.8996116586659
 31
0.000000000000000
  0
LINE
  5
10C
100
AcDbEntity
  8
1
  6
CONTINUOUS
 62
7
100
AcDbLine
 10
279.5521589020288
 20
161.5408157421537
 30
0.000000000000000
 11
278.3195292971566
 21
161.5408157421537
 31
0.000000000000000
  0
LINE
  5
10D
100
AcDbEntity
  8
4
  6
CENTER
 62
1
100
AcDbLine
 10
282.5521589020289
 20
186.0408157421538
 30
0.000000000000000
 11
282.5521589020289
 21
179.0408157421538
 31
0.000000000000000
  0
LINE
  5
10E
100
AcDbEntity
  8
4
  6
CENTER
 62
1
100
AcDbLine
 10
286.0521589020289
 20
182.5408157421538
 30
0.000000000000000
 11
279.0521589020289
 21
182.5408157421538
 31
0.000000000000000
  0
LINE
  5
10F
100
AcDbEntity
  8
1
  6
CONTINUOUS
 62
7
100
AcDbLine
 10
290.5521589020289
 20
171.1233039280971
 30
0.000000000000000
 11
290.5521589020289
 21
204.6955831633460
 31
0.000000000000000
  0
LINE
  5
110
100
AcDbEntity
  8
1
  6
CONTINUOUS
 62
7
100
AcDbLine
 10
279.5521589020288
 20
221.5408157421539
 30
0.000000000000000
 11
279.5521589020288
 21
161.5408157421537
 31
0.000000000000000
  0
LINE
  5
111
100
AcDbEntity
  8
4
  6
CENTER
 62
1
100
AcDbLine
 10
280.9864059342453
 20
191.5408157421537
 30
0.000000000000000
 11
307.7185475459831
 21
191.5408157421537
 31
0.000000000000000
  0
LINE
  5
112
100
AcDbEntity
  8
1
  6
CONTINUOUS
 62
7
100
AcDbLine
 10
206.0886178872653
 20
178.2190883646060
 30
0.000000000000000
 11
205.2088801554702
 21
177.5408157422494
 31
0.000000000000000
  0
LINE
  5
113
100
AcDbEntity
  8
1
  6
CONTINUOUS
 62
7
100
AcDbLine
 10
148.4886178872650
 20
178.2190883646061
 30
0.000000000000000
 11
149.3667157391121
 21
177.5408157422494
 31
0.000000000000000
  0
LINE
  5
114
100
AcDbEntity
  8
5
  6
PHANTOM
 62
1
100
AcDbLine
 10
271.2906749348693
 20
191.3438698750305
 30
0.000000000000000
 11
267.7069002433911
 21
194.8435205429541
 31
0.000000000000000
  0
ARC
  5
115
100
AcDbEntity
  8
1
  6
CONTINUOUS
 62
7
100
AcDbCircle
 10
368.9700484991245
 20
216.1451403566753
 30
0.000000000000000
 40
96.17252558008065
100
AcDbArc
 50
189.2616129994028
 51
192.4416228407532
  0
ARC
  5
116
100
AcDbEntity
  8
1
  6
CONTINUOUS
 62
7
100
AcDbCircle
 10
291.9641403000644
 20
174.3158218426910
 30
0.000000000000000
 40
1.411981398035550
100
AcDbArc
 50
180.0000000000023
 51
246.7223282314093
  0
ARC
  5
117
100
AcDbEntity
  8
1
  6
CONTINUOUS
 62
7
100
AcDbCircle
 10
295.5521589020286
 20
182.6560529558000
 30
0.000000000000000
 40
10.49126179397637
100
AcDbArc
 50
246.7223282314083
 51
270.0000000000012
  0
ARC
  5
118
100
AcDbEntity
  8
1
  6
CONTINUOUS
 62
7
100
AcDbCircle
 10
295.5521589020286
 20
179.4635350412062
 30
0.000000000000000
 40
10.49126179397637
100
AcDbArc
 50
246.7223282314083
 51
270.0000000000012
  0
ARC
  5
119
100
AcDbEntity
  8
1
  6
CONTINUOUS
 62
7
100
AcDbCircle
 10
291.9641403000644
 20
171.1233039280972
 30
0.000000000000000
 40
1.411981398035550
100
AcDbArc
 50
180.0000000000023
 51
246.7223282314093
  0
ARC
  5
11A
100
AcDbEntity
  8
1
  6
CONTINUOUS
 62
7
100
AcDbCircle
 10
304.1127121393162
 20
171.4575466102301
 30
0.000000000000000
 40
0.4394467627127483
100
AcDbArc
 50
0.000000000000000
 51
70.52527114684987
  0
ARC
  5
11B
100
AcDbEntity
  8
1
  6
CONTINUOUS
 62
7
100
AcDbCircle
 10
302.5521589020288
 20
167.0444953289695
 30
0.000000000000000
 40
5.120295832854196
100
AcDbArc
 50
70.52527114685478
 51
89.99999999999872
  0
ARC
  5
11C
100
AcDbEntity
  8
1
  6
CONTINUOUS
 62
7
100
AcDbCircle
 10
302.5521589020288
 20
163.8519774143757
 30
0.000000000000000
 40
5.120295832854196
100
AcDbArc
 50
70.52527114685478
 51
89.99999999999872
  0
ARC
  5
11D
100
AcDbEntity
  8
1
  6
CONTINUOUS
 62
7
100
AcDbCircle
 10
304.1127121393162
 20
168.2650286956363
 30
0.000000000000000
 40
0.4394467627127483
100
AcDbArc
 50
0.000000000000000
 51
70.52527114684987
  0
ARC
  5
11E
100
AcDbEntity
  8
1
  6
CONTINUOUS
 62
7
100
AcDbCircle
 10
290.6419190261134
 20
166.2503443323221
 30
0.000000000000000
 40
0.08976012408467680
100
AcDbArc
 50
99.30398344301180
 51
180.0000000000000
  0
ARC
  5
11F
100
AcDbEntity
  8
1
  6
CONTINUOUS
 62
7
100
AcDbCircle
 10
291.5521589020288
 20
160.6942628787049
 30
0.000000000000000
 40
5.719909123084163
100
AcDbArc
 50
90.00000000000000
 51
99.30398344300792
  0
ARC
  5
120
100
AcDbEntity
  8
1
  6
CONTINUOUS
 62
7
100
AcDbCircle
 10
299.6623987778569
 20
166.2503443323221
 30
0.000000000000000
 40
0.08976012408467680
100
AcDbArc
 50
6.999999999999999e-15
 51
80.69601655698820
  0
ARC
  5
121
100
AcDbEntity
  8
1
  6
CONTINUOUS
 62
7
100
AcDbCircle
 10
298.7521589019415
 20
160.6942628787049
 30
0.000000000000000
 40
5.719909123084163
100
AcDbArc
 50
80.69601655699206
 51
90.00000000000000
  0
LINE
  5
122
100
AcDbEntity
  8
4
  6
CENTER
 62
1
100
AcDbLine
 10
147.2042345632479
 20
96.85479224106940
 30
0.000000000000000
 11
142.7886178872650
 21
96.85479224106940
 31
0.000000000000000
  0
LINE
  5
123
100
AcDbEntity
  8
4
  6
CENTER
 62
1
100
AcDbLine
 10
141.2886178872761
 20
295.5382760816433
 30
0.000000000000000
 11
141.2886178872761
 21
281.0268879429185
 31
0.000000000000000
  0
LINE
  5
124
100
AcDbEntity
  8
4
  6
CENTER
 62
1
100
AcDbLine
 10
213.2886178872539
 20
281.0268879429185
 30
0.000000000000000
 11
213.2886178872539
 21
295.5382760816433
 31
0.000000000000000
  0
ARC
  5
125
100
AcDbEntity
  8
5
  6
PHANTOM
 62
1
100
AcDbCircle
 10
77.16204136876655
 20
196.4907389476453
 30
0.000000000000000
 40
8.000000000000000
100
AcDbArc
 50
300.0001117747032
 51
317.0312931238921
  0
ARC
  5
126
100
AcDbEntity
  8
5
  6
PHANTOM
 62
1
100
AcDbCircle
 10
-9.153699761962796
 20
250.5393542059158
 30
0.000000000000000
 40
114.5000000000000
100
AcDbArc
 50
320.5629708672524
 51
329.4777196646399
  0
ARC
  5
127
100
AcDbEntity
  8
5
  6
PHANTOM
 62
1
100
AcDbCircle
 10
77.16204136877241
 20
196.4907389476400
 30
0.000000000000000
 40
7.999999999992146
100
AcDbArc
 50
317.0312931238904
 51
319.9572772450516
  0
ARC
  5
128
100
AcDbEntity
  8
5
  6
PHANTOM
 62
1
100
AcDbCircle
 10
87.21966542406983
 20
194.4857935158720
 30
0.000000000000000
 40
0.5000000000000000
100
AcDbArc
 50
55.00011177470372
 51
134.3195770870464
  0
LINE
  5
129
100
AcDbEntity
  8
5
  6
PHANTOM
 62
1
100
AcDbLine
 10
89.19237657754830
 20
193.7148784913775
 30
0.000000000000000
 11
87.50645284322891
 21
194.8953700974927
 31
0.000000000000000
  0
ARC
  5
12A
100
AcDbEntity
  8
5
  6
PHANTOM
 62
1
100
AcDbCircle
 10
88.61880173923019
 20
192.8957253281361
 30
0.000000000000000
 40
1.000000000000000
100
AcDbArc
 50
329.4777196646399
 51
415.0001117747037
  0
LINE
  5
12B
100
AcDbEntity
  8
5
  6
PHANTOM
 62
1
100
AcDbLine
 10
83.28656083966086
 20
191.3438698750306
 30
0.000000000000000
 11
86.87033553113906
 21
194.8435205429541
 31
0.000000000000000
  0
LINE
  5
12C
100
AcDbEntity
  8
1
  6
CONTINUOUS
 62
7
100
AcDbLine
 10
64.02507687250142
 20
171.1233039280971
 30
0.000000000000000
 11
64.02507687250142
 21
204.6955831633460
 31
0.000000000000000
  0
LINE
  5
12D
100
AcDbEntity
  8
1
  6
CONTINUOUS
 62
7
100
AcDbLine
 10
52.02507687250140
 20
205.5408157421538
 30
0.000000000000000
 11
52.02507687250140
 21
186.5408157421535
 31
0.000000000000000
  0
ARC
  5
12E
100
AcDbEntity
  8
1
  6
CONTINUOUS
 62
7
100
AcDbCircle
 10
-33.47502550090808
 20
191.6799299375520
 30
0.000000000000000
 40
114.5000000000000
100
AcDbArc
 50
354.2531398099614
 51
364.4776078899375
  0
ARC
  5
12F
100
AcDbEntity
  8
1
  6
CONTINUOUS
 62
7
100
AcDbCircle
 10
-113.5824459290756
 20
191.5408157421533
 30
0.000000000000000
 40
192.9539524045928
100
AcDbArc
 50
355.8391814530400
 51
365.1229459911933
  0
LINE
  5
130
100
AcDbEntity
  8
1
  6
CONTINUOUS
 62
7
100
AcDbLine
 10
77.02507687250164
 20
221.1820198256412
 30
0.000000000000000
 11
77.02507687250164
 21
161.8996116586659
 31
0.000000000000000
  0
LINE
  5
131
100
AcDbEntity
  8
1
  6
CONTINUOUS
 62
7
100
AcDbLine
 10
75.02507687250140
 20
221.5408157421539
 30
0.000000000000000
 11
75.02507687250140
 21
161.5408157421537
 31
0.000000000000000
  0
ARC
  5
132
100
AcDbEntity
  8
1
  6
CONTINUOUS
 62
7
100
AcDbCircle
 10
52.02507687250147
 20
167.0444953289695
 30
0.000000000000000
 40
5.120295832854196
100
AcDbArc
 50
90.00000000000126
 51
109.4747288531452
  0
ARC
  5
133
100
AcDbEntity
  8
1
  6
CONTINUOUS
 62
7
100
AcDbCircle
 10
52.02507687250147
 20
163.8519774143757
 30
0.000000000000000
 40
5.120295832854196
100
AcDbArc
 50
90.00000000000126
 51
109.4747288531452
  0
LINE
  5
134
100
AcDbEntity
  8
1
  6
CONTINUOUS
 62
7
100
AcDbLine
 10
54.82507687258890
 20
165.5408157421537
 30
0.000000000000000
 11
50.02507687250140
 21
165.5408157421537
 31
0.000000000000000
  0
ARC
  5
135
100
AcDbEntity
  8
1
  6
CONTINUOUS
 62
7
100
AcDbCircle
 10
55.82507687258878
 20
160.6942628787049
 30
0.000000000000000
 40
5.719909123084163
100
AcDbArc
 50
90.00000000000000
 51
99.30398344300792
  0
ARC
  5
136
100
AcDbEntity
  8
1
  6
CONTINUOUS
 62
7
100
AcDbCircle
 10
-33.47492312749535
 20
191.5408157421537
 30
0.000000000000000
 40
114.4999999999972
100
AcDbArc
 50
345.1963938844917
 51
352.6925845526087
  0
ARC
  5
137
100
AcDbEntity
  8
1
  6
CONTINUOUS
 62
7
100
AcDbCircle
 10
63.02507687250140
 20
160.6942628787049
 30
0.000000000000000
 40
5.719909123084163
100
AcDbArc
 50
80.69601655699206
 51
90.00000000000000
  0
LINE
  5
138
100
AcDbEntity
  8
5
  6
PHANTOM
 62
1
100
AcDbLine
 10
62.31797009131515
 20
162.8456014094113
 30
0.000000000000000
 11
55.17152348190852
 21
169.9920480188085
 31
0.000000000000000
  0
LINE
  5
139
100
AcDbEntity
  8
1
  6
CONTINUOUS
 62
7
100
AcDbLine
 10
74.52507687250140
 20
165.5408157421537
 30
0.000000000000000
 11
64.02507687250142
 21
165.5408157421537
 31
0.000000000000000
  0
ARC
  5
13A
100
AcDbEntity
  8
1
  6
CONTINUOUS
 62
7
100
AcDbCircle
 10
74.52507687250140
 20
165.0408157421536
 30
0.000000000000000
 40
0.5000000000000000
100
AcDbArc
 50
6.999999999999999e-15
 51
90.00000000000000
  0
LINE
  5
13B
100
AcDbEntity
  8
1
  6
CONTINUOUS
 62
7
100
AcDbLine
 10
75.02507687250140
 20
161.5408157421537
 30
0.000000000000000
 11
76.25770647737367
 21
161.5408157421537
 31
0.000000000000000
  0
ARC
  5
13C
100
AcDbEntity
  8
1
  6
CONTINUOUS
 62
7
100
AcDbCircle
 10
76.25770647737367
 20
162.5408157421537
 30
0.000000000000000
 40
1.000000000000000
100
AcDbArc
 50
270.0000000000000
 51
345.1963938844917
  0
LINE
  5
13D
100
AcDbEntity
  8
1
  6
CONTINUOUS
 62
7
100
AcDbLine
 10
64.02507687250153
 20
166.2503443323221
 30
0.000000000000000
 11
64.02507687250153
 21
155.5408157421488
 31
0.000000000000000
  0
LINE
  5
13E
100
AcDbEntity
  8
1
  6
CONTINUOUS
 62
7
100
AcDbLine
 10
62.31797009131504
 20
154.8337089609623
 30
0.000000000000000
 11
55.17152348190855
 21
161.9801555703595
 31
0.000000000000000
  0
ARC
  5
13F
100
AcDbEntity
  8
1
  6
CONTINUOUS
 62
7
100
AcDbCircle
 10
63.02507687250129
 20
155.5408157421488
 30
0.000000000000000
 40
1.000000000000000
100
AcDbArc
 50
225.0000000000362
 51
360.0000000000000
  0
ARC
  5
140
100
AcDbEntity
  8
5
  6
PHANTOM
 62
1
100
AcDbCircle
 10
63.02507687250129
 20
163.5527081905979
 30
0.000000000000000
 40
1.000000000000000
100
AcDbArc
 50
225.0000000000362
 51
360.0000000000000
  0
ARC
  5
141
100
AcDbEntity
  8
1
  6
CONTINUOUS
 62
7
100
AcDbCircle
 10
63.93531674841688
 20
166.2503443323221
 30
0.000000000000000
 40
0.08976012408467680
100
AcDbArc
 50
6.999999999999999e-15
 51
80.69601655698820
  0
ARC
  5
142
100
AcDbEntity
  8
1
  6
CONTINUOUS
 62
7
100
AcDbCircle
 10
55.52507687250129
 20
162.3337089609531
 30
0.000000000000000
 40
0.5000000000000000
100
AcDbArc
 50
180.0000000000000
 51
225.0000000000362
  0
LINE
  5
143
100
AcDbEntity
  8
1
  6
CONTINUOUS
 62
7
100
AcDbLine
 10
55.02507687250154
 20
166.3579507564222
 30
0.000000000000000
 11
55.02507687250154
 21
162.3337089609531
 31
0.000000000000000
  0
LINE
  5
144
100
AcDbEntity
  8
1
  6
CONTINUOUS
 62
7
100
AcDbLine
 10
54.82507687258890
 20
166.2503443323227
 30
0.000000000000000
 11
54.82507687258890
 21
165.5408157421537
 31
0.000000000000000
  0
ARC
  5
145
100
AcDbEntity
  8
1
  6
CONTINUOUS
 62
7
100
AcDbCircle
 10
54.91483699667333
 20
166.2503443323221
 30
0.000000000000000
 40
0.08976012408467680
100
AcDbArc
 50
99.30398344301180
 51
180.0000000000000
  0
LINE
  5
146
100
AcDbEntity
  8
1
  6
CONTINUOUS
 62
7
100
AcDbLine
 10
75.02507687250140
 20
186.5408157421535
 30
0.000000000000000
 11
52.02507687250154
 21
186.5408157421535
 31
0.000000000000000
  0
ARC
  5
147
100
AcDbEntity
  8
1
  6
CONTINUOUS
 62
7
100
AcDbCircle
 10
79.59916762719701
 20
177.0408157421896
 30
0.000000000000000
 40
0.5000000000000000
100
AcDbArc
 50
352.6925845526094
 51
450.0000000000000
  0
LINE
  5
148
100
AcDbEntity
  8
1
  6
CONTINUOUS
 62
7
100
AcDbLine
 10
75.02507687250140
 20
179.0408157421538
 30
0.000000000000000
 11
71.52507687250198
 21
179.0408157421538
 31
0.000000000000000
  0
CIRCLE
  5
149
100
AcDbEntity
  8
1
  6
CONTINUOUS
 62
7
100
AcDbCircle
 10
72.02507687250140
 20
182.5408157421538
 30
0.000000000000000
 40
3.000000000000000
  0
LINE
  5
14A
100
AcDbEntity
  8
4
  6
CENTER
 62
1
100
AcDbLine
 10
68.52507687250142
 20
182.5408157421538
 30
0.000000000000000
 11
75.52507687250140
 21
182.5408157421538
 31
0.000000000000000
  0
LINE
  5
14B
100
AcDbEntity
  8
1
  6
CONTINUOUS
 62
7
100
AcDbLine
 10
78.94935518573054
 20
178.7841191461473
 30
0.000000000000000
 11
80.00485818525139
 21
179.4798287910094
 31
0.000000000000000
  0
LINE
  5
14C
100
AcDbEntity
  8
1
  6
CONTINUOUS
 62
7
100
AcDbLine
 10
78.86294307402549
 20
177.5408157421896
 30
0.000000000000000
 11
79.59916762719701
 21
177.5408157421896
 31
0.000000000000000
  0
ARC
  5
14D
100
AcDbEntity
  8
1
  6
CONTINUOUS
 62
7
100
AcDbCircle
 10
79.45452430095764
 20
180.3147734692955
 30
0.000000000000000
 40
1.000000000000000
100
AcDbArc
 50
303.3899218414160
 51
354.2531398099622
  0
LINE
  5
14E
100
AcDbEntity
  8
1
  6
CONTINUOUS
 62
7
100
AcDbLine
 10
68.52507687250187
 20
182.0408157421545
 30
0.000000000000000
 11
68.52507687250903
 21
186.5408157421557
 31
0.000000000000000
  0
LINE
  5
14F
100
AcDbEntity
  8
4
  6
CENTER
 62
1
100
AcDbLine
 10
72.02507687250140
 20
186.0408157421538
 30
0.000000000000000
 11
72.02507687250140
 21
179.0408157421538
 31
0.000000000000000
  0
ARC
  5
150
100
AcDbEntity
  8
1
  6
CONTINUOUS
 62
7
100
AcDbCircle
 10
71.52507687250198
 20
182.0408157421538
 30
0.000000000000000
 40
3.000000000000000
100
AcDbArc
 50
180.0000000000000
 51
270.0000000000000
  0
LINE
  5
151
100
AcDbEntity
  8
1
  6
CONTINUOUS
 62
7
100
AcDbLine
 10
63.02507687250140
 20
166.4141720017890
 30
0.000000000000000
 11
55.82507687258885
 21
166.4141720017890
 31
0.000000000000000
  0
ARC
  5
152
100
AcDbEntity
  8
1
  6
CONTINUOUS
 62
7
100
AcDbCircle
 10
59.02507687250164
 20
182.6560529558000
 30
0.000000000000000
 40
10.49126179397637
100
AcDbArc
 50
269.9999999999987
 51
293.2776717685916
  0
ARC
  5
153
100
AcDbEntity
  8
1
  6
CONTINUOUS
 62
7
100
AcDbCircle
 10
59.02507687250164
 20
179.4635350412062
 30
0.000000000000000
 40
10.49126179397637
100
AcDbArc
 50
269.9999999999987
 51
293.2776717685916
  0
ARC
  5
154
100
AcDbEntity
  8
1
  6
CONTINUOUS
 62
7
100
AcDbCircle
 10
62.61309547446586
 20
174.3158218426910
 30
0.000000000000000
 40
1.411981398035550
100
AcDbArc
 50
293.2776717685906
 51
359.9999999999977
  0
ARC
  5
155
100
AcDbEntity
  8
1
  6
CONTINUOUS
 62
7
100
AcDbCircle
 10
62.61309547446586
 20
171.1233039280972
 30
0.000000000000000
 40
1.411981398035550
100
AcDbArc
 50
293.2776717685906
 51
359.9999999999977
  0
LINE
  5
156
100
AcDbEntity
  8
1
  6
CONTINUOUS
 62
7
100
AcDbLine
 10
52.02507687250140
 20
168.9722732472299
 30
0.000000000000000
 11
59.02507687250142
 21
168.9722732472299
 31
0.000000000000000
  0
LINE
  5
157
100
AcDbEntity
  8
1
  6
CONTINUOUS
 62
7
100
AcDbLine
 10
52.02507687250140
 20
172.1647911618237
 30
0.000000000000000
 11
59.02507687250142
 21
172.1647911618237
 31
0.000000000000000
  0
LINE
  5
158
100
AcDbEntity
  8
1
  6
CONTINUOUS
 62
7
100
AcDbLine
 10
50.02507687250140
 20
171.4575466102301
 30
0.000000000000000
 11
50.02507687250140
 21
165.5408157421538
 31
0.000000000000000
  0
ARC
  5
159
100
AcDbEntity
  8
1
  6
CONTINUOUS
 62
7
100
AcDbCircle
 10
50.46452363521416
 20
171.4575466102301
 30
0.000000000000000
 40
0.4394467627127483
100
AcDbArc
 50
109.4747288531501
 51
180.0000000000000
  0
ARC
  5
15A
100
AcDbEntity
  8
1
  6
CONTINUOUS
 62
7
100
AcDbCircle
 10
50.46452363521416
 20
168.2650286956363
 30
0.000000000000000
 40
0.4394467627127483
100
AcDbArc
 50
109.4747288531501
 51
180.0000000000000
  0
LINE
  5
15B
100
AcDbEntity
  8
4
  6
CENTER
 62
1
100
AcDbLine
 10
73.59082984028498
 20
191.5408157421537
 30
0.000000000000000
 11
47.55566594538085
 21
191.5408157421537
 31
0.000000000000000
  0
ARC
  5
15C
100
AcDbEntity
  8
1
  6
CONTINUOUS
 62
7
100
AcDbCircle
 10
77.02507687250140
 20
204.6955831633460
 30
0.000000000000000
 40
13.00000000000000
100
AcDbArc
 50
100.6719292857624
 51
180.0000000000000
  0
LINE
  5
15D
100
AcDbEntity
  8
1
  6
CONTINUOUS
 62
7
100
AcDbLine
 10
78.60072969834687
 20
208.7702891616514
 30
0.000000000000000
 11
78.26249227126188
 21
216.5408157422530
 31
0.000000000000000
  0
LINE
  5
15E
100
AcDbEntity
  8
1
  6
CONTINUOUS
 62
7
100
AcDbLine
 10
75.02507687250140
 20
196.5408157421538
 30
0.000000000000000
 11
64.02507687250142
 21
196.5408157421538
 31
0.000000000000000
  0
ARC
  5
15F
100
AcDbEntity
  8
1
  6
CONTINUOUS
 62
7
100
AcDbCircle
 10
-14.39281272459425
 20
216.1451403566753
 30
0.000000000000000
 40
96.17252558008065
100
AcDbArc
 50
347.5583771592466
 51
350.7383870005971
  0
LINE
  5
160
100
AcDbEntity
  8
5
  6
PHANTOM
 62
1
100
AcDbLine
 10
81.00366710584174
 20
189.4710978820697
 30
0.000000000000000
 11
81.16205488455148
 21
189.5625435207294
 31
0.000000000000000
  0
LINE
  5
161
100
AcDbEntity
  8
1
  6
CONTINUOUS
 62
7
100
AcDbLine
 10
79.11220305878429
 20
201.5408157421188
 30
0.000000000000000
 11
79.67856349545764
 21
201.5408157421188
 31
0.000000000000000
  0
ARC
  5
162
100
AcDbEntity
  8
1
  6
CONTINUOUS
 62
7
100
AcDbCircle
 10
79.67856349545751
 20
200.5408157421188
 30
0.000000000000000
 40
1.000000000000000
100
AcDbArc
 50
4.477607889936740
 51
90.00000000000000
  0
LINE
  5
163
100
AcDbEntity
  8
1
  6
CONTINUOUS
 62
7
100
AcDbLine
 10
54.02507687250142
 20
207.5408157421538
 30
0.000000000000000
 11
62.82917178486219
 21
207.5408157421538
 31
0.000000000000000
  0
ARC
  5
164
100
AcDbEntity
  8
1
  6
CONTINUOUS
 62
7
100
AcDbCircle
 10
62.82917178486219
 20
209.5408157421538
 30
0.000000000000000
 40
2.000000000000000
100
AcDbArc
 50
270.0000000000000
 51
341.1546117557220
  0
ARC
  5
165
100
AcDbEntity
  8
1
  6
CONTINUOUS
 62
7
100
AcDbCircle
 10
54.02507687250142
 20
205.5408157421538
 30
0.000000000000000
 40
2.000000000000000
100
AcDbArc
 50
90.00000000000000
 51
180.0000000000000
  0
ARC
  5
166
100
AcDbEntity
  8
1
  6
CONTINUOUS
 62
7
100
AcDbCircle
 10
-33.47492312749535
 20
191.5408157421537
 30
0.000000000000000
 40
114.4999999999972
100
AcDbArc
 50
12.61158779286689
 51
14.80360611550842
  0
ARC
  5
167
100
AcDbEntity
  8
1
  6
CONTINUOUS
 62
7
100
AcDbCircle
 10
74.52507687250140
 20
217.9620823247677
 30
0.000000000000000
 40
0.5000000000000000
100
AcDbArc
 50
280.6719292857641
 51
360.0000000000000
  0
LINE
  5
168
100
AcDbEntity
  8
1
  6
CONTINUOUS
 62
7
100
AcDbLine
 10
75.02507687250140
 20
221.5408157421539
 30
0.000000000000000
 11
76.25770647737367
 21
221.5408157421539
 31
0.000000000000000
  0
ARC
  5
169
100
AcDbEntity
  8
1
  6
CONTINUOUS
 62
7
100
AcDbCircle
 10
76.25770647737367
 20
220.5408157421539
 30
0.000000000000000
 40
1.000000000000000
100
AcDbArc
 50
14.80360611550842
 51
90.00000000000000
  0
LINE
  5
16A
100
AcDbEntity
  8
1
  6
CONTINUOUS
 62
7
100
AcDbLine
 10
299.5521589020288
 20
186.5408157421535
 30
0.000000000000000
 11
299.5521589020288
 21
172.1647911618237
 31
0.000000000000000
  0
LINE
  5
16B
100
AcDbEntity
  8
1
  6
CONTINUOUS
 62
7
100
AcDbLine
 10
55.02507687250154
 20
186.5408157421535
 30
0.000000000000000
 11
55.02507687250153
 21
172.1647911618237
 31
0.000000000000000
  0
LINE
  5
16C
100
AcDbEntity
  8
1
  6
CONTINUOUS
 62
7
100
AcDbLine
 10
446.0386983861049
 20
154.5408157421488
 30
0.000000000000000
 11
430.0386983861049
 21
154.5408157421488
 31
0.000000000000000
  0
ARC
  5
16D
100
AcDbEntity
  8
1
  6
CONTINUOUS
 62
7
100
AcDbCircle
 10
446.0386983861049
 20
156.5408157421486
 30
0.000000000000000
 40
2.000000000000000
100
AcDbArc
 50
270.0000000000000
 51
360.0000000000000
  0
ARC
  5
16E
100
AcDbEntity
  8
1
  6
CONTINUOUS
 62
7
100
AcDbCircle
 10
430.0386983861049
 20
156.5408157421486
 30
0.000000000000000
 40
2.000000000000000
100
AcDbArc
 50
180.0000000000000
 51
270.0000000000000
  0
LINE
  5
16F
100
AcDbEntity
  8
1
  6
CONTINUOUS
 62
7
100
AcDbLine
 10
428.0386983861049
 20
166.3800179111576
 30
0.000000000000000
 11
428.0386983861049
 21
156.5408157421486
 31
0.000000000000000
  0
LINE
  5
170
100
AcDbEntity
  8
1
  6
CONTINUOUS
 62
7
100
AcDbLine
 10
448.0386983861049
 20
156.5408157421486
 30
0.000000000000000
 11
448.0386983861049
 21
166.3800179111577
 31
0.000000000000000
  0
LINE
  5
171
100
AcDbEntity
  8
1
  6
CONTINUOUS
 62
7
100
AcDbLine
 10
406.0386983861044
 20
186.5408157421536
 30
0.000000000000000
 11
406.0386983861044
 21
176.1849650251417
 31
0.000000000000000
  0
LINE
  5
172
100
AcDbEntity
  8
1
  6
CONTINUOUS
 62
7
100
AcDbLine
 10
470.0386983861046
 20
186.5408157421536
 30
0.000000000000000
 11
470.0386983861046
 21
176.1849650251415
 31
0.000000000000000
  0
LINE
  5
173
100
AcDbEntity
  8
1
  6
CONTINUOUS
 62
7
100
AcDbLine
 10
471.0386983861046
 20
186.5408157421536
 30
0.000000000000000
 11
471.0386983861046
 21
179.0408157421295
 31
0.000000000000000
  0
LINE
  5
174
100
AcDbEntity
  8
1
  6
CONTINUOUS
 62
7
100
AcDbLine
 10
405.0386983861044
 20
186.5408157421536
 30
0.000000000000000
 11
405.0386983861044
 21
179.0408157421295
 31
0.000000000000000
  0
ARC
  5
175
100
AcDbEntity
  8
1
  6
CONTINUOUS
 62
7
100
AcDbCircle
 10
402.0386983861044
 20
191.5408157421545
 30
0.000000000000000
 40
5.000000000000000
100
AcDbArc
 50
90.00000000000000
 51
270.0000000000000
  0
LINE
  5
176
100
AcDbEntity
  8
1
  6
CONTINUOUS
 62
7
100
AcDbLine
 10
411.0386983861044
 20
196.5408157421545
 30
0.000000000000000
 11
402.0386983861044
 21
196.5408157421545
 31
0.000000000000000
  0
LINE
  5
177
100
AcDbEntity
  8
1
  6
CONTINUOUS
 62
7
100
AcDbLine
 10
402.0386983861044
 20
186.5408157421545
 30
0.000000000000000
 11
406.0386983861044
 21
186.5408157421545
 31
0.000000000000000
  0
ARC
  5
178
100
AcDbEntity
  8
1
  6
CONTINUOUS
 62
7
100
AcDbCircle
 10
474.0386983861046
 20
191.5408157421536
 30
0.000000000000000
 40
5.000000000000000
100
AcDbArc
 50
270.0000000000000
 51
450.0000000000000
  0
LINE
  5
179
100
AcDbEntity
  8
1
  6
CONTINUOUS
 62
7
100
AcDbLine
 10
465.0386983861046
 20
196.5408157421536
 30
0.000000000000000
 11
474.0386983861046
 21
196.5408157421536
 31
0.000000000000000
  0
LINE
  5
17A
100
AcDbEntity
  8
1
  6
CONTINUOUS
 62
7
100
AcDbLine
 10
406.0386983861044
 20
205.4574099449973
 30
0.000000000000000
 11
406.0386983861044
 21
196.5408157421536
 31
0.000000000000000
  0
ARC
  5
17B
100
AcDbEntity
  8
1
  6
CONTINUOUS
 62
7
100
AcDbCircle
 10
465.0386983861046
 20
205.4574099449974
 30
0.000000000000000
 40
5.000000000000000
100
AcDbArc
 50
0.000000000000000
 51
60.59964898978745
  0
ARC
  5
17C
100
AcDbEntity
  8
1
  6
CONTINUOUS
 62
7
100
AcDbCircle
 10
408.5386983861044
 20
176.1849650251417
 30
0.000000000000000
 40
2.500000000000000
100
AcDbArc
 50
180.0000000000000
 51
239.1332322064182
  0
LINE
  5
17D
100
AcDbEntity
  8
1
  6
CONTINUOUS
 62
7
100
AcDbLine
 10
467.0386983861050
 20
186.5408157422794
 30
0.000000000000000
 11
467.0386983861050
 21
176.4694391566129
 31
0.000000000000000
  0
LINE
  5
17E
100
AcDbEntity
  8
1
  6
CONTINUOUS
 62
7
100
AcDbLine
 10
409.0386983861044
 20
186.5408157421575
 30
0.000000000000000
 11
409.0386983861044
 21
176.4694391566127
 31
0.000000000000000
  0
LINE
  5
17F
100
AcDbEntity
  8
1
  6
CONTINUOUS
 62
7
100
AcDbLine
 10
409.0386983861048
 20
186.5408157421597
 30
0.000000000000000
 11
467.0386983861053
 21
186.5408157422774
 31
0.000000000000000
  0
LINE
  5
180
100
AcDbEntity
  8
1
  6
CONTINUOUS
 62
7
100
AcDbLine
 10
418.0386983861049
 20
172.1647911618238
 30
0.000000000000000
 11
418.0386983861049
 21
168.9722732472300
 31
0.000000000000000
  0
LINE
  5
181
100
AcDbEntity
  8
1
  6
CONTINUOUS
 62
7
100
AcDbLine
 10
458.0386983861049
 20
172.1647911618238
 30
0.000000000000000
 11
458.0386983861049
 21
168.9722732472300
 31
0.000000000000000
  0
LINE
  5
182
100
AcDbEntity
  8
1
  6
CONTINUOUS
 62
7
100
AcDbLine
 10
405.0386983861044
 20
179.0408157421295
 30
0.000000000000000
 11
406.0386983861044
 21
179.0408157421295
 31
0.000000000000000
  0
LINE
  5
183
100
AcDbEntity
  8
1
  6
CONTINUOUS
 62
7
100
AcDbLine
 10
470.0386983861048
 20
179.0408157421295
 30
0.000000000000000
 11
471.0386983861046
 21
179.0408157421295
 31
0.000000000000000
  0
ARC
  5
184
100
AcDbEntity
  8
1
  6
CONTINUOUS
 62
7
100
AcDbCircle
 10
466.3386983861434
 20
178.5408308235356
 30
0.000000000000000
 40
0.5000000000000000
100
AcDbArc
 50
270.0000000000000
 51
360.0000000000000
  0
ARC
  5
185
100
AcDbEntity
  8
1
  6
CONTINUOUS
 62
7
100
AcDbCircle
 10
463.8386983861434
 20
178.5408308235356
 30
0.000000000000000
 40
0.5000000000000000
100
AcDbArc
 50
180.0000000000000
 51
270.0000000000000
  0
ARC
  5
186
100
AcDbEntity
  8
1
  6
CONTINUOUS
 62
7
100
AcDbCircle
 10
438.0386983861431
 20
225.5408157421188
 30
0.000000000000000
 40
56.80000000000014
100
AcDbArc
 50
263.4288687864048
 51
276.5711312135928
  0
ARC
  5
187
100
AcDbEntity
  8
1
  6
CONTINUOUS
 62
7
100
AcDbCircle
 10
438.0386983861431
 20
225.5408157421188
 30
0.000000000000000
 40
55.30000000000015
100
AcDbArc
 50
263.2498101982354
 51
276.7501898017547
  0
LINE
  5
188
100
AcDbEntity
  8
1
  6
CONTINUOUS
 62
7
100
AcDbLine
 10
409.2386983861431
 20
176.5836916435762
 30
0.000000000000000
 11
409.2386983861433
 21
178.5408308235371
 31
0.000000000000000
  0
LINE
  5
189
100
AcDbEntity
  8
1
  6
CONTINUOUS
 62
7
100
AcDbLine
 10
463.3386983861434
 20
178.5408308235356
 30
0.000000000000000
 11
463.3386983861434
 21
186.5408157422700
 31
0.000000000000000
  0
LINE
  5
18A
100
AcDbEntity
  8
1
  6
CONTINUOUS
 62
7
100
AcDbLine
 10
466.8386983861434
 20
186.5408157422771
 30
0.000000000000000
 11
466.8386983861434
 21
178.5408308235356
 31
0.000000000000000
  0
LINE
  5
18B
100
AcDbEntity
  8
1
  6
CONTINUOUS
 62
7
100
AcDbLine
 10
412.7386983861433
 20
186.5408157421672
 30
0.000000000000000
 11
412.7386983861433
 21
178.5408308235357
 31
0.000000000000000
  0
LINE
  5
18C
100
AcDbEntity
  8
1
  6
CONTINUOUS
 62
7
100
AcDbLine
 10
409.2386983861433
 20
178.5408308235357
 30
0.000000000000000
 11
409.2386983861433
 21
182.7693962899299
 31
0.000000000000000
  0
LINE
  5
18D
100
AcDbEntity
  8
1
  6
CONTINUOUS
 62
7
100
AcDbLine
 10
444.5386983861382
 20
170.6241516045361
 30
0.000000000000000
 11
444.5386983861418
 21
169.1139604336753
 31
0.000000000000000
  0
LINE
  5
18E
100
AcDbEntity
  8
1
  6
CONTINUOUS
 62
7
100
AcDbLine
 10
431.5386983861420
 20
169.1139604336754
 30
0.000000000000000
 11
431.5386983861385
 21
170.6241516045370
 31
0.000000000000000
  0
LINE
  5
18F
100
AcDbEntity
  8
1
  6
CONTINUOUS
 62
7
100
AcDbLine
 10
444.5386983861382
 20
170.6241516045359
 30
0.000000000000000
 11
444.5386983861360
 21
171.5408157421278
 31
0.000000000000000
  0
LINE
  5
190
100
AcDbEntity
  8
1
  6
CONTINUOUS
 62
7
100
AcDbLine
 10
431.5386983861364
 20
171.5408157421095
 30
0.000000000000000
 11
431.5386983861385
 21
170.6241516045371
 31
0.000000000000000
  0
ARC
  5
191
100
AcDbEntity
  8
1
  6
CONTINUOUS
 62
7
100
AcDbCircle
 10
413.7386983861433
 20
178.6649157507584
 30
0.000000000000000
 40
1.000000000000000
100
AcDbArc
 50
180.0000000000000
 51
242.5982260323375
  0
ARC
  5
192
100
AcDbEntity
  8
1
  6
CONTINUOUS
 62
7
100
AcDbCircle
 10
438.0386983861431
 20
225.5408157421188
 30
0.000000000000000
 40
53.80000000000014
100
AcDbArc
 50
242.5982260323371
 51
259.2879302184640
  0
ARC
  5
193
100
AcDbEntity
  8
1
  6
CONTINUOUS
 62
7
100
AcDbCircle
 10
438.0386983861431
 20
225.5408157421188
 30
0.000000000000000
 40
56.80000000000014
100
AcDbArc
 50
262.9209031869940
 51
263.4288687864050
  0
ARC
  5
194
100
AcDbEntity
  8
1
  6
CONTINUOUS
 62
7
100
AcDbCircle
 10
438.0386983861431
 20
225.5408157421188
 30
0.000000000000000
 40
56.80000000000014
100
AcDbArc
 50
276.5711312135928
 51
277.0790968129279
  0
LINE
  5
195
100
AcDbEntity
  8
1
  6
CONTINUOUS
 62
7
100
AcDbLine
 10
428.0386983861049
 20
179.2408157421537
 30
0.000000000000000
 11
412.7386983861433
 21
179.2408157421537
 31
0.000000000000000
  0
LINE
  5
196
100
AcDbEntity
  8
1
  6
CONTINUOUS
 62
7
100
AcDbLine
 10
463.3386983861434
 20
179.2408157421537
 30
0.000000000000000
 11
448.0386983861049
 21
179.2408157421537
 31
0.000000000000000
  0
LINE
  5
197
100
AcDbEntity
  8
1
  6
CONTINUOUS
 62
7
100
AcDbLine
 10
448.0386983861049
 20
180.5408157421536
 30
0.000000000000000
 11
463.3386983861434
 21
180.5408157421536
 31
0.000000000000000
  0
LINE
  5
198
100
AcDbEntity
  8
1
  6
CONTINUOUS
 62
7
100
AcDbLine
 10
448.0386983861049
 20
184.5408157421536
 30
0.000000000000000
 11
463.3386983861432
 21
184.5408157421536
 31
0.000000000000000
  0
LINE
  5
199
100
AcDbEntity
  8
1
  6
CONTINUOUS
 62
7
100
AcDbLine
 10
428.0386983861049
 20
184.5408157421536
 30
0.000000000000000
 11
412.7386983861433
 21
184.5408157421536
 31
0.000000000000000
  0
LINE
  5
19A
100
AcDbEntity
  8
1
  6
CONTINUOUS
 62
7
100
AcDbLine
 10
428.0386983861049
 20
180.5408157421536
 30
0.000000000000000
 11
412.7386983861433
 21
180.5408157421536
 31
0.000000000000000
  0
ARC
  5
19B
100
AcDbEntity
  8
1
  6
CONTINUOUS
 62
7
100
AcDbCircle
 10
438.0386983861049
 20
157.5408157421535
 30
0.000000000000000
 40
60.00000000000000
100
AcDbArc
 50
117.9528865893867
 51
119.4003510102129
  0
ARC
  5
19C
100
AcDbEntity
  8
1
  6
CONTINUOUS
 62
7
100
AcDbCircle
 10
438.0386983861049
 20
157.5408157421535
 30
0.000000000000000
 40
60.00000000000000
100
AcDbArc
 50
60.59964898978744
 51
62.04711341061329
  0
ARC
  5
19D
100
AcDbEntity
  8
1
  6
CONTINUOUS
 62
7
100
AcDbCircle
 10
438.0386983861049
 20
157.5408157421535
 30
0.000000000000000
 40
60.00000000000000
100
AcDbArc
 50
62.04711341061329
 51
117.9528865893867
  0
ARC
  5
19E
100
AcDbEntity
  8
1
  6
CONTINUOUS
 62
7
100
AcDbCircle
 10
438.0386983861049
 20
225.5408157421538
 30
0.000000000000000
 40
57.00000000000000
100
AcDbArc
 50
239.4179368228334
 51
300.5820631771661
  0
LINE
  5
19F
100
AcDbEntity
  8
1
  6
CONTINUOUS
 62
7
100
AcDbLine
 10
428.0386983861049
 20
169.4248643557611
 30
0.000000000000000
 11
428.0386983861054
 21
186.5408157421984
 31
0.000000000000000
  0
LINE
  5
1A0
100
AcDbEntity
  8
1
  6
CONTINUOUS
 62
7
100
AcDbLine
 10
448.0386983861049
 20
169.4248643557611
 30
0.000000000000000
 11
448.0386983861049
 21
186.5408157422390
 31
0.000000000000000
  0
LINE
  5
1A1
100
AcDbEntity
  8
1
  6
CONTINUOUS
 62
7
100
AcDbLine
 10
425.0386983861049
 20
205.5408157421536
 30
0.000000000000000
 11
425.0386983861049
 21
186.5408157421922
 31
0.000000000000000
  0
LINE
  5
1A2
100
AcDbEntity
  8
1
  6
CONTINUOUS
 62
7
100
AcDbLine
 10
451.0386983861049
 20
205.5408157421536
 30
0.000000000000000
 11
451.0386983861049
 21
186.5408157422450
 31
0.000000000000000
  0
LINE
  5
1A3
100
AcDbEntity
  8
1
  6
CONTINUOUS
 62
7
100
AcDbLine
 10
427.0386983861049
 20
207.5408157421536
 30
0.000000000000000
 11
449.0386983861049
 21
207.5408157421536
 31
0.000000000000000
  0
ARC
  5
1A4
100
AcDbEntity
  8
1
  6
CONTINUOUS
 62
7
100
AcDbCircle
 10
427.0386983861049
 20
205.5408157421536
 30
0.000000000000000
 40
2.000000000000000
100
AcDbArc
 50
90.00000000000000
 51
180.0000000000000
  0
ARC
  5
1A5
100
AcDbEntity
  8
1
  6
CONTINUOUS
 62
7
100
AcDbCircle
 10
449.0386983861049
 20
205.5408157421536
 30
0.000000000000000
 40
2.000000000000000
100
AcDbArc
 50
0.000000000000000
 51
90.00000000000000
  0
LINE
  5
1A6
100
AcDbEntity
  8
1
  6
CONTINUOUS
 62
7
100
AcDbLine
 10
474.0386983861046
 20
186.5408157421536
 30
0.000000000000000
 11
470.0386983861050
 21
186.5408157421536
 31
0.000000000000000
  0
LINE
  5
1A7
100
AcDbEntity
  8
1
  6
CONTINUOUS
 62
7
100
AcDbLine
 10
470.0386983861046
 20
205.4574099449974
 30
0.000000000000000
 11
470.0386983861046
 21
196.5408157421536
 31
0.000000000000000
  0
ARC
  5
1A8
100
AcDbEntity
  8
1
  6
CONTINUOUS
 62
7
100
AcDbCircle
 10
411.0386983861044
 20
205.4574099449973
 30
0.000000000000000
 40
5.000000000000000
100
AcDbArc
 50
119.4003510102127
 51
180.0000000000000
  0
ARC
  5
1A9
100
AcDbEntity
  8
1
  6
CONTINUOUS
 62
7
100
AcDbCircle
 10
467.5386983861046
 20
176.1849650251415
 30
0.000000000000000
 40
2.500000000000000
100
AcDbArc
 50
300.8667677935815
 51
360.0000000000000
  0
ARC
  5
1AA
100
AcDbEntity
  8
1
  6
CONTINUOUS
 62
7
100
AcDbCircle
 10
409.7386983861433
 20
178.5408308235357
 30
0.000000000000000
 40
0.5000000000000000
100
AcDbArc
 50
180.0000000000000
 51
270.0000000000000
  0
ARC
  5
1AB
100
AcDbEntity
  8
1
  6
CONTINUOUS
 62
7
100
AcDbCircle
 10
412.2386983861433
 20
178.5408308235357
 30
0.000000000000000
 40
0.5000000000000000
100
AcDbArc
 50
270.0000000000000
 51
360.0000000000000
  0
LINE
  5
1AC
100
AcDbEntity
  8
1
  6
CONTINUOUS
 62
7
100
AcDbLine
 10
466.8386983861433
 20
176.5836916435762
 30
0.000000000000000
 11
466.8386983861431
 21
178.5408308235371
 31
0.000000000000000
  0
LINE
  5
1AD
100
AcDbEntity
  8
1
  6
CONTINUOUS
 62
7
100
AcDbLine
 10
466.3386983861434
 20
178.0408308235357
 30
0.000000000000000
 11
463.8386983861434
 21
178.0408308235357
 31
0.000000000000000
  0
LINE
  5
1AE
100
AcDbEntity
  8
1
  6
CONTINUOUS
 62
7
100
AcDbLine
 10
412.2386983861433
 20
178.0408308235357
 30
0.000000000000000
 11
409.7386983861433
 21
178.0408308235357
 31
0.000000000000000
  0
LINE
  5
1AF
100
AcDbEntity
  8
1
  6
CONTINUOUS
 62
7
100
AcDbLine
 10
409.2386983861433
 20
182.7693962899299
 30
0.000000000000000
 11
409.2386983861433
 21
186.5408157421601
 31
0.000000000000000
  0
LINE
  5
1B0
100
AcDbEntity
  8
1
  6
CONTINUOUS
 62
7
100
AcDbLine
 10
409.7386983861433
 20
182.8921840937830
 30
0.000000000000000
 11
412.2386983861429
 21
182.8921840937830
 31
0.000000000000000
  0
LINE
  5
1B1
100
AcDbEntity
  8
1
  6
CONTINUOUS
 62
7
100
AcDbLine
 10
466.3386983860653
 20
182.8921840938718
 30
0.000000000000000
 11
463.8386983860653
 21
182.8921840938640
 31
0.000000000000000
  0
ARC
  5
1B2
100
AcDbEntity
  8
1
  6
CONTINUOUS
 62
7
100
AcDbCircle
 10
462.3386983861434
 20
178.6649157507584
 30
0.000000000000000
 40
1.000000000000000
100
AcDbArc
 50
297.4017739676625
 51
360.0000000000000
  0
LINE
  5
1B3
100
AcDbEntity
  8
1
  6
CONTINUOUS
 62
7
100
AcDbLine
 10
411.4394311658424
 20
175.1277322881032
 30
0.000000000000000
 11
411.8707596698730
 21
175.1277322881032
 31
0.000000000000000
  0
LINE
  5
1B4
100
AcDbEntity
  8
1
  6
CONTINUOUS
 62
7
100
AcDbLine
 10
464.2066371024136
 20
175.1277322881032
 30
0.000000000000000
 11
464.6379656063669
 21
175.1277322881032
 31
0.000000000000000
  0
ARC
  5
1B5
100
AcDbEntity
  8
1
  6
CONTINUOUS
 62
7
100
AcDbCircle
 10
438.0386983861431
 20
225.5408157421188
 30
0.000000000000000
 40
53.80000000000014
100
AcDbArc
 50
280.7120697814528
 51
297.4017739676628
  0
ARC
  5
1B6
100
AcDbEntity
  8
1
  6
CONTINUOUS
 62
7
100
AcDbCircle
 10
409.5386983861046
 20
176.7555720715520
 30
0.000000000000000
 40
0.5000000000000000
100
AcDbArc
 50
180.0000000000000
 51
239.7068246616254
  0
LINE
  5
1B7
100
AcDbEntity
  8
1
  6
CONTINUOUS
 62
7
100
AcDbLine
 10
409.0386983861046
 20
177.5408157422252
 30
0.000000000000000
 11
409.2386983861163
 21
177.5408157422254
 31
0.000000000000000
  0
ARC
  5
1B8
100
AcDbEntity
  8
1
  6
CONTINUOUS
 62
7
100
AcDbCircle
 10
438.0386983861431
 20
225.5408157421188
 30
0.000000000000000
 40
56.80000000000014
100
AcDbArc
 50
280.1401363070627
 51
300.4670157867743
  0
ARC
  5
1B9
100
AcDbEntity
  8
1
  6
CONTINUOUS
 62
7
100
AcDbCircle
 10
438.0386983861431
 20
225.5408157421188
 30
0.000000000000000
 40
56.80000000000014
100
AcDbArc
 50
239.5329842132262
 51
259.8598636928585
  0
ARC
  5
1BA
100
AcDbEntity
  8
1
  6
CONTINUOUS
 62
7
100
AcDbCircle
 10
438.0386983861049
 20
225.5408157421538
 30
0.000000000000000
 40
60.00000000000000
100
AcDbArc
 50
239.1332322064180
 51
300.8667677935812
  0
LINE
  5
1BB
100
AcDbEntity
  8
1
  6
CONTINUOUS
 62
7
100
AcDbLine
 10
445.0386983861048
 20
171.5408157421267
 30
0.000000000000000
 11
445.0386983861048
 21
168.9722732472300
 31
0.000000000000000
  0
LINE
  5
1BC
100
AcDbEntity
  8
1
  6
CONTINUOUS
 62
7
100
AcDbLine
 10
445.0386983861064
 20
171.5408157421266
 30
0.000000000000000
 11
431.0386983860228
 21
171.5408157421137
 31
0.000000000000000
  0
LINE
  5
1BD
100
AcDbEntity
  8
1
  6
CONTINUOUS
 62
7
100
AcDbLine
 10
431.0386983861048
 20
171.5408157421137
 30
0.000000000000000
 11
431.0386983861048
 21
168.9722732472300
 31
0.000000000000000
  0
CIRCLE
  5
1BE
100
AcDbEntity
  8
1
  6
CONTINUOUS
 62
7
100
AcDbCircle
 10
402.0386983861050
 20
191.5408157421537
 30
0.000000000000000
 40
1.621000000000000
  0
CIRCLE
  5
1BF
100
AcDbEntity
  8
1
  6
CONTINUOUS
 62
1
100
AcDbCircle
 10
402.0386983861050
 20
191.5408157421537
 30
0.000000000000000
 40
2.000000000000000
  0
CIRCLE
  5
1C0
100
AcDbEntity
  8
1
  6
CONTINUOUS
 62
7
100
AcDbCircle
 10
402.0386983861050
 20
191.5408157421537
 30
0.000000000000000
 40
3.500000000000000
  0
CIRCLE
  5
1C1
100
AcDbEntity
  8
1
  6
CONTINUOUS
 62
7
100
AcDbCircle
 10
402.0386983861050
 20
191.5408157421537
 30
0.000000000000000
 40
2.500000000000000
  0
LINE
  5
1C2
100
AcDbEntity
  8
1
  6
CENTER
 62
1
100
AcDbLine
 10
407.0386983861050
 20
191.5408157421537
 30
0.000000000000000
 11
397.0386983861050
 21
191.5408157421537
 31
0.000000000000000
  0
LINE
  5
1C3
100
AcDbEntity
  8
1
  6
CENTER
 62
1
100
AcDbLine
 10
402.0386983861050
 20
196.5408157421537
 30
0.000000000000000
 11
402.0386983861050
 21
186.5408157421537
 31
0.000000000000000
  0
CIRCLE
  5
1C4
100
AcDbEntity
  8
1
  6
CONTINUOUS
 62
7
100
AcDbCircle
 10
474.0386983861046
 20
191.5408157421537
 30
0.000000000000000
 40
1.621000000000000
  0
CIRCLE
  5
1C5
100
AcDbEntity
  8
1
  6
CONTINUOUS
 62
1
100
AcDbCircle
 10
474.0386983861046
 20
191.5408157421537
 30
0.000000000000000
 40
2.000000000000000
  0
CIRCLE
  5
1C6
100
AcDbEntity
  8
1
  6
CONTINUOUS
 62
7
100
AcDbCircle
 10
474.0386983861046
 20
191.5408157421537
 30
0.000000000000000
 40
3.500000000000000
  0
CIRCLE
  5
1C7
100
AcDbEntity
  8
1
  6
CONTINUOUS
 62
7
100
AcDbCircle
 10
474.0386983861046
 20
191.5408157421537
 30
0.000000000000000
 40
2.500000000000000
  0
LINE
  5
1C8
100
AcDbEntity
  8
1
  6
CENTER
 62
1
100
AcDbLine
 10
469.0386983861046
 20
191.5408157421537
 30
0.000000000000000
 11
479.0386983861046
 21
191.5408157421537
 31
0.000000000000000
  0
LINE
  5
1C9
100
AcDbEntity
  8
1
  6
CENTER
 62
1
100
AcDbLine
 10
474.0386983861046
 20
196.5408157421537
 30
0.000000000000000
 11
474.0386983861046
 21
186.5408157421537
 31
0.000000000000000
  0
ENDSEC
  0
SECTION
  2
OBJECTS
  0
DICTIONARY
  5
1F7
100
AcDbDictionary
  3
ACAD_GROUP
350
1F8
  3
ACAD_LAYOUT
350
1F9
  3
ACAD_MLINESTYLE
350
1FA
  0
DICTIONARY
  5
1F8
102
{ACAD_REACTORS
330
1F7
102
}
330
1F7
100
AcDbDictionary
  0
DICTIONARY
  5
1F9
102
{ACAD_REACTORS
330
1F7
102
}
330
1F7
100
AcDbDictionary
  3
Model
350
1FB
  3
ﾚｲｱｳﾄ1
350
1FC
  3
ﾚｲｱｳﾄ2
350
1FD
  0
DICTIONARY
  5
1FA
102
{ACAD_REACTORS
330
1F7
102
}
330
1F7
100
AcDbDictionary
  3
STANDARD
350
1FE
  0
LAYOUT
  5
1FB
102
{ACAD_REACTORS
330
1F9
102
}
330
1F9
100
AcDbPlotSettings
 70
11952
  4
A3
 44
297.000000
 45
420.000000
 73
  1
 72
  1
100
AcDbLayout
  1
Model
 71
0
330
1EE
  0
LAYOUT
  5
1FC
102
{ACAD_REACTORS
330
1F9
102
}
330
1F9
100
AcDbPlotSettings
100
AcDbLayout
  1
ﾚｲｱｳﾄ1
 71
1
330
1EF
  0
LAYOUT
  5
1FD
102
{ACAD_REACTORS
330
1F9
102
}
330
1F9
100
AcDbPlotSettings
100
AcDbLayout
  1
ﾚｲｱｳﾄ2
 71
2
330
1F0
  0
MLINESTYLE
  5
1FE
102
{ACAD_REACTORS
330
1FA
102
}
330
1FA
100
AcDbMlineStyle
  2
STANDARD
 70
     0
  3

 62
   256
 51
90.00
 52
90.00
 71
     2
 49
0.50
 62
   256
  6
BYLAYER
 49
-0.50
 62
   256
  6
BYLAYER
  0
ENDSEC
  0
EOF
