  0
SECTION
  2
HEADER
  9
$ACADVER
  1
AC1015
  9
$DWGCODEPAGE
  3
ANSI_932
  9
$LTSCALE
 40
20.0
  9
$FILLMODE
 70
     1
  9
$CLAYER
  8
0
  9
$PDMODE
 70
     0
  9
$SPLFRAME
 70
     0
  9
$SPLINETYPE
 70
     6
  9
$SPLINESEGS
 70
     8
  9
$DIMASZ
 40
2.000000
  9
$DIMEXE
 40
1.500000
  9
$DIMEXO
 40
0.800000
  9
$DIMTAD
 70
     1
  9
$DIMTIH
 70
     0
  9
$DIMTOH
 70
     0
  9
$DIMTVP
 40
0.500000
  9
$DIMTXT
 40
3.100000
  9
$EXTMIN
 10
0.000000
 20
0.000000
 30
0.000000
  9
$EXTMAX
 10
297.000000
 20
420.000000
 30
0.000000
  9
$MEASUREMENT
 70
  1
  9
$LIMMIN
 10
0.000000
 20
0.000000
  9
$LIMMAX
 10
297.000000
 20
420.000000
  9
$HANDSEED
  5
124
  9
$LWDISPLAY
290
     0
  9
$DIMBLK
  1
_OPEN
  9
$DIMDEC
 70
     2
  9
$DIMADEC
 70
     2
  9
$DIMAUNIT
 70
     0
  9
$DIMZIN
 70
     8
  9
$DIMAZIN
 70
     2
  9
$DIMTOFL
 70
     1
  0
ENDSEC
  0
SECTION
  2
CLASSES
  0
ENDSEC
  0
SECTION
  2
TABLES
  0
TABLE
  2
VPORT
  5
F1
100
AcDbSymbolTable
 70
     1
  0
VPORT
  5
F2
100
AcDbSymbolTableRecord
100
AcDbViewportTableRecord
  2
*ACTIVE
 70
     0
 12
150.749999
 22
149.750000
 40
263.499999
 41
1.068311
  0
ENDTAB
  0
TABLE
  2
LTYPE
  5
F3
100
AcDbSymbolTable
 70
     2
  0
LTYPE
  5
F4
100
AcDbSymbolTableRecord
100
AcDbLinetypeTableRecord
  2
BYBLOCK
 70
     0
  3

 72
    65
 73
     0
 40
0.0
  0
LTYPE
  5
F5
100
AcDbSymbolTableRecord
100
AcDbLinetypeTableRecord
  2
BYLAYER
 70
     0
  3

 72
    65
 73
     0
 40
0.0
  0
LTYPE
  5
F6
100
AcDbSymbolTableRecord
100
AcDbLinetypeTableRecord
  2
CONTINUOUS
 70
     0
  3
Solid line (NEC CAE2D for Win R15.2 : 2020.05.22)
 72
    65
 73
     0
 40
0.0
  0
LTYPE
  5
F7
100
AcDbSymbolTableRecord
100
AcDbLinetypeTableRecord
  2
CENTER
 70
     0
  3
____ _ ____ _ ____ _ ____ _ ____ _ ____
 72
    65
 73
     4
 40
2.0
 49
1.25
 74
     0
 49
-0.25
 74
     0
 49
0.25
 74
     0
 49
-0.25
 74
     0
  0
ENDTAB
  0
TABLE
  2
LAYER
  5
F8
100
AcDbSymbolTable
 70
    13
  0
LAYER
  5
F9
100
AcDbSymbolTableRecord
100
AcDbLayerTableRecord
  2
0
 70
     0
 62
     7
  6
CONTINUOUS
370
    -3
390

  0
LAYER
  5
FA
100
AcDbSymbolTableRecord
100
AcDbLayerTableRecord
  2
A0
 70
     0
 62
     9
  6
CONTINUOUS
370
    -3
390

  0
LAYER
  5
FB
100
AcDbSymbolTableRecord
100
AcDbLayerTableRecord
  2
A4
 70
     0
 62
     9
  6
CONTINUOUS
370
    -3
390

  0
LAYER
  5
FC
100
AcDbSymbolTableRecord
100
AcDbLayerTableRecord
  2
A5
 70
     0
 62
     8
  6
CONTINUOUS
370
    -3
390

  0
LAYER
  5
FD
100
AcDbSymbolTableRecord
100
AcDbLayerTableRecord
  2
A6
 70
     0
 62
    12
  6
CONTINUOUS
370
    -3
390

  0
LAYER
  5
FE
100
AcDbSymbolTableRecord
100
AcDbLayerTableRecord
  2
A8
 70
     0
 62
    10
  6
CONTINUOUS
370
    -3
390

  0
LAYER
  5
FF
100
AcDbSymbolTableRecord
100
AcDbLayerTableRecord
  2
A9
 70
     0
 62
     9
  6
CONTINUOUS
370
    -3
390

  0
LAYER
  5
100
100
AcDbSymbolTableRecord
100
AcDbLayerTableRecord
  2
A10
 70
     0
 62
     6
  6
CONTINUOUS
370
    -3
390

  0
LAYER
  5
101
100
AcDbSymbolTableRecord
100
AcDbLayerTableRecord
  2
A20
 70
     0
 62
     1
  6
CONTINUOUS
370
    -3
390

  0
LAYER
  5
102
100
AcDbSymbolTableRecord
100
AcDbLayerTableRecord
  2
A30
 70
     0
 62
     1
  6
CONTINUOUS
370
    -3
390

  0
LAYER
  5
103
100
AcDbSymbolTableRecord
100
AcDbLayerTableRecord
  2
A40
 70
     0
 62
     9
  6
CONTINUOUS
370
    -3
390

  0
LAYER
  5
104
100
AcDbSymbolTableRecord
100
AcDbLayerTableRecord
  2
A50
 70
     0
 62
    12
  6
CONTINUOUS
370
    -3
390

  0
LAYER
  5
105
100
AcDbSymbolTableRecord
100
AcDbLayerTableRecord
  2
A1023
 70
     0
 62
    16
  6
CONTINUOUS
370
    -3
390

  0
ENDTAB
  0
TABLE
  2
STYLE
  5
106
100
AcDbSymbolTable
 70
     4
  0
STYLE
  5
107
100
AcDbSymbolTableRecord
100
AcDbTextStyleTableRecord
  2
STANDARD
 70
    64
 40
0.0
 41
1.0
 50
0.0
 71
     0
 42
3.000000000000000
  3
TXT
  4

  0
STYLE
  5
108
100
AcDbSymbolTableRecord
100
AcDbTextStyleTableRecord
  2
ANKTATE
 70
    68
 40
0.0
 41
1.0
 50
0.0
 71
     0
 42
3.000000000000000
  3
TXT
  4

  0
STYLE
  5
109
100
AcDbSymbolTableRecord
100
AcDbTextStyleTableRecord
  2
KNJYOKO
 70
    64
 40
0.0
 41
1.0
 50
0.0
 71
     0
 42
3.000000000000000
  3
TXT
  4
BIGFONT
  0
STYLE
  5
10A
100
AcDbSymbolTableRecord
100
AcDbTextStyleTableRecord
  2
KNJTATE
 70
    68
 40
0.0
 41
1.0
 50
0.0
 71
     0
 42
3.000000000000000
  3
TXT
  4
BIGFONT
  0
ENDTAB
  0
TABLE
  2
VIEW
  5
10B
100
AcDbSymbolTable
 70
     0
  0
ENDTAB
  0
TABLE
  2
UCS
  5
10C
100
AcDbSymbolTable
 70
     0
  0
ENDTAB
  0
TABLE
  2
APPID
  5
10D
100
AcDbSymbolTable
 70
     1
  0
APPID
  5
10E
100
AcDbSymbolTableRecord
100
AcDbRegAppTableRecord
  2
ACAD
 70
     0
  0
ENDTAB
  0
TABLE
  2
DIMSTYLE
  5
10F
100
AcDbSymbolTable
 70
     2
100
AcDbDimStyleTable
  0
DIMSTYLE
105
110
100
AcDbSymbolTableRecord
100
AcDbDimStyleTableRecord
  2
STANDARD
 70
     0
 41
2.000000
 44
1.500000
 42
0.800000
145
0.661290
140
3.100000
144
1.000000
146
0.645161
340
107
  0
DIMSTYLE
105
111
100
AcDbSymbolTableRecord
100
AcDbDimStyleTableRecord
  2
A001
 70
     0
 41
2.000000
 44
1.500000
 42
0.800000
145
0.661290
140
3.100000
144
1.000000
146
0.645161
 77
     1
 73
     0
 74
     0
271
     2
179
     2
275
     0
 78
     8
 79
     2
172
     1
340
107
  0
ENDTAB
  0
TABLE
  2
BLOCK_RECORD
  5
112
100
AcDbSymbolTable
 70
    12
  0
BLOCK_RECORD
  5
113
100
AcDbSymbolTableRecord
100
AcDbBlockTableRecord
  2
*MODEL_SPACE
  0
BLOCK_RECORD
  5
114
100
AcDbSymbolTableRecord
100
AcDbBlockTableRecord
  2
*PAPER_SPACE
  0
BLOCK_RECORD
  5
115
100
AcDbSymbolTableRecord
100
AcDbBlockTableRecord
  2
*PAPER_SPACE0
  0
BLOCK_RECORD
  5
1
100
AcDbSymbolTableRecord
100
AcDbBlockTableRecord
  2
_NONE
  0
BLOCK_RECORD
  5
4
100
AcDbSymbolTableRecord
100
AcDbBlockTableRecord
  2
_CLOSED
  0
BLOCK_RECORD
  5
B
100
AcDbSymbolTableRecord
100
AcDbBlockTableRecord
  2
_DOT
  0
BLOCK_RECORD
  5
13
100
AcDbSymbolTableRecord
100
AcDbBlockTableRecord
  2
_OPEN
  0
BLOCK_RECORD
  5
19
100
AcDbSymbolTableRecord
100
AcDbBlockTableRecord
  2
_ORIGIN
  0
BLOCK_RECORD
  5
1E
100
AcDbSymbolTableRecord
100
AcDbBlockTableRecord
  2
_OPEN30
  0
BLOCK_RECORD
  5
24
100
AcDbSymbolTableRecord
100
AcDbBlockTableRecord
  2
_BOXFILLED
  0
BLOCK_RECORD
  5
29
100
AcDbSymbolTableRecord
100
AcDbBlockTableRecord
  2
_BOXBLANK
  0
BLOCK_RECORD
  5
31
100
AcDbSymbolTableRecord
100
AcDbBlockTableRecord
  2
_OBLIQUE
  0
BLOCK_RECORD
  5
35
100
AcDbSymbolTableRecord
100
AcDbBlockTableRecord
  2
_OPEN90
  0
BLOCK_RECORD
  5
3B
100
AcDbSymbolTableRecord
100
AcDbBlockTableRecord
  2
_CLOSEDBLANK
  0
BLOCK_RECORD
  5
41
100
AcDbSymbolTableRecord
100
AcDbBlockTableRecord
  2
_DOTBLANK
  0
ENDTAB
  0
ENDSEC
  0
SECTION
  2
BLOCKS
  0
BLOCK
  5
116
100
AcDbEntity
  8
0
100
AcDbBlockBegin
  2
*MODEL_SPACE
 70
     0
 10
0.0
 20
0.0
 30
0.0
  3
*MODEL_SPACE
  1

  0
ENDBLK
  5
117
100
AcDbEntity
  8
0
100
AcDbBlockEnd
  0
BLOCK
  5
118
100
AcDbEntity
  8
0
100
AcDbBlockBegin
  2
*PAPER_SPACE
 70
     0
 10
0.0
 20
0.0
 30
0.0
  3
*PAPER_SPACE
  1

  0
ENDBLK
  5
119
100
AcDbEntity
  8
0
100
AcDbBlockEnd
  0
BLOCK
  5
11A
100
AcDbEntity
  8
0
100
AcDbBlockBegin
  2
*PAPER_SPACE0
 70
     0
 10
0.0
 20
0.0
 30
0.0
  3
*PAPER_SPACE0
  1

  0
ENDBLK
  5
11B
100
AcDbEntity
  8
0
100
AcDbBlockEnd
  0
BLOCK
  5
2
330
1
100
AcDbEntity
  8
0
100
AcDbBlockBegin
  2
_NONE
 70
     0
 10
0.0
 20
0.0
 30
0.0
  3
_NONE
  1

  0
ENDBLK
  5
3
330
1
100
AcDbEntity
  8
0
100
AcDbBlockEnd
  0
BLOCK
  5
5
330
4
100
AcDbEntity
  8
0
100
AcDbBlockBegin
  2
_CLOSED
 70
     0
 10
0.0
 20
0.0
 30
0.0
  3
_CLOSED
  1

  0
LINE
  5
6
330
4
100
AcDbEntity
  8
0
  6
BYBLOCK
 62
     0
370
    -2
100
AcDbLine
 10
-1.0
 20
0.166667
 30
0.0
 11
0.0
 21
0.0
 31
0.0
  0
LINE
  5
7
330
4
100
AcDbEntity
  8
0
  6
BYBLOCK
 62
     0
370
    -2
100
AcDbLine
 10
0.0
 20
0.0
 30
0.0
 11
-1.0
 21
-0.166667
 31
0.0
  0
LINE
  5
8
330
4
100
AcDbEntity
  8
0
  6
BYBLOCK
 62
     0
370
    -2
100
AcDbLine
 10
-1.0
 20
0.166667
 30
0.0
 11
-1.0
 21
-0.166667
 31
0.0
  0
LINE
  5
9
330
4
100
AcDbEntity
  8
0
  6
BYBLOCK
 62
     0
370
    -2
100
AcDbLine
 10
0.0
 20
0.0
 30
0.0
 11
-1.0
 21
0.0
 31
0.0
  0
ENDBLK
  5
A
330
4
100
AcDbEntity
  8
0
100
AcDbBlockEnd
  0
BLOCK
  5
C
330
B
100
AcDbEntity
  8
0
100
AcDbBlockBegin
  2
_DOT
 70
     0
 10
0.0
 20
0.0
 30
0.0
  3
_DOT
  1

  0
POLYLINE
  5
D
330
B
100
AcDbEntity
  8
0
  6
BYBLOCK
 62
     0
370
    -2
100
AcDb2dPolyline
 66
     1
 10
0.0
 20
0.0
 30
0.0
 70
     1
 40
0.5
 41
0.5
  0
VERTEX
  5
E
330
B
100
AcDbEntity
  8
0
  6
BYBLOCK
 62
     0
370
    -2
100
AcDbVertex
100
AcDb2dVertex
 10
-0.25
 20
0.0
 30
0.0
 42
1.0
  0
VERTEX
  5
F
330
B
100
AcDbEntity
  8
0
  6
BYBLOCK
 62
     0
370
    -2
100
AcDbVertex
100
AcDb2dVertex
 10
0.25
 20
0.0
 30
0.0
 42
1.0
  0
SEQEND
  5
10
330
B
100
AcDbEntity
  8
0
  6
BYBLOCK
 62
     0
370
    -2
  0
LINE
  5
11
330
B
100
AcDbEntity
  8
0
  6
BYBLOCK
 62
     0
370
    -2
100
AcDbLine
 10
-0.5
 20
0.0
 30
0.0
 11
-1.0
 21
0.0
 31
0.0
  0
ENDBLK
  5
12
330
B
100
AcDbEntity
  8
0
100
AcDbBlockEnd
  0
BLOCK
  5
14
330
13
100
AcDbEntity
  8
0
100
AcDbBlockBegin
  2
_OPEN
 70
     0
 10
0.0
 20
0.0
 30
0.0
  3
_OPEN
  1

  0
LINE
  5
15
330
13
100
AcDbEntity
  8
0
  6
BYBLOCK
 62
     0
370
    -2
100
AcDbLine
 10
-1.0
 20
0.166667
 30
0.0
 11
0.0
 21
0.0
 31
0.0
  0
LINE
  5
16
330
13
100
AcDbEntity
  8
0
  6
BYBLOCK
 62
     0
370
    -2
100
AcDbLine
 10
0.0
 20
0.0
 30
0.0
 11
-1.0
 21
-0.166667
 31
0.0
  0
LINE
  5
17
330
13
100
AcDbEntity
  8
0
  6
BYBLOCK
 62
     0
370
    -2
100
AcDbLine
 10
0.0
 20
0.0
 30
0.0
 11
-1.0
 21
0.0
 31
0.0
  0
ENDBLK
  5
18
330
13
100
AcDbEntity
  8
0
100
AcDbBlockEnd
  0
BLOCK
  5
1A
330
19
100
AcDbEntity
  8
0
100
AcDbBlockBegin
  2
_ORIGIN
 70
     0
 10
0.0
 20
0.0
 30
0.0
  3
_ORIGIN
  1

  0
CIRCLE
  5
1B
330
19
100
AcDbEntity
  8
0
  6
BYBLOCK
 62
     0
370
    -2
100
AcDbCircle
 10
0.0
 20
0.0
 30
0.0
 40
0.5
  0
LINE
  5
1C
330
19
100
AcDbEntity
  8
0
  6
BYBLOCK
 62
     0
370
    -2
100
AcDbLine
 10
0.0
 20
0.0
 30
0.0
 11
-1.0
 21
0.0
 31
0.0
  0
ENDBLK
  5
1D
330
19
100
AcDbEntity
  8
0
100
AcDbBlockEnd
  0
BLOCK
  5
1F
330
1E
100
AcDbEntity
  8
0
100
AcDbBlockBegin
  2
_OPEN30
 70
     0
 10
0.0
 20
0.0
 30
0.0
  3
_OPEN30
  1

  0
LINE
  5
20
330
1E
100
AcDbEntity
  8
0
  6
BYBLOCK
 62
     0
370
    -2
100
AcDbLine
 10
-1.0
 20
0.267949
 30
0.0
 11
0.0
 21
0.0
 31
0.0
  0
LINE
  5
21
330
1E
100
AcDbEntity
  8
0
  6
BYBLOCK
 62
     0
370
    -2
100
AcDbLine
 10
0.0
 20
0.0
 30
0.0
 11
-1.0
 21
-0.267949
 31
0.0
  0
LINE
  5
22
330
1E
100
AcDbEntity
  8
0
  6
BYBLOCK
 62
     0
370
    -2
100
AcDbLine
 10
0.0
 20
0.0
 30
0.0
 11
-1.0
 21
0.0
 31
0.0
  0
ENDBLK
  5
23
330
1E
100
AcDbEntity
  8
0
100
AcDbBlockEnd
  0
BLOCK
  5
25
330
24
100
AcDbEntity
  8
0
100
AcDbBlockBegin
  2
_BOXFILLED
 70
     0
 10
0.0
 20
0.0
 30
0.0
  3
_BOXFILLED
  1

  0
SOLID
  5
26
330
24
100
AcDbEntity
  8
0
  6
BYBLOCK
 62
     0
370
    -2
100
AcDbTrace
 10
-0.5
 20
0.5
 30
0.0
 11
0.5
 21
0.5
 31
0.0
 12
-0.5
 22
-0.5
 32
0.0
 13
0.5
 23
-0.5
 33
0.0
  0
LINE
  5
27
330
24
100
AcDbEntity
  8
0
  6
BYBLOCK
 62
     0
370
    -2
100
AcDbLine
 10
-0.5
 20
0.0
 30
0.0
 11
-1.0
 21
0.0
 31
0.0
  0
ENDBLK
  5
28
330
24
100
AcDbEntity
  8
0
100
AcDbBlockEnd
  0
BLOCK
  5
2A
330
29
100
AcDbEntity
  8
0
100
AcDbBlockBegin
  2
_BOXBLANK
 70
     0
 10
0.0
 20
0.0
 30
0.0
  3
_BOXBLANK
  1

  0
LINE
  5
2B
330
29
100
AcDbEntity
  8
0
  6
BYBLOCK
 62
     0
370
    -2
100
AcDbLine
 10
-0.5
 20
-0.5
 30
0.0
 11
0.5
 21
-0.5
 31
0.0
  0
LINE
  5
2C
330
29
100
AcDbEntity
  8
0
  6
BYBLOCK
 62
     0
370
    -2
100
AcDbLine
 10
0.5
 20
-0.5
 30
0.0
 11
0.5
 21
0.5
 31
0.0
  0
LINE
  5
2D
330
29
100
AcDbEntity
  8
0
  6
BYBLOCK
 62
     0
370
    -2
100
AcDbLine
 10
0.5
 20
0.5
 30
0.0
 11
-0.5
 21
0.5
 31
0.0
  0
LINE
  5
2E
330
29
100
AcDbEntity
  8
0
  6
BYBLOCK
 62
     0
370
    -2
100
AcDbLine
 10
-0.5
 20
0.5
 30
0.0
 11
-0.5
 21
-0.5
 31
0.0
  0
LINE
  5
2F
330
29
100
AcDbEntity
  8
0
  6
BYBLOCK
 62
     0
370
    -2
100
AcDbLine
 10
-0.5
 20
0.0
 30
0.0
 11
-1.0
 21
0.0
 31
0.0
  0
ENDBLK
  5
30
330
29
100
AcDbEntity
  8
0
100
AcDbBlockEnd
  0
BLOCK
  5
32
330
31
100
AcDbEntity
  8
0
100
AcDbBlockBegin
  2
_OBLIQUE
 70
     0
 10
0.0
 20
0.0
 30
0.0
  3
_OBLIQUE
  1

  0
LINE
  5
33
330
31
100
AcDbEntity
  8
0
  6
BYBLOCK
 62
     0
370
    -2
100
AcDbLine
 10
-0.5
 20
-0.5
 30
0.0
 11
0.5
 21
0.5
 31
0.0
  0
ENDBLK
  5
34
330
31
100
AcDbEntity
  8
0
100
AcDbBlockEnd
  0
BLOCK
  5
36
330
35
100
AcDbEntity
  8
0
100
AcDbBlockBegin
  2
_OPEN90
 70
     0
 10
0.0
 20
0.0
 30
0.0
  3
_OPEN90
  1

  0
LINE
  5
37
330
35
100
AcDbEntity
  8
0
  6
BYBLOCK
 62
     0
370
    -2
100
AcDbLine
 10
-0.5
 20
0.5
 30
0.0
 11
0.0
 21
0.0
 31
0.0
  0
LINE
  5
38
330
35
100
AcDbEntity
  8
0
  6
BYBLOCK
 62
     0
370
    -2
100
AcDbLine
 10
0.0
 20
0.0
 30
0.0
 11
-0.5
 21
-0.5
 31
0.0
  0
LINE
  5
39
330
35
100
AcDbEntity
  8
0
  6
BYBLOCK
 62
     0
370
    -2
100
AcDbLine
 10
0.0
 20
0.0
 30
0.0
 11
-1.0
 21
0.0
 31
0.0
  0
ENDBLK
  5
3A
330
35
100
AcDbEntity
  8
0
100
AcDbBlockEnd
  0
BLOCK
  5
3C
330
3B
100
AcDbEntity
  8
0
100
AcDbBlockBegin
  2
_CLOSEDBLANK
 70
     0
 10
0.0
 20
0.0
 30
0.0
  3
_CLOSEDBLANK
  1

  0
LINE
  5
3D
330
3B
100
AcDbEntity
  8
0
  6
BYBLOCK
 62
     0
370
    -2
100
AcDbLine
 10
-1.0
 20
0.1666666666666666
 30
0.0
 11
0.0
 21
0.0
 31
0.0
  0
LINE
  5
3E
330
3B
100
AcDbEntity
  8
0
  6
BYBLOCK
 62
     0
370
    -2
100
AcDbLine
 10
0.0
 20
0.0
 30
0.0
 11
-1.0
 21
-0.1666666666666666
 31
0.0
  0
LINE
  5
3F
330
3B
100
AcDbEntity
  8
0
  6
BYBLOCK
 62
     0
370
    -2
100
AcDbLine
 10
-1.0
 20
0.1666666666666666
 30
0.0
 11
-1.0
 21
-0.1666666666666666
 31
0.0
  0
ENDBLK
  5
40
330
3B
100
AcDbEntity
  8
0
100
AcDbBlockEnd
  0
BLOCK
  5
42
330
41
100
AcDbEntity
  8
0
100
AcDbBlockBegin
  2
_DOTBLANK
 70
     0
 10
0.0
 20
0.0
 30
0.0
  3
_DOTBLANK
  1

  0
CIRCLE
  5
43
330
41
100
AcDbEntity
  8
0
  6
BYBLOCK
 62
     0
370
    -2
100
AcDbCircle
 10
0.0
 20
0.0
 30
0.0
 40
0.5
  0
LINE
  5
44
330
41
100
AcDbEntity
  8
0
  6
BYBLOCK
 62
     0
370
    -2
100
AcDbLine
 10
-0.5
 20
0.0
 30
0.0
 11
-1.0
 21
0.0
 31
0.0
  0
ENDBLK
  5
45
330
41
100
AcDbEntity
  8
0
100
AcDbBlockEnd
  0
ENDSEC
  0
SECTION
  2
ENTITIES
  0
MTEXT
  5
46
100
AcDbEntity
  8
A8
  6
CONTINUOUS
 62
7
100
AcDbMText
 10
9.999997526638502
 20
18.00000076076889
 30
0.0000000000000000
 40
3.000000000000000
 41
0.0000000000000000
 44
0.6739999771118164
 71
     7
 72
     1
  1
{\H0.94x;{TYPE No.THA-472-A-1.2}}
 11
1.000000000000000
 21
0.0000000000000000
 31
0.0000000000000000
  7
STANDARD
  0
LINE
  5
47
100
AcDbEntity
  8
A6
  6
CONTINUOUS
 62
7
100
AcDbLine
 10
164.3499999999570
 20
247.9999999999554
 30
0.0000000000000000
 11
164.3499999999570
 21
272.9999999998724
 31
0.0000000000000000
  0
LINE
  5
48
100
AcDbEntity
  8
A6
  6
CONTINUOUS
 62
7
100
AcDbLine
 10
58.64999999987415
 20
247.9999999998787
 30
0.0000000000000000
 11
58.64999999987415
 21
272.9999999998725
 31
0.0000000000000000
  0
LINE
  5
49
100
AcDbEntity
  8
A6
  6
CONTINUOUS
 62
7
100
AcDbLine
 10
49.99999999989950
 20
246.9999999998790
 30
0.0000000000000000
 11
49.99999999989950
 21
247.9999999998787
 31
0.0000000000000000
  0
LINE
  5
4A
100
AcDbEntity
  8
A6
  6
CONTINUOUS
 62
7
100
AcDbLine
 10
141.4999999998744
 20
266.9999999998566
 30
0.0000000000000000
 11
141.4999999998744
 21
269.9999999998558
 31
0.0000000000000000
  0
LINE
  5
4B
100
AcDbEntity
  8
A6
  6
CONTINUOUS
 62
7
100
AcDbLine
 10
81.49999999987438
 20
266.9999999998566
 30
0.0000000000000000
 11
81.49999999987438
 21
269.9999999998558
 31
0.0000000000000000
  0
LINE
  5
4C
100
AcDbEntity
  8
A10
  6
CONTINUOUS
 62
7
100
AcDbLine
 10
116.4999999998744
 20
266.9999999998565
 30
0.0000000000000000
 11
116.4999999998744
 21
269.9999999998561
 31
0.0000000000000000
  0
LINE
  5
4D
100
AcDbEntity
  8
A10
  6
CONTINUOUS
 62
7
100
AcDbLine
 10
106.4999999998744
 20
266.9999999998566
 30
0.0000000000000000
 11
106.4999999998744
 21
269.9999999998558
 31
0.0000000000000000
  0
LINE
  5
4E
100
AcDbEntity
  8
A6
  6
CONTINUOUS
 62
7
100
AcDbLine
 10
106.4999999998744
 20
266.9999999998566
 30
0.0000000000000000
 11
81.49999999987438
 21
266.9999999998566
 31
0.0000000000000000
  0
LINE
  5
4F
100
AcDbEntity
  8
A6
  6
CONTINUOUS
 62
7
100
AcDbLine
 10
141.4999999998744
 20
266.9999999998566
 30
0.0000000000000000
 11
116.4999999998744
 21
266.9999999998566
 31
0.0000000000000000
  0
LINE
  5
50
100
AcDbEntity
  8
A6
  6
CONTINUOUS
 62
7
100
AcDbLine
 10
81.49999999987438
 20
269.9999999998558
 30
0.0000000000000000
 11
106.4999999998744
 21
269.9999999998558
 31
0.0000000000000000
  0
LINE
  5
51
100
AcDbEntity
  8
A6
  6
CONTINUOUS
 62
7
100
AcDbLine
 10
116.4999999998744
 20
269.9999999998558
 30
0.0000000000000000
 11
141.4999999998744
 21
269.9999999998558
 31
0.0000000000000000
  0
LINE
  5
52
100
AcDbEntity
  8
A6
  6
CONTINUOUS
 62
7
100
AcDbLine
 10
58.64999999987418
 20
272.9999999998724
 30
0.0000000000000000
 11
73.49999999993224
 21
272.9999999998724
 31
0.0000000000000000
  0
LINE
  5
53
100
AcDbEntity
  8
A6
  6
CONTINUOUS
 62
7
100
AcDbLine
 10
140.9999999999069
 20
267.4999999998788
 30
0.0000000000000000
 11
140.9999999999069
 21
269.4999999998788
 31
0.0000000000000000
  0
LINE
  5
54
100
AcDbEntity
  8
A6
  6
CONTINUOUS
 62
7
100
AcDbLine
 10
116.9999999999069
 20
267.4999999998788
 30
0.0000000000000000
 11
116.9999999999069
 21
269.4999999998788
 31
0.0000000000000000
  0
LINE
  5
55
100
AcDbEntity
  8
A6
  6
CONTINUOUS
 62
7
100
AcDbLine
 10
116.9999999999069
 20
267.4999999998788
 30
0.0000000000000000
 11
140.9999999999069
 21
267.4999999998788
 31
0.0000000000000000
  0
LINE
  5
56
100
AcDbEntity
  8
A6
  6
CONTINUOUS
 62
7
100
AcDbLine
 10
105.9999999999069
 20
269.9999999998788
 30
0.0000000000000000
 11
105.9999999999069
 21
269.4999999998788
 31
0.0000000000000000
  0
LINE
  5
57
100
AcDbEntity
  8
A6
  6
CONTINUOUS
 62
7
100
AcDbLine
 10
105.9999999999069
 20
269.9999999998788
 30
0.0000000000000000
 11
81.99999999990689
 21
269.9999999998788
 31
0.0000000000000000
  0
LINE
  5
58
100
AcDbEntity
  8
A6
  6
CONTINUOUS
 62
7
100
AcDbLine
 10
81.99999999990689
 20
269.4999999998788
 30
0.0000000000000000
 11
81.99999999990689
 21
269.9999999998788
 31
0.0000000000000000
  0
LINE
  5
59
100
AcDbEntity
  8
A6
  6
CONTINUOUS
 62
7
100
AcDbLine
 10
105.9999999999069
 20
269.4999999998788
 30
0.0000000000000000
 11
105.9999999999069
 21
267.4999999998788
 31
0.0000000000000000
  0
LINE
  5
5A
100
AcDbEntity
  8
A6
  6
CONTINUOUS
 62
7
100
AcDbLine
 10
105.9999999999069
 20
269.4999999998788
 30
0.0000000000000000
 11
81.99999999990689
 21
269.4999999998788
 31
0.0000000000000000
  0
LINE
  5
5B
100
AcDbEntity
  8
A6
  6
CONTINUOUS
 62
7
100
AcDbLine
 10
81.99999999990689
 20
267.4999999998788
 30
0.0000000000000000
 11
81.99999999990689
 21
269.4999999998788
 31
0.0000000000000000
  0
LINE
  5
5C
100
AcDbEntity
  8
A6
  6
CONTINUOUS
 62
7
100
AcDbLine
 10
81.99999999990689
 20
267.4999999998788
 30
0.0000000000000000
 11
105.9999999999069
 21
267.4999999998788
 31
0.0000000000000000
  0
LINE
  5
5D
100
AcDbEntity
  8
A6
  6
CONTINUOUS
 62
7
100
AcDbLine
 10
140.9999999999069
 20
269.9999999998788
 30
0.0000000000000000
 11
116.9999999999069
 21
269.9999999998788
 31
0.0000000000000000
  0
LINE
  5
5E
100
AcDbEntity
  8
A6
  6
CONTINUOUS
 62
7
100
AcDbLine
 10
140.9999999999069
 20
269.4999999998788
 30
0.0000000000000000
 11
140.9999999999069
 21
269.9999999998788
 31
0.0000000000000000
  0
LINE
  5
5F
100
AcDbEntity
  8
A6
  6
CONTINUOUS
 62
7
100
AcDbLine
 10
140.9999999999069
 20
269.4999999998788
 30
0.0000000000000000
 11
116.9999999999069
 21
269.4999999998788
 31
0.0000000000000000
  0
LINE
  5
60
100
AcDbEntity
  8
A6
  6
CONTINUOUS
 62
7
100
AcDbLine
 10
116.9999999999069
 20
269.4999999998788
 30
0.0000000000000000
 11
116.9999999999069
 21
269.9999999998788
 31
0.0000000000000000
  0
LINE
  5
61
100
AcDbEntity
  8
A6
  6
CENTER
 62
1
100
AcDbLine
 10
111.4999999999446
 20
231.6999999998789
 30
0.0000000000000000
 11
111.4999999999053
 21
281.4999999998788
 31
0.0000000000000000
  0
LINE
  5
62
100
AcDbEntity
  8
A6
  6
CONTINUOUS
 62
7
100
AcDbLine
 10
68.49999999990087
 20
249.2999999998788
 30
0.0000000000000000
 11
154.4999999999008
 21
249.2999999998788
 31
0.0000000000000000
  0
LINE
  5
63
100
AcDbEntity
  8
A6
  6
CONTINUOUS
 62
7
100
AcDbLine
 10
68.49999999990087
 20
252.2999999998788
 30
0.0000000000000000
 11
154.4999999999008
 21
252.2999999998788
 31
0.0000000000000000
  0
LINE
  5
64
100
AcDbEntity
  8
A10
  6
CONTINUOUS
 62
7
100
AcDbLine
 10
70.99999999990091
 20
247.9999999998641
 30
0.0000000000000000
 11
70.99999999991047
 21
249.2999999998787
 31
0.0000000000000000
  0
LINE
  5
65
100
AcDbEntity
  8
A10
  6
CONTINUOUS
 62
7
100
AcDbLine
 10
151.9999999999009
 20
247.9999999998641
 30
0.0000000000000000
 11
151.9999999998913
 21
249.2999999998787
 31
0.0000000000000000
  0
LINE
  5
66
100
AcDbEntity
  8
A10
  6
CONTINUOUS
 62
7
100
AcDbLine
 10
151.9999999999008
 20
256.9999999998790
 30
0.0000000000000000
 11
151.9999999999008
 21
252.2999999998789
 31
0.0000000000000000
  0
LINE
  5
67
100
AcDbEntity
  8
A10
  6
CONTINUOUS
 62
7
100
AcDbLine
 10
70.99999999990087
 20
256.9999999998790
 30
0.0000000000000000
 11
70.99999999990087
 21
252.2999999998789
 31
0.0000000000000000
  0
LINE
  5
68
100
AcDbEntity
  8
A10
  6
CONTINUOUS
 62
7
100
AcDbLine
 10
112.9999999999301
 20
247.9999999998787
 30
0.0000000000000000
 11
112.9999999999287
 21
249.2999999998787
 31
0.0000000000000000
  0
LINE
  5
69
100
AcDbEntity
  8
A10
  6
CONTINUOUS
 62
7
100
AcDbLine
 10
112.9999999999249
 20
252.2999999998788
 30
0.0000000000000000
 11
112.9999999999197
 21
256.9999999998790
 31
0.0000000000000000
  0
LINE
  5
6A
100
AcDbEntity
  8
A10
  6
CONTINUOUS
 62
7
100
AcDbLine
 10
109.9999999999301
 20
247.9999999998787
 30
0.0000000000000000
 11
109.9999999999287
 21
249.2999999998787
 31
0.0000000000000000
  0
LINE
  5
6B
100
AcDbEntity
  8
A10
  6
CONTINUOUS
 62
7
100
AcDbLine
 10
109.9999999999249
 20
252.2999999998789
 30
0.0000000000000000
 11
109.9999999999197
 21
256.9999999998790
 31
0.0000000000000000
  0
LINE
  5
6C
100
AcDbEntity
  8
A6
  6
CONTINUOUS
 62
7
100
AcDbLine
 10
68.49999999990087
 20
247.9999999998789
 30
0.0000000000000000
 11
68.49999999990084
 21
256.9999999998790
 31
0.0000000000000000
  0
LINE
  5
6D
100
AcDbEntity
  8
A6
  6
CONTINUOUS
 62
7
100
AcDbLine
 10
154.4999999999008
 20
247.9999999998789
 30
0.0000000000000000
 11
154.4999999999008
 21
256.9999999998792
 31
0.0000000000000000
  0
LINE
  5
6E
100
AcDbEntity
  8
A6
  6
CONTINUOUS
 62
7
100
AcDbLine
 10
149.4999999998969
 20
272.9999999998724
 30
0.0000000000000000
 11
164.3499999999570
 21
272.9999999998724
 31
0.0000000000000000
  0
LINE
  5
6F
100
AcDbEntity
  8
A10
  6
CONTINUOUS
 62
7
100
AcDbLine
 10
78.49999999990746
 20
272.9999999998724
 30
0.0000000000000000
 11
144.4999999999026
 21
272.9999999998724
 31
0.0000000000000000
  0
LINE
  5
70
100
AcDbEntity
  8
A10
  6
CONTINUOUS
 62
7
100
AcDbLine
 10
75.49999999993092
 20
270.9999999998723
 30
0.0000000000000000
 11
73.49999999993217
 21
272.9999999998723
 31
0.0000000000000000
  0
LINE
  5
71
100
AcDbEntity
  8
A6
  6
CONTINUOUS
 62
7
100
AcDbLine
 10
49.99999999989951
 20
247.9999999998788
 30
0.0000000000000000
 11
172.9999999998999
 21
247.9999999998789
 31
0.0000000000000000
  0
LINE
  5
72
100
AcDbEntity
  8
A10
  6
CONTINUOUS
 62
7
100
AcDbLine
 10
67.34999999986707
 20
279.9999999998787
 30
0.0000000000000000
 11
155.6499999999570
 21
279.9999999998787
 31
0.0000000000000000
  0
ARC
  5
73
100
AcDbEntity
  8
A10
  6
CONTINUOUS
 62
7
100
AcDbCircle
 10
155.6499999999570
 20
272.7999999998725
 30
0.0000000000000000
 40
7.200000000000000
100
AcDbArc
 50
1.591754176585380
 51
90.00000000000000
  0
ARC
  5
74
100
AcDbEntity
  8
A10
  6
CONTINUOUS
 62
7
100
AcDbCircle
 10
67.34999999986707
 20
272.7999999998036
 30
0.0000000000000000
 40
7.200000000000000
100
AcDbArc
 50
90.00000000009049
 51
178.4082458228662
  0
LINE
  5
75
100
AcDbEntity
  8
A10
  6
CONTINUOUS
 62
7
100
AcDbLine
 10
151.9999999999008
 20
256.9999999998790
 30
0.0000000000000000
 11
154.4999999999008
 21
256.9999999998790
 31
0.0000000000000000
  0
LINE
  5
76
100
AcDbEntity
  8
A10
  6
CONTINUOUS
 62
7
100
AcDbLine
 10
68.49999999990084
 20
256.9999999998790
 30
0.0000000000000000
 11
70.99999999990087
 21
256.9999999998790
 31
0.0000000000000000
  0
LINE
  5
77
100
AcDbEntity
  8
A10
  6
CONTINUOUS
 62
7
100
AcDbLine
 10
109.9999999999197
 20
256.9999999998790
 30
0.0000000000000000
 11
112.9999999999197
 21
256.9999999998790
 31
0.0000000000000000
  0
LINE
  5
78
100
AcDbEntity
  8
A10
  6
CONTINUOUS
 62
7
100
AcDbLine
 10
146.4999999999193
 20
257.9999999999512
 30
0.0000000000000000
 11
146.4999999999048
 21
270.9999999998724
 31
0.0000000000000000
  0
LINE
  5
79
100
AcDbEntity
  8
A10
  6
CONTINUOUS
 62
7
100
AcDbLine
 10
147.4999999999192
 20
257.9999999999513
 30
0.0000000000000000
 11
147.4999999999048
 21
270.9999999998781
 31
0.0000000000000000
  0
LINE
  5
7A
100
AcDbEntity
  8
A6
  6
CONTINUOUS
 62
7
100
AcDbLine
 10
149.4999999998970
 20
272.9999999998725
 30
0.0000000000000000
 11
147.4999999998991
 21
270.9999999998724
 31
0.0000000000000000
  0
LINE
  5
7B
100
AcDbEntity
  8
A10
  6
CONTINUOUS
 62
7
100
AcDbLine
 10
75.49999999992409
 20
257.9999999998724
 30
0.0000000000000000
 11
75.49999999990968
 21
270.9999999998936
 31
0.0000000000000000
  0
LINE
  5
7C
100
AcDbEntity
  8
A10
  6
CONTINUOUS
 62
7
100
AcDbLine
 10
76.49999999992409
 20
257.9999999998725
 30
0.0000000000000000
 11
76.49999999990968
 21
270.9999999998724
 31
0.0000000000000000
  0
LINE
  5
7D
100
AcDbEntity
  8
A10
  6
CONTINUOUS
 62
7
100
AcDbLine
 10
146.4999999999193
 20
257.9999999999512
 30
0.0000000000000000
 11
147.4999999999192
 21
257.9999999999512
 31
0.0000000000000000
  0
LINE
  5
7E
100
AcDbEntity
  8
A10
  6
CONTINUOUS
 62
7
100
AcDbLine
 10
76.49999999992409
 20
257.9999999998726
 30
0.0000000000000000
 11
75.49999999992409
 21
257.9999999998726
 31
0.0000000000000000
  0
LINE
  5
7F
100
AcDbEntity
  8
A10
  6
CONTINUOUS
 62
7
100
AcDbLine
 10
166.0267145326009
 20
249.5499044516075
 30
0.0000000000000000
 11
164.3499999999539
 21
249.5499044516113
 31
0.0000000000000000
  0
ARC
  5
80
100
AcDbEntity
  8
A10
  6
CONTINUOUS
 62
7
100
AcDbCircle
 10
166.0499999997318
 20
250.0604380672056
 30
0.0000000000000000
 40
0.5000000000000000
100
AcDbArc
 50
279.7198677024006
 51
376.8465233048485
  0
ARC
  5
81
100
AcDbEntity
  8
A10
  6
CONTINUOUS
 62
7
100
AcDbCircle
 10
164.7499999998873
 20
257.6499044517284
 30
0.0000000000000000
 40
8.199999999999999
100
AcDbArc
 50
278.9572160592983
 51
279.7198677011427
  0
LINE
  5
82
100
AcDbEntity
  8
A10
  6
CONTINUOUS
 62
7
100
AcDbLine
 10
166.5290903332673
 20
250.2035200454850
 30
0.0000000000000000
 11
164.3499999998999
 21
257.4999044517283
 31
0.0000000000000000
  0
LINE
  5
83
100
AcDbEntity
  8
A10
  6
CONTINUOUS
 62
7
100
AcDbLine
 10
56.97328546726018
 20
249.5499044515215
 30
0.0000000000000000
 11
58.64999999990724
 21
249.5499044515278
 31
0.0000000000000000
  0
ARC
  5
84
100
AcDbEntity
  8
A10
  6
CONTINUOUS
 62
7
100
AcDbCircle
 10
56.95000000012851
 20
250.0604380671194
 30
0.0000000000000000
 40
0.5000000000000000
100
AcDbArc
 50
163.1534766952420
 51
260.2801322976899
  0
ARC
  5
85
100
AcDbEntity
  8
A10
  6
CONTINUOUS
 62
7
100
AcDbCircle
 10
58.24999999996101
 20
257.6499044516443
 30
0.0000000000000000
 40
8.199999999999999
100
AcDbArc
 50
260.2801322989478
 51
261.0427839407922
  0
LINE
  5
86
100
AcDbEntity
  8
A10
  6
CONTINUOUS
 62
7
100
AcDbLine
 10
56.47090966659268
 20
250.2035200453981
 30
0.0000000000000000
 11
58.64999999994863
 21
257.4999044516449
 31
0.0000000000000000
  0
LINE
  5
87
100
AcDbEntity
  8
A10
  6
CONTINUOUS
 62
7
100
AcDbLine
 10
144.4999999999026
 20
272.9999999998725
 30
0.0000000000000000
 11
146.4999999999048
 21
270.9999999998725
 31
0.0000000000000000
  0
LINE
  5
88
100
AcDbEntity
  8
A10
  6
CONTINUOUS
 62
7
100
AcDbLine
 10
78.49999999990740
 20
272.9999999998723
 30
0.0000000000000000
 11
76.49999999990962
 21
270.9999999998723
 31
0.0000000000000000
  0
LINE
  5
89
100
AcDbEntity
  8
A10
  6
CONTINUOUS
 62
7
100
AcDbLine
 10
53.18897168537259
 20
233.1999999998790
 30
0.0000000000000000
 11
169.8110283145231
 21
233.1999999998790
 31
0.0000000000000000
  0
ARC
  5
8A
100
AcDbEntity
  8
A6
  6
CONTINUOUS
 62
7
100
AcDbCircle
 10
169.8110283145231
 20
236.1999999998790
 30
0.0000000000000000
 40
3.000000000000000
100
AcDbArc
 50
270.0000000000000
 51
359.0000000000004
  0
LINE
  5
8B
100
AcDbEntity
  8
A6
  6
CONTINUOUS
 62
7
100
AcDbLine
 10
172.8105713999923
 20
236.1476427805671
 30
0.0000000000000000
 11
172.9999999998798
 21
246.9999999998882
 31
0.0000000000000000
  0
LINE
  5
8C
100
AcDbEntity
  8
A6
  6
CONTINUOUS
 62
7
100
AcDbLine
 10
50.18942859990355
 20
236.1476427804313
 30
0.0000000000000000
 11
49.99999999999205
 21
246.9999999997520
 31
0.0000000000000000
  0
ARC
  5
8D
100
AcDbEntity
  8
A6
  6
CONTINUOUS
 62
7
100
AcDbCircle
 10
53.18897168537259
 20
236.1999999997499
 30
0.0000000000000000
 40
3.000000000000000
100
AcDbArc
 50
181.0000000001266
 51
270.0000000001269
  0
LINE
  5
8E
100
AcDbEntity
  8
A10
  6
CONTINUOUS
 62
7
100
AcDbLine
 10
49.99999999987926
 20
246.9999999998790
 30
0.0000000000000000
 11
172.9999999998796
 21
246.9999999998790
 31
0.0000000000000000
  0
LINE
  5
8F
100
AcDbEntity
  8
A10
  6
CONTINUOUS
 62
7
100
AcDbLine
 10
172.9999999998999
 20
247.9999999998789
 30
0.0000000000000000
 11
172.9999999998999
 21
246.9999999998882
 31
0.0000000000000000
  0
LINE
  5
90
100
AcDbEntity
  8
A4
  6
CONTINUOUS
 62
7
100
AcDbLine
 10
68.50000000000018
 20
171.4999999999987
 30
0.0000000000000000
 11
154.5000000000013
 21
171.4999999999987
 31
0.0000000000000000
  0
LINE
  5
91
100
AcDbEntity
  8
A4
  6
CENTER
 62
1
100
AcDbLine
 10
111.4999999999435
 20
172.9999999999986
 30
0.0000000000000000
 11
111.4999999999435
 21
48.49999999999983
 31
0.0000000000000000
  0
LINE
  5
92
100
AcDbEntity
  8
A4
  6
CONTINUOUS
 62
7
100
AcDbLine
 10
154.5000000000002
 20
171.4999999999987
 30
0.0000000000000000
 11
154.5000000000002
 21
168.9999999999987
 31
0.0000000000000000
  0
LINE
  5
93
100
AcDbEntity
  8
A4
  6
CONTINUOUS
 62
7
100
AcDbLine
 10
68.50000000000021
 20
171.4999999999987
 30
0.0000000000000000
 11
68.50000000000021
 21
168.9999999999987
 31
0.0000000000000000
  0
LINE
  5
94
100
AcDbEntity
  8
A4
  6
CENTER
 62
1
100
AcDbLine
 10
111.4999999999435
 20
172.9999999999987
 30
0.0000000000000000
 11
111.4999999999435
 21
48.49999999999983
 31
0.0000000000000000
  0
SPLINE
  5
95
100
AcDbEntity
  8
A10
  6
CONTINUOUS
 62
1
100
AcDbSpline
210
0.0000000000000000
220
0.0000000000000000
230
1.000000000000000
 70
     8
 71
     3
 72
    14
 73
    10
 74
     0
 42
1.000000000000000e-07
 43
1.000000000000000e-07
 12
-0.07591081213098505
 22
0.4614322213025162
 32
0.0000000000000000
 13
-0.1749519482619633
 23
0.5557977892825647
 33
0.0000000000000000
 40
0.0000000000000000
 40
0.0000000000000000
 40
0.0000000000000000
 40
0.0000000000000000
 40
0.9787225031288583
 40
1.783528369678147
 40
3.329212828823942
 40
4.141089277721550
 40
5.806138909442626
 40
7.148920635549446
 40
8.145569685654769
 40
8.145569685654769
 40
8.145569685654769
 40
8.145569685654769
 10
60.85604139258247
 20
156.2376888937092
 30
0.0000000000000000
 10
60.83127618589468
 20
156.3882269265951
 30
0.0000000000000000
 10
60.78614649022778
 20
156.6625527457207
 30
0.0000000000000000
 10
60.83764565613340
 20
157.3911669683903
 30
0.0000000000000000
 10
62.08820806718425
 20
156.6713537602720
 30
0.0000000000000000
 10
60.78561157259013
 20
157.0149225683015
 30
0.0000000000000000
 10
62.18110565633945
 20
156.1486523940394
 30
0.0000000000000000
 10
61.05059261430664
 20
155.6196269629302
 30
0.0000000000000000
 10
60.91416329026559
 20
156.0530437807962
 30
0.0000000000000000
 10
60.85604139258247
 20
156.2376888937092
 30
0.0000000000000000
  0
SPLINE
  5
96
100
AcDbEntity
  8
A10
  6
CONTINUOUS
 62
1
100
AcDbSpline
210
0.0000000000000000
220
0.0000000000000000
230
1.000000000000000
 70
     8
 71
     3
 72
    12
 73
     8
 74
     0
 42
1.000000000000000e-07
 43
1.000000000000000e-07
 12
-0.2166539913173153
 22
-0.6564007652683017
 32
0.0000000000000000
 13
0.4394867800380950
 23
-0.2048344752288358
 33
0.0000000000000000
 40
0.0000000000000000
 40
0.0000000000000000
 40
0.0000000000000000
 40
0.0000000000000000
 40
1.437811610078280
 40
2.395586377864828
 40
2.995162730171498
 40
4.609016324049298
 40
5.554425788836191
 40
5.554425788836191
 40
5.554425788836191
 40
5.554425788836191
 10
62.91451359994515
 20
156.7242368699949
 30
0.0000000000000000
 10
62.81067772524987
 20
156.4096433229392
 30
0.0000000000000000
 10
62.63767327514687
 20
155.8854884123736
 30
0.0000000000000000
 10
62.20354169392452
 20
156.3754427386982
 30
0.0000000000000000
 10
61.49878455640849
 20
156.2400964987011
 30
0.0000000000000000
 10
62.40109451913916
 20
156.9635294557249
 30
0.0000000000000000
 10
62.77601527944624
 20
156.7887876871936
 30
0.0000000000000000
 10
62.91451359994515
 20
156.7242368699949
 30
0.0000000000000000
  0
SPLINE
  5
97
100
AcDbEntity
  8
A10
  6
CONTINUOUS
 62
1
100
AcDbSpline
210
0.0000000000000000
220
0.0000000000000000
230
1.000000000000000
 70
     8
 71
     3
 72
    14
 73
    10
 74
     0
 42
1.000000000000000e-07
 43
1.000000000000000e-07
 12
-0.1494323208519290
 22
0.5030211482595632
 32
0.0000000000000000
 13
-0.1273368194589466
 23
0.5944567789092616
 33
0.0000000000000000
 40
0.0000000000000000
 40
0.0000000000000000
 40
0.0000000000000000
 40
0.0000000000000000
 40
0.5571443088701327
 40
1.036440542161265
 40
1.455887361762801
 40
2.267763494741168
 40
3.187944610203516
 40
4.155960148063572
 40
4.606326675375718
 40
4.606326675375718
 40
4.606326675375718
 40
4.606326675375718
 10
62.18094873034100
 20
155.1897391207810
 30
0.0000000000000000
 10
62.15319694129970
 20
155.2831575774457
 30
0.0000000000000000
 10
62.10157103608638
 20
155.4569414146526
 30
0.0000000000000000
 10
62.28821877363110
 20
155.6850285804987
 30
0.0000000000000000
 10
61.93866209397036
 20
155.9820581385617
 30
0.0000000000000000
 10
62.58726118889398
 20
155.7079961725602
 30
0.0000000000000000
 10
62.76821742797732
 20
155.3067419146799
 30
0.0000000000000000
 10
62.26026889771923
 20
154.8194423644877
 30
0.0000000000000000
 10
62.20006481073391
 20
155.1004979757295
 30
0.0000000000000000
 10
62.18094873034100
 20
155.1897391207810
 30
0.0000000000000000
  0
SPLINE
  5
98
100
AcDbEntity
  8
A10
  6
CONTINUOUS
 62
1
100
AcDbSpline
210
0.0000000000000000
220
0.0000000000000000
230
1.000000000000000
 70
     8
 71
     3
 72
    15
 73
    11
 74
     0
 42
1.000000000000000e-07
 43
1.000000000000000e-07
 12
-0.6893704521356341
 22
0.2865688758713532
 32
0.0000000000000000
 13
-0.5464919106640309
 23
-0.1764191847485108
 33
0.0000000000000000
 40
0.0000000000000000
 40
0.0000000000000000
 40
0.0000000000000000
 40
0.0000000000000000
 40
1.547278782900274
 40
3.072307287326454
 40
4.123673921230293
 40
5.195413438639240
 40
7.459754900589280
 40
8.234334857603814
 40
9.512468443045469
 40
9.879480059204450
 40
9.879480059204450
 40
9.879480059204450
 40
9.879480059204450
 10
61.18369610827288
 20
154.1863015772853
 30
0.0000000000000000
 10
60.82814668355694
 20
154.3341022244438
 30
0.0000000000000000
 10
60.12216072896921
 20
154.6275781063306
 30
0.0000000000000000
 10
61.21451008246684
 20
154.6160206876823
 30
0.0000000000000000
 10
61.79129071417900
 20
155.0828352709390
 30
0.0000000000000000
 10
62.05975277520155
 20
154.2297944062258
 30
0.0000000000000000
 10
62.01750554105136
 20
153.0027185579833
 30
0.0000000000000000
 10
61.37275531536532
 20
153.6394865564952
 30
0.0000000000000000
 10
61.55023858290473
 20
154.3046292657438
 30
0.0000000000000000
 10
61.25055240138975
 20
154.2078842073240
 30
0.0000000000000000
 10
61.18369610827288
 20
154.1863015772853
 30
0.0000000000000000
  0
SPLINE
  5
99
100
AcDbEntity
  8
A10
  6
CONTINUOUS
 62
1
100
AcDbSpline
210
0.0000000000000000
220
0.0000000000000000
230
1.000000000000000
 70
     8
 71
     3
 72
    15
 73
    11
 74
     0
 42
1.000000000000000e-07
 43
1.000000000000000e-07
 12
-0.3011790336508682
 22
0.6485493129913493
 32
0.0000000000000000
 13
-0.3038075720811548
 23
0.5973233005659040
 33
0.0000000000000000
 40
0.0000000000000000
 40
0.0000000000000000
 40
0.0000000000000000
 40
0.0000000000000000
 40
1.401341084807380
 40
3.256802983785870
 40
5.186399225547176
 40
7.287638078970287
 40
8.639071352665045
 40
9.883893069359308
 40
11.24301593038800
 40
12.33382516141846
 40
12.33382516141846
 40
12.33382516141846
 40
12.33382516141846
 10
61.11632781272350
 20
152.6218628710159
 30
0.0000000000000000
 10
60.97564296147765
 20
152.9248091369553
 30
0.0000000000000000
 10
60.64868270299506
 20
153.6288749161827
 30
0.0000000000000000
 10
61.89111480050404
 20
152.6630187507918
 30
0.0000000000000000
 10
62.81027303161896
 20
154.0207728989845
 30
0.0000000000000000
 10
62.83421789766042
 20
152.5756850798185
 30
0.0000000000000000
 10
61.86671932430748
 20
151.6736632572753
 30
0.0000000000000000
 10
62.17520600415854
 20
153.1199285615353
 30
0.0000000000000000
 10
61.47489582096863
 20
151.9168737731632
 30
0.0000000000000000
 10
61.22679318075119
 20
152.4046742809603
 30
0.0000000000000000
 10
61.11632781272350
 20
152.6218628710159
 30
0.0000000000000000
  0
SPLINE
  5
9A
100
AcDbEntity
  8
A10
  6
CONTINUOUS
 62
1
100
AcDbSpline
210
0.0000000000000000
220
0.0000000000000000
230
1.000000000000000
 70
     8
 71
     3
 72
    15
 73
    11
 74
     0
 42
1.000000000000000e-07
 43
1.000000000000000e-07
 12
0.2508042990934314
 22
0.4057242501363589
 32
0.0000000000000000
 13
0.5507795595946163
 23
0.3631257408387683
 33
0.0000000000000000
 40
0.0000000000000000
 40
0.0000000000000000
 40
0.0000000000000000
 40
0.0000000000000000
 40
1.212996784253355
 40
2.274967410824405
 40
3.790635971675303
 40
4.460146340469033
 40
5.269811747789930
 40
7.190268604786363
 40
8.393898480074260
 40
9.055664412636933
 40
9.055664412636933
 40
9.055664412636933
 40
9.055664412636933
 10
63.51598107940457
 20
151.0649091184667
 30
0.0000000000000000
 10
63.61738934883032
 20
151.2289565220364
 30
0.0000000000000000
 10
63.80757988447475
 20
151.5366263376503
 30
0.0000000000000000
 10
63.78918645087059
 20
152.4113319534378
 30
0.0000000000000000
 10
65.00711717164926
 20
151.7224575276413
 30
0.0000000000000000
 10
64.04906774961090
 20
151.5378278341395
 30
0.0000000000000000
 10
65.21145514388307
 20
151.3842106301827
 30
0.0000000000000000
 10
64.00986314939563
 20
150.9167807466123
 30
0.0000000000000000
 10
63.05201140260191
 20
150.7590166253977
 30
0.0000000000000000
 10
63.39448536310736
 20
150.9848077036255
 30
0.0000000000000000
 10
63.51598107940457
 20
151.0649091184667
 30
0.0000000000000000
  0
SPLINE
  5
9B
100
AcDbEntity
  8
A10
  6
CONTINUOUS
 62
1
100
AcDbSpline
210
0.0000000000000000
220
0.0000000000000000
230
1.000000000000000
 70
     8
 71
     3
 72
    14
 73
    10
 74
     0
 42
1.000000000000000e-07
 43
1.000000000000000e-07
 12
-0.2342045331457996
 22
-0.4006469908046029
 32
0.0000000000000000
 13
-0.6999520235848422
 23
-0.1023363618780877
 33
0.0000000000000000
 40
0.0000000000000000
 40
0.0000000000000000
 40
0.0000000000000000
 40
0.0000000000000000
 40
0.7900502899259934
 40
1.720163378593611
 40
2.113126752931555
 40
2.861811788597586
 40
3.671477037526894
 40
4.714066134324685
 40
5.522484538741952
 40
5.522484538741952
 40
5.522484538741952
 40
5.522484538741952
 10
63.24650789720725
 20
152.7565991765709
 30
0.0000000000000000
 10
63.18483011076931
 20
152.6510887528232
 30
0.0000000000000000
 10
63.05054009042986
 20
152.4213626590478
 30
0.0000000000000000
 10
62.91693374235091
 20
151.9337004936885
 30
0.0000000000000000
 10
63.27372290632569
 20
151.8705225457315
 30
0.0000000000000000
 10
63.77697018495563
 20
151.8029757735250
 30
0.0000000000000000
 10
63.26966147532288
 20
152.3146408057034
 30
0.0000000000000000
 10
63.86699807861417
 20
152.8473178338597
 30
0.0000000000000000
 10
63.43512592989894
 20
152.7841760426987
 30
0.0000000000000000
 10
63.24650789720725
 20
152.7565991765709
 30
0.0000000000000000
  0
SPLINE
  5
9C
100
AcDbEntity
  8
A10
  6
CONTINUOUS
 62
1
100
AcDbSpline
210
0.0000000000000000
220
0.0000000000000000
230
1.000000000000000
 70
     8
 71
     3
 72
    13
 73
     9
 74
     0
 42
1.000000000000000e-07
 43
1.000000000000000e-07
 12
0.03331976716583540
 22
0.5691097191178187
 32
0.0000000000000000
 13
-0.3237396280936764
 23
0.2902369608999606
 33
0.0000000000000000
 40
0.0000000000000000
 40
0.0000000000000000
 40
0.0000000000000000
 40
0.0000000000000000
 40
0.8246127393565452
 40
1.962780125931454
 40
3.450916906357687
 40
4.395971081732740
 40
6.225340313061069
 40
7.315224388033089
 40
7.315224388033089
 40
7.315224388033089
 40
7.315224388033089
 10
62.97703528609735
 20
153.9243142054392
 30
0.0000000000000000
 10
62.98619392092313
 20
154.0807459135979
 30
0.0000000000000000
 10
63.00799371318816
 20
154.4530916623175
 30
0.0000000000000000
 10
63.89106433129949
 20
154.3848523782150
 30
0.0000000000000000
 10
63.76734838867354
 20
153.6936852325165
 30
0.0000000000000000
 10
64.59889828115546
 20
153.0388407206087
 30
0.0000000000000000
 10
63.40967416769398
 20
153.5364475889822
 30
0.0000000000000000
 10
63.09464817446290
 20
153.8188726582215
 30
0.0000000000000000
 10
62.97703528609735
 20
153.9243142054392
 30
0.0000000000000000
  0
LINE
  5
9D
100
AcDbEntity
  8
A10
  6
CONTINUOUS
 62
7
100
AcDbLine
 10
155.8499999999434
 20
82.10645518787157
 30
0.0000000000000000
 11
67.14999999994345
 21
82.10645518786971
 31
0.0000000000000000
  0
LINE
  5
9E
100
AcDbEntity
  8
A4
  6
CONTINUOUS
 62
7
100
AcDbLine
 10
59.28754464494961
 20
169.0000000000212
 30
0.0000000000000000
 11
163.7118305711459
 21
169.0000000000212
 31
0.0000000000000000
  0
LINE
  5
9F
100
AcDbEntity
  8
A4
  6
CONTINUOUS
 62
7
100
AcDbLine
 10
80.84968488492234
 20
50.00000000000001
 30
0.0000000000000000
 11
59.28754464493358
 21
50.00000000000001
 31
0.0000000000000000
  0
ARC
  5
A0
100
AcDbEntity
  8
A4
  6
CONTINUOUS
 62
7
100
AcDbCircle
 10
80.84968488492234
 20
50.30000000000001
 30
0.0000000000000000
 40
0.3000000000000000
100
AcDbArc
 50
270.0000000000000
 51
360.0000000000000
  0
LINE
  5
A1
100
AcDbEntity
  8
A10
  6
CONTINUOUS
 62
7
100
AcDbLine
 10
141.8888755763204
 20
50.15174850906585
 30
0.0000000000000000
 11
81.11049419346614
 21
50.15174850906585
 31
0.0000000000000000
  0
ARC
  5
A2
100
AcDbEntity
  8
A4
  6
CONTINUOUS
 62
7
100
AcDbCircle
 10
142.1496848848923
 20
50.30000000000001
 30
0.0000000000000000
 40
0.3000000000000000
100
AcDbArc
 50
209.6151419302197
 51
270.0000000000000
  0
LINE
  5
A3
100
AcDbEntity
  8
A4
  6
CONTINUOUS
 62
7
100
AcDbLine
 10
142.1496848848923
 20
50.00000000000001
 30
0.0000000000000000
 11
163.7123225746532
 21
50.00000000000001
 31
0.0000000000000000
  0
ARC
  5
A4
100
AcDbEntity
  8
A4
  6
CONTINUOUS
 62
7
100
AcDbCircle
 10
154.4996848845338
 20
68.10187899994577
 30
0.0000000000000000
 40
6.000000000000001
100
AcDbArc
 50
270.0000000000000
 51
360.0000000000000
  0
LINE
  5
A5
100
AcDbEntity
  8
A4
  6
CONTINUOUS
 62
7
100
AcDbLine
 10
68.49968488528089
 20
62.10187899994577
 30
0.0000000000000000
 11
154.4996848845338
 21
62.10187899994577
 31
0.0000000000000000
  0
LINE
  5
A6
100
AcDbEntity
  8
A4
  6
CONTINUOUS
 62
7
100
AcDbLine
 10
160.4996848845337
 20
112.6542948277042
 30
0.0000000000000000
 11
160.4996848845337
 21
68.10187899994577
 31
0.0000000000000000
  0
LINE
  5
A7
100
AcDbEntity
  8
A4
  6
CONTINUOUS
 62
7
100
AcDbLine
 10
62.99968488528089
 20
110.3000000000850
 30
0.0000000000000000
 11
159.9996848845337
 21
110.3000000000850
 31
0.0000000000000000
  0
ARC
  5
A8
100
AcDbEntity
  8
A4
  6
CONTINUOUS
 62
7
100
AcDbCircle
 10
159.9996848845337
 20
109.8000000000850
 30
0.0000000000000000
 40
0.5000000000000000
100
AcDbArc
 50
0.0000000000000000
 51
89.97705182264059
  0
LINE
  5
A9
100
AcDbEntity
  8
A4
  6
CONTINUOUS
 62
7
100
AcDbLine
 10
62.49968488528089
 20
112.6542948277042
 30
0.0000000000000000
 11
62.49968488528089
 21
68.10187899994577
 31
0.0000000000000000
  0
ARC
  5
AA
100
AcDbEntity
  8
A4
  6
CONTINUOUS
 62
7
100
AcDbCircle
 10
62.99968488528089
 20
109.8000000000850
 30
0.0000000000000000
 40
0.5000000000000000
100
AcDbArc
 50
89.97705182264059
 51
180.0000000000000
  0
ARC
  5
AB
100
AcDbEntity
  8
A4
  6
CONTINUOUS
 62
7
100
AcDbCircle
 10
68.49968488528089
 20
68.10187899994577
 30
0.0000000000000000
 40
6.000000000000001
100
AcDbArc
 50
180.0000000000000
 51
270.0000000000000
  0
LINE
  5
AC
100
AcDbEntity
  8
A4
  6
CONTINUOUS
 62
7
100
AcDbLine
 10
68.49968488487809
 20
171.4999999999749
 30
0.0000000000000000
 11
68.49968488487809
 21
168.9999999999749
 31
0.0000000000000000
  0
LINE
  5
AD
100
AcDbEntity
  8
A4
  6
CONTINUOUS
 62
7
100
AcDbLine
 10
154.4996848849366
 20
171.4999999999749
 30
0.0000000000000000
 11
68.49968488487809
 21
171.4999999999749
 31
0.0000000000000000
  0
LINE
  5
AE
100
AcDbEntity
  8
A4
  6
CONTINUOUS
 62
7
100
AcDbLine
 10
154.4996848849366
 20
171.4999999999749
 30
0.0000000000000000
 11
154.4996848849366
 21
168.9999999999749
 31
0.0000000000000000
  0
ARC
  5
AF
100
AcDbEntity
  8
A10
  6
CONTINUOUS
 62
7
100
AcDbCircle
 10
-87.00063023005686
 20
109.4999999998460
 30
0.0000000000000000
 40
260.0000000000000
100
AcDbArc
 50
347.3001084426740
 51
372.6998915574012
  0
ARC
  5
B0
100
AcDbEntity
  8
A4
  6
CONTINUOUS
 62
7
100
AcDbCircle
 10
163.7118545009940
 20
53.00000000000001
 30
0.0000000000000000
 40
3.000000000000000
100
AcDbArc
 50
270.0000000000000
 51
347.3001084426739
  0
ARC
  5
B1
100
AcDbEntity
  8
A4
  6
CONTINUOUS
 62
7
100
AcDbCircle
 10
163.7118545009198
 20
166.0000000000212
 30
0.0000000000000000
 40
3.000000000000000
100
AcDbArc
 50
12.69989155740116
 51
90.00000000000000
  0
ARC
  5
B2
100
AcDbEntity
  8
A10
  6
CONTINUOUS
 62
7
100
AcDbCircle
 10
310.0006302299438
 20
109.4999999998460
 30
0.0000000000000000
 40
260.0000000000000
100
AcDbArc
 50
167.3001084425987
 51
192.6998915573260
  0
ARC
  5
B3
100
AcDbEntity
  8
A4
  6
CONTINUOUS
 62
7
100
AcDbCircle
 10
59.28814549896714
 20
166.0000000000212
 30
0.0000000000000000
 40
3.000000000000000
100
AcDbArc
 50
90.00000000000000
 51
167.3001084425988
  0
ARC
  5
B4
100
AcDbEntity
  8
A4
  6
CONTINUOUS
 62
7
100
AcDbCircle
 10
59.28814549889296
 20
53.00000000000001
 30
0.0000000000000000
 40
3.000000000000000
100
AcDbArc
 50
192.6998915573261
 51
270.0000000000000
  0
ARC
  5
B5
100
AcDbEntity
  8
A5
  6
CONTINUOUS
 62
7
100
AcDbCircle
 10
263.2999999999446
 20
168.9999999999749
 30
0.0000000000000000
 40
2.500000000000000
100
AcDbArc
 50
90.00000000000000
 51
180.0000000000000
  0
ARC
  5
B6
100
AcDbEntity
  8
A5
  6
CONTINUOUS
 62
7
100
AcDbCircle
 10
279.4999999999350
 20
94.66390529664301
 30
0.0000000000000000
 40
5.000000000000000
100
AcDbArc
 50
329.4232803927686
 51
360.0000000000000
  0
LINE
  5
B7
100
AcDbEntity
  8
A5
  6
CONTINUOUS
 62
7
100
AcDbLine
 10
260.7999999999446
 20
53.49999999997489
 30
0.0000000000000000
 11
260.7999999999446
 21
54.49999999986461
 31
0.0000000000000000
  0
LINE
  5
B8
100
AcDbEntity
  8
A5
  6
CONTINUOUS
 62
7
100
AcDbLine
 10
264.4999999999445
 20
54.94337567295183
 30
0.0000000000000000
 11
261.9999999999445
 21
53.49999999997483
 31
0.0000000000000000
  0
LINE
  5
B9
100
AcDbEntity
  8
A5
  6
CONTINUOUS
 62
7
100
AcDbLine
 10
261.9999999999446
 20
53.49999999997482
 30
0.0000000000000000
 11
260.7999999999446
 21
53.49999999997490
 31
0.0000000000000000
  0
LINE
  5
BA
100
AcDbEntity
  8
A5
  6
CONTINUOUS
 62
7
100
AcDbLine
 10
260.7999999999445
 20
54.49999999986461
 30
0.0000000000000000
 11
259.4999999999444
 21
54.49999999986477
 31
0.0000000000000000
  0
LINE
  5
BB
100
AcDbEntity
  8
A5
  6
CONTINUOUS
 62
7
100
AcDbLine
 10
259.4999999999445
 20
55.80000000013587
 30
0.0000000000000000
 11
264.4999999999445
 21
55.80000000013583
 31
0.0000000000000000
  0
LINE
  5
BC
100
AcDbEntity
  8
A5
  6
CONTINUOUS
 62
7
100
AcDbLine
 10
264.4999999999445
 20
55.80000000013581
 30
0.0000000000000000
 11
264.4999999999445
 21
54.94337567295179
 31
0.0000000000000000
  0
LINE
  5
BD
100
AcDbEntity
  8
A5
  6
CONTINUOUS
 62
7
100
AcDbLine
 10
268.4999999998453
 20
162.7999999994707
 30
0.0000000000000000
 11
263.7999999999446
 21
169.3000000000200
 31
0.0000000000000000
  0
LINE
  5
BE
100
AcDbEntity
  8
A5
  6
CONTINUOUS
 62
7
100
AcDbLine
 10
263.7999999999446
 20
169.3000000000200
 30
0.0000000000000000
 11
263.7999999999446
 21
171.4999999999749
 31
0.0000000000000000
  0
LINE
  5
BF
100
AcDbEntity
  8
A5
  6
CONTINUOUS
 62
7
100
AcDbLine
 10
263.7999999999446
 20
171.4999999999749
 30
0.0000000000000000
 11
263.2999999999446
 21
171.4999999999749
 31
0.0000000000000000
  0
LINE
  5
C0
100
AcDbEntity
  8
A5
  6
CONTINUOUS
 62
7
100
AcDbLine
 10
260.7999999999446
 20
168.9999999999749
 30
0.0000000000000000
 11
260.7999999999446
 21
166.4999999999748
 31
0.0000000000000000
  0
LINE
  5
C1
100
AcDbEntity
  8
A5
  6
CONTINUOUS
 62
7
100
AcDbLine
 10
260.7999999999446
 20
166.4999999999748
 30
0.0000000000000000
 11
259.4999999999445
 21
166.4999999999748
 31
0.0000000000000000
  0
LINE
  5
C2
100
AcDbEntity
  8
A5
  6
CONTINUOUS
 62
7
100
AcDbLine
 10
269.4999999999445
 20
58.51157892143942
 30
0.0000000000000000
 11
269.4999999999445
 21
66.89812099938888
 31
0.0000000000000000
  0
LINE
  5
C3
100
AcDbEntity
  8
A5
  6
CONTINUOUS
 62
7
100
AcDbLine
 10
259.4999999999446
 20
58.39812099940882
 30
0.0000000000000000
 11
263.0000000001148
 21
58.39812099940885
 31
0.0000000000000000
  0
LINE
  5
C4
100
AcDbEntity
  8
A5
  6
CONTINUOUS
 62
7
100
AcDbLine
 10
268.9999044503088
 20
118.7999999999749
 30
0.0000000000000000
 11
274.5036259999446
 21
118.7999999999749
 31
0.0000000000000000
  0
LINE
  5
C5
100
AcDbEntity
  8
A5
  6
CONTINUOUS
 62
7
100
AcDbLine
 10
274.5036259999446
 20
131.7999999999749
 30
0.0000000000000000
 11
268.9999044503086
 21
131.7999999999749
 31
0.0000000000000000
  0
LINE
  5
C6
100
AcDbEntity
  8
A5
  6
CONTINUOUS
 62
7
100
AcDbLine
 10
259.4999999999445
 20
132.7999999999749
 30
0.0000000000000000
 11
274.5036259999446
 21
132.7999999999749
 31
0.0000000000000000
  0
LINE
  5
C7
100
AcDbEntity
  8
A5
  6
CONTINUOUS
 62
7
100
AcDbLine
 10
274.5036259999446
 20
132.7999999999749
 30
0.0000000000000000
 11
274.5036259999446
 21
131.7999999999749
 31
0.0000000000000000
  0
LINE
  5
C8
100
AcDbEntity
  8
A5
  6
CONTINUOUS
 62
7
100
AcDbLine
 10
274.5036259999446
 20
118.7999999999749
 30
0.0000000000000000
 11
274.5036259999446
 21
117.7999999999749
 31
0.0000000000000000
  0
LINE
  5
C9
100
AcDbEntity
  8
A5
  6
CONTINUOUS
 62
7
100
AcDbLine
 10
274.5036259999446
 20
117.7999999999749
 30
0.0000000000000000
 11
259.4986394083228
 21
117.7999999999749
 31
0.0000000000000000
  0
LINE
  5
CA
100
AcDbEntity
  8
A5
  6
CONTINUOUS
 62
7
100
AcDbLine
 10
269.4999999999445
 20
67.90999999986821
 30
0.0000000000000000
 11
269.4999999999445
 21
66.89812099938888
 31
0.0000000000000000
  0
LINE
  5
CB
100
AcDbEntity
  8
A5
  6
CONTINUOUS
 62
7
100
AcDbLine
 10
283.8047439469449
 20
92.12044710931592
 30
0.0000000000000000
 11
269.4999999999446
 21
67.90999999986828
 31
0.0000000000000000
  0
LINE
  5
CC
100
AcDbEntity
  8
A5
  6
CONTINUOUS
 62
7
100
AcDbLine
 10
284.4999999999350
 20
162.7999999994656
 30
0.0000000000000000
 11
259.4999999999445
 21
162.7999999994706
 31
0.0000000000000000
  0
LINE
  5
CD
100
AcDbEntity
  8
A5
  6
CONTINUOUS
 62
7
100
AcDbLine
 10
261.0676155747122
 20
118.7999999999749
 30
0.0000000000000000
 11
261.0499044515188
 21
118.7999999999749
 31
0.0000000000000000
  0
LINE
  5
CE
100
AcDbEntity
  8
A5
  6
CONTINUOUS
 62
7
100
AcDbLine
 10
261.0676155747122
 20
131.7999999999749
 30
0.0000000000000000
 11
261.0499044515188
 21
131.7999999999749
 31
0.0000000000000000
  0
LINE
  5
CF
100
AcDbEntity
  8
A5
  6
CONTINUOUS
 62
7
100
AcDbLine
 10
261.0499044515188
 20
118.7999999999749
 30
0.0000000000000000
 11
261.0499044515188
 21
131.7999999999749
 31
0.0000000000000000
  0
LINE
  5
D0
100
AcDbEntity
  8
A5
  6
CONTINUOUS
 62
7
100
AcDbLine
 10
268.9999044503087
 20
118.7999999999749
 30
0.0000000000000000
 11
261.0499044515188
 21
118.7999999999749
 31
0.0000000000000000
  0
LINE
  5
D1
100
AcDbEntity
  8
A5
  6
CONTINUOUS
 62
7
100
AcDbLine
 10
268.9999044503086
 20
131.7999999999749
 30
0.0000000000000000
 11
261.7035200453638
 21
131.7999999999749
 31
0.0000000000000000
  0
LINE
  5
D2
100
AcDbEntity
  8
A5
  6
CONTINUOUS
 62
7
100
AcDbLine
 10
268.9999044527860
 20
129.7999999999749
 30
0.0000000000000000
 11
268.9999044503087
 21
131.7999999999749
 31
0.0000000000000000
  0
LINE
  5
D3
100
AcDbEntity
  8
A5
  6
CONTINUOUS
 62
7
100
AcDbLine
 10
268.9999044503089
 20
118.7999999999749
 30
0.0000000000000000
 11
268.9999044527861
 21
120.7999999999749
 31
0.0000000000000000
  0
LINE
  5
D4
100
AcDbEntity
  8
A5
  6
CONTINUOUS
 62
7
100
AcDbLine
 10
262.5499999999446
 20
120.7999999999749
 30
0.0000000000000000
 11
268.9999044527860
 21
120.7999999999749
 31
0.0000000000000000
  0
LINE
  5
D5
100
AcDbEntity
  8
A5
  6
CONTINUOUS
 62
7
100
AcDbLine
 10
262.5499999999446
 20
129.7999999999749
 30
0.0000000000000000
 11
262.5499999999446
 21
120.7999999999749
 31
0.0000000000000000
  0
LINE
  5
D6
100
AcDbEntity
  8
A5
  6
CONTINUOUS
 62
7
100
AcDbLine
 10
268.9999044527860
 20
129.7999999999749
 30
0.0000000000000000
 11
262.5499999999445
 21
129.7999999999749
 31
0.0000000000000000
  0
LINE
  5
D7
100
AcDbEntity
  8
A5
  6
CONTINUOUS
 62
7
100
AcDbLine
 10
261.7035200453638
 20
118.7999999999749
 30
0.0000000000000000
 11
261.0676155747122
 21
118.7999999999749
 31
0.0000000000000000
  0
LINE
  5
D8
100
AcDbEntity
  8
A5
  6
CONTINUOUS
 62
7
100
AcDbLine
 10
261.7035200453638
 20
131.7999999999749
 30
0.0000000000000000
 11
261.0676155747122
 21
131.7999999999749
 31
0.0000000000000000
  0
LINE
  5
D9
100
AcDbEntity
  8
A5
  6
CONTINUOUS
 62
7
100
AcDbLine
 10
284.4999999999350
 20
94.66390529664301
 30
0.0000000000000000
 11
284.4999999999350
 21
162.7999999994656
 31
0.0000000000000000
  0
LINE
  5
DA
100
AcDbEntity
  8
A5
  6
CONTINUOUS
 62
7
100
AcDbLine
 10
259.5000000001301
 20
49.99999999997480
 30
0.0000000000000000
 11
259.4999999999446
 21
168.9999999999749
 31
0.0000000000000000
  0
LINE
  5
DB
100
AcDbEntity
  8
A5
  6
CONTINUOUS
 62
7
100
AcDbLine
 10
291.4999999999435
 20
84.20137393674526
 30
0.0000000000000000
 11
291.4999999999435
 21
154.3000000001339
 31
0.0000000000000000
  0
ARC
  5
DC
100
AcDbEntity
  8
A5
  6
CONTINUOUS
 62
7
100
AcDbCircle
 10
284.4999999999436
 20
154.3000000001339
 30
0.0000000000000000
 40
7.000000000000000
100
AcDbArc
 50
0.0000000000000000
 51
90.00000000000000
  0
LINE
  5
DD
100
AcDbEntity
  8
A10
  6
CONTINUOUS
 62
7
100
AcDbLine
 10
272.1502525316379
 20
61.95213153182800
 30
0.0000000000000000
 11
289.4497474682491
 21
79.25162646843941
 31
0.0000000000000000
  0
ARC
  5
DE
100
AcDbEntity
  8
A5
  6
CONTINUOUS
 62
7
100
AcDbCircle
 10
284.4999999999435
 20
84.20137393674526
 30
0.0000000000000000
 40
7.000000000000000
100
AcDbArc
 50
315.0000000000000
 51
360.0000000000000
  0
ARC
  5
DF
100
AcDbEntity
  8
A10
  6
CONTINUOUS
 62
7
100
AcDbCircle
 10
267.2005050633321
 20
66.90187900013382
 30
0.0000000000000000
 40
7.000000000000000
100
AcDbArc
 50
289.1777129852407
 51
314.9999999999998
  0
LINE
  5
E0
100
AcDbEntity
  8
A5
  6
CONTINUOUS
 62
7
100
AcDbLine
 10
244.7751585911090
 20
116.2769564282040
 30
0.0000000000000000
 11
254.1205244198060
 21
52.58954072271159
 31
0.0000000000000000
  0
ARC
  5
E1
100
AcDbEntity
  8
A5
  6
CONTINUOUS
 62
7
100
AcDbCircle
 10
257.1006024275254
 20
53.02488355965407
 30
0.0000000000000000
 40
3.000000000000000
100
AcDbArc
 50
188.3583141430554
 51
268.9999999978745
  0
LINE
  5
E2
100
AcDbEntity
  8
A5
  6
CONTINUOUS
 62
7
100
AcDbLine
 10
257.0363815236169
 20
50.02554755556526
 30
0.0000000000000000
 11
258.4999999999443
 21
49.99999999997652
 31
0.0000000000000000
  0
LINE
  5
E3
100
AcDbEntity
  8
A10
  6
CONTINUOUS
 62
7
100
AcDbLine
 10
259.5000000001300
 20
49.99999999997492
 30
0.0000000000000000
 11
258.5000000001300
 21
49.99999999997492
 31
0.0000000000000000
  0
ARC
  5
E4
100
AcDbEntity
  8
A10
  6
CONTINUOUS
 62
7
100
AcDbCircle
 10
251.7000000000252
 20
117.3000000000901
 30
0.0000000000000000
 40
7.000000000000000
100
AcDbArc
 50
178.9646319802351
 51
188.3478941807285
  0
ARC
  5
E5
100
AcDbEntity
  8
A10
  6
CONTINUOUS
 62
7
100
AcDbCircle
 10
399.6758362613833
 20
114.6256995772228
 30
0.0000000000000000
 40
155.0000000000000
100
AcDbArc
 50
160.2590131797888
 51
178.9646319802352
  0
ARC
  5
E6
100
AcDbEntity
  8
A5
  6
CONTINUOUS
 62
7
100
AcDbCircle
 10
256.6090037626332
 20
165.9665355538075
 30
0.0000000000000000
 40
3.000000000000000
100
AcDbArc
 50
90.99999999821890
 51
160.2590131797889
  0
LINE
  5
E7
100
AcDbEntity
  8
A5
  6
CONTINUOUS
 62
7
100
AcDbLine
 10
256.5566465434146
 20
168.9660786392783
 30
0.0000000000000000
 11
258.4999999999447
 21
168.9999999999801
 31
0.0000000000000000
  0
LINE
  5
E8
100
AcDbEntity
  8
A10
  6
CONTINUOUS
 62
7
100
AcDbLine
 10
258.4999999999445
 20
168.9999999999749
 30
0.0000000000000000
 11
259.4999999999446
 21
168.9999999999749
 31
0.0000000000000000
  0
LINE
  5
E9
100
AcDbEntity
  8
A10
  6
CONTINUOUS
 62
7
100
AcDbLine
 10
258.5000000001299
 20
49.99999999997325
 30
0.0000000000000000
 11
258.4999999999445
 21
168.9999999999734
 31
0.0000000000000000
  0
LINE
  5
EA
100
AcDbEntity
  8
A10
  6
CONTINUOUS
 62
7
100
AcDbLine
 10
263.8950729999442
 20
55.80000000013580
 30
0.0000000000000000
 11
263.8950729999442
 21
58.39812099940886
 31
0.0000000000000000
  0
LINE
  5
EB
100
AcDbEntity
  8
A10
  6
CONTINUOUS
 62
7
100
AcDbLine
 10
263.8950729999442
 20
59.89812099942291
 30
0.0000000000000000
 11
263.8950729999442
 21
59.90187900013383
 31
0.0000000000000000
  0
LINE
  5
EC
100
AcDbEntity
  8
A5
  6
CONTINUOUS
 62
7
100
AcDbLine
 10
263.0000000001148
 20
58.39812099940890
 30
0.0000000000000000
 11
269.4990100184609
 21
58.51156164124834
 31
0.0000000000000000
  0
LINE
  5
ED
100
AcDbEntity
  8
A10
  6
CONTINUOUS
 62
7
100
AcDbLine
 10
263.0000000000011
 20
132.7999999999749
 30
0.0000000000000000
 11
262.9999999999543
 21
162.7999999994699
 31
0.0000000000000000
  0
LINE
  5
EE
100
AcDbEntity
  8
A10
  6
CONTINUOUS
 62
7
100
AcDbLine
 10
263.0000000001170
 20
58.39812099940895
 30
0.0000000000000000
 11
263.0000000000244
 21
117.7999999999750
 31
0.0000000000000000
  0
LINE
  5
EF
100
AcDbEntity
  8
A10
  6
CONTINUOUS
 62
7
100
AcDbLine
 10
262.9999999999917
 20
138.8000000006444
 30
0.0000000000000000
 11
284.4999999999350
 21
137.8000000006444
 31
0.0000000000000000
  0
LINE
  5
F0
100
AcDbEntity
  8
A10
  6
CONTINUOUS
 62
7
100
AcDbLine
 10
262.9999999999916
 20
111.8000000006443
 30
0.0000000000000000
 11
284.4999999999349
 21
112.8000000006443
 31
0.0000000000000000
  0
ENDSEC
  0
SECTION
  2
OBJECTS
  0
DICTIONARY
  5
11C
100
AcDbDictionary
  3
ACAD_GROUP
350
11D
  3
ACAD_LAYOUT
350
11E
  3
ACAD_MLINESTYLE
350
11F
  0
DICTIONARY
  5
11D
102
{ACAD_REACTORS
330
11C
102
}
330
11C
100
AcDbDictionary
  0
DICTIONARY
  5
11E
102
{ACAD_REACTORS
330
11C
102
}
330
11C
100
AcDbDictionary
  3
Model
350
120
  3
ﾚｲｱｳﾄ1
350
121
  3
ﾚｲｱｳﾄ2
350
122
  0
DICTIONARY
  5
11F
102
{ACAD_REACTORS
330
11C
102
}
330
11C
100
AcDbDictionary
  3
STANDARD
350
123
  0
LAYOUT
  5
120
102
{ACAD_REACTORS
330
11E
102
}
330
11E
100
AcDbPlotSettings
 70
11952
  4
A3
 44
297.000000
 45
420.000000
 73
  1
 72
  1
100
AcDbLayout
  1
Model
 71
0
330
113
  0
LAYOUT
  5
121
102
{ACAD_REACTORS
330
11E
102
}
330
11E
100
AcDbPlotSettings
100
AcDbLayout
  1
ﾚｲｱｳﾄ1
 71
1
330
114
  0
LAYOUT
  5
122
102
{ACAD_REACTORS
330
11E
102
}
330
11E
100
AcDbPlotSettings
100
AcDbLayout
  1
ﾚｲｱｳﾄ2
 71
2
330
115
  0
MLINESTYLE
  5
123
102
{ACAD_REACTORS
330
11F
102
}
330
11F
100
AcDbMlineStyle
  2
STANDARD
 70
     0
  3

 62
   256
 51
90.00
 52
90.00
 71
     2
 49
0.50
 62
   256
  6
BYLAYER
 49
-0.50
 62
   256
  6
BYLAYER
  0
ENDSEC
  0
EOF
