  0
SECTION
  2
HEADER
  9
$ACADVER
  1
AC1015
  9
$DWGCODEPAGE
  3
ANSI_932
  9
$LTSCALE
 40
20.0
  9
$FILLMODE
 70
     1
  9
$CLAYER
  8
0
  9
$PDMODE
 70
     0
  9
$SPLFRAME
 70
     0
  9
$SPLINETYPE
 70
     6
  9
$SPLINESEGS
 70
     8
  9
$DIMASZ
 40
2.000000
  9
$DIMEXE
 40
1.500000
  9
$DIMEXO
 40
0.800000
  9
$DIMTAD
 70
     1
  9
$DIMTIH
 70
     0
  9
$DIMTOH
 70
     0
  9
$DIMTVP
 40
0.500000
  9
$DIMTXT
 40
3.100000
  9
$EXTMIN
 10
0.000000
 20
0.000000
 30
0.000000
  9
$EXTMAX
 10
297.000000
 20
420.000000
 30
0.000000
  9
$MEASUREMENT
 70
  1
  9
$LIMMIN
 10
0.000000
 20
0.000000
  9
$LIMMAX
 10
297.000000
 20
420.000000
  9
$HANDSEED
  5
EB
  9
$LWDISPLAY
290
     0
  9
$DIMBLK
  1
_OPEN
  9
$DIMDEC
 70
     2
  9
$DIMADEC
 70
     2
  9
$DIMAUNIT
 70
     0
  9
$DIMZIN
 70
     8
  9
$DIMAZIN
 70
     2
  9
$DIMTOFL
 70
     1
  0
ENDSEC
  0
SECTION
  2
CLASSES
  0
ENDSEC
  0
SECTION
  2
TABLES
  0
TABLE
  2
VPORT
  5
B6
100
AcDbSymbolTable
 70
     1
  0
VPORT
  5
B7
100
AcDbSymbolTableRecord
100
AcDbViewportTableRecord
  2
*ACTIVE
 70
     0
 12
210.000000
 22
148.500000
 40
657.391266
 41
0.844656
  0
ENDTAB
  0
TABLE
  2
LTYPE
  5
B8
100
AcDbSymbolTable
 70
     3
  0
LTYPE
  5
B9
100
AcDbSymbolTableRecord
100
AcDbLinetypeTableRecord
  2
BYBLOCK
 70
     0
  3

 72
    65
 73
     0
 40
0.0
  0
LTYPE
  5
BA
100
AcDbSymbolTableRecord
100
AcDbLinetypeTableRecord
  2
BYLAYER
 70
     0
  3

 72
    65
 73
     0
 40
0.0
  0
LTYPE
  5
BB
100
AcDbSymbolTableRecord
100
AcDbLinetypeTableRecord
  2
CONTINUOUS
 70
     0
  3
Solid line (NEC CAE2D for Win R16.0 : 2021.03.01)
 72
    65
 73
     0
 40
0.0
  0
LTYPE
  5
BC
100
AcDbSymbolTableRecord
100
AcDbLinetypeTableRecord
  2
DASHED
 70
     0
  3
__ __ __ __ __ __ __ __ __ __ __ __ __ _
 72
    65
 73
     2
 40
0.75
 49
0.5
 74
     0
 49
-0.25
 74
     0
  0
LTYPE
  5
BD
100
AcDbSymbolTableRecord
100
AcDbLinetypeTableRecord
  2
CENTER
 70
     0
  3
____ _ ____ _ ____ _ ____ _ ____ _ ____
 72
    65
 73
     4
 40
2.0
 49
1.25
 74
     0
 49
-0.25
 74
     0
 49
0.25
 74
     0
 49
-0.25
 74
     0
  0
ENDTAB
  0
TABLE
  2
LAYER
  5
BE
100
AcDbSymbolTable
 70
    14
  0
LAYER
  5
BF
100
AcDbSymbolTableRecord
100
AcDbLayerTableRecord
  2
0
 70
     0
 62
     7
  6
CONTINUOUS
370
    -3
390

  0
LAYER
  5
C0
100
AcDbSymbolTableRecord
100
AcDbLayerTableRecord
  2
A0
 70
     0
 62
     9
  6
CONTINUOUS
370
    -3
390

  0
LAYER
  5
C1
100
AcDbSymbolTableRecord
100
AcDbLayerTableRecord
  2
A2
 70
     0
 62
     9
  6
CONTINUOUS
370
    -3
390

  0
LAYER
  5
C2
100
AcDbSymbolTableRecord
100
AcDbLayerTableRecord
  2
A4
 70
     0
 62
     9
  6
CONTINUOUS
370
    -3
390

  0
LAYER
  5
C3
100
AcDbSymbolTableRecord
100
AcDbLayerTableRecord
  2
A5
 70
     0
 62
     8
  6
CONTINUOUS
370
    -3
390

  0
LAYER
  5
C4
100
AcDbSymbolTableRecord
100
AcDbLayerTableRecord
  2
A6
 70
     0
 62
    12
  6
CONTINUOUS
370
    -3
390

  0
LAYER
  5
C5
100
AcDbSymbolTableRecord
100
AcDbLayerTableRecord
  2
A8
 70
     0
 62
    10
  6
CONTINUOUS
370
    -3
390

  0
LAYER
  5
C6
100
AcDbSymbolTableRecord
100
AcDbLayerTableRecord
  2
A9
 70
     0
 62
     9
  6
CONTINUOUS
370
    -3
390

  0
LAYER
  5
C7
100
AcDbSymbolTableRecord
100
AcDbLayerTableRecord
  2
A10
 70
     0
 62
     6
  6
CONTINUOUS
370
    -3
390

  0
LAYER
  5
C8
100
AcDbSymbolTableRecord
100
AcDbLayerTableRecord
  2
A20
 70
     0
 62
     1
  6
CONTINUOUS
370
    -3
390

  0
LAYER
  5
C9
100
AcDbSymbolTableRecord
100
AcDbLayerTableRecord
  2
A30
 70
     0
 62
     1
  6
CONTINUOUS
370
    -3
390

  0
LAYER
  5
CA
100
AcDbSymbolTableRecord
100
AcDbLayerTableRecord
  2
A40
 70
     0
 62
     9
  6
CONTINUOUS
370
    -3
390

  0
LAYER
  5
CB
100
AcDbSymbolTableRecord
100
AcDbLayerTableRecord
  2
A50
 70
     0
 62
    12
  6
CONTINUOUS
370
    -3
390

  0
LAYER
  5
CC
100
AcDbSymbolTableRecord
100
AcDbLayerTableRecord
  2
A1023
 70
     0
 62
    16
  6
CONTINUOUS
370
    -3
390

  0
ENDTAB
  0
TABLE
  2
STYLE
  5
CD
100
AcDbSymbolTable
 70
     4
  0
STYLE
  5
CE
100
AcDbSymbolTableRecord
100
AcDbTextStyleTableRecord
  2
STANDARD
 70
    64
 40
0.0
 41
1.0
 50
0.0
 71
     0
 42
3.000000000000000
  3
TXT
  4

  0
STYLE
  5
CF
100
AcDbSymbolTableRecord
100
AcDbTextStyleTableRecord
  2
ANKTATE
 70
    68
 40
0.0
 41
1.0
 50
0.0
 71
     0
 42
3.000000000000000
  3
TXT
  4

  0
STYLE
  5
D0
100
AcDbSymbolTableRecord
100
AcDbTextStyleTableRecord
  2
KNJYOKO
 70
    64
 40
0.0
 41
1.0
 50
0.0
 71
     0
 42
3.000000000000000
  3
TXT
  4
BIGFONT
  0
STYLE
  5
D1
100
AcDbSymbolTableRecord
100
AcDbTextStyleTableRecord
  2
KNJTATE
 70
    68
 40
0.0
 41
1.0
 50
0.0
 71
     0
 42
3.000000000000000
  3
TXT
  4
BIGFONT
  0
ENDTAB
  0
TABLE
  2
VIEW
  5
D2
100
AcDbSymbolTable
 70
     0
  0
ENDTAB
  0
TABLE
  2
UCS
  5
D3
100
AcDbSymbolTable
 70
     0
  0
ENDTAB
  0
TABLE
  2
APPID
  5
D4
100
AcDbSymbolTable
 70
     1
  0
APPID
  5
D5
100
AcDbSymbolTableRecord
100
AcDbRegAppTableRecord
  2
ACAD
 70
     0
  0
ENDTAB
  0
TABLE
  2
DIMSTYLE
  5
D6
100
AcDbSymbolTable
 70
     2
100
AcDbDimStyleTable
  0
DIMSTYLE
105
D7
100
AcDbSymbolTableRecord
100
AcDbDimStyleTableRecord
  2
STANDARD
 70
     0
 41
2.000000
 44
1.500000
 42
0.800000
145
0.661290
140
3.100000
144
1.000000
146
0.645161
340
CE
  0
DIMSTYLE
105
D8
100
AcDbSymbolTableRecord
100
AcDbDimStyleTableRecord
  2
A001
 70
     0
 41
2.000000
 44
1.500000
 42
0.800000
145
0.661290
140
3.100000
144
1.000000
146
0.645161
 77
     1
 73
     0
 74
     0
271
     2
179
     2
275
     0
 78
     8
 79
     2
172
     1
340
CE
  0
ENDTAB
  0
TABLE
  2
BLOCK_RECORD
  5
D9
100
AcDbSymbolTable
 70
    12
  0
BLOCK_RECORD
  5
DA
100
AcDbSymbolTableRecord
100
AcDbBlockTableRecord
  2
*MODEL_SPACE
  0
BLOCK_RECORD
  5
DB
100
AcDbSymbolTableRecord
100
AcDbBlockTableRecord
  2
*PAPER_SPACE
  0
BLOCK_RECORD
  5
DC
100
AcDbSymbolTableRecord
100
AcDbBlockTableRecord
  2
*PAPER_SPACE0
  0
BLOCK_RECORD
  5
1
100
AcDbSymbolTableRecord
100
AcDbBlockTableRecord
  2
_NONE
  0
BLOCK_RECORD
  5
4
100
AcDbSymbolTableRecord
100
AcDbBlockTableRecord
  2
_CLOSED
  0
BLOCK_RECORD
  5
B
100
AcDbSymbolTableRecord
100
AcDbBlockTableRecord
  2
_DOT
  0
BLOCK_RECORD
  5
13
100
AcDbSymbolTableRecord
100
AcDbBlockTableRecord
  2
_OPEN
  0
BLOCK_RECORD
  5
19
100
AcDbSymbolTableRecord
100
AcDbBlockTableRecord
  2
_ORIGIN
  0
BLOCK_RECORD
  5
1E
100
AcDbSymbolTableRecord
100
AcDbBlockTableRecord
  2
_OPEN30
  0
BLOCK_RECORD
  5
24
100
AcDbSymbolTableRecord
100
AcDbBlockTableRecord
  2
_BOXFILLED
  0
BLOCK_RECORD
  5
29
100
AcDbSymbolTableRecord
100
AcDbBlockTableRecord
  2
_BOXBLANK
  0
BLOCK_RECORD
  5
31
100
AcDbSymbolTableRecord
100
AcDbBlockTableRecord
  2
_OBLIQUE
  0
BLOCK_RECORD
  5
35
100
AcDbSymbolTableRecord
100
AcDbBlockTableRecord
  2
_OPEN90
  0
BLOCK_RECORD
  5
3B
100
AcDbSymbolTableRecord
100
AcDbBlockTableRecord
  2
_CLOSEDBLANK
  0
BLOCK_RECORD
  5
41
100
AcDbSymbolTableRecord
100
AcDbBlockTableRecord
  2
_DOTBLANK
  0
ENDTAB
  0
ENDSEC
  0
SECTION
  2
BLOCKS
  0
BLOCK
  5
DD
100
AcDbEntity
  8
0
100
AcDbBlockBegin
  2
*MODEL_SPACE
 70
     0
 10
0.0
 20
0.0
 30
0.0
  3
*MODEL_SPACE
  1

  0
ENDBLK
  5
DE
100
AcDbEntity
  8
0
100
AcDbBlockEnd
  0
BLOCK
  5
DF
100
AcDbEntity
  8
0
100
AcDbBlockBegin
  2
*PAPER_SPACE
 70
     0
 10
0.0
 20
0.0
 30
0.0
  3
*PAPER_SPACE
  1

  0
ENDBLK
  5
E0
100
AcDbEntity
  8
0
100
AcDbBlockEnd
  0
BLOCK
  5
E1
100
AcDbEntity
  8
0
100
AcDbBlockBegin
  2
*PAPER_SPACE0
 70
     0
 10
0.0
 20
0.0
 30
0.0
  3
*PAPER_SPACE0
  1

  0
ENDBLK
  5
E2
100
AcDbEntity
  8
0
100
AcDbBlockEnd
  0
BLOCK
  5
2
330
1
100
AcDbEntity
  8
0
100
AcDbBlockBegin
  2
_NONE
 70
     0
 10
0.0
 20
0.0
 30
0.0
  3
_NONE
  1

  0
ENDBLK
  5
3
330
1
100
AcDbEntity
  8
0
100
AcDbBlockEnd
  0
BLOCK
  5
5
330
4
100
AcDbEntity
  8
0
100
AcDbBlockBegin
  2
_CLOSED
 70
     0
 10
0.0
 20
0.0
 30
0.0
  3
_CLOSED
  1

  0
LINE
  5
6
330
4
100
AcDbEntity
  8
0
  6
BYBLOCK
 62
     0
370
    -2
100
AcDbLine
 10
-1.0
 20
0.166667
 30
0.0
 11
0.0
 21
0.0
 31
0.0
  0
LINE
  5
7
330
4
100
AcDbEntity
  8
0
  6
BYBLOCK
 62
     0
370
    -2
100
AcDbLine
 10
0.0
 20
0.0
 30
0.0
 11
-1.0
 21
-0.166667
 31
0.0
  0
LINE
  5
8
330
4
100
AcDbEntity
  8
0
  6
BYBLOCK
 62
     0
370
    -2
100
AcDbLine
 10
-1.0
 20
0.166667
 30
0.0
 11
-1.0
 21
-0.166667
 31
0.0
  0
LINE
  5
9
330
4
100
AcDbEntity
  8
0
  6
BYBLOCK
 62
     0
370
    -2
100
AcDbLine
 10
0.0
 20
0.0
 30
0.0
 11
-1.0
 21
0.0
 31
0.0
  0
ENDBLK
  5
A
330
4
100
AcDbEntity
  8
0
100
AcDbBlockEnd
  0
BLOCK
  5
C
330
B
100
AcDbEntity
  8
0
100
AcDbBlockBegin
  2
_DOT
 70
     0
 10
0.0
 20
0.0
 30
0.0
  3
_DOT
  1

  0
POLYLINE
  5
D
330
B
100
AcDbEntity
  8
0
  6
BYBLOCK
 62
     0
370
    -2
100
AcDb2dPolyline
 66
     1
 10
0.0
 20
0.0
 30
0.0
 70
     1
 40
0.5
 41
0.5
  0
VERTEX
  5
E
330
B
100
AcDbEntity
  8
0
  6
BYBLOCK
 62
     0
370
    -2
100
AcDbVertex
100
AcDb2dVertex
 10
-0.25
 20
0.0
 30
0.0
 42
1.0
  0
VERTEX
  5
F
330
B
100
AcDbEntity
  8
0
  6
BYBLOCK
 62
     0
370
    -2
100
AcDbVertex
100
AcDb2dVertex
 10
0.25
 20
0.0
 30
0.0
 42
1.0
  0
SEQEND
  5
10
330
B
100
AcDbEntity
  8
0
  6
BYBLOCK
 62
     0
370
    -2
  0
LINE
  5
11
330
B
100
AcDbEntity
  8
0
  6
BYBLOCK
 62
     0
370
    -2
100
AcDbLine
 10
-0.5
 20
0.0
 30
0.0
 11
-1.0
 21
0.0
 31
0.0
  0
ENDBLK
  5
12
330
B
100
AcDbEntity
  8
0
100
AcDbBlockEnd
  0
BLOCK
  5
14
330
13
100
AcDbEntity
  8
0
100
AcDbBlockBegin
  2
_OPEN
 70
     0
 10
0.0
 20
0.0
 30
0.0
  3
_OPEN
  1

  0
LINE
  5
15
330
13
100
AcDbEntity
  8
0
  6
BYBLOCK
 62
     0
370
    -2
100
AcDbLine
 10
-1.0
 20
0.166667
 30
0.0
 11
0.0
 21
0.0
 31
0.0
  0
LINE
  5
16
330
13
100
AcDbEntity
  8
0
  6
BYBLOCK
 62
     0
370
    -2
100
AcDbLine
 10
0.0
 20
0.0
 30
0.0
 11
-1.0
 21
-0.166667
 31
0.0
  0
LINE
  5
17
330
13
100
AcDbEntity
  8
0
  6
BYBLOCK
 62
     0
370
    -2
100
AcDbLine
 10
0.0
 20
0.0
 30
0.0
 11
-1.0
 21
0.0
 31
0.0
  0
ENDBLK
  5
18
330
13
100
AcDbEntity
  8
0
100
AcDbBlockEnd
  0
BLOCK
  5
1A
330
19
100
AcDbEntity
  8
0
100
AcDbBlockBegin
  2
_ORIGIN
 70
     0
 10
0.0
 20
0.0
 30
0.0
  3
_ORIGIN
  1

  0
CIRCLE
  5
1B
330
19
100
AcDbEntity
  8
0
  6
BYBLOCK
 62
     0
370
    -2
100
AcDbCircle
 10
0.0
 20
0.0
 30
0.0
 40
0.5
  0
LINE
  5
1C
330
19
100
AcDbEntity
  8
0
  6
BYBLOCK
 62
     0
370
    -2
100
AcDbLine
 10
0.0
 20
0.0
 30
0.0
 11
-1.0
 21
0.0
 31
0.0
  0
ENDBLK
  5
1D
330
19
100
AcDbEntity
  8
0
100
AcDbBlockEnd
  0
BLOCK
  5
1F
330
1E
100
AcDbEntity
  8
0
100
AcDbBlockBegin
  2
_OPEN30
 70
     0
 10
0.0
 20
0.0
 30
0.0
  3
_OPEN30
  1

  0
LINE
  5
20
330
1E
100
AcDbEntity
  8
0
  6
BYBLOCK
 62
     0
370
    -2
100
AcDbLine
 10
-1.0
 20
0.267949
 30
0.0
 11
0.0
 21
0.0
 31
0.0
  0
LINE
  5
21
330
1E
100
AcDbEntity
  8
0
  6
BYBLOCK
 62
     0
370
    -2
100
AcDbLine
 10
0.0
 20
0.0
 30
0.0
 11
-1.0
 21
-0.267949
 31
0.0
  0
LINE
  5
22
330
1E
100
AcDbEntity
  8
0
  6
BYBLOCK
 62
     0
370
    -2
100
AcDbLine
 10
0.0
 20
0.0
 30
0.0
 11
-1.0
 21
0.0
 31
0.0
  0
ENDBLK
  5
23
330
1E
100
AcDbEntity
  8
0
100
AcDbBlockEnd
  0
BLOCK
  5
25
330
24
100
AcDbEntity
  8
0
100
AcDbBlockBegin
  2
_BOXFILLED
 70
     0
 10
0.0
 20
0.0
 30
0.0
  3
_BOXFILLED
  1

  0
SOLID
  5
26
330
24
100
AcDbEntity
  8
0
  6
BYBLOCK
 62
     0
370
    -2
100
AcDbTrace
 10
-0.5
 20
0.5
 30
0.0
 11
0.5
 21
0.5
 31
0.0
 12
-0.5
 22
-0.5
 32
0.0
 13
0.5
 23
-0.5
 33
0.0
  0
LINE
  5
27
330
24
100
AcDbEntity
  8
0
  6
BYBLOCK
 62
     0
370
    -2
100
AcDbLine
 10
-0.5
 20
0.0
 30
0.0
 11
-1.0
 21
0.0
 31
0.0
  0
ENDBLK
  5
28
330
24
100
AcDbEntity
  8
0
100
AcDbBlockEnd
  0
BLOCK
  5
2A
330
29
100
AcDbEntity
  8
0
100
AcDbBlockBegin
  2
_BOXBLANK
 70
     0
 10
0.0
 20
0.0
 30
0.0
  3
_BOXBLANK
  1

  0
LINE
  5
2B
330
29
100
AcDbEntity
  8
0
  6
BYBLOCK
 62
     0
370
    -2
100
AcDbLine
 10
-0.5
 20
-0.5
 30
0.0
 11
0.5
 21
-0.5
 31
0.0
  0
LINE
  5
2C
330
29
100
AcDbEntity
  8
0
  6
BYBLOCK
 62
     0
370
    -2
100
AcDbLine
 10
0.5
 20
-0.5
 30
0.0
 11
0.5
 21
0.5
 31
0.0
  0
LINE
  5
2D
330
29
100
AcDbEntity
  8
0
  6
BYBLOCK
 62
     0
370
    -2
100
AcDbLine
 10
0.5
 20
0.5
 30
0.0
 11
-0.5
 21
0.5
 31
0.0
  0
LINE
  5
2E
330
29
100
AcDbEntity
  8
0
  6
BYBLOCK
 62
     0
370
    -2
100
AcDbLine
 10
-0.5
 20
0.5
 30
0.0
 11
-0.5
 21
-0.5
 31
0.0
  0
LINE
  5
2F
330
29
100
AcDbEntity
  8
0
  6
BYBLOCK
 62
     0
370
    -2
100
AcDbLine
 10
-0.5
 20
0.0
 30
0.0
 11
-1.0
 21
0.0
 31
0.0
  0
ENDBLK
  5
30
330
29
100
AcDbEntity
  8
0
100
AcDbBlockEnd
  0
BLOCK
  5
32
330
31
100
AcDbEntity
  8
0
100
AcDbBlockBegin
  2
_OBLIQUE
 70
     0
 10
0.0
 20
0.0
 30
0.0
  3
_OBLIQUE
  1

  0
LINE
  5
33
330
31
100
AcDbEntity
  8
0
  6
BYBLOCK
 62
     0
370
    -2
100
AcDbLine
 10
-0.5
 20
-0.5
 30
0.0
 11
0.5
 21
0.5
 31
0.0
  0
ENDBLK
  5
34
330
31
100
AcDbEntity
  8
0
100
AcDbBlockEnd
  0
BLOCK
  5
36
330
35
100
AcDbEntity
  8
0
100
AcDbBlockBegin
  2
_OPEN90
 70
     0
 10
0.0
 20
0.0
 30
0.0
  3
_OPEN90
  1

  0
LINE
  5
37
330
35
100
AcDbEntity
  8
0
  6
BYBLOCK
 62
     0
370
    -2
100
AcDbLine
 10
-0.5
 20
0.5
 30
0.0
 11
0.0
 21
0.0
 31
0.0
  0
LINE
  5
38
330
35
100
AcDbEntity
  8
0
  6
BYBLOCK
 62
     0
370
    -2
100
AcDbLine
 10
0.0
 20
0.0
 30
0.0
 11
-0.5
 21
-0.5
 31
0.0
  0
LINE
  5
39
330
35
100
AcDbEntity
  8
0
  6
BYBLOCK
 62
     0
370
    -2
100
AcDbLine
 10
0.0
 20
0.0
 30
0.0
 11
-1.0
 21
0.0
 31
0.0
  0
ENDBLK
  5
3A
330
35
100
AcDbEntity
  8
0
100
AcDbBlockEnd
  0
BLOCK
  5
3C
330
3B
100
AcDbEntity
  8
0
100
AcDbBlockBegin
  2
_CLOSEDBLANK
 70
     0
 10
0.0
 20
0.0
 30
0.0
  3
_CLOSEDBLANK
  1

  0
LINE
  5
3D
330
3B
100
AcDbEntity
  8
0
  6
BYBLOCK
 62
     0
370
    -2
100
AcDbLine
 10
-1.0
 20
0.1666666666666666
 30
0.0
 11
0.0
 21
0.0
 31
0.0
  0
LINE
  5
3E
330
3B
100
AcDbEntity
  8
0
  6
BYBLOCK
 62
     0
370
    -2
100
AcDbLine
 10
0.0
 20
0.0
 30
0.0
 11
-1.0
 21
-0.1666666666666666
 31
0.0
  0
LINE
  5
3F
330
3B
100
AcDbEntity
  8
0
  6
BYBLOCK
 62
     0
370
    -2
100
AcDbLine
 10
-1.0
 20
0.1666666666666666
 30
0.0
 11
-1.0
 21
-0.1666666666666666
 31
0.0
  0
ENDBLK
  5
40
330
3B
100
AcDbEntity
  8
0
100
AcDbBlockEnd
  0
BLOCK
  5
42
330
41
100
AcDbEntity
  8
0
100
AcDbBlockBegin
  2
_DOTBLANK
 70
     0
 10
0.0
 20
0.0
 30
0.0
  3
_DOTBLANK
  1

  0
CIRCLE
  5
43
330
41
100
AcDbEntity
  8
0
  6
BYBLOCK
 62
     0
370
    -2
100
AcDbCircle
 10
0.0
 20
0.0
 30
0.0
 40
0.5
  0
LINE
  5
44
330
41
100
AcDbEntity
  8
0
  6
BYBLOCK
 62
     0
370
    -2
100
AcDbLine
 10
-0.5
 20
0.0
 30
0.0
 11
-1.0
 21
0.0
 31
0.0
  0
ENDBLK
  5
45
330
41
100
AcDbEntity
  8
0
100
AcDbBlockEnd
  0
ENDSEC
  0
SECTION
  2
ENTITIES
  0
MTEXT
  5
46
100
AcDbEntity
  8
A8
  6
CONTINUOUS
 62
7
100
AcDbMText
 10
9.999997526638502
 20
18.00000076076889
 30
0.000000000000000
 40
3.000000000000000
 41
0.000000000000000
 44
0.6739999771118164
 71
     7
 72
     1
  1
{\H0.93x;{TYPE No.THA-473}}
 11
1.000000000000000
 21
0.000000000000000
 31
0.000000000000000
  7
STANDARD
  0
POINT
  5
47
100
AcDbEntity
  8
A0
  6
CONTINUOUS
 62
5
100
AcDbPoint
 10
9.999997526638502
 20
18.00000076076889
 30
0.000000000000000
  0
POINT
  5
48
100
AcDbEntity
  8
A10
  6
CONTINUOUS
 62
5
100
AcDbPoint
 10
50.00000000000000
 20
50.00000000000000
 30
0.000000000000000
  0
CIRCLE
  5
49
100
AcDbEntity
  8
A6
  6
CONTINUOUS
 62
7
100
AcDbCircle
 10
230.0000000014450
 20
177.4666041989939
 30
0.000000000000000
 40
2.750000000000000
  0
ARC
  5
4A
100
AcDbEntity
  8
A6
  6
CONTINUOUS
 62
7
100
AcDbCircle
 10
230.0000000017581
 20
177.4666041989939
 30
0.000000000000000
 40
10.00000000000000
100
AcDbArc
 50
270.0000000000000
 51
450.0000000000000
  0
LINE
  5
4B
100
AcDbEntity
  8
A6
  6
CENTER
 62
1
100
AcDbLine
 10
230.0000000014450
 20
188.9666041989939
 30
0.000000000000000
 11
230.0000000014450
 21
165.9666041989939
 31
0.000000000000000
  0
LINE
  5
4C
100
AcDbEntity
  8
A4
  6
CENTER
 62
1
100
AcDbLine
 10
145.0000000010355
 20
90.49999999999534
 30
0.000000000000000
 11
145.0000000010355
 21
113.4999999999955
 31
0.000000000000000
  0
CIRCLE
  5
4D
100
AcDbEntity
  8
A6
  6
CONTINUOUS
 62
7
100
AcDbCircle
 10
60.00000000062619
 20
177.4666041989939
 30
0.000000000000000
 40
2.750000000000000
  0
SPLINE
  5
4E
100
AcDbEntity
  8
A2
  6
CONTINUOUS
 62
1
100
AcDbSpline
210
0.000000000000000
220
0.000000000000000
230
1.000000000000000
 70
     8
 71
     3
 72
     9
 73
     5
 74
     0
 42
1.000000000000000e-07
 43
1.000000000000000e-07
 12
0.002100811924927726
 22
1.956781204626168e-06
 32
0.000000000000000
 13
1.000000000000000
 23
1.551576133351773e-06
 33
0.000000000000000
 40
0.000000000000000
 40
0.000000000000000
 40
0.000000000000000
 40
0.000000000000000
 40
15.72468870149878
 40
15.74061309260910
 40
15.74061309260910
 40
15.74061309260910
 40
15.74061309260910
 10
80.17410233689429
 20
187.4665818004557
 30
0.000000000000000
 10
80.18511387474092
 20
187.4665920570475
 30
0.000000000000000
 10
80.20143354088049
 20
187.4666020149189
 30
0.000000000000000
 10
80.21775318229510
 20
187.4666041907579
 30
0.000000000000000
 10
80.22306131266521
 20
187.4666041989939
 30
0.000000000000000
  0
SPLINE
  5
4F
100
AcDbEntity
  8
A2
  6
CONTINUOUS
 62
1
100
AcDbSpline
210
0.000000000000000
220
0.000000000000000
230
1.000000000000000
 70
     8
 71
     3
 72
     9
 73
     5
 74
     0
 42
1.000000000000000e-07
 43
1.000000000000000e-07
 12
0.004867427423455695
 22
-8.648244410380812e-06
 32
0.000000000000000
 13
1.000000000000000
 23
-1.551568857394159e-06
 33
0.000000000000000
 40
0.000000000000000
 40
0.000000000000000
 40
0.000000000000000
 40
0.000000000000000
 40
15.72468870149878
 40
15.74061309260910
 40
15.74061309260910
 40
15.74061309260910
 40
15.74061309260910
 10
80.13059825918390
 20
167.4666855124931
 30
0.000000000000000
 10
80.15611118618756
 20
167.4666401821761
 30
0.000000000000000
 10
80.18693222833502
 20
167.4666083164766
 30
0.000000000000000
 10
80.21775318229510
 20
167.4666042072298
 30
0.000000000000000
 10
80.22306131266521
 20
167.4666041989939
 30
0.000000000000000
  0
ARC
  5
50
100
AcDbEntity
  8
A6
  6
CONTINUOUS
 62
7
100
AcDbCircle
 10
60.00000000031304
 20
177.4666041989939
 30
0.000000000000000
 40
10.00000000000000
100
AcDbArc
 50
90.00000000000000
 51
270.0000000000000
  0
ELLIPSE
  5
51
100
AcDbEntity
  8
A2
  6
CONTINUOUS
 62
10
100
AcDbEllipse
 10
80.22306131266521
 20
177.4666041989939
 30
0.000000000000000
 11
10.19480764512871
 21
0.000000000000000
 31
0.000000000000000
210
0.000000000000000
220
0.000000000000000
230
1.000000000000000
 40
0.9808914839877545
 41
4.698427400352928
 42
4.712388980384690
  0
ELLIPSE
  5
52
100
AcDbEntity
  8
A2
  6
CONTINUOUS
 62
10
100
AcDbEllipse
 10
80.22306131266521
 20
177.4666041989939
 30
0.000000000000000
 11
10.19480764512871
 21
0.000000000000000
 31
0.000000000000000
210
0.000000000000000
220
0.000000000000000
230
1.000000000000000
 40
0.9808914839877545
 41
1.570796326794897
 42
1.577416582802120
  0
LINE
  5
53
100
AcDbEntity
  8
A6
  6
CENTER
 62
1
100
AcDbLine
 10
60.00000000062619
 20
188.9666041989939
 30
0.000000000000000
 11
60.00000000062619
 21
165.9666041989939
 31
0.000000000000000
  0
LINE
  5
54
100
AcDbEntity
  8
A6
  6
CENTER
 62
1
100
AcDbLine
 10
145.0000000011713
 20
188.9666041989940
 30
0.000000000000000
 11
145.0000000011713
 21
165.9666041989938
 31
0.000000000000000
  0
LINE
  5
55
100
AcDbEntity
  8
A6
  6
CENTER
 62
1
100
AcDbLine
 10
48.50000000031304
 20
177.4666041989939
 30
0.000000000000000
 11
241.5000000017582
 21
177.4666041989939
 31
0.000000000000000
  0
ELLIPSE
  5
56
100
AcDbEntity
  8
A2
  6
CONTINUOUS
 62
1
100
AcDbEllipse
 10
81.50495182259698
 20
177.4666041989938
 30
0.000000000000000
 11
0.000000000000000
 21
10.00000000000000
 31
0.000000000000000
210
0.000000000000000
220
0.000000000000000
230
1.000000000000000
 40
0.9945218953682733
 41
0.000000000000000
 42
3.141592653589793
  0
ELLIPSE
  5
57
100
AcDbEntity
  8
A6
  6
CONTINUOUS
 62
1
100
AcDbEllipse
 10
78.03651205882960
 20
177.4666041989938
 30
0.000000000000000
 11
-10.14297386919711
 21
0.000000000000000
 31
0.000000000000000
210
0.000000000000000
220
0.000000000000000
230
1.000000000000000
 40
0.9859041469453745
 41
4.712388980384690
 42
1.570796326794897
  0
ELLIPSE
  5
58
100
AcDbEntity
  8
A2
  6
CONTINUOUS
 62
1
100
AcDbEllipse
 10
208.4950481797455
 20
177.4666041989938
 30
0.000000000000000
 11
0.000000000000000
 21
10.00000000000000
 31
0.000000000000000
210
0.000000000000000
220
0.000000000000000
230
1.000000000000000
 40
0.9945218953682733
 41
3.141592653589793
 42
0.000000000000000
  0
ELLIPSE
  5
59
100
AcDbEntity
  8
A6
  6
CONTINUOUS
 62
1
100
AcDbEllipse
 10
211.9634879435129
 20
177.4666041989938
 30
0.000000000000000
 11
10.14297386919711
 21
0.000000000000000
 31
0.000000000000000
210
0.000000000000000
220
0.000000000000000
230
1.000000000000000
 40
0.9859041469453745
 41
4.712388980384690
 42
1.570796326794897
  0
LINE
  5
5A
100
AcDbEntity
  8
A6
  6
CONTINUOUS
 62
7
100
AcDbLine
 10
60.00000000031304
 20
187.4666041989939
 30
0.000000000000000
 11
230.0000000017581
 21
187.4666041989939
 31
0.000000000000000
  0
LINE
  5
5B
100
AcDbEntity
  8
A6
  6
CONTINUOUS
 62
7
100
AcDbLine
 10
60.00000000031308
 20
167.4666041989940
 30
0.000000000000000
 11
230.0000000017580
 21
167.4666041989939
 31
0.000000000000000
  0
SPLINE
  5
5C
100
AcDbEntity
  8
A4
  6
CONTINUOUS
 62
7
100
AcDbSpline
210
0.000000000000000
220
0.000000000000000
230
1.000000000000000
 70
     8
 71
     3
 72
    13
 73
     9
 74
     0
 42
1.000000000000000e-07
 43
1.000000000000000e-07
 12
-0.8291142645284708
 22
-0.8979105922044255
 32
0.000000000000000
 13
-0.7185300609635306
 23
-1.371292279269255
 33
0.000000000000000
 40
0.000000000000000
 40
0.000000000000000
 40
0.000000000000000
 40
0.000000000000000
 40
0.02797356071876407
 40
0.04615587421458124
 40
0.05618368674819655
 40
0.06035273901923745
 40
0.06196651985673837
 40
0.06602318638267998
 40
0.06602318638267998
 40
0.06602318638267998
 40
0.06602318638267998
 10
66.07013385545230
 20
63.86268121417561
 30
0.000000000000000
 10
66.06240276271177
 20
63.85430862868526
 30
0.000000000000000
 10
66.05295241761530
 20
63.84068861401244
 30
0.000000000000000
 10
66.04312094289162
 20
63.82539356158304
 30
0.000000000000000
 10
66.03817006499179
 20
63.81667313543346
 30
0.000000000000000
 10
66.03617411024857
 20
63.81301292211975
 30
0.000000000000000
 10
66.03541162731739
 20
63.81159063228603
 30
0.000000000000000
 10
66.03449305565567
 20
63.80985554063642
 30
0.000000000000000
 10
66.03352144337362
 20
63.80800124880756
 30
0.000000000000000
  0
SPLINE
  5
5D
100
AcDbEntity
  8
A4
  6
CONTINUOUS
 62
7
100
AcDbSpline
210
0.000000000000000
220
0.000000000000000
230
1.000000000000000
 70
     8
 71
     3
 72
    31
 73
    27
 74
     0
 42
1.000000000000000e-07
 43
1.000000000000000e-07
 12
-0.4090533195821990
 22
-0.7807122441690808
 32
0.000000000000000
 13
-0.8520658429522427
 23
-0.1695316109124860
 33
0.000000000000000
 40
0.000000000000000
 40
0.000000000000000
 40
0.000000000000000
 40
0.000000000000000
 40
0.02617292198777565
 40
0.06146057386492001
 40
0.1149386533495200
 40
0.1869377724112937
 40
0.2779090440034139
 40
0.3881005505440369
 40
0.5179405889647427
 40
0.6701033093636161
 40
0.8450716679912845
 40
1.042997108511819
 40
1.261159629979010
 40
1.497985555501903
 40
1.747473804777144
 40
2.004052266467431
 40
2.263170053436268
 40
2.524424973982042
 40
2.787277869200415
 40
3.051217525901193
 40
3.316002773754800
 40
3.581618945453955
 40
3.848260701685005
 40
4.116191577963564
 40
4.357164879043276
 40
4.570651048858775
 40
4.570651048858775
 40
4.570651048858775
 40
4.570651048858775
 10
66.03349894215188
 20
63.80794840728095
 30
0.000000000000000
 10
66.02993023527779
 20
63.80113723372710
 30
0.000000000000000
 10
66.02121157922659
 20
63.78483927365085
 30
0.000000000000000
 10
66.00433007669261
 20
63.75385164309932
 30
0.000000000000000
 10
65.97825129325668
 20
63.70716329294788
 30
0.000000000000000
 10
65.94241283927528
 20
63.64471748955089
 30
0.000000000000000
 10
65.89606901175557
 20
63.56643580647039
 30
0.000000000000000
 10
65.83844352052461
 20
63.47251312085041
 30
0.000000000000000
 10
65.76857067668629
 20
63.36307719772162
 30
0.000000000000000
 10
65.68358765224332
 20
63.23685763095125
 30
0.000000000000000
 10
65.58175773093268
 20
63.09457413350077
 30
0.000000000000000
 10
65.46135014416478
 20
62.93748660040546
 30
0.000000000000000
 10
65.32219743224016
 20
62.76946455263510
 30
0.000000000000000
 10
65.16341278232562
 20
62.59375469533825
 30
0.000000000000000
 10
64.98686789487948
 20
62.41747001295471
 30
0.000000000000000
 10
64.79567660001447
 20
62.24636070353176
 30
0.000000000000000
 10
64.59366208638517
 20
62.08408882116532
 30
0.000000000000000
 10
64.38157492742437
 20
61.93153335415963
 30
0.000000000000000
 10
64.16038336947378
 20
61.78952652609826
 30
0.000000000000000
 10
63.93109961725031
 20
61.65878593046841
 30
0.000000000000000
 10
63.69456716429170
 20
61.53977489661742
 30
0.000000000000000
 10
63.45144693376488
 20
61.43279590720033
 30
0.000000000000000
 10
63.20225242376216
 20
61.33792798664496
 30
0.000000000000000
 10
62.94730873466142
 20
61.25552246588893
 30
0.000000000000000
 10
62.71482011194661
 20
61.19214130037875
 30
0.000000000000000
 10
62.56666023174637
 20
61.15973329262209
 30
0.000000000000000
 10
62.50602547399887
 20
61.14766907452997
 30
0.000000000000000
  0
SPLINE
  5
5E
100
AcDbEntity
  8
A4
  6
DASHED
 62
4
100
AcDbSpline
210
0.000000000000000
220
0.000000000000000
230
1.000000000000000
 70
     8
 71
     3
 72
    15
 73
    11
 74
     0
 42
1.000000000000000e-07
 43
1.000000000000000e-07
 12
-0.01591586319227645
 22
0.2052868510982080
 32
0.000000000000000
 13
0.7623990132997278
 23
1.499797217518790
 33
0.000000000000000
 40
0.000000000000000
 40
0.000000000000000
 40
0.000000000000000
 40
0.000000000000000
 40
0.01584520722822021
 40
0.04246712070121593
 40
0.07694825534911937
 40
0.1044022506399727
 40
0.1234460764229403
 40
0.1341101960699392
 40
0.1386267583852773
 40
0.1422796718534874
 40
0.1422796718534874
 40
0.1422796718534874
 40
0.1422796718534874
 10
66.00023487829856
 20
63.67019579552704
 30
0.000000000000000
 10
66.00015081491506
 20
63.67128006642599
 30
0.000000000000000
 10
65.99914326184808
 20
63.68600331435516
 30
0.000000000000000
 10
66.00252340298402
 20
63.71240977043823
 30
0.000000000000000
 10
66.00916762243338
 20
63.74624470792173
 30
0.000000000000000
 10
66.01761324583038
 20
63.77236736672336
 30
0.000000000000000
 10
66.02482145112651
 20
63.78999430851320
 30
0.000000000000000
 10
66.02934494725838
 20
63.79965150430650
 30
0.000000000000000
 10
66.03134338093207
 20
63.80370188675761
 30
0.000000000000000
 10
66.03206258727960
 20
63.80513594034335
 30
0.000000000000000
 10
66.03299091315421
 20
63.80696215016184
 30
0.000000000000000
  0
SPLINE
  5
5F
100
AcDbEntity
  8
A4
  6
CONTINUOUS
 62
7
100
AcDbSpline
210
0.000000000000000
220
0.000000000000000
230
1.000000000000000
 70
     8
 71
     3
 72
    11
 73
     7
 74
     0
 42
1.000000000000000e-07
 43
1.000000000000000e-07
 12
-0.9740613354910010
 22
-0.2262841459336187
 32
0.000000000000000
 13
-0.9999992074614283
 23
0.001258998678565604
 33
0.000000000000000
 40
0.000000000000000
 40
0.000000000000000
 40
0.000000000000000
 40
0.000000000000000
 40
0.2124968999320447
 40
0.6152290709218918
 40
1.041216013186810
 40
1.474840057761343
 40
1.474840057761343
 40
1.474840057761343
 40
1.474840057761343
 10
62.51371886409811
 20
61.14994670886847
 30
0.000000000000000
 10
62.44472385938627
 20
61.13391848236358
 30
0.000000000000000
 10
62.24399563593147
 20
61.09148261159140
 30
0.000000000000000
 10
61.89991510472612
 20
61.04356652902095
 30
0.000000000000000
 10
61.48051705658872
 20
61.00767098200754
 30
0.000000000000000
 10
61.19388101168738
 20
60.99981802262903
 30
0.000000000000000
 10
61.04933977805047
 20
60.99999999999540
 30
0.000000000000000
  0
ARC
  5
60
100
AcDbEntity
  8
A4
  6
DASHED
 62
4
100
AcDbCircle
 10
54.50000000017741
 20
56.99999999999545
 30
0.000000000000000
 40
0.5000000000000000
100
AcDbArc
 50
180.0000000000000
 51
270.0000000000000
  0
ARC
  5
61
100
AcDbEntity
  8
A4
  6
DASHED
 62
4
100
AcDbCircle
 10
65.50000000017741
 20
56.99999999999545
 30
0.000000000000000
 40
0.5000000000000000
100
AcDbArc
 50
270.0000000000000
 51
360.0000000000000
  0
ARC
  5
62
100
AcDbEntity
  8
A4
  6
DASHED
 62
4
100
AcDbCircle
 10
53.70000000017740
 20
60.69999999999538
 30
0.000000000000000
 40
0.3000000000000000
100
AcDbArc
 50
0.000000000000000
 51
90.00000000000000
  0
ARC
  5
63
100
AcDbEntity
  8
A4
  6
DASHED
 62
4
100
AcDbCircle
 10
53.50000000017729
 20
52.49999999999528
 30
0.000000000000000
 40
0.5000000000000000
100
AcDbArc
 50
90.00000000000000
 51
180.0000000000000
  0
ARC
  5
64
100
AcDbEntity
  8
A4
  6
DASHED
 62
4
100
AcDbCircle
 10
66.50000000017741
 20
52.49999999999528
 30
0.000000000000000
 40
0.5000000000000000
100
AcDbArc
 50
0.000000000000000
 51
90.00000000000000
  0
ARC
  5
65
100
AcDbEntity
  8
A4
  6
CONTINUOUS
 62
7
100
AcDbCircle
 10
51.50000000000000
 20
59.49999999999540
 30
0.000000000000000
 40
1.500000000000000
100
AcDbArc
 50
90.00000000000000
 51
180.0000000000000
  0
ARC
  5
66
100
AcDbEntity
  8
A4
  6
CONTINUOUS
 62
7
100
AcDbCircle
 10
50.29999999999990
 20
50.30000000000001
 30
0.000000000000000
 40
0.3000000000000000
100
AcDbArc
 50
180.0000000000000
 51
270.0000000000000
  0
ARC
  5
67
100
AcDbEntity
  8
A4
  6
CONTINUOUS
 62
7
100
AcDbCircle
 10
208.4950481792968
 20
101.9999999999955
 30
0.000000000000000
 40
10.00000000000000
100
AcDbArc
 50
6.000000000000015
 51
90.00000000000000
  0
ARC
  5
68
100
AcDbEntity
  8
A4
  6
CONTINUOUS
 62
7
100
AcDbCircle
 10
81.70000000031303
 20
50.30000000000001
 30
0.000000000000000
 40
0.3000000000000000
100
AcDbArc
 50
270.0000000000000
 51
360.0000000000000
  0
ARC
  5
69
100
AcDbEntity
  8
A4
  6
CONTINUOUS
 62
7
100
AcDbCircle
 10
81.50495182214809
 20
101.9999999999955
 30
0.000000000000000
 40
10.00000000000000
100
AcDbArc
 50
90.00000000000000
 51
174.0000000000000
  0
ARC
  5
6A
100
AcDbEntity
  8
A4
  6
CONTINUOUS
 62
7
100
AcDbCircle
 10
59.93736302623751
 20
68.99999999999540
 30
0.000000000000000
 40
8.000000000000000
100
AcDbArc
 50
320.0484937495592
 51
354.0120867010828
  0
LINE
  5
6B
100
AcDbEntity
  8
A4
  6
DASHED
 62
4
100
AcDbLine
 10
62.75000000017729
 20
52.99999999999534
 30
0.000000000000000
 11
62.75000000017729
 21
56.49999999999540
 31
0.000000000000000
  0
LINE
  5
6C
100
AcDbEntity
  8
A4
  6
DASHED
 62
4
100
AcDbLine
 10
57.25000000017729
 20
56.49999999999540
 30
0.000000000000000
 11
57.25000000017729
 21
52.99999999999534
 31
0.000000000000000
  0
LINE
  5
6D
100
AcDbEntity
  8
A4
  6
DASHED
 62
4
100
AcDbLine
 10
54.50000000017741
 20
56.49999999999540
 30
0.000000000000000
 11
65.50000000008822
 21
56.49999999999540
 31
0.000000000000000
  0
LINE
  5
6E
100
AcDbEntity
  8
A4
  6
DASHED
 62
4
100
AcDbLine
 10
66.00000000017741
 20
56.99999999999545
 30
0.000000000000000
 11
66.00000000017741
 21
63.67019224193757
 31
0.000000000000000
  0
LINE
  5
6F
100
AcDbEntity
  8
A4
  6
DASHED
 62
4
100
AcDbLine
 10
54.00000000017741
 20
60.69999999999538
 30
0.000000000000000
 11
54.00000000017741
 21
56.99999999999545
 31
0.000000000000000
  0
LINE
  5
70
100
AcDbEntity
  8
A4
  6
DASHED
 62
4
100
AcDbLine
 10
62.53513750130916
 20
61.15405500640754
 30
0.000000000000000
 11
62.46945647205964
 21
61.14041736992881
 31
0.000000000000000
  0
LINE
  5
71
100
AcDbEntity
  8
A4
  6
DASHED
 62
4
100
AcDbLine
 10
66.03352144337357
 20
63.80800124880756
 30
0.000000000000000
 11
66.03297832191616
 21
63.80696780266303
 31
0.000000000000000
  0
LINE
  5
72
100
AcDbEntity
  8
A4
  6
DASHED
 62
4
100
AcDbLine
 10
66.50000000017729
 20
52.99999999999534
 30
0.000000000000000
 11
53.50000000017729
 21
52.99999999999534
 31
0.000000000000000
  0
LINE
  5
73
100
AcDbEntity
  8
A4
  6
DASHED
 62
4
100
AcDbLine
 10
67.00000000017741
 20
50.00000000000000
 30
0.000000000000000
 11
67.00000000017741
 21
52.49999999999528
 31
0.000000000000000
  0
LINE
  5
74
100
AcDbEntity
  8
A4
  6
DASHED
 62
4
100
AcDbLine
 10
53.00000000017729
 20
52.49999999999528
 30
0.000000000000000
 11
53.00000000017729
 21
50.00000000000000
 31
0.000000000000000
  0
LINE
  5
75
100
AcDbEntity
  8
A4
  6
CONTINUOUS
 62
7
100
AcDbLine
 10
51.50000000000000
 20
60.99999999999540
 30
0.000000000000000
 11
60.00000000000000
 21
60.99999999999540
 31
0.000000000000000
  0
LINE
  5
76
100
AcDbEntity
  8
A4
  6
CONTINUOUS
 62
7
100
AcDbLine
 10
82.00000000031309
 20
95.67544467965877
 30
0.000000000000000
 11
82.00000000031309
 21
50.30000000000001
 31
0.000000000000000
  0
LINE
  5
77
100
AcDbEntity
  8
A4
  6
CONTINUOUS
 62
7
100
AcDbLine
 10
208.0000000011318
 20
95.67544467965877
 30
0.000000000000000
 11
208.0000000011318
 21
50.30000000000001
 31
0.000000000000000
  0
LINE
  5
78
100
AcDbEntity
  8
A4
  6
CONTINUOUS
 62
7
100
AcDbLine
 10
60.00000000000000
 20
60.99999999999540
 30
0.000000000000000
 11
61.06843387580238
 21
60.99999999999540
 31
0.000000000000000
  0
LINE
  5
79
100
AcDbEntity
  8
A4
  6
CONTINUOUS
 62
7
100
AcDbLine
 10
81.70000000031303
 20
50.00000000000000
 30
0.000000000000000
 11
81.00000000031304
 21
50.00000000000000
 31
0.000000000000000
  0
LINE
  5
7A
100
AcDbEntity
  8
A4
  6
CONTINUOUS
 62
7
100
AcDbLine
 10
50.00000000000000
 20
59.49999999999540
 30
0.000000000000000
 11
50.00000000000000
 21
50.30000000000001
 31
0.000000000000000
  0
LINE
  5
7B
100
AcDbEntity
  8
A4
  6
CONTINUOUS
 62
7
100
AcDbLine
 10
208.4950481792968
 20
111.9999999999955
 30
0.000000000000000
 11
81.50495182214809
 21
111.9999999999955
 31
0.000000000000000
  0
LINE
  5
7C
100
AcDbEntity
  8
A4
  6
CONTINUOUS
 62
7
100
AcDbLine
 10
84.00000000031309
 20
91.99999999999551
 30
0.000000000000000
 11
206.0000000011318
 21
91.99999999999551
 31
0.000000000000000
  0
LINE
  5
7D
100
AcDbEntity
  8
A4
  6
CONTINUOUS
 62
7
100
AcDbLine
 10
222.1064618122613
 20
68.16377229385422
 30
0.000000000000000
 11
218.4402671329796
 21
103.0452846326721
 31
0.000000000000000
  0
LINE
  5
7E
100
AcDbEntity
  8
A4
  6
CONTINUOUS
 62
7
100
AcDbLine
 10
71.55973286846542
 20
103.0452846326720
 30
0.000000000000000
 11
67.89353818918372
 21
68.16377229385415
 31
0.000000000000000
  0
LINE
  5
7F
100
AcDbEntity
  8
A4
  6
DASHED
 62
4
100
AcDbLine
 10
62.47712574940336
 20
61.14194631381053
 30
0.000000000000000
 11
62.50920703041548
 21
61.14836697173666
 31
0.000000000000000
  0
LINE
  5
80
100
AcDbEntity
  8
A4
  6
CONTINUOUS
 62
7
100
AcDbLine
 10
50.29999999999990
 20
50.00000000000000
 30
0.000000000000000
 11
81.00000000031304
 21
50.00000000000000
 31
0.000000000000000
  0
LINE
  5
81
100
AcDbEntity
  8
A4
  6
CENTER
 62
1
100
AcDbLine
 10
60.00000000017729
 20
48.50000000000000
 30
0.000000000000000
 11
60.00000000017729
 21
62.49999999999540
 31
0.000000000000000
  0
SPLINE
  5
82
100
AcDbEntity
  8
A4
  6
CONTINUOUS
 62
7
100
AcDbSpline
210
0.000000000000000
220
0.000000000000000
230
1.000000000000000
 70
     8
 71
     3
 72
    13
 73
     9
 74
     0
 42
1.000000000000000e-07
 43
1.000000000000000e-07
 12
0.8291142645248328
 22
-0.8979105922044255
 32
0.000000000000000
 13
0.7185300609853584
 23
-1.371292279269255
 33
0.000000000000000
 40
0.000000000000000
 40
0.000000000000000
 40
0.000000000000000
 40
0.000000000000000
 40
0.02797356071876407
 40
0.04615587421458124
 40
0.05618368674819655
 40
0.06035273901923745
 40
0.06196651985673837
 40
0.06602318638267998
 40
0.06602318638267998
 40
0.06602318638267998
 40
0.06602318638267998
 10
223.9298661466185
 20
63.86268121417561
 30
0.000000000000000
 10
223.9375972393590
 20
63.85430862868526
 30
0.000000000000000
 10
223.9470475844555
 20
63.84068861401244
 30
0.000000000000000
 10
223.9568790591792
 20
63.82539356158304
 30
0.000000000000000
 10
223.9618299370790
 20
63.81667313543346
 30
0.000000000000000
 10
223.9638258918222
 20
63.81301292211975
 30
0.000000000000000
 10
223.9645883747534
 20
63.81159063228603
 30
0.000000000000000
 10
223.9655069464151
 20
63.80985554063642
 30
0.000000000000000
 10
223.9664785586972
 20
63.80800124880756
 30
0.000000000000000
  0
SPLINE
  5
83
100
AcDbEntity
  8
A4
  6
CONTINUOUS
 62
7
100
AcDbSpline
210
0.000000000000000
220
0.000000000000000
230
1.000000000000000
 70
     8
 71
     3
 72
    31
 73
    27
 74
     0
 42
1.000000000000000e-07
 43
1.000000000000000e-07
 12
0.4090533195849275
 22
-0.7807122441690808
 32
0.000000000000000
 13
0.8520658429520154
 23
-0.1695316109124860
 33
0.000000000000000
 40
0.000000000000000
 40
0.000000000000000
 40
0.000000000000000
 40
0.000000000000000
 40
0.02617292198777565
 40
0.06146057386492001
 40
0.1149386533495200
 40
0.1869377724112937
 40
0.2779090440034139
 40
0.3881005505440369
 40
0.5179405889647427
 40
0.6701033093636161
 40
0.8450716679912845
 40
1.042997108511819
 40
1.261159629979010
 40
1.497985555501903
 40
1.747473804777144
 40
2.004052266467431
 40
2.263170053436268
 40
2.524424973982042
 40
2.787277869200415
 40
3.051217525901193
 40
3.316002773754800
 40
3.581618945453955
 40
3.848260701685005
 40
4.116191577963564
 40
4.357164879043276
 40
4.570651048858775
 40
4.570651048858775
 40
4.570651048858775
 40
4.570651048858775
 10
223.9665010599189
 20
63.80794840728095
 30
0.000000000000000
 10
223.9700697667930
 20
63.80113723372710
 30
0.000000000000000
 10
223.9787884228442
 20
63.78483927365085
 30
0.000000000000000
 10
223.9956699253782
 20
63.75385164309932
 30
0.000000000000000
 10
224.0217487088141
 20
63.70716329294788
 30
0.000000000000000
 10
224.0575871627955
 20
63.64471748955089
 30
0.000000000000000
 10
224.1039309903152
 20
63.56643580647039
 30
0.000000000000000
 10
224.1615564815462
 20
63.47251312085041
 30
0.000000000000000
 10
224.2314293253845
 20
63.36307719772162
 30
0.000000000000000
 10
224.3164123498275
 20
63.23685763095125
 30
0.000000000000000
 10
224.4182422711381
 20
63.09457413350077
 30
0.000000000000000
 10
224.5386498579060
 20
62.93748660040546
 30
0.000000000000000
 10
224.6778025698306
 20
62.76946455263510
 30
0.000000000000000
 10
224.8365872197452
 20
62.59375469533825
 30
0.000000000000000
 10
225.0131321071913
 20
62.41747001295471
 30
0.000000000000000
 10
225.2043234020563
 20
62.24636070353176
 30
0.000000000000000
 10
225.4063379156856
 20
62.08408882116532
 30
0.000000000000000
 10
225.6184250746464
 20
61.93153335415963
 30
0.000000000000000
 10
225.8396166325970
 20
61.78952652609826
 30
0.000000000000000
 10
226.0689003848205
 20
61.65878593046841
 30
0.000000000000000
 10
226.3054328377791
 20
61.53977489661742
 30
0.000000000000000
 10
226.5485530683059
 20
61.43279590720033
 30
0.000000000000000
 10
226.7977475783086
 20
61.33792798664496
 30
0.000000000000000
 10
227.0526912674094
 20
61.25552246588893
 30
0.000000000000000
 10
227.2851798901242
 20
61.19214130037875
 30
0.000000000000000
 10
227.4333397703244
 20
61.15973329262209
 30
0.000000000000000
 10
227.4939745280719
 20
61.14766907452997
 30
0.000000000000000
  0
SPLINE
  5
84
100
AcDbEntity
  8
A4
  6
DASHED
 62
4
100
AcDbSpline
210
0.000000000000000
220
0.000000000000000
230
1.000000000000000
 70
     8
 71
     3
 72
    15
 73
    11
 74
     0
 42
1.000000000000000e-07
 43
1.000000000000000e-07
 12
0.01591586319409544
 22
0.2052868510982080
 32
0.000000000000000
 13
-0.7623990132997278
 23
1.499797217518790
 33
0.000000000000000
 40
0.000000000000000
 40
0.000000000000000
 40
0.000000000000000
 40
0.000000000000000
 40
0.01584520722822021
 40
0.04246712070121593
 40
0.07694825534911937
 40
0.1044022506399727
 40
0.1234460764229403
 40
0.1341101960699392
 40
0.1386267583852773
 40
0.1422796718534874
 40
0.1422796718534874
 40
0.1422796718534874
 40
0.1422796718534874
 10
223.9997651237722
 20
63.67019579552704
 30
0.000000000000000
 10
223.9998491871557
 20
63.67128006642599
 30
0.000000000000000
 10
224.0008567402227
 20
63.68600331435516
 30
0.000000000000000
 10
223.9974765990868
 20
63.71240977043823
 30
0.000000000000000
 10
223.9908323796374
 20
63.74624470792173
 30
0.000000000000000
 10
223.9823867562404
 20
63.77236736672336
 30
0.000000000000000
 10
223.9751785509443
 20
63.78999430851320
 30
0.000000000000000
 10
223.9706550548124
 20
63.79965150430650
 30
0.000000000000000
 10
223.9686566211387
 20
63.80370188675761
 30
0.000000000000000
 10
223.9679374147912
 20
63.80513594034335
 30
0.000000000000000
 10
223.9670090889166
 20
63.80696215016184
 30
0.000000000000000
  0
SPLINE
  5
85
100
AcDbEntity
  8
A4
  6
CONTINUOUS
 62
7
100
AcDbSpline
210
0.000000000000000
220
0.000000000000000
230
1.000000000000000
 70
     8
 71
     3
 72
    11
 73
     7
 74
     0
 42
1.000000000000000e-07
 43
1.000000000000000e-07
 12
0.9740613354911147
 22
-0.2262841459336187
 32
0.000000000000000
 13
0.9999992074615420
 23
0.001258998678565604
 33
0.000000000000000
 40
0.000000000000000
 40
0.000000000000000
 40
0.000000000000000
 40
0.000000000000000
 40
0.2124968999320447
 40
0.6152290709218918
 40
1.041216013186810
 40
1.474840057761343
 40
1.474840057761343
 40
1.474840057761343
 40
1.474840057761343
 10
227.4862811379727
 20
61.14994670886847
 30
0.000000000000000
 10
227.5552761426845
 20
61.13391848236358
 30
0.000000000000000
 10
227.7560043661393
 20
61.09148261159140
 30
0.000000000000000
 10
228.1000848973447
 20
61.04356652902095
 30
0.000000000000000
 10
228.5194829454821
 20
61.00767098200754
 30
0.000000000000000
 10
228.8061189903834
 20
60.99981802262903
 30
0.000000000000000
 10
228.9506602240203
 20
60.99999999999540
 30
0.000000000000000
  0
ARC
  5
86
100
AcDbEntity
  8
A4
  6
DASHED
 62
4
100
AcDbCircle
 10
235.5000000018934
 20
56.99999999999545
 30
0.000000000000000
 40
0.5000000000000000
100
AcDbArc
 50
270.0000000000000
 51
360.0000000000000
  0
ARC
  5
87
100
AcDbEntity
  8
A4
  6
DASHED
 62
4
100
AcDbCircle
 10
224.5000000018934
 20
56.99999999999545
 30
0.000000000000000
 40
0.5000000000000000
100
AcDbArc
 50
180.0000000000000
 51
270.0000000000000
  0
ARC
  5
88
100
AcDbEntity
  8
A4
  6
DASHED
 62
4
100
AcDbCircle
 10
236.3000000018934
 20
60.69999999999538
 30
0.000000000000000
 40
0.3000000000000000
100
AcDbArc
 50
90.00000000000000
 51
180.0000000000000
  0
ARC
  5
89
100
AcDbEntity
  8
A4
  6
DASHED
 62
4
100
AcDbCircle
 10
236.5000000018935
 20
52.49999999999528
 30
0.000000000000000
 40
0.5000000000000000
100
AcDbArc
 50
0.000000000000000
 51
90.00000000000000
  0
ARC
  5
8A
100
AcDbEntity
  8
A4
  6
DASHED
 62
4
100
AcDbCircle
 10
223.5000000018934
 20
52.49999999999528
 30
0.000000000000000
 40
0.5000000000000000
100
AcDbArc
 50
90.00000000000000
 51
180.0000000000000
  0
ARC
  5
8B
100
AcDbEntity
  8
A4
  6
CONTINUOUS
 62
7
100
AcDbCircle
 10
238.5000000020708
 20
59.49999999999540
 30
0.000000000000000
 40
1.500000000000000
100
AcDbArc
 50
0.000000000000000
 51
90.00000000000000
  0
ARC
  5
8C
100
AcDbEntity
  8
A4
  6
CONTINUOUS
 62
7
100
AcDbCircle
 10
239.7000000020709
 20
50.30000000000001
 30
0.000000000000000
 40
0.3000000000000000
100
AcDbArc
 50
270.0000000000000
 51
360.0000000000000
  0
ARC
  5
8D
100
AcDbEntity
  8
A4
  6
CONTINUOUS
 62
7
100
AcDbCircle
 10
208.3000000017578
 20
50.30000000000001
 30
0.000000000000000
 40
0.3000000000000000
100
AcDbArc
 50
180.0000000000000
 51
270.0000000000000
  0
ARC
  5
8E
100
AcDbEntity
  8
A4
  6
CONTINUOUS
 62
7
100
AcDbCircle
 10
230.0626369758333
 20
68.99999999999540
 30
0.000000000000000
 40
8.000000000000000
100
AcDbArc
 50
185.9879132989172
 51
219.9515062504408
  0
LINE
  5
8F
100
AcDbEntity
  8
A4
  6
DASHED
 62
4
100
AcDbLine
 10
227.2500000018935
 20
52.99999999999534
 30
0.000000000000000
 11
227.2500000018935
 21
56.49999999999540
 31
0.000000000000000
  0
LINE
  5
90
100
AcDbEntity
  8
A4
  6
DASHED
 62
4
100
AcDbLine
 10
232.7500000018935
 20
56.49999999999540
 30
0.000000000000000
 11
232.7500000018935
 21
52.99999999999534
 31
0.000000000000000
  0
LINE
  5
91
100
AcDbEntity
  8
A4
  6
DASHED
 62
4
100
AcDbLine
 10
235.5000000018934
 20
56.49999999999540
 30
0.000000000000000
 11
224.5000000019826
 21
56.49999999999540
 31
0.000000000000000
  0
LINE
  5
92
100
AcDbEntity
  8
A4
  6
DASHED
 62
4
100
AcDbLine
 10
224.0000000018934
 20
56.99999999999545
 30
0.000000000000000
 11
224.0000000018934
 21
63.67019224193757
 31
0.000000000000000
  0
LINE
  5
93
100
AcDbEntity
  8
A4
  6
DASHED
 62
4
100
AcDbLine
 10
236.0000000018934
 20
60.69999999999538
 30
0.000000000000000
 11
236.0000000018934
 21
56.99999999999545
 31
0.000000000000000
  0
LINE
  5
94
100
AcDbEntity
  8
A4
  6
DASHED
 62
4
100
AcDbLine
 10
227.4648625007615
 20
61.15405500640748
 30
0.000000000000000
 11
227.5305435300110
 21
61.14041736992875
 31
0.000000000000000
  0
LINE
  5
95
100
AcDbEntity
  8
A4
  6
DASHED
 62
4
100
AcDbLine
 10
223.9664785586972
 20
63.80800124880756
 30
0.000000000000000
 11
223.9670216801546
 21
63.80696780266304
 31
0.000000000000000
  0
LINE
  5
96
100
AcDbEntity
  8
A4
  6
DASHED
 62
4
100
AcDbLine
 10
223.5000000018935
 20
52.99999999999534
 30
0.000000000000000
 11
236.5000000018935
 21
52.99999999999534
 31
0.000000000000000
  0
LINE
  5
97
100
AcDbEntity
  8
A4
  6
DASHED
 62
4
100
AcDbLine
 10
223.0000000018934
 20
50.00000000000000
 30
0.000000000000000
 11
223.0000000018934
 21
52.49999999999528
 31
0.000000000000000
  0
LINE
  5
98
100
AcDbEntity
  8
A4
  6
DASHED
 62
4
100
AcDbLine
 10
237.0000000018935
 20
52.49999999999528
 30
0.000000000000000
 11
237.0000000018935
 21
50.00000000000000
 31
0.000000000000000
  0
LINE
  5
99
100
AcDbEntity
  8
A4
  6
CONTINUOUS
 62
7
100
AcDbLine
 10
238.5000000020708
 20
60.99999999999540
 30
0.000000000000000
 11
230.0000000020708
 21
60.99999999999540
 31
0.000000000000000
  0
LINE
  5
9A
100
AcDbEntity
  8
A4
  6
CONTINUOUS
 62
7
100
AcDbLine
 10
230.0000000020708
 20
60.99999999999540
 30
0.000000000000000
 11
228.9315661262684
 21
60.99999999999540
 31
0.000000000000000
  0
LINE
  5
9B
100
AcDbEntity
  8
A4
  6
CONTINUOUS
 62
7
100
AcDbLine
 10
208.3000000017578
 20
50.00000000000000
 30
0.000000000000000
 11
209.0000000017578
 21
50.00000000000000
 31
0.000000000000000
  0
LINE
  5
9C
100
AcDbEntity
  8
A4
  6
CONTINUOUS
 62
7
100
AcDbLine
 10
240.0000000020708
 20
59.49999999999540
 30
0.000000000000000
 11
240.0000000020708
 21
50.30000000000001
 31
0.000000000000000
  0
LINE
  5
9D
100
AcDbEntity
  8
A4
  6
DASHED
 62
4
100
AcDbLine
 10
227.5228742526676
 20
61.14194631381047
 30
0.000000000000000
 11
227.4907929716555
 21
61.14836697173661
 31
0.000000000000000
  0
LINE
  5
9E
100
AcDbEntity
  8
A4
  6
CONTINUOUS
 62
7
100
AcDbLine
 10
239.7000000020709
 20
50.00000000000000
 30
0.000000000000000
 11
209.0000000017578
 21
50.00000000000000
 31
0.000000000000000
  0
LINE
  5
9F
100
AcDbEntity
  8
A4
  6
CENTER
 62
1
100
AcDbLine
 10
230.0000000018935
 20
48.50000000000000
 30
0.000000000000000
 11
230.0000000018935
 21
62.49999999999540
 31
0.000000000000000
  0
CIRCLE
  5
A0
100
AcDbEntity
  8
A10
  6
CONTINUOUS
 62
7
100
AcDbCircle
 10
230.0000000014450
 20
177.4666041989939
 30
0.000000000000000
 40
6.000000000000000
  0
CIRCLE
  5
A1
100
AcDbEntity
  8
A10
  6
CONTINUOUS
 62
7
100
AcDbCircle
 10
60.00000000062619
 20
177.4666041989939
 30
0.000000000000000
 40
6.000000000000000
  0
ARC
  5
A2
100
AcDbEntity
  8
A4
  6
CONTINUOUS
 62
7
100
AcDbCircle
 10
206.0000000011318
 20
89.99999999999551
 30
0.000000000000000
 40
2.000000000000000
100
AcDbArc
 50
0.000000000000000
 51
90.00000000000000
  0
ARC
  5
A3
100
AcDbEntity
  8
A4
  6
CONTINUOUS
 62
7
100
AcDbCircle
 10
84.00000000031309
 20
89.99999999999551
 30
0.000000000000000
 40
2.000000000000000
100
AcDbArc
 50
90.00000000000000
 51
180.0000000000000
  0
SPLINE
  5
A4
100
AcDbEntity
  8
A5
  6
CONTINUOUS
 62
7
100
AcDbSpline
210
0.000000000000000
220
0.000000000000000
230
1.000000000000000
 70
     8
 71
     3
 72
     9
 73
     5
 74
     0
 42
1.000000000000000e-07
 43
1.000000000000000e-07
 12
0.0001723391328596335
 22
0.9999999851493158
 32
0.000000000000000
 13
-0.008160261881585029
 23
0.9999667045085516
 33
0.000000000000000
 40
0.000000000000000
 40
0.000000000000000
 40
0.000000000000000
 40
0.000000000000000
 40
0.2552363425041287
 40
0.6610539660319407
 40
0.6610539660319407
 40
0.6610539660319407
 40
0.6610539660319407
 10
314.9978626063489
 20
80.88795101365514
 30
0.000000000000000
 10
314.9978772687522
 20
80.97302979322637
 30
0.000000000000000
 10
314.9975607717590
 20
81.19338123150305
 30
0.000000000000000
 10
314.9963262187748
 20
81.41373030995049
 30
0.000000000000000
 10
314.9952223594134
 20
81.54899834716070
 30
0.000000000000000
  0
ELLIPSE
  5
A5
100
AcDbEntity
  8
A5
  6
CONTINUOUS
 62
7
100
AcDbEllipse
 10
305.0000000003259
 20
79.39983104203270
 30
0.000000000000000
 11
0.000000000000000
 21
73.97145077652826
 31
0.000000000000000
210
0.000000000000000
220
0.000000000000000
230
1.000000000000000
 40
0.1351872904346643
 41
4.732506440296705
 42
4.770139337602296
  0
ELLIPSE
  5
A6
100
AcDbEntity
  8
A5
  6
CONTINUOUS
 62
7
100
AcDbEllipse
 10
305.0000000003259
 20
79.39983104203270
 30
0.000000000000000
 11
0.000000000000000
 21
73.97145077652826
 31
0.000000000000000
210
0.000000000000000
220
0.000000000000000
230
1.000000000000000
 40
0.1351872904346643
 41
4.712388980384690
 42
4.732506440296705
  0
ELLIPSE
  5
A7
100
AcDbEntity
  8
A2
  6
CONTINUOUS
 62
1
100
AcDbEllipse
 10
305.0000000003259
 20
68.99999999999534
 30
0.000000000000000
 11
10.00000000000000
 21
0.000000000000000
 31
0.000000000000000
210
0.000000000000000
220
0.000000000000000
230
1.000000000000000
 40
0.09749547472412130
 41
3.141592653589793
 42
0.000000000000000
  0
LINE
  5
A8
100
AcDbEntity
  8
A5
  6
CONTINUOUS
 62
7
100
AcDbLine
 10
295.3000000003260
 20
50.00000000000000
 30
0.000000000000000
 11
314.7000000003259
 21
50.00000000000000
 31
0.000000000000000
  0
LINE
  5
A9
100
AcDbEntity
  8
A5
  6
CONTINUOUS
 62
7
100
AcDbLine
 10
313.5000000003259
 20
60.99999999999534
 30
0.000000000000000
 11
296.5000000003259
 21
60.99999999999534
 31
0.000000000000000
  0
LINE
  5
AA
100
AcDbEntity
  8
A5
  6
CENTER
 62
1
100
AcDbLine
 10
316.5000000003261
 20
101.9999999999954
 30
0.000000000000000
 11
293.5000000003258
 21
101.9999999999954
 31
0.000000000000000
  0
LINE
  5
AB
100
AcDbEntity
  8
A5
  6
CENTER
 62
1
100
AcDbLine
 10
305.0000000002528
 20
48.50000000000003
 30
0.000000000000000
 11
305.0000000003259
 21
113.4999999999955
 31
0.000000000000000
  0
ARC
  5
AC
100
AcDbEntity
  8
A5
  6
DASHED
 62
4
100
AcDbCircle
 10
305.0000000003259
 20
101.9999999999954
 30
0.000000000000000
 40
10.00000000000009
100
AcDbArc
 50
180.0000000000000
 51
360.0000000000000
  0
ARC
  5
AD
100
AcDbEntity
  8
A5
  6
CONTINUOUS
 62
7
100
AcDbCircle
 10
295.3000000003260
 20
50.30000000000001
 30
0.000000000000000
 40
0.3000000000000000
100
AcDbArc
 50
180.0000000000000
 51
270.0000000000000
  0
ARC
  5
AE
100
AcDbEntity
  8
A5
  6
CONTINUOUS
 62
7
100
AcDbCircle
 10
314.7000000003259
 20
50.30000000000001
 30
0.000000000000000
 40
0.3000000000000000
100
AcDbArc
 50
270.0000000000000
 51
360.0000000000000
  0
LINE
  5
AF
100
AcDbEntity
  8
A5
  6
CONTINUOUS
 62
7
100
AcDbLine
 10
315.0000000003259
 20
50.30000000000001
 30
0.000000000000000
 11
315.0000000003259
 21
101.9999999999954
 31
0.000000000000000
  0
LINE
  5
B0
100
AcDbEntity
  8
A5
  6
CONTINUOUS
 62
7
100
AcDbLine
 10
295.0000000003259
 20
50.30000000000001
 30
0.000000000000000
 11
295.0000000003259
 21
101.9999999999954
 31
0.000000000000000
  0
ARC
  5
B1
100
AcDbEntity
  8
A10
  6
CONTINUOUS
 62
7
100
AcDbCircle
 10
305.0000000003130
 20
101.9999999999954
 30
0.000000000000000
 40
10.00000000000000
100
AcDbArc
 50
0.000000000000000
 51
180.0000000000000
  0
ARC
  5
B2
100
AcDbEntity
  8
A10
  6
CONTINUOUS
 62
7
100
AcDbCircle
 10
313.5000000003259
 20
59.49999999999534
 30
0.000000000000000
 40
1.500000000000000
100
AcDbArc
 50
0.000000000000000
 51
90.00000000000000
  0
ARC
  5
B3
100
AcDbEntity
  8
A10
  6
CONTINUOUS
 62
7
100
AcDbCircle
 10
296.5000000003259
 20
59.49999999999534
 30
0.000000000000000
 40
1.500000000000000
100
AcDbArc
 50
90.00000000000000
 51
180.0000000000000
  0
SPLINE
  5
B4
100
AcDbEntity
  8
A2
  6
CONTINUOUS
 62
1
100
AcDbSpline
210
0.000000000000000
220
0.000000000000000
230
1.000000000000000
 70
     8
 71
     3
 72
    50
 73
    46
 74
     0
 42
1.000000000000000e-07
 43
1.000000000000000e-07
 12
-0.9981005598456250
 22
0.06160578257595262
 32
0.000000000000000
 13
-0.9973445760360846
 23
-0.07282716976487791
 33
0.000000000000000
 40
0.000000000000000
 40
0.000000000000000
 40
0.000000000000000
 40
0.000000000000000
 40
0.09600364052203970
 40
0.2266886620525686
 40
0.3993173971768190
 40
0.6090481598955368
 40
0.8458295602413015
 40
1.113140658218974
 40
1.416733439069813
 40
1.746290851747841
 40
2.226672775554532
 40
2.740891102685398
 40
3.298187220860112
 40
3.878181428074168
 40
4.495312068951442
 40
5.127106640730756
 40
5.566170673798463
 40
6.010168670334875
 40
6.457183209570787
 40
6.719032121149435
 40
6.981803720861395
 40
7.251647208857245
 40
7.522039884720892
 40
7.801091159458013
 40
8.201432262603552
 40
8.608553800885725
 40
8.942357757756911
 40
9.274666129838925
 40
9.612561290068147
 40
9.948258143677954
 40
10.49754174072158
 40
11.03902651846911
 40
11.56958118134325
 40
12.10560092267795
 40
12.62473604296351
 40
13.12142854371146
 40
13.52522878351225
 40
13.90569031903313
 40
14.26757711106730
 40
14.59609064922224
 40
14.87911320131825
 40
15.12264804018797
 40
15.33071140313674
 40
15.49112752596569
 40
15.60180044877606
 40
15.60180044877606
 40
15.60180044877606
 40
15.60180044877606
 10
311.7818984574638
 20
60.99999999999540
 30
0.000000000000000
 10
311.7499580283464
 20
61.00197145979689
 30
0.000000000000000
 10
311.6745719801866
 20
61.01117098130362
 30
0.000000000000000
 10
311.5475353241649
 20
61.05271306743737
 30
0.000000000000000
 10
311.3895190084250
 20
61.11809292689549
 30
0.000000000000000
 10
311.2043612863857
 20
61.20962695254218
 30
0.000000000000000
 10
310.9959344754456
 20
61.32447416237392
 30
0.000000000000000
 10
310.7646966042482
 20
61.46245999082453
 30
0.000000000000000
 10
310.5113145793533
 20
61.62341583555008
 30
0.000000000000000
 10
310.2023909613781
 20
61.82922317620535
 30
0.000000000000000
 10
309.8402132266160
 20
62.08156204790839
 30
0.000000000000000
 10
309.4201190257433
 20
62.38343582458839
 30
0.000000000000000
 10
308.9757419064263
 20
62.70837284416302
 30
0.000000000000000
 10
308.5028786624267
 20
63.05246546422603
 30
0.000000000000000
 10
308.0058850999202
 20
63.40559441748741
 30
0.000000000000000
 10
307.5374647143638
 20
63.71758944834420
 30
0.000000000000000
 10
307.1061559393200
 20
63.98043586558157
 30
0.000000000000000
 10
306.7161959775773
 20
64.19189514734262
 30
0.000000000000000
 10
306.3660840881302
 20
64.35141349488862
 30
0.000000000000000
 10
306.0623562222297
 20
64.46435381289677
 30
0.000000000000000
 10
305.8086271940745
 20
64.54091331864248
 30
0.000000000000000
 10
305.5471134902576
 20
64.59924780945806
 30
0.000000000000000
 10
305.2762623408367
 20
64.63676552899670
 30
0.000000000000000
 10
304.9595800297960
 20
64.65165967855376
 30
0.000000000000000
 10
304.5971086488447
 20
64.62708802265576
 30
0.000000000000000
 10
304.2231348929013
 20
64.55226357286642
 30
0.000000000000000
 10
303.8809728840930
 20
64.44646323459472
 30
0.000000000000000
 10
303.5695534455618
 20
64.32315831186224
 30
0.000000000000000
 10
303.2660652527217
 20
64.18016968609504
 30
0.000000000000000
 10
302.9066662331131
 20
63.98756955625271
 30
0.000000000000000
 10
302.4991941805001
 20
63.74202600682531
 30
0.000000000000000
 10
302.0490257189110
 20
63.44280000131579
 30
0.000000000000000
 10
301.6109489326981
 20
63.13386874226194
 30
0.000000000000000
 10
301.1825569161933
 20
62.82424018703148
 30
0.000000000000000
 10
300.7650318763544
 20
62.51886560049206
 30
0.000000000000000
 10
300.3822322870100
 20
62.24066403439127
 30
0.000000000000000
 10
300.0340995210702
 20
61.99342444866335
 30
0.000000000000000
 10
299.7195935073909
 20
61.77648561278716
 30
0.000000000000000
 10
299.4217241785747
 20
61.57974245476157
 30
0.000000000000000
 10
299.1464532034814
 20
61.40783911248684
 30
0.000000000000000
 10
298.8995968481987
 20
61.26531038104827
 30
0.000000000000000
 10
298.6825057631075
 20
61.15156846407166
 30
0.000000000000000
 10
298.4959690199755
 20
61.06917129028466
 30
0.000000000000000
 10
298.3449523321561
 20
61.01479509332137
 30
0.000000000000000
 10
298.2548945552424
 20
61.00268666524136
 30
0.000000000000000
 10
298.2181015421494
 20
60.99999999999540
 30
0.000000000000000
  0
POINT
  5
B5
100
AcDbEntity
  8
A10
  6
CONTINUOUS
 62
5
100
AcDbPoint
 10
50.00000000000000
 20
50.00000000000000
 30
0.000000000000000
  0
ENDSEC
  0
SECTION
  2
OBJECTS
  0
DICTIONARY
  5
E3
100
AcDbDictionary
  3
ACAD_GROUP
350
E4
  3
ACAD_LAYOUT
350
E5
  3
ACAD_MLINESTYLE
350
E6
  0
DICTIONARY
  5
E4
102
{ACAD_REACTORS
330
E3
102
}
330
E3
100
AcDbDictionary
  0
DICTIONARY
  5
E5
102
{ACAD_REACTORS
330
E3
102
}
330
E3
100
AcDbDictionary
  3
Model
350
E7
  3
ﾚｲｱｳﾄ1
350
E8
  3
ﾚｲｱｳﾄ2
350
E9
  0
DICTIONARY
  5
E6
102
{ACAD_REACTORS
330
E3
102
}
330
E3
100
AcDbDictionary
  3
STANDARD
350
EA
  0
LAYOUT
  5
E7
102
{ACAD_REACTORS
330
E5
102
}
330
E5
100
AcDbPlotSettings
 70
11952
  4
A3
 44
297.000000
 45
420.000000
 73
  1
 72
  1
100
AcDbLayout
  1
Model
 71
0
330
DA
  0
LAYOUT
  5
E8
102
{ACAD_REACTORS
330
E5
102
}
330
E5
100
AcDbPlotSettings
100
AcDbLayout
  1
ﾚｲｱｳﾄ1
 71
1
330
DB
  0
LAYOUT
  5
E9
102
{ACAD_REACTORS
330
E5
102
}
330
E5
100
AcDbPlotSettings
100
AcDbLayout
  1
ﾚｲｱｳﾄ2
 71
2
330
DC
  0
MLINESTYLE
  5
EA
102
{ACAD_REACTORS
330
E6
102
}
330
E6
100
AcDbMlineStyle
  2
STANDARD
 70
     0
  3

 62
   256
 51
90.00
 52
90.00
 71
     2
 49
0.50
 62
   256
  6
BYLAYER
 49
-0.50
 62
   256
  6
BYLAYER
  0
ENDSEC
  0
EOF
