  0
SECTION
  2
HEADER
  9
$ACADVER
  1
AC1027
  9
$DWGCODEPAGE
  3
ANSI_932
  9
$LTSCALE
 40
20.0
  9
$FILLMODE
 70
     1
  9
$CLAYER
  8
0
  9
$PDMODE
 70
     0
  9
$SPLFRAME
 70
     0
  9
$SPLINETYPE
 70
     6
  9
$SPLINESEGS
 70
     8
  9
$DIMASZ
 40
2.000000
  9
$DIMEXE
 40
1.500000
  9
$DIMEXO
 40
0.800000
  9
$DIMTAD
 70
     1
  9
$DIMTIH
 70
     0
  9
$DIMTOH
 70
     0
  9
$DIMTVP
 40
0.500000
  9
$DIMTXT
 40
3.100000
  9
$EXTMIN
 10
0.000000
 20
0.000000
 30
0.000000
  9
$EXTMAX
 10
297.000000
 20
420.000000
 30
0.000000
  9
$MEASUREMENT
 70
  1
  9
$LIMMIN
 10
0.000000
 20
0.000000
  9
$LIMMAX
 10
297.000000
 20
420.000000
  9
$HANDSEED
  5
102
  9
$LWDISPLAY
290
     0
  9
$DIMBLK
  1
_OPEN
  9
$DIMDEC
 70
     2
  9
$DIMADEC
 70
     2
  9
$DIMAUNIT
 70
     0
  9
$DIMZIN
 70
     8
  9
$DIMAZIN
 70
     2
  9
$DIMTOFL
 70
     1
  0
ENDSEC
  0
SECTION
  2
CLASSES
  0
ENDSEC
  0
SECTION
  2
TABLES
  0
TABLE
  2
VPORT
  5
CD
100
AcDbSymbolTable
 70
     1
  0
VPORT
  5
CE
100
AcDbSymbolTableRecord
100
AcDbViewportTableRecord
  2
*ACTIVE
 70
     0
 12
177.213809
 22
126.631417
 40
217.262832
 41
1.539277
  0
ENDTAB
  0
TABLE
  2
LTYPE
  5
CF
100
AcDbSymbolTable
 70
     3
  0
LTYPE
  5
D0
100
AcDbSymbolTableRecord
100
AcDbLinetypeTableRecord
  2
BYBLOCK
 70
     0
  3

 72
    65
 73
     0
 40
0.0
  0
LTYPE
  5
D1
100
AcDbSymbolTableRecord
100
AcDbLinetypeTableRecord
  2
BYLAYER
 70
     0
  3

 72
    65
 73
     0
 40
0.0
  0
LTYPE
  5
D2
100
AcDbSymbolTableRecord
100
AcDbLinetypeTableRecord
  2
CONTINUOUS
 70
     0
  3
Solid line (NEC CAE2D for Win R18.0 : 2025.12.23)
 72
    65
 73
     0
 40
0.0
  0
LTYPE
  5
D3
100
AcDbSymbolTableRecord
100
AcDbLinetypeTableRecord
  2
DASHED
 70
     0
  3
__ __ __ __ __ __ __ __ __ __ __ __ __ _
 72
    65
 73
     2
 40
0.75
 49
0.5
 74
     0
 49
-0.25
 74
     0
  0
LTYPE
  5
D4
100
AcDbSymbolTableRecord
100
AcDbLinetypeTableRecord
  2
CENTER
 70
     0
  3
____ _ ____ _ ____ _ ____ _ ____ _ ____
 72
    65
 73
     4
 40
2.0
 49
1.25
 74
     0
 49
-0.25
 74
     0
 49
0.25
 74
     0
 49
-0.25
 74
     0
  0
ENDTAB
  0
TABLE
  2
LAYER
  5
D5
100
AcDbSymbolTable
 70
    13
  0
LAYER
  5
D6
100
AcDbSymbolTableRecord
100
AcDbLayerTableRecord
  2
0
 70
     0
 62
     7
  6
CONTINUOUS
370
    -3
390

  0
LAYER
  5
D7
100
AcDbSymbolTableRecord
100
AcDbLayerTableRecord
  2
A0
 70
     0
 62
     7
  6
CONTINUOUS
370
    -3
390

  0
LAYER
  5
D8
100
AcDbSymbolTableRecord
100
AcDbLayerTableRecord
  2
A1
 70
     0
 62
    12
  6
CONTINUOUS
370
    -3
390

  0
LAYER
  5
D9
100
AcDbSymbolTableRecord
100
AcDbLayerTableRecord
  2
A2
 70
     0
 62
    12
  6
CONTINUOUS
370
    -3
390

  0
LAYER
  5
DA
100
AcDbSymbolTableRecord
100
AcDbLayerTableRecord
  2
A3
 70
     0
 62
    10
  6
CONTINUOUS
370
    -3
390

  0
LAYER
  5
DB
100
AcDbSymbolTableRecord
100
AcDbLayerTableRecord
  2
A4
 70
     0
 62
     9
  6
CONTINUOUS
370
    -3
390

  0
LAYER
  5
DC
100
AcDbSymbolTableRecord
100
AcDbLayerTableRecord
  2
A7
 70
     0
 62
    13
  6
CONTINUOUS
370
    -3
390

  0
LAYER
  5
DD
100
AcDbSymbolTableRecord
100
AcDbLayerTableRecord
  2
A10
 70
     0
 62
     6
  6
CONTINUOUS
370
    -3
390

  0
LAYER
  5
DE
100
AcDbSymbolTableRecord
100
AcDbLayerTableRecord
  2
A20
 70
     0
 62
     1
  6
CONTINUOUS
370
    -3
390

  0
LAYER
  5
DF
100
AcDbSymbolTableRecord
100
AcDbLayerTableRecord
  2
A30
 70
     0
 62
     1
  6
CONTINUOUS
370
    -3
390

  0
LAYER
  5
E0
100
AcDbSymbolTableRecord
100
AcDbLayerTableRecord
  2
A40
 70
     0
 62
     9
  6
CONTINUOUS
370
    -3
390

  0
LAYER
  5
E1
100
AcDbSymbolTableRecord
100
AcDbLayerTableRecord
  2
A50
 70
     0
 62
    12
  6
CONTINUOUS
370
    -3
390

  0
LAYER
  5
E2
100
AcDbSymbolTableRecord
100
AcDbLayerTableRecord
  2
A1023
 70
     0
 62
    16
  6
CONTINUOUS
370
    -3
390

  0
ENDTAB
  0
TABLE
  2
STYLE
  5
E3
100
AcDbSymbolTable
 70
     4
  0
STYLE
  5
E4
100
AcDbSymbolTableRecord
100
AcDbTextStyleTableRecord
  2
STANDARD
 70
    64
 40
0.0
 41
1.0
 50
0.0
 71
     0
 42
3.000000000000000
  3
TXT
  4

  0
STYLE
  5
E5
100
AcDbSymbolTableRecord
100
AcDbTextStyleTableRecord
  2
ANKTATE
 70
    68
 40
0.0
 41
1.0
 50
0.0
 71
     0
 42
3.000000000000000
  3
TXT
  4

  0
STYLE
  5
E6
100
AcDbSymbolTableRecord
100
AcDbTextStyleTableRecord
  2
KNJYOKO
 70
    64
 40
0.0
 41
1.0
 50
0.0
 71
     0
 42
3.000000000000000
  3
TXT
  4
BIGFONT
  0
STYLE
  5
E7
100
AcDbSymbolTableRecord
100
AcDbTextStyleTableRecord
  2
KNJTATE
 70
    68
 40
0.0
 41
1.0
 50
0.0
 71
     0
 42
3.000000000000000
  3
TXT
  4
BIGFONT
  0
ENDTAB
  0
TABLE
  2
VIEW
  5
E8
100
AcDbSymbolTable
 70
     0
  0
ENDTAB
  0
TABLE
  2
UCS
  5
E9
100
AcDbSymbolTable
 70
     0
  0
ENDTAB
  0
TABLE
  2
APPID
  5
EA
100
AcDbSymbolTable
 70
     1
  0
APPID
  5
EB
100
AcDbSymbolTableRecord
100
AcDbRegAppTableRecord
  2
ACAD
 70
     0
  0
ENDTAB
  0
TABLE
  2
DIMSTYLE
  5
EC
100
AcDbSymbolTable
 70
     2
100
AcDbDimStyleTable
  0
DIMSTYLE
105
ED
100
AcDbSymbolTableRecord
100
AcDbDimStyleTableRecord
  2
STANDARD
 70
     0
 41
2.000000
 44
1.500000
 42
0.800000
145
0.661290
140
3.100000
144
1.000000
146
0.645161
340
E4
  0
DIMSTYLE
105
EE
100
AcDbSymbolTableRecord
100
AcDbDimStyleTableRecord
  2
A001
 70
     0
 41
2.000000
 44
1.500000
 42
0.800000
145
0.661290
140
3.100000
144
1.000000
146
0.645161
 77
     1
 73
     0
 74
     0
271
     2
179
     2
275
     0
 78
     8
 79
     2
172
     1
340
E4
  0
ENDTAB
  0
TABLE
  2
BLOCK_RECORD
  5
EF
100
AcDbSymbolTable
 70
    13
  0
BLOCK_RECORD
  5
F0
100
AcDbSymbolTableRecord
100
AcDbBlockTableRecord
  2
*MODEL_SPACE
  0
BLOCK_RECORD
  5
F1
100
AcDbSymbolTableRecord
100
AcDbBlockTableRecord
  2
*PAPER_SPACE
  0
BLOCK_RECORD
  5
F2
100
AcDbSymbolTableRecord
100
AcDbBlockTableRecord
  2
*PAPER_SPACE0
  0
BLOCK_RECORD
  5
1
100
AcDbSymbolTableRecord
100
AcDbBlockTableRecord
  2
_NONE
  0
BLOCK_RECORD
  5
4
100
AcDbSymbolTableRecord
100
AcDbBlockTableRecord
  2
_CLOSED
  0
BLOCK_RECORD
  5
B
100
AcDbSymbolTableRecord
100
AcDbBlockTableRecord
  2
_DOT
  0
BLOCK_RECORD
  5
13
100
AcDbSymbolTableRecord
100
AcDbBlockTableRecord
  2
_OPEN
  0
BLOCK_RECORD
  5
19
100
AcDbSymbolTableRecord
100
AcDbBlockTableRecord
  2
_ORIGIN
  0
BLOCK_RECORD
  5
1E
100
AcDbSymbolTableRecord
100
AcDbBlockTableRecord
  2
_OPEN30
  0
BLOCK_RECORD
  5
24
100
AcDbSymbolTableRecord
100
AcDbBlockTableRecord
  2
_BOXFILLED
  0
BLOCK_RECORD
  5
29
100
AcDbSymbolTableRecord
100
AcDbBlockTableRecord
  2
_BOXBLANK
  0
BLOCK_RECORD
  5
31
100
AcDbSymbolTableRecord
100
AcDbBlockTableRecord
  2
_OBLIQUE
  0
BLOCK_RECORD
  5
35
100
AcDbSymbolTableRecord
100
AcDbBlockTableRecord
  2
_OPEN90
  0
BLOCK_RECORD
  5
3B
100
AcDbSymbolTableRecord
100
AcDbBlockTableRecord
  2
_CLOSEDBLANK
  0
BLOCK_RECORD
  5
41
100
AcDbSymbolTableRecord
100
AcDbBlockTableRecord
  2
_DOTBLANK
  0
BLOCK_RECORD
  5
F3
100
AcDbSymbolTableRecord
100
AcDbBlockTableRecord
  2
*X0
  0
ENDTAB
  0
ENDSEC
  0
SECTION
  2
BLOCKS
  0
BLOCK
  5
F4
100
AcDbEntity
  8
0
100
AcDbBlockBegin
  2
*MODEL_SPACE
 70
     0
 10
0.0
 20
0.0
 30
0.0
  3
*MODEL_SPACE
  1

  0
ENDBLK
  5
F5
100
AcDbEntity
  8
0
100
AcDbBlockEnd
  0
BLOCK
  5
F6
100
AcDbEntity
  8
0
100
AcDbBlockBegin
  2
*PAPER_SPACE
 70
     0
 10
0.0
 20
0.0
 30
0.0
  3
*PAPER_SPACE
  1

  0
ENDBLK
  5
F7
100
AcDbEntity
  8
0
100
AcDbBlockEnd
  0
BLOCK
  5
F8
100
AcDbEntity
  8
0
100
AcDbBlockBegin
  2
*PAPER_SPACE0
 70
     0
 10
0.0
 20
0.0
 30
0.0
  3
*PAPER_SPACE0
  1

  0
ENDBLK
  5
F9
100
AcDbEntity
  8
0
100
AcDbBlockEnd
  0
BLOCK
  5
2
330
1
100
AcDbEntity
  8
0
100
AcDbBlockBegin
  2
_NONE
 70
     0
 10
0.0
 20
0.0
 30
0.0
  3
_NONE
  1

  0
ENDBLK
  5
3
330
1
100
AcDbEntity
  8
0
100
AcDbBlockEnd
  0
BLOCK
  5
5
330
4
100
AcDbEntity
  8
0
100
AcDbBlockBegin
  2
_CLOSED
 70
     0
 10
0.0
 20
0.0
 30
0.0
  3
_CLOSED
  1

  0
LINE
  5
6
330
4
100
AcDbEntity
  8
0
  6
BYBLOCK
 62
     0
370
    -2
100
AcDbLine
 10
-1.0
 20
0.166667
 30
0.0
 11
0.0
 21
0.0
 31
0.0
  0
LINE
  5
7
330
4
100
AcDbEntity
  8
0
  6
BYBLOCK
 62
     0
370
    -2
100
AcDbLine
 10
0.0
 20
0.0
 30
0.0
 11
-1.0
 21
-0.166667
 31
0.0
  0
LINE
  5
8
330
4
100
AcDbEntity
  8
0
  6
BYBLOCK
 62
     0
370
    -2
100
AcDbLine
 10
-1.0
 20
0.166667
 30
0.0
 11
-1.0
 21
-0.166667
 31
0.0
  0
LINE
  5
9
330
4
100
AcDbEntity
  8
0
  6
BYBLOCK
 62
     0
370
    -2
100
AcDbLine
 10
0.0
 20
0.0
 30
0.0
 11
-1.0
 21
0.0
 31
0.0
  0
ENDBLK
  5
A
330
4
100
AcDbEntity
  8
0
100
AcDbBlockEnd
  0
BLOCK
  5
C
330
B
100
AcDbEntity
  8
0
100
AcDbBlockBegin
  2
_DOT
 70
     0
 10
0.0
 20
0.0
 30
0.0
  3
_DOT
  1

  0
POLYLINE
  5
D
330
B
100
AcDbEntity
  8
0
  6
BYBLOCK
 62
     0
370
    -2
100
AcDb2dPolyline
 66
     1
 10
0.0
 20
0.0
 30
0.0
 70
     1
 40
0.5
 41
0.5
  0
VERTEX
  5
E
330
B
100
AcDbEntity
  8
0
  6
BYBLOCK
 62
     0
370
    -2
100
AcDbVertex
100
AcDb2dVertex
 10
-0.25
 20
0.0
 30
0.0
 42
1.0
  0
VERTEX
  5
F
330
B
100
AcDbEntity
  8
0
  6
BYBLOCK
 62
     0
370
    -2
100
AcDbVertex
100
AcDb2dVertex
 10
0.25
 20
0.0
 30
0.0
 42
1.0
  0
SEQEND
  5
10
330
B
100
AcDbEntity
  8
0
  6
BYBLOCK
 62
     0
370
    -2
  0
LINE
  5
11
330
B
100
AcDbEntity
  8
0
  6
BYBLOCK
 62
     0
370
    -2
100
AcDbLine
 10
-0.5
 20
0.0
 30
0.0
 11
-1.0
 21
0.0
 31
0.0
  0
ENDBLK
  5
12
330
B
100
AcDbEntity
  8
0
100
AcDbBlockEnd
  0
BLOCK
  5
14
330
13
100
AcDbEntity
  8
0
100
AcDbBlockBegin
  2
_OPEN
 70
     0
 10
0.0
 20
0.0
 30
0.0
  3
_OPEN
  1

  0
LINE
  5
15
330
13
100
AcDbEntity
  8
0
  6
BYBLOCK
 62
     0
370
    -2
100
AcDbLine
 10
-1.0
 20
0.166667
 30
0.0
 11
0.0
 21
0.0
 31
0.0
  0
LINE
  5
16
330
13
100
AcDbEntity
  8
0
  6
BYBLOCK
 62
     0
370
    -2
100
AcDbLine
 10
0.0
 20
0.0
 30
0.0
 11
-1.0
 21
-0.166667
 31
0.0
  0
LINE
  5
17
330
13
100
AcDbEntity
  8
0
  6
BYBLOCK
 62
     0
370
    -2
100
AcDbLine
 10
0.0
 20
0.0
 30
0.0
 11
-1.0
 21
0.0
 31
0.0
  0
ENDBLK
  5
18
330
13
100
AcDbEntity
  8
0
100
AcDbBlockEnd
  0
BLOCK
  5
1A
330
19
100
AcDbEntity
  8
0
100
AcDbBlockBegin
  2
_ORIGIN
 70
     0
 10
0.0
 20
0.0
 30
0.0
  3
_ORIGIN
  1

  0
CIRCLE
  5
1B
330
19
100
AcDbEntity
  8
0
  6
BYBLOCK
 62
     0
370
    -2
100
AcDbCircle
 10
0.0
 20
0.0
 30
0.0
 40
0.5
  0
LINE
  5
1C
330
19
100
AcDbEntity
  8
0
  6
BYBLOCK
 62
     0
370
    -2
100
AcDbLine
 10
0.0
 20
0.0
 30
0.0
 11
-1.0
 21
0.0
 31
0.0
  0
ENDBLK
  5
1D
330
19
100
AcDbEntity
  8
0
100
AcDbBlockEnd
  0
BLOCK
  5
1F
330
1E
100
AcDbEntity
  8
0
100
AcDbBlockBegin
  2
_OPEN30
 70
     0
 10
0.0
 20
0.0
 30
0.0
  3
_OPEN30
  1

  0
LINE
  5
20
330
1E
100
AcDbEntity
  8
0
  6
BYBLOCK
 62
     0
370
    -2
100
AcDbLine
 10
-1.0
 20
0.267949
 30
0.0
 11
0.0
 21
0.0
 31
0.0
  0
LINE
  5
21
330
1E
100
AcDbEntity
  8
0
  6
BYBLOCK
 62
     0
370
    -2
100
AcDbLine
 10
0.0
 20
0.0
 30
0.0
 11
-1.0
 21
-0.267949
 31
0.0
  0
LINE
  5
22
330
1E
100
AcDbEntity
  8
0
  6
BYBLOCK
 62
     0
370
    -2
100
AcDbLine
 10
0.0
 20
0.0
 30
0.0
 11
-1.0
 21
0.0
 31
0.0
  0
ENDBLK
  5
23
330
1E
100
AcDbEntity
  8
0
100
AcDbBlockEnd
  0
BLOCK
  5
25
330
24
100
AcDbEntity
  8
0
100
AcDbBlockBegin
  2
_BOXFILLED
 70
     0
 10
0.0
 20
0.0
 30
0.0
  3
_BOXFILLED
  1

  0
SOLID
  5
26
330
24
100
AcDbEntity
  8
0
  6
BYBLOCK
 62
     0
370
    -2
100
AcDbTrace
 10
-0.5
 20
0.5
 30
0.0
 11
0.5
 21
0.5
 31
0.0
 12
-0.5
 22
-0.5
 32
0.0
 13
0.5
 23
-0.5
 33
0.0
  0
LINE
  5
27
330
24
100
AcDbEntity
  8
0
  6
BYBLOCK
 62
     0
370
    -2
100
AcDbLine
 10
-0.5
 20
0.0
 30
0.0
 11
-1.0
 21
0.0
 31
0.0
  0
ENDBLK
  5
28
330
24
100
AcDbEntity
  8
0
100
AcDbBlockEnd
  0
BLOCK
  5
2A
330
29
100
AcDbEntity
  8
0
100
AcDbBlockBegin
  2
_BOXBLANK
 70
     0
 10
0.0
 20
0.0
 30
0.0
  3
_BOXBLANK
  1

  0
LINE
  5
2B
330
29
100
AcDbEntity
  8
0
  6
BYBLOCK
 62
     0
370
    -2
100
AcDbLine
 10
-0.5
 20
-0.5
 30
0.0
 11
0.5
 21
-0.5
 31
0.0
  0
LINE
  5
2C
330
29
100
AcDbEntity
  8
0
  6
BYBLOCK
 62
     0
370
    -2
100
AcDbLine
 10
0.5
 20
-0.5
 30
0.0
 11
0.5
 21
0.5
 31
0.0
  0
LINE
  5
2D
330
29
100
AcDbEntity
  8
0
  6
BYBLOCK
 62
     0
370
    -2
100
AcDbLine
 10
0.5
 20
0.5
 30
0.0
 11
-0.5
 21
0.5
 31
0.0
  0
LINE
  5
2E
330
29
100
AcDbEntity
  8
0
  6
BYBLOCK
 62
     0
370
    -2
100
AcDbLine
 10
-0.5
 20
0.5
 30
0.0
 11
-0.5
 21
-0.5
 31
0.0
  0
LINE
  5
2F
330
29
100
AcDbEntity
  8
0
  6
BYBLOCK
 62
     0
370
    -2
100
AcDbLine
 10
-0.5
 20
0.0
 30
0.0
 11
-1.0
 21
0.0
 31
0.0
  0
ENDBLK
  5
30
330
29
100
AcDbEntity
  8
0
100
AcDbBlockEnd
  0
BLOCK
  5
32
330
31
100
AcDbEntity
  8
0
100
AcDbBlockBegin
  2
_OBLIQUE
 70
     0
 10
0.0
 20
0.0
 30
0.0
  3
_OBLIQUE
  1

  0
LINE
  5
33
330
31
100
AcDbEntity
  8
0
  6
BYBLOCK
 62
     0
370
    -2
100
AcDbLine
 10
-0.5
 20
-0.5
 30
0.0
 11
0.5
 21
0.5
 31
0.0
  0
ENDBLK
  5
34
330
31
100
AcDbEntity
  8
0
100
AcDbBlockEnd
  0
BLOCK
  5
36
330
35
100
AcDbEntity
  8
0
100
AcDbBlockBegin
  2
_OPEN90
 70
     0
 10
0.0
 20
0.0
 30
0.0
  3
_OPEN90
  1

  0
LINE
  5
37
330
35
100
AcDbEntity
  8
0
  6
BYBLOCK
 62
     0
370
    -2
100
AcDbLine
 10
-0.5
 20
0.5
 30
0.0
 11
0.0
 21
0.0
 31
0.0
  0
LINE
  5
38
330
35
100
AcDbEntity
  8
0
  6
BYBLOCK
 62
     0
370
    -2
100
AcDbLine
 10
0.0
 20
0.0
 30
0.0
 11
-0.5
 21
-0.5
 31
0.0
  0
LINE
  5
39
330
35
100
AcDbEntity
  8
0
  6
BYBLOCK
 62
     0
370
    -2
100
AcDbLine
 10
0.0
 20
0.0
 30
0.0
 11
-1.0
 21
0.0
 31
0.0
  0
ENDBLK
  5
3A
330
35
100
AcDbEntity
  8
0
100
AcDbBlockEnd
  0
BLOCK
  5
3C
330
3B
100
AcDbEntity
  8
0
100
AcDbBlockBegin
  2
_CLOSEDBLANK
 70
     0
 10
0.0
 20
0.0
 30
0.0
  3
_CLOSEDBLANK
  1

  0
LINE
  5
3D
330
3B
100
AcDbEntity
  8
0
  6
BYBLOCK
 62
     0
370
    -2
100
AcDbLine
 10
-1.0
 20
0.1666666666666666
 30
0.0
 11
0.0
 21
0.0
 31
0.0
  0
LINE
  5
3E
330
3B
100
AcDbEntity
  8
0
  6
BYBLOCK
 62
     0
370
    -2
100
AcDbLine
 10
0.0
 20
0.0
 30
0.0
 11
-1.0
 21
-0.1666666666666666
 31
0.0
  0
LINE
  5
3F
330
3B
100
AcDbEntity
  8
0
  6
BYBLOCK
 62
     0
370
    -2
100
AcDbLine
 10
-1.0
 20
0.1666666666666666
 30
0.0
 11
-1.0
 21
-0.1666666666666666
 31
0.0
  0
ENDBLK
  5
40
330
3B
100
AcDbEntity
  8
0
100
AcDbBlockEnd
  0
BLOCK
  5
42
330
41
100
AcDbEntity
  8
0
100
AcDbBlockBegin
  2
_DOTBLANK
 70
     0
 10
0.0
 20
0.0
 30
0.0
  3
_DOTBLANK
  1

  0
CIRCLE
  5
43
330
41
100
AcDbEntity
  8
0
  6
BYBLOCK
 62
     0
370
    -2
100
AcDbCircle
 10
0.0
 20
0.0
 30
0.0
 40
0.5
  0
LINE
  5
44
330
41
100
AcDbEntity
  8
0
  6
BYBLOCK
 62
     0
370
    -2
100
AcDbLine
 10
-0.5
 20
0.0
 30
0.0
 11
-1.0
 21
0.0
 31
0.0
  0
ENDBLK
  5
45
330
41
100
AcDbEntity
  8
0
100
AcDbBlockEnd
  0
BLOCK
  5
A9
100
AcDbEntity
  8
A2
  6
BYBLOCK
 62
4
100
AcDbBlockBegin
  2
*X0
 70
     1
 10
0.0
 20
0.0
 30
0.0
  0
LINE
  5
AA
100
AcDbEntity
  8
A2
  6
BYBLOCK
 62
0
370
    -2
100
AcDbLine
 10
279.6776210294516
 20
125.0316585716096
 30
0.000000000000000
 11
283.0087956450004
 21
128.3628331871580
 31
0.000000000000000
  0
LINE
  5
AB
100
AcDbEntity
  8
A2
  6
BYBLOCK
 62
0
370
    -2
100
AcDbLine
 10
283.6776354911266
 20
129.0316730332844
 30
0.000000000000000
 11
284.8472551406901
 21
130.2012926778901
 31
0.000000000000000
  0
LINE
  5
AC
100
AcDbEntity
  8
A2
  6
BYBLOCK
 62
0
370
    -2
100
AcDbLine
 10
279.6776210294517
 20
127.1529789151698
 30
0.000000000000000
 11
280.8874753014400
 21
128.3628331871581
 31
0.000000000000000
  0
LINE
  5
AD
100
AcDbEntity
  8
A2
  6
BYBLOCK
 62
0
370
    -2
100
AcDbLine
 10
269.1448346143195
 20
120.8628331871574
 30
0.000000000000000
 11
270.5776210295661
 21
122.2956196024034
 31
0.000000000000000
  0
LINE
  5
AE
100
AcDbEntity
  8
A2
  6
BYBLOCK
 62
0
370
    -2
100
AcDbLine
 10
272.1448346143197
 20
123.8628331871578
 30
0.000000000000000
 11
273.6776210294515
 21
125.3956196022896
 31
0.000000000000000
  0
LINE
  5
AF
100
AcDbEntity
  8
A2
  6
BYBLOCK
 62
0
370
    -2
100
AcDbLine
 10
267.0235142707594
 20
120.8628331871574
 30
0.000000000000000
 11
273.6776210294516
 21
127.5169399458495
 31
0.000000000000000
  0
LINE
  5
B0
100
AcDbEntity
  8
A2
  6
BYBLOCK
 62
0
370
    -2
100
AcDbLine
 10
265.3364785327462
 20
121.2971177927045
 30
0.000000000000000
 11
272.4021939271993
 21
128.3628331871581
 31
0.000000000000000
  0
LINE
  5
B1
100
AcDbEntity
  8
A2
  6
BYBLOCK
 62
0
370
    -2
100
AcDbLine
 10
264.8161546748889
 20
122.8981142784062
 30
0.000000000000000
 11
271.2776210297473
 21
129.3595806332650
 31
0.000000000000000
  0
LINE
  5
B2
100
AcDbEntity
  8
A2
  6
BYBLOCK
 62
0
370
    -2
100
AcDbLine
 10
264.2958308170304
 20
124.4991107641089
 30
0.000000000000000
 11
271.2776210297418
 21
131.4809009768198
 31
0.000000000000000
  0
LINE
  5
B3
100
AcDbEntity
  8
A2
  6
BYBLOCK
 62
0
370
    -2
100
AcDbLine
 10
263.7755069591737
 20
126.1001072498116
 30
0.000000000000000
 11
271.2776210297364
 21
133.6022213203743
 31
0.000000000000000
  0
LINE
  5
B4
100
AcDbEntity
  8
A2
  6
BYBLOCK
 62
0
370
    -2
100
AcDbLine
 10
263.2551831013167
 20
127.7011037355146
 30
0.000000000000000
 11
271.2776210297310
 21
135.7235416639289
 31
0.000000000000000
  0
LINE
  5
B5
100
AcDbEntity
  8
A2
  6
BYBLOCK
 62
0
370
    -2
100
AcDbLine
 10
262.7348592434571
 20
129.3021002212154
 30
0.000000000000000
 11
271.2776210297257
 21
137.8448620074836
 31
0.000000000000000
  0
LINE
  5
B6
100
AcDbEntity
  8
A2
  6
BYBLOCK
 62
0
370
    -2
100
AcDbLine
 10
262.2145353856009
 20
130.9030967069189
 30
0.000000000000000
 11
271.2776210297201
 21
139.9661823510377
 31
0.000000000000000
  0
LINE
  5
B7
100
AcDbEntity
  8
A2
  6
BYBLOCK
 62
0
370
    -2
100
AcDbLine
 10
261.6942115277442
 20
132.5040931926217
 30
0.000000000000000
 11
271.2776210297150
 21
142.0875026945928
 31
0.000000000000000
  0
LINE
  5
B8
100
AcDbEntity
  8
A2
  6
BYBLOCK
 62
0
370
    -2
100
AcDbLine
 10
261.1738876698857
 20
134.1050896783236
 30
0.000000000000000
 11
271.2776210297095
 21
144.2088230381474
 31
0.000000000000000
  0
LINE
  5
B9
100
AcDbEntity
  8
A2
  6
BYBLOCK
 62
0
370
    -2
100
AcDbLine
 10
260.6535638120279
 20
135.7060861640255
 30
0.000000000000000
 11
271.2776210297039
 21
146.3301433817015
 31
0.000000000000000
  0
LINE
  5
BA
100
AcDbEntity
  8
A2
  6
BYBLOCK
 62
0
370
    -2
100
AcDbLine
 10
260.1332399541714
 20
137.3070826497289
 30
0.000000000000000
 11
271.2776210296985
 21
148.4514637252565
 31
0.000000000000000
  0
LINE
  5
BB
100
AcDbEntity
  8
A2
  6
BYBLOCK
 62
0
370
    -2
100
AcDbLine
 10
259.6129160963112
 20
138.9080791354300
 30
0.000000000000000
 11
271.2776210296928
 21
150.5727840688112
 31
0.000000000000000
  0
LINE
  5
BC
100
AcDbEntity
  8
A2
  6
BYBLOCK
 62
0
370
    -2
100
AcDbLine
 10
259.0925922384546
 20
140.5090756211324
 30
0.000000000000000
 11
271.2776210296875
 21
152.6941044123653
 31
0.000000000000000
  0
LINE
  5
BD
100
AcDbEntity
  8
A2
  6
BYBLOCK
 62
0
370
    -2
100
AcDbLine
 10
258.5722683805976
 20
142.1100721068352
 30
0.000000000000000
 11
271.2776210296822
 21
154.8154247559202
 31
0.000000000000000
  0
LINE
  5
BE
100
AcDbEntity
  8
A2
  6
BYBLOCK
 62
0
370
    -2
100
AcDbLine
 10
258.0519445227396
 20
143.7110685925379
 30
0.000000000000000
 11
271.2776210296767
 21
156.9367450994753
 31
0.000000000000000
  0
LINE
  5
BF
100
AcDbEntity
  8
A2
  6
BYBLOCK
 62
0
370
    -2
100
AcDbLine
 10
257.5316206648820
 20
145.3120650782400
 30
0.000000000000000
 11
271.1114876050192
 21
158.8919320041748
 31
0.000000000000000
  0
LINE
  5
C0
100
AcDbEntity
  8
A2
  6
BYBLOCK
 62
0
370
    -2
100
AcDbLine
 10
257.0112968070250
 20
146.9130615639429
 30
0.000000000000000
 11
270.2715598717296
 21
160.1733246286473
 31
0.000000000000000
  0
LINE
  5
C1
100
AcDbEntity
  8
A2
  6
BYBLOCK
 62
0
370
    -2
100
AcDbLine
 10
261.9071834269904
 20
153.9302687199094
 30
0.000000000000000
 11
269.4181188737024
 21
161.4412039777569
 31
0.000000000000000
  0
LINE
  5
C2
100
AcDbEntity
  8
A2
  6
BYBLOCK
 62
0
370
    -2
100
AcDbLine
 10
261.9929629148112
 20
156.1373683783182
 30
0.000000000000000
 11
268.5512611195713
 21
162.6956665640390
 31
0.000000000000000
  0
LINE
  5
C3
100
AcDbEntity
  8
A2
  6
BYBLOCK
 62
0
370
    -2
100
AcDbLine
 10
261.5518977007054
 20
157.8176247222716
 30
0.000000000000000
 11
267.6710760241045
 21
163.9368018420299
 31
0.000000000000000
  0
LINE
  5
C4
100
AcDbEntity
  8
A2
  6
BYBLOCK
 62
0
370
    -2
100
AcDbLine
 10
261.0292976878275
 20
159.4163425787580
 30
0.000000000000000
 11
266.7776462083573
 21
165.1646923059623
 31
0.000000000000000
  0
LINE
  5
C5
100
AcDbEntity
  8
A2
  6
BYBLOCK
 62
0
370
    -2
100
AcDbLine
 10
260.6184222893541
 20
161.1267864026987
 30
0.000000000000000
 11
265.2696639384629
 21
165.7780284440615
 31
0.000000000000000
  0
LINE
  5
C6
100
AcDbEntity
  8
A2
  6
BYBLOCK
 62
0
370
    -2
100
AcDbLine
 10
280.6301159885605
 20
123.8628331871583
 30
0.000000000000000
 11
285.3648399693825
 21
128.5975571680161
 31
0.000000000000000
  0
LINE
  5
C7
100
AcDbEntity
  8
A2
  6
BYBLOCK
 62
0
370
    -2
100
AcDbLine
 10
282.6470682242223
 20
123.7584650682798
 30
0.000000000000000
 11
285.8641853170840
 21
126.9755821721966
 31
0.000000000000000
  0
LINE
  5
C8
100
AcDbEntity
  8
A2
  6
BYBLOCK
 62
0
370
    -2
100
AcDbLine
 10
282.7776210292820
 20
121.7676975407520
 30
0.000000000000000
 11
286.3448937251423
 21
125.3349702366804
 31
0.000000000000000
  0
LINE
  5
C9
100
AcDbEntity
  8
A2
  6
BYBLOCK
 62
0
370
    -2
100
AcDbLine
 10
283.9940770192415
 20
120.8628331871593
 30
0.000000000000000
 11
286.8065422242232
 21
123.6752983922215
 31
0.000000000000000
  0
LINE
  5
CA
100
AcDbEntity
  8
A2
  6
BYBLOCK
 62
0
370
    -2
100
AcDbLine
 10
286.1153973628020
 20
120.8628331871601
 30
0.000000000000000
 11
287.2486803954487
 21
121.9961162198585
 31
0.000000000000000
  0
ENDBLK
  5
CB
100
AcDbEntity
  8
A2
  6
BYBLOCK
 62
4
100
AcDbBlockEnd
  0
ENDSEC
  0
SECTION
  2
ENTITIES
  0
MTEXT
  5
46
100
AcDbEntity
  8
A7
  6
CONTINUOUS
 62
3
100
AcDbMText
 10
9.999997526638502
 20
18.00000076076889
 30
0.000000000000000
 40
3.000000000000000
 41
0.000000000000000
 44
0.6739999771118164
 71
     7
 72
     1
  1
{\H0.94x;{TYPE No.THA-476SUS-160}}
 11
1.000000000000000
 21
0.000000000000000
 31
0.000000000000000
  7
STANDARD
  0
LINE
  5
47
100
AcDbEntity
  8
A1
  6
CONTINUOUS
 62
7
100
AcDbLine
 10
253.3876296752713
 20
158.0628065846265
 30
0.000000000000000
 11
265.4327116242289
 21
121.0010159727575
 31
0.000000000000000
  0
LINE
  5
48
100
AcDbEntity
  8
A4
  6
CENTER
 62
1
100
AcDbLine
 10
196.6776210294516
 20
179.3628331859377
 30
0.000000000000000
 11
196.6776210294516
 21
119.3628331871564
 31
0.000000000000000
  0
LINE
  5
49
100
AcDbEntity
  8
A1
  6
CONTINUOUS
 62
7
100
AcDbLine
 10
127.7323236209054
 20
120.8628331871565
 30
0.000000000000000
 11
106.0776210294511
 21
120.8628331871565
 31
0.000000000000000
  0
LINE
  5
4A
100
AcDbEntity
  8
A4
  6
CENTER
 62
1
100
AcDbLine
 10
116.6776210294516
 20
119.3628331871565
 30
0.000000000000000
 11
116.6776210294516
 21
144.7442790580473
 31
0.000000000000000
  0
LINE
  5
4B
100
AcDbEntity
  8
A4
  6
CENTER
 62
1
100
AcDbLine
 10
276.6776210294517
 20
119.3628331871563
 30
0.000000000000000
 11
276.6776210294518
 21
144.7442790580470
 31
0.000000000000000
  0
SPLINE
  5
4C
100
AcDbEntity
  8
A2
  6
CONTINUOUS
 62
4
100
AcDbSpline
210
0.000000000000000
220
0.000000000000000
230
1.000000000000000
 70
     8
 71
     3
 72
    10
 73
     6
 74
     0
 42
1.000000000000000e-07
 43
1.000000000000000e-07
 12
-1.041941907388207
 22
-0.3912914492614874
 32
0.000000000000000
 13
-0.9549123584904606
 23
-0.6734534458470165
 33
0.000000000000000
 40
0.000000000000000
 40
0.000000000000000
 40
0.000000000000000
 40
0.000000000000000
 40
6.747320184079681
 40
14.25867740750856
 40
22.94098223374272
 40
22.94098223374272
 40
22.94098223374272
 40
22.94098223374272
 10
266.0892687882201
 20
166.0898229416750
 30
0.000000000000000
 10
263.7458302341005
 20
165.2097667105218
 30
0.000000000000000
 10
258.3212351937121
 20
163.1725208688847
 30
0.000000000000000
 10
264.4388740038702
 20
154.0067009817193
 30
0.000000000000000
 10
259.2843646637228
 20
150.3714751456434
 30
0.000000000000000
 10
256.5207512708054
 20
148.4224324446029
 30
0.000000000000000
  0
ARC
  5
4D
100
AcDbEntity
  8
A1
  6
CONTINUOUS
 62
7
100
AcDbCircle
 10
265.6229184379976
 20
121.0628331871565
 30
0.000000000000000
 40
0.2000000000000000
100
AcDbArc
 50
198.0041616060497
 51
270.0000000000000
  0
LINE
  5
4E
100
AcDbEntity
  8
A1
  6
CONTINUOUS
 62
7
100
AcDbLine
 10
270.9776210295680
 20
123.8628331871564
 30
0.000000000000000
 11
282.3776210292777
 21
123.8628331871564
 31
0.000000000000000
  0
LINE
  5
4F
100
AcDbEntity
  8
A1
  6
CONTINUOUS
 62
7
100
AcDbLine
 10
271.6776210297489
 20
128.3628331871564
 30
0.000000000000000
 11
283.2776210297490
 21
128.3628331871564
 31
0.000000000000000
  0
LINE
  5
50
100
AcDbEntity
  8
A1
  6
CONTINUOUS
 62
7
100
AcDbLine
 10
265.6229184378529
 20
120.8628331871564
 30
0.000000000000000
 11
287.2776210294518
 21
120.8628331871564
 31
0.000000000000000
  0
LINE
  5
51
100
AcDbEntity
  8
A1
  6
CONTINUOUS
 62
7
100
AcDbLine
 10
145.1982997616114
 20
161.8628331867565
 30
0.000000000000000
 11
248.1569422972915
 21
161.8628331867564
 31
0.000000000000000
  0
LINE
  5
52
100
AcDbEntity
  8
A4
  6
CENTER
 62
1
100
AcDbLine
 10
196.6776210294515
 20
216.3628331859377
 30
0.000000000000000
 11
196.6776210294515
 21
235.2628331859376
 31
0.000000000000000
  0
LINE
  5
53
100
AcDbEntity
  8
A4
  6
CENTER
 62
1
100
AcDbLine
 10
276.6776210294515
 20
218.9128331859377
 30
0.000000000000000
 11
276.6776210294515
 21
232.7128331859377
 31
0.000000000000000
  0
LINE
  5
54
100
AcDbEntity
  8
A4
  6
CENTER
 62
1
100
AcDbLine
 10
101.8700336626410
 20
225.8128331859377
 30
0.000000000000000
 11
291.5497792649517
 21
225.8128331859377
 31
0.000000000000000
  0
ARC
  5
55
100
AcDbEntity
  8
A1
  6
CONTINUOUS
 62
7
100
AcDbCircle
 10
116.6776210294487
 20
225.8128331859377
 30
0.000000000000000
 40
5.400000000000000
100
AcDbArc
 50
270.0000000000000
 51
450.0000000000000
  0
ELLIPSE
  5
56
100
AcDbEntity
  8
A1
  6
CONTINUOUS
 62
7
100
AcDbEllipse
 10
116.6776210294487
 20
225.8128331859377
 30
0.000000000000000
 11
6.900000000000034
 21
0.000000000000000
 31
0.000000000000000
210
0.000000000000000
220
0.000000000000000
230
1.000000000000000
 40
0.7826086956521667
 41
1.570796326794897
 42
4.712388980384690
  0
LINE
  5
57
100
AcDbEntity
  8
A4
  6
CENTER
 62
1
100
AcDbLine
 10
116.6776210294487
 20
218.9128331859377
 30
0.000000000000000
 11
116.6776210294487
 21
232.7128331859377
 31
0.000000000000000
  0
LINE
  5
58
100
AcDbEntity
  8
A4
  6
CENTER
 62
1
100
AcDbLine
 10
276.6776210294515
 20
64.91283318715637
 30
0.000000000000000
 11
276.6776210294515
 21
80.91283318715637
 31
0.000000000000000
  0
LINE
  5
59
100
AcDbEntity
  8
A4
  6
CENTER
 62
1
100
AcDbLine
 10
116.6776210294514
 20
64.91283318715637
 30
0.000000000000000
 11
116.6776210294514
 21
80.91283318715637
 31
0.000000000000000
  0
LINE
  5
5A
100
AcDbEntity
  8
A4
  6
CENTER
 62
1
100
AcDbLine
 10
196.6776210294515
 20
63.91283318715637
 30
0.000000000000000
 11
196.6776210294515
 21
81.91283318715637
 31
0.000000000000000
  0
ARC
  5
5B
100
AcDbEntity
  8
A1
  6
CONTINUOUS
 62
7
100
AcDbCircle
 10
287.2776210294518
 20
121.0628331871565
 30
0.000000000000000
 40
0.2000000000000000
100
AcDbArc
 50
270.0000000000000
 51
373.6145471857704
  0
LINE
  5
5C
100
AcDbEntity
  8
A4
  6
CENTER
 62
1
100
AcDbLine
 10
101.8700336626410
 20
72.91283318715637
 30
0.000000000000000
 11
291.5497792649517
 21
72.91283318715637
 31
0.000000000000000
  0
CIRCLE
  5
5D
100
AcDbEntity
  8
A1
  6
CONTINUOUS
 62
7
100
AcDbCircle
 10
116.6776210294487
 20
225.8128331859377
 30
0.000000000000000
 40
3.000000000000000
  0
ARC
  5
5E
100
AcDbEntity
  8
A1
  6
CONTINUOUS
 62
7
100
AcDbCircle
 10
291.6872241991484
 20
145.7853396310146
 30
0.000000000000000
 40
16.27801860976773
100
AcDbArc
 50
195.4385862244872
 51
230.4268579534995
  0
LINE
  5
5F
100
AcDbEntity
  8
A1
  6
CONTINUOUS
 62
7
100
AcDbLine
 10
271.2776210296729
 20
158.4578178348998
 30
0.000000000000000
 11
271.2776210297490
 21
128.7628331871554
 31
0.000000000000000
  0
ARC
  5
60
100
AcDbEntity
  8
A1
  6
CONTINUOUS
 62
7
100
AcDbCircle
 10
271.6776210297489
 20
128.7628331871565
 30
0.000000000000000
 40
0.4000000000000000
100
AcDbArc
 50
180.0000000000000
 51
270.0000000000000
  0
ELLIPSE
  5
61
100
AcDbEntity
  8
A1
  6
CONTINUOUS
 62
7
100
AcDbEllipse
 10
276.6776210294515
 20
225.8128331859377
 30
0.000000000000000
 11
6.900000000001114
 21
0.000000000000000
 31
0.000000000000000
210
0.000000000000000
220
0.000000000000000
230
1.000000000000000
 40
0.7826086956520443
 41
4.712388980384690
 42
1.570796326794897
  0
ARC
  5
62
100
AcDbEntity
  8
A1
  6
CONTINUOUS
 62
7
100
AcDbCircle
 10
196.6776210294508
 20
-1147.697426997010
 30
0.000000000000000
 40
1325.560260182947
100
AcDbArc
 50
87.74984859181069
 51
92.25015140818925
  0
CIRCLE
  5
63
100
AcDbEntity
  8
A1
  6
CONTINUOUS
 62
7
100
AcDbCircle
 10
276.6776210294515
 20
72.91283318715637
 30
0.000000000000000
 40
3.000000000000000
  0
CIRCLE
  5
64
100
AcDbEntity
  8
A1
  6
CONTINUOUS
 62
7
100
AcDbCircle
 10
116.6776210294514
 20
72.91283318715637
 30
0.000000000000000
 40
3.000000000000000
  0
LINE
  5
65
100
AcDbEntity
  8
A1
  6
CONTINUOUS
 62
7
100
AcDbLine
 10
270.5776210295637
 20
120.8628331871565
 30
0.000000000000000
 11
270.5776210295680
 21
123.4628331871572
 31
0.000000000000000
  0
LINE
  5
66
100
AcDbEntity
  8
A1
  6
CONTINUOUS
 62
7
100
AcDbLine
 10
282.7776210292844
 20
120.8628331871564
 30
0.000000000000000
 11
282.7776210292779
 21
123.4628331871574
 31
0.000000000000000
  0
ARC
  5
67
100
AcDbEntity
  8
A1
  6
CONTINUOUS
 62
7
100
AcDbCircle
 10
282.3776210292777
 20
123.4628331871564
 30
0.000000000000000
 40
0.4000000000000000
100
AcDbArc
 50
0.000000000000000
 51
90.00000000000000
  0
ARC
  5
68
100
AcDbEntity
  8
A1
  6
CONTINUOUS
 62
7
100
AcDbCircle
 10
270.9776210295680
 20
123.4628331871564
 30
0.000000000000000
 40
0.4000000000000000
100
AcDbArc
 50
90.00000000000000
 51
180.0000000000000
  0
ARC
  5
69
100
AcDbEntity
  8
A1
  6
CONTINUOUS
 62
7
100
AcDbCircle
 10
284.2776210297450
 20
130.0128331871564
 30
0.000000000000000
 40
0.6000000000000000
100
AcDbArc
 50
18.27286683732038
 51
180.0000000000000
  0
ARC
  5
6A
100
AcDbEntity
  8
A1
  6
CONTINUOUS
 62
7
100
AcDbCircle
 10
248.1569422972555
 20
156.3628331867565
 30
0.000000000000000
 40
5.500000000000000
100
AcDbArc
 50
18.00416160605369
 51
90.00000000000000
  0
LINE
  5
6B
100
AcDbEntity
  8
A1
  6
CONTINUOUS
 62
7
100
AcDbLine
 10
283.6776210297458
 20
130.0128331871549
 30
0.000000000000000
 11
283.6776210297490
 21
128.7628331871872
 31
0.000000000000000
  0
ARC
  5
6C
100
AcDbEntity
  8
A1
  6
CONTINUOUS
 62
7
100
AcDbCircle
 10
283.2776210297490
 20
128.7628331871564
 30
0.000000000000000
 40
0.4000000000000000
100
AcDbArc
 50
270.0000000000000
 51
360.0000000000000
  0
ARC
  5
6D
100
AcDbEntity
  8
A1
  6
CONTINUOUS
 62
7
100
AcDbCircle
 10
270.6776210296729
 20
158.4578178348984
 30
0.000000000000000
 40
0.6000000000000000
100
AcDbArc
 50
0.000000000000000
 51
32.83354474811549
  0
ARC
  5
6E
100
AcDbEntity
  8
A1
  6
CONTINUOUS
 62
7
100
AcDbCircle
 10
247.9371236827912
 20
156.8561580874429
 30
0.000000000000000
 40
20.00000000000000
100
AcDbArc
 50
38.83827493806691
 51
87.74984859181072
  0
LINE
  5
6F
100
AcDbEntity
  8
A1
  6
CONTINUOUS
 62
7
100
AcDbLine
 10
281.3171051569281
 20
133.2380482535846
 30
0.000000000000000
 11
284.6598586702399
 21
130.4753203612365
 31
0.000000000000000
  0
LINE
  5
70
100
AcDbEntity
  8
A1
  6
CONTINUOUS
 62
7
100
AcDbLine
 10
271.2559708367214
 20
158.6175410351128
 30
0.000000000000000
 11
275.9965759956593
 21
141.4520442551727
 31
0.000000000000000
  0
ARC
  5
71
100
AcDbEntity
  8
A1
  6
CONTINUOUS
 62
7
100
AcDbCircle
 10
166.1506071703676
 20
91.00810787513205
 30
0.000000000000000
 40
125.0000000000000
100
AcDbArc
 50
13.93512662104158
 51
18.27302800710021
  0
ARC
  5
72
100
AcDbEntity
  8
A1
  6
CONTINUOUS
 62
7
100
AcDbCircle
 10
166.1506071703676
 20
91.00810787513205
 30
0.000000000000000
 40
125.0000000000000
100
AcDbArc
 50
32.83354474811416
 51
38.83827493806692
  0
ARC
  5
73
100
AcDbEntity
  8
A1
  6
CONTINUOUS
 62
7
100
AcDbCircle
 10
106.0776210294512
 20
121.0628331871565
 30
0.000000000000000
 40
0.2000000000000000
100
AcDbArc
 50
166.3854528142296
 51
270.0000000000000
  0
LINE
  5
74
100
AcDbEntity
  8
A1
  6
CONTINUOUS
 62
7
100
AcDbLine
 10
139.9676123836314
 20
158.0628065846266
 30
0.000000000000000
 11
127.9225304346738
 21
121.0010159727576
 31
0.000000000000000
  0
ARC
  5
75
100
AcDbEntity
  8
A1
  6
CONTINUOUS
 62
7
100
AcDbCircle
 10
127.7323236209053
 20
121.0628331871565
 30
0.000000000000000
 40
0.2000000000000000
100
AcDbArc
 50
270.0000000000000
 51
341.9958383939503
  0
ARC
  5
76
100
AcDbEntity
  8
A1
  6
CONTINUOUS
 62
7
100
AcDbCircle
 10
109.0776210291580
 20
130.0128331871564
 30
0.000000000000000
 40
0.6000000000000000
100
AcDbArc
 50
129.5731420465017
 51
161.7271331626796
  0
LINE
  5
77
100
AcDbEntity
  8
A1
  6
CONTINUOUS
 62
7
100
AcDbLine
 10
112.0381369019747
 20
133.2380482535847
 30
0.000000000000000
 11
108.6953833886629
 21
130.4753203612366
 31
0.000000000000000
  0
ARC
  5
78
100
AcDbEntity
  8
A1
  6
CONTINUOUS
 62
7
100
AcDbCircle
 10
101.6680178597545
 20
145.7853396310146
 30
0.000000000000000
 40
16.27801860976773
100
AcDbArc
 50
309.5731420465004
 51
344.5614137755128
  0
LINE
  5
79
100
AcDbEntity
  8
A1
  6
CONTINUOUS
 62
7
100
AcDbLine
 10
122.0992712221814
 20
158.6175410351129
 30
0.000000000000000
 11
117.3586660632434
 21
141.4520442551727
 31
0.000000000000000
  0
ARC
  5
7A
100
AcDbEntity
  8
A1
  6
CONTINUOUS
 62
7
100
AcDbCircle
 10
227.2046348885353
 20
91.00810787513205
 30
0.000000000000000
 40
125.0000000000000
100
AcDbArc
 50
141.1617250619331
 51
147.1664552518858
  0
ARC
  5
7B
100
AcDbEntity
  8
A1
  6
CONTINUOUS
 62
7
100
AcDbCircle
 10
122.6776210292301
 20
158.4578178348984
 30
0.000000000000000
 40
0.6000000000000000
100
AcDbArc
 50
147.1664552518845
 51
164.5614137755128
  0
ARC
  5
7C
100
AcDbEntity
  8
A1
  6
CONTINUOUS
 62
7
100
AcDbCircle
 10
227.2046348885353
 20
91.00810787513205
 30
0.000000000000000
 40
125.0000000000000
100
AcDbArc
 50
161.7271331626814
 51
166.0648733789584
  0
ARC
  5
7D
100
AcDbEntity
  8
A1
  6
CONTINUOUS
 62
7
100
AcDbCircle
 10
145.4181183761118
 20
156.8561580874427
 30
0.000000000000000
 40
20.00000000000000
100
AcDbArc
 50
92.25015140818928
 51
141.1617250619331
  0
ARC
  5
7E
100
AcDbEntity
  8
A1
  6
CONTINUOUS
 62
7
100
AcDbCircle
 10
145.1982997616473
 20
156.3628331867565
 30
0.000000000000000
 40
5.500000000000000
100
AcDbArc
 50
90.00000000000000
 51
161.9958383939464
  0
CIRCLE
  5
7F
100
AcDbEntity
  8
A1
  6
CONTINUOUS
 62
7
100
AcDbCircle
 10
276.6776210294515
 20
225.8128331859377
 30
0.000000000000000
 40
3.000000000000000
  0
LINE
  5
80
100
AcDbEntity
  8
A1
  6
CONTINUOUS
 62
7
100
AcDbLine
 10
273.6776210294516
 20
123.8628331871564
 30
0.000000000000000
 11
273.6776210294516
 21
128.3628331871564
 31
0.000000000000000
  0
LINE
  5
81
100
AcDbEntity
  8
A1
  6
CONTINUOUS
 62
7
100
AcDbLine
 10
279.6776210294516
 20
123.8628331871564
 30
0.000000000000000
 11
279.6776210294516
 21
128.3628331871564
 31
0.000000000000000
  0
ARC
  5
82
100
AcDbEntity
  8
A1
  6
CONTINUOUS
 62
7
100
AcDbCircle
 10
276.6776210294515
 20
225.8128331859377
 30
0.000000000000000
 40
5.400000000000000
100
AcDbArc
 50
90.00000000000000
 51
270.0000000000000
  0
LINE
  5
83
100
AcDbEntity
  8
A1
  6
CONTINUOUS
 62
7
100
AcDbLine
 10
113.8276210294513
 20
217.8628331859377
 30
0.000000000000000
 11
279.5276210294518
 21
217.8628331859377
 31
0.000000000000000
  0
LINE
  5
84
100
AcDbEntity
  8
A1
  6
CONTINUOUS
 62
7
100
AcDbLine
 10
113.8276210294513
 20
233.7628331859376
 30
0.000000000000000
 11
279.5276210294518
 21
233.7628331859376
 31
0.000000000000000
  0
ARC
  5
85
100
AcDbEntity
  8
A1
  6
CONTINUOUS
 62
7
100
AcDbCircle
 10
279.5276210294518
 20
225.8128331859377
 30
0.000000000000000
 40
7.949999999999989
100
AcDbArc
 50
270.0000000000000
 51
450.0000000000000
  0
ARC
  5
86
100
AcDbEntity
  8
A1
  6
CONTINUOUS
 62
7
100
AcDbCircle
 10
113.8276210294513
 20
225.8128331859377
 30
0.000000000000000
 40
7.949999999999989
100
AcDbArc
 50
90.00000000000000
 51
270.0000000000000
  0
LINE
  5
87
100
AcDbEntity
  8
A1
  6
CONTINUOUS
 62
7
100
AcDbLine
 10
113.8276210294513
 20
64.96283318715643
 30
0.000000000000000
 11
279.5276210294518
 21
64.96283318715643
 31
0.000000000000000
  0
LINE
  5
88
100
AcDbEntity
  8
A1
  6
CONTINUOUS
 62
7
100
AcDbLine
 10
113.8276210294513
 20
80.86283318715641
 30
0.000000000000000
 11
279.5276210294518
 21
80.86283318715641
 31
0.000000000000000
  0
ARC
  5
89
100
AcDbEntity
  8
A1
  6
CONTINUOUS
 62
7
100
AcDbCircle
 10
279.5276210294518
 20
72.91283318715637
 30
0.000000000000000
 40
7.949999999999989
100
AcDbArc
 50
270.0000000000000
 51
450.0000000000000
  0
ARC
  5
8A
100
AcDbEntity
  8
A1
  6
CONTINUOUS
 62
7
100
AcDbCircle
 10
113.8276210294513
 20
72.91283318715637
 30
0.000000000000000
 40
7.949999999999989
100
AcDbArc
 50
90.00000000000000
 51
270.0000000000000
  0
ARC
  5
8B
100
AcDbEntity
  8
A1
  6
CONTINUOUS
 62
7
100
AcDbCircle
 10
273.4276210295169
 20
72.91283318715637
 30
0.000000000000000
 40
7.949999999999989
100
AcDbArc
 50
90.00000000000000
 51
270.0000000000000
  0
CIRCLE
  5
8C
100
AcDbEntity
  8
A1
  6
CONTINUOUS
 62
7
100
AcDbCircle
 10
276.6776210294515
 20
72.91283318715637
 30
0.000000000000000
 40
6.300000000000000
  0
ARC
  5
8D
100
AcDbEntity
  8
A1
  6
CONTINUOUS
 62
7
100
AcDbCircle
 10
119.9276210293864
 20
72.91283318715637
 30
0.000000000000000
 40
7.949999999999989
100
AcDbArc
 50
270.0000000000000
 51
450.0000000000000
  0
CIRCLE
  5
8E
100
AcDbEntity
  8
A1
  6
CONTINUOUS
 62
7
100
AcDbCircle
 10
116.6776210294514
 20
72.91283318715637
 30
0.000000000000000
 40
6.300000000000000
  0
LINE
  5
8F
100
AcDbEntity
  8
A1
  6
CONTINUOUS
 62
7
100
AcDbLine
 10
327.6776210294524
 20
120.8628331872994
 30
0.000000000000000
 11
343.1776210294524
 21
120.8628331872994
 31
0.000000000000000
  0
LINE
  5
90
100
AcDbEntity
  8
A1
  6
CONTINUOUS
 62
7
100
AcDbLine
 10
330.7802283258398
 20
133.2484680078958
 30
0.000000000000000
 11
330.7755755437718
 21
133.2569239559587
 31
0.000000000000000
  0
LINE
  5
91
100
AcDbEntity
  8
A1
  6
CONTINUOUS
 62
7
100
AcDbLine
 10
330.7746268926184
 20
133.2579318260324
 30
0.000000000000000
 11
330.7827944430975
 21
133.2418621008147
 31
0.000000000000000
  0
LINE
  5
92
100
AcDbEntity
  8
A4
  6
CENTER
 62
1
100
AcDbLine
 10
335.4276210294524
 20
119.3628331872994
 30
0.000000000000000
 11
335.4276210294524
 21
179.3628331865095
 31
0.000000000000000
  0
LINE
  5
93
100
AcDbEntity
  8
A4
  6
CENTER
 62
1
100
AcDbLine
 10
326.4276210294524
 20
169.8128331869833
 30
0.000000000000000
 11
344.4276210294524
 21
169.8128331869833
 31
0.000000000000000
  0
LINE
  5
94
100
AcDbEntity
  8
A1
  6
CONTINUOUS
 62
7
100
AcDbLine
 10
327.4776210294524
 20
121.0628331872995
 30
0.000000000000000
 11
327.4776210294524
 21
169.8128331869832
 31
0.000000000000000
  0
LINE
  5
95
100
AcDbEntity
  8
A1
  6
CONTINUOUS
 62
7
100
AcDbLine
 10
343.3776210294525
 20
121.0628331872995
 30
0.000000000000000
 11
343.3776210294525
 21
169.8128331869832
 31
0.000000000000000
  0
ARC
  5
96
100
AcDbEntity
  8
A1
  6
CONTINUOUS
 62
7
100
AcDbCircle
 10
343.1776210294524
 20
121.0628331872995
 30
0.000000000000000
 40
0.2000000000000000
100
AcDbArc
 50
270.0000000000000
 51
360.0000000000000
  0
ARC
  5
97
100
AcDbEntity
  8
A1
  6
CONTINUOUS
 62
7
100
AcDbCircle
 10
327.6776210294524
 20
121.0628331872995
 30
0.000000000000000
 40
0.2000000000000000
100
AcDbArc
 50
180.0000000000000
 51
270.0000000000000
  0
ARC
  5
98
100
AcDbEntity
  8
A1
  6
CONTINUOUS
 62
7
100
AcDbCircle
 10
335.4276210294524
 20
170.8628331865096
 30
0.000000000000000
 40
7.000000000000000
100
AcDbArc
 50
69.47314425921064
 51
110.5268557407912
  0
ARC
  5
99
100
AcDbEntity
  8
A1
  6
CONTINUOUS
 62
7
100
AcDbCircle
 10
336.4795601718283
 20
168.0533093761928
 30
0.000000000000000
 40
10.00000000000000
100
AcDbArc
 50
110.5268557407913
 51
120.8732806072372
  0
ARC
  5
9A
100
AcDbEntity
  8
A1
  6
CONTINUOUS
 62
7
100
AcDbCircle
 10
334.3756818870763
 20
168.0533093761928
 30
0.000000000000000
 40
10.00000000000000
100
AcDbArc
 50
59.12671939276279
 51
69.47314425920871
  0
ARC
  5
9B
100
AcDbEntity
  8
A1
  6
CONTINUOUS
 62
7
100
AcDbCircle
 10
335.4276210294527
 20
169.8128331869832
 30
0.000000000000000
 40
7.949999999999818
100
AcDbArc
 50
0.000000000000000
 51
59.12671939274651
  0
ARC
  5
9C
100
AcDbEntity
  8
A1
  6
CONTINUOUS
 62
7
100
AcDbCircle
 10
335.4276210294527
 20
169.8128331869832
 30
0.000000000000000
 40
7.949999999999818
100
AcDbArc
 50
120.8732806072371
 51
180.0000000000000
  0
ARC
  5
9D
100
AcDbEntity
  8
A3
  6
DASHED
 62
2
100
AcDbCircle
 10
335.4276210294527
 20
169.8128331869832
 30
0.000000000000000
 40
7.949999999999818
100
AcDbArc
 50
180.0000000000000
 51
360.0000000000000
  0
SPLINE
  5
9E
100
AcDbEntity
  8
A1
  6
CONTINUOUS
 62
7
100
AcDbSpline
210
0.000000000000000
220
0.000000000000000
230
1.000000000000000
 70
     8
 71
     3
 72
    33
 73
    29
 74
     0
 42
1.000000000000000e-07
 43
1.000000000000000e-07
 12
-0.4822988867936147
 22
-0.8760067258872368
 32
0.000000000000000
 13
-0.9999972066480041
 23
0.002363618984873028
 33
0.000000000000000
 40
0.000000000000000
 40
0.000000000000000
 40
0.000000000000000
 40
0.000000000000000
 40
0.2309942887154837
 40
0.4443817357517856
 40
0.6209530113278783
 40
0.7797679886001689
 40
0.9641273580420184
 40
1.176817811251162
 40
1.538090124489022
 40
1.878577750453496
 40
2.194722490491704
 40
2.362856622835236
 40
2.538368901194731
 40
2.730044953364538
 40
2.938436199042764
 40
3.135312043065592
 40
3.297832631955177
 40
3.378045344333778
 40
3.461948945597459
 40
3.583001681387262
 40
3.743002833676417
 40
3.943160770537943
 40
4.141685525718858
 40
4.370100009733618
 40
4.629549952118277
 40
4.921375961034908
 40
5.247177621533591
 40
5.608907939823454
 40
5.608907939823454
 40
5.608907939823454
 40
5.608907939823454
 10
340.0751764607087
 20
133.2485278911172
 30
0.000000000000000
 10
340.0380403646076
 20
133.1810770409318
 30
0.000000000000000
 10
339.9638080974938
 20
133.0528326952963
 30
0.000000000000000
 10
339.8529653437231
 20
132.8779663035157
 30
0.000000000000000
 10
339.7491898394572
 20
132.7272806744509
 30
0.000000000000000
 10
339.6461555214786
 20
132.5879649625679
 30
0.000000000000000
 10
339.5307450431288
 20
132.4429481021866
 30
0.000000000000000
 10
339.3651669858433
 20
132.2518550565574
 30
0.000000000000000
 10
339.1515774544873
 20
132.0339184277352
 30
0.000000000000000
 10
338.8962203373734
 20
131.8100534477933
 30
0.000000000000000
 10
338.6772558913731
 20
131.6434608370330
 30
0.000000000000000
 10
338.4958638396399
 20
131.5190372647342
 30
0.000000000000000
 10
338.3453521021720
 20
131.4231193390906
 30
0.000000000000000
 10
338.1799729511084
 20
131.3257738360535
 30
0.000000000000000
 10
338.0047458765719
 20
131.2313831803133
 30
0.000000000000000
 10
337.8348129261593
 20
131.1479629944579
 30
0.000000000000000
 10
337.7011885213905
 20
131.0877626291249
 30
0.000000000000000
 10
337.6009507986274
 20
131.0452451174394
 30
0.000000000000000
 10
337.5128952528260
 20
131.0094315324018
 30
0.000000000000000
 10
337.3993718921221
 20
130.9656809254152
 30
0.000000000000000
 10
337.2482767551008
 20
130.9117683826053
 30
0.000000000000000
 10
337.0709260967302
 20
130.8548231293789
 30
0.000000000000000
 10
336.8697254974225
 20
130.7979869119101
 30
0.000000000000000
 10
336.6472879671858
 20
130.7441519438280
 30
0.000000000000000
 10
336.3921870887242
 20
130.6939801728040
 30
0.000000000000000
 10
336.1027761046397
 20
130.6516342390373
 30
0.000000000000000
 10
335.7774894881205
 20
130.6221206290838
 30
0.000000000000000
 10
335.5482240194767
 20
130.6153379135098
 30
0.000000000000000
 10
335.4276475835268
 20
130.6156229110591
 30
0.000000000000000
  0
SPLINE
  5
9F
100
AcDbEntity
  8
A1
  6
CONTINUOUS
 62
7
100
AcDbSpline
210
0.000000000000000
220
0.000000000000000
230
1.000000000000000
 70
     8
 71
     3
 72
    30
 73
    26
 74
     0
 42
1.000000000000000e-07
 43
1.000000000000000e-07
 12
0.009303640676080249
 22
-0.9999567202007711
 32
0.000000000000000
 13
-0.4186753667054290
 23
-0.9081359685176267
 33
0.000000000000000
 40
0.000000000000000
 40
0.000000000000000
 40
0.000000000000000
 40
0.000000000000000
 40
0.1696003145139582
 40
0.3900645211282665
 40
0.6592192170580640
 40
0.9455224313806215
 40
1.238414840489520
 40
1.535816448665938
 40
1.819663650580343
 40
2.102070195602987
 40
2.340561855200730
 40
2.526691830506395
 40
2.662873562977642
 40
2.753636140757007
 40
2.869376121620538
 40
3.019024063894277
 40
3.201929829623975
 40
3.413660006560431
 40
3.624550675610556
 40
3.829246063804748
 40
4.047747653293595
 40
4.259887061974536
 40
4.475524423236103
 40
4.722309907388748
 40
4.981699858339448
 40
4.981699858339448
 40
4.981699858339448
 40
4.981699858339448
 10
340.9276207304780
 20
138.1129747811772
 30
0.000000000000000
 10
340.9281466972730
 20
138.0564437897617
 30
0.000000000000000
 10
340.9289282173291
 20
137.9264256997728
 30
0.000000000000000
 10
340.9299309324705
 20
137.7066793764604
 30
0.000000000000000
 10
340.9251644816962
 20
137.4480659479725
 30
0.000000000000000
 10
340.9175782195875
 20
137.1653834250749
 30
0.000000000000000
 10
340.9060540492114
 20
136.8734012084649
 30
0.000000000000000
 10
340.8902113154697
 20
136.5824386700515
 30
0.000000000000000
 10
340.8693988528718
 20
136.2952894359851
 30
0.000000000000000
 10
340.8444407774427
 20
136.0281811243597
 30
0.000000000000000
 10
340.8172405784463
 20
135.7940606120669
 30
0.000000000000000
 10
340.7918346104250
 20
135.6088491901598
 30
0.000000000000000
 10
340.7707907435655
 20
135.4727701242309
 30
0.000000000000000
 10
340.7519085246630
 20
135.3601116208631
 30
0.000000000000000
 10
340.7308798769582
 20
135.2432682513390
 30
0.000000000000000
 10
340.7020299187988
 20
135.0966395694536
 30
0.000000000000000
 10
340.6632389283899
 20
134.9193898824640
 30
0.000000000000000
 10
340.6150241770267
 20
134.7233635172008
 30
0.000000000000000
 10
340.5594261263224
 20
134.5217568655803
 30
0.000000000000000
 10
340.4977243856348
 20
134.3195759064511
 30
0.000000000000000
 10
340.4305291957247
 20
134.1187124515618
 30
0.000000000000000
 10
340.3569194236781
 20
133.9162297964356
 30
0.000000000000000
 10
340.2750617132220
 20
133.7067829187172
 30
0.000000000000000
 10
340.1820885706351
 20
133.4848438545159
 30
0.000000000000000
 10
340.1133364406629
 20
133.3307412644106
 30
0.000000000000000
 10
340.0771363797182
 20
133.2522208163005
 30
0.000000000000000
  0
SPLINE
  5
A0
100
AcDbEntity
  8
A1
  6
CONTINUOUS
 62
7
100
AcDbSpline
210
0.000000000000000
220
0.000000000000000
230
1.000000000000000
 70
     8
 71
     3
 72
    20
 73
    16
 74
     0
 42
1.000000000000000e-07
 43
1.000000000000000e-07
 12
-0.02650481543355454
 22
0.9996486856678075
 32
0.000000000000000
 13
-0.2985378983846658
 23
0.9543977803975281
 33
0.000000000000000
 40
0.000000000000000
 40
0.000000000000000
 40
0.000000000000000
 40
0.000000000000000
 40
0.8260912551439408
 40
1.923481406416682
 40
3.027938447056980
 40
4.136792840213682
 40
5.248624349618865
 40
6.491424472735251
 40
7.734713201977677
 40
8.978247231469403
 40
10.22215991575115
 40
11.46677487114102
 40
12.71209180660131
 40
13.95631352628057
 40
15.20054698637442
 40
15.20054698637442
 40
15.20054698637442
 40
15.20054698637442
 10
340.9133605665307
 20
139.1386542137066
 30
0.000000000000000
 10
340.9060621011145
 20
139.4139212261887
 30
0.000000000000000
 10
340.8854596274837
 20
140.0547683674015
 30
0.000000000000000
 10
340.8386884363041
 20
141.0630338833166
 30
0.000000000000000
 10
340.7734301737786
 20
142.1646956822476
 30
0.000000000000000
 10
340.6945001472735
 20
143.2702910332819
 30
0.000000000000000
 10
340.5977892057742
 20
144.4207601901512
 30
0.000000000000000
 10
340.4804778506228
 20
145.6143630312913
 30
0.000000000000000
 10
340.3396129552403
 20
146.8496176536541
 30
0.000000000000000
 10
340.1774662740969
 20
148.0826544902588
 30
0.000000000000000
 10
339.9901010893846
 20
149.3125790106210
 30
0.000000000000000
 10
339.7746590873203
 20
150.5385410361862
 30
0.000000000000000
 10
339.5255401357525
 20
151.7582428703856
 30
0.000000000000000
 10
339.2368539764789
 20
152.9692351627575
 30
0.000000000000000
 10
339.0060502194780
 20
153.7663445882529
 30
0.000000000000000
 10
338.8822332720525
 20
154.1621758057895
 30
0.000000000000000
  0
ARC
  5
A1
100
AcDbEntity
  8
A1
  6
CONTINUOUS
 62
7
100
AcDbCircle
 10
298.5459725601582
 20
138.0368955108179
 30
0.000000000000000
 40
42.38171113489761
100
AcDbArc
 50
0.09932857766942281
 51
1.489633954360401
  0
SPLINE
  5
A2
100
AcDbEntity
  8
A1
  6
CONTINUOUS
 62
7
100
AcDbSpline
210
0.000000000000000
220
0.000000000000000
230
1.000000000000000
 70
     8
 71
     3
 72
    19
 73
    15
 74
     0
 42
1.000000000000000e-07
 43
1.000000000000000e-07
 12
0.9999668788304916
 22
-0.008138872307426936
 32
0.000000000000000
 13
0.2902675765749336
 23
-0.9569455229998312
 33
0.000000000000000
 40
0.000000000000000
 40
0.000000000000000
 40
0.000000000000000
 40
0.000000000000000
 40
0.3184617817002841
 40
0.6365029755885323
 40
0.9521172324665060
 40
1.267386493951883
 40
1.579295064901800
 40
2.097619785858711
 40
2.616130275138028
 40
3.133178960224682
 40
3.907517478427024
 40
4.679962469803526
 40
5.451232742288212
 40
6.223452170121682
 40
6.223452170121682
 40
6.223452170121682
 40
6.223452170121682
 10
335.4276210294524
 20
158.9494527050194
 30
0.000000000000000
 10
335.5337714407436
 20
158.9485887317608
 30
0.000000000000000
 10
335.7466257195463
 20
158.9262412465910
 30
0.000000000000000
 10
336.0497634454151
 20
158.8256530279064
 30
0.000000000000000
 10
336.3296197391986
 20
158.6756394120014
 30
0.000000000000000
 10
336.5839851310617
 20
158.4897091577991
 30
0.000000000000000
 10
336.8662781402797
 20
158.2317703967851
 30
0.000000000000000
 10
337.1622491561312
 20
157.8917281482863
 30
0.000000000000000
 10
337.4611536389468
 20
157.4679845875892
 30
0.000000000000000
 10
337.7706250125890
 20
156.9496072517659
 30
0.000000000000000
 10
338.0800975994749
 20
156.3344183434631
 30
0.000000000000000
 10
338.3816857697990
 20
155.6226010997182
 30
0.000000000000000
 10
338.6480797401789
 20
154.8978210743810
 30
0.000000000000000
 10
338.8075165180854
 20
154.4084997805357
 30
0.000000000000000
 10
338.8822332720525
 20
154.1621758057895
 30
0.000000000000000
  0
SPLINE
  5
A3
100
AcDbEntity
  8
A1
  6
CONTINUOUS
 62
7
100
AcDbSpline
210
0.000000000000000
220
0.000000000000000
230
1.000000000000000
 70
     8
 71
     3
 72
    19
 73
    15
 74
     0
 42
1.000000000000000e-07
 43
1.000000000000000e-07
 12
0.2902681131029112
 22
0.9569453602566682
 32
0.000000000000000
 13
0.9999639296670466
 23
0.008493489566262724
 33
0.000000000000000
 40
0.000000000000000
 40
0.000000000000000
 40
0.000000000000000
 40
0.000000000000000
 40
0.7721545033037187
 40
1.543359917413753
 40
2.315784010208572
 40
3.089965655835174
 40
3.606586368565676
 40
4.124744350999673
 40
4.644122874917640
 40
4.955758607255117
 40
5.270791315607604
 40
5.585763627697490
 40
5.902832608069371
 40
6.223446963626904
 40
6.223446963626904
 40
6.223446963626904
 40
6.223446963626904
 10
331.9730087868525
 20
154.1621758057895
 30
0.000000000000000
 10
332.0477193970851
 20
154.4084790289021
 30
0.000000000000000
 10
332.2071424504185
 20
154.8977592169606
 30
0.000000000000000
 10
332.4735130221981
 20
155.6224943336802
 30
0.000000000000000
 10
332.7750707217830
 20
156.3342367452435
 30
0.000000000000000
 10
333.0844346689884
 20
156.9492526252204
 30
0.000000000000000
 10
333.3937053798775
 20
157.4673863211117
 30
0.000000000000000
 10
333.6926335778322
 20
157.8912211242316
 30
0.000000000000000
 10
333.9886221828975
 20
158.2314398150629
 30
0.000000000000000
 10
334.2710312011619
 20
158.4895278561867
 30
0.000000000000000
 10
334.5250912508023
 20
158.6752063343852
 30
0.000000000000000
 10
334.8042573365710
 20
158.8251984886299
 30
0.000000000000000
 10
335.1075125057299
 20
158.9259655798469
 30
0.000000000000000
 10
335.3207534324888
 20
158.9485449934582
 30
0.000000000000000
 10
335.4276210294524
 20
158.9494527050194
 30
0.000000000000000
  0
SPLINE
  5
A4
100
AcDbEntity
  8
A1
  6
CONTINUOUS
 62
7
100
AcDbSpline
210
0.000000000000000
220
0.000000000000000
230
1.000000000000000
 70
     8
 71
     3
 72
    34
 73
    30
 74
     0
 42
1.000000000000000e-07
 43
1.000000000000000e-07
 12
-0.9999966542359289
 22
-0.002586796842251715
 32
0.000000000000000
 13
-0.4820420065607323
 23
0.8761481061490031
 33
0.000000000000000
 40
0.000000000000000
 40
0.000000000000000
 40
0.000000000000000
 40
0.000000000000000
 40
0.3609795786757882
 40
0.6858404264553566
 40
0.9765557602996908
 40
1.234739518854755
 40
1.461741723345125
 40
1.658713249189961
 40
1.856823035428305
 40
2.014570761003096
 40
2.133154361728241
 40
2.214064178959112
 40
2.288776951363774
 40
2.472418736914085
 40
2.699389731632628
 40
2.951895575802803
 40
3.202246211948921
 40
3.449311936236569
 40
3.719033761666975
 40
3.954205965766731
 40
4.151415967693740
 40
4.338492309264687
 40
4.539431282972828
 40
4.678975432448280
 40
4.825149410310347
 40
4.978131759079126
 40
5.157776996755489
 40
5.377547102398441
 40
5.609576981263979
 40
5.609576981263979
 40
5.609576981263979
 40
5.609576981263979
 10
335.4283387146003
 20
130.6156227988020
 30
0.000000000000000
 10
335.3080125909592
 20
130.6153115385239
 30
0.000000000000000
 10
335.0793099377545
 20
130.6220152394294
 30
0.000000000000000
 10
334.7549432589259
 20
130.6513160295176
 30
0.000000000000000
 10
334.4666050655906
 20
130.6933459054101
 30
0.000000000000000
 10
334.2127089509971
 20
130.7430917364711
 30
0.000000000000000
 10
333.9915940534784
 20
130.7963900897330
 30
0.000000000000000
 10
333.7919369703816
 20
130.8525387473396
 30
0.000000000000000
 10
333.6163628077421
 20
130.9086283452657
 30
0.000000000000000
 10
333.4672958718642
 20
130.9615058758861
 30
0.000000000000000
 10
333.3560756522185
 20
131.0040775082962
 30
0.000000000000000
 10
333.2713097508996
 20
131.0382780104715
 30
0.000000000000000
 10
333.1670405117201
 20
131.0820667716787
 30
0.000000000000000
 10
333.0193692546183
 20
131.1482095459999
 30
0.000000000000000
 10
332.8211375166926
 20
131.2461442767842
 30
0.000000000000000
 10
332.6079853674233
 20
131.3635945978422
 30
0.000000000000000
 10
332.3949889225823
 20
131.4946215519378
 30
0.000000000000000
 10
332.1838678878274
 20
131.6390807204539
 30
0.000000000000000
 10
331.9846371346938
 20
131.7914033694180
 30
0.000000000000000
 10
331.8064655458343
 20
131.9433006833183
 30
0.000000000000000
 10
331.6556638573677
 20
132.0844418543611
 30
0.000000000000000
 10
331.5188419047059
 20
132.2235603721988
 30
0.000000000000000
 10
331.4008186805361
 20
132.3540026039734
 30
0.000000000000000
 10
331.2963879435491
 20
132.4781643025919
 30
0.000000000000000
 10
331.2056462326578
 20
132.5928683349823
 30
0.000000000000000
 10
331.1105276125149
 20
132.7210589197657
 30
0.000000000000000
 10
331.0058029684611
 20
132.8725594468676
 30
0.000000000000000
 10
330.8929664034101
 20
133.0503088337648
 30
0.000000000000000
 10
330.8175110419701
 20
133.1807038282498
 30
0.000000000000000
 10
330.7802283258400
 20
133.2484680078958
 30
0.000000000000000
  0
LINE
  5
A5
100
AcDbEntity
  8
A1
  6
CONTINUOUS
 62
7
100
AcDbLine
 10
330.7746268926186
 20
133.2579318260325
 30
0.000000000000000
 11
330.7827944430977
 21
133.2418621008148
 31
0.000000000000000
  0
SPLINE
  5
A6
100
AcDbEntity
  8
A1
  6
CONTINUOUS
 62
7
100
AcDbSpline
210
0.000000000000000
220
0.000000000000000
230
1.000000000000000
 70
     8
 71
     3
 72
    28
 73
    24
 74
     0
 42
1.000000000000000e-07
 43
1.000000000000000e-07
 12
-0.4205923446374982
 22
0.9072497338848962
 32
0.000000000000000
 13
0.01255712181864510
 23
0.9999211562367236
 33
0.000000000000000
 40
0.000000000000000
 40
0.000000000000000
 40
0.000000000000000
 40
0.000000000000000
 40
0.4058583701819877
 40
0.7624083584356687
 40
1.109011285040725
 40
1.471501708548471
 40
1.669148139550885
 40
1.858157725065545
 40
2.019663960380885
 40
2.153181555394736
 40
2.258148091245046
 40
2.341990337194323
 40
2.488527574575990
 40
2.692783572453152
 40
2.958042377377798
 40
3.268323126052535
 40
3.575164284071767
 40
3.875051317565794
 40
4.132670419993342
 40
4.383920723414892
 40
4.620689092586699
 40
4.837877733356652
 40
4.983610573823773
 40
4.983610573823773
 40
4.983610573823773
 40
4.983610573823773
 10
330.7829794433474
 20
133.2416355367984
 30
0.000000000000000
 10
330.7260791355121
 20
133.3643738362459
 30
0.000000000000000
 10
330.6238850363378
 20
133.5971401107033
 30
0.000000000000000
 10
330.4874827672794
 20
133.9408085143975
 30
0.000000000000000
 10
330.3698091421210
 20
134.2760736420832
 30
0.000000000000000
 10
330.2823780306843
 20
134.5655237673095
 30
0.000000000000000
 10
330.2190586410534
 20
134.8071036854585
 30
0.000000000000000
 10
330.1772313448025
 20
134.9849925902920
 30
0.000000000000000
 10
330.1438680560575
 20
135.1428614200499
 30
0.000000000000000
 10
330.1187314498212
 20
135.2738068053181
 30
0.000000000000000
 10
330.0999995770849
 20
135.3796062335225
 30
0.000000000000000
 10
330.0817110695358
 20
135.4898834970238
 30
0.000000000000000
 10
330.0598319486411
 20
135.6331067771484
 30
0.000000000000000
 10
330.0325657542037
 20
135.8366539333972
 30
0.000000000000000
 10
330.0038308251609
 20
136.0950177011521
 30
0.000000000000000
 10
329.9783230108645
 20
136.3880645276977
 30
0.000000000000000
 10
329.9583435139089
 20
136.6930994706242
 30
0.000000000000000
 10
329.9445293970700
 20
136.9808950399795
 30
0.000000000000000
 10
329.9351071976315
 20
137.2503225837606
 30
0.000000000000000
 10
329.9291012243758
 20
137.4987957495903
 30
0.000000000000000
 10
329.9249312408429
 20
137.7338405474545
 30
0.000000000000000
 10
329.9259434007308
 20
137.9337444198600
 30
0.000000000000000
 10
329.9270142192482
 20
138.0547126924787
 30
0.000000000000000
 10
329.9276242142585
 20
138.1032864759259
 30
0.000000000000000
  0
ARC
  5
A7
100
AcDbEntity
  8
A1
  6
CONTINUOUS
 62
7
100
AcDbCircle
 10
371.9993061554563
 20
138.0415872372234
 30
0.000000000000000
 40
42.07172195047082
100
AcDbArc
 50
178.5233859469123
 51
179.9199695010369
  0
SPLINE
  5
A8
100
AcDbEntity
  8
A1
  6
CONTINUOUS
 62
7
100
AcDbSpline
210
0.000000000000000
220
0.000000000000000
230
1.000000000000000
 70
     8
 71
     3
 72
    20
 73
    16
 74
     0
 42
1.000000000000000e-07
 43
1.000000000000000e-07
 12
0.02629793278333636
 22
0.9996541495596603
 32
0.000000000000000
 13
0.2985415488460603
 23
0.9543966385170393
 33
0.000000000000000
 40
0.000000000000000
 40
0.000000000000000
 40
0.000000000000000
 40
0.000000000000000
 40
0.8390629347355782
 40
1.936483303598563
 40
3.040970682786142
 40
4.149844600408241
 40
5.261713130816812
 40
6.504640746176612
 40
7.748235615132198
 40
8.992322624622020
 40
10.23692187222742
 40
11.48209594922809
 40
12.72628214075064
 40
13.96947752653079
 40
15.21347515129285
 40
15.21347515129285
 40
15.21347515129285
 40
15.21347515129285
 10
329.9415551242838
 20
139.1257302525273
 30
0.000000000000000
 10
329.9489103311701
 20
139.4053211673440
 30
0.000000000000000
 10
329.9695801830852
 20
140.0505031402070
 30
0.000000000000000
 10
330.0165585331401
 20
141.0631078981476
 30
0.000000000000000
 10
330.0818183193455
 20
142.1647963443488
 30
0.000000000000000
 10
330.1607508898248
 20
143.2704205507646
 30
0.000000000000000
 10
330.2574679503358
 20
144.4209507675162
 30
0.000000000000000
 10
330.3747996440811
 20
145.6147092686231
 30
0.000000000000000
 10
330.5157092858826
 20
146.8502898346762
 30
0.000000000000000
 10
330.6779410189996
 20
148.0838352589767
 30
0.000000000000000
 10
330.8654262702080
 20
149.3143481031318
 30
0.000000000000000
 10
331.0809224897042
 20
150.5403397342843
 30
0.000000000000000
 10
331.3299884350939
 20
151.7595085326921
 30
0.000000000000000
 10
331.6185232379366
 20
152.9697161751949
 30
0.000000000000000
 10
331.8492137943000
 20
153.7664200886575
 30
0.000000000000000
 10
331.9730087868525
 20
154.1621758057895
 30
0.000000000000000
  0
INSERT
  5
CC
100
AcDbEntity
  8
A2
  6
CONTINUOUS
 62
4
100
AcDbBlockReference
  2
*X0
 10
0.000000000000000
 20
0.000000000000000
 30
0.000000000000000
 50
0.000000000000000
  0
ENDSEC
  0
SECTION
  2
OBJECTS
  0
DICTIONARY
  5
FA
100
AcDbDictionary
  3
ACAD_GROUP
350
FB
  3
ACAD_LAYOUT
350
FC
  3
ACAD_MLINESTYLE
350
FD
  0
DICTIONARY
  5
FB
102
{ACAD_REACTORS
330
FA
102
}
330
FA
100
AcDbDictionary
  0
DICTIONARY
  5
FC
102
{ACAD_REACTORS
330
FA
102
}
330
FA
100
AcDbDictionary
  3
Model
350
FE
  3
ﾚｲｱｳﾄ1
350
FF
  3
ﾚｲｱｳﾄ2
350
100
  0
DICTIONARY
  5
FD
102
{ACAD_REACTORS
330
FA
102
}
330
FA
100
AcDbDictionary
  3
STANDARD
350
101
  0
LAYOUT
  5
FE
102
{ACAD_REACTORS
330
FC
102
}
330
FC
100
AcDbPlotSettings
 70
11952
  4
A3
 44
297.000000
 45
420.000000
 73
  1
 72
  1
100
AcDbLayout
  1
Model
 71
0
330
F0
  0
LAYOUT
  5
FF
102
{ACAD_REACTORS
330
FC
102
}
330
FC
100
AcDbPlotSettings
100
AcDbLayout
  1
ﾚｲｱｳﾄ1
 71
1
330
F1
  0
LAYOUT
  5
100
102
{ACAD_REACTORS
330
FC
102
}
330
FC
100
AcDbPlotSettings
100
AcDbLayout
  1
ﾚｲｱｳﾄ2
 71
2
330
F2
  0
MLINESTYLE
  5
101
102
{ACAD_REACTORS
330
FD
102
}
330
FD
100
AcDbMlineStyle
  2
STANDARD
 70
     0
  3

 62
   256
 51
90.00
 52
90.00
 71
     2
 49
0.50
 62
   256
  6
BYLAYER
 49
-0.50
 62
   256
  6
BYLAYER
  0
ENDSEC
  0
EOF
