  0
SECTION
  2
HEADER
  9
$ACADVER
  1
AC1027
  9
$DWGCODEPAGE
  3
ANSI_932
  9
$LTSCALE
 40
20.0
  9
$FILLMODE
 70
     1
  9
$CLAYER
  8
0
  9
$PDMODE
 70
     0
  9
$SPLFRAME
 70
     0
  9
$SPLINETYPE
 70
     6
  9
$SPLINESEGS
 70
     8
  9
$DIMASZ
 40
2.000000
  9
$DIMEXE
 40
1.500000
  9
$DIMEXO
 40
0.800000
  9
$DIMTAD
 70
     1
  9
$DIMTIH
 70
     0
  9
$DIMTOH
 70
     0
  9
$DIMTVP
 40
0.500000
  9
$DIMTXT
 40
3.100000
  9
$EXTMIN
 10
0.000000
 20
0.000000
 30
0.000000
  9
$EXTMAX
 10
297.000000
 20
420.000000
 30
0.000000
  9
$MEASUREMENT
 70
  1
  9
$LIMMIN
 10
0.000000
 20
0.000000
  9
$LIMMAX
 10
297.000000
 20
420.000000
  9
$HANDSEED
  5
116
  9
$LWDISPLAY
290
     0
  9
$DIMBLK
  1
_OPEN
  9
$DIMDEC
 70
     2
  9
$DIMADEC
 70
     2
  9
$DIMAUNIT
 70
     0
  9
$DIMZIN
 70
     8
  9
$DIMAZIN
 70
     2
  9
$DIMTOFL
 70
     1
  0
ENDSEC
  0
SECTION
  2
CLASSES
  0
ENDSEC
  0
SECTION
  2
TABLES
  0
TABLE
  2
VPORT
  5
E0
100
AcDbSymbolTable
 70
     1
  0
VPORT
  5
E1
100
AcDbSymbolTableRecord
100
AcDbViewportTableRecord
  2
*ACTIVE
 70
     0
 12
182.123006
 22
136.943128
 40
237.886254
 41
1.447103
  0
ENDTAB
  0
TABLE
  2
LTYPE
  5
E2
100
AcDbSymbolTable
 70
     3
  0
LTYPE
  5
E3
100
AcDbSymbolTableRecord
100
AcDbLinetypeTableRecord
  2
BYBLOCK
 70
     0
  3

 72
    65
 73
     0
 40
0.0
  0
LTYPE
  5
E4
100
AcDbSymbolTableRecord
100
AcDbLinetypeTableRecord
  2
BYLAYER
 70
     0
  3

 72
    65
 73
     0
 40
0.0
  0
LTYPE
  5
E5
100
AcDbSymbolTableRecord
100
AcDbLinetypeTableRecord
  2
CONTINUOUS
 70
     0
  3
Solid line (NEC CAE2D for Win R18.0 : 2025.12.23)
 72
    65
 73
     0
 40
0.0
  0
LTYPE
  5
E6
100
AcDbSymbolTableRecord
100
AcDbLinetypeTableRecord
  2
DASHED
 70
     0
  3
__ __ __ __ __ __ __ __ __ __ __ __ __ _
 72
    65
 73
     2
 40
0.75
 49
0.5
 74
     0
 49
-0.25
 74
     0
  0
LTYPE
  5
E7
100
AcDbSymbolTableRecord
100
AcDbLinetypeTableRecord
  2
CENTER
 70
     0
  3
____ _ ____ _ ____ _ ____ _ ____ _ ____
 72
    65
 73
     4
 40
2.0
 49
1.25
 74
     0
 49
-0.25
 74
     0
 49
0.25
 74
     0
 49
-0.25
 74
     0
  0
ENDTAB
  0
TABLE
  2
LAYER
  5
E8
100
AcDbSymbolTable
 70
    13
  0
LAYER
  5
E9
100
AcDbSymbolTableRecord
100
AcDbLayerTableRecord
  2
0
 70
     0
 62
     7
  6
CONTINUOUS
370
    -3
390

  0
LAYER
  5
EA
100
AcDbSymbolTableRecord
100
AcDbLayerTableRecord
  2
A0
 70
     0
 62
     7
  6
CONTINUOUS
370
    -3
390

  0
LAYER
  5
EB
100
AcDbSymbolTableRecord
100
AcDbLayerTableRecord
  2
A1
 70
     0
 62
    12
  6
CONTINUOUS
370
    -3
390

  0
LAYER
  5
EC
100
AcDbSymbolTableRecord
100
AcDbLayerTableRecord
  2
A2
 70
     0
 62
    13
  6
CONTINUOUS
370
    -3
390

  0
LAYER
  5
ED
100
AcDbSymbolTableRecord
100
AcDbLayerTableRecord
  2
A3
 70
     0
 62
    11
  6
CONTINUOUS
370
    -3
390

  0
LAYER
  5
EE
100
AcDbSymbolTableRecord
100
AcDbLayerTableRecord
  2
A4
 70
     0
 62
     9
  6
CONTINUOUS
370
    -3
390

  0
LAYER
  5
EF
100
AcDbSymbolTableRecord
100
AcDbLayerTableRecord
  2
A7
 70
     0
 62
    12
  6
CONTINUOUS
370
    -3
390

  0
LAYER
  5
F0
100
AcDbSymbolTableRecord
100
AcDbLayerTableRecord
  2
A10
 70
     0
 62
     6
  6
CONTINUOUS
370
    -3
390

  0
LAYER
  5
F1
100
AcDbSymbolTableRecord
100
AcDbLayerTableRecord
  2
A20
 70
     0
 62
     1
  6
CONTINUOUS
370
    -3
390

  0
LAYER
  5
F2
100
AcDbSymbolTableRecord
100
AcDbLayerTableRecord
  2
A30
 70
     0
 62
     1
  6
CONTINUOUS
370
    -3
390

  0
LAYER
  5
F3
100
AcDbSymbolTableRecord
100
AcDbLayerTableRecord
  2
A40
 70
     0
 62
     9
  6
CONTINUOUS
370
    -3
390

  0
LAYER
  5
F4
100
AcDbSymbolTableRecord
100
AcDbLayerTableRecord
  2
A50
 70
     0
 62
    12
  6
CONTINUOUS
370
    -3
390

  0
LAYER
  5
F5
100
AcDbSymbolTableRecord
100
AcDbLayerTableRecord
  2
A1023
 70
     0
 62
    16
  6
CONTINUOUS
370
    -3
390

  0
ENDTAB
  0
TABLE
  2
STYLE
  5
F6
100
AcDbSymbolTable
 70
     4
  0
STYLE
  5
F7
100
AcDbSymbolTableRecord
100
AcDbTextStyleTableRecord
  2
STANDARD
 70
    64
 40
0.0
 41
1.0
 50
0.0
 71
     0
 42
3.000000000000000
  3
TXT
  4

  0
STYLE
  5
F8
100
AcDbSymbolTableRecord
100
AcDbTextStyleTableRecord
  2
ANKTATE
 70
    68
 40
0.0
 41
1.0
 50
0.0
 71
     0
 42
3.000000000000000
  3
TXT
  4

  0
STYLE
  5
F9
100
AcDbSymbolTableRecord
100
AcDbTextStyleTableRecord
  2
KNJYOKO
 70
    64
 40
0.0
 41
1.0
 50
0.0
 71
     0
 42
3.000000000000000
  3
TXT
  4
BIGFONT
  0
STYLE
  5
FA
100
AcDbSymbolTableRecord
100
AcDbTextStyleTableRecord
  2
KNJTATE
 70
    68
 40
0.0
 41
1.0
 50
0.0
 71
     0
 42
3.000000000000000
  3
TXT
  4
BIGFONT
  0
ENDTAB
  0
TABLE
  2
VIEW
  5
FB
100
AcDbSymbolTable
 70
     0
  0
ENDTAB
  0
TABLE
  2
UCS
  5
FC
100
AcDbSymbolTable
 70
     0
  0
ENDTAB
  0
TABLE
  2
APPID
  5
FD
100
AcDbSymbolTable
 70
     1
  0
APPID
  5
FE
100
AcDbSymbolTableRecord
100
AcDbRegAppTableRecord
  2
ACAD
 70
     0
  0
ENDTAB
  0
TABLE
  2
DIMSTYLE
  5
FF
100
AcDbSymbolTable
 70
     2
100
AcDbDimStyleTable
  0
DIMSTYLE
105
100
100
AcDbSymbolTableRecord
100
AcDbDimStyleTableRecord
  2
STANDARD
 70
     0
 41
2.000000
 44
1.500000
 42
0.800000
145
0.661290
140
3.100000
144
1.000000
146
0.645161
340
F7
  0
DIMSTYLE
105
101
100
AcDbSymbolTableRecord
100
AcDbDimStyleTableRecord
  2
A001
 70
     0
 41
2.000000
 44
1.500000
 42
0.800000
145
0.661290
140
3.100000
144
1.000000
146
0.645161
 77
     1
 73
     0
 74
     0
271
     2
179
     2
275
     0
 78
     8
 79
     2
172
     1
340
F7
  0
ENDTAB
  0
TABLE
  2
BLOCK_RECORD
  5
102
100
AcDbSymbolTable
 70
    14
  0
BLOCK_RECORD
  5
103
100
AcDbSymbolTableRecord
100
AcDbBlockTableRecord
  2
*MODEL_SPACE
  0
BLOCK_RECORD
  5
104
100
AcDbSymbolTableRecord
100
AcDbBlockTableRecord
  2
*PAPER_SPACE
  0
BLOCK_RECORD
  5
105
100
AcDbSymbolTableRecord
100
AcDbBlockTableRecord
  2
*PAPER_SPACE0
  0
BLOCK_RECORD
  5
1
100
AcDbSymbolTableRecord
100
AcDbBlockTableRecord
  2
_NONE
  0
BLOCK_RECORD
  5
4
100
AcDbSymbolTableRecord
100
AcDbBlockTableRecord
  2
_CLOSED
  0
BLOCK_RECORD
  5
B
100
AcDbSymbolTableRecord
100
AcDbBlockTableRecord
  2
_DOT
  0
BLOCK_RECORD
  5
13
100
AcDbSymbolTableRecord
100
AcDbBlockTableRecord
  2
_OPEN
  0
BLOCK_RECORD
  5
19
100
AcDbSymbolTableRecord
100
AcDbBlockTableRecord
  2
_ORIGIN
  0
BLOCK_RECORD
  5
1E
100
AcDbSymbolTableRecord
100
AcDbBlockTableRecord
  2
_OPEN30
  0
BLOCK_RECORD
  5
24
100
AcDbSymbolTableRecord
100
AcDbBlockTableRecord
  2
_BOXFILLED
  0
BLOCK_RECORD
  5
29
100
AcDbSymbolTableRecord
100
AcDbBlockTableRecord
  2
_BOXBLANK
  0
BLOCK_RECORD
  5
31
100
AcDbSymbolTableRecord
100
AcDbBlockTableRecord
  2
_OBLIQUE
  0
BLOCK_RECORD
  5
35
100
AcDbSymbolTableRecord
100
AcDbBlockTableRecord
  2
_OPEN90
  0
BLOCK_RECORD
  5
3B
100
AcDbSymbolTableRecord
100
AcDbBlockTableRecord
  2
_CLOSEDBLANK
  0
BLOCK_RECORD
  5
41
100
AcDbSymbolTableRecord
100
AcDbBlockTableRecord
  2
_DOTBLANK
  0
BLOCK_RECORD
  5
106
100
AcDbSymbolTableRecord
100
AcDbBlockTableRecord
  2
*X0
  0
BLOCK_RECORD
  5
107
100
AcDbSymbolTableRecord
100
AcDbBlockTableRecord
  2
*X1
  0
ENDTAB
  0
ENDSEC
  0
SECTION
  2
BLOCKS
  0
BLOCK
  5
108
100
AcDbEntity
  8
0
100
AcDbBlockBegin
  2
*MODEL_SPACE
 70
     0
 10
0.0
 20
0.0
 30
0.0
  3
*MODEL_SPACE
  1

  0
ENDBLK
  5
109
100
AcDbEntity
  8
0
100
AcDbBlockEnd
  0
BLOCK
  5
10A
100
AcDbEntity
  8
0
100
AcDbBlockBegin
  2
*PAPER_SPACE
 70
     0
 10
0.0
 20
0.0
 30
0.0
  3
*PAPER_SPACE
  1

  0
ENDBLK
  5
10B
100
AcDbEntity
  8
0
100
AcDbBlockEnd
  0
BLOCK
  5
10C
100
AcDbEntity
  8
0
100
AcDbBlockBegin
  2
*PAPER_SPACE0
 70
     0
 10
0.0
 20
0.0
 30
0.0
  3
*PAPER_SPACE0
  1

  0
ENDBLK
  5
10D
100
AcDbEntity
  8
0
100
AcDbBlockEnd
  0
BLOCK
  5
2
330
1
100
AcDbEntity
  8
0
100
AcDbBlockBegin
  2
_NONE
 70
     0
 10
0.0
 20
0.0
 30
0.0
  3
_NONE
  1

  0
ENDBLK
  5
3
330
1
100
AcDbEntity
  8
0
100
AcDbBlockEnd
  0
BLOCK
  5
5
330
4
100
AcDbEntity
  8
0
100
AcDbBlockBegin
  2
_CLOSED
 70
     0
 10
0.0
 20
0.0
 30
0.0
  3
_CLOSED
  1

  0
LINE
  5
6
330
4
100
AcDbEntity
  8
0
  6
BYBLOCK
 62
     0
370
    -2
100
AcDbLine
 10
-1.0
 20
0.166667
 30
0.0
 11
0.0
 21
0.0
 31
0.0
  0
LINE
  5
7
330
4
100
AcDbEntity
  8
0
  6
BYBLOCK
 62
     0
370
    -2
100
AcDbLine
 10
0.0
 20
0.0
 30
0.0
 11
-1.0
 21
-0.166667
 31
0.0
  0
LINE
  5
8
330
4
100
AcDbEntity
  8
0
  6
BYBLOCK
 62
     0
370
    -2
100
AcDbLine
 10
-1.0
 20
0.166667
 30
0.0
 11
-1.0
 21
-0.166667
 31
0.0
  0
LINE
  5
9
330
4
100
AcDbEntity
  8
0
  6
BYBLOCK
 62
     0
370
    -2
100
AcDbLine
 10
0.0
 20
0.0
 30
0.0
 11
-1.0
 21
0.0
 31
0.0
  0
ENDBLK
  5
A
330
4
100
AcDbEntity
  8
0
100
AcDbBlockEnd
  0
BLOCK
  5
C
330
B
100
AcDbEntity
  8
0
100
AcDbBlockBegin
  2
_DOT
 70
     0
 10
0.0
 20
0.0
 30
0.0
  3
_DOT
  1

  0
POLYLINE
  5
D
330
B
100
AcDbEntity
  8
0
  6
BYBLOCK
 62
     0
370
    -2
100
AcDb2dPolyline
 66
     1
 10
0.0
 20
0.0
 30
0.0
 70
     1
 40
0.5
 41
0.5
  0
VERTEX
  5
E
330
B
100
AcDbEntity
  8
0
  6
BYBLOCK
 62
     0
370
    -2
100
AcDbVertex
100
AcDb2dVertex
 10
-0.25
 20
0.0
 30
0.0
 42
1.0
  0
VERTEX
  5
F
330
B
100
AcDbEntity
  8
0
  6
BYBLOCK
 62
     0
370
    -2
100
AcDbVertex
100
AcDb2dVertex
 10
0.25
 20
0.0
 30
0.0
 42
1.0
  0
SEQEND
  5
10
330
B
100
AcDbEntity
  8
0
  6
BYBLOCK
 62
     0
370
    -2
  0
LINE
  5
11
330
B
100
AcDbEntity
  8
0
  6
BYBLOCK
 62
     0
370
    -2
100
AcDbLine
 10
-0.5
 20
0.0
 30
0.0
 11
-1.0
 21
0.0
 31
0.0
  0
ENDBLK
  5
12
330
B
100
AcDbEntity
  8
0
100
AcDbBlockEnd
  0
BLOCK
  5
14
330
13
100
AcDbEntity
  8
0
100
AcDbBlockBegin
  2
_OPEN
 70
     0
 10
0.0
 20
0.0
 30
0.0
  3
_OPEN
  1

  0
LINE
  5
15
330
13
100
AcDbEntity
  8
0
  6
BYBLOCK
 62
     0
370
    -2
100
AcDbLine
 10
-1.0
 20
0.166667
 30
0.0
 11
0.0
 21
0.0
 31
0.0
  0
LINE
  5
16
330
13
100
AcDbEntity
  8
0
  6
BYBLOCK
 62
     0
370
    -2
100
AcDbLine
 10
0.0
 20
0.0
 30
0.0
 11
-1.0
 21
-0.166667
 31
0.0
  0
LINE
  5
17
330
13
100
AcDbEntity
  8
0
  6
BYBLOCK
 62
     0
370
    -2
100
AcDbLine
 10
0.0
 20
0.0
 30
0.0
 11
-1.0
 21
0.0
 31
0.0
  0
ENDBLK
  5
18
330
13
100
AcDbEntity
  8
0
100
AcDbBlockEnd
  0
BLOCK
  5
1A
330
19
100
AcDbEntity
  8
0
100
AcDbBlockBegin
  2
_ORIGIN
 70
     0
 10
0.0
 20
0.0
 30
0.0
  3
_ORIGIN
  1

  0
CIRCLE
  5
1B
330
19
100
AcDbEntity
  8
0
  6
BYBLOCK
 62
     0
370
    -2
100
AcDbCircle
 10
0.0
 20
0.0
 30
0.0
 40
0.5
  0
LINE
  5
1C
330
19
100
AcDbEntity
  8
0
  6
BYBLOCK
 62
     0
370
    -2
100
AcDbLine
 10
0.0
 20
0.0
 30
0.0
 11
-1.0
 21
0.0
 31
0.0
  0
ENDBLK
  5
1D
330
19
100
AcDbEntity
  8
0
100
AcDbBlockEnd
  0
BLOCK
  5
1F
330
1E
100
AcDbEntity
  8
0
100
AcDbBlockBegin
  2
_OPEN30
 70
     0
 10
0.0
 20
0.0
 30
0.0
  3
_OPEN30
  1

  0
LINE
  5
20
330
1E
100
AcDbEntity
  8
0
  6
BYBLOCK
 62
     0
370
    -2
100
AcDbLine
 10
-1.0
 20
0.267949
 30
0.0
 11
0.0
 21
0.0
 31
0.0
  0
LINE
  5
21
330
1E
100
AcDbEntity
  8
0
  6
BYBLOCK
 62
     0
370
    -2
100
AcDbLine
 10
0.0
 20
0.0
 30
0.0
 11
-1.0
 21
-0.267949
 31
0.0
  0
LINE
  5
22
330
1E
100
AcDbEntity
  8
0
  6
BYBLOCK
 62
     0
370
    -2
100
AcDbLine
 10
0.0
 20
0.0
 30
0.0
 11
-1.0
 21
0.0
 31
0.0
  0
ENDBLK
  5
23
330
1E
100
AcDbEntity
  8
0
100
AcDbBlockEnd
  0
BLOCK
  5
25
330
24
100
AcDbEntity
  8
0
100
AcDbBlockBegin
  2
_BOXFILLED
 70
     0
 10
0.0
 20
0.0
 30
0.0
  3
_BOXFILLED
  1

  0
SOLID
  5
26
330
24
100
AcDbEntity
  8
0
  6
BYBLOCK
 62
     0
370
    -2
100
AcDbTrace
 10
-0.5
 20
0.5
 30
0.0
 11
0.5
 21
0.5
 31
0.0
 12
-0.5
 22
-0.5
 32
0.0
 13
0.5
 23
-0.5
 33
0.0
  0
LINE
  5
27
330
24
100
AcDbEntity
  8
0
  6
BYBLOCK
 62
     0
370
    -2
100
AcDbLine
 10
-0.5
 20
0.0
 30
0.0
 11
-1.0
 21
0.0
 31
0.0
  0
ENDBLK
  5
28
330
24
100
AcDbEntity
  8
0
100
AcDbBlockEnd
  0
BLOCK
  5
2A
330
29
100
AcDbEntity
  8
0
100
AcDbBlockBegin
  2
_BOXBLANK
 70
     0
 10
0.0
 20
0.0
 30
0.0
  3
_BOXBLANK
  1

  0
LINE
  5
2B
330
29
100
AcDbEntity
  8
0
  6
BYBLOCK
 62
     0
370
    -2
100
AcDbLine
 10
-0.5
 20
-0.5
 30
0.0
 11
0.5
 21
-0.5
 31
0.0
  0
LINE
  5
2C
330
29
100
AcDbEntity
  8
0
  6
BYBLOCK
 62
     0
370
    -2
100
AcDbLine
 10
0.5
 20
-0.5
 30
0.0
 11
0.5
 21
0.5
 31
0.0
  0
LINE
  5
2D
330
29
100
AcDbEntity
  8
0
  6
BYBLOCK
 62
     0
370
    -2
100
AcDbLine
 10
0.5
 20
0.5
 30
0.0
 11
-0.5
 21
0.5
 31
0.0
  0
LINE
  5
2E
330
29
100
AcDbEntity
  8
0
  6
BYBLOCK
 62
     0
370
    -2
100
AcDbLine
 10
-0.5
 20
0.5
 30
0.0
 11
-0.5
 21
-0.5
 31
0.0
  0
LINE
  5
2F
330
29
100
AcDbEntity
  8
0
  6
BYBLOCK
 62
     0
370
    -2
100
AcDbLine
 10
-0.5
 20
0.0
 30
0.0
 11
-1.0
 21
0.0
 31
0.0
  0
ENDBLK
  5
30
330
29
100
AcDbEntity
  8
0
100
AcDbBlockEnd
  0
BLOCK
  5
32
330
31
100
AcDbEntity
  8
0
100
AcDbBlockBegin
  2
_OBLIQUE
 70
     0
 10
0.0
 20
0.0
 30
0.0
  3
_OBLIQUE
  1

  0
LINE
  5
33
330
31
100
AcDbEntity
  8
0
  6
BYBLOCK
 62
     0
370
    -2
100
AcDbLine
 10
-0.5
 20
-0.5
 30
0.0
 11
0.5
 21
0.5
 31
0.0
  0
ENDBLK
  5
34
330
31
100
AcDbEntity
  8
0
100
AcDbBlockEnd
  0
BLOCK
  5
36
330
35
100
AcDbEntity
  8
0
100
AcDbBlockBegin
  2
_OPEN90
 70
     0
 10
0.0
 20
0.0
 30
0.0
  3
_OPEN90
  1

  0
LINE
  5
37
330
35
100
AcDbEntity
  8
0
  6
BYBLOCK
 62
     0
370
    -2
100
AcDbLine
 10
-0.5
 20
0.5
 30
0.0
 11
0.0
 21
0.0
 31
0.0
  0
LINE
  5
38
330
35
100
AcDbEntity
  8
0
  6
BYBLOCK
 62
     0
370
    -2
100
AcDbLine
 10
0.0
 20
0.0
 30
0.0
 11
-0.5
 21
-0.5
 31
0.0
  0
LINE
  5
39
330
35
100
AcDbEntity
  8
0
  6
BYBLOCK
 62
     0
370
    -2
100
AcDbLine
 10
0.0
 20
0.0
 30
0.0
 11
-1.0
 21
0.0
 31
0.0
  0
ENDBLK
  5
3A
330
35
100
AcDbEntity
  8
0
100
AcDbBlockEnd
  0
BLOCK
  5
3C
330
3B
100
AcDbEntity
  8
0
100
AcDbBlockBegin
  2
_CLOSEDBLANK
 70
     0
 10
0.0
 20
0.0
 30
0.0
  3
_CLOSEDBLANK
  1

  0
LINE
  5
3D
330
3B
100
AcDbEntity
  8
0
  6
BYBLOCK
 62
     0
370
    -2
100
AcDbLine
 10
-1.0
 20
0.1666666666666666
 30
0.0
 11
0.0
 21
0.0
 31
0.0
  0
LINE
  5
3E
330
3B
100
AcDbEntity
  8
0
  6
BYBLOCK
 62
     0
370
    -2
100
AcDbLine
 10
0.0
 20
0.0
 30
0.0
 11
-1.0
 21
-0.1666666666666666
 31
0.0
  0
LINE
  5
3F
330
3B
100
AcDbEntity
  8
0
  6
BYBLOCK
 62
     0
370
    -2
100
AcDbLine
 10
-1.0
 20
0.1666666666666666
 30
0.0
 11
-1.0
 21
-0.1666666666666666
 31
0.0
  0
ENDBLK
  5
40
330
3B
100
AcDbEntity
  8
0
100
AcDbBlockEnd
  0
BLOCK
  5
42
330
41
100
AcDbEntity
  8
0
100
AcDbBlockBegin
  2
_DOTBLANK
 70
     0
 10
0.0
 20
0.0
 30
0.0
  3
_DOTBLANK
  1

  0
CIRCLE
  5
43
330
41
100
AcDbEntity
  8
0
  6
BYBLOCK
 62
     0
370
    -2
100
AcDbCircle
 10
0.0
 20
0.0
 30
0.0
 40
0.5
  0
LINE
  5
44
330
41
100
AcDbEntity
  8
0
  6
BYBLOCK
 62
     0
370
    -2
100
AcDbLine
 10
-0.5
 20
0.0
 30
0.0
 11
-1.0
 21
0.0
 31
0.0
  0
ENDBLK
  5
45
330
41
100
AcDbEntity
  8
0
100
AcDbBlockEnd
  0
BLOCK
  5
B2
100
AcDbEntity
  8
A2
  6
BYBLOCK
 62
4
100
AcDbBlockBegin
  2
*X0
 70
     1
 10
0.0
 20
0.0
 30
0.0
  0
LINE
  5
B3
100
AcDbEntity
  8
A2
  6
BYBLOCK
 62
0
370
    -2
100
AcDbLine
 10
259.2316306166234
 20
168.2583983624101
 30
0.000000000000000
 11
268.4322577227427
 21
177.4590242256913
 31
0.000000000000000
  0
LINE
  5
B4
100
AcDbEntity
  8
A2
  6
BYBLOCK
 62
0
370
    -2
100
AcDbLine
 10
258.8958515511525
 20
170.0439383958037
 30
0.000000000000000
 11
267.5193612151421
 21
178.6674480597860
 31
0.000000000000000
  0
LINE
  5
B5
100
AcDbEntity
  8
A2
  6
BYBLOCK
 62
0
370
    -2
100
AcDbLine
 10
258.4365265682008
 20
171.7059337073366
 30
0.000000000000000
 11
266.5600263991848
 21
179.8294335870200
 31
0.000000000000000
  0
LINE
  5
B6
100
AcDbEntity
  8
A2
  6
BYBLOCK
 62
0
370
    -2
100
AcDbLine
 10
258.0159438388941
 20
173.4066713680481
 30
0.000000000000000
 11
265.5878613461160
 21
180.9785888778569
 31
0.000000000000000
  0
LINE
  5
B7
100
AcDbEntity
  8
A2
  6
BYBLOCK
 62
0
370
    -2
100
AcDbLine
 10
257.8895089517438
 20
175.4015568172068
 30
0.000000000000000
 11
263.4657659969854
 21
180.9778138268123
 31
0.000000000000000
  0
LINE
  5
B8
100
AcDbEntity
  8
A2
  6
BYBLOCK
 62
0
370
    -2
100
AcDbLine
 10
254.5810809854581
 20
161.4865271429866
 30
0.000000000000000
 11
257.8734237434451
 21
164.7788699011357
 31
0.000000000000000
  0
LINE
  5
B9
100
AcDbEntity
  8
A2
  6
BYBLOCK
 62
0
370
    -2
100
AcDbLine
 10
258.2675259767614
 20
165.1729721669326
 30
0.000000000000000
 11
268.4460117766859
 21
175.3514579342162
 31
0.000000000000000
  0
LINE
  5
BA
100
AcDbEntity
  8
A2
  6
BYBLOCK
 62
0
370
    -2
100
AcDbLine
 10
255.1015484375195
 20
159.8856742514896
 30
0.000000000000000
 11
268.4460102766014
 21
173.2301360905722
 31
0.000000000000000
  0
LINE
  5
BB
100
AcDbEntity
  8
A2
  6
BYBLOCK
 62
0
370
    -2
100
AcDbLine
 10
255.6220721987385
 20
158.2848776691495
 30
0.000000000000000
 11
268.4460087765175
 21
171.1088142469284
 31
0.000000000000000
  0
LINE
  5
BC
100
AcDbEntity
  8
A2
  6
BYBLOCK
 62
0
370
    -2
100
AcDbLine
 10
256.1426522654878
 20
156.6841373923370
 30
0.000000000000000
 11
268.4460072764324
 21
168.9874924032819
 31
0.000000000000000
  0
LINE
  5
BD
100
AcDbEntity
  8
A2
  6
BYBLOCK
 62
0
370
    -2
100
AcDbLine
 10
256.6632886341397
 20
155.0834534174298
 30
0.000000000000000
 11
268.4460057763484
 21
166.8661705596383
 31
0.000000000000000
  0
LINE
  5
BE
100
AcDbEntity
  8
A2
  6
BYBLOCK
 62
0
370
    -2
100
AcDbLine
 10
257.1839813010691
 20
153.4828257407999
 30
0.000000000000000
 11
268.4460042762638
 21
164.7448487159946
 31
0.000000000000000
  0
LINE
  5
BF
100
AcDbEntity
  8
A2
  6
BYBLOCK
 62
0
370
    -2
100
AcDbLine
 10
257.7047302626519
 20
151.8822543588230
 30
0.000000000000000
 11
268.4460027761777
 21
162.6235268723489
 31
0.000000000000000
  0
LINE
  5
C0
100
AcDbEntity
  8
A2
  6
BYBLOCK
 62
0
370
    -2
100
AcDbLine
 10
258.2255355152648
 20
150.2817392678738
 30
0.000000000000000
 11
268.4460012760946
 21
160.5022050287037
 31
0.000000000000000
  0
LINE
  5
C1
100
AcDbEntity
  8
A2
  6
BYBLOCK
 62
0
370
    -2
100
AcDbLine
 10
258.7463970552832
 20
148.6812804643329
 30
0.000000000000000
 11
268.4459997760101
 21
158.3808831850603
 31
0.000000000000000
  0
LINE
  5
C2
100
AcDbEntity
  8
A2
  6
BYBLOCK
 62
0
370
    -2
100
AcDbLine
 10
259.2673148790861
 20
147.0808779445762
 30
0.000000000000000
 11
268.4459982759240
 21
156.2595613414147
 31
0.000000000000000
  0
LINE
  5
C3
100
AcDbEntity
  8
A2
  6
BYBLOCK
 62
0
370
    -2
100
AcDbLine
 10
259.7882889830529
 20
145.4805317049801
 30
0.000000000000000
 11
268.4459967758404
 21
154.1382394977699
 31
0.000000000000000
  0
LINE
  5
C4
100
AcDbEntity
  8
A2
  6
BYBLOCK
 62
0
370
    -2
100
AcDbLine
 10
260.3093193635625
 20
143.8802417419320
 30
0.000000000000000
 11
268.4459952757574
 21
152.0169176541285
 31
0.000000000000000
  0
LINE
  5
C5
100
AcDbEntity
  8
A2
  6
BYBLOCK
 62
0
370
    -2
100
AcDbLine
 10
260.8304060169949
 20
142.2800080518048
 30
0.000000000000000
 11
268.4459937756740
 21
149.8955958104841
 31
0.000000000000000
  0
LINE
  5
C6
100
AcDbEntity
  8
A2
  6
BYBLOCK
 62
0
370
    -2
100
AcDbLine
 10
261.3515489397321
 20
140.6798306309824
 30
0.000000000000000
 11
268.4459922755887
 21
147.7742739668382
 31
0.000000000000000
  0
LINE
  5
C7
100
AcDbEntity
  8
A2
  6
BYBLOCK
 62
0
370
    -2
100
AcDbLine
 10
261.8727481281563
 20
139.0797094758460
 30
0.000000000000000
 11
268.4459907755036
 21
145.6529521231944
 31
0.000000000000000
  0
LINE
  5
C8
100
AcDbEntity
  8
A2
  6
BYBLOCK
 62
0
370
    -2
100
AcDbLine
 10
262.3940035786504
 20
137.4796445827801
 30
0.000000000000000
 11
268.4459892754202
 21
143.5316302795503
 31
0.000000000000000
  0
LINE
  5
C9
100
AcDbEntity
  8
A2
  6
BYBLOCK
 62
0
370
    -2
100
AcDbLine
 10
262.9153152875976
 20
135.8796359481681
 30
0.000000000000000
 11
268.4459877753339
 21
141.4103084359044
 31
0.000000000000000
  0
LINE
  5
CA
100
AcDbEntity
  8
A2
  6
BYBLOCK
 62
0
370
    -2
100
AcDbLine
 10
263.4366832513837
 20
134.2796835683929
 30
0.000000000000000
 11
268.4459862752502
 21
139.2889865922600
 31
0.000000000000000
  0
LINE
  5
CB
100
AcDbEntity
  8
A2
  6
BYBLOCK
 62
0
370
    -2
100
AcDbLine
 10
263.9581074663926
 20
132.6797874398422
 30
0.000000000000000
 11
268.4459847751659
 21
137.1676647486158
 31
0.000000000000000
  0
LINE
  5
CC
100
AcDbEntity
  8
A2
  6
BYBLOCK
 62
0
370
    -2
100
AcDbLine
 10
264.4795879290112
 20
131.0799475589009
 30
0.000000000000000
 11
269.9359381014643
 21
136.5362977313548
 31
0.000000000000000
  0
LINE
  5
CD
100
AcDbEntity
  8
A2
  6
BYBLOCK
 62
0
370
    -2
100
AcDbLine
 10
265.0011246356270
 20
129.4801639219548
 30
0.000000000000000
 11
272.0572584450223
 21
136.5362977313519
 31
0.000000000000000
  0
LINE
  5
CE
100
AcDbEntity
  8
A2
  6
BYBLOCK
 62
0
370
    -2
100
AcDbLine
 10
266.6785787885828
 20
129.0362977313531
 30
0.000000000000000
 11
269.3955364562260
 21
131.7532554195551
 31
0.000000000000000
  0
LINE
  5
CF
100
AcDbEntity
  8
A2
  6
BYBLOCK
 62
0
370
    -2
100
AcDbLine
 10
269.6290555837756
 20
131.9867745471041
 30
0.000000000000000
 11
273.0960132719778
 21
135.4537322173388
 31
0.000000000000000
  0
LINE
  5
D0
100
AcDbEntity
  8
A2
  6
BYBLOCK
 62
0
370
    -2
100
AcDbLine
 10
268.7998991321400
 20
129.0362977313505
 30
0.000000000000000
 11
269.3460132719774
 21
129.5824118711874
 31
0.000000000000000
  0
LINE
  5
D1
100
AcDbEntity
  8
A2
  6
BYBLOCK
 62
0
370
    -2
100
AcDbLine
 10
271.7998991321463
 20
132.0362977313571
 30
0.000000000000000
 11
273.0960132719773
 21
133.3324118711881
 31
0.000000000000000
  0
ENDBLK
  5
D2
100
AcDbEntity
  8
A2
  6
BYBLOCK
 62
4
100
AcDbBlockEnd
  0
BLOCK
  5
D4
100
AcDbEntity
  8
A2
  6
BYBLOCK
 62
4
100
AcDbBlockBegin
  2
*X1
 70
     1
 10
0.0
 20
0.0
 30
0.0
  0
LINE
  5
D5
100
AcDbEntity
  8
A2
  6
BYBLOCK
 62
0
370
    -2
100
AcDbLine
 10
279.5960132719777
 20
134.9149773877924
 30
0.000000000000000
 11
281.2173336155357
 21
136.5362977313500
 31
0.000000000000000
  0
LINE
  5
D6
100
AcDbEntity
  8
A2
  6
BYBLOCK
 62
0
370
    -2
100
AcDbLine
 10
279.5960132719773
 20
132.7936570442325
 30
0.000000000000000
 11
283.3386539590963
 21
136.5362977313516
 31
0.000000000000000
  0
LINE
  5
D7
100
AcDbEntity
  8
A2
  6
BYBLOCK
 62
0
370
    -2
100
AcDbLine
 10
280.9599743026604
 20
132.0362977313552
 30
0.000000000000000
 11
285.4599743026557
 21
136.5362977313511
 31
0.000000000000000
  0
LINE
  5
D8
100
AcDbEntity
  8
A2
  6
BYBLOCK
 62
0
370
    -2
100
AcDbLine
 10
283.0414969326886
 20
131.9965000112193
 30
0.000000000000000
 11
287.5812946462170
 21
136.5362977313511
 31
0.000000000000000
  0
LINE
  5
D9
100
AcDbEntity
  8
A2
  6
BYBLOCK
 62
0
370
    -2
100
AcDbLine
 10
283.3460132719795
 20
130.1796960135545
 30
0.000000000000000
 11
290.0258254434885
 21
136.8595081851337
 31
0.000000000000000
  0
LINE
  5
DA
100
AcDbEntity
  8
A2
  6
BYBLOCK
 62
0
370
    -2
100
AcDbLine
 10
284.3239353333363
 20
129.0362977313510
 30
0.000000000000000
 11
290.5225920592219
 21
135.2349544572494
 31
0.000000000000000
  0
LINE
  5
DB
100
AcDbEntity
  8
A2
  6
BYBLOCK
 62
0
370
    -2
100
AcDbLine
 10
286.4452556768970
 20
129.0362977313512
 30
0.000000000000000
 11
291.0007395416893
 21
133.5917815962035
 31
0.000000000000000
  0
LINE
  5
DC
100
AcDbEntity
  8
A2
  6
BYBLOCK
 62
0
370
    -2
100
AcDbLine
 10
288.5665760204562
 20
129.0362977313510
 30
0.000000000000000
 11
291.4598447139660
 21
131.9295664248885
 31
0.000000000000000
  0
LINE
  5
DD
100
AcDbEntity
  8
A2
  6
BYBLOCK
 62
0
370
    -2
100
AcDbLine
 10
290.6878963640160
 20
129.0362977313512
 30
0.000000000000000
 11
291.8994569936525
 21
130.2478583610306
 31
0.000000000000000
  0
ENDBLK
  5
DE
100
AcDbEntity
  8
A2
  6
BYBLOCK
 62
4
100
AcDbBlockEnd
  0
ENDSEC
  0
SECTION
  2
ENTITIES
  0
MTEXT
  5
46
100
AcDbEntity
  8
A7
  6
CONTINUOUS
 62
3
100
AcDbMText
 10
9.999997526638502
 20
18.00000076076889
 30
0.000000000000000
 40
3.000000000000000
 41
0.000000000000000
 44
0.6739999771118164
 71
     7
 72
     1
  1
{\H0.94x;{TYPE No.THA-476SUS-190}}
 11
1.000000000000000
 21
0.000000000000000
 31
0.000000000000000
  7
STANDARD
  0
ARC
  5
47
100
AcDbEntity
  8
A1
  6
CONTINUOUS
 62
7
100
AcDbCircle
 10
181.3467950819308
 20
-1262.000864416540
 30
0.000000000000000
 40
1455.037118855479
100
AcDbArc
 50
87.36935698649215
 51
90.00003078574134
  0
ARC
  5
48
100
AcDbEntity
  8
A1
  6
CONTINUOUS
 62
7
100
AcDbCircle
 10
269.8460132719775
 20
131.5362977313524
 30
0.000000000000000
 40
0.4999999999998930
100
AcDbArc
 50
89.99999999999419
 51
180.0000000000122
  0
ARC
  5
49
100
AcDbEntity
  8
A1
  6
CONTINUOUS
 62
7
100
AcDbCircle
 10
282.8460132719779
 20
131.5362977313524
 30
0.000000000000000
 40
0.4999999999998980
100
AcDbArc
 50
359.9999999999878
 51
450.0000000000027
  0
LINE
  5
4A
100
AcDbEntity
  8
A1
  6
CONTINUOUS
 62
7
100
AcDbLine
 10
269.3460132719777
 20
129.0362977313521
 30
0.000000000000000
 11
269.3460132719777
 21
131.5362977313521
 31
0.000000000000000
  0
LINE
  5
4B
100
AcDbEntity
  8
A1
  6
CONTINUOUS
 62
7
100
AcDbLine
 10
283.3460132719777
 20
131.5362977313521
 30
0.000000000000000
 11
283.3460132719777
 21
129.0362977313521
 31
0.000000000000000
  0
ARC
  5
4C
100
AcDbEntity
  8
A1
  6
CONTINUOUS
 62
7
100
AcDbCircle
 10
291.9460140812099
 20
129.2362977313522
 30
0.000000000000000
 40
0.2000000000000000
100
AcDbArc
 50
270.0000000000000
 51
373.7994161625135
  0
ARC
  5
4D
100
AcDbEntity
  8
A1
  6
CONTINUOUS
 62
7
100
AcDbCircle
 10
265.2921632206058
 20
129.2362977313524
 30
0.000000000000000
 40
0.2000000000000000
100
AcDbArc
 50
198.0055687664825
 51
270.0000000000000
  0
SPLINE
  5
4E
100
AcDbEntity
  8
A2
  6
CONTINUOUS
 62
4
100
AcDbSpline
210
0.000000000000000
220
0.000000000000000
230
1.000000000000000
 70
     8
 71
     3
 72
    10
 73
     6
 74
     0
 42
1.000000000000000e-07
 43
1.000000000000000e-07
 12
-1.036478990934896
 22
-0.5360060428387357
 32
0.000000000000000
 13
-1.012383311730773
 23
-0.5488727282762369
 33
0.000000000000000
 40
0.000000000000000
 40
0.000000000000000
 40
0.000000000000000
 40
0.000000000000000
 40
9.559171181517225
 40
18.52165676130812
 40
24.82340373162863
 40
24.82340373162863
 40
24.82340373162863
 40
24.82340373162863
 10
264.9275481926655
 20
181.7434372407009
 30
0.000000000000000
 10
261.6249214925345
 20
180.0355127347598
 30
0.000000000000000
 10
255.0687688165768
 20
176.6450530055106
 30
0.000000000000000
 10
261.5397309350033
 20
166.4135697474993
 30
0.000000000000000
 10
256.3886461682992
 20
163.6208627592251
 30
0.000000000000000
 10
254.2620516791317
 20
162.4679104083896
 30
0.000000000000000
  0
LINE
  5
4F
100
AcDbEntity
  8
A1
  6
CONTINUOUS
 62
7
100
AcDbLine
 10
268.7460132767440
 20
136.5362977313521
 30
0.000000000000000
 11
288.6460137175096
 21
136.5362977313521
 31
0.000000000000000
  0
LINE
  5
50
100
AcDbEntity
  8
A1
  6
CONTINUOUS
 62
7
100
AcDbLine
 10
269.8460132719777
 20
132.0362977313521
 30
0.000000000000000
 11
282.8460132719779
 21
132.0362977313521
 31
0.000000000000000
  0
LINE
  5
51
100
AcDbEntity
  8
A1
  6
CONTINUOUS
 62
7
100
AcDbLine
 10
265.2909921255823
 20
129.0362977313524
 30
0.000000000000000
 11
291.9460140812098
 21
129.0362977313523
 31
0.000000000000000
  0
ARC
  5
52
100
AcDbEntity
  8
A1
  6
CONTINUOUS
 62
7
100
AcDbCircle
 10
181.3452314625533
 20
-1262.000864416540
 30
0.000000000000000
 40
1455.037118855479
100
AcDbArc
 50
89.99996921425978
 51
92.63075804659658
  0
LINE
  5
53
100
AcDbEntity
  8
A4
  6
CENTER
 62
1
100
AcDbLine
 10
181.3460140782018
 20
196.0362544387286
 30
0.000000000000000
 11
181.3460140780072
 21
126.0362977313527
 31
0.000000000000000
  0
LINE
  5
54
100
AcDbEntity
  8
A1
  6
CONTINUOUS
 62
7
100
AcDbLine
 10
114.8600826031196
 20
170.0362158241677
 30
0.000000000000000
 11
247.8291898796764
 21
170.0362158241690
 31
0.000000000000000
  0
LINE
  5
55
100
AcDbEntity
  8
A4
  6
CENTER
 62
1
100
AcDbLine
 10
276.3460132719777
 20
127.5362977313524
 30
0.000000000000000
 11
276.3460132719777
 21
159.3587365060760
 31
0.000000000000000
  0
LINE
  5
56
100
AcDbEntity
  8
A1
  6
CONTINUOUS
 62
7
100
AcDbLine
 10
92.65448779950792
 20
233.5363140355389
 30
0.000000000000000
 11
92.66226113009137
 21
233.5363228773166
 31
0.000000000000000
  0
LINE
  5
57
100
AcDbEntity
  8
A1
  6
CONTINUOUS
 62
7
100
AcDbLine
 10
270.0375476811229
 20
253.5361939689566
 30
0.000000000000000
 11
270.0297816799730
 21
253.5361851368786
 31
0.000000000000000
  0
LINE
  5
58
100
AcDbEntity
  8
A4
  6
CENTER
 62
1
100
AcDbLine
 10
181.3460140778454
 20
255.0362545192188
 30
0.000000000000000
 11
181.3460140778454
 21
232.0362545192188
 31
0.000000000000000
  0
LINE
  5
59
100
AcDbEntity
  8
A4
  6
CENTER
 62
1
100
AcDbLine
 10
276.3460140780154
 20
234.2362544383363
 30
0.000000000000000
 11
276.3460140780154
 21
252.8362544383363
 31
0.000000000000000
  0
LINE
  5
5A
100
AcDbEntity
  8
A4
  6
CENTER
 62
1
100
AcDbLine
 10
69.09601407784157
 20
243.5362544391920
 30
0.000000000000000
 11
293.5960140778361
 21
243.5362544382650
 31
0.000000000000000
  0
LINE
  5
5B
100
AcDbEntity
  8
A4
  6
CENTER
 62
1
100
AcDbLine
 10
86.34601407767110
 20
234.2362544383363
 30
0.000000000000000
 11
86.34601407767110
 21
252.8362544383363
 31
0.000000000000000
  0
LINE
  5
5C
100
AcDbEntity
  8
A1
  6
CONTINUOUS
 62
7
100
AcDbLine
 10
181.3461703728401
 20
68.53629773167791
 30
0.000000000000000
 11
181.3461703728405
 21
68.62618091267791
 31
0.000000000000000
  0
LINE
  5
5D
100
AcDbEntity
  8
A4
  6
CENTER
 62
1
100
AcDbLine
 10
181.3446362414525
 20
90.13629773167801
 30
0.000000000000000
 11
181.3446362414525
 21
66.93629773167802
 31
0.000000000000000
  0
LINE
  5
5E
100
AcDbEntity
  8
A1
  6
CONTINUOUS
 62
7
100
AcDbLine
 10
265.1019579251220
 20
129.1744758455031
 30
0.000000000000000
 11
253.0600007192997
 21
166.2358092932313
 31
0.000000000000000
  0
CIRCLE
  5
5F
100
AcDbEntity
  8
A1
  6
CONTINUOUS
 62
7
100
AcDbCircle
 10
276.3460140780154
 20
243.5362544383365
 30
0.000000000000000
 40
3.250000000000000
  0
LINE
  5
60
100
AcDbEntity
  8
A1
  6
CONTINUOUS
 62
7
100
AcDbLine
 10
273.0960132719777
 20
132.0362977313521
 30
0.000000000000000
 11
273.0960132719777
 21
136.5362977313521
 31
0.000000000000000
  0
LINE
  5
61
100
AcDbEntity
  8
A1
  6
CONTINUOUS
 62
7
100
AcDbLine
 10
279.5960132719777
 20
132.0362977313521
 30
0.000000000000000
 11
279.5960132719777
 21
136.5362977313521
 31
0.000000000000000
  0
CIRCLE
  5
62
100
AcDbEntity
  8
A1
  6
CONTINUOUS
 62
7
100
AcDbCircle
 10
276.3461703730156
 20
78.53629773167799
 30
0.000000000000000
 40
3.250000000000000
  0
CIRCLE
  5
63
100
AcDbEntity
  8
A1
  6
CONTINUOUS
 62
7
100
AcDbCircle
 10
86.34617037271539
 20
78.53629773167799
 30
0.000000000000000
 40
3.250000000000000
  0
CIRCLE
  5
64
100
AcDbEntity
  8
A1
  6
CONTINUOUS
 62
7
100
AcDbCircle
 10
86.34601407767110
 20
243.5362544391207
 30
0.000000000000000
 40
3.300000000000000
  0
ARC
  5
65
100
AcDbEntity
  8
A1
  6
CONTINUOUS
 62
7
100
AcDbCircle
 10
281.1460140810444
 20
243.5362544383731
 30
0.000000000000000
 40
11.00000000000000
100
AcDbArc
 50
298.9550243699430
 51
421.0449756261904
  0
ARC
  5
66
100
AcDbEntity
  8
A1
  6
CONTINUOUS
 62
7
100
AcDbCircle
 10
81.54601407464639
 20
243.5362544383731
 30
0.000000000000000
 40
11.00000000000000
100
AcDbArc
 50
118.9550243489158
 51
241.0449756051959
  0
LINE
  5
67
100
AcDbEntity
  8
A1
  6
CONTINUOUS
 62
7
100
AcDbLine
 10
268.4460132767525
 20
177.3425495986533
 30
0.000000000000000
 11
268.4460132767438
 21
136.8362977313523
 31
0.000000000000000
  0
ARC
  5
68
100
AcDbEntity
  8
A1
  6
CONTINUOUS
 62
7
100
AcDbCircle
 10
302.9418933352554
 20
169.6859902195332
 30
0.000000000000000
 40
30.00000000000000
100
AcDbArc
 50
199.2955540464310
 51
217.2124342832084
  0
ARC
  5
69
100
AcDbEntity
  8
A1
  6
CONTINUOUS
 62
7
100
AcDbCircle
 10
289.4460137175093
 20
137.0362977313524
 30
0.000000000000000
 40
0.5000000000000000
100
AcDbArc
 50
17.37189086031926
 51
180.0000000000000
  0
LINE
  5
6A
100
AcDbEntity
  8
A1
  6
CONTINUOUS
 62
7
100
AcDbLine
 10
288.9460137175093
 20
137.0362977313524
 30
0.000000000000000
 11
288.9460137175093
 21
136.8362977313522
 31
0.000000000000000
  0
ARC
  5
6B
100
AcDbEntity
  8
A1
  6
CONTINUOUS
 62
7
100
AcDbCircle
 10
247.2110561205046
 20
171.5239632759823
 30
0.000000000000000
 40
20.00000000000000
100
AcDbArc
 50
43.16644521657427
 51
87.36935698649218
  0
ARC
  5
6C
100
AcDbEntity
  8
A1
  6
CONTINUOUS
 62
7
100
AcDbCircle
 10
267.9460132767527
 20
177.3425495986533
 30
0.000000000000000
 40
0.5000000000000000
100
AcDbArc
 50
0.000000000000000
 51
38.60487084579882
  0
LINE
  5
6D
100
AcDbEntity
  8
A1
  6
CONTINUOUS
 62
7
100
AcDbLine
 10
279.0563232319295
 20
151.5344189145717
 30
0.000000000000000
 11
289.8441065525649
 21
137.3388239197685
 31
0.000000000000000
  0
ARC
  5
6E
100
AcDbEntity
  8
A1
  6
CONTINUOUS
 62
7
100
AcDbCircle
 10
170.2625842570578
 20
99.34929543552556
 30
0.000000000000000
 40
125.5000000000000
100
AcDbArc
 50
13.79941616251804
 51
17.54747962854023
  0
ARC
  5
6F
100
AcDbEntity
  8
A1
  6
CONTINUOUS
 62
7
100
AcDbCircle
 10
170.2625842570578
 20
99.34929543552556
 30
0.000000000000000
 40
125.5000000000000
100
AcDbArc
 50
38.60487084579699
 51
43.16644521657427
  0
LINE
  5
70
100
AcDbEntity
  8
A1
  6
CONTINUOUS
 62
7
100
AcDbLine
 10
268.4179265745082
 20
177.5077701766740
 30
0.000000000000000
 11
274.6270954699203
 21
159.7727555382994
 31
0.000000000000000
  0
ARC
  5
71
100
AcDbEntity
  8
A1
  6
CONTINUOUS
 62
7
100
AcDbCircle
 10
247.8291898796766
 20
164.5362158241691
 30
0.000000000000000
 40
5.500000000000000
100
AcDbArc
 50
17.99999999999978
 51
90.00000000000000
  0
LINE
  5
72
100
AcDbEntity
  8
A1
  6
CONTINUOUS
 62
7
100
AcDbLine
 10
97.39710926218970
 20
129.0362977318194
 30
0.000000000000000
 11
70.74325840158542
 21
129.0362977319675
 31
0.000000000000000
  0
LINE
  5
73
100
AcDbEntity
  8
A4
  6
CENTER
 62
1
100
AcDbLine
 10
86.34601488404404
 20
127.5362977318806
 30
0.000000000000000
 11
86.34601488422105
 21
159.3587365066043
 31
0.000000000000000
  0
ARC
  5
74
100
AcDbEntity
  8
A1
  6
CONTINUOUS
 62
7
100
AcDbCircle
 10
70.74325840158644
 20
129.2362977313522
 30
0.000000000000000
 40
0.2000000000000000
100
AcDbArc
 50
166.2005838374865
 51
270.0000000000000
  0
ARC
  5
75
100
AcDbEntity
  8
A1
  6
CONTINUOUS
 62
7
100
AcDbCircle
 10
192.4266882257386
 20
99.34929543552556
 30
0.000000000000000
 40
125.5000000000000
100
AcDbArc
 50
162.4525203714598
 51
166.2005838374820
  0
ARC
  5
76
100
AcDbEntity
  8
A1
  6
CONTINUOUS
 62
7
100
AcDbCircle
 10
97.39710926219095
 20
129.2362977313524
 30
0.000000000000000
 40
0.2000000000000000
100
AcDbArc
 50
270.0000000000000
 51
341.9944312335176
  0
LINE
  5
77
100
AcDbEntity
  8
A1
  6
CONTINUOUS
 62
7
100
AcDbLine
 10
97.58731455767460
 20
129.1744758455031
 30
0.000000000000000
 11
109.6292717634968
 21
166.2358092932313
 31
0.000000000000000
  0
ARC
  5
78
100
AcDbEntity
  8
A1
  6
CONTINUOUS
 62
7
100
AcDbCircle
 10
73.24325876528701
 20
137.0362977313524
 30
0.000000000000000
 40
0.5000000000000000
100
AcDbArc
 50
142.7673890337116
 51
162.6281091396807
  0
LINE
  5
79
100
AcDbEntity
  8
A1
  6
CONTINUOUS
 62
7
100
AcDbLine
 10
83.63294925086700
 20
151.5344189145715
 30
0.000000000000000
 11
72.84516593023172
 21
137.3388239197683
 31
0.000000000000000
  0
ARC
  5
7A
100
AcDbEntity
  8
A1
  6
CONTINUOUS
 62
7
100
AcDbCircle
 10
59.74737914754110
 20
169.6859902195332
 30
0.000000000000000
 40
30.00000000000000
100
AcDbArc
 50
322.7875657167916
 51
340.7044459535690
  0
LINE
  5
7B
100
AcDbEntity
  8
A1
  6
CONTINUOUS
 62
7
100
AcDbLine
 10
94.27134590828831
 20
177.5077701766741
 30
0.000000000000000
 11
88.06217701287625
 21
159.7727555382997
 31
0.000000000000000
  0
ARC
  5
7C
100
AcDbEntity
  8
A1
  6
CONTINUOUS
 62
7
100
AcDbCircle
 10
94.74325920604383
 20
177.3425495986533
 30
0.000000000000000
 40
0.5000000000000000
100
AcDbArc
 50
141.3951291542012
 51
160.7044459535706
  0
ARC
  5
7D
100
AcDbEntity
  8
A1
  6
CONTINUOUS
 62
7
100
AcDbCircle
 10
115.4780923275043
 20
171.5238310370113
 30
0.000000000000000
 40
20.00000000000000
100
AcDbArc
 50
92.63075804659653
 51
136.8336532483936
  0
ARC
  5
7E
100
AcDbEntity
  8
A1
  6
CONTINUOUS
 62
7
100
AcDbCircle
 10
114.8600826031197
 20
164.5362158241678
 30
0.000000000000000
 40
5.500000000000000
100
AcDbArc
 50
90.00000000000000
 51
162.0000000000003
  0
ARC
  5
7F
100
AcDbEntity
  8
A1
  6
CONTINUOUS
 62
7
100
AcDbCircle
 10
192.4266882257386
 20
99.34929543552556
 30
0.000000000000000
 40
125.5000000000000
100
AcDbArc
 50
136.8336532483937
 51
141.3951291542030
  0
ARC
  5
80
100
AcDbEntity
  8
A1
  6
CONTINUOUS
 62
7
100
AcDbCircle
 10
288.6460137175096
 20
136.8362977313522
 30
0.000000000000000
 40
0.3000000000000000
100
AcDbArc
 50
270.0000000000000
 51
360.0000000000000
  0
ARC
  5
81
100
AcDbEntity
  8
A1
  6
CONTINUOUS
 62
7
100
AcDbCircle
 10
268.7460132767440
 20
136.8362977313522
 30
0.000000000000000
 40
0.3000000000000000
100
AcDbArc
 50
180.0000000000000
 51
270.0000000000000
  0
LINE
  5
82
100
AcDbEntity
  8
A1
  6
CONTINUOUS
 62
7
100
AcDbLine
 10
79.60952240011241
 20
233.0362544391487
 30
0.000000000000000
 11
283.0825057540023
 21
233.0362544383085
 31
0.000000000000000
  0
LINE
  5
83
100
AcDbEntity
  8
A1
  6
CONTINUOUS
 62
7
100
AcDbLine
 10
79.60952240297330
 20
254.0362544391487
 30
0.000000000000000
 11
283.0825057542969
 21
254.0362544383085
 31
0.000000000000000
  0
ARC
  5
84
100
AcDbEntity
  8
A1
  6
CONTINUOUS
 62
7
100
AcDbCircle
 10
283.0825057542680
 20
247.0362544383086
 30
0.000000000000000
 40
7.000000000000000
100
AcDbArc
 50
61.04497562619046
 51
90.00000000000000
  0
ARC
  5
85
100
AcDbEntity
  8
A1
  6
CONTINUOUS
 62
7
100
AcDbCircle
 10
283.0825057540311
 20
240.0362544383086
 30
0.000000000000000
 40
7.000000000000000
100
AcDbArc
 50
270.0000000000000
 51
298.9550243699431
  0
ARC
  5
86
100
AcDbEntity
  8
A1
  6
CONTINUOUS
 62
7
100
AcDbCircle
 10
79.60952240294415
 20
247.0362544391487
 30
0.000000000000000
 40
7.000000000000000
100
AcDbArc
 50
90.00000000000000
 51
118.9550243489158
  0
ARC
  5
87
100
AcDbEntity
  8
A1
  6
CONTINUOUS
 62
7
100
AcDbCircle
 10
79.60952240014109
 20
240.0362544391487
 30
0.000000000000000
 40
7.000000000000000
100
AcDbArc
 50
241.0449756051959
 51
270.0000000000000
  0
ARC
  5
88
100
AcDbEntity
  8
A1
  6
CONTINUOUS
 62
7
100
AcDbCircle
 10
281.1460140812642
 20
78.53629773129998
 30
0.000000000000000
 40
11.00000000000000
100
AcDbArc
 50
298.9550243699430
 51
421.0449756261904
  0
ARC
  5
89
100
AcDbEntity
  8
A1
  6
CONTINUOUS
 62
7
100
AcDbCircle
 10
283.0825057544878
 20
82.03629773123529
 30
0.000000000000000
 40
7.000000000000000
100
AcDbArc
 50
61.04497562619046
 51
90.00000000000000
  0
ARC
  5
8A
100
AcDbEntity
  8
A1
  6
CONTINUOUS
 62
7
100
AcDbCircle
 10
283.0825057542509
 20
75.03629773123529
 30
0.000000000000000
 40
7.000000000000000
100
AcDbArc
 50
270.0000000000000
 51
298.9550243699431
  0
LINE
  5
8B
100
AcDbEntity
  8
A1
  6
CONTINUOUS
 62
7
100
AcDbLine
 10
79.60952240033203
 20
68.03629773207540
 30
0.000000000000000
 11
283.0825057542219
 21
68.03629773123525
 31
0.000000000000000
  0
LINE
  5
8C
100
AcDbEntity
  8
A1
  6
CONTINUOUS
 62
7
100
AcDbLine
 10
79.60952240319315
 20
89.03629773207534
 30
0.000000000000000
 11
283.0825057545164
 21
89.03629773123519
 31
0.000000000000000
  0
ARC
  5
8D
100
AcDbEntity
  8
A1
  6
CONTINUOUS
 62
7
100
AcDbCircle
 10
79.60952240036079
 20
75.03629773207544
 30
0.000000000000000
 40
7.000000000000000
100
AcDbArc
 50
241.0449756051959
 51
270.0000000000000
  0
ARC
  5
8E
100
AcDbEntity
  8
A1
  6
CONTINUOUS
 62
7
100
AcDbCircle
 10
81.54601407486609
 20
78.53629773129998
 30
0.000000000000000
 40
11.00000000000000
100
AcDbArc
 50
118.9550243489158
 51
241.0449756051959
  0
ARC
  5
8F
100
AcDbEntity
  8
A1
  6
CONTINUOUS
 62
7
100
AcDbCircle
 10
79.60952240316385
 20
82.03629773207544
 30
0.000000000000000
 40
7.000000000000000
100
AcDbArc
 50
90.00000000000000
 51
118.9550243489158
  0
ARC
  5
90
100
AcDbEntity
  8
A1
  6
CONTINUOUS
 62
7
100
AcDbCircle
 10
275.6460140825982
 20
78.53629773126593
 30
0.000000000000000
 40
10.50000000000000
100
AcDbArc
 50
90.00000000000000
 51
270.0000000000000
  0
CIRCLE
  5
91
100
AcDbEntity
  8
A1
  6
CONTINUOUS
 62
7
100
AcDbCircle
 10
276.3461703730156
 20
78.53629773167799
 30
0.000000000000000
 40
7.200000000000000
  0
ARC
  5
92
100
AcDbEntity
  8
A1
  6
CONTINUOUS
 62
7
100
AcDbCircle
 10
87.04325840030572
 20
78.53629773126593
 30
0.000000000000000
 40
10.50000000000000
100
AcDbArc
 50
270.0000000000000
 51
450.0000000000000
  0
CIRCLE
  5
93
100
AcDbEntity
  8
A1
  6
CONTINUOUS
 62
7
100
AcDbCircle
 10
86.34310210988849
 20
78.53629773167799
 30
0.000000000000000
 40
7.200000000000000
  0
LINE
  5
94
100
AcDbEntity
  8
A4
  6
CENTER
 62
1
100
AcDbLine
 10
276.3461703730156
 20
69.83629773167800
 30
0.000000000000000
 11
276.3461703730156
 21
87.23629773167798
 31
0.000000000000000
  0
LINE
  5
95
100
AcDbEntity
  8
A4
  6
CENTER
 62
1
100
AcDbLine
 10
69.09601407806133
 20
78.53629773167799
 30
0.000000000000000
 11
293.5960140780562
 21
78.53629773167799
 31
0.000000000000000
  0
LINE
  5
96
100
AcDbEntity
  8
A4
  6
CENTER
 62
1
100
AcDbLine
 10
86.34617037271539
 20
70.03629773167799
 30
0.000000000000000
 11
86.34617037271539
 21
87.03629773167788
 31
0.000000000000000
  0
ELLIPSE
  5
97
100
AcDbEntity
  8
A1
  6
CONTINUOUS
 62
7
100
AcDbEllipse
 10
86.34601407767428
 20
243.5362544383363
 30
0.000000000000000
 11
12.34999999720276
 21
0.000000000000000
 31
0.000000000000000
210
0.000000000000000
220
0.000000000000000
230
1.000000000000000
 40
0.6599190284895490
 41
1.570796326794897
 42
4.712388980384690
  0
ARC
  5
98
100
AcDbEntity
  8
A1
  6
CONTINUOUS
 62
7
100
AcDbCircle
 10
86.34601407767428
 20
243.5362544383368
 30
0.000000000000000
 40
8.150000000000000
100
AcDbArc
 50
270.0000000000000
 51
450.0000000000000
  0
ARC
  5
99
100
AcDbEntity
  8
A1
  6
CONTINUOUS
 62
7
100
AcDbCircle
 10
276.3460140780154
 20
243.5362544383368
 30
0.000000000000000
 40
8.150000000000000
100
AcDbArc
 50
90.00000000000000
 51
270.0000000000000
  0
ELLIPSE
  5
9A
100
AcDbEntity
  8
A1
  6
CONTINUOUS
 62
7
100
AcDbEllipse
 10
276.3460140780154
 20
243.5362544383363
 30
0.000000000000000
 11
12.34999999720276
 21
0.000000000000000
 31
0.000000000000000
210
0.000000000000000
220
0.000000000000000
230
1.000000000000000
 40
0.6599190284895490
 41
4.712388980384690
 42
1.570796326794897
  0
LINE
  5
9B
100
AcDbEntity
  8
A1
  6
CONTINUOUS
 62
7
100
AcDbLine
 10
332.3460140812645
 20
129.0362591165909
 30
0.000000000000000
 11
352.9460140812644
 21
129.0362591165909
 31
0.000000000000000
  0
ARC
  5
9C
100
AcDbEntity
  8
A1
  6
CONTINUOUS
 62
7
100
AcDbCircle
 10
342.6460140812596
 20
183.0362591158004
 30
0.000000000000000
 40
10.00000000000000
100
AcDbArc
 50
74.11894980650267
 51
105.8810501934677
  0
ARC
  5
9D
100
AcDbEntity
  8
A1
  6
CONTINUOUS
 62
7
100
AcDbCircle
 10
342.9196552020042
 20
183.9980909810647
 30
0.000000000000000
 40
9.000000000000000
100
AcDbArc
 50
25.42780479888966
 51
74.11894980650267
  0
ARC
  5
9E
100
AcDbEntity
  8
A1
  6
CONTINUOUS
 62
7
100
AcDbCircle
 10
342.3723729605244
 20
183.9980909810647
 30
0.000000000000000
 40
9.000000000000000
100
AcDbArc
 50
105.8810501934973
 51
156.7188930714605
  0
LINE
  5
9F
100
AcDbEntity
  8
A4
  6
CENTER
 62
1
100
AcDbLine
 10
354.2460140812664
 20
180.5362591158343
 30
0.000000000000000
 11
331.0460140812638
 21
180.5362591158343
 31
0.000000000000000
  0
LINE
  5
A0
100
AcDbEntity
  8
A4
  6
CENTER
 62
1
100
AcDbLine
 10
342.6460140812642
 20
127.5362591165909
 30
0.000000000000000
 11
342.6460140812642
 21
194.5362591158282
 31
0.000000000000000
  0
LINE
  5
A1
100
AcDbEntity
  8
A1
  6
CONTINUOUS
 62
7
100
AcDbLine
 10
332.1460140812642
 20
129.2362591165910
 30
0.000000000000000
 11
332.1460140812642
 21
180.5362591158343
 31
0.000000000000000
  0
LINE
  5
A2
100
AcDbEntity
  8
A1
  6
CONTINUOUS
 62
7
100
AcDbLine
 10
353.1460140812642
 20
129.2362591165910
 30
0.000000000000000
 11
353.1460140812642
 21
180.5362591158343
 31
0.000000000000000
  0
ARC
  5
A3
100
AcDbEntity
  8
A1
  6
CONTINUOUS
 62
7
100
AcDbCircle
 10
352.9460140812644
 20
129.2362591165910
 30
0.000000000000000
 40
0.2000000000000000
100
AcDbArc
 50
270.0000000000000
 51
360.0000000000000
  0
ARC
  5
A4
100
AcDbEntity
  8
A1
  6
CONTINUOUS
 62
7
100
AcDbCircle
 10
332.3460140812645
 20
129.2362591165910
 30
0.000000000000000
 40
0.2000000000000000
100
AcDbArc
 50
180.0000000000000
 51
270.0000000000000
  0
ARC
  5
A5
100
AcDbEntity
  8
A1
  6
CONTINUOUS
 62
7
100
AcDbCircle
 10
323.9539875595524
 20
174.9812483587257
 30
0.000000000000000
 40
30.00000000000000
100
AcDbArc
 50
16.55121827768229
 51
25.42780479888894
  0
ARC
  5
A6
100
AcDbEntity
  8
A1
  6
CONTINUOUS
 62
7
100
AcDbCircle
 10
380.0340201646090
 20
167.7931432836777
 30
0.000000000000000
 40
50.00000000000000
100
AcDbArc
 50
156.7188930714605
 51
161.1791277992933
  0
SPLINE
  5
A7
100
AcDbEntity
  8
A1
  6
CONTINUOUS
 62
7
100
AcDbSpline
210
0.000000000000000
220
0.000000000000000
230
1.000000000000000
 70
     8
 71
     3
 72
    32
 73
    28
 74
     0
 42
1.000000000000000e-07
 43
1.000000000000000e-07
 12
-0.0003361469473475154
 22
-0.9999999435012796
 32
0.000000000000000
 13
-0.2915739184827544
 23
-0.9565482999096275
 33
0.000000000000000
 40
0.000000000000000
 40
0.000000000000000
 40
0.000000000000000
 40
0.000000000000000
 40
0.5274299452664525
 40
1.042929178192964
 40
1.571655465233306
 40
2.141279664176644
 40
2.750968993377133
 40
3.400310700297476
 40
3.922554265581267
 40
4.401860231639239
 40
4.835116847175684
 40
5.223034928583148
 40
5.566100509854597
 40
5.861770162926066
 40
6.030844344334891
 40
6.176064213727109
 40
6.327994901634823
 40
6.516186970176189
 40
6.740723099058976
 40
7.089960924976715
 40
7.502307060079654
 40
7.961788099641515
 40
8.489768195003998
 40
9.055737352129968
 40
9.661006866511375
 40
10.30690626279358
 40
10.90954289032110
 40
10.90954289032110
 40
10.90954289032110
 40
10.90954289032110
 10
350.5501443428552
 20
154.8161685382333
 30
0.000000000000000
 10
350.5500852448665
 20
154.6403585664109
 30
0.000000000000000
 10
350.5482339695209
 20
154.2927141092138
 30
0.000000000000000
 10
350.5405064996760
 20
153.7688779652514
 30
0.000000000000000
 10
350.5267967770858
 20
153.2310911330039
 30
0.000000000000000
 10
350.5053163514508
 20
152.6621333388955
 30
0.000000000000000
 10
350.4736210147196
 20
152.0533823425867
 30
0.000000000000000
 10
350.4328617754950
 20
151.4609917393686
 30
0.000000000000000
 10
350.3860126009431
 20
150.9126724199914
 30
0.000000000000000
 10
350.3383511137554
 20
150.4367681896183
 30
0.000000000000000
 10
350.2892489338115
 20
150.0060519752592
 30
0.000000000000000
 10
350.2404399359136
 20
149.6210440273553
 30
0.000000000000000
 10
350.1935255290027
 20
149.2820506178759
 30
0.000000000000000
 10
350.1539392814341
 20
149.0157024880516
 30
0.000000000000000
 10
350.1225934847610
 20
148.8148112058402
 30
0.000000000000000
 10
350.0978831881762
 20
148.6613794904083
 30
0.000000000000000
 10
350.0714221647113
 20
148.5017766921937
 30
0.000000000000000
 10
350.0396566271502
 20
148.3162558245353
 30
0.000000000000000
 10
349.9951945031535
 20
148.0661871714492
 30
0.000000000000000
 10
349.9347998168855
 20
147.7430698284122
 30
0.000000000000000
 10
349.8553931564306
 20
147.3438583872730
 30
0.000000000000000
 10
349.7584077898946
 20
146.8874320885777
 30
0.000000000000000
 10
349.6434856915569
 20
146.3825151498993
 30
0.000000000000000
 10
349.5092242695346
 20
145.8322274539653
 30
0.000000000000000
 10
349.3561857564400
 20
145.2461385865683
 30
0.000000000000000
 10
349.1901443423121
 20
144.6508997924691
 30
0.000000000000000
 10
349.0719109990623
 20
144.2518488929072
 30
0.000000000000000
 10
349.0133399580925
 20
144.0596985457323
 30
0.000000000000000
  0
SPLINE
  5
A8
100
AcDbEntity
  8
A1
  6
CONTINUOUS
 62
7
100
AcDbSpline
210
0.000000000000000
220
0.000000000000000
230
1.000000000000000
 70
     8
 71
     3
 72
    28
 73
    24
 74
     0
 42
1.000000000000000e-07
 43
1.000000000000000e-07
 12
0.4815871951902864
 22
-0.4870907573891827
 32
0.000000000000000
 13
0.005606165633025739
 23
-0.9999842853304699
 33
0.000000000000000
 40
0.000000000000000
 40
0.000000000000000
 40
0.000000000000000
 40
0.000000000000000
 40
1.582914452603752
 40
2.108776435948018
 40
2.631159910887521
 40
3.148924887068998
 40
3.663805027256188
 40
4.176939846155451
 40
5.249641937994026
 40
6.322740930415883
 40
7.398916509670685
 40
8.843274652501185
 40
10.28671650892688
 40
11.72860198771537
 40
13.16999636706389
 40
15.08950009709788
 40
17.00018534997449
 40
18.89651522672195
 40
19.78316631983412
 40
20.66332863558941
 40
21.53512735344136
 40
22.39584265528743
 40
23.15935624400275
 40
23.15935624400275
 40
23.15935624400275
 40
23.15935624400275
 10
345.1839312907766
 20
176.1122796811902
 30
0.000000000000000
 10
345.4380350679285
 20
175.8552720146565
 30
0.000000000000000
 10
345.6715379424336
 20
175.5940344748917
 30
0.000000000000000
 10
345.9933015542147
 20
175.1797797797599
 30
0.000000000000000
 10
346.2891577786877
 20
174.7494137246810
 30
0.000000000000000
 10
346.5615343265231
 20
174.3082004693090
 30
0.000000000000000
 10
346.8138435601345
 20
173.8587885907905
 30
0.000000000000000
 10
347.1337455534763
 20
173.2357539032289
 30
0.000000000000000
 10
347.4996559695669
 20
172.4278493397901
 30
0.000000000000000
 10
347.8902118190438
 20
171.4269824346383
 30
0.000000000000000
 10
348.2773808227359
 20
170.2930693825897
 30
0.000000000000000
 10
348.6500258482001
 20
169.0249122107143
 30
0.000000000000000
 10
349.0031421675742
 20
167.6252495589708
 30
0.000000000000000
 10
349.3091562012862
 20
166.2156150895048
 30
0.000000000000000
 10
349.6053307629127
 20
164.6421497701001
 30
0.000000000000000
 10
349.8806584554047
 20
162.9063654221863
 30
0.000000000000000
 10
350.1265477483366
 20
161.0132191579694
 30
0.000000000000000
 10
350.2883264383656
 20
159.4568591913896
 30
0.000000000000000
 10
350.3910968292123
 20
158.2401180357453
 30
0.000000000000000
 10
350.4536834394294
 20
157.3627800229549
 30
0.000000000000000
 10
350.5029161266038
 20
156.4932509336370
 30
0.000000000000000
 10
350.5360153311351
 20
155.6618360281700
 30
0.000000000000000
 10
350.5444578898903
 20
155.1204388426397
 30
0.000000000000000
 10
350.5458846844374
 20
154.8659383125225
 30
0.000000000000000
  0
SPLINE
  5
A9
100
AcDbEntity
  8
A1
  6
CONTINUOUS
 62
7
100
AcDbSpline
210
0.000000000000000
220
0.000000000000000
230
1.000000000000000
 70
     8
 71
     3
 72
    43
 73
    39
 74
     0
 42
1.000000000000000e-07
 43
1.000000000000000e-07
 12
-0.3917214923403662
 22
-0.9200838398949145
 32
0.000000000000000
 13
-0.9999999412048055
 23
-0.0003429134396810696
 33
0.000000000000000
 40
0.000000000000000
 40
0.000000000000000
 40
0.000000000000000
 40
0.000000000000000
 40
0.2860910506998169
 40
0.6395523450251053
 40
1.021996177044995
 40
1.395418959565354
 40
1.746722275793118
 40
2.075311041995883
 40
2.387672473882951
 40
2.733116801762476
 40
3.110929553011364
 40
3.522038397723123
 40
3.769000030731397
 40
3.980489159522413
 40
4.153287376109173
 40
4.286889458398614
 40
4.371056894321759
 40
4.477956429030726
 40
4.621929957659723
 40
4.803380159636616
 40
5.022662916348565
 40
5.274640341835851
 40
5.523226960001113
 40
5.951912229259459
 40
6.345904005123121
 40
6.705561801461033
 40
7.071444336280670
 40
7.382280965166681
 40
7.633684445561728
 40
7.713828756679552
 40
7.828679362956025
 40
7.997686921067976
 40
8.221151625417530
 40
8.500068206706203
 40
8.833728063028824
 40
9.084348176061901
 40
9.358237876220857
 40
9.659537066419123
 40
9.659537066419123
 40
9.659537066419123
 40
9.659537066419123
 10
349.0201926148957
 20
144.0782085840321
 30
0.000000000000000
 10
348.9828366104539
 20
143.9904659998697
 30
0.000000000000000
 10
348.8981258579443
 20
143.7948283326170
 30
0.000000000000000
 10
348.7585132539566
 20
143.4840712653649
 30
0.000000000000000
 10
348.6016131065762
 20
143.1492136594552
 30
0.000000000000000
 10
348.4394137352460
 20
142.8176910554057
 30
0.000000000000000
 10
348.2798247332048
 20
142.5049332623980
 30
0.000000000000000
 10
348.1246686368702
 20
142.2128160493439
 30
0.000000000000000
 10
347.9658054015053
 20
141.9249279390178
 30
0.000000000000000
 10
347.7938411647935
 20
141.6255794268941
 30
0.000000000000000
 10
347.5989339177738
 20
141.3015290462911
 30
0.000000000000000
 10
347.4141483223277
 20
141.0097938555598
 30
0.000000000000000
 10
347.2540201276788
 20
140.7681734964715
 30
0.000000000000000
 10
347.1351021982277
 20
140.5945740639858
 30
0.000000000000000
 10
347.0356384351708
 20
140.4534730523341
 30
0.000000000000000
 10
346.9594536112802
 20
140.3478999804492
 30
0.000000000000000
 10
346.8954170295824
 20
140.2606550611165
 30
0.000000000000000
 10
346.8286876962441
 20
140.1711010091671
 30
0.000000000000000
 10
346.7414757211250
 20
140.0563753335898
 30
0.000000000000000
 10
346.6297233167725
 20
139.9132632821220
 30
0.000000000000000
 10
346.4929570549275
 20
139.7440381036040
 30
0.000000000000000
 10
346.3382630405727
 20
139.5605820211422
 30
0.000000000000000
 10
346.1330337194026
 20
139.3285448523929
 30
0.000000000000000
 10
345.8873662821120
 20
139.0692134879532
 30
0.000000000000000
 10
345.6033050935282
 20
138.7958080985136
 30
0.000000000000000
 10
345.3219345090538
 20
138.5504438249318
 30
0.000000000000000
 10
345.0498693188549
 20
138.3372532412152
 30
0.000000000000000
 10
344.7961969362482
 20
138.1599093711550
 30
0.000000000000000
 10
344.6146393844117
 20
138.0462168887804
 30
0.000000000000000
 10
344.4860131730568
 20
137.9713978922950
 30
0.000000000000000
 10
344.3799418214135
 20
137.9124606919615
 30
0.000000000000000
 10
344.2297181876550
 20
137.8347265935381
 30
0.000000000000000
 10
344.0265683143330
 20
137.7406035647366
 30
0.000000000000000
 10
343.7669565025835
 20
137.6387069404529
 30
0.000000000000000
 10
343.4912321232998
 20
137.5549978997683
 30
0.000000000000000
 10
343.2113903616541
 20
137.4945618787078
 30
0.000000000000000
 10
342.9383246760967
 20
137.4574634501034
 30
0.000000000000000
 10
342.7464679268878
 20
137.4486417159562
 30
0.000000000000000
 10
342.6460348693934
 20
137.4486072761090
 30
0.000000000000000
  0
SPLINE
  5
AA
100
AcDbEntity
  8
A1
  6
CONTINUOUS
 62
7
100
AcDbSpline
210
0.000000000000000
220
0.000000000000000
230
1.000000000000000
 70
     8
 71
     3
 72
    43
 73
    39
 74
     0
 42
1.000000000000000e-07
 43
1.000000000000000e-07
 12
0.3917214923430947
 22
-0.9200838398949145
 32
0.000000000000000
 13
0.9999999412029865
 23
-0.0003429134396810696
 33
0.000000000000000
 40
0.000000000000000
 40
0.000000000000000
 40
0.000000000000000
 40
0.000000000000000
 40
0.2860910506998169
 40
0.6395523450251053
 40
1.021996177044995
 40
1.395418959565354
 40
1.746722275793118
 40
2.075311041995883
 40
2.387672473882951
 40
2.733116801762476
 40
3.110929553011364
 40
3.522038397723123
 40
3.769000030731397
 40
3.980489159522413
 40
4.153287376109173
 40
4.286889458398614
 40
4.371056894321759
 40
4.477956429030726
 40
4.621929957659723
 40
4.803380159636616
 40
5.022662916348565
 40
5.274640341835851
 40
5.523226960001113
 40
5.951912229259459
 40
6.345904005123121
 40
6.705561801461033
 40
7.071444336280670
 40
7.382280965166681
 40
7.633684445561728
 40
7.713828756679552
 40
7.828679362956025
 40
7.997686921067976
 40
8.221151625417530
 40
8.500068206706203
 40
8.833728063028824
 40
9.084348176061901
 40
9.358237876220857
 40
9.659537066419123
 40
9.659537066419123
 40
9.659537066419123
 40
9.659537066419123
 10
336.2718355476322
 20
144.0782085840321
 30
0.000000000000000
 10
336.3091915520743
 20
143.9904659998697
 30
0.000000000000000
 10
336.3939023045839
 20
143.7948283326170
 30
0.000000000000000
 10
336.5335149085715
 20
143.4840712653649
 30
0.000000000000000
 10
336.6904150559519
 20
143.1492136594552
 30
0.000000000000000
 10
336.8526144272821
 20
142.8176910554057
 30
0.000000000000000
 10
337.0122034293236
 20
142.5049332623980
 30
0.000000000000000
 10
337.1673595256580
 20
142.2128160493439
 30
0.000000000000000
 10
337.3262227610228
 20
141.9249279390178
 30
0.000000000000000
 10
337.4981869977346
 20
141.6255794268941
 30
0.000000000000000
 10
337.6930942447543
 20
141.3015290462911
 30
0.000000000000000
 10
337.8778798402004
 20
141.0097938555598
 30
0.000000000000000
 10
338.0380080348496
 20
140.7681734964715
 30
0.000000000000000
 10
338.1569259643004
 20
140.5945740639858
 30
0.000000000000000
 10
338.2563897273574
 20
140.4534730523341
 30
0.000000000000000
 10
338.3325745512479
 20
140.3478999804492
 30
0.000000000000000
 10
338.3966111329460
 20
140.2606550611165
 30
0.000000000000000
 10
338.4633404662841
 20
140.1711010091671
 30
0.000000000000000
 10
338.5505524414032
 20
140.0563753335898
 30
0.000000000000000
 10
338.6623048457557
 20
139.9132632821220
 30
0.000000000000000
 10
338.7990711076006
 20
139.7440381036040
 30
0.000000000000000
 10
338.9537651219555
 20
139.5605820211422
 30
0.000000000000000
 10
339.1589944431255
 20
139.3285448523929
 30
0.000000000000000
 10
339.4046618804161
 20
139.0692134879532
 30
0.000000000000000
 10
339.6887230689999
 20
138.7958080985136
 30
0.000000000000000
 10
339.9700936534744
 20
138.5504438249318
 30
0.000000000000000
 10
340.2421588436732
 20
138.3372532412152
 30
0.000000000000000
 10
340.4958312262800
 20
138.1599093711550
 30
0.000000000000000
 10
340.6773887781164
 20
138.0462168887804
 30
0.000000000000000
 10
340.8060149894714
 20
137.9713978922950
 30
0.000000000000000
 10
340.9120863411144
 20
137.9124606919615
 30
0.000000000000000
 10
341.0623099748732
 20
137.8347265935381
 30
0.000000000000000
 10
341.2654598481952
 20
137.7406035647366
 30
0.000000000000000
 10
341.5250716599446
 20
137.6387069404529
 30
0.000000000000000
 10
341.8007960392283
 20
137.5549978997683
 30
0.000000000000000
 10
342.0806378008740
 20
137.4945618787078
 30
0.000000000000000
 10
342.3537034864314
 20
137.4574634501034
 30
0.000000000000000
 10
342.5455602356406
 20
137.4486417159562
 30
0.000000000000000
 10
342.6459932931348
 20
137.4486072761090
 30
0.000000000000000
  0
SPLINE
  5
AB
100
AcDbEntity
  8
A1
  6
CONTINUOUS
 62
7
100
AcDbSpline
210
0.000000000000000
220
0.000000000000000
230
1.000000000000000
 70
     8
 71
     3
 72
    28
 73
    24
 74
     0
 42
1.000000000000000e-07
 43
1.000000000000000e-07
 12
-0.4815871951898316
 22
-0.4870907573891827
 32
0.000000000000000
 13
-0.005606165633025739
 23
-0.9999842853304699
 33
0.000000000000000
 40
0.000000000000000
 40
0.000000000000000
 40
0.000000000000000
 40
0.000000000000000
 40
1.582914452603752
 40
2.108776435948018
 40
2.631159910887521
 40
3.148924887068998
 40
3.663805027256188
 40
4.176939846155451
 40
5.249641937994026
 40
6.322740930415883
 40
7.398916509670685
 40
8.843274652501185
 40
10.28671650892688
 40
11.72860198771537
 40
13.16999636706389
 40
15.08950009709788
 40
17.00018534997449
 40
18.89651522672195
 40
19.78316631983412
 40
20.66332863558941
 40
21.53512735344136
 40
22.39584265528743
 40
23.15935624400275
 40
23.15935624400275
 40
23.15935624400275
 40
23.15935624400275
 10
340.1080968717515
 20
176.1122796811902
 30
0.000000000000000
 10
339.8539930945999
 20
175.8552720146565
 30
0.000000000000000
 10
339.6204902200943
 20
175.5940344748917
 30
0.000000000000000
 10
339.2987266083132
 20
175.1797797797599
 30
0.000000000000000
 10
339.0028703838404
 20
174.7494137246810
 30
0.000000000000000
 10
338.7304938360048
 20
174.3082004693090
 30
0.000000000000000
 10
338.4781846023936
 20
173.8587885907905
 30
0.000000000000000
 10
338.1582826090519
 20
173.2357539032289
 30
0.000000000000000
 10
337.7923721929612
 20
172.4278493397901
 30
0.000000000000000
 10
337.4018163434844
 20
171.4269824346383
 30
0.000000000000000
 10
337.0146473397922
 20
170.2930693825897
 30
0.000000000000000
 10
336.6420023143280
 20
169.0249122107143
 30
0.000000000000000
 10
336.2888859949539
 20
167.6252495589708
 30
0.000000000000000
 10
335.9828719612419
 20
166.2156150895048
 30
0.000000000000000
 10
335.6866973996152
 20
164.6421497701001
 30
0.000000000000000
 10
335.4113697071234
 20
162.9063654221863
 30
0.000000000000000
 10
335.1654804141915
 20
161.0132191579694
 30
0.000000000000000
 10
335.0037017241625
 20
159.4568591913896
 30
0.000000000000000
 10
334.9009313333158
 20
158.2401180357453
 30
0.000000000000000
 10
334.8383447230985
 20
157.3627800229549
 30
0.000000000000000
 10
334.7891120359243
 20
156.4932509336370
 30
0.000000000000000
 10
334.7560128313930
 20
155.6618360281700
 30
0.000000000000000
 10
334.7475702726379
 20
155.1204388426397
 30
0.000000000000000
 10
334.7461434780907
 20
154.8659383125225
 30
0.000000000000000
  0
SPLINE
  5
AC
100
AcDbEntity
  8
A1
  6
CONTINUOUS
 62
7
100
AcDbSpline
210
0.000000000000000
220
0.000000000000000
230
1.000000000000000
 70
     8
 71
     3
 72
    32
 73
    28
 74
     0
 42
1.000000000000000e-07
 43
1.000000000000000e-07
 12
0.0003361469473475154
 22
-0.9999999435012796
 32
0.000000000000000
 13
0.2915739184816175
 23
-0.9565482999096275
 33
0.000000000000000
 40
0.000000000000000
 40
0.000000000000000
 40
0.000000000000000
 40
0.000000000000000
 40
0.5274299452664525
 40
1.042929178192964
 40
1.571655465233306
 40
2.141279664176644
 40
2.750968993377133
 40
3.400310700297476
 40
3.922554265581267
 40
4.401860231639239
 40
4.835116847175684
 40
5.223034928583148
 40
5.566100509854597
 40
5.861770162926066
 40
6.030844344334891
 40
6.176064213727109
 40
6.327994901634823
 40
6.516186970176189
 40
6.740723099058976
 40
7.089960924976715
 40
7.502307060079654
 40
7.961788099641515
 40
8.489768195003998
 40
9.055737352129968
 40
9.661006866511375
 40
10.30690626279358
 40
10.90954289032110
 40
10.90954289032110
 40
10.90954289032110
 40
10.90954289032110
 10
334.7418838196729
 20
154.8161685382333
 30
0.000000000000000
 10
334.7419429176616
 20
154.6403585664109
 30
0.000000000000000
 10
334.7437941930073
 20
154.2927141092138
 30
0.000000000000000
 10
334.7515216628522
 20
153.7688779652514
 30
0.000000000000000
 10
334.7652313854423
 20
153.2310911330039
 30
0.000000000000000
 10
334.7867118110776
 20
152.6621333388955
 30
0.000000000000000
 10
334.8184071478086
 20
152.0533823425867
 30
0.000000000000000
 10
334.8591663870332
 20
151.4609917393686
 30
0.000000000000000
 10
334.9060155615850
 20
150.9126724199914
 30
0.000000000000000
 10
334.9536770487725
 20
150.4367681896183
 30
0.000000000000000
 10
335.0027792287167
 20
150.0060519752592
 30
0.000000000000000
 10
335.0515882266145
 20
149.6210440273553
 30
0.000000000000000
 10
335.0985026335254
 20
149.2820506178759
 30
0.000000000000000
 10
335.1380888810941
 20
149.0157024880516
 30
0.000000000000000
 10
335.1694346777672
 20
148.8148112058402
 30
0.000000000000000
 10
335.1941449743520
 20
148.6613794904083
 30
0.000000000000000
 10
335.2206059978168
 20
148.5017766921937
 30
0.000000000000000
 10
335.2523715353777
 20
148.3162558245353
 30
0.000000000000000
 10
335.2968336593747
 20
148.0661871714492
 30
0.000000000000000
 10
335.3572283456426
 20
147.7430698284122
 30
0.000000000000000
 10
335.4366350060975
 20
147.3438583872730
 30
0.000000000000000
 10
335.5336203726338
 20
146.8874320885777
 30
0.000000000000000
 10
335.6485424709713
 20
146.3825151498993
 30
0.000000000000000
 10
335.7828038929936
 20
145.8322274539653
 30
0.000000000000000
 10
335.9358424060881
 20
145.2461385865683
 30
0.000000000000000
 10
336.1018838202160
 20
144.6508997924691
 30
0.000000000000000
 10
336.2201171634661
 20
144.2518488929072
 30
0.000000000000000
 10
336.2786882044356
 20
144.0596985457323
 30
0.000000000000000
  0
SPLINE
  5
AD
100
AcDbEntity
  8
A1
  6
CONTINUOUS
 62
7
100
AcDbSpline
210
0.000000000000000
220
0.000000000000000
230
1.000000000000000
 70
     8
 71
     3
 72
     9
 73
     5
 74
     0
 42
1.000000000000000e-07
 43
1.000000000000000e-07
 12
1.006203609662407
 22
-0.1330135757413018
 32
0.000000000000000
 13
0.7319368450975503
 23
-0.7485433266837731
 33
0.000000000000000
 40
0.000000000000000
 40
0.000000000000000
 40
0.000000000000000
 40
0.000000000000000
 40
0.8591162822637748
 40
2.951387122411646
 40
2.951387122411646
 40
2.951387122411646
 40
2.951387122411646
 10
342.6460140812642
 20
177.4727801361716
 30
0.000000000000000
 10
342.9341627160420
 20
177.4346887599445
 30
0.000000000000000
 10
343.9240615080694
 20
177.3038305750947
 30
0.000000000000000
 10
344.6737990869492
 20
176.6339848393867
 30
0.000000000000000
 10
345.1842691262250
 20
176.1119330477174
 30
0.000000000000000
  0
SPLINE
  5
AE
100
AcDbEntity
  8
A1
  6
CONTINUOUS
 62
7
100
AcDbSpline
210
0.000000000000000
220
0.000000000000000
230
1.000000000000000
 70
     8
 71
     3
 72
     9
 73
     5
 74
     0
 42
1.000000000000000e-07
 43
1.000000000000000e-07
 12
-1.006203609662180
 22
-0.1330135757413018
 32
0.000000000000000
 13
-0.7319368450975503
 23
-0.7485433266837731
 33
0.000000000000000
 40
0.000000000000000
 40
0.000000000000000
 40
0.000000000000000
 40
0.000000000000000
 40
0.8591162822637748
 40
2.951387122411646
 40
2.951387122411646
 40
2.951387122411646
 40
2.951387122411646
 10
342.6460140812637
 20
177.4727801361716
 30
0.000000000000000
 10
342.3578654464859
 20
177.4346887599445
 30
0.000000000000000
 10
341.3679666544588
 20
177.3038305750947
 30
0.000000000000000
 10
340.6182290755789
 20
176.6339848393867
 30
0.000000000000000
 10
340.1077590363032
 20
176.1119330477174
 30
0.000000000000000
  0
ARC
  5
AF
100
AcDbEntity
  8
A1
  6
CONTINUOUS
 62
7
100
AcDbCircle
 10
342.6460140812653
 20
180.5362591158343
 30
0.000000000000000
 40
10.50000000000102
100
AcDbArc
 50
0.000000000000000
 51
16.55121827768097
  0
ARC
  5
B0
100
AcDbEntity
  8
A1
  6
CONTINUOUS
 62
7
100
AcDbCircle
 10
342.6460140812653
 20
180.5362591158343
 30
0.000000000000000
 40
10.50000000000102
100
AcDbArc
 50
161.1791277992933
 51
180.0000000000000
  0
ARC
  5
B1
100
AcDbEntity
  8
A3
  6
DASHED
 62
2
100
AcDbCircle
 10
342.6460140812653
 20
180.5362591158343
 30
0.000000000000000
 40
10.50000000000102
100
AcDbArc
 50
180.0000000000000
 51
360.0000000000000
  0
INSERT
  5
D3
100
AcDbEntity
  8
A2
  6
CONTINUOUS
 62
4
100
AcDbBlockReference
  2
*X0
 10
0.000000000000000
 20
0.000000000000000
 30
0.000000000000000
 50
0.000000000000000
  0
INSERT
  5
DF
100
AcDbEntity
  8
A2
  6
CONTINUOUS
 62
4
100
AcDbBlockReference
  2
*X1
 10
0.000000000000000
 20
0.000000000000000
 30
0.000000000000000
 50
0.000000000000000
  0
ENDSEC
  0
SECTION
  2
OBJECTS
  0
DICTIONARY
  5
10E
100
AcDbDictionary
  3
ACAD_GROUP
350
10F
  3
ACAD_LAYOUT
350
110
  3
ACAD_MLINESTYLE
350
111
  0
DICTIONARY
  5
10F
102
{ACAD_REACTORS
330
10E
102
}
330
10E
100
AcDbDictionary
  0
DICTIONARY
  5
110
102
{ACAD_REACTORS
330
10E
102
}
330
10E
100
AcDbDictionary
  3
Model
350
112
  3
ﾚｲｱｳﾄ1
350
113
  3
ﾚｲｱｳﾄ2
350
114
  0
DICTIONARY
  5
111
102
{ACAD_REACTORS
330
10E
102
}
330
10E
100
AcDbDictionary
  3
STANDARD
350
115
  0
LAYOUT
  5
112
102
{ACAD_REACTORS
330
110
102
}
330
110
100
AcDbPlotSettings
 70
11952
  4
A3
 44
297.000000
 45
420.000000
 73
  1
 72
  1
100
AcDbLayout
  1
Model
 71
0
330
103
  0
LAYOUT
  5
113
102
{ACAD_REACTORS
330
110
102
}
330
110
100
AcDbPlotSettings
100
AcDbLayout
  1
ﾚｲｱｳﾄ1
 71
1
330
104
  0
LAYOUT
  5
114
102
{ACAD_REACTORS
330
110
102
}
330
110
100
AcDbPlotSettings
100
AcDbLayout
  1
ﾚｲｱｳﾄ2
 71
2
330
105
  0
MLINESTYLE
  5
115
102
{ACAD_REACTORS
330
111
102
}
330
111
100
AcDbMlineStyle
  2
STANDARD
 70
     0
  3

 62
   256
 51
90.00
 52
90.00
 71
     2
 49
0.50
 62
   256
  6
BYLAYER
 49
-0.50
 62
   256
  6
BYLAYER
  0
ENDSEC
  0
EOF
