  0
SECTION
  2
HEADER
  9
$ACADVER
  1
AC1027
  9
$DWGCODEPAGE
  3
ANSI_932
  9
$LTSCALE
 40
20.0
  9
$FILLMODE
 70
     1
  9
$CLAYER
  8
0
  9
$PDMODE
 70
     0
  9
$SPLFRAME
 70
     0
  9
$SPLINETYPE
 70
     6
  9
$SPLINESEGS
 70
     8
  9
$DIMASZ
 40
2.000000
  9
$DIMEXE
 40
1.500000
  9
$DIMEXO
 40
0.800000
  9
$DIMTAD
 70
     1
  9
$DIMTIH
 70
     0
  9
$DIMTOH
 70
     0
  9
$DIMTVP
 40
0.500000
  9
$DIMTXT
 40
3.100000
  9
$EXTMIN
 10
0.000000
 20
0.000000
 30
0.000000
  9
$EXTMAX
 10
297.000000
 20
420.000000
 30
0.000000
  9
$MEASUREMENT
 70
  1
  9
$LIMMIN
 10
0.000000
 20
0.000000
  9
$LIMMAX
 10
297.000000
 20
420.000000
  9
$HANDSEED
  5
110
  9
$LWDISPLAY
290
     0
  9
$DIMBLK
  1
_OPEN
  9
$DIMDEC
 70
     2
  9
$DIMADEC
 70
     2
  9
$DIMAUNIT
 70
     0
  9
$DIMZIN
 70
     8
  9
$DIMAZIN
 70
     2
  9
$DIMTOFL
 70
     1
  0
ENDSEC
  0
SECTION
  2
CLASSES
  0
ENDSEC
  0
SECTION
  2
TABLES
  0
TABLE
  2
VPORT
  5
DB
100
AcDbSymbolTable
 70
     1
  0
VPORT
  5
DC
100
AcDbSymbolTableRecord
100
AcDbViewportTableRecord
  2
*ACTIVE
 70
     0
 12
192.408648
 22
134.547018
 40
233.094034
 41
1.565108
  0
ENDTAB
  0
TABLE
  2
LTYPE
  5
DD
100
AcDbSymbolTable
 70
     3
  0
LTYPE
  5
DE
100
AcDbSymbolTableRecord
100
AcDbLinetypeTableRecord
  2
BYBLOCK
 70
     0
  3

 72
    65
 73
     0
 40
0.0
  0
LTYPE
  5
DF
100
AcDbSymbolTableRecord
100
AcDbLinetypeTableRecord
  2
BYLAYER
 70
     0
  3

 72
    65
 73
     0
 40
0.0
  0
LTYPE
  5
E0
100
AcDbSymbolTableRecord
100
AcDbLinetypeTableRecord
  2
CONTINUOUS
 70
     0
  3
Solid line (NEC CAE2D for Win R18.0 : 2025.12.23)
 72
    65
 73
     0
 40
0.0
  0
LTYPE
  5
E1
100
AcDbSymbolTableRecord
100
AcDbLinetypeTableRecord
  2
DASHED
 70
     0
  3
__ __ __ __ __ __ __ __ __ __ __ __ __ _
 72
    65
 73
     2
 40
0.75
 49
0.5
 74
     0
 49
-0.25
 74
     0
  0
LTYPE
  5
E2
100
AcDbSymbolTableRecord
100
AcDbLinetypeTableRecord
  2
CENTER
 70
     0
  3
____ _ ____ _ ____ _ ____ _ ____ _ ____
 72
    65
 73
     4
 40
2.0
 49
1.25
 74
     0
 49
-0.25
 74
     0
 49
0.25
 74
     0
 49
-0.25
 74
     0
  0
ENDTAB
  0
TABLE
  2
LAYER
  5
E3
100
AcDbSymbolTable
 70
    13
  0
LAYER
  5
E4
100
AcDbSymbolTableRecord
100
AcDbLayerTableRecord
  2
0
 70
     0
 62
     7
  6
CONTINUOUS
370
    -3
390

  0
LAYER
  5
E5
100
AcDbSymbolTableRecord
100
AcDbLayerTableRecord
  2
A0
 70
     0
 62
     7
  6
CONTINUOUS
370
    -3
390

  0
LAYER
  5
E6
100
AcDbSymbolTableRecord
100
AcDbLayerTableRecord
  2
A1
 70
     0
 62
    12
  6
CONTINUOUS
370
    -3
390

  0
LAYER
  5
E7
100
AcDbSymbolTableRecord
100
AcDbLayerTableRecord
  2
A2
 70
     0
 62
    13
  6
CONTINUOUS
370
    -3
390

  0
LAYER
  5
E8
100
AcDbSymbolTableRecord
100
AcDbLayerTableRecord
  2
A3
 70
     0
 62
    11
  6
CONTINUOUS
370
    -3
390

  0
LAYER
  5
E9
100
AcDbSymbolTableRecord
100
AcDbLayerTableRecord
  2
A4
 70
     0
 62
     9
  6
CONTINUOUS
370
    -3
390

  0
LAYER
  5
EA
100
AcDbSymbolTableRecord
100
AcDbLayerTableRecord
  2
A7
 70
     0
 62
    12
  6
CONTINUOUS
370
    -3
390

  0
LAYER
  5
EB
100
AcDbSymbolTableRecord
100
AcDbLayerTableRecord
  2
A10
 70
     0
 62
     6
  6
CONTINUOUS
370
    -3
390

  0
LAYER
  5
EC
100
AcDbSymbolTableRecord
100
AcDbLayerTableRecord
  2
A20
 70
     0
 62
     1
  6
CONTINUOUS
370
    -3
390

  0
LAYER
  5
ED
100
AcDbSymbolTableRecord
100
AcDbLayerTableRecord
  2
A30
 70
     0
 62
     1
  6
CONTINUOUS
370
    -3
390

  0
LAYER
  5
EE
100
AcDbSymbolTableRecord
100
AcDbLayerTableRecord
  2
A40
 70
     0
 62
     9
  6
CONTINUOUS
370
    -3
390

  0
LAYER
  5
EF
100
AcDbSymbolTableRecord
100
AcDbLayerTableRecord
  2
A50
 70
     0
 62
    12
  6
CONTINUOUS
370
    -3
390

  0
LAYER
  5
F0
100
AcDbSymbolTableRecord
100
AcDbLayerTableRecord
  2
A1023
 70
     0
 62
    16
  6
CONTINUOUS
370
    -3
390

  0
ENDTAB
  0
TABLE
  2
STYLE
  5
F1
100
AcDbSymbolTable
 70
     4
  0
STYLE
  5
F2
100
AcDbSymbolTableRecord
100
AcDbTextStyleTableRecord
  2
STANDARD
 70
    64
 40
0.0
 41
1.0
 50
0.0
 71
     0
 42
3.000000000000000
  3
TXT
  4

  0
STYLE
  5
F3
100
AcDbSymbolTableRecord
100
AcDbTextStyleTableRecord
  2
ANKTATE
 70
    68
 40
0.0
 41
1.0
 50
0.0
 71
     0
 42
3.000000000000000
  3
TXT
  4

  0
STYLE
  5
F4
100
AcDbSymbolTableRecord
100
AcDbTextStyleTableRecord
  2
KNJYOKO
 70
    64
 40
0.0
 41
1.0
 50
0.0
 71
     0
 42
3.000000000000000
  3
TXT
  4
BIGFONT
  0
STYLE
  5
F5
100
AcDbSymbolTableRecord
100
AcDbTextStyleTableRecord
  2
KNJTATE
 70
    68
 40
0.0
 41
1.0
 50
0.0
 71
     0
 42
3.000000000000000
  3
TXT
  4
BIGFONT
  0
ENDTAB
  0
TABLE
  2
VIEW
  5
F6
100
AcDbSymbolTable
 70
     0
  0
ENDTAB
  0
TABLE
  2
UCS
  5
F7
100
AcDbSymbolTable
 70
     0
  0
ENDTAB
  0
TABLE
  2
APPID
  5
F8
100
AcDbSymbolTable
 70
     1
  0
APPID
  5
F9
100
AcDbSymbolTableRecord
100
AcDbRegAppTableRecord
  2
ACAD
 70
     0
  0
ENDTAB
  0
TABLE
  2
DIMSTYLE
  5
FA
100
AcDbSymbolTable
 70
     2
100
AcDbDimStyleTable
  0
DIMSTYLE
105
FB
100
AcDbSymbolTableRecord
100
AcDbDimStyleTableRecord
  2
STANDARD
 70
     0
 41
2.000000
 44
1.500000
 42
0.800000
145
0.661290
140
3.100000
144
1.000000
146
0.645161
340
F2
  0
DIMSTYLE
105
FC
100
AcDbSymbolTableRecord
100
AcDbDimStyleTableRecord
  2
A001
 70
     0
 41
2.000000
 44
1.500000
 42
0.800000
145
0.661290
140
3.100000
144
1.000000
146
0.645161
 77
     1
 73
     0
 74
     0
271
     2
179
     2
275
     0
 78
     8
 79
     2
172
     1
340
F2
  0
ENDTAB
  0
TABLE
  2
BLOCK_RECORD
  5
FD
100
AcDbSymbolTable
 70
    13
  0
BLOCK_RECORD
  5
FE
100
AcDbSymbolTableRecord
100
AcDbBlockTableRecord
  2
*MODEL_SPACE
  0
BLOCK_RECORD
  5
FF
100
AcDbSymbolTableRecord
100
AcDbBlockTableRecord
  2
*PAPER_SPACE
  0
BLOCK_RECORD
  5
100
100
AcDbSymbolTableRecord
100
AcDbBlockTableRecord
  2
*PAPER_SPACE0
  0
BLOCK_RECORD
  5
1
100
AcDbSymbolTableRecord
100
AcDbBlockTableRecord
  2
_NONE
  0
BLOCK_RECORD
  5
4
100
AcDbSymbolTableRecord
100
AcDbBlockTableRecord
  2
_CLOSED
  0
BLOCK_RECORD
  5
B
100
AcDbSymbolTableRecord
100
AcDbBlockTableRecord
  2
_DOT
  0
BLOCK_RECORD
  5
13
100
AcDbSymbolTableRecord
100
AcDbBlockTableRecord
  2
_OPEN
  0
BLOCK_RECORD
  5
19
100
AcDbSymbolTableRecord
100
AcDbBlockTableRecord
  2
_ORIGIN
  0
BLOCK_RECORD
  5
1E
100
AcDbSymbolTableRecord
100
AcDbBlockTableRecord
  2
_OPEN30
  0
BLOCK_RECORD
  5
24
100
AcDbSymbolTableRecord
100
AcDbBlockTableRecord
  2
_BOXFILLED
  0
BLOCK_RECORD
  5
29
100
AcDbSymbolTableRecord
100
AcDbBlockTableRecord
  2
_BOXBLANK
  0
BLOCK_RECORD
  5
31
100
AcDbSymbolTableRecord
100
AcDbBlockTableRecord
  2
_OBLIQUE
  0
BLOCK_RECORD
  5
35
100
AcDbSymbolTableRecord
100
AcDbBlockTableRecord
  2
_OPEN90
  0
BLOCK_RECORD
  5
3B
100
AcDbSymbolTableRecord
100
AcDbBlockTableRecord
  2
_CLOSEDBLANK
  0
BLOCK_RECORD
  5
41
100
AcDbSymbolTableRecord
100
AcDbBlockTableRecord
  2
_DOTBLANK
  0
BLOCK_RECORD
  5
101
100
AcDbSymbolTableRecord
100
AcDbBlockTableRecord
  2
*X0
  0
ENDTAB
  0
ENDSEC
  0
SECTION
  2
BLOCKS
  0
BLOCK
  5
102
100
AcDbEntity
  8
0
100
AcDbBlockBegin
  2
*MODEL_SPACE
 70
     0
 10
0.0
 20
0.0
 30
0.0
  3
*MODEL_SPACE
  1

  0
ENDBLK
  5
103
100
AcDbEntity
  8
0
100
AcDbBlockEnd
  0
BLOCK
  5
104
100
AcDbEntity
  8
0
100
AcDbBlockBegin
  2
*PAPER_SPACE
 70
     0
 10
0.0
 20
0.0
 30
0.0
  3
*PAPER_SPACE
  1

  0
ENDBLK
  5
105
100
AcDbEntity
  8
0
100
AcDbBlockEnd
  0
BLOCK
  5
106
100
AcDbEntity
  8
0
100
AcDbBlockBegin
  2
*PAPER_SPACE0
 70
     0
 10
0.0
 20
0.0
 30
0.0
  3
*PAPER_SPACE0
  1

  0
ENDBLK
  5
107
100
AcDbEntity
  8
0
100
AcDbBlockEnd
  0
BLOCK
  5
2
330
1
100
AcDbEntity
  8
0
100
AcDbBlockBegin
  2
_NONE
 70
     0
 10
0.0
 20
0.0
 30
0.0
  3
_NONE
  1

  0
ENDBLK
  5
3
330
1
100
AcDbEntity
  8
0
100
AcDbBlockEnd
  0
BLOCK
  5
5
330
4
100
AcDbEntity
  8
0
100
AcDbBlockBegin
  2
_CLOSED
 70
     0
 10
0.0
 20
0.0
 30
0.0
  3
_CLOSED
  1

  0
LINE
  5
6
330
4
100
AcDbEntity
  8
0
  6
BYBLOCK
 62
     0
370
    -2
100
AcDbLine
 10
-1.0
 20
0.166667
 30
0.0
 11
0.0
 21
0.0
 31
0.0
  0
LINE
  5
7
330
4
100
AcDbEntity
  8
0
  6
BYBLOCK
 62
     0
370
    -2
100
AcDbLine
 10
0.0
 20
0.0
 30
0.0
 11
-1.0
 21
-0.166667
 31
0.0
  0
LINE
  5
8
330
4
100
AcDbEntity
  8
0
  6
BYBLOCK
 62
     0
370
    -2
100
AcDbLine
 10
-1.0
 20
0.166667
 30
0.0
 11
-1.0
 21
-0.166667
 31
0.0
  0
LINE
  5
9
330
4
100
AcDbEntity
  8
0
  6
BYBLOCK
 62
     0
370
    -2
100
AcDbLine
 10
0.0
 20
0.0
 30
0.0
 11
-1.0
 21
0.0
 31
0.0
  0
ENDBLK
  5
A
330
4
100
AcDbEntity
  8
0
100
AcDbBlockEnd
  0
BLOCK
  5
C
330
B
100
AcDbEntity
  8
0
100
AcDbBlockBegin
  2
_DOT
 70
     0
 10
0.0
 20
0.0
 30
0.0
  3
_DOT
  1

  0
POLYLINE
  5
D
330
B
100
AcDbEntity
  8
0
  6
BYBLOCK
 62
     0
370
    -2
100
AcDb2dPolyline
 66
     1
 10
0.0
 20
0.0
 30
0.0
 70
     1
 40
0.5
 41
0.5
  0
VERTEX
  5
E
330
B
100
AcDbEntity
  8
0
  6
BYBLOCK
 62
     0
370
    -2
100
AcDbVertex
100
AcDb2dVertex
 10
-0.25
 20
0.0
 30
0.0
 42
1.0
  0
VERTEX
  5
F
330
B
100
AcDbEntity
  8
0
  6
BYBLOCK
 62
     0
370
    -2
100
AcDbVertex
100
AcDb2dVertex
 10
0.25
 20
0.0
 30
0.0
 42
1.0
  0
SEQEND
  5
10
330
B
100
AcDbEntity
  8
0
  6
BYBLOCK
 62
     0
370
    -2
  0
LINE
  5
11
330
B
100
AcDbEntity
  8
0
  6
BYBLOCK
 62
     0
370
    -2
100
AcDbLine
 10
-0.5
 20
0.0
 30
0.0
 11
-1.0
 21
0.0
 31
0.0
  0
ENDBLK
  5
12
330
B
100
AcDbEntity
  8
0
100
AcDbBlockEnd
  0
BLOCK
  5
14
330
13
100
AcDbEntity
  8
0
100
AcDbBlockBegin
  2
_OPEN
 70
     0
 10
0.0
 20
0.0
 30
0.0
  3
_OPEN
  1

  0
LINE
  5
15
330
13
100
AcDbEntity
  8
0
  6
BYBLOCK
 62
     0
370
    -2
100
AcDbLine
 10
-1.0
 20
0.166667
 30
0.0
 11
0.0
 21
0.0
 31
0.0
  0
LINE
  5
16
330
13
100
AcDbEntity
  8
0
  6
BYBLOCK
 62
     0
370
    -2
100
AcDbLine
 10
0.0
 20
0.0
 30
0.0
 11
-1.0
 21
-0.166667
 31
0.0
  0
LINE
  5
17
330
13
100
AcDbEntity
  8
0
  6
BYBLOCK
 62
     0
370
    -2
100
AcDbLine
 10
0.0
 20
0.0
 30
0.0
 11
-1.0
 21
0.0
 31
0.0
  0
ENDBLK
  5
18
330
13
100
AcDbEntity
  8
0
100
AcDbBlockEnd
  0
BLOCK
  5
1A
330
19
100
AcDbEntity
  8
0
100
AcDbBlockBegin
  2
_ORIGIN
 70
     0
 10
0.0
 20
0.0
 30
0.0
  3
_ORIGIN
  1

  0
CIRCLE
  5
1B
330
19
100
AcDbEntity
  8
0
  6
BYBLOCK
 62
     0
370
    -2
100
AcDbCircle
 10
0.0
 20
0.0
 30
0.0
 40
0.5
  0
LINE
  5
1C
330
19
100
AcDbEntity
  8
0
  6
BYBLOCK
 62
     0
370
    -2
100
AcDbLine
 10
0.0
 20
0.0
 30
0.0
 11
-1.0
 21
0.0
 31
0.0
  0
ENDBLK
  5
1D
330
19
100
AcDbEntity
  8
0
100
AcDbBlockEnd
  0
BLOCK
  5
1F
330
1E
100
AcDbEntity
  8
0
100
AcDbBlockBegin
  2
_OPEN30
 70
     0
 10
0.0
 20
0.0
 30
0.0
  3
_OPEN30
  1

  0
LINE
  5
20
330
1E
100
AcDbEntity
  8
0
  6
BYBLOCK
 62
     0
370
    -2
100
AcDbLine
 10
-1.0
 20
0.267949
 30
0.0
 11
0.0
 21
0.0
 31
0.0
  0
LINE
  5
21
330
1E
100
AcDbEntity
  8
0
  6
BYBLOCK
 62
     0
370
    -2
100
AcDbLine
 10
0.0
 20
0.0
 30
0.0
 11
-1.0
 21
-0.267949
 31
0.0
  0
LINE
  5
22
330
1E
100
AcDbEntity
  8
0
  6
BYBLOCK
 62
     0
370
    -2
100
AcDbLine
 10
0.0
 20
0.0
 30
0.0
 11
-1.0
 21
0.0
 31
0.0
  0
ENDBLK
  5
23
330
1E
100
AcDbEntity
  8
0
100
AcDbBlockEnd
  0
BLOCK
  5
25
330
24
100
AcDbEntity
  8
0
100
AcDbBlockBegin
  2
_BOXFILLED
 70
     0
 10
0.0
 20
0.0
 30
0.0
  3
_BOXFILLED
  1

  0
SOLID
  5
26
330
24
100
AcDbEntity
  8
0
  6
BYBLOCK
 62
     0
370
    -2
100
AcDbTrace
 10
-0.5
 20
0.5
 30
0.0
 11
0.5
 21
0.5
 31
0.0
 12
-0.5
 22
-0.5
 32
0.0
 13
0.5
 23
-0.5
 33
0.0
  0
LINE
  5
27
330
24
100
AcDbEntity
  8
0
  6
BYBLOCK
 62
     0
370
    -2
100
AcDbLine
 10
-0.5
 20
0.0
 30
0.0
 11
-1.0
 21
0.0
 31
0.0
  0
ENDBLK
  5
28
330
24
100
AcDbEntity
  8
0
100
AcDbBlockEnd
  0
BLOCK
  5
2A
330
29
100
AcDbEntity
  8
0
100
AcDbBlockBegin
  2
_BOXBLANK
 70
     0
 10
0.0
 20
0.0
 30
0.0
  3
_BOXBLANK
  1

  0
LINE
  5
2B
330
29
100
AcDbEntity
  8
0
  6
BYBLOCK
 62
     0
370
    -2
100
AcDbLine
 10
-0.5
 20
-0.5
 30
0.0
 11
0.5
 21
-0.5
 31
0.0
  0
LINE
  5
2C
330
29
100
AcDbEntity
  8
0
  6
BYBLOCK
 62
     0
370
    -2
100
AcDbLine
 10
0.5
 20
-0.5
 30
0.0
 11
0.5
 21
0.5
 31
0.0
  0
LINE
  5
2D
330
29
100
AcDbEntity
  8
0
  6
BYBLOCK
 62
     0
370
    -2
100
AcDbLine
 10
0.5
 20
0.5
 30
0.0
 11
-0.5
 21
0.5
 31
0.0
  0
LINE
  5
2E
330
29
100
AcDbEntity
  8
0
  6
BYBLOCK
 62
     0
370
    -2
100
AcDbLine
 10
-0.5
 20
0.5
 30
0.0
 11
-0.5
 21
-0.5
 31
0.0
  0
LINE
  5
2F
330
29
100
AcDbEntity
  8
0
  6
BYBLOCK
 62
     0
370
    -2
100
AcDbLine
 10
-0.5
 20
0.0
 30
0.0
 11
-1.0
 21
0.0
 31
0.0
  0
ENDBLK
  5
30
330
29
100
AcDbEntity
  8
0
100
AcDbBlockEnd
  0
BLOCK
  5
32
330
31
100
AcDbEntity
  8
0
100
AcDbBlockBegin
  2
_OBLIQUE
 70
     0
 10
0.0
 20
0.0
 30
0.0
  3
_OBLIQUE
  1

  0
LINE
  5
33
330
31
100
AcDbEntity
  8
0
  6
BYBLOCK
 62
     0
370
    -2
100
AcDbLine
 10
-0.5
 20
-0.5
 30
0.0
 11
0.5
 21
0.5
 31
0.0
  0
ENDBLK
  5
34
330
31
100
AcDbEntity
  8
0
100
AcDbBlockEnd
  0
BLOCK
  5
36
330
35
100
AcDbEntity
  8
0
100
AcDbBlockBegin
  2
_OPEN90
 70
     0
 10
0.0
 20
0.0
 30
0.0
  3
_OPEN90
  1

  0
LINE
  5
37
330
35
100
AcDbEntity
  8
0
  6
BYBLOCK
 62
     0
370
    -2
100
AcDbLine
 10
-0.5
 20
0.5
 30
0.0
 11
0.0
 21
0.0
 31
0.0
  0
LINE
  5
38
330
35
100
AcDbEntity
  8
0
  6
BYBLOCK
 62
     0
370
    -2
100
AcDbLine
 10
0.0
 20
0.0
 30
0.0
 11
-0.5
 21
-0.5
 31
0.0
  0
LINE
  5
39
330
35
100
AcDbEntity
  8
0
  6
BYBLOCK
 62
     0
370
    -2
100
AcDbLine
 10
0.0
 20
0.0
 30
0.0
 11
-1.0
 21
0.0
 31
0.0
  0
ENDBLK
  5
3A
330
35
100
AcDbEntity
  8
0
100
AcDbBlockEnd
  0
BLOCK
  5
3C
330
3B
100
AcDbEntity
  8
0
100
AcDbBlockBegin
  2
_CLOSEDBLANK
 70
     0
 10
0.0
 20
0.0
 30
0.0
  3
_CLOSEDBLANK
  1

  0
LINE
  5
3D
330
3B
100
AcDbEntity
  8
0
  6
BYBLOCK
 62
     0
370
    -2
100
AcDbLine
 10
-1.0
 20
0.1666666666666666
 30
0.0
 11
0.0
 21
0.0
 31
0.0
  0
LINE
  5
3E
330
3B
100
AcDbEntity
  8
0
  6
BYBLOCK
 62
     0
370
    -2
100
AcDbLine
 10
0.0
 20
0.0
 30
0.0
 11
-1.0
 21
-0.1666666666666666
 31
0.0
  0
LINE
  5
3F
330
3B
100
AcDbEntity
  8
0
  6
BYBLOCK
 62
     0
370
    -2
100
AcDbLine
 10
-1.0
 20
0.1666666666666666
 30
0.0
 11
-1.0
 21
-0.1666666666666666
 31
0.0
  0
ENDBLK
  5
40
330
3B
100
AcDbEntity
  8
0
100
AcDbBlockEnd
  0
BLOCK
  5
42
330
41
100
AcDbEntity
  8
0
100
AcDbBlockBegin
  2
_DOTBLANK
 70
     0
 10
0.0
 20
0.0
 30
0.0
  3
_DOTBLANK
  1

  0
CIRCLE
  5
43
330
41
100
AcDbEntity
  8
0
  6
BYBLOCK
 62
     0
370
    -2
100
AcDbCircle
 10
0.0
 20
0.0
 30
0.0
 40
0.5
  0
LINE
  5
44
330
41
100
AcDbEntity
  8
0
  6
BYBLOCK
 62
     0
370
    -2
100
AcDbLine
 10
-0.5
 20
0.0
 30
0.0
 11
-1.0
 21
0.0
 31
0.0
  0
ENDBLK
  5
45
330
41
100
AcDbEntity
  8
0
100
AcDbBlockEnd
  0
BLOCK
  5
B2
100
AcDbEntity
  8
A2
  6
BYBLOCK
 62
4
100
AcDbBlockBegin
  2
*X0
 70
     1
 10
0.0
 20
0.0
 30
0.0
  0
LINE
  5
B3
100
AcDbEntity
  8
A2
  6
BYBLOCK
 62
0
370
    -2
100
AcDbLine
 10
292.5248145235900
 20
126.9940355055986
 30
0.000000000000000
 11
292.5674552107116
 21
127.0366761927202
 31
0.000000000000000
  0
LINE
  5
B4
100
AcDbEntity
  8
A2
  6
BYBLOCK
 62
0
370
    -2
100
AcDbLine
 10
287.4034941800313
 20
123.9940355056002
 30
0.000000000000000
 11
288.4173960794066
 21
125.0079374049759
 31
0.000000000000000
  0
LINE
  5
B5
100
AcDbEntity
  8
A2
  6
BYBLOCK
 62
0
370
    -2
100
AcDbLine
 10
290.4034941800298
 20
126.9940355055978
 30
0.000000000000000
 11
292.5674552107105
 21
129.1579965362789
 31
0.000000000000000
  0
LINE
  5
B6
100
AcDbEntity
  8
A2
  6
BYBLOCK
 62
0
370
    -2
100
AcDbLine
 10
285.6104604115874
 20
124.3223220807159
 30
0.000000000000000
 11
292.5674552107102
 21
131.2793168798386
 31
0.000000000000000
  0
LINE
  5
B7
100
AcDbEntity
  8
A2
  6
BYBLOCK
 62
0
370
    -2
100
AcDbLine
 10
285.0902335905919
 20
125.9234156032807
 30
0.000000000000000
 11
290.6608534929094
 21
131.4940355055987
 31
0.000000000000000
  0
LINE
  5
B8
100
AcDbEntity
  8
A2
  6
BYBLOCK
 62
0
370
    -2
100
AcDbLine
 10
284.5700067695993
 20
127.5245091258484
 30
0.000000000000000
 11
289.0174548528074
 21
131.9719572090561
 31
0.000000000000000
  0
LINE
  5
B9
100
AcDbEntity
  8
A2
  6
BYBLOCK
 62
0
370
    -2
100
AcDbLine
 10
284.0497799486066
 20
129.1256026484150
 30
0.000000000000000
 11
289.0174548528080
 21
134.0932775526165
 31
0.000000000000000
  0
LINE
  5
BA
100
AcDbEntity
  8
A2
  6
BYBLOCK
 62
0
370
    -2
100
AcDbLine
 10
283.5295531276136
 20
130.7266961709822
 30
0.000000000000000
 11
289.0174548528083
 21
136.2145978961769
 31
0.000000000000000
  0
LINE
  5
BB
100
AcDbEntity
  8
A2
  6
BYBLOCK
 62
0
370
    -2
100
AcDbLine
 10
283.0093263066203
 20
132.3277896935491
 30
0.000000000000000
 11
289.0174548528055
 21
138.3359182397348
 31
0.000000000000000
  0
LINE
  5
BC
100
AcDbEntity
  8
A2
  6
BYBLOCK
 62
0
370
    -2
100
AcDbLine
 10
282.4890994856294
 20
133.9288832161180
 30
0.000000000000000
 11
289.0174548528078
 21
140.4572385832963
 31
0.000000000000000
  0
LINE
  5
BD
100
AcDbEntity
  8
A2
  6
BYBLOCK
 62
0
370
    -2
100
AcDbLine
 10
281.9688726646347
 20
135.5299767386825
 30
0.000000000000000
 11
289.0174548528082
 21
142.5785589268564
 31
0.000000000000000
  0
LINE
  5
BE
100
AcDbEntity
  8
A2
  6
BYBLOCK
 62
0
370
    -2
100
AcDbLine
 10
281.4486458436426
 20
137.1310702612508
 30
0.000000000000000
 11
289.0174548528092
 21
144.6998792704179
 31
0.000000000000000
  0
LINE
  5
BF
100
AcDbEntity
  8
A2
  6
BYBLOCK
 62
0
370
    -2
100
AcDbLine
 10
280.9284190226490
 20
138.7321637838179
 30
0.000000000000000
 11
289.0174548528098
 21
146.8211996139786
 31
0.000000000000000
  0
LINE
  5
C0
100
AcDbEntity
  8
A2
  6
BYBLOCK
 62
0
370
    -2
100
AcDbLine
 10
280.4081922016552
 20
140.3332573063836
 30
0.000000000000000
 11
289.0174548528115
 21
148.9425199575399
 31
0.000000000000000
  0
LINE
  5
C1
100
AcDbEntity
  8
A2
  6
BYBLOCK
 62
0
370
    -2
100
AcDbLine
 10
279.8879653806634
 20
141.9343508289523
 30
0.000000000000000
 11
289.0174548528102
 21
151.0638403010986
 31
0.000000000000000
  0
LINE
  5
C2
100
AcDbEntity
  8
A2
  6
BYBLOCK
 62
0
370
    -2
100
AcDbLine
 10
279.3677385596711
 20
143.5354443515196
 30
0.000000000000000
 11
289.0174548528093
 21
153.1851606446577
 31
0.000000000000000
  0
LINE
  5
C3
100
AcDbEntity
  8
A2
  6
BYBLOCK
 62
0
370
    -2
100
AcDbLine
 10
278.8475117386768
 20
145.1365378740856
 30
0.000000000000000
 11
289.0174548528119
 21
155.3064809882202
 31
0.000000000000000
  0
LINE
  5
C4
100
AcDbEntity
  8
A2
  6
BYBLOCK
 62
0
370
    -2
100
AcDbLine
 10
278.3272849176828
 20
146.7376313966517
 30
0.000000000000000
 11
289.0174548528123
 21
157.4278013317807
 31
0.000000000000000
  0
LINE
  5
C5
100
AcDbEntity
  8
A2
  6
BYBLOCK
 62
0
370
    -2
100
AcDbLine
 10
277.8070580966910
 20
148.3387249192199
 30
0.000000000000000
 11
289.0174548528151
 21
159.5491216753436
 31
0.000000000000000
  0
LINE
  5
C6
100
AcDbEntity
  8
A2
  6
BYBLOCK
 62
0
370
    -2
100
AcDbLine
 10
277.2868312756972
 20
149.9398184417860
 30
0.000000000000000
 11
289.0174548528142
 21
161.6704420189031
 31
0.000000000000000
  0
LINE
  5
C7
100
AcDbEntity
  8
A2
  6
BYBLOCK
 62
0
370
    -2
100
AcDbLine
 10
276.7666044547057
 20
151.5409119643541
 30
0.000000000000000
 11
289.0174548528128
 21
163.7917623624612
 31
0.000000000000000
  0
LINE
  5
C8
100
AcDbEntity
  8
A2
  6
BYBLOCK
 62
0
370
    -2
100
AcDbLine
 10
276.2463776337123
 20
153.1420054869213
 30
0.000000000000000
 11
289.0174548528136
 21
165.9130827060221
 31
0.000000000000000
  0
LINE
  5
C9
100
AcDbEntity
  8
A2
  6
BYBLOCK
 62
0
370
    -2
100
AcDbLine
 10
282.3740782897924
 20
161.3910264958874
 30
0.000000000000000
 11
289.0174548528170
 21
168.0344030495860
 31
0.000000000000000
  0
LINE
  5
CA
100
AcDbEntity
  8
A2
  6
BYBLOCK
 62
0
370
    -2
100
AcDbLine
 10
282.9758508020422
 20
164.1141193425896
 30
0.000000000000000
 11
289.0174548528177
 21
170.1557233931460
 31
0.000000000000000
  0
LINE
  5
CB
100
AcDbEntity
  8
A2
  6
BYBLOCK
 62
0
370
    -2
100
AcDbLine
 10
282.5541444761722
 20
165.8137333726536
 30
0.000000000000000
 11
289.0174548528154
 21
172.2770437367040
 31
0.000000000000000
  0
LINE
  5
CC
100
AcDbEntity
  8
A2
  6
BYBLOCK
 62
0
370
    -2
100
AcDbLine
 10
281.8521175976759
 20
167.2330324961040
 30
0.000000000000000
 11
288.1597101365784
 21
173.5406193640260
 31
0.000000000000000
  0
LINE
  5
CD
100
AcDbEntity
  8
A2
  6
BYBLOCK
 62
0
370
    -2
100
AcDbLine
 10
281.0613110014665
 20
168.5635404352199
 30
0.000000000000000
 11
287.2013052117131
 21
174.7035347827146
 31
0.000000000000000
  0
LINE
  5
CE
100
AcDbEntity
  8
A2
  6
BYBLOCK
 62
0
370
    -2
100
AcDbLine
 10
280.2685056875881
 20
169.8920505703711
 30
0.000000000000000
 11
286.2300670445442
 21
175.8536169591132
 31
0.000000000000000
  0
LINE
  5
CF
100
AcDbEntity
  8
A2
  6
BYBLOCK
 62
0
370
    -2
100
AcDbLine
 10
279.5654904971024
 20
171.3103605212514
 30
0.000000000000000
 11
285.2460345148504
 21
176.9909047729791
 31
0.000000000000000
  0
LINE
  5
D0
100
AcDbEntity
  8
A2
  6
BYBLOCK
 62
0
370
    -2
100
AcDbLine
 10
279.2083912908818
 20
173.0745816113453
 30
0.000000000000000
 11
284.1519462514244
 21
178.0181344907897
 31
0.000000000000000
  0
LINE
  5
D1
100
AcDbEntity
  8
A2
  6
BYBLOCK
 62
0
370
    -2
100
AcDbLine
 10
301.2674552107085
 20
129.3727151620372
 30
0.000000000000000
 11
303.3887755542690
 21
131.4940355055976
 31
0.000000000000000
  0
LINE
  5
D2
100
AcDbEntity
  8
A2
  6
BYBLOCK
 62
0
370
    -2
100
AcDbLine
 10
301.2674552107082
 20
127.2513948184766
 30
0.000000000000000
 11
305.5100958978291
 21
131.4940355055975
 31
0.000000000000000
  0
LINE
  5
D3
100
AcDbEntity
  8
A2
  6
BYBLOCK
 62
0
370
    -2
100
AcDbLine
 10
303.1314162413910
 20
126.9940355055992
 30
0.000000000000000
 11
307.6314162413896
 21
131.4940355055983
 31
0.000000000000000
  0
LINE
  5
D4
100
AcDbEntity
  8
A2
  6
BYBLOCK
 62
0
370
    -2
100
AcDbLine
 10
305.1789854822707
 20
126.9202844041927
 30
0.000000000000000
 11
310.4685036146973
 21
132.2098025373962
 31
0.000000000000000
  0
LINE
  5
D5
100
AcDbEntity
  8
A2
  6
BYBLOCK
 62
0
370
    -2
100
AcDbLine
 10
305.4175153298587
 20
125.0374939069467
 30
0.000000000000000
 11
310.9736618320704
 21
130.5936404091235
 31
0.000000000000000
  0
LINE
  5
D6
100
AcDbEntity
  8
A2
  6
BYBLOCK
 62
0
370
    -2
100
AcDbLine
 10
306.4953772720671
 20
123.9940355055959
 30
0.000000000000000
 11
311.4564232249614
 21
128.9550814584825
 31
0.000000000000000
  0
LINE
  5
D7
100
AcDbEntity
  8
A2
  6
BYBLOCK
 62
0
370
    -2
100
AcDbLine
 10
308.6166976156251
 20
123.9940355055930
 30
0.000000000000000
 11
311.9202487632894
 21
127.2975866532309
 31
0.000000000000000
  0
LINE
  5
D8
100
AcDbEntity
  8
A2
  6
BYBLOCK
 62
0
370
    -2
100
AcDbLine
 10
310.7380179591860
 20
123.9940355055947
 30
0.000000000000000
 11
312.3646947980071
 21
125.6207123444137
 31
0.000000000000000
  0
ENDBLK
  5
D9
100
AcDbEntity
  8
A2
  6
BYBLOCK
 62
4
100
AcDbBlockEnd
  0
ENDSEC
  0
SECTION
  2
ENTITIES
  0
MTEXT
  5
46
100
AcDbEntity
  8
A7
  6
CONTINUOUS
 62
3
100
AcDbMText
 10
9.999997526638502
 20
18.00000076076889
 30
0.000000000000000
 40
3.000000000000000
 41
0.000000000000000
 44
0.6739999771118164
 71
     7
 72
     1
  1
{\H0.94x;{TYPE No.THA-476SUS-230}}
 11
1.000000000000000
 21
0.000000000000000
 31
0.000000000000000
  7
STANDARD
  0
LINE
  5
47
100
AcDbEntity
  8
A1
  6
CONTINUOUS
 62
7
100
AcDbLine
 10
206.9176111436462
 20
88.99403575905893
 30
0.000000000000000
 11
206.9176111436466
 21
89.08391894005894
 31
0.000000000000000
  0
LINE
  5
48
100
AcDbEntity
  8
A4
  6
CENTER
 62
1
100
AcDbLine
 10
363.2172985566242
 20
122.4940355055971
 30
0.000000000000000
 11
363.2172985566242
 21
189.4940355048343
 31
0.000000000000000
  0
LINE
  5
49
100
AcDbEntity
  8
A4
  6
CENTER
 62
1
100
AcDbLine
 10
181.9174548480414
 20
226.9940355055344
 30
0.000000000000000
 11
181.9174548480414
 21
249.9940355055345
 31
0.000000000000000
  0
LINE
  5
4A
100
AcDbEntity
  8
A4
  6
CENTER
 62
1
100
AcDbLine
 10
296.9174552107088
 20
247.4940355064219
 30
0.000000000000000
 11
296.9174552107088
 21
229.4940355064219
 31
0.000000000000000
  0
LINE
  5
4B
100
AcDbEntity
  8
A4
  6
CENTER
 62
1
100
AcDbLine
 10
66.91745484739471
 20
247.4940355063448
 30
0.000000000000000
 11
66.91745484739471
 21
229.4940355063448
 31
0.000000000000000
  0
ARC
  5
4C
100
AcDbEntity
  8
A1
  6
CONTINUOUS
 62
7
100
AcDbCircle
 10
62.11745448234495
 20
238.4940355064587
 30
0.000000000000000
 40
11.00000000000000
100
AcDbArc
 50
118.9550244270009
 51
241.0449756832810
  0
LINE
  5
4D
100
AcDbEntity
  8
A4
  6
CENTER
 62
1
100
AcDbLine
 10
49.61745484436515
 20
238.4940355045134
 30
0.000000000000000
 11
314.2174552137386
 21
238.4940355065553
 31
0.000000000000000
  0
LINE
  5
4E
100
AcDbEntity
  8
A1
  6
CONTINUOUS
 62
7
100
AcDbLine
 10
206.9176111436462
 20
63.49403550559686
 30
0.000000000000000
 11
206.9176111436466
 21
63.58391868659686
 31
0.000000000000000
  0
LINE
  5
4F
100
AcDbEntity
  8
A4
  6
CENTER
 62
1
100
AcDbLine
 10
181.9174548480414
 20
84.99403525210758
 30
0.000000000000000
 11
181.9174548480414
 21
61.99403525210758
 31
0.000000000000000
  0
LINE
  5
50
100
AcDbEntity
  8
A4
  6
CENTER
 62
1
100
AcDbLine
 10
296.9174548480414
 20
83.49403550559705
 30
0.000000000000000
 11
296.9174548480414
 21
63.49403550559705
 31
0.000000000000000
  0
LINE
  5
51
100
AcDbEntity
  8
A4
  6
CENTER
 62
1
100
AcDbLine
 10
49.61745484804118
 20
73.49403550559705
 30
0.000000000000000
 11
314.2176111428225
 21
73.49403550559705
 31
0.000000000000000
  0
LINE
  5
52
100
AcDbEntity
  8
A4
  6
CENTER
 62
1
100
AcDbLine
 10
66.91745484804113
 20
83.49403550559705
 30
0.000000000000000
 11
66.91745484804113
 21
63.49403550559705
 31
0.000000000000000
  0
ARC
  5
53
100
AcDbEntity
  8
A1
  6
CONTINUOUS
 62
7
100
AcDbCircle
 10
288.9172816343801
 20
126.4940638113498
 30
0.000000000000000
 40
0.4999716942474028
100
AcDbArc
 50
90.00004181604267
 51
180.0032437839726
  0
ARC
  5
54
100
AcDbEntity
  8
A1
  6
CONTINUOUS
 62
7
100
AcDbCircle
 10
304.9176280617037
 20
126.4940638113498
 30
0.000000000000000
 40
0.4999716942474263
100
AcDbArc
 50
359.9967562160305
 51
449.9999581839542
  0
LINE
  5
55
100
AcDbEntity
  8
A1
  6
CONTINUOUS
 62
7
100
AcDbLine
 10
288.4173099409342
 20
126.4940355055971
 30
0.000000000000000
 11
288.4174548480422
 21
123.9940355055971
 31
0.000000000000000
  0
LINE
  5
56
100
AcDbEntity
  8
A1
  6
CONTINUOUS
 62
7
100
AcDbLine
 10
305.4174548480420
 20
123.9940355055970
 30
0.000000000000000
 11
305.4175997551499
 21
126.4940355055971
 31
0.000000000000000
  0
LINE
  5
57
100
AcDbEntity
  8
A1
  6
CONTINUOUS
 62
7
100
AcDbLine
 10
285.6722304033426
 20
124.1322135939894
 30
0.000000000000000
 11
273.6302465758940
 21
161.1936289746592
 31
0.000000000000000
  0
ARC
  5
58
100
AcDbEntity
  8
A1
  6
CONTINUOUS
 62
7
100
AcDbCircle
 10
285.8624356914504
 20
124.1940355055970
 30
0.000000000000000
 40
0.2000000000000000
100
AcDbArc
 50
197.9999999999975
 51
270.0000000000000
  0
LINE
  5
59
100
AcDbEntity
  8
A4
  6
CENTER
 62
1
100
AcDbLine
 10
181.9174548480416
 20
197.4940352754798
 30
0.000000000000000
 11
181.9174548480416
 21
122.4940355055971
 31
0.000000000000000
  0
LINE
  5
5A
100
AcDbEntity
  8
A4
  6
CENTER
 62
1
100
AcDbLine
 10
296.9174548480416
 20
122.4940355055971
 30
0.000000000000000
 11
296.9174548480416
 21
154.2642200699342
 31
0.000000000000000
  0
LINE
  5
5B
100
AcDbEntity
  8
A4
  6
CENTER
 62
1
100
AcDbLine
 10
66.91745484804022
 20
122.4940355055971
 30
0.000000000000000
 11
66.91745484804022
 21
154.2642200699342
 31
0.000000000000000
  0
SPLINE
  5
5C
100
AcDbEntity
  8
A2
  6
CONTINUOUS
 62
4
100
AcDbSpline
210
0.000000000000000
220
0.000000000000000
230
1.000000000000000
 70
     8
 71
     3
 72
    10
 73
     6
 74
     0
 42
1.000000000000000e-07
 43
1.000000000000000e-07
 12
-0.9988675963881093
 22
-0.6107390415566130
 32
0.000000000000000
 13
-0.9683168986119881
 23
-0.7688413803130061
 33
0.000000000000000
 40
0.000000000000000
 40
0.000000000000000
 40
0.000000000000000
 40
0.000000000000000
 40
7.065826077438125
 40
16.22068735754799
 40
28.63768489980374
 40
28.63768489980374
 40
28.63768489980374
 40
28.63768489980374
 10
284.2711365480197
 20
178.0910194276784
 30
0.000000000000000
 10
281.9185283111974
 20
176.6525608122317
 30
0.000000000000000
 10
276.3364392987257
 20
173.2394909176348
 30
0.000000000000000
 10
286.7102456565199
 20
163.4124346449234
 30
0.000000000000000
 10
279.7474471791299
 20
157.8839887406217
 30
0.000000000000000
 10
275.7395843290667
 20
154.7017548973780
 30
0.000000000000000
  0
LINE
  5
5D
100
AcDbEntity
  8
A1
  6
CONTINUOUS
 62
7
100
AcDbLine
 10
288.9172812694867
 20
126.9940355055971
 30
0.000000000000000
 11
304.9176284265966
 21
126.9940355055971
 31
0.000000000000000
  0
LINE
  5
5E
100
AcDbEntity
  8
A1
  6
CONTINUOUS
 62
7
100
AcDbLine
 10
285.8624337016465
 20
123.9940355055971
 30
0.000000000000000
 11
312.5174556572740
 21
123.9940355055971
 31
0.000000000000000
  0
LINE
  5
5F
100
AcDbEntity
  8
A1
  6
CONTINUOUS
 62
7
100
AcDbLine
 10
95.43547395981153
 20
164.9940355055971
 30
0.000000000000000
 11
268.3994357362706
 21
164.9940355055971
 31
0.000000000000000
  0
ARC
  5
60
100
AcDbEntity
  8
A1
  6
CONTINUOUS
 62
7
100
AcDbCircle
 10
268.3994357362706
 20
159.4940355055971
 30
0.000000000000000
 40
5.500000000000000
100
AcDbArc
 50
17.99999999999978
 51
90.00000000000000
  0
ARC
  5
61
100
AcDbEntity
  8
A1
  6
CONTINUOUS
 62
7
100
AcDbCircle
 10
181.9174548480425
 20
-2305.646966260132
 30
0.000000000000000
 40
2493.641001765729
100
AcDbArc
 50
88.01123466789441
 51
91.98876533210564
  0
SPLINE
  5
62
100
AcDbEntity
  8
A1
  6
CONTINUOUS
 62
7
100
AcDbSpline
210
0.000000000000000
220
0.000000000000000
230
1.000000000000000
 70
     8
 71
     3
 72
     9
 73
     5
 74
     0
 42
1.000000000000000e-07
 43
1.000000000000000e-07
 12
1.006203609662407
 22
-0.1330135757416429
 32
0.000000000000000
 13
0.7319368450976071
 23
-0.7485433266839152
 33
0.000000000000000
 40
0.000000000000000
 40
0.000000000000000
 40
0.000000000000000
 40
0.000000000000000
 40
0.8591162822637748
 40
2.951387122411646
 40
2.951387122411646
 40
2.951387122411646
 40
2.951387122411646
 10
363.2172985566242
 20
172.4305179105817
 30
0.000000000000000
 10
363.5054471914020
 20
172.3924265343544
 30
0.000000000000000
 10
364.4953459834292
 20
172.2615683495046
 30
0.000000000000000
 10
365.2450835623090
 20
171.5917226137966
 30
0.000000000000000
 10
365.7555536015848
 20
171.0696708221273
 30
0.000000000000000
  0
SPLINE
  5
63
100
AcDbEntity
  8
A1
  6
CONTINUOUS
 62
7
100
AcDbSpline
210
0.000000000000000
220
0.000000000000000
230
1.000000000000000
 70
     8
 71
     3
 72
    28
 73
    24
 74
     0
 42
1.000000000000000e-07
 43
1.000000000000000e-07
 12
0.4815871951897179
 22
-0.4870907573892396
 32
0.000000000000000
 13
0.005606165632798366
 23
-0.9999842853295604
 33
0.000000000000000
 40
0.000000000000000
 40
0.000000000000000
 40
0.000000000000000
 40
0.000000000000000
 40
1.582914452603752
 40
2.108776435948018
 40
2.631159910887521
 40
3.148924887068998
 40
3.663805027256188
 40
4.176939846155451
 40
5.249641937994026
 40
6.322740930415883
 40
7.398916509670685
 40
8.843274652501185
 40
10.28671650892688
 40
11.72860198771537
 40
13.16999636706389
 40
15.08950009709788
 40
17.00018534997449
 40
18.89651522672195
 40
19.78316631983412
 40
20.66332863558941
 40
21.53512735344136
 40
22.39584265528743
 40
23.15935624400275
 40
23.15935624400275
 40
23.15935624400275
 40
23.15935624400275
 10
365.7552157661366
 20
171.0700174556002
 30
0.000000000000000
 10
366.0093195432883
 20
170.8130097890665
 30
0.000000000000000
 10
366.2428224177936
 20
170.5517722493018
 30
0.000000000000000
 10
366.5645860295747
 20
170.1375175541699
 30
0.000000000000000
 10
366.8604422540475
 20
169.7071514990909
 30
0.000000000000000
 10
367.1328188018831
 20
169.2659382437188
 30
0.000000000000000
 10
367.3851280354943
 20
168.8165263652005
 30
0.000000000000000
 10
367.7050300288361
 20
168.1934916776389
 30
0.000000000000000
 10
368.0709404449267
 20
167.3855871141999
 30
0.000000000000000
 10
368.4614962944038
 20
166.3847202090484
 30
0.000000000000000
 10
368.8486652980960
 20
165.2508071569995
 30
0.000000000000000
 10
369.2213103235599
 20
163.9826499851244
 30
0.000000000000000
 10
369.5744266429342
 20
162.5829873333809
 30
0.000000000000000
 10
369.8804406766462
 20
161.1733528639146
 30
0.000000000000000
 10
370.1766152382727
 20
159.5998875445099
 30
0.000000000000000
 10
370.4519429307647
 20
157.8641031965964
 30
0.000000000000000
 10
370.6978322236964
 20
155.9709569323792
 30
0.000000000000000
 10
370.8596109137256
 20
154.4145969657997
 30
0.000000000000000
 10
370.9623813045723
 20
153.1978558101554
 30
0.000000000000000
 10
371.0249679147894
 20
152.3205177973647
 30
0.000000000000000
 10
371.0742006019636
 20
151.4509887080468
 30
0.000000000000000
 10
371.1072998064951
 20
150.6195738025798
 30
0.000000000000000
 10
371.1157423652503
 20
150.0781766170495
 30
0.000000000000000
 10
371.1171691597974
 20
149.8236760869326
 30
0.000000000000000
  0
SPLINE
  5
64
100
AcDbEntity
  8
A1
  6
CONTINUOUS
 62
7
100
AcDbSpline
210
0.000000000000000
220
0.000000000000000
230
1.000000000000000
 70
     8
 71
     3
 72
     9
 73
     5
 74
     0
 42
1.000000000000000e-07
 43
1.000000000000000e-07
 12
0.001602779570362145
 22
-0.9999987155477470
 32
0.000000000000000
 13
-0.04797968276727715
 23
-0.9988483118279987
 33
0.000000000000000
 40
0.000000000000000
 40
0.000000000000000
 40
0.000000000000000
 40
0.000000000000000
 40
1.276797028567772
 40
2.415327334399978
 40
2.415327334399978
 40
2.415327334399978
 40
2.415327334399978
 10
371.1172986246361
 20
149.7411291187570
 30
0.000000000000000
 10
371.1179807660337
 20
149.3155306558960
 30
0.000000000000000
 10
371.1087189441760
 20
148.5103672632310
 30
0.000000000000000
 10
371.0794878176653
 20
147.7057097111941
 30
0.000000000000000
 10
371.0612790433670
 20
147.3266366865456
 30
0.000000000000000
  0
SPLINE
  5
65
100
AcDbEntity
  8
A1
  6
CONTINUOUS
 62
7
100
AcDbSpline
210
0.000000000000000
220
0.000000000000000
230
1.000000000000000
 70
     8
 71
     3
 72
    32
 73
    28
 74
     0
 42
1.000000000000000e-07
 43
1.000000000000000e-07
 12
-0.0003361469462106470
 22
-0.9999999435025302
 32
0.000000000000000
 13
-0.2915739184816175
 23
-0.9565482999107644
 33
0.000000000000000
 40
0.000000000000000
 40
0.000000000000000
 40
0.000000000000000
 40
0.000000000000000
 40
0.5274299452664525
 40
1.042929178192964
 40
1.571655465233306
 40
2.141279664176644
 40
2.750968993377133
 40
3.400310700297476
 40
3.922554265581267
 40
4.401860231639239
 40
4.835116847175684
 40
5.223034928583148
 40
5.566100509854597
 40
5.861770162926066
 40
6.030844344334891
 40
6.176064213727109
 40
6.327994901634823
 40
6.516186970176189
 40
6.740723099058976
 40
7.089960924976715
 40
7.502307060079654
 40
7.961788099641515
 40
8.489768195003998
 40
9.055737352129968
 40
9.661006866511375
 40
10.30690626279358
 40
10.90954289032110
 40
10.90954289032110
 40
10.90954289032110
 40
10.90954289032110
 10
371.1214288182150
 20
149.7739063126434
 30
0.000000000000000
 10
371.1213697202265
 20
149.5980963408207
 30
0.000000000000000
 10
371.1195184448807
 20
149.2504518836239
 30
0.000000000000000
 10
371.1117909750360
 20
148.7266157396613
 30
0.000000000000000
 10
371.0980812524458
 20
148.1888289074140
 30
0.000000000000000
 10
371.0766008268106
 20
147.6198711133053
 30
0.000000000000000
 10
371.0449054900796
 20
147.0111201169965
 30
0.000000000000000
 10
371.0041462508548
 20
146.4187295137785
 30
0.000000000000000
 10
370.9572970763029
 20
145.8704101944014
 30
0.000000000000000
 10
370.9096355891154
 20
145.3945059640284
 30
0.000000000000000
 10
370.8605334091712
 20
144.9637897496690
 30
0.000000000000000
 10
370.8117244112736
 20
144.5787818017651
 30
0.000000000000000
 10
370.7648100043625
 20
144.2397883922860
 30
0.000000000000000
 10
370.7252237567941
 20
143.9734402624614
 30
0.000000000000000
 10
370.6938779601210
 20
143.7725489802503
 30
0.000000000000000
 10
370.6691676635360
 20
143.6191172648181
 30
0.000000000000000
 10
370.6427066400711
 20
143.4595144666038
 30
0.000000000000000
 10
370.6109411025102
 20
143.2739935989454
 30
0.000000000000000
 10
370.5664789785133
 20
143.0239249458592
 30
0.000000000000000
 10
370.5060842922453
 20
142.7008076028223
 30
0.000000000000000
 10
370.4266776317904
 20
142.3015961616831
 30
0.000000000000000
 10
370.3296922652544
 20
141.8451698629878
 30
0.000000000000000
 10
370.2147701669169
 20
141.3402529243091
 30
0.000000000000000
 10
370.0805087448944
 20
140.7899652283753
 30
0.000000000000000
 10
369.9274702317998
 20
140.2038763609784
 30
0.000000000000000
 10
369.7614288176719
 20
139.6086375668791
 30
0.000000000000000
 10
369.6431954744221
 20
139.2095866673173
 30
0.000000000000000
 10
369.5846244334525
 20
139.0174363201421
 30
0.000000000000000
  0
SPLINE
  5
66
100
AcDbEntity
  8
A1
  6
CONTINUOUS
 62
7
100
AcDbSpline
210
0.000000000000000
220
0.000000000000000
230
1.000000000000000
 70
     8
 71
     3
 72
    43
 73
    39
 74
     0
 42
1.000000000000000e-07
 43
1.000000000000000e-07
 12
-0.3917214923430947
 22
-0.9200838398946871
 32
0.000000000000000
 13
-0.9999999412025318
 23
-0.0003429134421821800
 33
0.000000000000000
 40
0.000000000000000
 40
0.000000000000000
 40
0.000000000000000
 40
0.000000000000000
 40
0.2860910506998169
 40
0.6395523450251053
 40
1.021996177044995
 40
1.395418959565354
 40
1.746722275793118
 40
2.075311041995883
 40
2.387672473882951
 40
2.733116801762476
 40
3.110929553011364
 40
3.522038397723123
 40
3.769000030731397
 40
3.980489159522413
 40
4.153287376109173
 40
4.286889458398614
 40
4.371056894321759
 40
4.477956429030726
 40
4.621929957659723
 40
4.803380159636616
 40
5.022662916348565
 40
5.274640341835851
 40
5.523226960001113
 40
5.951912229259459
 40
6.345904005123121
 40
6.705561801461033
 40
7.071444336280670
 40
7.382280965166681
 40
7.633684445561728
 40
7.713828756679552
 40
7.828679362956025
 40
7.997686921067976
 40
8.221151625417530
 40
8.500068206706203
 40
8.833728063028824
 40
9.084348176061901
 40
9.358237876220857
 40
9.659537066419123
 40
9.659537066419123
 40
9.659537066419123
 40
9.659537066419123
 10
369.5914770902557
 20
139.0359463584422
 30
0.000000000000000
 10
369.5541210858137
 20
138.9482037742797
 30
0.000000000000000
 10
369.4694103333040
 20
138.7525661070269
 30
0.000000000000000
 10
369.3297977293164
 20
138.4418090397748
 30
0.000000000000000
 10
369.1728975819360
 20
138.1069514338652
 30
0.000000000000000
 10
369.0106982106058
 20
137.7754288298155
 30
0.000000000000000
 10
368.8511092085646
 20
137.4626710368078
 30
0.000000000000000
 10
368.6959531122302
 20
137.1705538237540
 30
0.000000000000000
 10
368.5370898768651
 20
136.8826657134277
 30
0.000000000000000
 10
368.3651256401536
 20
136.5833172013039
 30
0.000000000000000
 10
368.1702183931338
 20
136.2592668207011
 30
0.000000000000000
 10
367.9854327976877
 20
135.9675316299698
 30
0.000000000000000
 10
367.8253046030386
 20
135.7259112708815
 30
0.000000000000000
 10
367.7063866735875
 20
135.5523118383957
 30
0.000000000000000
 10
367.6069229105306
 20
135.4112108267442
 30
0.000000000000000
 10
367.5307380866402
 20
135.3056377548591
 30
0.000000000000000
 10
367.4667015049422
 20
135.2183928355263
 30
0.000000000000000
 10
367.3999721716041
 20
135.1288387835772
 30
0.000000000000000
 10
367.3127601964848
 20
135.0141131079996
 30
0.000000000000000
 10
367.2010077921323
 20
134.8710010565318
 30
0.000000000000000
 10
367.0642415302873
 20
134.7017758780138
 30
0.000000000000000
 10
366.9095475159324
 20
134.5183197955522
 30
0.000000000000000
 10
366.7043181947624
 20
134.2862826268030
 30
0.000000000000000
 10
366.4586507574718
 20
134.0269512623630
 30
0.000000000000000
 10
366.1745895688882
 20
133.7535458729234
 30
0.000000000000000
 10
365.8932189844136
 20
133.5081815993418
 30
0.000000000000000
 10
365.6211537942149
 20
133.2949910156250
 30
0.000000000000000
 10
365.3674814116080
 20
133.1176471455650
 30
0.000000000000000
 10
365.1859238597717
 20
133.0039546631903
 30
0.000000000000000
 10
365.0572976484168
 20
132.9291356667051
 30
0.000000000000000
 10
364.9512262967735
 20
132.8701984663716
 30
0.000000000000000
 10
364.8010026630150
 20
132.7924643679479
 30
0.000000000000000
 10
364.5978527896928
 20
132.6983413391467
 30
0.000000000000000
 10
364.3382409779433
 20
132.5964447148628
 30
0.000000000000000
 10
364.0625165986598
 20
132.5127356741783
 30
0.000000000000000
 10
363.7826748370139
 20
132.4522996531179
 30
0.000000000000000
 10
363.5096091514565
 20
132.4152012245135
 30
0.000000000000000
 10
363.3177524022476
 20
132.4063794903663
 30
0.000000000000000
 10
363.2173193447534
 20
132.4063450505188
 30
0.000000000000000
  0
SPLINE
  5
67
100
AcDbEntity
  8
A1
  6
CONTINUOUS
 62
7
100
AcDbSpline
210
0.000000000000000
220
0.000000000000000
230
1.000000000000000
 70
     8
 71
     3
 72
     9
 73
     5
 74
     0
 42
1.000000000000000e-07
 43
1.000000000000000e-07
 12
-1.006203609662180
 22
-0.1330135757416429
 32
0.000000000000000
 13
-0.7319368450974935
 23
-0.7485433266839152
 33
0.000000000000000
 40
0.000000000000000
 40
0.000000000000000
 40
0.000000000000000
 40
0.000000000000000
 40
0.8591162822637748
 40
2.951387122411646
 40
2.951387122411646
 40
2.951387122411646
 40
2.951387122411646
 10
363.2172985566237
 20
172.4305179105817
 30
0.000000000000000
 10
362.9291499218459
 20
172.3924265343544
 30
0.000000000000000
 10
361.9392511298188
 20
172.2615683495046
 30
0.000000000000000
 10
361.1895135509390
 20
171.5917226137966
 30
0.000000000000000
 10
360.6790435116632
 20
171.0696708221273
 30
0.000000000000000
  0
SPLINE
  5
68
100
AcDbEntity
  8
A1
  6
CONTINUOUS
 62
7
100
AcDbSpline
210
0.000000000000000
220
0.000000000000000
230
1.000000000000000
 70
     8
 71
     3
 72
    28
 73
    24
 74
     0
 42
1.000000000000000e-07
 43
1.000000000000000e-07
 12
-0.4815871951897179
 22
-0.4870907573892396
 32
0.000000000000000
 13
-0.005606165633025739
 23
-0.9999842853295604
 33
0.000000000000000
 40
0.000000000000000
 40
0.000000000000000
 40
0.000000000000000
 40
0.000000000000000
 40
1.582914452603752
 40
2.108776435948018
 40
2.631159910887521
 40
3.148924887068998
 40
3.663805027256188
 40
4.176939846155451
 40
5.249641937994026
 40
6.322740930415883
 40
7.398916509670685
 40
8.843274652501185
 40
10.28671650892688
 40
11.72860198771537
 40
13.16999636706389
 40
15.08950009709788
 40
17.00018534997449
 40
18.89651522672195
 40
19.78316631983412
 40
20.66332863558941
 40
21.53512735344136
 40
22.39584265528743
 40
23.15935624400275
 40
23.15935624400275
 40
23.15935624400275
 40
23.15935624400275
 10
360.6793813471113
 20
171.0700174556002
 30
0.000000000000000
 10
360.4252775699597
 20
170.8130097890665
 30
0.000000000000000
 10
360.1917746954543
 20
170.5517722493018
 30
0.000000000000000
 10
359.8700110836733
 20
170.1375175541699
 30
0.000000000000000
 10
359.5741548592005
 20
169.7071514990909
 30
0.000000000000000
 10
359.3017783113648
 20
169.2659382437188
 30
0.000000000000000
 10
359.0494690777537
 20
168.8165263652005
 30
0.000000000000000
 10
358.7295670844119
 20
168.1934916776389
 30
0.000000000000000
 10
358.3636566683213
 20
167.3855871141999
 30
0.000000000000000
 10
357.9731008188442
 20
166.3847202090484
 30
0.000000000000000
 10
357.5859318151520
 20
165.2508071569995
 30
0.000000000000000
 10
357.2132867896880
 20
163.9826499851244
 30
0.000000000000000
 10
356.8601704703137
 20
162.5829873333809
 30
0.000000000000000
 10
356.5541564366017
 20
161.1733528639146
 30
0.000000000000000
 10
356.2579818749753
 20
159.5998875445099
 30
0.000000000000000
 10
355.9826541824832
 20
157.8641031965964
 30
0.000000000000000
 10
355.7367648895515
 20
155.9709569323792
 30
0.000000000000000
 10
355.5749861995223
 20
154.4145969657997
 30
0.000000000000000
 10
355.4722158086756
 20
153.1978558101554
 30
0.000000000000000
 10
355.4096291984586
 20
152.3205177973647
 30
0.000000000000000
 10
355.3603965112843
 20
151.4509887080468
 30
0.000000000000000
 10
355.3272973067528
 20
150.6195738025798
 30
0.000000000000000
 10
355.3188547479976
 20
150.0781766170495
 30
0.000000000000000
 10
355.3174279534505
 20
149.8236760869326
 30
0.000000000000000
  0
SPLINE
  5
69
100
AcDbEntity
  8
A1
  6
CONTINUOUS
 62
7
100
AcDbSpline
210
0.000000000000000
220
0.000000000000000
230
1.000000000000000
 70
     8
 71
     3
 72
    32
 73
    28
 74
     0
 42
1.000000000000000e-07
 43
1.000000000000000e-07
 12
0.0003361469462106470
 22
-0.9999999435025302
 32
0.000000000000000
 13
0.2915739184816175
 23
-0.9565482999107644
 33
0.000000000000000
 40
0.000000000000000
 40
0.000000000000000
 40
0.000000000000000
 40
0.000000000000000
 40
0.5274299452664525
 40
1.042929178192964
 40
1.571655465233306
 40
2.141279664176644
 40
2.750968993377133
 40
3.400310700297476
 40
3.922554265581267
 40
4.401860231639239
 40
4.835116847175684
 40
5.223034928583148
 40
5.566100509854597
 40
5.861770162926066
 40
6.030844344334891
 40
6.176064213727109
 40
6.327994901634823
 40
6.516186970176189
 40
6.740723099058976
 40
7.089960924976715
 40
7.502307060079654
 40
7.961788099641515
 40
8.489768195003998
 40
9.055737352129968
 40
9.661006866511375
 40
10.30690626279358
 40
10.90954289032110
 40
10.90954289032110
 40
10.90954289032110
 40
10.90954289032110
 10
355.3131682950329
 20
149.7739063126434
 30
0.000000000000000
 10
355.3132273930214
 20
149.5980963408207
 30
0.000000000000000
 10
355.3150786683673
 20
149.2504518836239
 30
0.000000000000000
 10
355.3228061382119
 20
148.7266157396613
 30
0.000000000000000
 10
355.3365158608021
 20
148.1888289074140
 30
0.000000000000000
 10
355.3579962864374
 20
147.6198711133053
 30
0.000000000000000
 10
355.3896916231683
 20
147.0111201169965
 30
0.000000000000000
 10
355.4304508623932
 20
146.4187295137785
 30
0.000000000000000
 10
355.4773000369451
 20
145.8704101944014
 30
0.000000000000000
 10
355.5249615241326
 20
145.3945059640284
 30
0.000000000000000
 10
355.5740637040767
 20
144.9637897496690
 30
0.000000000000000
 10
355.6228727019743
 20
144.5787818017651
 30
0.000000000000000
 10
355.6697871088854
 20
144.2397883922860
 30
0.000000000000000
 10
355.7093733564539
 20
143.9734402624614
 30
0.000000000000000
 10
355.7407191531270
 20
143.7725489802503
 30
0.000000000000000
 10
355.7654294497120
 20
143.6191172648181
 30
0.000000000000000
 10
355.7918904731769
 20
143.4595144666038
 30
0.000000000000000
 10
355.8236560107377
 20
143.2739935989454
 30
0.000000000000000
 10
355.8681181347347
 20
143.0239249458592
 30
0.000000000000000
 10
355.9285128210026
 20
142.7008076028223
 30
0.000000000000000
 10
356.0079194814575
 20
142.3015961616831
 30
0.000000000000000
 10
356.1049048479936
 20
141.8451698629878
 30
0.000000000000000
 10
356.2198269463311
 20
141.3402529243091
 30
0.000000000000000
 10
356.3540883683536
 20
140.7899652283753
 30
0.000000000000000
 10
356.5071268814481
 20
140.2038763609784
 30
0.000000000000000
 10
356.6731682955760
 20
139.6086375668791
 30
0.000000000000000
 10
356.7914016388258
 20
139.2095866673173
 30
0.000000000000000
 10
356.8499726797954
 20
139.0174363201421
 30
0.000000000000000
  0
SPLINE
  5
6A
100
AcDbEntity
  8
A1
  6
CONTINUOUS
 62
7
100
AcDbSpline
210
0.000000000000000
220
0.000000000000000
230
1.000000000000000
 70
     8
 71
     3
 72
    43
 73
    39
 74
     0
 42
1.000000000000000e-07
 43
1.000000000000000e-07
 12
0.3917214923426400
 22
-0.9200838398946871
 32
0.000000000000000
 13
0.9999999412025318
 23
-0.0003429134421821800
 33
0.000000000000000
 40
0.000000000000000
 40
0.000000000000000
 40
0.000000000000000
 40
0.000000000000000
 40
0.2860910506998169
 40
0.6395523450251053
 40
1.021996177044995
 40
1.395418959565354
 40
1.746722275793118
 40
2.075311041995883
 40
2.387672473882951
 40
2.733116801762476
 40
3.110929553011364
 40
3.522038397723123
 40
3.769000030731397
 40
3.980489159522413
 40
4.153287376109173
 40
4.286889458398614
 40
4.371056894321759
 40
4.477956429030726
 40
4.621929957659723
 40
4.803380159636616
 40
5.022662916348565
 40
5.274640341835851
 40
5.523226960001113
 40
5.951912229259459
 40
6.345904005123121
 40
6.705561801461033
 40
7.071444336280670
 40
7.382280965166681
 40
7.633684445561728
 40
7.713828756679552
 40
7.828679362956025
 40
7.997686921067976
 40
8.221151625417530
 40
8.500068206706203
 40
8.833728063028824
 40
9.084348176061901
 40
9.358237876220857
 40
9.659537066419123
 40
9.659537066419123
 40
9.659537066419123
 40
9.659537066419123
 10
356.8431200229923
 20
139.0359463584422
 30
0.000000000000000
 10
356.8804760274343
 20
138.9482037742797
 30
0.000000000000000
 10
356.9651867799439
 20
138.7525661070269
 30
0.000000000000000
 10
357.1047993839315
 20
138.4418090397748
 30
0.000000000000000
 10
357.2616995313119
 20
138.1069514338652
 30
0.000000000000000
 10
357.4238989026421
 20
137.7754288298155
 30
0.000000000000000
 10
357.5834879046834
 20
137.4626710368078
 30
0.000000000000000
 10
357.7386440010177
 20
137.1705538237540
 30
0.000000000000000
 10
357.8975072363828
 20
136.8826657134277
 30
0.000000000000000
 10
358.0694714730944
 20
136.5833172013039
 30
0.000000000000000
 10
358.2643787201141
 20
136.2592668207011
 30
0.000000000000000
 10
358.4491643155602
 20
135.9675316299698
 30
0.000000000000000
 10
358.6092925102093
 20
135.7259112708815
 30
0.000000000000000
 10
358.7282104396604
 20
135.5523118383957
 30
0.000000000000000
 10
358.8276742027174
 20
135.4112108267442
 30
0.000000000000000
 10
358.9038590266077
 20
135.3056377548591
 30
0.000000000000000
 10
358.9678956083058
 20
135.2183928355263
 30
0.000000000000000
 10
359.0346249416439
 20
135.1288387835772
 30
0.000000000000000
 10
359.1218369167632
 20
135.0141131079996
 30
0.000000000000000
 10
359.2335893211157
 20
134.8710010565318
 30
0.000000000000000
 10
359.3703555829607
 20
134.7017758780138
 30
0.000000000000000
 10
359.5250495973155
 20
134.5183197955522
 30
0.000000000000000
 10
359.7302789184855
 20
134.2862826268030
 30
0.000000000000000
 10
359.9759463557762
 20
134.0269512623630
 30
0.000000000000000
 10
360.2600075443597
 20
133.7535458729234
 30
0.000000000000000
 10
360.5413781288344
 20
133.5081815993418
 30
0.000000000000000
 10
360.8134433190330
 20
133.2949910156250
 30
0.000000000000000
 10
361.0671157016400
 20
133.1176471455650
 30
0.000000000000000
 10
361.2486732534762
 20
133.0039546631903
 30
0.000000000000000
 10
361.3772994648311
 20
132.9291356667051
 30
0.000000000000000
 10
361.4833708164745
 20
132.8701984663716
 30
0.000000000000000
 10
361.6335944502330
 20
132.7924643679479
 30
0.000000000000000
 10
361.8367443235552
 20
132.6983413391467
 30
0.000000000000000
 10
362.0963561353046
 20
132.5964447148628
 30
0.000000000000000
 10
362.3720805145881
 20
132.5127356741783
 30
0.000000000000000
 10
362.6519222762340
 20
132.4522996531179
 30
0.000000000000000
 10
362.9249879617914
 20
132.4152012245135
 30
0.000000000000000
 10
363.1168447110003
 20
132.4063794903663
 30
0.000000000000000
 10
363.2172777684946
 20
132.4063450505188
 30
0.000000000000000
  0
ARC
  5
6B
100
AcDbEntity
  8
A1
  6
CONTINUOUS
 62
7
100
AcDbCircle
 10
301.7174552137378
 20
238.4940355064587
 30
0.000000000000000
 40
11.00000000000000
100
AcDbArc
 50
298.9550243722683
 51
421.0449756285691
  0
CIRCLE
  5
6C
100
AcDbEntity
  8
A1
  6
CONTINUOUS
 62
7
100
AcDbCircle
 10
66.91745484739471
 20
238.4940355046470
 30
0.000000000000000
 40
4.350000000000000
  0
CIRCLE
  5
6D
100
AcDbEntity
  8
A1
  6
CONTINUOUS
 62
7
100
AcDbCircle
 10
296.9174552107086
 20
238.4940355064220
 30
0.000000000000000
 40
4.350000000000000
  0
LINE
  5
6E
100
AcDbEntity
  8
A1
  6
CONTINUOUS
 62
7
100
AcDbLine
 10
301.2674552107087
 20
131.4940355055971
 30
0.000000000000000
 11
301.2674552107087
 21
126.9940355055971
 31
0.000000000000000
  0
LINE
  5
6F
100
AcDbEntity
  8
A1
  6
CONTINUOUS
 62
7
100
AcDbLine
 10
292.5674552107087
 20
131.4940355055971
 30
0.000000000000000
 11
292.5674552107087
 21
126.9940355055971
 31
0.000000000000000
  0
ARC
  5
70
100
AcDbEntity
  8
A1
  6
CONTINUOUS
 62
7
100
AcDbCircle
 10
301.7172985555064
 20
73.49403550559705
 30
0.000000000000000
 40
11.00000000111800
100
AcDbArc
 50
298.9550244008386
 51
421.0449755991615
  0
ARC
  5
71
100
AcDbEntity
  8
A1
  6
CONTINUOUS
 62
7
100
AcDbCircle
 10
62.11761114057612
 20
73.49403550559705
 30
0.000000000000000
 40
11.00000000111800
100
AcDbArc
 50
118.9550244008385
 51
241.0449755991615
  0
ARC
  5
72
100
AcDbEntity
  8
A1
  6
CONTINUOUS
 62
7
100
AcDbCircle
 10
190.8340258331217
 20
94.30703320977025
 30
0.000000000000000
 40
125.5000000000000
100
AcDbArc
 50
13.79941616251804
 51
17.54747962854023
  0
ARC
  5
73
100
AcDbEntity
  8
A1
  6
CONTINUOUS
 62
7
100
AcDbCircle
 10
312.5174556572740
 20
124.1940355055969
 30
0.000000000000000
 40
0.2000000000000000
100
AcDbArc
 50
270.0000000000000
 51
373.7994161625135
  0
ARC
  5
74
100
AcDbEntity
  8
A1
  6
CONTINUOUS
 62
7
100
AcDbCircle
 10
310.0174552935734
 20
131.9940355055971
 30
0.000000000000000
 40
0.5000000000000000
100
AcDbArc
 50
17.37189086031926
 51
180.0000000000000
  0
LINE
  5
75
100
AcDbEntity
  8
A1
  6
CONTINUOUS
 62
7
100
AcDbLine
 10
309.5174552935734
 20
131.9940355055971
 30
0.000000000000000
 11
309.5174552935734
 21
131.7940355055969
 31
0.000000000000000
  0
LINE
  5
76
100
AcDbEntity
  8
A1
  6
CONTINUOUS
 62
7
100
AcDbLine
 10
289.3174548528079
 20
131.4940355055968
 30
0.000000000000000
 11
309.2174552935735
 21
131.4940355055968
 31
0.000000000000000
  0
LINE
  5
77
100
AcDbEntity
  8
A1
  6
CONTINUOUS
 62
7
100
AcDbLine
 10
289.0174548528164
 20
172.3002873728979
 30
0.000000000000000
 11
289.0174548528077
 21
131.7940355055970
 31
0.000000000000000
  0
LINE
  5
78
100
AcDbEntity
  8
A1
  6
CONTINUOUS
 62
7
100
AcDbLine
 10
299.6277648079936
 20
146.4921566888162
 30
0.000000000000000
 11
310.4155481286289
 21
132.2965616940131
 31
0.000000000000000
  0
ARC
  5
79
100
AcDbEntity
  8
A1
  6
CONTINUOUS
 62
7
100
AcDbCircle
 10
323.5133349113196
 20
164.6437279937778
 30
0.000000000000000
 40
30.00000000000000
100
AcDbArc
 50
199.2955540464310
 51
217.2124342832084
  0
LINE
  5
7A
100
AcDbEntity
  8
A1
  6
CONTINUOUS
 62
7
100
AcDbLine
 10
288.9893681505723
 20
172.4655079509188
 30
0.000000000000000
 11
295.1985370459844
 21
154.7304933125444
 31
0.000000000000000
  0
ARC
  5
7B
100
AcDbEntity
  8
A1
  6
CONTINUOUS
 62
7
100
AcDbCircle
 10
288.5174548528166
 20
172.3002873728980
 30
0.000000000000000
 40
0.5000000000000000
100
AcDbArc
 50
0.000000000000000
 51
38.60487084579882
  0
ARC
  5
7C
100
AcDbEntity
  8
A1
  6
CONTINUOUS
 62
7
100
AcDbCircle
 10
190.8340258331217
 20
94.30703320977025
 30
0.000000000000000
 40
125.5000000000000
100
AcDbArc
 50
38.60487084579698
 51
43.18308122935179
  0
ARC
  5
7D
100
AcDbEntity
  8
A1
  6
CONTINUOUS
 62
7
100
AcDbCircle
 10
267.7615383077170
 20
166.5040402424100
 30
0.000000000000000
 40
20.00000000000000
100
AcDbArc
 50
43.18308122935174
 51
88.01123466789431
  0
LINE
  5
7E
100
AcDbEntity
  8
A1
  6
CONTINUOUS
 62
7
100
AcDbLine
 10
77.97247599443648
 20
123.9940355055971
 30
0.000000000000000
 11
51.31745403880922
 21
123.9940355055971
 31
0.000000000000000
  0
ARC
  5
7F
100
AcDbEntity
  8
A1
  6
CONTINUOUS
 62
7
100
AcDbCircle
 10
51.31745403880922
 20
124.1940355055969
 30
0.000000000000000
 40
0.2000000000000000
100
AcDbArc
 50
166.2005838374865
 51
270.0000000000000
  0
ARC
  5
80
100
AcDbEntity
  8
A1
  6
CONTINUOUS
 62
7
100
AcDbCircle
 10
53.81745440250978
 20
131.9940355055971
 30
0.000000000000000
 40
0.5000000000000000
100
AcDbArc
 50
142.7673890337126
 51
162.6281091396807
  0
LINE
  5
81
100
AcDbEntity
  8
A1
  6
CONTINUOUS
 62
7
100
AcDbLine
 10
64.20714488808945
 20
146.4921566888164
 30
0.000000000000000
 11
53.41936156745400
 21
132.2965616940130
 31
0.000000000000000
  0
LINE
  5
82
100
AcDbEntity
  8
A1
  6
CONTINUOUS
 62
7
100
AcDbLine
 10
78.16267929274056
 20
124.1322135939895
 30
0.000000000000000
 11
90.20466312018911
 21
161.1936289746591
 31
0.000000000000000
  0
ARC
  5
83
100
AcDbEntity
  8
A1
  6
CONTINUOUS
 62
7
100
AcDbCircle
 10
77.97247400463283
 20
124.1940355055970
 30
0.000000000000000
 40
0.2000000000000000
100
AcDbArc
 50
270.0000000000000
 51
342.0000000000026
  0
ARC
  5
84
100
AcDbEntity
  8
A1
  6
CONTINUOUS
 62
7
100
AcDbCircle
 10
40.32157478476364
 20
164.6437279937778
 30
0.000000000000000
 40
30.00000000000000
100
AcDbArc
 50
322.7875657167916
 51
340.7044459535690
  0
LINE
  5
85
100
AcDbEntity
  8
A1
  6
CONTINUOUS
 62
7
100
AcDbLine
 10
74.84554154551091
 20
172.4655079509187
 30
0.000000000000000
 11
68.63637265009883
 21
154.7304933125443
 31
0.000000000000000
  0
ARC
  5
86
100
AcDbEntity
  8
A1
  6
CONTINUOUS
 62
7
100
AcDbCircle
 10
173.0008838629612
 20
94.30703320977025
 30
0.000000000000000
 40
125.5000000000000
100
AcDbArc
 50
136.8169187706481
 51
141.3951291542030
  0
ARC
  5
87
100
AcDbEntity
  8
A1
  6
CONTINUOUS
 62
7
100
AcDbCircle
 10
75.31745484326638
 20
172.3002873728980
 30
0.000000000000000
 40
0.5000000000000000
100
AcDbArc
 50
141.3951291542012
 51
160.7044459535703
  0
ARC
  5
88
100
AcDbEntity
  8
A1
  6
CONTINUOUS
 62
7
100
AcDbCircle
 10
95.43547395981244
 20
159.4940355055971
 30
0.000000000000000
 40
5.500000000000000
100
AcDbArc
 50
90.00000000000000
 51
162.0000000000005
  0
ARC
  5
89
100
AcDbEntity
  8
A1
  6
CONTINUOUS
 62
7
100
AcDbCircle
 10
96.07337138836596
 20
166.5040402424103
 30
0.000000000000000
 40
20.00000000000000
100
AcDbArc
 50
91.98876533210566
 51
136.8169187706481
  0
ARC
  5
8A
100
AcDbEntity
  8
A1
  6
CONTINUOUS
 62
7
100
AcDbCircle
 10
173.0008838629612
 20
94.30703320977025
 30
0.000000000000000
 40
125.5000000000000
100
AcDbArc
 50
162.4525203714598
 51
166.2005838374820
  0
CIRCLE
  5
8B
100
AcDbEntity
  8
A1
  6
CONTINUOUS
 62
7
100
AcDbCircle
 10
296.9174548480414
 20
73.49403550559705
 30
0.000000000000000
 40
4.350000000000000
  0
CIRCLE
  5
8C
100
AcDbEntity
  8
A1
  6
CONTINUOUS
 62
7
100
AcDbCircle
 10
66.91745484804113
 20
73.49403550559705
 30
0.000000000000000
 40
4.350000000000000
  0
ARC
  5
8D
100
AcDbEntity
  8
A1
  6
CONTINUOUS
 62
7
100
AcDbCircle
 10
309.2174552935735
 20
131.7940355055969
 30
0.000000000000000
 40
0.3000000000000000
100
AcDbArc
 50
270.0000000000000
 51
360.0000000000000
  0
ARC
  5
8E
100
AcDbEntity
  8
A1
  6
CONTINUOUS
 62
7
100
AcDbCircle
 10
289.3174548528079
 20
131.7940355055969
 30
0.000000000000000
 40
0.3000000000000000
100
AcDbArc
 50
180.0000000000000
 51
270.0000000000000
  0
ELLIPSE
  5
8F
100
AcDbEntity
  8
A1
  6
CONTINUOUS
 62
7
100
AcDbEllipse
 10
66.91745448537353
 20
238.4940355064219
 30
0.000000000000000
 11
12.59999963932887
 21
0.000000000000000
 31
0.000000000000000
210
0.000000000000000
220
0.000000000000000
230
1.000000000000000
 40
0.6269841733340259
 41
1.570796326794897
 42
4.712388980384690
  0
ARC
  5
90
100
AcDbEntity
  8
A1
  6
CONTINUOUS
 62
7
100
AcDbCircle
 10
66.91745448537375
 20
238.4940355064219
 30
0.000000000000000
 40
7.900000357873637
100
AcDbArc
 50
270.0000000000000
 51
450.0000000000000
  0
LINE
  5
91
100
AcDbEntity
  8
A1
  6
CONTINUOUS
 62
7
100
AcDbLine
 10
60.18096281266362
 20
227.9940355045949
 30
0.000000000000000
 11
303.6539468869199
 21
227.9940355064738
 31
0.000000000000000
  0
LINE
  5
92
100
AcDbEntity
  8
A1
  6
CONTINUOUS
 62
7
100
AcDbLine
 10
60.18096280581906
 20
248.9940355045949
 30
0.000000000000000
 11
303.6539468867619
 21
248.9940355064738
 31
0.000000000000000
  0
ARC
  5
93
100
AcDbEntity
  8
A1
  6
CONTINUOUS
 62
7
100
AcDbCircle
 10
303.6539468868157
 20
241.9940355064739
 30
0.000000000000000
 40
7.000000000000000
100
AcDbArc
 50
61.04497562856915
 51
90.00000000000000
  0
ARC
  5
94
100
AcDbEntity
  8
A1
  6
CONTINUOUS
 62
7
100
AcDbCircle
 10
303.6539468868657
 20
234.9940355064739
 30
0.000000000000000
 40
7.000000000000000
100
AcDbArc
 50
270.0000000000000
 51
298.9550243722683
  0
ARC
  5
95
100
AcDbEntity
  8
A1
  6
CONTINUOUS
 62
7
100
AcDbCircle
 10
60.18096280587287
 20
241.9940355045949
 30
0.000000000000000
 40
7.000000000000000
100
AcDbArc
 50
90.00000000000000
 51
118.9550244270009
  0
ARC
  5
96
100
AcDbEntity
  8
A1
  6
CONTINUOUS
 62
7
100
AcDbCircle
 10
60.18096281260972
 20
234.9940355045949
 30
0.000000000000000
 40
7.000000000000000
100
AcDbArc
 50
241.0449756832810
 51
270.0000000000000
  0
ARC
  5
97
100
AcDbEntity
  8
A1
  6
CONTINUOUS
 62
7
100
AcDbCircle
 10
296.9174552107086
 20
238.4940355064214
 30
0.000000000000000
 40
8.150000000000000
100
AcDbArc
 50
90.00000000000000
 51
270.0000000000000
  0
ELLIPSE
  5
98
100
AcDbEntity
  8
A1
  6
CONTINUOUS
 62
7
100
AcDbEllipse
 10
296.9174552107086
 20
238.4940355064212
 30
0.000000000000000
 11
12.34999999720276
 21
0.000000000000000
 31
0.000000000000000
210
0.000000000000000
220
0.000000000000000
230
1.000000000000000
 40
0.6599190284895490
 41
4.712388980384690
 42
1.570796326794897
  0
LINE
  5
99
100
AcDbEntity
  8
A1
  6
CONTINUOUS
 62
7
100
AcDbLine
 10
60.18111946516018
 20
62.99403550559705
 30
0.000000000000000
 11
303.6537902309224
 21
62.99403550559705
 31
0.000000000000000
  0
LINE
  5
9A
100
AcDbEntity
  8
A1
  6
CONTINUOUS
 62
7
100
AcDbLine
 10
60.18111946516018
 20
83.99403550559705
 30
0.000000000000000
 11
303.6537902309224
 21
83.99403550559705
 31
0.000000000000000
  0
ARC
  5
9B
100
AcDbEntity
  8
A1
  6
CONTINUOUS
 62
7
100
AcDbCircle
 10
296.2172985576246
 20
73.49403550559705
 30
0.000000000000000
 40
10.50000000000000
100
AcDbArc
 50
90.00000000000000
 51
270.0000000000000
  0
ARC
  5
9C
100
AcDbEntity
  8
A1
  6
CONTINUOUS
 62
7
100
AcDbCircle
 10
303.6537902309224
 20
76.99403550559705
 30
0.000000000000000
 40
7.000000000000000
100
AcDbArc
 50
61.04497559916152
 51
90.00000000000000
  0
ARC
  5
9D
100
AcDbEntity
  8
A1
  6
CONTINUOUS
 62
7
100
AcDbCircle
 10
303.6537902309224
 20
69.99403550559705
 30
0.000000000000000
 40
7.000000000000000
100
AcDbArc
 50
270.0000000000000
 51
298.9550244008385
  0
ARC
  5
9E
100
AcDbEntity
  8
A1
  6
CONTINUOUS
 62
7
100
AcDbCircle
 10
60.18111946516018
 20
69.99403550559705
 30
0.000000000000000
 40
7.000000000000000
100
AcDbArc
 50
241.0449755991616
 51
270.0000000000000
  0
ARC
  5
9F
100
AcDbEntity
  8
A1
  6
CONTINUOUS
 62
7
100
AcDbCircle
 10
60.18111946516018
 20
76.99403550559705
 30
0.000000000000000
 40
7.000000000000000
100
AcDbArc
 50
90.00000000000000
 51
118.9550244008385
  0
ARC
  5
A0
100
AcDbEntity
  8
A1
  6
CONTINUOUS
 62
7
100
AcDbCircle
 10
67.61761113845813
 20
73.49403550559705
 30
0.000000000000000
 40
10.50000000000000
100
AcDbArc
 50
270.0000000000000
 51
450.0000000000000
  0
CIRCLE
  5
A1
100
AcDbEntity
  8
A1
  6
CONTINUOUS
 62
7
100
AcDbCircle
 10
296.9174548480414
 20
73.49403550559705
 30
0.000000000000000
 40
8.699999999999999
  0
CIRCLE
  5
A2
100
AcDbEntity
  8
A1
  6
CONTINUOUS
 62
7
100
AcDbCircle
 10
66.91745484804113
 20
73.49403550559705
 30
0.000000000000000
 40
8.699999999999999
  0
LINE
  5
A3
100
AcDbEntity
  8
A1
  6
CONTINUOUS
 62
7
100
AcDbLine
 10
352.9172985566242
 20
123.9940355055971
 30
0.000000000000000
 11
373.5172985566242
 21
123.9940355055971
 31
0.000000000000000
  0
ARC
  5
A4
100
AcDbEntity
  8
A1
  6
CONTINUOUS
 62
7
100
AcDbCircle
 10
363.2172985566197
 20
177.9940355048065
 30
0.000000000000000
 40
10.00000000000000
100
AcDbArc
 50
74.11894980650267
 51
105.8810501934677
  0
ARC
  5
A5
100
AcDbEntity
  8
A1
  6
CONTINUOUS
 62
7
100
AcDbCircle
 10
363.4909396773639
 20
178.9558673700707
 30
0.000000000000000
 40
9.000000000000000
100
AcDbArc
 50
25.42780479888966
 51
74.11894980650267
  0
ARC
  5
A6
100
AcDbEntity
  8
A1
  6
CONTINUOUS
 62
7
100
AcDbCircle
 10
362.9436574358842
 20
178.9558673700707
 30
0.000000000000000
 40
9.000000000000000
100
AcDbArc
 50
105.8810501934973
 51
156.7188930714605
  0
LINE
  5
A7
100
AcDbEntity
  8
A4
  6
CENTER
 62
1
100
AcDbLine
 10
374.8172985566262
 20
175.4940355048404
 30
0.000000000000000
 11
351.6172985566238
 21
175.4940355048404
 31
0.000000000000000
  0
LINE
  5
A8
100
AcDbEntity
  8
A4
  6
CENTER
 62
1
100
AcDbLine
 10
363.2172985566242
 20
122.4940355055971
 30
0.000000000000000
 11
363.2172985566242
 21
189.4940355048342
 31
0.000000000000000
  0
LINE
  5
A9
100
AcDbEntity
  8
A1
  6
CONTINUOUS
 62
7
100
AcDbLine
 10
352.7172985566242
 20
124.1940355055971
 30
0.000000000000000
 11
352.7172985566242
 21
175.4940355048404
 31
0.000000000000000
  0
LINE
  5
AA
100
AcDbEntity
  8
A1
  6
CONTINUOUS
 62
7
100
AcDbLine
 10
373.7172985566242
 20
124.1940355055971
 30
0.000000000000000
 11
373.7172985566242
 21
175.4940355048404
 31
0.000000000000000
  0
ARC
  5
AB
100
AcDbEntity
  8
A1
  6
CONTINUOUS
 62
7
100
AcDbCircle
 10
373.5172985566242
 20
124.1940355055971
 30
0.000000000000000
 40
0.2000000000000000
100
AcDbArc
 50
270.0000000000000
 51
360.0000000000000
  0
ARC
  5
AC
100
AcDbEntity
  8
A1
  6
CONTINUOUS
 62
7
100
AcDbCircle
 10
352.9172985566242
 20
124.1940355055971
 30
0.000000000000000
 40
0.2000000000000000
100
AcDbArc
 50
180.0000000000000
 51
270.0000000000000
  0
ARC
  5
AD
100
AcDbEntity
  8
A1
  6
CONTINUOUS
 62
7
100
AcDbCircle
 10
344.5252720349122
 20
169.9390247477317
 30
0.000000000000000
 40
30.00000000000000
100
AcDbArc
 50
16.55121827768229
 51
25.42780479888894
  0
ARC
  5
AE
100
AcDbEntity
  8
A1
  6
CONTINUOUS
 62
7
100
AcDbCircle
 10
400.6053046399691
 20
162.7509196726839
 30
0.000000000000000
 40
50.00000000000000
100
AcDbArc
 50
156.7188930714605
 51
161.1791277992934
  0
ARC
  5
AF
100
AcDbEntity
  8
A1
  6
CONTINUOUS
 62
7
100
AcDbCircle
 10
363.2172985566251
 20
175.4940355048404
 30
0.000000000000000
 40
10.50000000000102
100
AcDbArc
 50
0.000000000000000
 51
16.55121827768112
  0
ARC
  5
B0
100
AcDbEntity
  8
A3
  6
DASHED
 62
2
100
AcDbCircle
 10
363.2172985566251
 20
175.4940355048404
 30
0.000000000000000
 40
10.50000000000102
100
AcDbArc
 50
180.0000000000000
 51
360.0000000000000
  0
ARC
  5
B1
100
AcDbEntity
  8
A1
  6
CONTINUOUS
 62
7
100
AcDbCircle
 10
363.2172985566251
 20
175.4940355048404
 30
0.000000000000000
 40
10.50000000000102
100
AcDbArc
 50
161.1791277992934
 51
180.0000000000000
  0
INSERT
  5
DA
100
AcDbEntity
  8
A2
  6
CONTINUOUS
 62
4
100
AcDbBlockReference
  2
*X0
 10
0.000000000000000
 20
0.000000000000000
 30
0.000000000000000
 50
0.000000000000000
  0
ENDSEC
  0
SECTION
  2
OBJECTS
  0
DICTIONARY
  5
108
100
AcDbDictionary
  3
ACAD_GROUP
350
109
  3
ACAD_LAYOUT
350
10A
  3
ACAD_MLINESTYLE
350
10B
  0
DICTIONARY
  5
109
102
{ACAD_REACTORS
330
108
102
}
330
108
100
AcDbDictionary
  0
DICTIONARY
  5
10A
102
{ACAD_REACTORS
330
108
102
}
330
108
100
AcDbDictionary
  3
Model
350
10C
  3
ﾚｲｱｳﾄ1
350
10D
  3
ﾚｲｱｳﾄ2
350
10E
  0
DICTIONARY
  5
10B
102
{ACAD_REACTORS
330
108
102
}
330
108
100
AcDbDictionary
  3
STANDARD
350
10F
  0
LAYOUT
  5
10C
102
{ACAD_REACTORS
330
10A
102
}
330
10A
100
AcDbPlotSettings
 70
11952
  4
A3
 44
297.000000
 45
420.000000
 73
  1
 72
  1
100
AcDbLayout
  1
Model
 71
0
330
FE
  0
LAYOUT
  5
10D
102
{ACAD_REACTORS
330
10A
102
}
330
10A
100
AcDbPlotSettings
100
AcDbLayout
  1
ﾚｲｱｳﾄ1
 71
1
330
FF
  0
LAYOUT
  5
10E
102
{ACAD_REACTORS
330
10A
102
}
330
10A
100
AcDbPlotSettings
100
AcDbLayout
  1
ﾚｲｱｳﾄ2
 71
2
330
100
  0
MLINESTYLE
  5
10F
102
{ACAD_REACTORS
330
10B
102
}
330
10B
100
AcDbMlineStyle
  2
STANDARD
 70
     0
  3

 62
   256
 51
90.00
 52
90.00
 71
     2
 49
0.50
 62
   256
  6
BYLAYER
 49
-0.50
 62
   256
  6
BYLAYER
  0
ENDSEC
  0
EOF
