  0
SECTION
  2
HEADER
  9
$ACADVER
  1
AC1015
  9
$DWGCODEPAGE
  3
ANSI_932
  9
$LTSCALE
 40
20.0
  9
$FILLMODE
 70
     1
  9
$CLAYER
  8
0
  9
$PDMODE
 70
     0
  9
$SPLFRAME
 70
     0
  9
$SPLINETYPE
 70
     6
  9
$SPLINESEGS
 70
     8
  9
$DIMASZ
 40
2.000000
  9
$DIMEXE
 40
1.500000
  9
$DIMEXO
 40
0.800000
  9
$DIMTAD
 70
     1
  9
$DIMTIH
 70
     0
  9
$DIMTOH
 70
     0
  9
$DIMTVP
 40
0.500000
  9
$DIMTXT
 40
3.100000
  9
$EXTMIN
 10
0.000000
 20
0.000000
 30
0.000000
  9
$EXTMAX
 10
297.000000
 20
420.000000
 30
0.000000
  9
$MEASUREMENT
 70
  1
  9
$LIMMIN
 10
0.000000
 20
0.000000
  9
$LIMMAX
 10
297.000000
 20
420.000000
  9
$HANDSEED
  5
134
  9
$LWDISPLAY
290
     0
  9
$DIMBLK
  1
_OPEN
  9
$DIMDEC
 70
     2
  9
$DIMADEC
 70
     2
  9
$DIMAUNIT
 70
     0
  9
$DIMZIN
 70
     8
  9
$DIMAZIN
 70
     2
  9
$DIMTOFL
 70
     1
  0
ENDSEC
  0
SECTION
  2
CLASSES
  0
ENDSEC
  0
SECTION
  2
TABLES
  0
TABLE
  2
VPORT
  5
FB
100
AcDbSymbolTable
 70
     1
  0
VPORT
  5
FC
100
AcDbSymbolTableRecord
100
AcDbViewportTableRecord
  2
*ACTIVE
 70
     0
 12
185.828630
 22
184.886841
 40
333.773680
 41
1.053580
  0
ENDTAB
  0
TABLE
  2
LTYPE
  5
FD
100
AcDbSymbolTable
 70
     3
  0
LTYPE
  5
FE
100
AcDbSymbolTableRecord
100
AcDbLinetypeTableRecord
  2
BYBLOCK
 70
     0
  3

 72
    65
 73
     0
 40
0.0
  0
LTYPE
  5
FF
100
AcDbSymbolTableRecord
100
AcDbLinetypeTableRecord
  2
BYLAYER
 70
     0
  3

 72
    65
 73
     0
 40
0.0
  0
LTYPE
  5
100
100
AcDbSymbolTableRecord
100
AcDbLinetypeTableRecord
  2
CONTINUOUS
 70
     0
  3
Solid line (NEC CAE2D for Win R18.0 : 2025.12.03)
 72
    65
 73
     0
 40
0.0
  0
LTYPE
  5
101
100
AcDbSymbolTableRecord
100
AcDbLinetypeTableRecord
  2
DASHED
 70
     0
  3
__ __ __ __ __ __ __ __ __ __ __ __ __ _
 72
    65
 73
     2
 40
0.75
 49
0.5
 74
     0
 49
-0.25
 74
     0
  0
LTYPE
  5
102
100
AcDbSymbolTableRecord
100
AcDbLinetypeTableRecord
  2
CENTER
 70
     0
  3
____ _ ____ _ ____ _ ____ _ ____ _ ____
 72
    65
 73
     4
 40
2.0
 49
1.25
 74
     0
 49
-0.25
 74
     0
 49
0.25
 74
     0
 49
-0.25
 74
     0
  0
ENDTAB
  0
TABLE
  2
LAYER
  5
103
100
AcDbSymbolTable
 70
    18
  0
LAYER
  5
104
100
AcDbSymbolTableRecord
100
AcDbLayerTableRecord
  2
0
 70
     0
 62
     7
  6
CONTINUOUS
370
    -3
390

  0
LAYER
  5
105
100
AcDbSymbolTableRecord
100
AcDbLayerTableRecord
  2
A0
 70
     0
 62
     7
  6
CONTINUOUS
370
    -3
390

  0
LAYER
  5
106
100
AcDbSymbolTableRecord
100
AcDbLayerTableRecord
  2
A1
 70
     0
 62
    12
  6
CONTINUOUS
370
    -3
390

  0
LAYER
  5
107
100
AcDbSymbolTableRecord
100
AcDbLayerTableRecord
  2
A3
 70
     0
 62
    12
  6
CONTINUOUS
370
    -3
390

  0
LAYER
  5
108
100
AcDbSymbolTableRecord
100
AcDbLayerTableRecord
  2
A4
 70
     0
 62
     9
  6
CONTINUOUS
370
    -3
390

  0
LAYER
  5
109
100
AcDbSymbolTableRecord
100
AcDbLayerTableRecord
  2
A5
 70
     0
 62
     8
  6
CONTINUOUS
370
    -3
390

  0
LAYER
  5
10A
100
AcDbSymbolTableRecord
100
AcDbLayerTableRecord
  2
A6
 70
     0
 62
    12
  6
CONTINUOUS
370
    -3
390

  0
LAYER
  5
10B
100
AcDbSymbolTableRecord
100
AcDbLayerTableRecord
  2
A7
 70
     0
 62
    11
  6
CONTINUOUS
370
    -3
390

  0
LAYER
  5
10C
100
AcDbSymbolTableRecord
100
AcDbLayerTableRecord
  2
A8
 70
     0
 62
    10
  6
CONTINUOUS
370
    -3
390

  0
LAYER
  5
10D
100
AcDbSymbolTableRecord
100
AcDbLayerTableRecord
  2
A9
 70
     0
 62
     9
  6
CONTINUOUS
370
    -3
390

  0
LAYER
  5
10E
100
AcDbSymbolTableRecord
100
AcDbLayerTableRecord
  2
A10
 70
     0
 62
     6
  6
CONTINUOUS
370
    -3
390

  0
LAYER
  5
10F
100
AcDbSymbolTableRecord
100
AcDbLayerTableRecord
  2
A11
 70
     0
 62
    10
  6
CONTINUOUS
370
    -3
390

  0
LAYER
  5
110
100
AcDbSymbolTableRecord
100
AcDbLayerTableRecord
  2
A12
 70
     0
 62
    13
  6
CONTINUOUS
370
    -3
390

  0
LAYER
  5
111
100
AcDbSymbolTableRecord
100
AcDbLayerTableRecord
  2
A20
 70
     0
 62
     1
  6
CONTINUOUS
370
    -3
390

  0
LAYER
  5
112
100
AcDbSymbolTableRecord
100
AcDbLayerTableRecord
  2
A30
 70
     0
 62
     1
  6
CONTINUOUS
370
    -3
390

  0
LAYER
  5
113
100
AcDbSymbolTableRecord
100
AcDbLayerTableRecord
  2
A40
 70
     0
 62
     9
  6
CONTINUOUS
370
    -3
390

  0
LAYER
  5
114
100
AcDbSymbolTableRecord
100
AcDbLayerTableRecord
  2
A50
 70
     0
 62
    12
  6
CONTINUOUS
370
    -3
390

  0
LAYER
  5
115
100
AcDbSymbolTableRecord
100
AcDbLayerTableRecord
  2
A1023
 70
     0
 62
    16
  6
CONTINUOUS
370
    -3
390

  0
ENDTAB
  0
TABLE
  2
STYLE
  5
116
100
AcDbSymbolTable
 70
     4
  0
STYLE
  5
117
100
AcDbSymbolTableRecord
100
AcDbTextStyleTableRecord
  2
STANDARD
 70
    64
 40
0.0
 41
1.0
 50
0.0
 71
     0
 42
3.000000000000000
  3
TXT
  4

  0
STYLE
  5
118
100
AcDbSymbolTableRecord
100
AcDbTextStyleTableRecord
  2
ANKTATE
 70
    68
 40
0.0
 41
1.0
 50
0.0
 71
     0
 42
3.000000000000000
  3
TXT
  4

  0
STYLE
  5
119
100
AcDbSymbolTableRecord
100
AcDbTextStyleTableRecord
  2
KNJYOKO
 70
    64
 40
0.0
 41
1.0
 50
0.0
 71
     0
 42
3.000000000000000
  3
TXT
  4
BIGFONT
  0
STYLE
  5
11A
100
AcDbSymbolTableRecord
100
AcDbTextStyleTableRecord
  2
KNJTATE
 70
    68
 40
0.0
 41
1.0
 50
0.0
 71
     0
 42
3.000000000000000
  3
TXT
  4
BIGFONT
  0
ENDTAB
  0
TABLE
  2
VIEW
  5
11B
100
AcDbSymbolTable
 70
     0
  0
ENDTAB
  0
TABLE
  2
UCS
  5
11C
100
AcDbSymbolTable
 70
     0
  0
ENDTAB
  0
TABLE
  2
APPID
  5
11D
100
AcDbSymbolTable
 70
     1
  0
APPID
  5
11E
100
AcDbSymbolTableRecord
100
AcDbRegAppTableRecord
  2
ACAD
 70
     0
  0
ENDTAB
  0
TABLE
  2
DIMSTYLE
  5
11F
100
AcDbSymbolTable
 70
     2
100
AcDbDimStyleTable
  0
DIMSTYLE
105
120
100
AcDbSymbolTableRecord
100
AcDbDimStyleTableRecord
  2
STANDARD
 70
     0
 41
2.000000
 44
1.500000
 42
0.800000
145
0.661290
140
3.100000
144
1.000000
146
0.645161
340
117
  0
DIMSTYLE
105
121
100
AcDbSymbolTableRecord
100
AcDbDimStyleTableRecord
  2
A001
 70
     0
 41
2.000000
 44
1.500000
 42
0.800000
145
0.661290
140
3.100000
144
1.000000
146
0.645161
 77
     1
 73
     0
 74
     0
271
     2
179
     2
275
     0
 78
     8
 79
     2
172
     1
340
117
  0
ENDTAB
  0
TABLE
  2
BLOCK_RECORD
  5
122
100
AcDbSymbolTable
 70
    12
  0
BLOCK_RECORD
  5
123
100
AcDbSymbolTableRecord
100
AcDbBlockTableRecord
  2
*MODEL_SPACE
  0
BLOCK_RECORD
  5
124
100
AcDbSymbolTableRecord
100
AcDbBlockTableRecord
  2
*PAPER_SPACE
  0
BLOCK_RECORD
  5
125
100
AcDbSymbolTableRecord
100
AcDbBlockTableRecord
  2
*PAPER_SPACE0
  0
BLOCK_RECORD
  5
1
100
AcDbSymbolTableRecord
100
AcDbBlockTableRecord
  2
_NONE
  0
BLOCK_RECORD
  5
4
100
AcDbSymbolTableRecord
100
AcDbBlockTableRecord
  2
_CLOSED
  0
BLOCK_RECORD
  5
B
100
AcDbSymbolTableRecord
100
AcDbBlockTableRecord
  2
_DOT
  0
BLOCK_RECORD
  5
13
100
AcDbSymbolTableRecord
100
AcDbBlockTableRecord
  2
_OPEN
  0
BLOCK_RECORD
  5
19
100
AcDbSymbolTableRecord
100
AcDbBlockTableRecord
  2
_ORIGIN
  0
BLOCK_RECORD
  5
1E
100
AcDbSymbolTableRecord
100
AcDbBlockTableRecord
  2
_OPEN30
  0
BLOCK_RECORD
  5
24
100
AcDbSymbolTableRecord
100
AcDbBlockTableRecord
  2
_BOXFILLED
  0
BLOCK_RECORD
  5
29
100
AcDbSymbolTableRecord
100
AcDbBlockTableRecord
  2
_BOXBLANK
  0
BLOCK_RECORD
  5
31
100
AcDbSymbolTableRecord
100
AcDbBlockTableRecord
  2
_OBLIQUE
  0
BLOCK_RECORD
  5
35
100
AcDbSymbolTableRecord
100
AcDbBlockTableRecord
  2
_OPEN90
  0
BLOCK_RECORD
  5
3B
100
AcDbSymbolTableRecord
100
AcDbBlockTableRecord
  2
_CLOSEDBLANK
  0
BLOCK_RECORD
  5
41
100
AcDbSymbolTableRecord
100
AcDbBlockTableRecord
  2
_DOTBLANK
  0
ENDTAB
  0
ENDSEC
  0
SECTION
  2
BLOCKS
  0
BLOCK
  5
126
100
AcDbEntity
  8
0
100
AcDbBlockBegin
  2
*MODEL_SPACE
 70
     0
 10
0.0
 20
0.0
 30
0.0
  3
*MODEL_SPACE
  1

  0
ENDBLK
  5
127
100
AcDbEntity
  8
0
100
AcDbBlockEnd
  0
BLOCK
  5
128
100
AcDbEntity
  8
0
100
AcDbBlockBegin
  2
*PAPER_SPACE
 70
     0
 10
0.0
 20
0.0
 30
0.0
  3
*PAPER_SPACE
  1

  0
ENDBLK
  5
129
100
AcDbEntity
  8
0
100
AcDbBlockEnd
  0
BLOCK
  5
12A
100
AcDbEntity
  8
0
100
AcDbBlockBegin
  2
*PAPER_SPACE0
 70
     0
 10
0.0
 20
0.0
 30
0.0
  3
*PAPER_SPACE0
  1

  0
ENDBLK
  5
12B
100
AcDbEntity
  8
0
100
AcDbBlockEnd
  0
BLOCK
  5
2
330
1
100
AcDbEntity
  8
0
100
AcDbBlockBegin
  2
_NONE
 70
     0
 10
0.0
 20
0.0
 30
0.0
  3
_NONE
  1

  0
ENDBLK
  5
3
330
1
100
AcDbEntity
  8
0
100
AcDbBlockEnd
  0
BLOCK
  5
5
330
4
100
AcDbEntity
  8
0
100
AcDbBlockBegin
  2
_CLOSED
 70
     0
 10
0.0
 20
0.0
 30
0.0
  3
_CLOSED
  1

  0
LINE
  5
6
330
4
100
AcDbEntity
  8
0
  6
BYBLOCK
 62
     0
370
    -2
100
AcDbLine
 10
-1.0
 20
0.166667
 30
0.0
 11
0.0
 21
0.0
 31
0.0
  0
LINE
  5
7
330
4
100
AcDbEntity
  8
0
  6
BYBLOCK
 62
     0
370
    -2
100
AcDbLine
 10
0.0
 20
0.0
 30
0.0
 11
-1.0
 21
-0.166667
 31
0.0
  0
LINE
  5
8
330
4
100
AcDbEntity
  8
0
  6
BYBLOCK
 62
     0
370
    -2
100
AcDbLine
 10
-1.0
 20
0.166667
 30
0.0
 11
-1.0
 21
-0.166667
 31
0.0
  0
LINE
  5
9
330
4
100
AcDbEntity
  8
0
  6
BYBLOCK
 62
     0
370
    -2
100
AcDbLine
 10
0.0
 20
0.0
 30
0.0
 11
-1.0
 21
0.0
 31
0.0
  0
ENDBLK
  5
A
330
4
100
AcDbEntity
  8
0
100
AcDbBlockEnd
  0
BLOCK
  5
C
330
B
100
AcDbEntity
  8
0
100
AcDbBlockBegin
  2
_DOT
 70
     0
 10
0.0
 20
0.0
 30
0.0
  3
_DOT
  1

  0
POLYLINE
  5
D
330
B
100
AcDbEntity
  8
0
  6
BYBLOCK
 62
     0
370
    -2
100
AcDb2dPolyline
 66
     1
 10
0.0
 20
0.0
 30
0.0
 70
     1
 40
0.5
 41
0.5
  0
VERTEX
  5
E
330
B
100
AcDbEntity
  8
0
  6
BYBLOCK
 62
     0
370
    -2
100
AcDbVertex
100
AcDb2dVertex
 10
-0.25
 20
0.0
 30
0.0
 42
1.0
  0
VERTEX
  5
F
330
B
100
AcDbEntity
  8
0
  6
BYBLOCK
 62
     0
370
    -2
100
AcDbVertex
100
AcDb2dVertex
 10
0.25
 20
0.0
 30
0.0
 42
1.0
  0
SEQEND
  5
10
330
B
100
AcDbEntity
  8
0
  6
BYBLOCK
 62
     0
370
    -2
  0
LINE
  5
11
330
B
100
AcDbEntity
  8
0
  6
BYBLOCK
 62
     0
370
    -2
100
AcDbLine
 10
-0.5
 20
0.0
 30
0.0
 11
-1.0
 21
0.0
 31
0.0
  0
ENDBLK
  5
12
330
B
100
AcDbEntity
  8
0
100
AcDbBlockEnd
  0
BLOCK
  5
14
330
13
100
AcDbEntity
  8
0
100
AcDbBlockBegin
  2
_OPEN
 70
     0
 10
0.0
 20
0.0
 30
0.0
  3
_OPEN
  1

  0
LINE
  5
15
330
13
100
AcDbEntity
  8
0
  6
BYBLOCK
 62
     0
370
    -2
100
AcDbLine
 10
-1.0
 20
0.166667
 30
0.0
 11
0.0
 21
0.0
 31
0.0
  0
LINE
  5
16
330
13
100
AcDbEntity
  8
0
  6
BYBLOCK
 62
     0
370
    -2
100
AcDbLine
 10
0.0
 20
0.0
 30
0.0
 11
-1.0
 21
-0.166667
 31
0.0
  0
LINE
  5
17
330
13
100
AcDbEntity
  8
0
  6
BYBLOCK
 62
     0
370
    -2
100
AcDbLine
 10
0.0
 20
0.0
 30
0.0
 11
-1.0
 21
0.0
 31
0.0
  0
ENDBLK
  5
18
330
13
100
AcDbEntity
  8
0
100
AcDbBlockEnd
  0
BLOCK
  5
1A
330
19
100
AcDbEntity
  8
0
100
AcDbBlockBegin
  2
_ORIGIN
 70
     0
 10
0.0
 20
0.0
 30
0.0
  3
_ORIGIN
  1

  0
CIRCLE
  5
1B
330
19
100
AcDbEntity
  8
0
  6
BYBLOCK
 62
     0
370
    -2
100
AcDbCircle
 10
0.0
 20
0.0
 30
0.0
 40
0.5
  0
LINE
  5
1C
330
19
100
AcDbEntity
  8
0
  6
BYBLOCK
 62
     0
370
    -2
100
AcDbLine
 10
0.0
 20
0.0
 30
0.0
 11
-1.0
 21
0.0
 31
0.0
  0
ENDBLK
  5
1D
330
19
100
AcDbEntity
  8
0
100
AcDbBlockEnd
  0
BLOCK
  5
1F
330
1E
100
AcDbEntity
  8
0
100
AcDbBlockBegin
  2
_OPEN30
 70
     0
 10
0.0
 20
0.0
 30
0.0
  3
_OPEN30
  1

  0
LINE
  5
20
330
1E
100
AcDbEntity
  8
0
  6
BYBLOCK
 62
     0
370
    -2
100
AcDbLine
 10
-1.0
 20
0.267949
 30
0.0
 11
0.0
 21
0.0
 31
0.0
  0
LINE
  5
21
330
1E
100
AcDbEntity
  8
0
  6
BYBLOCK
 62
     0
370
    -2
100
AcDbLine
 10
0.0
 20
0.0
 30
0.0
 11
-1.0
 21
-0.267949
 31
0.0
  0
LINE
  5
22
330
1E
100
AcDbEntity
  8
0
  6
BYBLOCK
 62
     0
370
    -2
100
AcDbLine
 10
0.0
 20
0.0
 30
0.0
 11
-1.0
 21
0.0
 31
0.0
  0
ENDBLK
  5
23
330
1E
100
AcDbEntity
  8
0
100
AcDbBlockEnd
  0
BLOCK
  5
25
330
24
100
AcDbEntity
  8
0
100
AcDbBlockBegin
  2
_BOXFILLED
 70
     0
 10
0.0
 20
0.0
 30
0.0
  3
_BOXFILLED
  1

  0
SOLID
  5
26
330
24
100
AcDbEntity
  8
0
  6
BYBLOCK
 62
     0
370
    -2
100
AcDbTrace
 10
-0.5
 20
0.5
 30
0.0
 11
0.5
 21
0.5
 31
0.0
 12
-0.5
 22
-0.5
 32
0.0
 13
0.5
 23
-0.5
 33
0.0
  0
LINE
  5
27
330
24
100
AcDbEntity
  8
0
  6
BYBLOCK
 62
     0
370
    -2
100
AcDbLine
 10
-0.5
 20
0.0
 30
0.0
 11
-1.0
 21
0.0
 31
0.0
  0
ENDBLK
  5
28
330
24
100
AcDbEntity
  8
0
100
AcDbBlockEnd
  0
BLOCK
  5
2A
330
29
100
AcDbEntity
  8
0
100
AcDbBlockBegin
  2
_BOXBLANK
 70
     0
 10
0.0
 20
0.0
 30
0.0
  3
_BOXBLANK
  1

  0
LINE
  5
2B
330
29
100
AcDbEntity
  8
0
  6
BYBLOCK
 62
     0
370
    -2
100
AcDbLine
 10
-0.5
 20
-0.5
 30
0.0
 11
0.5
 21
-0.5
 31
0.0
  0
LINE
  5
2C
330
29
100
AcDbEntity
  8
0
  6
BYBLOCK
 62
     0
370
    -2
100
AcDbLine
 10
0.5
 20
-0.5
 30
0.0
 11
0.5
 21
0.5
 31
0.0
  0
LINE
  5
2D
330
29
100
AcDbEntity
  8
0
  6
BYBLOCK
 62
     0
370
    -2
100
AcDbLine
 10
0.5
 20
0.5
 30
0.0
 11
-0.5
 21
0.5
 31
0.0
  0
LINE
  5
2E
330
29
100
AcDbEntity
  8
0
  6
BYBLOCK
 62
     0
370
    -2
100
AcDbLine
 10
-0.5
 20
0.5
 30
0.0
 11
-0.5
 21
-0.5
 31
0.0
  0
LINE
  5
2F
330
29
100
AcDbEntity
  8
0
  6
BYBLOCK
 62
     0
370
    -2
100
AcDbLine
 10
-0.5
 20
0.0
 30
0.0
 11
-1.0
 21
0.0
 31
0.0
  0
ENDBLK
  5
30
330
29
100
AcDbEntity
  8
0
100
AcDbBlockEnd
  0
BLOCK
  5
32
330
31
100
AcDbEntity
  8
0
100
AcDbBlockBegin
  2
_OBLIQUE
 70
     0
 10
0.0
 20
0.0
 30
0.0
  3
_OBLIQUE
  1

  0
LINE
  5
33
330
31
100
AcDbEntity
  8
0
  6
BYBLOCK
 62
     0
370
    -2
100
AcDbLine
 10
-0.5
 20
-0.5
 30
0.0
 11
0.5
 21
0.5
 31
0.0
  0
ENDBLK
  5
34
330
31
100
AcDbEntity
  8
0
100
AcDbBlockEnd
  0
BLOCK
  5
36
330
35
100
AcDbEntity
  8
0
100
AcDbBlockBegin
  2
_OPEN90
 70
     0
 10
0.0
 20
0.0
 30
0.0
  3
_OPEN90
  1

  0
LINE
  5
37
330
35
100
AcDbEntity
  8
0
  6
BYBLOCK
 62
     0
370
    -2
100
AcDbLine
 10
-0.5
 20
0.5
 30
0.0
 11
0.0
 21
0.0
 31
0.0
  0
LINE
  5
38
330
35
100
AcDbEntity
  8
0
  6
BYBLOCK
 62
     0
370
    -2
100
AcDbLine
 10
0.0
 20
0.0
 30
0.0
 11
-0.5
 21
-0.5
 31
0.0
  0
LINE
  5
39
330
35
100
AcDbEntity
  8
0
  6
BYBLOCK
 62
     0
370
    -2
100
AcDbLine
 10
0.0
 20
0.0
 30
0.0
 11
-1.0
 21
0.0
 31
0.0
  0
ENDBLK
  5
3A
330
35
100
AcDbEntity
  8
0
100
AcDbBlockEnd
  0
BLOCK
  5
3C
330
3B
100
AcDbEntity
  8
0
100
AcDbBlockBegin
  2
_CLOSEDBLANK
 70
     0
 10
0.0
 20
0.0
 30
0.0
  3
_CLOSEDBLANK
  1

  0
LINE
  5
3D
330
3B
100
AcDbEntity
  8
0
  6
BYBLOCK
 62
     0
370
    -2
100
AcDbLine
 10
-1.0
 20
0.1666666666666666
 30
0.0
 11
0.0
 21
0.0
 31
0.0
  0
LINE
  5
3E
330
3B
100
AcDbEntity
  8
0
  6
BYBLOCK
 62
     0
370
    -2
100
AcDbLine
 10
0.0
 20
0.0
 30
0.0
 11
-1.0
 21
-0.1666666666666666
 31
0.0
  0
LINE
  5
3F
330
3B
100
AcDbEntity
  8
0
  6
BYBLOCK
 62
     0
370
    -2
100
AcDbLine
 10
-1.0
 20
0.1666666666666666
 30
0.0
 11
-1.0
 21
-0.1666666666666666
 31
0.0
  0
ENDBLK
  5
40
330
3B
100
AcDbEntity
  8
0
100
AcDbBlockEnd
  0
BLOCK
  5
42
330
41
100
AcDbEntity
  8
0
100
AcDbBlockBegin
  2
_DOTBLANK
 70
     0
 10
0.0
 20
0.0
 30
0.0
  3
_DOTBLANK
  1

  0
CIRCLE
  5
43
330
41
100
AcDbEntity
  8
0
  6
BYBLOCK
 62
     0
370
    -2
100
AcDbCircle
 10
0.0
 20
0.0
 30
0.0
 40
0.5
  0
LINE
  5
44
330
41
100
AcDbEntity
  8
0
  6
BYBLOCK
 62
     0
370
    -2
100
AcDbLine
 10
-0.5
 20
0.0
 30
0.0
 11
-1.0
 21
0.0
 31
0.0
  0
ENDBLK
  5
45
330
41
100
AcDbEntity
  8
0
100
AcDbBlockEnd
  0
ENDSEC
  0
SECTION
  2
ENTITIES
  0
MTEXT
  5
46
100
AcDbEntity
  8
A7
  6
CONTINUOUS
 62
3
100
AcDbMText
 10
9.999997526638502
 20
18.00000076076889
 30
0.000000000000000
 40
3.000000000000000
 41
0.000000000000000
 44
0.6739999771118164
 71
     7
 72
     1
  1
{\H0.94x;{TYPE No.THA-477SUS}}
 11
1.000000000000000
 21
0.000000000000000
 31
0.000000000000000
  7
STANDARD
  0
POINT
  5
47
100
AcDbEntity
  8
A10
  6
CONTINUOUS
 62
3
100
AcDbPoint
 10
9.999997526638502
 20
18.00000076076889
 30
0.000000000000000
  0
ARC
  5
48
100
AcDbEntity
  8
A1
  6
CONTINUOUS
 62
7
100
AcDbCircle
 10
234.8650053810251
 20
340.2736809759080
 30
0.000000000000000
 40
10.00000000000000
100
AcDbArc
 50
0.000000000000000
 51
90.00000000000000
  0
ARC
  5
49
100
AcDbEntity
  8
A1
  6
CONTINUOUS
 62
7
100
AcDbCircle
 10
114.8650053810251
 20
175.2736809759078
 30
0.000000000000000
 40
10.00000000000000
100
AcDbArc
 50
180.0000000000000
 51
270.0000000000000
  0
ARC
  5
4A
100
AcDbEntity
  8
A1
  6
CONTINUOUS
 62
7
100
AcDbCircle
 10
234.8650053810249
 20
175.2736809759078
 30
0.000000000000000
 40
10.00000000000000
100
AcDbArc
 50
270.0000000000000
 51
360.0000000000000
  0
ARC
  5
4B
100
AcDbEntity
  8
A1
  6
CONTINUOUS
 62
7
100
AcDbCircle
 10
114.8650053810251
 20
340.2736809759080
 30
0.000000000000000
 40
10.00000000000000
100
AcDbArc
 50
90.00000000000000
 51
180.0000000000000
  0
LINE
  5
4C
100
AcDbEntity
  8
A1
  6
CONTINUOUS
 62
7
100
AcDbLine
 10
244.8650053810252
 20
340.2736809759077
 30
0.000000000000000
 11
244.8650053810251
 21
175.2736809759078
 31
0.000000000000000
  0
LINE
  5
4D
100
AcDbEntity
  8
A1
  6
CONTINUOUS
 62
7
100
AcDbLine
 10
114.8650053810251
 20
350.2736809759080
 30
0.000000000000000
 11
234.8650053810254
 21
350.2736809759080
 31
0.000000000000000
  0
LINE
  5
4E
100
AcDbEntity
  8
A1
  6
CONTINUOUS
 62
7
100
AcDbLine
 10
234.8650053810249
 20
165.2736809759078
 30
0.000000000000000
 11
114.8650053810251
 21
165.2736809759078
 31
0.000000000000000
  0
LINE
  5
4F
100
AcDbEntity
  8
A1
  6
CONTINUOUS
 62
7
100
AcDbLine
 10
104.8650053810251
 20
175.2736809759078
 30
0.000000000000000
 11
104.8650053810251
 21
340.2736809759080
 31
0.000000000000000
  0
CIRCLE
  5
50
100
AcDbEntity
  8
A1
  6
CONTINUOUS
 62
7
100
AcDbCircle
 10
115.8650053810251
 20
337.7736809759080
 30
0.000000000000000
 40
5.800000000000000
  0
CIRCLE
  5
51
100
AcDbEntity
  8
A1
  6
CONTINUOUS
 62
7
100
AcDbCircle
 10
233.8650053810251
 20
337.7736809759080
 30
0.000000000000000
 40
5.800000000000000
  0
ARC
  5
52
100
AcDbEntity
  8
A1
  6
CONTINUOUS
 62
7
100
AcDbCircle
 10
234.8650053810254
 20
340.2736809759080
 30
0.000000000000000
 40
8.000000000000000
100
AcDbArc
 50
0.000000000000000
 51
90.00000000000000
  0
LINE
  5
53
100
AcDbEntity
  8
A1
  6
CONTINUOUS
 62
7
100
AcDbLine
 10
114.8650053810250
 20
348.2736809759080
 30
0.000000000000000
 11
234.8650053810254
 21
348.2736809759080
 31
0.000000000000000
  0
LINE
  5
54
100
AcDbEntity
  8
A1
  6
CONTINUOUS
 62
7
100
AcDbLine
 10
242.8650053810252
 20
340.2736809759082
 30
0.000000000000000
 11
242.8650053810251
 21
175.2736809759078
 31
0.000000000000000
  0
ARC
  5
55
100
AcDbEntity
  8
A1
  6
CONTINUOUS
 62
7
100
AcDbCircle
 10
114.8650053810250
 20
340.2736809759080
 30
0.000000000000000
 40
8.000000000000000
100
AcDbArc
 50
90.00000000000000
 51
180.0000000000000
  0
LINE
  5
56
100
AcDbEntity
  8
A1
  6
CONTINUOUS
 62
7
100
AcDbLine
 10
106.8650053810249
 20
175.2736809759079
 30
0.000000000000000
 11
106.8650053810250
 21
340.2736809759082
 31
0.000000000000000
  0
ARC
  5
57
100
AcDbEntity
  8
A1
  6
CONTINUOUS
 62
7
100
AcDbCircle
 10
234.8650053810254
 20
175.2736809759078
 30
0.000000000000000
 40
8.000000000000000
100
AcDbArc
 50
270.0000000000000
 51
360.0000000000000
  0
LINE
  5
58
100
AcDbEntity
  8
A1
  6
CONTINUOUS
 62
7
100
AcDbLine
 10
234.8650053810254
 20
167.2736809759078
 30
0.000000000000000
 11
114.8650053810249
 21
167.2736809759078
 31
0.000000000000000
  0
CIRCLE
  5
59
100
AcDbEntity
  8
A1
  6
CONTINUOUS
 62
7
100
AcDbCircle
 10
233.8650053810251
 20
177.7736809759078
 30
0.000000000000000
 40
5.800000000000000
  0
ARC
  5
5A
100
AcDbEntity
  8
A1
  6
CONTINUOUS
 62
7
100
AcDbCircle
 10
114.8650053810249
 20
175.2736809759078
 30
0.000000000000000
 40
8.000000000000000
100
AcDbArc
 50
180.0000000000000
 51
270.0000000000000
  0
CIRCLE
  5
5B
100
AcDbEntity
  8
A1
  6
CONTINUOUS
 62
7
100
AcDbCircle
 10
115.8650053810251
 20
177.7736809759078
 30
0.000000000000000
 40
5.800000000000000
  0
CIRCLE
  5
5C
100
AcDbEntity
  8
A1
  6
CONTINUOUS
 62
7
100
AcDbCircle
 10
233.8650053810251
 20
337.7736809759080
 30
0.000000000000000
 40
2.700000000000000
  0
CIRCLE
  5
5D
100
AcDbEntity
  8
A1
  6
CONTINUOUS
 62
7
100
AcDbCircle
 10
233.8650053810251
 20
177.7736809759078
 30
0.000000000000000
 40
2.700000000000000
  0
CIRCLE
  5
5E
100
AcDbEntity
  8
A1
  6
CONTINUOUS
 62
7
100
AcDbCircle
 10
115.8650053810251
 20
177.7736809759078
 30
0.000000000000000
 40
2.700000000000000
  0
CIRCLE
  5
5F
100
AcDbEntity
  8
A1
  6
CONTINUOUS
 62
7
100
AcDbCircle
 10
115.8650053810251
 20
337.7736809759080
 30
0.000000000000000
 40
2.700000000000000
  0
LINE
  5
60
100
AcDbEntity
  8
A1
  6
CONTINUOUS
 62
7
100
AcDbLine
 10
116.8650053810251
 20
211.7736809764363
 30
0.000000000000000
 11
116.8650053810251
 21
303.7736809753795
 31
0.000000000000000
  0
LINE
  5
61
100
AcDbEntity
  8
A1
  6
CONTINUOUS
 62
7
100
AcDbLine
 10
122.0219569397493
 20
216.9306325331150
 30
0.000000000000000
 11
122.0219569400211
 21
298.6167294188274
 31
0.000000000000000
  0
ARC
  5
62
100
AcDbEntity
  8
A1
  6
CONTINUOUS
 62
7
100
AcDbCircle
 10
141.0219569397491
 20
216.9306325330517
 30
0.000000000000000
 40
19.00000000000000
100
AcDbArc
 50
180.0000000000000
 51
270.0000000000000
  0
ARC
  5
63
100
AcDbEntity
  8
A1
  6
CONTINUOUS
 62
7
100
AcDbCircle
 10
135.8650053810251
 20
211.7736809764363
 30
0.000000000000000
 40
19.00000000000000
100
AcDbArc
 50
180.0000000000000
 51
270.0000000000000
  0
LINE
  5
64
100
AcDbEntity
  8
A1
  6
CONTINUOUS
 62
7
100
AcDbLine
 10
135.8650053810251
 20
192.7736809764363
 30
0.000000000000000
 11
164.0916552273985
 21
192.7736809764363
 31
0.000000000000000
  0
LINE
  5
65
100
AcDbEntity
  8
A1
  6
CONTINUOUS
 62
7
100
AcDbLine
 10
213.8650053810254
 20
192.7736809763405
 30
0.000000000000000
 11
185.6383555347490
 21
192.7736809763405
 31
0.000000000000000
  0
ARC
  5
66
100
AcDbEntity
  8
A1
  6
CONTINUOUS
 62
7
100
AcDbCircle
 10
208.7080538223010
 20
216.9306325332209
 30
0.000000000000000
 40
19.00000000000000
100
AcDbArc
 50
270.0000000000000
 51
360.0000000000000
  0
ARC
  5
67
100
AcDbEntity
  8
A1
  6
CONTINUOUS
 62
7
100
AcDbCircle
 10
213.8650053810254
 20
211.7736809763405
 30
0.000000000000000
 40
19.00000000000000
100
AcDbArc
 50
270.0000000000000
 51
360.0000000000000
  0
LINE
  5
68
100
AcDbEntity
  8
A1
  6
CONTINUOUS
 62
7
100
AcDbLine
 10
232.8650053810251
 20
211.7736809763405
 30
0.000000000000000
 11
232.8650053810251
 21
303.7736809754750
 31
0.000000000000000
  0
LINE
  5
69
100
AcDbEntity
  8
A1
  6
CONTINUOUS
 62
7
100
AcDbLine
 10
227.7080538223012
 20
216.9306325332841
 30
0.000000000000000
 11
227.7080538220291
 21
298.6167294186583
 31
0.000000000000000
  0
LINE
  5
6A
100
AcDbEntity
  8
A1
  6
CONTINUOUS
 62
7
100
AcDbLine
 10
165.3478691353768
 20
197.9306325331124
 30
0.000000000000000
 11
141.0219569397966
 21
197.9306325330516
 31
0.000000000000000
  0
LINE
  5
6B
100
AcDbEntity
  8
A1
  6
CONTINUOUS
 62
7
100
AcDbLine
 10
208.7080538223487
 20
197.9306325332208
 30
0.000000000000000
 11
184.3821416266626
 21
197.9306325331601
 31
0.000000000000000
  0
ARC
  5
6C
100
AcDbEntity
  8
A1
  6
CONTINUOUS
 62
7
100
AcDbCircle
 10
317.1572629845896
 20
168.3440484928836
 30
0.000000000000000
 40
2.000000000000000
100
AcDbArc
 50
180.0000000000000
 51
236.3099324740205
  0
ARC
  5
6D
100
AcDbEntity
  8
A1
  6
CONTINUOUS
 62
7
100
AcDbCircle
 10
317.1572629845896
 20
347.2033134589318
 30
0.000000000000000
 40
2.000000000000000
100
AcDbArc
 50
123.6900675259796
 51
180.0000000000000
  0
ARC
  5
6E
100
AcDbEntity
  8
A1
  6
CONTINUOUS
 62
7
100
AcDbCircle
 10
318.7628142600536
 20
167.2736809759078
 30
0.000000000000000
 40
2.000000000000000
100
AcDbArc
 50
236.3099324740203
 51
270.0000000000000
  0
ARC
  5
6F
100
AcDbEntity
  8
A1
  6
CONTINUOUS
 62
7
100
AcDbCircle
 10
318.7628142600533
 20
348.2736809759077
 30
0.000000000000000
 40
2.000000000000000
100
AcDbArc
 50
89.99999999999974
 51
123.6900675259797
  0
LINE
  5
70
100
AcDbEntity
  8
A1
  6
CONTINUOUS
 62
7
100
AcDbLine
 10
317.6534138676031
 20
165.6095803872322
 30
0.000000000000000
 11
316.0478625921390
 21
166.6799479042082
 31
0.000000000000000
  0
LINE
  5
71
100
AcDbEntity
  8
A1
  6
CONTINUOUS
 62
7
100
AcDbLine
 10
316.0478625921391
 20
348.8674140476073
 30
0.000000000000000
 11
317.6534138676029
 21
349.9377815645832
 31
0.000000000000000
  0
LINE
  5
72
100
AcDbEntity
  8
A1
  6
CONTINUOUS
 62
7
100
AcDbLine
 10
320.1572629845896
 20
165.2736809759078
 30
0.000000000000000
 11
318.7628142600536
 21
165.2736809759078
 31
0.000000000000000
  0
LINE
  5
73
100
AcDbEntity
  8
A1
  6
CONTINUOUS
 62
7
100
AcDbLine
 10
318.7628142600533
 20
350.2736809759077
 30
0.000000000000000
 11
320.1572629845896
 21
350.2736809759077
 31
0.000000000000000
  0
LINE
  5
74
100
AcDbEntity
  8
A4
  6
CENTER
 62
1
100
AcDbLine
 10
313.6572629845896
 20
257.7736809759077
 30
0.000000000000000
 11
361.6572629845896
 21
257.7736809759077
 31
0.000000000000000
  0
LINE
  5
75
100
AcDbEntity
  8
A1
  6
CONTINUOUS
 62
7
100
AcDbLine
 10
315.1572629845896
 20
168.3440484928836
 30
0.000000000000000
 11
315.1572629845896
 21
347.2033134589318
 31
0.000000000000000
  0
LINE
  5
76
100
AcDbEntity
  8
A1
  6
CONTINUOUS
 62
7
100
AcDbLine
 10
342.5946498526924
 20
320.4123033024429
 30
0.000000000000000
 11
320.1572629845897
 21
323.1672679968514
 31
0.000000000000000
  0
LINE
  5
77
100
AcDbEntity
  8
A1
  6
CONTINUOUS
 62
7
100
AcDbLine
 10
360.1572629845896
 20
300.5613802696167
 30
0.000000000000000
 11
360.1572629845896
 21
214.9859816821989
 31
0.000000000000000
  0
LINE
  5
78
100
AcDbEntity
  8
A1
  6
CONTINUOUS
 62
7
100
AcDbLine
 10
342.5946498526924
 20
195.1350586493726
 30
0.000000000000000
 11
320.1572629845896
 21
192.3800939549641
 31
0.000000000000000
  0
LINE
  5
79
100
AcDbEntity
  8
A1
  6
CONTINUOUS
 62
7
100
AcDbLine
 10
315.1572629845896
 20
317.7736809759080
 30
0.000000000000000
 11
315.2047851909347
 21
317.7736809759080
 31
0.000000000000000
  0
ARC
  5
7A
100
AcDbEntity
  8
A1
  6
CONTINUOUS
 62
7
100
AcDbCircle
 10
141.0219569400212
 20
298.6167294187641
 30
0.000000000000000
 40
19.00000000000000
100
AcDbArc
 50
90.00000000000000
 51
180.0000000000000
  0
ARC
  5
7B
100
AcDbEntity
  8
A1
  6
CONTINUOUS
 62
7
100
AcDbCircle
 10
135.8650053810252
 20
303.7736809753795
 30
0.000000000000000
 40
19.00000000000000
100
AcDbArc
 50
90.00000000000000
 51
180.0000000000000
  0
LINE
  5
7C
100
AcDbEntity
  8
A1
  6
CONTINUOUS
 62
7
100
AcDbLine
 10
135.8650053810252
 20
322.7736809753795
 30
0.000000000000000
 11
164.0916552273984
 21
322.7736809753795
 31
0.000000000000000
  0
LINE
  5
7D
100
AcDbEntity
  8
A1
  6
CONTINUOUS
 62
7
100
AcDbLine
 10
213.8650053810251
 20
322.7736809754750
 30
0.000000000000000
 11
185.6383555347491
 21
322.7736809754750
 31
0.000000000000000
  0
ARC
  5
7E
100
AcDbEntity
  8
A1
  6
CONTINUOUS
 62
7
100
AcDbCircle
 10
208.7080538220293
 20
298.6167294185951
 30
0.000000000000000
 40
19.00000000000000
100
AcDbArc
 50
0.000000000000000
 51
90.00000000000000
  0
ARC
  5
7F
100
AcDbEntity
  8
A1
  6
CONTINUOUS
 62
7
100
AcDbCircle
 10
213.8650053810251
 20
303.7736809754750
 30
0.000000000000000
 40
19.00000000000000
100
AcDbArc
 50
0.000000000000000
 51
90.00000000000000
  0
LINE
  5
80
100
AcDbEntity
  8
A1
  6
CONTINUOUS
 62
7
100
AcDbLine
 10
165.3478691353768
 20
317.6167294187031
 30
0.000000000000000
 11
141.0219569400687
 21
317.6167294187640
 31
0.000000000000000
  0
LINE
  5
81
100
AcDbEntity
  8
A1
  6
CONTINUOUS
 62
7
100
AcDbLine
 10
208.7080538220766
 20
317.6167294185948
 30
0.000000000000000
 11
184.3821416266626
 21
317.6167294186556
 31
0.000000000000000
  0
LINE
  5
82
100
AcDbEntity
  8
A1
  6
CONTINUOUS
 62
7
100
AcDbLine
 10
320.1572629845896
 20
165.2736809759077
 30
0.000000000000000
 11
320.1572629845896
 21
350.2736809759077
 31
0.000000000000000
  0
ARC
  5
83
100
AcDbEntity
  8
A1
  6
CONTINUOUS
 62
7
100
AcDbCircle
 10
340.1572629845896
 20
300.5613802696167
 30
0.000000000000000
 40
20.00000000000000
100
AcDbArc
 50
0.000000000000000
 51
83.00000000000028
  0
ARC
  5
84
100
AcDbEntity
  8
A1
  6
CONTINUOUS
 62
7
100
AcDbCircle
 10
340.1572629845896
 20
214.9859816821989
 30
0.000000000000000
 40
20.00000000000000
100
AcDbArc
 50
276.9999999999995
 51
360.0000000000000
  0
CIRCLE
  5
85
100
AcDbEntity
  8
A1
  6
CONTINUOUS
 62
7
100
AcDbCircle
 10
199.8650053810251
 20
337.7736809759080
 30
0.000000000000000
 40
5.800000000000000
  0
CIRCLE
  5
86
100
AcDbEntity
  8
A1
  6
CONTINUOUS
 62
7
100
AcDbCircle
 10
199.8650053810251
 20
337.7736809759080
 30
0.000000000000000
 40
2.700000000000000
  0
CIRCLE
  5
87
100
AcDbEntity
  8
A1
  6
CONTINUOUS
 62
7
100
AcDbCircle
 10
199.8650053810251
 20
177.7736809759077
 30
0.000000000000000
 40
5.800000000000000
  0
CIRCLE
  5
88
100
AcDbEntity
  8
A1
  6
CONTINUOUS
 62
7
100
AcDbCircle
 10
199.8650053810251
 20
177.7736809759077
 30
0.000000000000000
 40
2.700000000000000
  0
CIRCLE
  5
89
100
AcDbEntity
  8
A1
  6
CONTINUOUS
 62
7
100
AcDbCircle
 10
149.8650053810254
 20
177.7736809759077
 30
0.000000000000000
 40
5.800000000000000
  0
CIRCLE
  5
8A
100
AcDbEntity
  8
A1
  6
CONTINUOUS
 62
7
100
AcDbCircle
 10
149.8650053810254
 20
177.7736809759077
 30
0.000000000000000
 40
2.700000000000000
  0
CIRCLE
  5
8B
100
AcDbEntity
  8
A1
  6
CONTINUOUS
 62
7
100
AcDbCircle
 10
149.8650053810254
 20
337.7736809759080
 30
0.000000000000000
 40
5.800000000000000
  0
CIRCLE
  5
8C
100
AcDbEntity
  8
A1
  6
CONTINUOUS
 62
7
100
AcDbCircle
 10
149.8650053810254
 20
337.7736809759080
 30
0.000000000000000
 40
2.700000000000000
  0
LINE
  5
8D
100
AcDbEntity
  8
A4
  6
CENTER
 62
1
100
AcDbLine
 10
313.6572629845896
 20
339.2736809759091
 30
0.000000000000000
 11
321.1572629845896
 21
339.2736809759091
 31
0.000000000000000
  0
LINE
  5
8E
100
AcDbEntity
  8
A4
  6
CENTER
 62
1
100
AcDbLine
 10
313.6572629845896
 20
176.2736809759086
 30
0.000000000000000
 11
321.1572629845896
 21
176.2736809759086
 31
0.000000000000000
  0
LINE
  5
8F
100
AcDbEntity
  8
A1
  6
CONTINUOUS
 62
7
100
AcDbLine
 10
181.8650053810252
 20
208.7736809759073
 30
0.000000000000000
 11
181.8650053810252
 21
306.7736809759077
 31
0.000000000000000
  0
LINE
  5
90
100
AcDbEntity
  8
A1
  6
CONTINUOUS
 62
7
100
AcDbLine
 10
167.8650053810253
 20
306.7736809759077
 30
0.000000000000000
 11
167.8650053810253
 21
208.7736809759072
 31
0.000000000000000
  0
LINE
  5
91
100
AcDbEntity
  8
A4
  6
CENTER
 62
1
100
AcDbLine
 10
174.8650053810251
 20
163.7736809759078
 30
0.000000000000000
 11
174.8650053810251
 21
351.7736809759080
 31
0.000000000000000
  0
LINE
  5
92
100
AcDbEntity
  8
A4
  6
CENTER
 62
1
100
AcDbLine
 10
103.3650053810251
 20
257.7736809759080
 30
0.000000000000000
 11
246.3650053810252
 21
257.7736809759080
 31
0.000000000000000
  0
LINE
  5
93
100
AcDbEntity
  8
A3
  6
DASHED
 62
2
100
AcDbLine
 10
329.1572629845896
 20
306.7736809759078
 30
0.000000000000000
 11
329.1572629845895
 21
208.7736809759076
 31
0.000000000000000
  0
LINE
  5
94
100
AcDbEntity
  8
A3
  6
DASHED
 62
2
100
AcDbLine
 10
318.1572629845896
 20
172.7736809759054
 30
0.000000000000000
 11
318.1572629845896
 21
194.7736809759054
 31
0.000000000000000
  0
LINE
  5
95
100
AcDbEntity
  8
A3
  6
DASHED
 62
2
100
AcDbLine
 10
316.6572629845826
 20
171.2736809759056
 30
0.000000000000000
 11
318.1572629845896
 21
172.7736809759056
 31
0.000000000000000
  0
LINE
  5
96
100
AcDbEntity
  8
A3
  6
DASHED
 62
2
100
AcDbLine
 10
316.6572629845828
 20
171.2736809759042
 30
0.000000000000000
 11
315.1572629845828
 21
171.2736809759042
 31
0.000000000000000
  0
LINE
  5
97
100
AcDbEntity
  8
A3
  6
DASHED
 62
2
100
AcDbLine
 10
316.6572629845825
 20
344.2736809759080
 30
0.000000000000000
 11
318.1572629845894
 21
342.7736809759080
 31
0.000000000000000
  0
LINE
  5
98
100
AcDbEntity
  8
A3
  6
DASHED
 62
2
100
AcDbLine
 10
316.6572629845828
 20
344.2736809759089
 30
0.000000000000000
 11
315.1572629845828
 21
344.2736809759089
 31
0.000000000000000
  0
LINE
  5
99
100
AcDbEntity
  8
A3
  6
DASHED
 62
2
100
AcDbLine
 10
318.1572629845896
 20
342.7736809759077
 30
0.000000000000000
 11
318.1572629845896
 21
320.7736809759077
 31
0.000000000000000
  0
ARC
  5
9A
100
AcDbEntity
  8
A3
  6
DASHED
 62
2
100
AcDbCircle
 10
320.1572629845896
 20
327.1973072986872
 30
0.000000000000000
 40
5.000000000000000
100
AcDbArc
 50
180.0000000000000
 51
263.0000000000046
  0
LINE
  5
9B
100
AcDbEntity
  8
A3
  6
DASHED
 62
2
100
AcDbLine
 10
342.4727805092876
 20
319.4197571508021
 30
0.000000000000000
 11
319.5479162675641
 21
322.2345765404806
 31
0.000000000000000
  0
ARC
  5
9C
100
AcDbEntity
  8
A3
  6
DASHED
 62
2
100
AcDbCircle
 10
340.1572629845900
 20
300.5613802696170
 30
0.000000000000000
 40
19.00000000000000
100
AcDbArc
 50
0.000000000000000
 51
83.00000000000026
  0
LINE
  5
9D
100
AcDbEntity
  8
A3
  6
DASHED
 62
2
100
AcDbLine
 10
359.1572629845900
 20
300.5613802696170
 30
0.000000000000000
 11
359.1572629845900
 21
214.9859816821983
 31
0.000000000000000
  0
ARC
  5
9E
100
AcDbEntity
  8
A3
  6
DASHED
 62
2
100
AcDbCircle
 10
340.1572629845900
 20
214.9859816821983
 30
0.000000000000000
 40
19.00000000000000
100
AcDbArc
 50
276.9999999999998
 51
360.0000000000000
  0
LINE
  5
9F
100
AcDbEntity
  8
A3
  6
DASHED
 62
2
100
AcDbLine
 10
342.4727805092880
 20
196.1276048010135
 30
0.000000000000000
 11
319.5479162675642
 21
193.3127854113351
 31
0.000000000000000
  0
ARC
  5
A0
100
AcDbEntity
  8
A3
  6
DASHED
 62
2
100
AcDbCircle
 10
320.1572629845896
 20
188.3500546531283
 30
0.000000000000000
 40
5.000000000000000
100
AcDbArc
 50
96.99999999999814
 51
180.0000000000000
  0
LINE
  5
A1
100
AcDbEntity
  8
A10
  6
CONTINUOUS
 62
3
100
AcDbLine
 10
315.1572629845896
 20
322.7736809759080
 30
0.000000000000000
 11
315.2701474004671
 21
322.7736809759080
 31
0.000000000000000
  0
ARC
  5
A2
100
AcDbEntity
  8
A1
  6
CONTINUOUS
 62
7
100
AcDbCircle
 10
241.7946378640492
 20
73.27368097590784
 30
0.000000000000000
 40
2.000000000000000
100
AcDbArc
 50
33.69006752597965
 51
90.00000000000041
  0
ARC
  5
A3
100
AcDbEntity
  8
A1
  6
CONTINUOUS
 62
7
100
AcDbCircle
 10
107.9353728980010
 20
73.27368097590784
 30
0.000000000000000
 40
2.000000000000000
100
AcDbArc
 50
90.00000000000000
 51
146.3099324740203
  0
ARC
  5
A4
100
AcDbEntity
  8
A1
  6
CONTINUOUS
 62
7
100
AcDbCircle
 10
106.8650053810250
 20
71.66812970044384
 30
0.000000000000000
 40
2.000000000000000
100
AcDbArc
 50
146.3099324740201
 51
180.0000000000002
  0
LINE
  5
A5
100
AcDbEntity
  8
A1
  6
CONTINUOUS
 62
7
100
AcDbLine
 10
210.6527046747344
 20
30.27368097590784
 30
0.000000000000000
 11
139.0773060873163
 21
30.27368097590784
 31
0.000000000000000
  0
LINE
  5
A6
100
AcDbEntity
  8
A1
  6
CONTINUOUS
 62
7
100
AcDbLine
 10
243.4587384527248
 20
74.38308136835808
 30
0.000000000000000
 11
244.5291059697008
 21
72.77753009289427
 31
0.000000000000000
  0
LINE
  5
A7
100
AcDbEntity
  8
A1
  6
CONTINUOUS
 62
7
100
AcDbLine
 10
105.2009047923495
 20
72.77753009289414
 30
0.000000000000000
 11
106.2712723093254
 21
74.38308136835801
 31
0.000000000000000
  0
LINE
  5
A8
100
AcDbEntity
  8
A1
  6
CONTINUOUS
 62
7
100
AcDbLine
 10
104.8650053810250
 20
70.27368097590784
 30
0.000000000000000
 11
104.8650053810250
 21
71.66812970044384
 31
0.000000000000000
  0
LINE
  5
A9
100
AcDbEntity
  8
A1
  6
CONTINUOUS
 62
7
100
AcDbLine
 10
107.9353728980010
 20
75.27368097590784
 30
0.000000000000000
 11
241.7946378640492
 21
75.27368097590784
 31
0.000000000000000
  0
LINE
  5
AA
100
AcDbEntity
  8
A1
  6
CONTINUOUS
 62
7
100
AcDbLine
 10
104.8650053810250
 20
70.27368097590784
 30
0.000000000000000
 11
244.8650053810249
 21
70.27368097590784
 31
0.000000000000000
  0
LINE
  5
AB
100
AcDbEntity
  8
A1
  6
CONTINUOUS
 62
7
100
AcDbLine
 10
217.3650053810253
 20
75.27368097590794
 30
0.000000000000000
 11
217.3650053810253
 21
75.20672380846928
 31
0.000000000000000
  0
LINE
  5
AC
100
AcDbEntity
  8
A1
  6
CONTINUOUS
 62
7
100
AcDbLine
 10
233.2585924019693
 20
70.27368097590795
 30
0.000000000000000
 11
230.5036277075607
 21
47.83629410780505
 31
0.000000000000000
  0
LINE
  5
AD
100
AcDbEntity
  8
A1
  6
CONTINUOUS
 62
7
100
AcDbLine
 10
116.4714183600814
 20
70.27368097590806
 30
0.000000000000000
 11
119.2263830544899
 21
47.83629410780509
 31
0.000000000000000
  0
ARC
  5
AE
100
AcDbEntity
  8
A1
  6
CONTINUOUS
 62
7
100
AcDbCircle
 10
210.6527046747344
 20
50.27368097590784
 30
0.000000000000000
 40
20.00000000000000
100
AcDbArc
 50
270.0000000000000
 51
353.0000000000001
  0
ARC
  5
AF
100
AcDbEntity
  8
A1
  6
CONTINUOUS
 62
7
100
AcDbCircle
 10
139.0773060873163
 20
50.27368097590784
 30
0.000000000000000
 40
20.00000000000000
100
AcDbArc
 50
186.9999999999997
 51
270.0000000000000
  0
LINE
  5
B0
100
AcDbEntity
  8
A4
  6
CENTER
 62
1
100
AcDbLine
 10
174.8650053810254
 20
28.77368097590784
 30
0.000000000000000
 11
174.8650053810254
 21
76.77368097590784
 31
0.000000000000000
  0
CIRCLE
  5
B1
100
AcDbEntity
  8
A3
  6
DASHED
 62
2
100
AcDbCircle
 10
174.8650053810251
 20
68.27368097590784
 30
0.000000000000000
 40
7.000000000000000
  0
LINE
  5
B2
100
AcDbEntity
  8
A3
  6
DASHED
 62
2
100
AcDbLine
 10
139.0773060873162
 20
31.27368097590863
 30
0.000000000000000
 11
210.6527046747344
 21
31.27368097590863
 31
0.000000000000000
  0
ARC
  5
B3
100
AcDbEntity
  8
A3
  6
DASHED
 62
2
100
AcDbCircle
 10
139.0773060873162
 20
50.27368097590841
 30
0.000000000000000
 40
19.00000000000000
100
AcDbArc
 50
187.0000000000006
 51
270.0000000000004
  0
LINE
  5
B4
100
AcDbEntity
  8
A3
  6
DASHED
 62
2
100
AcDbLine
 10
117.4041098164528
 20
70.88302769293315
 30
0.000000000000000
 11
120.2189292061316
 21
47.95816345121025
 31
0.000000000000000
  0
ARC
  5
B5
100
AcDbEntity
  8
A3
  6
DASHED
 62
2
100
AcDbCircle
 10
112.4413790582458
 20
70.27368097590750
 30
0.000000000000000
 40
5.000000000000000
100
AcDbArc
 50
7.000000000000429
 51
90.00000000000000
  0
LINE
  5
B6
100
AcDbEntity
  8
A1
  6
CONTINUOUS
 62
7
100
AcDbLine
 10
244.8650053810257
 20
70.27368097590784
 30
0.000000000000000
 11
244.8650053810257
 21
71.66812970044384
 31
0.000000000000000
  0
ARC
  5
B7
100
AcDbEntity
  8
A1
  6
CONTINUOUS
 62
7
100
AcDbCircle
 10
242.8650053810257
 20
71.66812970044384
 30
0.000000000000000
 40
2.000000000000000
100
AcDbArc
 50
359.9999999999998
 51
393.6900675259799
  0
LINE
  5
B8
100
AcDbEntity
  8
A4
  6
CENTER
 62
1
100
AcDbLine
 10
199.8650053810251
 20
69.57368097590779
 30
0.000000000000000
 11
199.8650053810251
 21
77.07368097590768
 31
0.000000000000000
  0
LINE
  5
B9
100
AcDbEntity
  8
A4
  6
CENTER
 62
1
100
AcDbLine
 10
233.8650053810251
 20
69.57368097590779
 30
0.000000000000000
 11
233.8650053810251
 21
77.07368097590768
 31
0.000000000000000
  0
LINE
  5
BA
100
AcDbEntity
  8
A4
  6
CENTER
 62
1
100
AcDbLine
 10
149.8650053810255
 20
69.57368097590715
 30
0.000000000000000
 11
149.8650053810254
 21
77.07368097590761
 31
0.000000000000000
  0
LINE
  5
BB
100
AcDbEntity
  8
A4
  6
CENTER
 62
1
100
AcDbLine
 10
115.8650053810254
 20
69.57368097590692
 30
0.000000000000000
 11
115.8650053810254
 21
77.07368097590670
 31
0.000000000000000
  0
LINE
  5
BC
100
AcDbEntity
  8
A1
  6
CONTINUOUS
 62
7
100
AcDbLine
 10
185.1150053810252
 20
174.7736809759056
 30
0.000000000000000
 11
185.1150053810252
 21
194.7736809759053
 31
0.000000000000000
  0
LINE
  5
BD
100
AcDbEntity
  8
A1
  6
CONTINUOUS
 62
7
100
AcDbLine
 10
164.6150053810252
 20
194.7736809759053
 30
0.000000000000000
 11
164.6150053810252
 21
174.7736809759056
 31
0.000000000000000
  0
ARC
  5
BE
100
AcDbEntity
  8
A1
  6
CONTINUOUS
 62
7
100
AcDbCircle
 10
181.6149582993947
 20
174.7737055634852
 30
0.000000000000000
 40
3.500047081716827
100
AcDbArc
 50
270.0000000000000
 51
359.9995975012595
  0
LINE
  5
BF
100
AcDbEntity
  8
A1
  6
CONTINUOUS
 62
7
100
AcDbLine
 10
168.1150783386795
 20
171.2736809759056
 30
0.000000000000000
 11
181.6149582993947
 21
171.2736809759056
 31
0.000000000000000
  0
ARC
  5
C0
100
AcDbEntity
  8
A1
  6
CONTINUOUS
 62
7
100
AcDbCircle
 10
168.1150783386795
 20
174.7737190767980
 30
0.000000000000000
 40
3.500072957861662
100
AcDbArc
 50
180.0006237070916
 51
270.0000000000000
  0
ELLIPSE
  5
C1
100
AcDbEntity
  8
A1
  6
CONTINUOUS
 62
7
100
AcDbEllipse
 10
184.8679979602164
 20
327.1942383889935
 30
0.000000000000000
 11
0.000000000000000
 21
-4.788911095795811
 31
0.000000000000000
210
0.000000000000000
220
0.000000000000000
230
1.000000000000000
 40
0.4182563716728334
 41
0.1236339130464112
 42
1.648121580558973
  0
LINE
  5
C2
100
AcDbEntity
  8
A1
  6
CONTINUOUS
 62
7
100
AcDbLine
 10
186.8650053810251
 20
341.2736809797178
 30
0.000000000000000
 11
186.8650053810251
 21
327.5641732453063
 31
0.000000000000000
  0
ARC
  5
C3
100
AcDbEntity
  8
A1
  6
CONTINUOUS
 62
7
100
AcDbCircle
 10
183.3650053810251
 20
341.3736809797177
 30
0.000000000000000
 40
3.500000000000000
100
AcDbArc
 50
0.000000000000000
 51
90.00000000000000
  0
LINE
  5
C4
100
AcDbEntity
  8
A1
  6
CONTINUOUS
 62
7
100
AcDbLine
 10
183.3650053810739
 20
344.8736809797178
 30
0.000000000000000
 11
166.3650053810752
 21
344.8736809799545
 31
0.000000000000000
  0
ARC
  5
C5
100
AcDbEntity
  8
A1
  6
CONTINUOUS
 62
7
100
AcDbCircle
 10
166.3650053810264
 20
341.3736809799542
 30
0.000000000000000
 40
3.500000000000000
100
AcDbArc
 50
90.00000000000000
 51
180.0000000000000
  0
LINE
  5
C6
100
AcDbEntity
  8
A1
  6
CONTINUOUS
 62
7
100
AcDbLine
 10
162.8650053810264
 20
341.2736809799543
 30
0.000000000000000
 11
162.8650053810264
 21
327.5641732453063
 31
0.000000000000000
  0
ELLIPSE
  5
C7
100
AcDbEntity
  8
A1
  6
CONTINUOUS
 62
7
100
AcDbEllipse
 10
164.8620128018351
 20
327.1942383889935
 30
0.000000000000000
 11
0.000000000000000
 21
4.788911095795811
 31
0.000000000000000
210
0.000000000000000
220
0.000000000000000
230
1.000000000000000
 40
0.4182563716728334
 41
1.493471073030820
 42
3.017958740542804
  0
LINE
  5
C8
100
AcDbEntity
  8
A1
  6
CONTINUOUS
 62
7
100
AcDbLine
 10
164.6150053810252
 20
320.7736809759102
 30
0.000000000000000
 11
164.6150053810252
 21
340.7736809759100
 31
0.000000000000000
  0
LINE
  5
C9
100
AcDbEntity
  8
A1
  6
CONTINUOUS
 62
7
100
AcDbLine
 10
185.1150053810252
 20
340.7736809759100
 30
0.000000000000000
 11
185.1150053810252
 21
320.7736809759102
 31
0.000000000000000
  0
ARC
  5
CA
100
AcDbEntity
  8
A1
  6
CONTINUOUS
 62
7
100
AcDbCircle
 10
181.6149582993947
 20
340.7736563883303
 30
0.000000000000000
 40
3.500047081716827
100
AcDbArc
 50
0.0004024987405015551
 51
90.00000000000000
  0
LINE
  5
CB
100
AcDbEntity
  8
A1
  6
CONTINUOUS
 62
7
100
AcDbLine
 10
168.1150783386795
 20
344.2736809759100
 30
0.000000000000000
 11
181.6149582993947
 21
344.2736809759100
 31
0.000000000000000
  0
ARC
  5
CC
100
AcDbEntity
  8
A1
  6
CONTINUOUS
 62
7
100
AcDbCircle
 10
168.1150783386795
 20
340.7736428750176
 30
0.000000000000000
 40
3.500072957861662
100
AcDbArc
 50
90.00000000000000
 51
179.9993762929084
  0
ELLIPSE
  5
CD
100
AcDbEntity
  8
A1
  6
CONTINUOUS
 62
7
100
AcDbEllipse
 10
184.8679979602164
 20
188.3531235628221
 30
0.000000000000000
 11
0.000000000000000
 21
-4.788911095795811
 31
0.000000000000000
210
0.000000000000000
220
0.000000000000000
230
1.000000000000000
 40
0.4182563716728334
 41
1.493471073030820
 42
3.017958740543334
  0
LINE
  5
CE
100
AcDbEntity
  8
A1
  6
CONTINUOUS
 62
7
100
AcDbLine
 10
186.8650053810251
 20
174.2736809720976
 30
0.000000000000000
 11
186.8650053810251
 21
187.9831887065092
 31
0.000000000000000
  0
ARC
  5
CF
100
AcDbEntity
  8
A1
  6
CONTINUOUS
 62
7
100
AcDbCircle
 10
183.3650053810251
 20
174.1736809720977
 30
0.000000000000000
 40
3.500000000000000
100
AcDbArc
 50
270.0000000000000
 51
360.0000000000000
  0
LINE
  5
D0
100
AcDbEntity
  8
A1
  6
CONTINUOUS
 62
7
100
AcDbLine
 10
183.3650053810739
 20
170.6736809720978
 30
0.000000000000000
 11
166.3650053810752
 21
170.6736809718611
 31
0.000000000000000
  0
ARC
  5
D1
100
AcDbEntity
  8
A1
  6
CONTINUOUS
 62
7
100
AcDbCircle
 10
166.3650053810264
 20
174.1736809718615
 30
0.000000000000000
 40
3.500000000000000
100
AcDbArc
 50
180.0000000000000
 51
270.0000000000000
  0
LINE
  5
D2
100
AcDbEntity
  8
A1
  6
CONTINUOUS
 62
7
100
AcDbLine
 10
162.8650053810264
 20
174.2736809718614
 30
0.000000000000000
 11
162.8650053810264
 21
187.9831887065092
 31
0.000000000000000
  0
ELLIPSE
  5
D3
100
AcDbEntity
  8
A1
  6
CONTINUOUS
 62
7
100
AcDbEllipse
 10
164.8620128018351
 20
188.3531235628221
 30
0.000000000000000
 11
0.000000000000000
 21
4.788911095795811
 31
0.000000000000000
210
0.000000000000000
220
0.000000000000000
230
1.000000000000000
 40
0.4182563716728334
 41
0.1236339130470369
 42
1.648121580558973
  0
LINE
  5
D4
100
AcDbEntity
  8
A3
  6
DASHED
 62
2
100
AcDbLine
 10
318.1572629845895
 20
320.7736809759102
 30
0.000000000000000
 11
329.1572629845895
 21
306.7736809759078
 31
0.000000000000000
  0
LINE
  5
D5
100
AcDbEntity
  8
A3
  6
DASHED
 62
2
100
AcDbLine
 10
318.1572629845895
 20
194.7736809759049
 30
0.000000000000000
 11
329.1572629845895
 21
208.7736809759073
 31
0.000000000000000
  0
ARC
  5
D6
100
AcDbEntity
  8
A3
  6
DASHED
 62
2
100
AcDbCircle
 10
161.4063825361978
 20
73.27368097590784
 30
0.000000000000000
 40
2.000000000000000
100
AcDbArc
 50
43.53119928561658
 51
90.00000000000000
  0
LINE
  5
D7
100
AcDbEntity
  8
A3
  6
DASHED
 62
2
100
AcDbLine
 10
162.8563814033868
 20
74.65117989973749
 30
0.000000000000000
 11
164.5236293586628
 21
72.89618205207861
 31
0.000000000000000
  0
ARC
  5
D8
100
AcDbEntity
  8
A3
  6
DASHED
 62
2
100
AcDbCircle
 10
165.9736282258514
 20
74.27368097590784
 30
0.000000000000000
 40
2.000000000000000
100
AcDbArc
 50
223.5311992856164
 51
243.0686302966749
  0
ARC
  5
D9
100
AcDbEntity
  8
A3
  6
DASHED
 62
2
100
AcDbCircle
 10
183.9710382474056
 20
73.77368097590784
 30
0.000000000000000
 40
1.500000000000000
100
AcDbArc
 50
296.1286399026998
 51
316.4688007143836
  0
LINE
  5
DA
100
AcDbEntity
  8
A3
  6
DASHED
 62
2
100
AcDbLine
 10
185.0585373977972
 20
72.74055678303566
 30
0.000000000000000
 11
186.5779413474827
 21
74.33992936165194
 31
0.000000000000000
  0
ARC
  5
DB
100
AcDbEntity
  8
A3
  6
DASHED
 62
2
100
AcDbCircle
 10
188.7529396482659
 20
72.27368097590784
 30
0.000000000000000
 40
3.000000000000000
100
AcDbArc
 50
90.00000000000000
 51
136.4688007143835
  0
ARC
  5
DC
100
AcDbEntity
  8
A3
  6
DASHED
 62
2
100
AcDbCircle
 10
183.6150053810251
 20
73.77368097590784
 30
0.000000000000000
 40
1.500000000000007
100
AcDbArc
 50
334.3045902825650
 51
450.0000000000000
  0
ARC
  5
DD
100
AcDbEntity
  8
A3
  6
DASHED
 62
2
100
AcDbCircle
 10
166.1150053810252
 20
73.77368097590784
 30
0.000000000000000
 40
1.500000000000007
100
AcDbArc
 50
90.00000000000000
 51
205.6954097174345
  0
LINE
  5
DE
100
AcDbEntity
  8
A3
  6
DASHED
 62
2
100
AcDbLine
 10
184.9666730229210
 20
73.12330063652813
 30
0.000000000000000
 11
181.1727877098724
 21
65.23857272546894
 31
0.000000000000000
  0
LINE
  5
DF
100
AcDbEntity
  8
A3
  6
DASHED
 62
2
100
AcDbLine
 10
164.7633377391293
 20
73.12330063652809
 30
0.000000000000000
 11
168.5572230521778
 21
65.23857272546894
 31
0.000000000000000
  0
LINE
  5
E0
100
AcDbEntity
  8
A4
  6
CENTER
 62
1
100
AcDbLine
 10
242.6650053810251
 20
337.7736809759080
 30
0.000000000000000
 11
225.0650053810251
 21
337.7736809759080
 31
0.000000000000000
  0
LINE
  5
E1
100
AcDbEntity
  8
A4
  6
CENTER
 62
1
100
AcDbLine
 10
233.8650053810251
 20
346.5736809759079
 30
0.000000000000000
 11
233.8650053810251
 21
328.9736809759079
 31
0.000000000000000
  0
LINE
  5
E2
100
AcDbEntity
  8
A4
  6
CENTER
 62
1
100
AcDbLine
 10
208.6650053810251
 20
337.7736809759080
 30
0.000000000000000
 11
191.0650053810251
 21
337.7736809759080
 31
0.000000000000000
  0
LINE
  5
E3
100
AcDbEntity
  8
A4
  6
CENTER
 62
1
100
AcDbLine
 10
199.8650053810251
 20
346.5736809759079
 30
0.000000000000000
 11
199.8650053810251
 21
328.9736809759079
 31
0.000000000000000
  0
LINE
  5
E4
100
AcDbEntity
  8
A4
  6
CENTER
 62
1
100
AcDbLine
 10
158.6650053810254
 20
337.7736809759080
 30
0.000000000000000
 11
141.0650053810253
 21
337.7736809759080
 31
0.000000000000000
  0
LINE
  5
E5
100
AcDbEntity
  8
A4
  6
CENTER
 62
1
100
AcDbLine
 10
149.8650053810254
 20
346.5736809759079
 30
0.000000000000000
 11
149.8650053810254
 21
328.9736809759079
 31
0.000000000000000
  0
LINE
  5
E6
100
AcDbEntity
  8
A4
  6
CENTER
 62
1
100
AcDbLine
 10
242.6650053810251
 20
177.7736809759078
 30
0.000000000000000
 11
225.0650053810251
 21
177.7736809759078
 31
0.000000000000000
  0
LINE
  5
E7
100
AcDbEntity
  8
A4
  6
CENTER
 62
1
100
AcDbLine
 10
233.8650053810251
 20
186.5736809759078
 30
0.000000000000000
 11
233.8650053810251
 21
168.9736809759078
 31
0.000000000000000
  0
LINE
  5
E8
100
AcDbEntity
  8
A4
  6
CENTER
 62
1
100
AcDbLine
 10
208.6650053810251
 20
177.7736809759077
 30
0.000000000000000
 11
191.0650053810251
 21
177.7736809759077
 31
0.000000000000000
  0
LINE
  5
E9
100
AcDbEntity
  8
A4
  6
CENTER
 62
1
100
AcDbLine
 10
199.8650053810251
 20
186.5736809759077
 30
0.000000000000000
 11
199.8650053810251
 21
168.9736809759077
 31
0.000000000000000
  0
LINE
  5
EA
100
AcDbEntity
  8
A4
  6
CENTER
 62
1
100
AcDbLine
 10
158.6650053810254
 20
177.7736809759077
 30
0.000000000000000
 11
141.0650053810253
 21
177.7736809759077
 31
0.000000000000000
  0
LINE
  5
EB
100
AcDbEntity
  8
A4
  6
CENTER
 62
1
100
AcDbLine
 10
149.8650053810254
 20
186.5736809759077
 30
0.000000000000000
 11
149.8650053810254
 21
168.9736809759077
 31
0.000000000000000
  0
LINE
  5
EC
100
AcDbEntity
  8
A4
  6
CENTER
 62
1
100
AcDbLine
 10
124.6650053810251
 20
177.7736809759078
 30
0.000000000000000
 11
107.0650053810251
 21
177.7736809759078
 31
0.000000000000000
  0
LINE
  5
ED
100
AcDbEntity
  8
A4
  6
CENTER
 62
1
100
AcDbLine
 10
115.8650053810251
 20
186.5736809759078
 30
0.000000000000000
 11
115.8650053810251
 21
168.9736809759078
 31
0.000000000000000
  0
LINE
  5
EE
100
AcDbEntity
  8
A4
  6
CENTER
 62
1
100
AcDbLine
 10
124.6650053810251
 20
337.7736809759080
 30
0.000000000000000
 11
107.0650053810251
 21
337.7736809759080
 31
0.000000000000000
  0
LINE
  5
EF
100
AcDbEntity
  8
A4
  6
CENTER
 62
1
100
AcDbLine
 10
115.8650053810251
 20
346.5736809759079
 30
0.000000000000000
 11
115.8650053810251
 21
328.9736809759079
 31
0.000000000000000
  0
LINE
  5
F0
100
AcDbEntity
  8
A1
  6
CONTINUOUS
 62
7
100
AcDbLine
 10
185.1150053810252
 20
194.7736809759053
 30
0.000000000000000
 11
181.8650053810252
 21
208.7736809759073
 31
0.000000000000000
  0
LINE
  5
F1
100
AcDbEntity
  8
A1
  6
CONTINUOUS
 62
7
100
AcDbLine
 10
167.8650053810253
 20
208.7736809759074
 30
0.000000000000000
 11
164.6150053810252
 21
194.7736809759054
 31
0.000000000000000
  0
LINE
  5
F2
100
AcDbEntity
  8
A1
  6
CONTINUOUS
 62
7
100
AcDbLine
 10
185.1150053810251
 20
320.7736809759102
 30
0.000000000000000
 11
181.8650053810252
 21
306.7736809759077
 31
0.000000000000000
  0
LINE
  5
F3
100
AcDbEntity
  8
A1
  6
CONTINUOUS
 62
7
100
AcDbLine
 10
167.8650053810252
 20
306.7736809759077
 30
0.000000000000000
 11
164.6150053810252
 21
320.7736809759102
 31
0.000000000000000
  0
ARC
  5
F4
100
AcDbEntity
  8
A3
  6
DASHED
 62
2
100
AcDbCircle
 10
237.2886317038048
 20
70.27368097590829
 30
0.000000000000000
 40
5.000000000000000
100
AcDbArc
 50
90.00000000000000
 51
172.9999999999999
  0
LINE
  5
F5
100
AcDbEntity
  8
A3
  6
DASHED
 62
2
100
AcDbLine
 10
232.3259009455980
 20
70.88302769293404
 30
0.000000000000000
 11
229.5110815559192
 21
47.95816345121077
 31
0.000000000000000
  0
ARC
  5
F6
100
AcDbEntity
  8
A3
  6
DASHED
 62
2
100
AcDbCircle
 10
210.6527046747344
 20
50.27368097590863
 30
0.000000000000000
 40
19.00000000000000
100
AcDbArc
 50
270.0000000000000
 51
352.9999999999998
  0
CIRCLE
  5
F7
100
AcDbEntity
  8
A3
  6
DASHED
 62
2
100
AcDbCircle
 10
174.8650053810251
 20
313.7736809759091
 30
0.000000000000000
 40
2.000000000000000
  0
CIRCLE
  5
F8
100
AcDbEntity
  8
A3
  6
DASHED
 62
2
100
AcDbCircle
 10
174.8650053810251
 20
201.7736809759066
 30
0.000000000000000
 40
2.000000000000000
  0
LINE
  5
F9
100
AcDbEntity
  8
A4
  6
CENTER
 62
1
100
AcDbLine
 10
321.2446642853907
 20
311.8780677122538
 30
0.000000000000000
 11
324.7829568510380
 21
314.6581547281190
 31
0.000000000000000
  0
LINE
  5
FA
100
AcDbEntity
  8
A4
  6
CENTER
 62
1
100
AcDbLine
 10
321.2446642853907
 20
203.6692942395621
 30
0.000000000000000
 11
324.7829568510381
 21
200.8892072236968
 31
0.000000000000000
  0
ENDSEC
  0
SECTION
  2
OBJECTS
  0
DICTIONARY
  5
12C
100
AcDbDictionary
  3
ACAD_GROUP
350
12D
  3
ACAD_LAYOUT
350
12E
  3
ACAD_MLINESTYLE
350
12F
  0
DICTIONARY
  5
12D
102
{ACAD_REACTORS
330
12C
102
}
330
12C
100
AcDbDictionary
  0
DICTIONARY
  5
12E
102
{ACAD_REACTORS
330
12C
102
}
330
12C
100
AcDbDictionary
  3
Model
350
130
  3
ﾚｲｱｳﾄ1
350
131
  3
ﾚｲｱｳﾄ2
350
132
  0
DICTIONARY
  5
12F
102
{ACAD_REACTORS
330
12C
102
}
330
12C
100
AcDbDictionary
  3
STANDARD
350
133
  0
LAYOUT
  5
130
102
{ACAD_REACTORS
330
12E
102
}
330
12E
100
AcDbPlotSettings
 70
11952
  4
A3
 44
297.000000
 45
420.000000
 73
  1
 72
  1
100
AcDbLayout
  1
Model
 71
0
330
123
  0
LAYOUT
  5
131
102
{ACAD_REACTORS
330
12E
102
}
330
12E
100
AcDbPlotSettings
100
AcDbLayout
  1
ﾚｲｱｳﾄ1
 71
1
330
124
  0
LAYOUT
  5
132
102
{ACAD_REACTORS
330
12E
102
}
330
12E
100
AcDbPlotSettings
100
AcDbLayout
  1
ﾚｲｱｳﾄ2
 71
2
330
125
  0
MLINESTYLE
  5
133
102
{ACAD_REACTORS
330
12F
102
}
330
12F
100
AcDbMlineStyle
  2
STANDARD
 70
     0
  3

 62
   256
 51
90.00
 52
90.00
 71
     2
 49
0.50
 62
   256
  6
BYLAYER
 49
-0.50
 62
   256
  6
BYLAYER
  0
ENDSEC
  0
EOF
