  0
SECTION
  2
HEADER
  9
$ACADVER
  1
AC1015
  9
$DWGCODEPAGE
  3
ANSI_932
  9
$LTSCALE
 40
20.0
  9
$FILLMODE
 70
     1
  9
$CLAYER
  8
0
  9
$PDMODE
 70
     0
  9
$SPLFRAME
 70
     0
  9
$SPLINETYPE
 70
     6
  9
$SPLINESEGS
 70
     8
  9
$DIMASZ
 40
2.000000
  9
$DIMEXE
 40
1.500000
  9
$DIMEXO
 40
0.800000
  9
$DIMTAD
 70
     1
  9
$DIMTIH
 70
     0
  9
$DIMTOH
 70
     0
  9
$DIMTVP
 40
0.500000
  9
$DIMTXT
 40
3.100000
  9
$EXTMIN
 10
0.000000
 20
0.000000
 30
0.000000
  9
$EXTMAX
 10
297.000000
 20
420.000000
 30
0.000000
  9
$MEASUREMENT
 70
  1
  9
$LIMMIN
 10
0.000000
 20
0.000000
  9
$LIMMAX
 10
297.000000
 20
420.000000
  9
$HANDSEED
  5
11F
  9
$LWDISPLAY
290
     0
  9
$DIMBLK
  1
_OPEN
  9
$DIMDEC
 70
     2
  9
$DIMADEC
 70
     2
  9
$DIMAUNIT
 70
     0
  9
$DIMZIN
 70
     8
  9
$DIMAZIN
 70
     2
  9
$DIMTOFL
 70
     1
  0
ENDSEC
  0
SECTION
  2
CLASSES
  0
ENDSEC
  0
SECTION
  2
TABLES
  0
TABLE
  2
VPORT
  5
EB
100
AcDbSymbolTable
 70
     1
  0
VPORT
  5
EC
100
AcDbSymbolTableRecord
100
AcDbViewportTableRecord
  2
*ACTIVE
 70
     0
 12
70.499266
 22
84.934463
 40
133.868925
 41
0.903858
  0
ENDTAB
  0
TABLE
  2
LTYPE
  5
ED
100
AcDbSymbolTable
 70
     2
  0
LTYPE
  5
EE
100
AcDbSymbolTableRecord
100
AcDbLinetypeTableRecord
  2
BYBLOCK
 70
     0
  3

 72
    65
 73
     0
 40
0.0
  0
LTYPE
  5
EF
100
AcDbSymbolTableRecord
100
AcDbLinetypeTableRecord
  2
BYLAYER
 70
     0
  3

 72
    65
 73
     0
 40
0.0
  0
LTYPE
  5
F0
100
AcDbSymbolTableRecord
100
AcDbLinetypeTableRecord
  2
CONTINUOUS
 70
     0
  3
Solid line (NEC CAE2D for Win R15.2 : 2020.06.11)
 72
    65
 73
     0
 40
0.0
  0
LTYPE
  5
F1
100
AcDbSymbolTableRecord
100
AcDbLinetypeTableRecord
  2
CENTER
 70
     0
  3
____ _ ____ _ ____ _ ____ _ ____ _ ____
 72
    65
 73
     4
 40
2.0
 49
1.25
 74
     0
 49
-0.25
 74
     0
 49
0.25
 74
     0
 49
-0.25
 74
     0
  0
ENDTAB
  0
TABLE
  2
LAYER
  5
F2
100
AcDbSymbolTable
 70
    14
  0
LAYER
  5
F3
100
AcDbSymbolTableRecord
100
AcDbLayerTableRecord
  2
0
 70
     0
 62
     7
  6
CONTINUOUS
370
    -3
390

  0
LAYER
  5
F4
100
AcDbSymbolTableRecord
100
AcDbLayerTableRecord
  2
A0
 70
     0
 62
     9
  6
CONTINUOUS
370
    -3
390

  0
LAYER
  5
F5
100
AcDbSymbolTableRecord
100
AcDbLayerTableRecord
  2
A2
 70
     0
 62
     9
  6
CONTINUOUS
370
    -3
390

  0
LAYER
  5
F6
100
AcDbSymbolTableRecord
100
AcDbLayerTableRecord
  2
A4
 70
     0
 62
     9
  6
CONTINUOUS
370
    -3
390

  0
LAYER
  5
F7
100
AcDbSymbolTableRecord
100
AcDbLayerTableRecord
  2
A5
 70
     0
 62
     8
  6
CONTINUOUS
370
    -3
390

  0
LAYER
  5
F8
100
AcDbSymbolTableRecord
100
AcDbLayerTableRecord
  2
A6
 70
     0
 62
    12
  6
CONTINUOUS
370
    -3
390

  0
LAYER
  5
F9
100
AcDbSymbolTableRecord
100
AcDbLayerTableRecord
  2
A8
 70
     0
 62
    10
  6
CONTINUOUS
370
    -3
390

  0
LAYER
  5
FA
100
AcDbSymbolTableRecord
100
AcDbLayerTableRecord
  2
A9
 70
     0
 62
     9
  6
CONTINUOUS
370
    -3
390

  0
LAYER
  5
FB
100
AcDbSymbolTableRecord
100
AcDbLayerTableRecord
  2
A10
 70
     0
 62
     6
  6
CONTINUOUS
370
    -3
390

  0
LAYER
  5
FC
100
AcDbSymbolTableRecord
100
AcDbLayerTableRecord
  2
A20
 70
     0
 62
     1
  6
CONTINUOUS
370
    -3
390

  0
LAYER
  5
FD
100
AcDbSymbolTableRecord
100
AcDbLayerTableRecord
  2
A30
 70
     0
 62
     1
  6
CONTINUOUS
370
    -3
390

  0
LAYER
  5
FE
100
AcDbSymbolTableRecord
100
AcDbLayerTableRecord
  2
A40
 70
     0
 62
     9
  6
CONTINUOUS
370
    -3
390

  0
LAYER
  5
FF
100
AcDbSymbolTableRecord
100
AcDbLayerTableRecord
  2
A50
 70
     0
 62
    12
  6
CONTINUOUS
370
    -3
390

  0
LAYER
  5
100
100
AcDbSymbolTableRecord
100
AcDbLayerTableRecord
  2
A1023
 70
     0
 62
    16
  6
CONTINUOUS
370
    -3
390

  0
ENDTAB
  0
TABLE
  2
STYLE
  5
101
100
AcDbSymbolTable
 70
     4
  0
STYLE
  5
102
100
AcDbSymbolTableRecord
100
AcDbTextStyleTableRecord
  2
STANDARD
 70
    64
 40
0.0
 41
1.0
 50
0.0
 71
     0
 42
3.000000000000000
  3
TXT
  4

  0
STYLE
  5
103
100
AcDbSymbolTableRecord
100
AcDbTextStyleTableRecord
  2
ANKTATE
 70
    68
 40
0.0
 41
1.0
 50
0.0
 71
     0
 42
3.000000000000000
  3
TXT
  4

  0
STYLE
  5
104
100
AcDbSymbolTableRecord
100
AcDbTextStyleTableRecord
  2
KNJYOKO
 70
    64
 40
0.0
 41
1.0
 50
0.0
 71
     0
 42
3.000000000000000
  3
TXT
  4
BIGFONT
  0
STYLE
  5
105
100
AcDbSymbolTableRecord
100
AcDbTextStyleTableRecord
  2
KNJTATE
 70
    68
 40
0.0
 41
1.0
 50
0.0
 71
     0
 42
3.000000000000000
  3
TXT
  4
BIGFONT
  0
ENDTAB
  0
TABLE
  2
VIEW
  5
106
100
AcDbSymbolTable
 70
     0
  0
ENDTAB
  0
TABLE
  2
UCS
  5
107
100
AcDbSymbolTable
 70
     0
  0
ENDTAB
  0
TABLE
  2
APPID
  5
108
100
AcDbSymbolTable
 70
     1
  0
APPID
  5
109
100
AcDbSymbolTableRecord
100
AcDbRegAppTableRecord
  2
ACAD
 70
     0
  0
ENDTAB
  0
TABLE
  2
DIMSTYLE
  5
10A
100
AcDbSymbolTable
 70
     2
100
AcDbDimStyleTable
  0
DIMSTYLE
105
10B
100
AcDbSymbolTableRecord
100
AcDbDimStyleTableRecord
  2
STANDARD
 70
     0
 41
2.000000
 44
1.500000
 42
0.800000
145
0.661290
140
3.100000
144
1.000000
146
0.645161
340
102
  0
DIMSTYLE
105
10C
100
AcDbSymbolTableRecord
100
AcDbDimStyleTableRecord
  2
A001
 70
     0
 41
2.000000
 44
1.500000
 42
0.800000
145
0.661290
140
3.100000
144
1.000000
146
0.645161
 77
     1
 73
     0
 74
     0
271
     2
179
     2
275
     0
 78
     8
 79
     2
172
     1
340
102
  0
ENDTAB
  0
TABLE
  2
BLOCK_RECORD
  5
10D
100
AcDbSymbolTable
 70
    12
  0
BLOCK_RECORD
  5
10E
100
AcDbSymbolTableRecord
100
AcDbBlockTableRecord
  2
*MODEL_SPACE
  0
BLOCK_RECORD
  5
10F
100
AcDbSymbolTableRecord
100
AcDbBlockTableRecord
  2
*PAPER_SPACE
  0
BLOCK_RECORD
  5
110
100
AcDbSymbolTableRecord
100
AcDbBlockTableRecord
  2
*PAPER_SPACE0
  0
BLOCK_RECORD
  5
1
100
AcDbSymbolTableRecord
100
AcDbBlockTableRecord
  2
_NONE
  0
BLOCK_RECORD
  5
4
100
AcDbSymbolTableRecord
100
AcDbBlockTableRecord
  2
_CLOSED
  0
BLOCK_RECORD
  5
B
100
AcDbSymbolTableRecord
100
AcDbBlockTableRecord
  2
_DOT
  0
BLOCK_RECORD
  5
13
100
AcDbSymbolTableRecord
100
AcDbBlockTableRecord
  2
_OPEN
  0
BLOCK_RECORD
  5
19
100
AcDbSymbolTableRecord
100
AcDbBlockTableRecord
  2
_ORIGIN
  0
BLOCK_RECORD
  5
1E
100
AcDbSymbolTableRecord
100
AcDbBlockTableRecord
  2
_OPEN30
  0
BLOCK_RECORD
  5
24
100
AcDbSymbolTableRecord
100
AcDbBlockTableRecord
  2
_BOXFILLED
  0
BLOCK_RECORD
  5
29
100
AcDbSymbolTableRecord
100
AcDbBlockTableRecord
  2
_BOXBLANK
  0
BLOCK_RECORD
  5
31
100
AcDbSymbolTableRecord
100
AcDbBlockTableRecord
  2
_OBLIQUE
  0
BLOCK_RECORD
  5
35
100
AcDbSymbolTableRecord
100
AcDbBlockTableRecord
  2
_OPEN90
  0
BLOCK_RECORD
  5
3B
100
AcDbSymbolTableRecord
100
AcDbBlockTableRecord
  2
_CLOSEDBLANK
  0
BLOCK_RECORD
  5
41
100
AcDbSymbolTableRecord
100
AcDbBlockTableRecord
  2
_DOTBLANK
  0
ENDTAB
  0
ENDSEC
  0
SECTION
  2
BLOCKS
  0
BLOCK
  5
111
100
AcDbEntity
  8
0
100
AcDbBlockBegin
  2
*MODEL_SPACE
 70
     0
 10
0.0
 20
0.0
 30
0.0
  3
*MODEL_SPACE
  1

  0
ENDBLK
  5
112
100
AcDbEntity
  8
0
100
AcDbBlockEnd
  0
BLOCK
  5
113
100
AcDbEntity
  8
0
100
AcDbBlockBegin
  2
*PAPER_SPACE
 70
     0
 10
0.0
 20
0.0
 30
0.0
  3
*PAPER_SPACE
  1

  0
ENDBLK
  5
114
100
AcDbEntity
  8
0
100
AcDbBlockEnd
  0
BLOCK
  5
115
100
AcDbEntity
  8
0
100
AcDbBlockBegin
  2
*PAPER_SPACE0
 70
     0
 10
0.0
 20
0.0
 30
0.0
  3
*PAPER_SPACE0
  1

  0
ENDBLK
  5
116
100
AcDbEntity
  8
0
100
AcDbBlockEnd
  0
BLOCK
  5
2
330
1
100
AcDbEntity
  8
0
100
AcDbBlockBegin
  2
_NONE
 70
     0
 10
0.0
 20
0.0
 30
0.0
  3
_NONE
  1

  0
ENDBLK
  5
3
330
1
100
AcDbEntity
  8
0
100
AcDbBlockEnd
  0
BLOCK
  5
5
330
4
100
AcDbEntity
  8
0
100
AcDbBlockBegin
  2
_CLOSED
 70
     0
 10
0.0
 20
0.0
 30
0.0
  3
_CLOSED
  1

  0
LINE
  5
6
330
4
100
AcDbEntity
  8
0
  6
BYBLOCK
 62
     0
370
    -2
100
AcDbLine
 10
-1.0
 20
0.166667
 30
0.0
 11
0.0
 21
0.0
 31
0.0
  0
LINE
  5
7
330
4
100
AcDbEntity
  8
0
  6
BYBLOCK
 62
     0
370
    -2
100
AcDbLine
 10
0.0
 20
0.0
 30
0.0
 11
-1.0
 21
-0.166667
 31
0.0
  0
LINE
  5
8
330
4
100
AcDbEntity
  8
0
  6
BYBLOCK
 62
     0
370
    -2
100
AcDbLine
 10
-1.0
 20
0.166667
 30
0.0
 11
-1.0
 21
-0.166667
 31
0.0
  0
LINE
  5
9
330
4
100
AcDbEntity
  8
0
  6
BYBLOCK
 62
     0
370
    -2
100
AcDbLine
 10
0.0
 20
0.0
 30
0.0
 11
-1.0
 21
0.0
 31
0.0
  0
ENDBLK
  5
A
330
4
100
AcDbEntity
  8
0
100
AcDbBlockEnd
  0
BLOCK
  5
C
330
B
100
AcDbEntity
  8
0
100
AcDbBlockBegin
  2
_DOT
 70
     0
 10
0.0
 20
0.0
 30
0.0
  3
_DOT
  1

  0
POLYLINE
  5
D
330
B
100
AcDbEntity
  8
0
  6
BYBLOCK
 62
     0
370
    -2
100
AcDb2dPolyline
 66
     1
 10
0.0
 20
0.0
 30
0.0
 70
     1
 40
0.5
 41
0.5
  0
VERTEX
  5
E
330
B
100
AcDbEntity
  8
0
  6
BYBLOCK
 62
     0
370
    -2
100
AcDbVertex
100
AcDb2dVertex
 10
-0.25
 20
0.0
 30
0.0
 42
1.0
  0
VERTEX
  5
F
330
B
100
AcDbEntity
  8
0
  6
BYBLOCK
 62
     0
370
    -2
100
AcDbVertex
100
AcDb2dVertex
 10
0.25
 20
0.0
 30
0.0
 42
1.0
  0
SEQEND
  5
10
330
B
100
AcDbEntity
  8
0
  6
BYBLOCK
 62
     0
370
    -2
  0
LINE
  5
11
330
B
100
AcDbEntity
  8
0
  6
BYBLOCK
 62
     0
370
    -2
100
AcDbLine
 10
-0.5
 20
0.0
 30
0.0
 11
-1.0
 21
0.0
 31
0.0
  0
ENDBLK
  5
12
330
B
100
AcDbEntity
  8
0
100
AcDbBlockEnd
  0
BLOCK
  5
14
330
13
100
AcDbEntity
  8
0
100
AcDbBlockBegin
  2
_OPEN
 70
     0
 10
0.0
 20
0.0
 30
0.0
  3
_OPEN
  1

  0
LINE
  5
15
330
13
100
AcDbEntity
  8
0
  6
BYBLOCK
 62
     0
370
    -2
100
AcDbLine
 10
-1.0
 20
0.166667
 30
0.0
 11
0.0
 21
0.0
 31
0.0
  0
LINE
  5
16
330
13
100
AcDbEntity
  8
0
  6
BYBLOCK
 62
     0
370
    -2
100
AcDbLine
 10
0.0
 20
0.0
 30
0.0
 11
-1.0
 21
-0.166667
 31
0.0
  0
LINE
  5
17
330
13
100
AcDbEntity
  8
0
  6
BYBLOCK
 62
     0
370
    -2
100
AcDbLine
 10
0.0
 20
0.0
 30
0.0
 11
-1.0
 21
0.0
 31
0.0
  0
ENDBLK
  5
18
330
13
100
AcDbEntity
  8
0
100
AcDbBlockEnd
  0
BLOCK
  5
1A
330
19
100
AcDbEntity
  8
0
100
AcDbBlockBegin
  2
_ORIGIN
 70
     0
 10
0.0
 20
0.0
 30
0.0
  3
_ORIGIN
  1

  0
CIRCLE
  5
1B
330
19
100
AcDbEntity
  8
0
  6
BYBLOCK
 62
     0
370
    -2
100
AcDbCircle
 10
0.0
 20
0.0
 30
0.0
 40
0.5
  0
LINE
  5
1C
330
19
100
AcDbEntity
  8
0
  6
BYBLOCK
 62
     0
370
    -2
100
AcDbLine
 10
0.0
 20
0.0
 30
0.0
 11
-1.0
 21
0.0
 31
0.0
  0
ENDBLK
  5
1D
330
19
100
AcDbEntity
  8
0
100
AcDbBlockEnd
  0
BLOCK
  5
1F
330
1E
100
AcDbEntity
  8
0
100
AcDbBlockBegin
  2
_OPEN30
 70
     0
 10
0.0
 20
0.0
 30
0.0
  3
_OPEN30
  1

  0
LINE
  5
20
330
1E
100
AcDbEntity
  8
0
  6
BYBLOCK
 62
     0
370
    -2
100
AcDbLine
 10
-1.0
 20
0.267949
 30
0.0
 11
0.0
 21
0.0
 31
0.0
  0
LINE
  5
21
330
1E
100
AcDbEntity
  8
0
  6
BYBLOCK
 62
     0
370
    -2
100
AcDbLine
 10
0.0
 20
0.0
 30
0.0
 11
-1.0
 21
-0.267949
 31
0.0
  0
LINE
  5
22
330
1E
100
AcDbEntity
  8
0
  6
BYBLOCK
 62
     0
370
    -2
100
AcDbLine
 10
0.0
 20
0.0
 30
0.0
 11
-1.0
 21
0.0
 31
0.0
  0
ENDBLK
  5
23
330
1E
100
AcDbEntity
  8
0
100
AcDbBlockEnd
  0
BLOCK
  5
25
330
24
100
AcDbEntity
  8
0
100
AcDbBlockBegin
  2
_BOXFILLED
 70
     0
 10
0.0
 20
0.0
 30
0.0
  3
_BOXFILLED
  1

  0
SOLID
  5
26
330
24
100
AcDbEntity
  8
0
  6
BYBLOCK
 62
     0
370
    -2
100
AcDbTrace
 10
-0.5
 20
0.5
 30
0.0
 11
0.5
 21
0.5
 31
0.0
 12
-0.5
 22
-0.5
 32
0.0
 13
0.5
 23
-0.5
 33
0.0
  0
LINE
  5
27
330
24
100
AcDbEntity
  8
0
  6
BYBLOCK
 62
     0
370
    -2
100
AcDbLine
 10
-0.5
 20
0.0
 30
0.0
 11
-1.0
 21
0.0
 31
0.0
  0
ENDBLK
  5
28
330
24
100
AcDbEntity
  8
0
100
AcDbBlockEnd
  0
BLOCK
  5
2A
330
29
100
AcDbEntity
  8
0
100
AcDbBlockBegin
  2
_BOXBLANK
 70
     0
 10
0.0
 20
0.0
 30
0.0
  3
_BOXBLANK
  1

  0
LINE
  5
2B
330
29
100
AcDbEntity
  8
0
  6
BYBLOCK
 62
     0
370
    -2
100
AcDbLine
 10
-0.5
 20
-0.5
 30
0.0
 11
0.5
 21
-0.5
 31
0.0
  0
LINE
  5
2C
330
29
100
AcDbEntity
  8
0
  6
BYBLOCK
 62
     0
370
    -2
100
AcDbLine
 10
0.5
 20
-0.5
 30
0.0
 11
0.5
 21
0.5
 31
0.0
  0
LINE
  5
2D
330
29
100
AcDbEntity
  8
0
  6
BYBLOCK
 62
     0
370
    -2
100
AcDbLine
 10
0.5
 20
0.5
 30
0.0
 11
-0.5
 21
0.5
 31
0.0
  0
LINE
  5
2E
330
29
100
AcDbEntity
  8
0
  6
BYBLOCK
 62
     0
370
    -2
100
AcDbLine
 10
-0.5
 20
0.5
 30
0.0
 11
-0.5
 21
-0.5
 31
0.0
  0
LINE
  5
2F
330
29
100
AcDbEntity
  8
0
  6
BYBLOCK
 62
     0
370
    -2
100
AcDbLine
 10
-0.5
 20
0.0
 30
0.0
 11
-1.0
 21
0.0
 31
0.0
  0
ENDBLK
  5
30
330
29
100
AcDbEntity
  8
0
100
AcDbBlockEnd
  0
BLOCK
  5
32
330
31
100
AcDbEntity
  8
0
100
AcDbBlockBegin
  2
_OBLIQUE
 70
     0
 10
0.0
 20
0.0
 30
0.0
  3
_OBLIQUE
  1

  0
LINE
  5
33
330
31
100
AcDbEntity
  8
0
  6
BYBLOCK
 62
     0
370
    -2
100
AcDbLine
 10
-0.5
 20
-0.5
 30
0.0
 11
0.5
 21
0.5
 31
0.0
  0
ENDBLK
  5
34
330
31
100
AcDbEntity
  8
0
100
AcDbBlockEnd
  0
BLOCK
  5
36
330
35
100
AcDbEntity
  8
0
100
AcDbBlockBegin
  2
_OPEN90
 70
     0
 10
0.0
 20
0.0
 30
0.0
  3
_OPEN90
  1

  0
LINE
  5
37
330
35
100
AcDbEntity
  8
0
  6
BYBLOCK
 62
     0
370
    -2
100
AcDbLine
 10
-0.5
 20
0.5
 30
0.0
 11
0.0
 21
0.0
 31
0.0
  0
LINE
  5
38
330
35
100
AcDbEntity
  8
0
  6
BYBLOCK
 62
     0
370
    -2
100
AcDbLine
 10
0.0
 20
0.0
 30
0.0
 11
-0.5
 21
-0.5
 31
0.0
  0
LINE
  5
39
330
35
100
AcDbEntity
  8
0
  6
BYBLOCK
 62
     0
370
    -2
100
AcDbLine
 10
0.0
 20
0.0
 30
0.0
 11
-1.0
 21
0.0
 31
0.0
  0
ENDBLK
  5
3A
330
35
100
AcDbEntity
  8
0
100
AcDbBlockEnd
  0
BLOCK
  5
3C
330
3B
100
AcDbEntity
  8
0
100
AcDbBlockBegin
  2
_CLOSEDBLANK
 70
     0
 10
0.0
 20
0.0
 30
0.0
  3
_CLOSEDBLANK
  1

  0
LINE
  5
3D
330
3B
100
AcDbEntity
  8
0
  6
BYBLOCK
 62
     0
370
    -2
100
AcDbLine
 10
-1.0
 20
0.1666666666666666
 30
0.0
 11
0.0
 21
0.0
 31
0.0
  0
LINE
  5
3E
330
3B
100
AcDbEntity
  8
0
  6
BYBLOCK
 62
     0
370
    -2
100
AcDbLine
 10
0.0
 20
0.0
 30
0.0
 11
-1.0
 21
-0.1666666666666666
 31
0.0
  0
LINE
  5
3F
330
3B
100
AcDbEntity
  8
0
  6
BYBLOCK
 62
     0
370
    -2
100
AcDbLine
 10
-1.0
 20
0.1666666666666666
 30
0.0
 11
-1.0
 21
-0.1666666666666666
 31
0.0
  0
ENDBLK
  5
40
330
3B
100
AcDbEntity
  8
0
100
AcDbBlockEnd
  0
BLOCK
  5
42
330
41
100
AcDbEntity
  8
0
100
AcDbBlockBegin
  2
_DOTBLANK
 70
     0
 10
0.0
 20
0.0
 30
0.0
  3
_DOTBLANK
  1

  0
CIRCLE
  5
43
330
41
100
AcDbEntity
  8
0
  6
BYBLOCK
 62
     0
370
    -2
100
AcDbCircle
 10
0.0
 20
0.0
 30
0.0
 40
0.5
  0
LINE
  5
44
330
41
100
AcDbEntity
  8
0
  6
BYBLOCK
 62
     0
370
    -2
100
AcDbLine
 10
-0.5
 20
0.0
 30
0.0
 11
-1.0
 21
0.0
 31
0.0
  0
ENDBLK
  5
45
330
41
100
AcDbEntity
  8
0
100
AcDbBlockEnd
  0
ENDSEC
  0
SECTION
  2
ENTITIES
  0
MTEXT
  5
46
100
AcDbEntity
  8
A8
  6
CONTINUOUS
 62
7
100
AcDbMText
 10
9.999997526638502
 20
18.00000076076889
 30
0.0000000000000000
 40
3.000000000000000
 41
0.0000000000000000
 44
0.6739999771118164
 71
     7
 72
     1
  1
{\H0.94x;{TYPE No.THA-482-B}}
 11
1.000000000000000
 21
0.0000000000000000
 31
0.0000000000000000
  7
STANDARD
  0
POINT
  5
47
100
AcDbEntity
  8
A0
  6
CONTINUOUS
 62
5
100
AcDbPoint
 10
9.999997526638502
 20
18.00000076076889
 30
0.0000000000000000
  0
POINT
  5
48
100
AcDbEntity
  8
A10
  6
CONTINUOUS
 62
5
100
AcDbPoint
 10
50.00000000000000
 20
50.00000000000000
 30
0.0000000000000000
  0
ARC
  5
49
100
AcDbEntity
  8
A5
  6
CONTINUOUS
 62
7
100
AcDbCircle
 10
52.00000000000001
 20
52.92892548368033
 30
0.0000000000000000
 40
2.000000000000000
100
AcDbArc
 50
180.0000000000000
 51
270.0000000000000
  0
ARC
  5
4A
100
AcDbEntity
  8
A5
  6
CONTINUOUS
 62
7
100
AcDbCircle
 10
52.00000000000001
 20
91.92841848368030
 30
0.0000000000000000
 40
2.000000000000000
100
AcDbArc
 50
90.00000000000000
 51
180.0000000000000
  0
LINE
  5
4B
100
AcDbEntity
  8
A5
  6
CONTINUOUS
 62
7
100
AcDbLine
 10
54.00000000000001
 20
81.70841848368030
 30
0.0000000000000000
 11
54.00000000000001
 21
55.70841848368030
 31
0.0000000000000000
  0
ARC
  5
4C
100
AcDbEntity
  8
A5
  6
CONTINUOUS
 62
7
100
AcDbCircle
 10
78.00000000000003
 20
52.92892548368033
 30
0.0000000000000000
 40
2.000000000000000
100
AcDbArc
 50
270.0000000000000
 51
360.0000000000000
  0
ARC
  5
4D
100
AcDbEntity
  8
A5
  6
CONTINUOUS
 62
7
100
AcDbCircle
 10
78.00000000000003
 20
91.92841848368030
 30
0.0000000000000000
 40
2.000000000000000
100
AcDbArc
 50
0.0000000000000000
 51
90.00000000000000
  0
LINE
  5
4E
100
AcDbEntity
  8
A5
  6
CONTINUOUS
 62
7
100
AcDbLine
 10
76.00000000000003
 20
81.70841848368030
 30
0.0000000000000000
 11
76.00000000000003
 21
55.70841848368030
 31
0.0000000000000000
  0
LINE
  5
4F
100
AcDbEntity
  8
A5
  6
CONTINUOUS
 62
7
100
AcDbLine
 10
80.00000000000003
 20
53.20892548368030
 30
0.0000000000000000
 11
80.00000000000003
 21
91.92841848368030
 31
0.0000000000000000
  0
LINE
  5
50
100
AcDbEntity
  8
A5
  6
CONTINUOUS
 62
7
100
AcDbLine
 10
80.00000000000003
 20
52.92892548368033
 30
0.0000000000000000
 11
80.00000000000003
 21
78.67755348368033
 31
0.0000000000000000
  0
LINE
  5
51
100
AcDbEntity
  8
A5
  6
CONTINUOUS
 62
7
100
AcDbLine
 10
80.00000000000003
 20
78.67755348368033
 30
0.0000000000000000
 11
80.00000000000003
 21
80.11206848368030
 31
0.0000000000000000
  0
LINE
  5
52
100
AcDbEntity
  8
A5
  6
CONTINUOUS
 62
7
100
AcDbLine
 10
52.00000000000001
 20
50.92892548368033
 30
0.0000000000000000
 11
78.00000000000003
 21
50.92892548368033
 31
0.0000000000000000
  0
LINE
  5
53
100
AcDbEntity
  8
A5
  6
CONTINUOUS
 62
7
100
AcDbLine
 10
52.00000000000001
 20
93.92841848368030
 30
0.0000000000000000
 11
78.00000000000003
 21
93.92841848368030
 31
0.0000000000000000
  0
LINE
  5
54
100
AcDbEntity
  8
A5
  6
CONTINUOUS
 62
7
100
AcDbLine
 10
53.60000000000001
 20
93.92841848368030
 30
0.0000000000000000
 11
53.60000000000001
 21
95.71482073671817
 31
0.0000000000000000
  0
LINE
  5
55
100
AcDbEntity
  8
A5
  6
CONTINUOUS
 62
7
100
AcDbLine
 10
59.60000000000001
 20
93.92841848368030
 30
0.0000000000000000
 11
59.60000000000001
 21
95.71482073671820
 31
0.0000000000000000
  0
ARC
  5
56
100
AcDbEntity
  8
A5
  6
CONTINUOUS
 62
7
100
AcDbCircle
 10
54.50000000000001
 20
55.70841848368030
 30
0.0000000000000000
 40
0.5000000000000000
100
AcDbArc
 50
180.0000000000000
 51
270.0000000000000
  0
LINE
  5
57
100
AcDbEntity
  8
A6
  6
CONTINUOUS
 62
7
100
AcDbLine
 10
52.10000000000003
 20
140.3679034836803
 30
0.0000000000000000
 11
52.10000000000003
 21
141.3679034836803
 31
0.0000000000000000
  0
LINE
  5
58
100
AcDbEntity
  8
A6
  6
CONTINUOUS
 62
7
100
AcDbLine
 10
50.00000000000001
 20
139.3679034836803
 30
0.0000000000000000
 11
50.00000000000001
 21
140.3679034836803
 31
0.0000000000000000
  0
LINE
  5
59
100
AcDbEntity
  8
A6
  6
CONTINUOUS
 62
7
100
AcDbLine
 10
79.78276199999999
 20
136.8848664836803
 30
0.0000000000000000
 11
79.99999999999997
 21
139.3679034836803
 31
0.0000000000000000
  0
LINE
  5
5A
100
AcDbEntity
  8
A6
  6
CONTINUOUS
 62
7
100
AcDbLine
 10
80.00000000000003
 20
139.3679034836803
 30
0.0000000000000000
 11
80.00000000000003
 21
140.3679034836803
 31
0.0000000000000000
  0
LINE
  5
5B
100
AcDbEntity
  8
A6
  6
CONTINUOUS
 62
7
100
AcDbLine
 10
61.00000000000004
 20
143.4174944836803
 30
0.0000000000000000
 11
62.00000000000004
 21
143.4174944836803
 31
0.0000000000000000
  0
LINE
  5
5C
100
AcDbEntity
  8
A6
  6
CONTINUOUS
 62
7
100
AcDbLine
 10
50.00000000000001
 20
140.3679034836803
 30
0.0000000000000000
 11
80.00000000000003
 21
140.3679034836803
 31
0.0000000000000000
  0
LINE
  5
5D
100
AcDbEntity
  8
A6
  6
CONTINUOUS
 62
7
100
AcDbLine
 10
50.71533500000002
 20
136.4284444836803
 30
0.0000000000000000
 11
79.28466500000002
 21
136.4284444836803
 31
0.0000000000000000
  0
LINE
  5
5E
100
AcDbEntity
  8
A6
  6
CONTINUOUS
 62
7
100
AcDbLine
 10
59.60000000000001
 20
141.0179034836803
 30
0.0000000000000000
 11
59.60000000000001
 21
151.3689254836803
 31
0.0000000000000000
  0
LINE
  5
5F
100
AcDbEntity
  8
A6
  6
CONTINUOUS
 62
7
100
AcDbLine
 10
53.60000000000001
 20
141.0179034836803
 30
0.0000000000000000
 11
53.60000000000001
 21
151.3689254836803
 31
0.0000000000000000
  0
LINE
  5
60
100
AcDbEntity
  8
A6
  6
CONTINUOUS
 62
7
100
AcDbLine
 10
77.90000000000002
 20
140.3679034836803
 30
0.0000000000000000
 11
77.90000000000002
 21
141.3679034836803
 31
0.0000000000000000
  0
LINE
  5
61
100
AcDbEntity
  8
A6
  6
CONTINUOUS
 62
7
100
AcDbLine
 10
50.21723700000005
 20
136.8848664836802
 30
0.0000000000000000
 11
50.00000000000001
 21
139.3679034836803
 31
0.0000000000000000
  0
ARC
  5
62
100
AcDbEntity
  8
A6
  6
CONTINUOUS
 62
7
100
AcDbCircle
 10
50.71533500000002
 20
136.9284444836803
 30
0.0000000000000000
 40
0.5000000000000000
100
AcDbArc
 50
185.0000000000000
 51
270.0000000000000
  0
ARC
  5
63
100
AcDbEntity
  8
A6
  6
CONTINUOUS
 62
7
100
AcDbCircle
 10
79.28466500000002
 20
136.9284444836803
 30
0.0000000000000000
 40
0.5000000000000000
100
AcDbArc
 50
270.0000000000000
 51
355.0000000000000
  0
LINE
  5
64
100
AcDbEntity
  8
A6
  6
CENTER
 62
1
100
AcDbLine
 10
65.00000000000004
 20
135.9284444836803
 30
0.0000000000000000
 11
65.00000000000004
 21
151.8689254836803
 31
0.0000000000000000
  0
LINE
  5
65
100
AcDbEntity
  8
A8
  6
CENTER
 62
1
100
AcDbLine
 10
65.00000000000004
 20
48.50000000000000
 30
0.0000000000000000
 11
65.00000000000004
 21
97.21482073671820
 31
0.0000000000000000
  0
LINE
  5
66
100
AcDbEntity
  8
A8
  6
CONTINUOUS
 62
7
100
AcDbLine
 10
54.50000000000001
 20
55.20841848368030
 30
0.0000000000000000
 11
75.50000000000003
 21
55.20841848368030
 31
0.0000000000000000
  0
ARC
  5
67
100
AcDbEntity
  8
A8
  6
CONTINUOUS
 62
7
100
AcDbCircle
 10
75.50000000000003
 20
55.70841848368030
 30
0.0000000000000000
 40
0.5000000000000000
100
AcDbArc
 50
270.0000000000000
 51
360.0000000000000
  0
SPLINE
  5
68
100
AcDbEntity
  8
A8
  6
CONTINUOUS
 62
1
100
AcDbSpline
210
0.0000000000000000
220
0.0000000000000000
230
1.000000000000000
 70
     8
 71
     3
 72
    52
 73
    48
 74
     0
 42
1.000000000000000e-07
 43
1.000000000000000e-07
 12
-0.1662044081931526
 22
0.9860913216821245
 32
0.0000000000000000
 13
-0.2847073342657040
 23
0.9586144865447750
 33
0.0000000000000000
 40
0.0000000000000000
 40
0.0000000000000000
 40
0.0000000000000000
 40
0.0000000000000000
 40
0.08484354556299641
 40
0.1708688901959871
 40
0.2592935499723491
 40
0.3513994625310732
 40
0.4485497655321520
 40
0.5517961575490711
 40
0.6563940949335544
 40
0.7543534689994935
 40
0.8418306671188714
 40
0.9254328717350603
 40
1.023290480479175
 40
1.140663191114285
 40
1.271012918650573
 40
1.404072952953440
 40
1.528278275951145
 40
1.631670462725221
 40
1.702740301367544
 40
1.735770248369816
 40
1.783717095488284
 40
1.875222960285683
 40
1.986457892991310
 40
2.090564510242206
 40
2.161518157964496
 40
2.193680652380380
 40
2.243287973085810
 40
2.325565500784953
 40
2.433080993018959
 40
2.556229302400930
 40
2.685293744316550
 40
2.811158071859974
 40
2.926308366340481
 40
3.027244060409354
 40
3.119889671029789
 40
3.215678904585227
 40
3.318803272740154
 40
3.427622675015683
 40
3.537765641143438
 40
3.644031297860689
 40
3.741838470184088
 40
3.829481240978200
 40
3.913446604437009
 40
4.001685756648653
 40
4.096955366457886
 40
4.198384708597528
 40
4.303261644325967
 40
4.303261644325967
 40
4.303261644325967
 40
4.303261644325967
 10
52.53590207483605
 20
90.06022718787912
 30
0.0000000000000000
 10
52.53120161774295
 20
90.08811501587260
 30
0.0000000000000000
 10
52.52211826716980
 20
90.14434310943929
 30
0.0000000000000000
 10
52.50906485516508
 20
90.22978649360013
 30
0.0000000000000000
 10
52.49780150385395
 20
90.31793393435160
 30
0.0000000000000000
 10
52.48903630403292
 20
90.41009922799032
 30
0.0000000000000000
 10
52.48377982499572
 20
90.50748828387910
 30
0.0000000000000000
 10
52.48234803689199
 20
90.60916051995412
 30
0.0000000000000000
 10
52.48812990715901
 20
90.71116075222122
 30
0.0000000000000000
 10
52.50732418725674
 20
90.80624472480110
 30
0.0000000000000000
 10
52.54751650355108
 20
90.88900113667671
 30
0.0000000000000000
 10
52.62468659132803
 20
90.94297079616550
 30
0.0000000000000000
 10
52.72682884439074
 20
90.95083335234210
 30
0.0000000000000000
 10
52.84081271722705
 20
90.93360327024982
 30
0.0000000000000000
 10
52.96275640329351
 20
90.89679304889722
 30
0.0000000000000000
 10
53.08204954475052
 20
90.84680583187850
 30
0.0000000000000000
 10
53.18967795542999
 20
90.79333805602550
 30
0.0000000000000000
 10
53.27224380264765
 20
90.73547695344010
 30
0.0000000000000000
 10
53.32947176515823
 20
90.70099264575242
 30
0.0000000000000000
 10
53.35149003868229
 20
90.63903831009992
 30
0.0000000000000000
 10
53.27054498333648
 20
90.64132562368070
 30
0.0000000000000000
 10
53.20022731359130
 20
90.64988493734830
 30
0.0000000000000000
 10
53.09416067441977
 20
90.66932780417122
 30
0.0000000000000000
 10
53.00254441392683
 20
90.67664267392240
 30
0.0000000000000000
 10
52.92965623543567
 20
90.69473654050580
 30
0.0000000000000000
 10
52.88536536778388
 20
90.65200148028131
 30
0.0000000000000000
 10
52.92851383592527
 20
90.59949608149250
 30
0.0000000000000000
 10
52.97545701292101
 20
90.54335337293250
 30
0.0000000000000000
 10
53.05193511126357
 20
90.46837438954950
 30
0.0000000000000000
 10
53.13579152246054
 20
90.38395349045672
 30
0.0000000000000000
 10
53.22183333885737
 20
90.29145260785239
 30
0.0000000000000000
 10
53.29875454789841
 20
90.19475842834763
 30
0.0000000000000000
 10
53.35733611627184
 20
90.09656990274041
 30
0.0000000000000000
 10
53.38850333240391
 20
89.99607609189653
 30
0.0000000000000000
 10
53.37375557006162
 20
89.89747567549179
 30
0.0000000000000000
 10
53.32216663419130
 20
89.81300401903761
 30
0.0000000000000000
 10
53.24659774801917
 20
89.74236789717250
 30
0.0000000000000000
 10
53.15437985021209
 20
89.68619403221541
 30
0.0000000000000000
 10
53.05296815178518
 20
89.64639844908001
 30
0.0000000000000000
 10
52.94976238975927
 20
89.62553193710050
 30
0.0000000000000000
 10
52.85158545086030
 20
89.62564403612410
 30
0.0000000000000000
 10
52.76398509448039
 20
89.65274497948391
 30
0.0000000000000000
 10
52.69504579056972
 20
89.70788213848650
 30
0.0000000000000000
 10
52.64278645267213
 20
89.78093599671959
 30
0.0000000000000000
 10
52.60143125776163
 20
89.86674951295393
 30
0.0000000000000000
 10
52.56728268965928
 20
89.96135443001612
 30
0.0000000000000000
 10
52.54585515243512
 20
90.02671500458121
 30
0.0000000000000000
 10
52.53590207483605
 20
90.06022718787912
 30
0.0000000000000000
  0
SPLINE
  5
69
100
AcDbEntity
  8
A8
  6
CONTINUOUS
 62
1
100
AcDbSpline
210
0.0000000000000000
220
0.0000000000000000
230
1.000000000000000
 70
     8
 71
     3
 72
    42
 73
    38
 74
     0
 42
1.000000000000000e-07
 43
1.000000000000000e-07
 12
-0.3094094434497947
 22
-0.9509289123293456
 32
0.0000000000000000
 13
0.9003679511779410
 23
-0.4351293514478130
 33
0.0000000000000000
 40
0.0000000000000000
 40
0.0000000000000000
 40
0.0000000000000000
 40
0.0000000000000000
 40
0.1093022859657979
 40
0.2162459658403122
 40
0.3185246840676118
 40
0.4139556728078073
 40
0.5006018142052341
 40
0.5770127518388986
 40
0.6427442095511008
 40
0.6994708796233076
 40
0.7527526642673130
 40
0.8118574493904853
 40
0.8818593458307937
 40
0.9615598904204364
 40
1.047752872890195
 40
1.137384387327372
 40
1.228984306142361
 40
1.322885497013575
 40
1.413580352311871
 40
1.490516586945502
 40
1.543291102032950
 40
1.575441566239360
 40
1.616801932138107
 40
1.679290230256863
 40
1.761334457015966
 40
1.858739315557109
 40
1.966693509186532
 40
2.080239839995459
 40
2.194469185316134
 40
2.304686363149626
 40
2.406669486175654
 40
2.498147186357091
 40
2.581953054109477
 40
2.661505902259055
 40
2.739158035973708
 40
2.816206705582562
 40
2.893158461498801
 40
2.893158461498801
 40
2.893158461498801
 40
2.893158461498801
 10
54.59437428219873
 20
90.54677516416481
 30
0.0000000000000000
 10
54.58310122904258
 20
90.51212892952861
 30
0.0000000000000000
 10
54.56029683755612
 20
90.44374824059560
 30
0.0000000000000000
 10
54.52589510101946
 20
90.34329654851862
 30
0.0000000000000000
 10
54.49044364371257
 20
90.24811459098092
 30
0.0000000000000000
 10
54.45359950993610
 20
90.16073525107791
 30
0.0000000000000000
 10
54.41484589712736
 20
90.08367719445172
 30
0.0000000000000000
 10
54.37359571976013
 20
90.01927735471980
 30
0.0000000000000000
 10
54.32893160138151
 20
89.96973042824391
 30
0.0000000000000000
 10
54.27871129403017
 20
89.93737302344331
 30
0.0000000000000000
 10
54.22101617029880
 20
89.92854925018813
 30
0.0000000000000000
 10
54.16174145892434
 20
89.94690631089620
 30
0.0000000000000000
 10
54.10066732474148
 20
89.98026040615181
 30
0.0000000000000000
 10
54.03432450333018
 20
90.02254074922169
 30
0.0000000000000000
 10
53.96185044004740
 20
90.06731968339901
 30
0.0000000000000000
 10
53.88229021950478
 20
90.10787533365911
 30
0.0000000000000000
 10
53.79457326315286
 20
90.13686409452291
 30
0.0000000000000000
 10
53.70251631826868
 20
90.14583533312552
 30
0.0000000000000000
 10
53.61484473118126
 20
90.14355086955970
 30
0.0000000000000000
 10
53.54288510179997
 20
90.14346321455602
 30
0.0000000000000000
 10
53.48554031253194
 20
90.14227418108680
 30
0.0000000000000000
 10
53.45420190057668
 20
90.17962411233893
 30
0.0000000000000000
 10
53.47503989785638
 20
90.22624243786942
 30
0.0000000000000000
 10
53.51105161796521
 20
90.27426320820402
 30
0.0000000000000000
 10
53.56910640413092
 20
90.33178027419282
 30
0.0000000000000000
 10
53.64282696810237
 20
90.39261109109620
 30
0.0000000000000000
 10
53.72958464364255
 20
90.45435149455662
 30
0.0000000000000000
 10
53.82490821272260
 20
90.51308024265472
 30
0.0000000000000000
 10
53.92480027721528
 20
90.56543586079110
 30
0.0000000000000000
 10
54.02512423434938
 20
90.60790849961552
 30
0.0000000000000000
 10
54.12225188529082
 20
90.63746717963292
 30
0.0000000000000000
 10
54.21422777843303
 20
90.65026703155152
 30
0.0000000000000000
 10
54.29951564484558
 20
90.64762238369181
 30
0.0000000000000000
 10
54.37872868237166
 20
90.63275389852032
 30
0.0000000000000000
 10
54.45326418289288
 20
90.60898769432981
 30
0.0000000000000000
 10
54.52452325971323
 20
90.57914692170800
 30
0.0000000000000000
 10
54.57127931726079
 20
90.55793648671300
 30
0.0000000000000000
 10
54.59437428219873
 20
90.54677516416481
 30
0.0000000000000000
  0
SPLINE
  5
6A
100
AcDbEntity
  8
A8
  6
CONTINUOUS
 62
1
100
AcDbSpline
210
0.0000000000000000
220
0.0000000000000000
230
1.000000000000000
 70
     8
 71
     3
 72
    52
 73
    48
 74
     0
 42
1.000000000000000e-07
 43
1.000000000000000e-07
 12
-0.2962087621699538
 22
0.9551232220082966
 32
0.0000000000000000
 13
-0.1936830073191231
 23
0.9810641633839623
 33
0.0000000000000000
 40
0.0000000000000000
 40
0.0000000000000000
 40
0.0000000000000000
 40
0.0000000000000000
 40
0.05360180970568599
 40
0.1065649605775180
 40
0.1584560312454997
 40
0.2092824804771909
 40
0.2597616350329019
 40
0.3114879882152207
 40
0.3650411267546067
 40
0.4183407478340549
 40
0.4694699370996372
 40
0.5197628266999750
 40
0.5753900975760414
 40
0.6353768338554747
 40
0.6908418190287565
 40
0.7311531331516443
 40
0.7491145398526874
 40
0.7689118599548208
 40
0.8073864278308631
 40
0.8620094350415429
 40
0.9285696913266629
 40
1.002603745823850
 40
1.079608486868764
 40
1.155125659889568
 40
1.225296572819075
 40
1.289431184927533
 40
1.348214153090079
 40
1.402595099340734
 40
1.453833261879694
 40
1.503495643923537
 40
1.553367508126961
 40
1.605280763342410
 40
1.660931142137072
 40
1.721465313749766
 40
1.785837125994621
 40
1.851962071001603
 40
1.917602833968087
 40
1.980509317966345
 40
2.038558256931828
 40
2.089982233478615
 40
2.133874721418460
 40
2.171396356734257
 40
2.207820462832156
 40
2.250689807811201
 40
2.302060288087714
 40
2.360127085947771
 40
2.421753260002676
 40
2.421753260002676
 40
2.421753260002676
 40
2.421753260002676
 10
53.86080941259458
 20
89.01227741495083
 30
0.0000000000000000
 10
53.85551697069359
 20
89.02934285934802
 30
0.0000000000000000
 10
53.84569722468241
 20
89.06348501726330
 30
0.0000000000000000
 10
53.83230282804969
 20
89.11459329084019
 30
0.0000000000000000
 10
53.82292423654907
 20
89.16571467984332
 30
0.0000000000000000
 10
53.81946836273762
 20
89.21679791549221
 30
0.0000000000000000
 10
53.82396836745959
 20
89.26793251293722
 30
0.0000000000000000
 10
53.83933882248625
 20
89.31784807225782
 30
0.0000000000000000
 10
53.86138995949794
 20
89.36590376434421
 30
0.0000000000000000
 10
53.88274731469063
 20
89.41404069568731
 30
0.0000000000000000
 10
53.89734161049334
 20
89.46390116631721
 30
0.0000000000000000
 10
53.89578300582981
 20
89.51761305963561
 30
0.0000000000000000
 10
53.87068243353202
 20
89.56832721330332
 30
0.0000000000000000
 10
53.83611527444201
 20
89.61302008407770
 30
0.0000000000000000
 10
53.80228956898917
 20
89.65440676895750
 30
0.0000000000000000
 10
53.77644513937652
 20
89.67773770322449
 30
0.0000000000000000
 10
53.76550922137046
 20
89.71022396892391
 30
0.0000000000000000
 10
53.79973101416265
 20
89.71031918891501
 30
0.0000000000000000
 10
53.83169422424810
 20
89.70040284243120
 30
0.0000000000000000
 10
53.88366716939122
 20
89.68194510717831
 30
0.0000000000000000
 10
53.94232398915447
 20
89.65525316996201
 30
0.0000000000000000
 10
54.00720716742127
 20
89.62231439022892
 30
0.0000000000000000
 10
54.07270994629322
 20
89.58478416336081
 30
0.0000000000000000
 10
54.13512155668353
 20
89.54448383417142
 30
0.0000000000000000
 10
54.19105752245046
 20
89.50237312695421
 30
0.0000000000000000
 10
54.23879825843623
 20
89.45904154618611
 30
0.0000000000000000
 10
54.27793238564603
 20
89.41455513966562
 30
0.0000000000000000
 10
54.30830015351292
 20
89.36869553469680
 30
0.0000000000000000
 10
54.32967861262073
 20
89.32127565110912
 30
0.0000000000000000
 10
54.34179821748326
 20
89.27219825835502
 30
0.0000000000000000
 10
54.34444346008222
 20
89.22148592368470
 30
0.0000000000000000
 10
54.33754280817557
 20
89.16919385611610
 30
0.0000000000000000
 10
54.32115012071448
 20
89.11538504761691
 30
0.0000000000000000
 10
54.29571578018066
 20
89.06067107961820
 30
0.0000000000000000
 10
54.26279824254554
 20
89.00604710022520
 30
0.0000000000000000
 10
54.22401161344762
 20
88.95330985791682
 30
0.0000000000000000
 10
54.18111796332830
 20
88.90450690789183
 30
0.0000000000000000
 10
54.13588076319000
 20
88.86167227911332
 30
0.0000000000000000
 10
54.09005842066135
 20
88.82678544080099
 30
0.0000000000000000
 10
54.04519485916755
 20
88.80174288777431
 30
0.0000000000000000
 10
54.00257895311545
 20
88.78837507982260
 30
0.0000000000000000
 10
53.96187480724761
 20
88.78965269101363
 30
0.0000000000000000
 10
53.92788366212535
 20
88.81215317291290
 30
0.0000000000000000
 10
53.90523332723133
 20
88.85020781522772
 30
0.0000000000000000
 10
53.88764725750035
 20
88.89788111110602
 30
0.0000000000000000
 10
53.87360998191166
 20
88.95321644238240
 30
0.0000000000000000
 10
53.86478806016810
 20
88.99212433798689
 30
0.0000000000000000
 10
53.86080941259458
 20
89.01227741495083
 30
0.0000000000000000
  0
SPLINE
  5
6B
100
AcDbEntity
  8
A8
  6
CONTINUOUS
 62
1
100
AcDbSpline
210
0.0000000000000000
220
0.0000000000000000
230
1.000000000000000
 70
     8
 71
     3
 72
    57
 73
    53
 74
     0
 42
1.000000000000000e-07
 43
1.000000000000000e-07
 12
-0.9243052942506438
 22
0.3816539309650580
 32
0.0000000000000000
 13
-0.9182248902370702
 23
-0.3960594033087546
 33
0.0000000000000000
 40
0.0000000000000000
 40
0.0000000000000000
 40
0.0000000000000000
 40
0.0000000000000000
 40
0.1467102613736954
 40
0.2886097861007146
 40
0.4209099037856080
 40
0.5388795337717258
 40
0.6379255059722236
 40
0.7138328419355295
 40
0.7637905999413233
 40
0.7934558417659893
 40
0.8353568113404162
 40
0.9034868081815595
 40
0.9949505512069033
 40
1.104483225117675
 40
1.226431731400850
 40
1.355220302976743
 40
1.485626516650608
 40
1.613154882050783
 40
1.734658243044804
 40
1.846713507420884
 40
1.945318352463041
 40
2.027826704760573
 40
2.097346524782391
 40
2.168417730922649
 40
2.253715457014240
 40
2.356281408936799
 40
2.474455693406954
 40
2.604698352197711
 40
2.742740781658858
 40
2.884759106052864
 40
3.027326467678877
 40
3.167038484929482
 40
3.300550784345069
 40
3.424643258413071
 40
3.536338328806530
 40
3.633152983069496
 40
3.713705434239477
 40
3.779290685192241
 40
3.837350335446604
 40
3.903184257403281
 40
3.988090504581941
 40
4.089880772946866
 40
4.203358131122926
 40
4.324243610982569
 40
4.450331818682974
 40
4.576705636854776
 40
4.695132992814452
 40
4.796754362889786
 40
4.875749183426517
 40
4.940778351641640
 40
5.026070419711203
 40
5.135165026877488
 40
5.135165026877488
 40
5.135165026877488
 40
5.135165026877488
 10
52.86355679052646
 20
88.00883987145519
 30
0.0000000000000000
 10
52.81835510009027
 20
88.02750405411061
 30
0.0000000000000000
 10
52.72957722761392
 20
88.06458169165640
 30
0.0000000000000000
 10
52.60038368207141
 20
88.11924068792311
 30
0.0000000000000000
 10
52.48063558157521
 20
88.17188807774519
 30
0.0000000000000000
 10
52.37564303390086
 20
88.22172400823351
 30
0.0000000000000000
 10
52.28818931259057
 20
88.26669512239991
 30
0.0000000000000000
 10
52.22729580627676
 20
88.30829395844250
 30
0.0000000000000000
 10
52.18318186068230
 20
88.34052382566381
 30
0.0000000000000000
 10
52.17970143485574
 20
88.38797151983843
 30
0.0000000000000000
 10
52.23038492366832
 20
88.40772432074331
 30
0.0000000000000000
 10
52.29178898932007
 20
88.42404227802041
 30
0.0000000000000000
 10
52.38188641061036
 20
88.43897752124232
 30
0.0000000000000000
 10
52.48776587764213
 20
88.45494250271511
 30
0.0000000000000000
 10
52.60653976713154
 20
88.47392430563102
 30
0.0000000000000000
 10
52.73119089182534
 20
88.49839616503530
 30
0.0000000000000000
 10
52.85620644039163
 20
88.53042685772911
 30
0.0000000000000000
 10
52.97531809599708
 20
88.57367459268582
 30
0.0000000000000000
 10
53.08405252816497
 20
88.62549429255731
 30
0.0000000000000000
 10
53.18251267031791
 20
88.67611316095861
 30
0.0000000000000000
 10
53.27112422274503
 20
88.71742967348661
 30
0.0000000000000000
 10
53.35128029849592
 20
88.74284078233009
 30
0.0000000000000000
 10
53.42878498903538
 20
88.73866167973190
 30
0.0000000000000000
 10
53.49167867674383
 20
88.69162333042530
 30
0.0000000000000000
 10
53.53925464909101
 20
88.61883235175040
 30
0.0000000000000000
 10
53.57849826951740
 20
88.52425289659462
 30
0.0000000000000000
 10
53.61057497158730
 20
88.41159078335309
 30
0.0000000000000000
 10
53.63668145126807
 20
88.28536795371539
 30
0.0000000000000000
 10
53.65788535026267
 20
88.15021356037400
 30
0.0000000000000000
 10
53.67397216976370
 20
88.01021901853480
 30
0.0000000000000000
 10
53.68430891125060
 20
87.86912324226111
 30
0.0000000000000000
 10
53.68844105272659
 20
87.73053916833391
 30
0.0000000000000000
 10
53.68589560302716
 20
87.59806371831681
 30
0.0000000000000000
 10
53.67623255627957
 20
87.47524759563350
 30
0.0000000000000000
 10
53.65904050585230
 20
87.36559042317290
 30
0.0000000000000000
 10
53.63388568918121
 20
87.27225087108602
 30
0.0000000000000000
 10
53.60009128901935
 20
87.19819683582912
 30
0.0000000000000000
 10
53.55521413038421
 20
87.14474493267173
 30
0.0000000000000000
 10
53.49301624897915
 20
87.12087023346632
 30
0.0000000000000000
 10
53.42239911963712
 20
87.13753978537133
 30
0.0000000000000000
 10
53.35138357516031
 20
87.18406372384860
 30
0.0000000000000000
 10
53.28088278773403
 20
87.25605320810800
 30
0.0000000000000000
 10
53.21934844262266
 20
87.35065657778802
 30
0.0000000000000000
 10
53.17699234178126
 20
87.46419402505509
 30
0.0000000000000000
 10
53.15823396437769
 20
87.58775547251852
 30
0.0000000000000000
 10
53.15110921946736
 20
87.71109992625972
 30
0.0000000000000000
 10
53.14769592419695
 20
87.82682809285100
 30
0.0000000000000000
 10
53.13814995476240
 20
87.92532302359680
 30
0.0000000000000000
 10
53.11695599982703
 20
88.00752307380802
 30
0.0000000000000000
 10
53.04874746452926
 20
88.05701362242701
 30
0.0000000000000000
 10
52.95906639020195
 20
88.03763031186750
 30
0.0000000000000000
 10
52.89694791842338
 20
88.02324251979471
 30
0.0000000000000000
 10
52.86355679052646
 20
88.00883987145519
 30
0.0000000000000000
  0
SPLINE
  5
6C
100
AcDbEntity
  8
A8
  6
CONTINUOUS
 62
1
100
AcDbSpline
210
0.0000000000000000
220
0.0000000000000000
230
1.000000000000000
 70
     8
 71
     3
 72
    57
 73
    53
 74
     0
 42
1.000000000000000e-07
 43
1.000000000000000e-07
 12
-0.4266481891133935
 22
0.9044176705078826
 32
0.0000000000000000
 13
-0.4291578062006920
 23
0.9032295264094046
 33
0.0000000000000000
 40
0.0000000000000000
 40
0.0000000000000000
 40
0.0000000000000000
 40
0.0000000000000000
 40
0.1747202750741269
 40
0.3394433197373470
 40
0.4843400109663452
 40
0.6001329091401033
 40
0.6796161236532039
 40
0.7278000442045575
 40
0.7906600536333701
 40
0.8885592852459022
 40
1.015477890476241
 40
1.161644280237581
 40
1.317182255962112
 40
1.473475509411283
 40
1.624822855554789
 40
1.771439577562846
 40
1.918442989519641
 40
2.066366405647584
 40
2.211291179244281
 40
2.346887416174495
 40
2.465884368021195
 40
2.561661171059687
 40
2.632315372905006
 40
2.693547704787615
 40
2.770726717062534
 40
2.872377368777041
 40
2.997832281559416
 40
3.143696915702384
 40
3.305832822562269
 40
3.480065491450189
 40
3.662569425190949
 40
3.850013830625397
 40
4.034403935582274
 40
4.201533629130022
 40
4.337512169800918
 40
4.432954221671158
 40
4.503574365261391
 40
4.611626407711340
 40
4.760861207282220
 40
4.919987487011623
 40
5.053868732014664
 40
5.130257871542882
 40
5.183408480871745
 40
5.296309186244484
 40
5.448594729187273
 40
5.610749038028962
 40
5.754834190818285
 40
5.864072545432043
 40
5.964915455009575
 40
6.089260404767535
 40
6.238274958079811
 40
6.401191497234236
 40
6.401191497234236
 40
6.401191497234236
 40
6.401191497234236
 10
52.79618849497707
 20
86.44440116518572
 30
0.0000000000000000
 10
52.77134046532315
 20
86.49707453324342
 30
0.0000000000000000
 10
52.72402215089828
 20
86.59991693165429
 30
0.0000000000000000
 10
52.65857448996421
 20
86.74727170805383
 30
0.0000000000000000
 10
52.60424445233095
 20
86.87899658074062
 30
0.0000000000000000
 10
52.57333231157126
 20
86.98688083390383
 30
0.0000000000000000
 10
52.55310848717609
 20
87.06845232211322
 30
0.0000000000000000
 10
52.59105918402334
 20
87.13204172559543
 30
0.0000000000000000
 10
52.66984686461744
 20
87.11564172417022
 30
0.0000000000000000
 10
52.75579753790633
 20
87.08492410709721
 30
0.0000000000000000
 10
52.87057158928228
 20
87.03398260187600
 30
0.0000000000000000
 10
53.00107925056513
 20
86.97741492792230
 30
0.0000000000000000
 10
53.14437202530961
 20
86.92374361332250
 30
0.0000000000000000
 10
53.29395865134602
 20
86.88443577419781
 30
0.0000000000000000
 10
53.44599747544309
 20
86.86985551240983
 30
0.0000000000000000
 10
53.59384055620707
 20
86.89573096333160
 30
0.0000000000000000
 10
53.72994185701133
 20
86.95397885329319
 30
0.0000000000000000
 10
53.85494659584775
 20
87.03117719184792
 30
0.0000000000000000
 10
53.96918134434851
 20
87.11712902837760
 30
0.0000000000000000
 10
54.07210156172839
 20
87.20139375837439
 30
0.0000000000000000
 10
54.16388237593308
 20
87.27439052545853
 30
0.0000000000000000
 10
54.24248807300027
 20
87.32624590820890
 30
0.0000000000000000
 10
54.31897449499088
 20
87.35242704456672
 30
0.0000000000000000
 10
54.38647684963213
 20
87.31721847469183
 30
0.0000000000000000
 10
54.42368187915012
 20
87.24349554185670
 30
0.0000000000000000
 10
54.44628135298028
 20
87.14446558391691
 30
0.0000000000000000
 10
54.45262853324930
 20
87.01967637901981
 30
0.0000000000000000
 10
54.44224124520422
 20
86.87533972328143
 30
0.0000000000000000
 10
54.41363101683659
 20
86.71684653608142
 30
0.0000000000000000
 10
54.36567680582907
 20
86.55035951247692
 30
0.0000000000000000
 10
54.29739325064706
 20
86.38193481725551
 30
0.0000000000000000
 10
54.20796358015069
 20
86.21956766807341
 30
0.0000000000000000
 10
54.10368621436366
 20
86.07342180603629
 30
0.0000000000000000
 10
53.99423275427993
 20
85.95070883233481
 30
0.0000000000000000
 10
53.89307477365092
 20
85.86957188413922
 30
0.0000000000000000
 10
53.79592871426728
 20
85.81674645397391
 30
0.0000000000000000
 10
53.70393542797611
 20
85.86863801873491
 30
0.0000000000000000
 10
53.69756590903036
 20
85.98833990141671
 30
0.0000000000000000
 10
53.69516468873310
 20
86.12148590584113
 30
0.0000000000000000
 10
53.70698425521748
 20
86.27608824853192
 30
0.0000000000000000
 10
53.70859272437731
 20
86.38163767246431
 30
0.0000000000000000
 10
53.70747794087286
 20
86.50384777531971
 30
0.0000000000000000
 10
53.60957358716614
 20
86.46930621603920
 30
0.0000000000000000
 10
53.55194289543037
 20
86.38597651420312
 30
0.0000000000000000
 10
53.45316967145051
 20
86.28014146650852
 30
0.0000000000000000
 10
53.35116564504118
 20
86.16676873316970
 30
0.0000000000000000
 10
53.24818176229162
 20
86.07480726291439
 30
0.0000000000000000
 10
53.12987782309595
 20
86.02833251965922
 30
0.0000000000000000
 10
53.02178859048432
 20
86.08105026345672
 30
0.0000000000000000
 10
52.94241591441259
 20
86.17809588036070
 30
0.0000000000000000
 10
52.86831644821034
 20
86.30349871696870
 30
0.0000000000000000
 10
52.81949412982284
 20
86.39535082235082
 30
0.0000000000000000
 10
52.79618849497707
 20
86.44440116518572
 30
0.0000000000000000
  0
SPLINE
  5
6D
100
AcDbEntity
  8
A8
  6
CONTINUOUS
 62
1
100
AcDbSpline
210
0.0000000000000000
220
0.0000000000000000
230
1.000000000000000
 70
     8
 71
     3
 72
    57
 73
    53
 74
     0
 42
1.000000000000000e-07
 43
1.000000000000000e-07
 12
0.5310434671710027
 22
0.8473445792433267
 32
0.0000000000000000
 13
0.8410552037623802
 23
0.5409492991243496
 33
0.0000000000000000
 40
0.0000000000000000
 40
0.0000000000000000
 40
0.0000000000000000
 40
0.0000000000000000
 40
0.08646357175035552
 40
0.1733959415351561
 40
0.2613548980273619
 40
0.3510683534703429
 40
0.4434983938809612
 40
0.5398781941825230
 40
0.6416834658940479
 40
0.7480571379711756
 40
0.8534338814273987
 40
0.9520222875942504
 40
1.040171786690455
 40
1.120225134641390
 40
1.205671833629023
 40
1.310078044938611
 40
1.431098960482778
 40
1.560461773122662
 40
1.688271017855571
 40
1.804577227321204
 40
1.901020792760271
 40
1.975585321130056
 40
2.047109200298230
 40
2.146889386800899
 40
2.259181173503405
 40
2.348582295592918
 40
2.384958635115805
 40
2.445124568825141
 40
2.548858810761900
 40
2.669007426843653
 40
2.777059358515698
 40
2.851046182857573
 40
2.898711509783169
 40
2.948057457186103
 40
3.017898369089240
 40
3.110919368124542
 40
3.224726199736476
 40
3.355513479364398
 40
3.498977529251790
 40
3.650601121772406
 40
3.805763261877475
 40
3.959781003039341
 40
4.107290973279722
 40
4.241837309638116
 40
4.356944999419968
 40
4.446390409015708
 40
4.504904445006591
 40
4.534197101327247
 40
4.577177860880987
 40
4.655723604205731
 40
4.759968691110808
 40
4.877266923608716
 40
4.877266923608716
 40
4.877266923608716
 40
4.877266923608716
 10
55.19584176165814
 20
84.88744741263659
 30
0.0000000000000000
 10
55.21114706663359
 20
84.91186889224483
 30
0.0000000000000000
 10
55.24131685691042
 20
84.96117085291942
 30
0.0000000000000000
 10
55.28582126766615
 20
85.03607355975092
 30
0.0000000000000000
 10
55.32793890591812
 20
85.11360499318081
 30
0.0000000000000000
 10
55.36666731841812
 20
85.19494659083861
 30
0.0000000000000000
 10
55.40075685165515
 20
85.28139081424419
 30
0.0000000000000000
 10
55.42916314596239
 20
85.37413126769010
 30
0.0000000000000000
 10
55.44996711148535
 20
85.47362848768333
 30
0.0000000000000000
 10
55.46427967990637
 20
85.57717768975149
 30
0.0000000000000000
 10
55.47921646031783
 20
85.67954675027713
 30
0.0000000000000000
 10
55.50045354829795
 20
85.77477645477299
 30
0.0000000000000000
 10
55.53438308806192
 20
85.85777309011590
 30
0.0000000000000000
 10
55.59298954008018
 20
85.92296390078693
 30
0.0000000000000000
 10
55.68240018681864
 20
85.95044902167800
 30
0.0000000000000000
 10
55.78680085538612
 20
85.94343320446993
 30
0.0000000000000000
 10
55.90186225614109
 20
85.91442119435081
 30
0.0000000000000000
 10
56.01891374742159
 20
85.86656523825491
 30
0.0000000000000000
 10
56.12781837026471
 20
85.80578767281170
 30
0.0000000000000000
 10
56.21878275057368
 20
85.73650364979142
 30
0.0000000000000000
 10
56.28273506547548
 20
85.66547978592760
 30
0.0000000000000000
 10
56.31375661038608
 20
85.58353987503952
 30
0.0000000000000000
 10
56.26790719859223
 20
85.50512301067971
 30
0.0000000000000000
 10
56.18001742480884
 20
85.46672619855880
 30
0.0000000000000000
 10
56.08723679247389
 20
85.42429624968892
 30
0.0000000000000000
 10
56.01144352489540
 20
85.41330129653161
 30
0.0000000000000000
 10
55.95891732699529
 20
85.35245532155042
 30
0.0000000000000000
 10
56.05483796702767
 20
85.32912658490889
 30
0.0000000000000000
 10
56.12949586383662
 20
85.30482197153393
 30
0.0000000000000000
 10
56.24298001876453
 20
85.27849128841089
 30
0.0000000000000000
 10
56.33755125891172
 20
85.24900442697611
 30
0.0000000000000000
 10
56.40858776805969
 20
85.21612687438531
 30
0.0000000000000000
 10
56.44043051733216
 20
85.16109414931711
 30
0.0000000000000000
 10
56.41368119728925
 20
85.10597600070540
 30
0.0000000000000000
 10
56.36040567615196
 20
85.06000935127901
 30
0.0000000000000000
 10
56.28183100148824
 20
85.01069595696069
 30
0.0000000000000000
 10
56.18074869066980
 20
84.96119879998079
 30
0.0000000000000000
 10
56.06125504232610
 20
84.91144507918139
 30
0.0000000000000000
 10
55.92783560284813
 20
84.86287206772042
 30
0.0000000000000000
 10
55.78510787660331
 20
84.81638289428670
 30
0.0000000000000000
 10
55.63773937771698
 20
84.77299460686601
 30
0.0000000000000000
 10
55.49064391210108
 20
84.73378401036379
 30
0.0000000000000000
 10
55.34927730298180
 20
84.69969199134923
 30
0.0000000000000000
 10
55.21963370758100
 20
84.67334535443692
 30
0.0000000000000000
 10
55.10799770232224
 20
84.65349827231591
 30
0.0000000000000000
 10
55.02066860738010
 20
84.64937033525760
 30
0.0000000000000000
 10
54.96113938712203
 20
84.64333056184043
 30
0.0000000000000000
 10
54.91940751839614
 20
84.67744200767021
 30
0.0000000000000000
 10
54.96523458904629
 20
84.72413414264111
 30
0.0000000000000000
 10
55.01727274431902
 20
84.76679217086331
 30
0.0000000000000000
 10
55.10239833482204
 20
84.82564118169282
 30
0.0000000000000000
 10
55.16295699871331
 20
84.86629661375051
 30
0.0000000000000000
 10
55.19584176165814
 20
84.88744741263659
 30
0.0000000000000000
  0
SPLINE
  5
6E
100
AcDbEntity
  8
A8
  6
CONTINUOUS
 62
1
100
AcDbSpline
210
0.0000000000000000
220
0.0000000000000000
230
1.000000000000000
 70
     8
 71
     3
 72
    52
 73
    48
 74
     0
 42
1.000000000000000e-07
 43
1.000000000000000e-07
 12
-0.5071402736002710
 22
-0.8618635291577448
 32
0.0000000000000000
 13
-0.9887048818841322
 23
-0.1498754701024154
 33
0.0000000000000000
 40
0.0000000000000000
 40
0.0000000000000000
 40
0.0000000000000000
 40
0.0000000000000000
 40
0.05705674038947000
 40
0.1147402545941296
 40
0.1736901060594737
 40
0.2345694355511871
 40
0.2980722349647338
 40
0.3649264234647052
 40
0.4357821046878075
 40
0.5093995765651883
 40
0.5830070395364159
 40
0.6539857397133552
 40
0.7200908129739365
 40
0.7798042040064803
 40
0.8330830568803117
 40
0.8827144627701222
 40
0.9352752598908217
 40
0.9961404609174055
 40
1.065846770946195
 40
1.142474544128604
 40
1.221419704458736
 40
1.297116493633247
 40
1.364249566687841
 40
1.418215766114253
 40
1.456977686923658
 40
1.489216028963227
 40
1.533129502653450
 40
1.591471677504293
 40
1.660277601501628
 40
1.734531550838897
 40
1.809772113387648
 40
1.883400611894807
 40
1.956493781552695
 40
2.031168544064364
 40
2.106869607205339
 40
2.181206989353732
 40
2.250824302008915
 40
2.311979085438478
 40
2.361145788275596
 40
2.396555804186553
 40
2.424571211372830
 40
2.461665429249544
 40
2.513322333622588
 40
2.578325242217737
 40
2.653811371464239
 40
2.736426619738217
 40
2.822638118749752
 40
2.822638118749752
 40
2.822638118749752
 40
2.822638118749752
 10
54.92636857946083
 20
86.57913747074079
 30
0.0000000000000000
 10
54.91672332248355
 20
86.56274576286270
 30
0.0000000000000000
 10
54.89749096816614
 20
86.52968593963979
 30
0.0000000000000000
 10
54.86868813116727
 20
86.47946080163541
 30
0.0000000000000000
 10
54.84017159144297
 20
86.42760970400522
 30
0.0000000000000000
 10
54.81202212580574
 20
86.37336001859202
 30
0.0000000000000000
 10
54.78437482254994
 20
86.31590953930942
 30
0.0000000000000000
 10
54.75738080521675
 20
86.25449553773620
 30
0.0000000000000000
 10
54.73136503136020
 20
86.18901547585901
 30
0.0000000000000000
 10
54.70733474419684
 20
86.12038040343450
 30
0.0000000000000000
 10
54.68707955808485
 20
86.05047298102801
 30
0.0000000000000000
 10
54.67252432042768
 20
85.98168167215010
 30
0.0000000000000000
 10
54.66558256520774
 20
85.91628370709302
 30
0.0000000000000000
 10
54.66828493629224
 20
85.85633123853259
 30
0.0000000000000000
 10
54.68305722834258
 20
85.80342395411770
 30
0.0000000000000000
 10
54.71442054231055
 20
85.76026207521019
 30
0.0000000000000000
 10
54.76301127953413
 20
85.73336677668721
 30
0.0000000000000000
 10
54.82196569417933
 20
85.71702838970631
 30
0.0000000000000000
 10
54.89008637171715
 20
85.70534891323493
 30
0.0000000000000000
 10
54.96427950540645
 20
85.69389121490741
 30
0.0000000000000000
 10
55.04073581323307
 20
85.68361827950091
 30
0.0000000000000000
 10
55.11424121710597
 20
85.67681126380009
 30
0.0000000000000000
 10
55.18034111133851
 20
85.67537927280543
 30
0.0000000000000000
 10
55.23242210449631
 20
85.68110177601741
 30
0.0000000000000000
 10
55.27489540174058
 20
85.69683309955920
 30
0.0000000000000000
 10
55.28689747127497
 20
85.73765100480412
 30
0.0000000000000000
 10
55.27026646708372
 20
85.78055725079409
 30
0.0000000000000000
 10
55.24523111416248
 20
85.83135771499312
 30
0.0000000000000000
 10
55.21241793732956
 20
85.89009586570791
 30
0.0000000000000000
 10
55.17969933527370
 20
85.95510456234192
 30
0.0000000000000000
 10
55.15299666174194
 20
86.02474549096812
 30
0.0000000000000000
 10
55.13968387480269
 20
86.09832827727811
 30
0.0000000000000000
 10
55.14741490483435
 20
86.17255155084231
 30
0.0000000000000000
 10
55.16989432511487
 20
86.24388088679541
 30
0.0000000000000000
 10
55.20176581642544
 20
86.31181479986330
 30
0.0000000000000000
 10
55.23819533361244
 20
86.37540574590329
 30
0.0000000000000000
 10
55.27426646845451
 20
86.43335839873652
 30
0.0000000000000000
 10
55.30583166105923
 20
86.48475117464162
 30
0.0000000000000000
 10
55.32722242374395
 20
86.52753534771341
 30
0.0000000000000000
 10
55.33885201265205
 20
86.56575511979642
 30
0.0000000000000000
 10
55.31967694998561
 20
86.59759383549229
 30
0.0000000000000000
 10
55.28008344546542
 20
86.60802510044013
 30
0.0000000000000000
 10
55.22952460804923
 20
86.61214875028651
 30
0.0000000000000000
 10
55.16518401428293
 20
86.60940266822669
 30
0.0000000000000000
 10
55.09125193537925
 20
86.60211542634872
 30
0.0000000000000000
 10
55.01048968457003
 20
86.59136752220550
 30
0.0000000000000000
 10
54.95478115610992
 20
86.58344446705499
 30
0.0000000000000000
 10
54.92636857946083
 20
86.57913747074079
 30
0.0000000000000000
  0
SPLINE
  5
6F
100
AcDbEntity
  8
A8
  6
CONTINUOUS
 62
1
100
AcDbSpline
210
0.0000000000000000
220
0.0000000000000000
230
1.000000000000000
 70
     8
 71
     3
 72
    47
 73
    43
 74
     0
 42
1.000000000000000e-07
 43
1.000000000000000e-07
 12
0.03777158917455381
 22
0.9992863989123180
 32
0.0000000000000000
 13
-0.7412647839992133
 23
0.6712127233622596
 33
0.0000000000000000
 40
0.0000000000000000
 40
0.0000000000000000
 40
0.0000000000000000
 40
0.0000000000000000
 40
0.1035256986803397
 40
0.2028618503372266
 40
0.2949925880648961
 40
0.3799583245322450
 40
0.4636397993852698
 40
0.5540757201807177
 40
0.6523428093077904
 40
0.7554825227131204
 40
0.8589302991952782
 40
0.9578330411515632
 40
1.048247591492946
 40
1.131532254146898
 40
1.214305331776296
 40
1.300515251139083
 40
1.391329258982023
 40
1.486425562982910
 40
1.585145470122943
 40
1.687407396492900
 40
1.794458414589345
 40
1.906861103728932
 40
2.018165761522715
 40
2.119267022009061
 40
2.200422745266160
 40
2.252289938236360
 40
2.274890395285222
 40
2.309706626788079
 40
2.371948852730665
 40
2.458447428008435
 40
2.564289699729142
 40
2.684222081488207
 40
2.812887336772887
 40
2.944894607550747
 40
3.074852106643507
 40
3.197394944687180
 40
3.308347341575429
 40
3.408644127529170
 40
3.500594210651826
 40
3.586418360749162
 40
3.668236798703274
 40
3.748079400351596
 40
3.748079400351596
 40
3.748079400351596
 40
3.748079400351596
 10
54.65689596835092
 20
87.74685249960910
 30
0.0000000000000000
 10
54.65819941173744
 20
87.78133644048549
 30
0.0000000000000000
 10
54.66316975770316
 20
87.84879047199502
 30
0.0000000000000000
 10
54.67398300629277
 20
87.94663599055301
 30
0.0000000000000000
 10
54.69611152264373
 20
88.03645793080622
 30
0.0000000000000000
 10
54.73585704722335
 20
88.11537133597889
 30
0.0000000000000000
 10
54.80210431490654
 20
88.17407217968261
 30
0.0000000000000000
 10
54.88773738810652
 20
88.20783492500780
 30
0.0000000000000000
 10
54.98445335893940
 20
88.22258834312609
 30
0.0000000000000000
 10
55.08651486690785
 20
88.21983143271260
 30
0.0000000000000000
 10
55.18702222409412
 20
88.20101285739710
 30
0.0000000000000000
 10
55.27916524128271
 20
88.16740898984429
 30
0.0000000000000000
 10
55.35716978564476
 20
88.11889698221540
 30
0.0000000000000000
 10
55.41500922775863
 20
88.05450811608381
 30
0.0000000000000000
 10
55.45505197116744
 20
87.97995178249181
 30
0.0000000000000000
 10
55.48357613894267
 20
87.89798775014771
 30
0.0000000000000000
 10
55.50635497246024
 20
87.81016437838971
 30
0.0000000000000000
 10
55.52860455064790
 20
87.71793885584171
 30
0.0000000000000000
 10
55.55545130946443
 20
87.62290585527111
 30
0.0000000000000000
 10
55.59204414688143
 20
87.52674132039022
 30
0.0000000000000000
 10
55.64377817031281
 20
87.43229287389093
 30
0.0000000000000000
 10
55.71140227359793
 20
87.34482016263561
 30
0.0000000000000000
 10
55.78365386664593
 20
87.26430372282189
 30
0.0000000000000000
 10
55.85405499697954
 20
87.19561536461762
 30
0.0000000000000000
 10
55.90409107722145
 20
87.13712353721152
 30
0.0000000000000000
 10
55.94646827832564
 20
87.10263585972572
 30
0.0000000000000000
 10
55.94423906464870
 20
87.05779713744352
 30
0.0000000000000000
 10
55.89276353705309
 20
87.06420967372102
 30
0.0000000000000000
 10
55.83897523085521
 20
87.07472939040071
 30
0.0000000000000000
 10
55.75543200886644
 20
87.10186658106122
 30
0.0000000000000000
 10
55.65900098509745
 20
87.13819506156270
 30
0.0000000000000000
 10
55.54972472611796
 20
87.18407555025061
 30
0.0000000000000000
 10
55.43430513023272
 20
87.23652772463601
 30
0.0000000000000000
 10
55.31720850448518
 20
87.29357944438061
 30
0.0000000000000000
 10
55.20358704424977
 20
87.35290860768740
 30
0.0000000000000000
 10
55.09800859088155
 20
87.41239142494601
 30
0.0000000000000000
 10
55.00347453911813
 20
87.47114080144613
 30
0.0000000000000000
 10
54.92014521611476
 20
87.52839284389492
 30
0.0000000000000000
 10
54.84613478153041
 20
87.58424049990199
 30
0.0000000000000000
 10
54.77912309180151
 20
87.63901490405649
 30
0.0000000000000000
 10
54.71687952522369
 20
87.69316348415620
 30
0.0000000000000000
 10
54.67662413797252
 20
87.72898870957820
 30
0.0000000000000000
 10
54.65689596835092
 20
87.74685249960910
 30
0.0000000000000000
  0
LINE
  5
70
100
AcDbEntity
  8
A8
  6
CONTINUOUS
 62
7
100
AcDbLine
 10
52.09999999999999
 20
141.3679034836803
 30
0.0000000000000000
 11
52.54826199999999
 21
149.9212614836802
 31
0.0000000000000000
  0
ARC
  5
71
100
AcDbEntity
  8
A8
  6
CONTINUOUS
 62
7
100
AcDbCircle
 10
53.54689200000002
 20
149.8689254836803
 30
0.0000000000000000
 40
1.000000000000000
100
AcDbArc
 50
90.00000000000000
 51
177.0000000000000
  0
LINE
  5
72
100
AcDbEntity
  8
A8
  6
CONTINUOUS
 62
7
100
AcDbLine
 10
77.89999999999999
 20
141.3679034836803
 30
0.0000000000000000
 11
77.45173700000001
 21
149.9212614836803
 31
0.0000000000000000
  0
ARC
  5
73
100
AcDbEntity
  8
A8
  6
CONTINUOUS
 62
7
100
AcDbCircle
 10
76.45310800000001
 20
149.8689254836803
 30
0.0000000000000000
 40
1.000000000000000
100
AcDbArc
 50
3.000000000000000
 51
90.00000000000000
  0
LINE
  5
74
100
AcDbEntity
  8
A8
  6
CONTINUOUS
 62
7
100
AcDbLine
 10
52.10000000000003
 20
141.3679034836803
 30
0.0000000000000000
 11
53.60000000000001
 21
141.3679034836803
 31
0.0000000000000000
  0
LINE
  5
75
100
AcDbEntity
  8
A8
  6
CONTINUOUS
 62
7
100
AcDbLine
 10
59.60000000000001
 20
141.3679034836803
 30
0.0000000000000000
 11
61.00000000000004
 21
141.3679034836803
 31
0.0000000000000000
  0
LINE
  5
76
100
AcDbEntity
  8
A8
  6
CONTINUOUS
 62
7
100
AcDbLine
 10
76.40000000000012
 20
141.3679034836803
 30
0.0000000000000000
 11
77.90000000000002
 21
141.3679034836803
 31
0.0000000000000000
  0
LINE
  5
77
100
AcDbEntity
  8
A8
  6
CONTINUOUS
 62
7
100
AcDbLine
 10
50.54565400000003
 20
139.3679034836803
 30
0.0000000000000000
 11
79.45434500000002
 21
139.3679034836803
 31
0.0000000000000000
  0
LINE
  5
78
100
AcDbEntity
  8
A8
  6
CONTINUOUS
 62
7
100
AcDbLine
 10
79.99296700000002
 20
139.3679034836803
 30
0.0000000000000000
 11
80.00000000000003
 21
139.3679034836803
 31
0.0000000000000000
  0
ARC
  5
79
100
AcDbEntity
  8
A8
  6
CONTINUOUS
 62
7
100
AcDbCircle
 10
79.45434500000002
 20
138.8679034836803
 30
0.0000000000000000
 40
0.5000000000000000
100
AcDbArc
 50
355.0000000000000
 51
450.0000000000000
  0
ARC
  5
7A
100
AcDbEntity
  8
A8
  6
CONTINUOUS
 62
7
100
AcDbCircle
 10
50.54565400000003
 20
138.8679034836803
 30
0.0000000000000000
 40
0.5000000000000000
100
AcDbArc
 50
90.00000000000000
 51
185.0000000000000
  0
LINE
  5
7B
100
AcDbEntity
  8
A6
  6
CONTINUOUS
 62
7
100
AcDbLine
 10
120.6000000000000
 20
92.82800948368043
 30
0.0000000000000000
 11
120.0000000000000
 21
92.82800948368043
 31
0.0000000000000000
  0
LINE
  5
7C
100
AcDbEntity
  8
A6
  6
CONTINUOUS
 62
7
100
AcDbLine
 10
123.6450063423638
 20
89.78300314131661
 30
0.0000000000000000
 11
120.6000000000000
 21
92.82800948368038
 31
0.0000000000000000
  0
LINE
  5
7D
100
AcDbEntity
  8
A6
  6
CONTINUOUS
 62
7
100
AcDbLine
 10
121.0000000000000
 20
53.21892548368041
 30
0.0000000000000000
 11
120.0000000000000
 21
53.21892548368041
 31
0.0000000000000000
  0
LINE
  5
7E
100
AcDbEntity
  8
A6
  6
CONTINUOUS
 62
7
100
AcDbLine
 10
121.0000000000000
 20
56.37216439113683
 30
0.0000000000000000
 11
121.0000000000000
 21
53.22892548368040
 31
0.0000000000000000
  0
LINE
  5
7F
100
AcDbEntity
  8
A6
  6
CONTINUOUS
 62
7
100
AcDbLine
 10
122.2781004604015
 20
95.38060432245103
 30
0.0000000000000000
 11
122.5000696002367
 21
95.30417415816729
 31
0.0000000000000000
  0
LINE
  5
80
100
AcDbEntity
  8
A6
  6
CONTINUOUS
 62
7
100
AcDbLine
 10
121.5256769263003
 20
94.75626491915642
 30
0.0000000000000000
 11
121.7658761189275
 21
94.70957477818567
 31
0.0000000000000000
  0
LINE
  5
81
100
AcDbEntity
  8
A6
  6
CONTINUOUS
 62
7
100
AcDbLine
 10
120.8919811853885
 20
94.20243295624840
 30
0.0000000000000000
 11
121.1318674799446
 21
94.16013433430690
 31
0.0000000000000000
  0
LINE
  5
82
100
AcDbEntity
  8
A6
  6
CONTINUOUS
 62
7
100
AcDbLine
 10
120.6529958477753
 20
93.95159844287133
 30
0.0000000000000000
 11
120.6577385837999
 21
94.01942272790247
 31
0.0000000000000000
  0
LINE
  5
83
100
AcDbEntity
  8
A6
  6
CENTER
 62
7
100
AcDbLine
 10
118.7401537191430
 20
53.39933665206276
 30
0.0000000000000000
 11
118.7392090744552
 21
53.40837361818195
 31
0.0000000000000000
  0
LINE
  5
84
100
AcDbEntity
  8
A6
  6
CONTINUOUS
 62
7
100
AcDbLine
 10
127.5864271581777
 20
89.71420538506717
 30
0.0000000000000000
 11
121.0006539693621
 21
89.82916048368043
 31
0.0000000000000000
  0
LINE
  5
85
100
AcDbEntity
  8
A6
  6
CONTINUOUS
 62
7
100
AcDbLine
 10
120.0000000000000
 20
93.92841848368030
 30
0.0000000000000000
 11
119.4054770728833
 21
93.92841848368030
 31
0.0000000000000000
  0
LINE
  5
86
100
AcDbEntity
  8
A6
  6
CONTINUOUS
 62
7
100
AcDbLine
 10
119.4501658714367
 20
50.92892548368042
 30
0.0000000000000000
 11
120.0000000000000
 21
50.92892548368042
 31
0.0000000000000000
  0
LINE
  5
87
100
AcDbEntity
  8
A6
  6
CONTINUOUS
 62
7
100
AcDbLine
 10
120.0000000000000
 20
52.92892548368042
 30
0.0000000000000000
 11
120.0000000000000
 21
53.37216439113683
 31
0.0000000000000000
  0
ARC
  5
88
100
AcDbEntity
  8
A6
  6
CONTINUOUS
 62
7
100
AcDbCircle
 10
121.4875150109354
 20
94.55993950507136
 30
0.0000000000000000
 40
0.2000000000000000
100
AcDbArc
 50
78.99996606192167
 51
158.6493890185728
  0
LINE
  5
89
100
AcDbEntity
  8
A10
  6
CONTINUOUS
 62
7
100
AcDbLine
 10
121.0000000000000
 20
89.82916048368045
 30
0.0000000000000000
 11
120.0000000000000
 21
89.82916048368045
 31
0.0000000000000000
  0
LINE
  5
8A
100
AcDbEntity
  8
A10
  6
CONTINUOUS
 62
7
100
AcDbLine
 10
126.9803520951206
 20
93.30865821284739
 30
0.0000000000000000
 11
120.8385573630785
 21
93.73813433807055
 31
0.0000000000000000
  0
ARC
  5
8B
100
AcDbEntity
  8
A10
  6
CONTINUOUS
 62
7
100
AcDbCircle
 10
92.50102199999991
 20
81.52916048368039
 30
0.0000000000000000
 40
38.00000000000004
100
AcDbArc
 50
324.8970637683964
 51
369.2157674535710
  0
ARC
  5
8C
100
AcDbEntity
  8
A6
  6
CONTINUOUS
 62
7
100
AcDbCircle
 10
120.8525086578273
 20
93.93764714812244
 30
0.0000000000000000
 40
0.2000000000000000
100
AcDbArc
 50
176.0000000000000
 51
266.0000000000001
  0
ARC
  5
8D
100
AcDbEntity
  8
A10
  6
CONTINUOUS
 62
7
100
AcDbCircle
 10
92.50102199999991
 20
81.52916048368039
 30
0.0000000000000000
 40
38.00000000000004
100
AcDbArc
 50
316.6560258268581
 51
324.8970637683964
  0
ARC
  5
8E
100
AcDbEntity
  8
A6
  6
CONTINUOUS
 62
7
100
AcDbCircle
 10
120.8572513938519
 20
94.00547143315359
 30
0.0000000000000000
 40
0.2000000000000000
100
AcDbArc
 50
79.99995461894513
 51
176.0000000000000
  0
ARC
  5
8F
100
AcDbEntity
  8
A10
  6
CONTINUOUS
 62
7
100
AcDbCircle
 10
129.4985349999999
 20
91.42841848368047
 30
0.0000000000000000
 40
1.500000000000159
100
AcDbArc
 50
345.0000000000348
 51
428.0000000000003
  0
LINE
  5
90
100
AcDbEntity
  8
A10
  6
CONTINUOUS
 62
7
100
AcDbLine
 10
130.0604448901239
 20
92.81919426553077
 30
0.0000000000000000
 11
122.9295631357392
 21
95.70025750763158
 31
0.0000000000000000
  0
LINE
  5
91
100
AcDbEntity
  8
A10
  6
CONTINUOUS
 62
7
100
AcDbLine
 10
130.9474237394337
 20
91.04018991602666
 30
0.0000000000000000
 11
130.0177177448509
 21
87.57047990813416
 31
0.0000000000000000
  0
ARC
  5
92
100
AcDbEntity
  8
A10
  6
CONTINUOUS
 62
7
100
AcDbCircle
 10
129.4985349999999
 20
91.42841848368045
 30
0.0000000000000000
 40
8.801329267770457
100
AcDbArc
 50
158.6493890185735
 51
161.9181463659411
  0
LINE
  5
93
100
AcDbEntity
  8
A6
  6
CONTINUOUS
 62
7
100
AcDbLine
 10
122.4948372400827
 20
50.30385863212285
 30
0.0000000000000000
 11
122.7125021331927
 21
50.39180101871210
 31
0.0000000000000000
  0
LINE
  5
94
100
AcDbEntity
  8
A6
  6
CONTINUOUS
 62
7
100
AcDbLine
 10
121.7107694765943
 20
50.88796359480818
 30
0.0000000000000000
 11
121.9481959114011
 21
50.94716080299798
 31
0.0000000000000000
  0
LINE
  5
95
100
AcDbEntity
  8
A6
  6
CONTINUOUS
 62
7
100
AcDbLine
 10
121.0489568682957
 20
51.40787147769245
 30
0.0000000000000000
 11
121.2863006681953
 21
51.46266680945746
 31
0.0000000000000000
  0
LINE
  5
96
100
AcDbEntity
  8
A6
  6
CONTINUOUS
 62
7
100
AcDbLine
 10
120.7971713876660
 20
51.64585470491502
 30
0.0000000000000000
 11
120.8054572727492
 21
51.57837158633430
 31
0.0000000000000000
  0
ARC
  5
97
100
AcDbEntity
  8
A6
  6
CONTINUOUS
 62
7
100
AcDbCircle
 10
121.6623849825275
 20
51.08202271140379
 30
0.0000000000000000
 40
0.2000000000000000
100
AcDbArc
 50
204.3506109813418
 51
284.0000339379929
  0
LINE
  5
98
100
AcDbEntity
  8
A10
  6
CONTINUOUS
 62
7
100
AcDbLine
 10
127.0822073214347
 20
52.61906204738406
 30
0.0000000000000000
 11
120.9713067493135
 21
51.86873780392409
 31
0.0000000000000000
  0
ARC
  5
99
100
AcDbEntity
  8
A6
  6
CONTINUOUS
 62
7
100
AcDbCircle
 10
120.9956806179942
 20
51.67022857359569
 30
0.0000000000000000
 40
0.2000000000000000
100
AcDbArc
 50
96.99999999991461
 51
186.9999999999146
  0
ARC
  5
9A
100
AcDbEntity
  8
A6
  6
CONTINUOUS
 62
7
100
AcDbCircle
 10
121.0039665030774
 20
51.60274545501508
 30
0.0000000000000000
 40
0.2000000000000000
100
AcDbArc
 50
186.9999999999146
 51
283.0000453809694
  0
ARC
  5
9B
100
AcDbEntity
  8
A10
  6
CONTINUOUS
 62
7
100
AcDbCircle
 10
129.4985349999725
 20
54.62851648366686
 30
0.0000000000000000
 40
1.500000000000159
100
AcDbArc
 50
294.9999999999145
 51
379.9999999999355
  0
LINE
  5
9C
100
AcDbEntity
  8
A10
  6
CONTINUOUS
 62
7
100
AcDbLine
 10
130.1324623925817
 20
53.26905480311088
 30
0.0000000000000000
 11
123.1621364635775
 21
50.01873844259254
 31
0.0000000000000000
  0
ARC
  5
9D
100
AcDbEntity
  8
A10
  6
CONTINUOUS
 62
7
100
AcDbCircle
 10
129.4985349999725
 20
54.62851648366689
 30
0.0000000000000000
 40
8.801329267770457
100
AcDbArc
 50
201.0818536339735
 51
204.3506109813411
  0
LINE
  5
9E
100
AcDbEntity
  8
A10
  6
CONTINUOUS
 62
7
100
AcDbLine
 10
130.9080739311515
 20
55.14154669865541
 30
0.0000000000000000
 11
127.0571736435872
 21
65.72180828334649
 31
0.0000000000000000
  0
LINE
  5
9F
100
AcDbEntity
  8
A10
  6
CONTINUOUS
 62
7
100
AcDbLine
 10
53.60000000000001
 20
151.3689254836803
 30
0.0000000000000000
 11
59.60000000000001
 21
151.3689254836803
 31
0.0000000000000000
  0
LINE
  5
A0
100
AcDbEntity
  8
A6
  6
CONTINUOUS
 62
7
100
AcDbLine
 10
61.00000000000004
 20
140.3679034836803
 30
0.0000000000000000
 11
61.00000000000004
 21
143.4174944836803
 31
0.0000000000000000
  0
LINE
  5
A1
100
AcDbEntity
  8
A8
  6
CONTINUOUS
 62
7
100
AcDbLine
 10
62.00000000000004
 20
140.3679034836803
 30
0.0000000000000000
 11
62.00000000000004
 21
143.4174944836803
 31
0.0000000000000000
  0
LINE
  5
A2
100
AcDbEntity
  8
A6
  6
CONTINUOUS
 62
7
100
AcDbLine
 10
69.00000000000009
 20
143.4174944836803
 30
0.0000000000000000
 11
68.00000000000009
 21
143.4174944836803
 31
0.0000000000000000
  0
LINE
  5
A3
100
AcDbEntity
  8
A6
  6
CONTINUOUS
 62
7
100
AcDbLine
 10
70.40000000000012
 20
141.0179034836803
 30
0.0000000000000000
 11
70.40000000000012
 21
151.3689254836803
 31
0.0000000000000000
  0
LINE
  5
A4
100
AcDbEntity
  8
A6
  6
CONTINUOUS
 62
7
100
AcDbLine
 10
76.40000000000012
 20
141.0179034836803
 30
0.0000000000000000
 11
76.40000000000012
 21
151.3689254836803
 31
0.0000000000000000
  0
LINE
  5
A5
100
AcDbEntity
  8
A8
  6
CONTINUOUS
 62
7
100
AcDbLine
 10
70.40000000000012
 20
141.3679034836803
 30
0.0000000000000000
 11
69.00000000000009
 21
141.3679034836803
 31
0.0000000000000000
  0
LINE
  5
A6
100
AcDbEntity
  8
A10
  6
CONTINUOUS
 62
7
100
AcDbLine
 10
76.40000000000012
 20
151.3689254836803
 30
0.0000000000000000
 11
70.40000000000012
 21
151.3689254836803
 31
0.0000000000000000
  0
LINE
  5
A7
100
AcDbEntity
  8
A6
  6
CONTINUOUS
 62
7
100
AcDbLine
 10
69.00000000000009
 20
140.3679034836803
 30
0.0000000000000000
 11
69.00000000000009
 21
143.4174944836803
 31
0.0000000000000000
  0
LINE
  5
A8
100
AcDbEntity
  8
A8
  6
CONTINUOUS
 62
7
100
AcDbLine
 10
68.00000000000009
 20
140.3679034836803
 30
0.0000000000000000
 11
68.00000000000009
 21
143.4174944836803
 31
0.0000000000000000
  0
LINE
  5
A9
100
AcDbEntity
  8
A10
  6
CONTINUOUS
 62
7
100
AcDbLine
 10
68.00000000000009
 20
141.3679034836793
 30
0.0000000000000000
 11
61.99999999999962
 21
141.3679034836735
 31
0.0000000000000000
  0
ARC
  5
AA
100
AcDbEntity
  8
A6
  6
CONTINUOUS
 62
7
100
AcDbCircle
 10
120.9963888791202
 20
79.17669994804052
 30
0.0000000000000000
 40
5.000000000000000
100
AcDbArc
 50
168.0810040214111
 51
186.1271129452197
  0
LINE
  5
AB
100
AcDbEntity
  8
A6
  6
CONTINUOUS
 62
7
100
AcDbLine
 10
59.60000000000001
 20
150.8689254836803
 30
0.0000000000000000
 11
70.40000000000012
 21
150.8689254836803
 31
0.0000000000000000
  0
LINE
  5
AC
100
AcDbEntity
  8
A6
  6
CONTINUOUS
 62
7
100
AcDbLine
 10
76.35310800000002
 20
150.8689254836803
 30
0.0000000000000000
 11
76.40000000000002
 21
150.8689254836803
 31
0.0000000000000000
  0
LINE
  5
AD
100
AcDbEntity
  8
A6
  6
CONTINUOUS
 62
7
100
AcDbLine
 10
120.0000000000000
 20
50.92892548368042
 30
0.0000000000000000
 11
120.0000000000000
 21
93.92841848368030
 31
0.0000000000000000
  0
LINE
  5
AE
100
AcDbEntity
  8
A10
  6
CONTINUOUS
 62
7
100
AcDbLine
 10
129.7982202747326
 20
92.17016556733390
 30
0.0000000000000000
 11
126.9803520951206
 21
93.30865821284732
 31
0.0000000000000000
  0
ARC
  5
AF
100
AcDbEntity
  8
A10
  6
CONTINUOUS
 62
7
100
AcDbCircle
 10
129.4985349999999
 20
91.42841848368045
 30
0.0000000000000000
 40
0.8000000000000000
100
AcDbArc
 50
289.9999999999994
 51
427.9999999999335
  0
LINE
  5
B0
100
AcDbEntity
  8
A10
  6
CONTINUOUS
 62
7
100
AcDbLine
 10
129.7721511146604
 20
90.67666438705176
 30
0.0000000000000000
 11
127.1488040066595
 21
89.72184412559108
 31
0.0000000000000000
  0
ARC
  5
B1
100
AcDbEntity
  8
A10
  6
CONTINUOUS
 62
7
100
AcDbCircle
 10
129.4985349999999
 20
91.42841848368045
 30
0.0000000000000000
 40
8.000000000000000
100
AcDbArc
 50
148.4059317731386
 51
151.0222813251260
  0
ARC
  5
B2
100
AcDbEntity
  8
A10
  6
CONTINUOUS
 62
7
100
AcDbCircle
 10
122.8546418170560
 20
95.51482073671818
 30
0.0000000000000000
 40
0.2000000000000000
100
AcDbArc
 50
68.00000000000017
 51
148.4059317731410
  0
ARC
  5
B3
100
AcDbEntity
  8
A10
  6
CONTINUOUS
 62
7
100
AcDbCircle
 10
129.4985349999999
 20
91.42841848368045
 30
0.0000000000000000
 40
8.400000000000000
100
AcDbArc
 50
152.6830474823576
 51
157.0073000061497
  0
ARC
  5
B4
100
AcDbEntity
  8
A6
  6
CONTINUOUS
 62
7
100
AcDbCircle
 10
122.2129867837050
 20
95.19150062310311
 30
0.0000000000000000
 40
0.2000000000000000
100
AcDbArc
 50
70.99998612171441
 51
152.6830474823573
  0
ARC
  5
B5
100
AcDbEntity
  8
A10
  6
CONTINUOUS
 62
7
100
AcDbCircle
 10
129.4985349999724
 20
54.62851648366686
 30
0.0000000000000000
 40
8.000000000000000
100
AcDbArc
 50
211.9777186747879
 51
214.5940682267759
  0
ARC
  5
B6
100
AcDbEntity
  8
A10
  6
CONTINUOUS
 62
7
100
AcDbCircle
 10
123.0776128112296
 20
50.19999999999999
 30
0.0000000000000000
 40
0.2000000000000000
100
AcDbArc
 50
214.5940682267750
 51
294.9999999999137
  0
ARC
  5
B7
100
AcDbEntity
  8
A10
  6
CONTINUOUS
 62
7
100
AcDbCircle
 10
129.4985349999724
 20
54.62851648366686
 30
0.0000000000000000
 40
8.400000000000000
100
AcDbArc
 50
205.9926999937648
 51
210.3169525175561
  0
ARC
  5
B8
100
AcDbEntity
  8
A10
  6
CONTINUOUS
 62
7
100
AcDbCircle
 10
122.4199158764831
 20
50.48929538488875
 30
0.0000000000000000
 40
0.2000000000000000
100
AcDbArc
 50
210.3169525175576
 51
292.0000138782015
  0
LINE
  5
B9
100
AcDbEntity
  8
A10
  6
CONTINUOUS
 62
7
100
AcDbLine
 10
129.8366296093639
 20
53.90347025403710
 30
0.0000000000000000
 11
127.0822073214347
 21
52.61906204738403
 31
0.0000000000000000
  0
ARC
  5
BA
100
AcDbEntity
  8
A10
  6
CONTINUOUS
 62
7
100
AcDbCircle
 10
129.4985349999725
 20
54.62851648366689
 30
0.0000000000000000
 40
0.8000000000000000
100
AcDbArc
 50
294.9999999999814
 51
407.0000000000013
  0
LINE
  5
BB
100
AcDbEntity
  8
A10
  6
CONTINUOUS
 62
7
100
AcDbLine
 10
130.0441336880226
 20
55.21359944496231
 30
0.0000000000000000
 11
125.0897100753069
 21
59.83367420693627
 31
0.0000000000000000
  0
ARC
  5
BC
100
AcDbEntity
  8
A10
  6
CONTINUOUS
 62
7
100
AcDbCircle
 10
124.4077117152444
 20
59.10232050531704
 30
0.0000000000000000
 40
1.000000000000000
100
AcDbArc
 50
47.00000000000019
 51
144.8970637683966
  0
ARC
  5
BD
100
AcDbEntity
  8
A10
  6
CONTINUOUS
 62
7
100
AcDbCircle
 10
120.5000000000000
 20
55.10365706453027
 30
0.0000000000000000
 40
0.5000000000000000
100
AcDbArc
 50
136.6560258268582
 51
180.0000000000000
  0
ARC
  5
BE
100
AcDbEntity
  8
A6
  6
CONTINUOUS
 62
7
100
AcDbCircle
 10
127.5427961420845
 20
87.21458614717622
 30
0.0000000000000000
 40
2.500000000000000
100
AcDbArc
 50
9.215767453570939
 51
89.00000000000018
  0
LINE
  5
BF
100
AcDbEntity
  8
A10
  6
CONTINUOUS
 62
7
100
AcDbLine
 10
59.60000000000001
 20
95.71482073671817
 30
0.0000000000000000
 11
53.60000000000001
 21
95.71482073671817
 31
0.0000000000000000
  0
LINE
  5
C0
100
AcDbEntity
  8
A10
  6
CONTINUOUS
 62
7
100
AcDbLine
 10
59.60000000000001
 20
95.39150062310310
 30
0.0000000000000000
 11
53.60000000000001
 21
95.39150062310310
 31
0.0000000000000000
  0
LINE
  5
C1
100
AcDbEntity
  8
A10
  6
CONTINUOUS
 62
7
100
AcDbLine
 10
59.60000000000002
 20
94.75993950507134
 30
0.0000000000000000
 11
53.60000000000001
 21
94.75993950507134
 31
0.0000000000000000
  0
LINE
  5
C2
100
AcDbEntity
  8
A10
  6
CONTINUOUS
 62
7
100
AcDbLine
 10
59.60000000000002
 20
94.20547143303043
 30
0.0000000000000000
 11
53.59999999993807
 21
94.20547143301729
 31
0.0000000000000000
  0
LINE
  5
C3
100
AcDbEntity
  8
A5
  6
CONTINUOUS
 62
7
100
AcDbLine
 10
76.40000000000008
 20
93.92841848368030
 30
0.0000000000000000
 11
76.40000000000008
 21
95.71482073671817
 31
0.0000000000000000
  0
LINE
  5
C4
100
AcDbEntity
  8
A5
  6
CONTINUOUS
 62
7
100
AcDbLine
 10
70.40000000000008
 20
93.92841848368030
 30
0.0000000000000000
 11
70.40000000000008
 21
95.71482073671820
 31
0.0000000000000000
  0
LINE
  5
C5
100
AcDbEntity
  8
A10
  6
CONTINUOUS
 62
7
100
AcDbLine
 10
70.40000000000008
 20
95.71482073671817
 30
0.0000000000000000
 11
76.40000000000008
 21
95.71482073671817
 31
0.0000000000000000
  0
LINE
  5
C6
100
AcDbEntity
  8
A10
  6
CONTINUOUS
 62
7
100
AcDbLine
 10
70.40000000000008
 20
95.39150062310310
 30
0.0000000000000000
 11
76.40000000000008
 21
95.39150062310310
 31
0.0000000000000000
  0
LINE
  5
C7
100
AcDbEntity
  8
A10
  6
CONTINUOUS
 62
7
100
AcDbLine
 10
70.40000000000006
 20
94.75993950507134
 30
0.0000000000000000
 11
76.40000000000008
 21
94.75993950507134
 31
0.0000000000000000
  0
LINE
  5
C8
100
AcDbEntity
  8
A10
  6
CONTINUOUS
 62
7
100
AcDbLine
 10
70.40000000000008
 20
94.20547143303045
 30
0.0000000000000000
 11
76.40000000006202
 21
94.20547143301732
 31
0.0000000000000000
  0
LINE
  5
C9
100
AcDbEntity
  8
A10
  6
CONTINUOUS
 62
7
100
AcDbLine
 10
53.60000000000001
 20
141.4979034836803
 30
0.0000000000000000
 11
59.60000000000001
 21
141.4979034836803
 31
0.0000000000000000
  0
LINE
  5
CA
100
AcDbEntity
  8
A10
  6
CONTINUOUS
 62
7
100
AcDbLine
 10
53.60000000000001
 20
141.0179034836803
 30
0.0000000000000000
 11
59.60000000000001
 21
141.0179034836803
 31
0.0000000000000000
  0
LINE
  5
CB
100
AcDbEntity
  8
A10
  6
CONTINUOUS
 62
7
100
AcDbLine
 10
53.60000000000001
 20
142.1379034836803
 30
0.0000000000000000
 11
59.60000000000002
 21
142.1379034836803
 31
0.0000000000000000
  0
LINE
  5
CC
100
AcDbEntity
  8
A10
  6
CONTINUOUS
 62
7
100
AcDbLine
 10
53.60000000000001
 20
142.8679034836803
 30
0.0000000000000000
 11
59.60000000000001
 21
142.8679034836803
 31
0.0000000000000000
  0
LINE
  5
CD
100
AcDbEntity
  8
A10
  6
CONTINUOUS
 62
7
100
AcDbLine
 10
76.40000000000025
 20
141.4979034836803
 30
0.0000000000000000
 11
70.40000000000025
 21
141.4979034836803
 31
0.0000000000000000
  0
LINE
  5
CE
100
AcDbEntity
  8
A10
  6
CONTINUOUS
 62
7
100
AcDbLine
 10
76.40000000000025
 20
141.0179034836803
 30
0.0000000000000000
 11
70.40000000000025
 21
141.0179034836803
 31
0.0000000000000000
  0
LINE
  5
CF
100
AcDbEntity
  8
A10
  6
CONTINUOUS
 62
7
100
AcDbLine
 10
76.40000000000025
 20
142.1379034836803
 30
0.0000000000000000
 11
70.40000000000023
 21
142.1379034836803
 31
0.0000000000000000
  0
LINE
  5
D0
100
AcDbEntity
  8
A10
  6
CONTINUOUS
 62
7
100
AcDbLine
 10
76.40000000000025
 20
142.8679034836803
 30
0.0000000000000000
 11
70.40000000000025
 21
142.8679034836803
 31
0.0000000000000000
  0
LINE
  5
D1
100
AcDbEntity
  8
A2
  6
CONTINUOUS
 62
10
100
AcDbLine
 10
75.42348598423514
 20
53.39933661108921
 30
0.0000000000000000
 11
54.57651401576483
 21
53.39933661108921
 31
0.0000000000000000
  0
LINE
  5
D2
100
AcDbEntity
  8
A10
  6
CONTINUOUS
 62
7
100
AcDbLine
 10
54.50000000000001
 20
53.39841848368030
 30
0.0000000000000000
 11
75.50000000000003
 21
53.39841848368030
 31
0.0000000000000000
  0
LINE
  5
D3
100
AcDbEntity
  8
A10
  6
CONTINUOUS
 62
7
100
AcDbLine
 10
54.01185317173046
 20
55.60019337545521
 30
0.0000000000000000
 11
54.50000000000006
 21
53.39841848368030
 31
0.0000000000000000
  0
LINE
  5
D4
100
AcDbEntity
  8
A10
  6
CONTINUOUS
 62
7
100
AcDbLine
 10
75.98814682826962
 20
55.60019337545517
 30
0.0000000000000000
 11
75.50000000000003
 21
53.39841848368031
 31
0.0000000000000000
  0
LINE
  5
D5
100
AcDbEntity
  8
A10
  6
CONTINUOUS
 62
7
100
AcDbLine
 10
75.50000000000001
 20
53.39841848368025
 30
0.0000000000000000
 11
75.49999999998883
 21
81.20841848368023
 31
0.0000000000000000
  0
LINE
  5
D6
100
AcDbEntity
  8
A10
  6
CONTINUOUS
 62
7
100
AcDbLine
 10
54.50000000000006
 20
53.39841848368028
 30
0.0000000000000000
 11
54.50000000002283
 21
81.20841848368026
 31
0.0000000000000000
  0
LINE
  5
D7
100
AcDbEntity
  8
A10
  6
CONTINUOUS
 62
7
100
AcDbLine
 10
59.59999999999627
 20
50.00000000000000
 30
0.0000000000000000
 11
53.59999999993806
 21
50.00000000000000
 31
0.0000000000000000
  0
LINE
  5
D8
100
AcDbEntity
  8
A10
  6
CONTINUOUS
 62
7
100
AcDbLine
 10
59.59999999999630
 20
50.28929538488876
 30
0.0000000000000000
 11
53.59999999993806
 21
50.28929538488876
 31
0.0000000000000000
  0
LINE
  5
D9
100
AcDbEntity
  8
A10
  6
CONTINUOUS
 62
7
100
AcDbLine
 10
59.59999999999636
 20
50.88202271140381
 30
0.0000000000000000
 11
53.59999999993806
 21
50.88202271140381
 31
0.0000000000000000
  0
LINE
  5
DA
100
AcDbEntity
  8
A10
  6
CONTINUOUS
 62
7
100
AcDbLine
 10
53.59999999993806
 20
50.92892548368033
 30
0.0000000000000000
 11
53.59999999993806
 21
50.00000000000000
 31
0.0000000000000000
  0
LINE
  5
DB
100
AcDbEntity
  8
A10
  6
CONTINUOUS
 62
7
100
AcDbLine
 10
59.59999999999635
 20
50.92892548368035
 30
0.0000000000000000
 11
59.59999999999626
 21
50.00000000001667
 31
0.0000000000000000
  0
LINE
  5
DC
100
AcDbEntity
  8
A10
  6
CONTINUOUS
 62
7
100
AcDbLine
 10
70.40000000000387
 20
50.00000000000000
 30
0.0000000000000000
 11
76.40000000006208
 21
50.00000000000000
 31
0.0000000000000000
  0
LINE
  5
DD
100
AcDbEntity
  8
A10
  6
CONTINUOUS
 62
7
100
AcDbLine
 10
70.40000000000384
 20
50.28929538488876
 30
0.0000000000000000
 11
76.40000000006208
 21
50.28929538488876
 31
0.0000000000000000
  0
LINE
  5
DE
100
AcDbEntity
  8
A10
  6
CONTINUOUS
 62
7
100
AcDbLine
 10
70.40000000000379
 20
50.88202271140381
 30
0.0000000000000000
 11
76.40000000006208
 21
50.88202271140381
 31
0.0000000000000000
  0
LINE
  5
DF
100
AcDbEntity
  8
A10
  6
CONTINUOUS
 62
7
100
AcDbLine
 10
76.40000000006208
 20
50.92892548368033
 30
0.0000000000000000
 11
76.40000000006208
 21
50.00000000000000
 31
0.0000000000000000
  0
LINE
  5
E0
100
AcDbEntity
  8
A10
  6
CONTINUOUS
 62
7
100
AcDbLine
 10
70.40000000000379
 20
50.92892548368034
 30
0.0000000000000000
 11
70.40000000000387
 21
50.00000000001666
 31
0.0000000000000000
  0
LINE
  5
E1
100
AcDbEntity
  8
A5
  6
CONTINUOUS
 62
7
100
AcDbLine
 10
54.50000000000003
 20
81.22841848368031
 30
0.0000000000000000
 11
75.50000000000003
 21
81.22841848368031
 31
0.0000000000000000
  0
ARC
  5
E2
100
AcDbEntity
  8
A5
  6
CONTINUOUS
 62
7
100
AcDbCircle
 10
75.50000000000003
 20
80.72841848368031
 30
0.0000000000000000
 40
0.5000000000000000
100
AcDbArc
 50
0.0000000000000000
 51
90.00000000000000
  0
ARC
  5
E3
100
AcDbEntity
  8
A5
  6
CONTINUOUS
 62
7
100
AcDbCircle
 10
54.50000000000003
 20
80.72841848368031
 30
0.0000000000000000
 40
0.5000000000000000
100
AcDbArc
 50
90.00000000000000
 51
180.0000000000000
  0
LINE
  5
E4
100
AcDbEntity
  8
A5
  6
CONTINUOUS
 62
7
100
AcDbLine
 10
50.00000000000001
 20
52.92892548368033
 30
0.0000000000000000
 11
50.00000000000001
 21
91.92841848368030
 31
0.0000000000000000
  0
LINE
  5
E5
100
AcDbEntity
  8
A10
  6
CONTINUOUS
 62
7
100
AcDbLine
 10
116.1041860496229
 20
80.20934290427381
 30
0.0000000000000000
 11
118.9162567899336
 21
93.53168277930358
 31
0.0000000000000000
  0
LINE
  5
E6
100
AcDbEntity
  8
A10
  6
CONTINUOUS
 62
7
100
AcDbLine
 10
116.0249511412879
 20
78.64302699682786
 30
0.0000000000000000
 11
118.9520541884145
 21
51.37555818855914
 31
0.0000000000000000
  0
ARC
  5
E7
100
AcDbEntity
  8
A10
  6
CONTINUOUS
 62
7
100
AcDbCircle
 10
119.4491979621977
 20
51.42892548368042
 30
0.0000000000000000
 40
0.5000000000000000
100
AcDbArc
 50
186.1271129452219
 51
270.0000000000000
  0
ARC
  5
E8
100
AcDbEntity
  8
A10
  6
CONTINUOUS
 62
7
100
AcDbCircle
 10
119.4054770728833
 20
93.42841848368028
 30
0.0000000000000000
 40
0.5000000000000000
100
AcDbArc
 50
90.00000000000000
 51
168.0810040214116
  0
LINE
  5
E9
100
AcDbEntity
  8
A10
  6
CONTINUOUS
 62
7
100
AcDbLine
 10
53.54689200000002
 20
150.8689254836803
 30
0.0000000000000000
 11
53.60000000000002
 21
150.8689254836804
 31
0.0000000000000000
  0
LINE
  5
EA
100
AcDbEntity
  8
A10
  6
CONTINUOUS
 62
7
100
AcDbLine
 10
76.45310800000000
 20
150.8689254836803
 30
0.0000000000000000
 11
76.40000000000008
 21
150.8689254836804
 31
0.0000000000000000
  0
ENDSEC
  0
SECTION
  2
OBJECTS
  0
DICTIONARY
  5
117
100
AcDbDictionary
  3
ACAD_GROUP
350
118
  3
ACAD_LAYOUT
350
119
  3
ACAD_MLINESTYLE
350
11A
  0
DICTIONARY
  5
118
102
{ACAD_REACTORS
330
117
102
}
330
117
100
AcDbDictionary
  0
DICTIONARY
  5
119
102
{ACAD_REACTORS
330
117
102
}
330
117
100
AcDbDictionary
  3
Model
350
11B
  3
ﾚｲｱｳﾄ1
350
11C
  3
ﾚｲｱｳﾄ2
350
11D
  0
DICTIONARY
  5
11A
102
{ACAD_REACTORS
330
117
102
}
330
117
100
AcDbDictionary
  3
STANDARD
350
11E
  0
LAYOUT
  5
11B
102
{ACAD_REACTORS
330
119
102
}
330
119
100
AcDbPlotSettings
 70
11952
  4
A3
 44
297.000000
 45
420.000000
 73
  1
 72
  1
100
AcDbLayout
  1
Model
 71
0
330
10E
  0
LAYOUT
  5
11C
102
{ACAD_REACTORS
330
119
102
}
330
119
100
AcDbPlotSettings
100
AcDbLayout
  1
ﾚｲｱｳﾄ1
 71
1
330
10F
  0
LAYOUT
  5
11D
102
{ACAD_REACTORS
330
119
102
}
330
119
100
AcDbPlotSettings
100
AcDbLayout
  1
ﾚｲｱｳﾄ2
 71
2
330
110
  0
MLINESTYLE
  5
11E
102
{ACAD_REACTORS
330
11A
102
}
330
11A
100
AcDbMlineStyle
  2
STANDARD
 70
     0
  3

 62
   256
 51
90.00
 52
90.00
 71
     2
 49
0.50
 62
   256
  6
BYLAYER
 49
-0.50
 62
   256
  6
BYLAYER
  0
ENDSEC
  0
EOF
