  0
SECTION
  2
HEADER
  9
$ACADVER
  1
AC1015
  9
$ACADMAINTVER
 70
    20
  9
$DWGCODEPAGE
  3
ANSI_932
  9
$INSBASE
 10
0.0
 20
0.0
 30
0.0
  9
$EXTMIN
 10
9.9999975266385
 20
10.0
 30
0.0
  9
$EXTMAX
 10
600.4067569403416
 20
362.8571536101142
 30
0.0
  9
$LIMMIN
 10
0.0000015376081137
 20
-0.0000001931532552
  9
$LIMMAX
 10
605.0000015376081
 20
417.0833331401798
  9
$ORTHOMODE
 70
     1
  9
$REGENMODE
 70
     1
  9
$FILLMODE
 70
     1
  9
$QTEXTMODE
 70
     0
  9
$MIRRTEXT
 70
     1
  9
$LTSCALE
 40
0.3
  9
$ATTMODE
 70
     1
  9
$TEXTSIZE
 40
2.5
  9
$TRACEWID
 40
1.0
  9
$TEXTSTYLE
  7
STANDARD
  9
$CLAYER
  8
0
  9
$CELTYPE
  6
BYLAYER
  9
$CECOLOR
 62
   256
  9
$CELTSCALE
 40
1.0
  9
$DISPSILH
 70
     0
  9
$DIMSCALE
 40
1.0
  9
$DIMASZ
 40
3.0
  9
$DIMEXO
 40
1.0
  9
$DIMDLI
 40
10.0
  9
$DIMRND
 40
0.0
  9
$DIMDLE
 40
0.0
  9
$DIMEXE
 40
1.0
  9
$DIMTP
 40
0.0
  9
$DIMTM
 40
0.0
  9
$DIMTXT
 40
3.2
  9
$DIMCEN
 40
0.0
  9
$DIMTSZ
 40
0.0
  9
$DIMTOL
 70
     0
  9
$DIMLIM
 70
     0
  9
$DIMTIH
 70
     0
  9
$DIMTOH
 70
     0
  9
$DIMSE1
 70
     0
  9
$DIMSE2
 70
     0
  9
$DIMTAD
 70
     3
  9
$DIMZIN
 70
     8
  9
$DIMBLK
  1

  9
$DIMASO
 70
     1
  9
$DIMSHO
 70
     1
  9
$DIMPOST
  1

  9
$DIMAPOST
  1

  9
$DIMALT
 70
     0
  9
$DIMALTD
 70
     2
  9
$DIMALTF
 40
25.4
  9
$DIMLFAC
 40
1.0
  9
$DIMTOFL
 70
     1
  9
$DIMTVP
 40
0.0
  9
$DIMTIX
 70
     0
  9
$DIMSOXD
 70
     0
  9
$DIMSAH
 70
     1
  9
$DIMBLK1
  1
OPEN
  9
$DIMBLK2
  1
OPEN
  9
$DIMSTYLE
  2
STANDARD
  9
$DIMCLRD
 70
     0
  9
$DIMCLRE
 70
     0
  9
$DIMCLRT
 70
     0
  9
$DIMTFAC
 40
1.0
  9
$DIMGAP
 40
1.0
  9
$DIMJUST
 70
     0
  9
$DIMSD1
 70
     0
  9
$DIMSD2
 70
     0
  9
$DIMTOLJ
 70
     1
  9
$DIMTZIN
 70
     0
  9
$DIMALTZ
 70
     0
  9
$DIMALTTZ
 70
     0
  9
$DIMUPT
 70
     0
  9
$DIMDEC
 70
     4
  9
$DIMTDEC
 70
     4
  9
$DIMALTU
 70
     2
  9
$DIMALTTD
 70
     2
  9
$DIMTXSTY
  7
STANDARD
  9
$DIMAUNIT
 70
     0
  9
$DIMADEC
 70
     0
  9
$DIMALTRND
 40
0.0
  9
$DIMAZIN
 70
     0
  9
$DIMDSEP
 70
    46
  9
$DIMATFIT
 70
     3
  9
$DIMFRAC
 70
     0
  9
$DIMLDRBLK
  1
OPEN
  9
$DIMLUNIT
 70
     2
  9
$DIMLWD
 70
    -2
  9
$DIMLWE
 70
    -2
  9
$DIMTMOVE
 70
     0
  9
$LUNITS
 70
     2
  9
$LUPREC
 70
     4
  9
$SKETCHINC
 40
1.0
  9
$FILLETRAD
 40
10.0
  9
$AUNITS
 70
     0
  9
$AUPREC
 70
     0
  9
$MENU
  1
.
  9
$ELEVATION
 40
0.0
  9
$PELEVATION
 40
0.0
  9
$THICKNESS
 40
0.0
  9
$LIMCHECK
 70
     0
  9
$CHAMFERA
 40
10.0
  9
$CHAMFERB
 40
10.0
  9
$CHAMFERC
 40
20.0
  9
$CHAMFERD
 40
0.0
  9
$SKPOLY
 70
     0
  9
$TDCREATE
 40
2453031.601955290
  9
$TDUCREATE
 40
2453031.226955290
  9
$TDUPDATE
 40
2457192.643649121
  9
$TDUUPDATE
 40
2457192.268649121
  9
$TDINDWG
 40
0.0595778935
  9
$TDUSRTIMER
 40
0.0595778819
  9
$USRTIMER
 70
     1
  9
$ANGBASE
 50
0.0
  9
$ANGDIR
 70
     0
  9
$PDMODE
 70
     0
  9
$PDSIZE
 40
0.0
  9
$PLINEWID
 40
0.0
  9
$SPLFRAME
 70
     0
  9
$SPLINETYPE
 70
     6
  9
$SPLINESEGS
 70
     8
  9
$HANDSEED
  5
23CA
  9
$SURFTAB1
 70
     6
  9
$SURFTAB2
 70
     6
  9
$SURFTYPE
 70
     6
  9
$SURFU
 70
     6
  9
$SURFV
 70
     6
  9
$UCSBASE
  2

  9
$UCSNAME
  2

  9
$UCSORG
 10
0.0
 20
0.0
 30
0.0
  9
$UCSXDIR
 10
1.0
 20
0.0
 30
0.0
  9
$UCSYDIR
 10
0.0
 20
1.0
 30
0.0
  9
$UCSORTHOREF
  2

  9
$UCSORTHOVIEW
 70
     0
  9
$UCSORGTOP
 10
0.0
 20
0.0
 30
0.0
  9
$UCSORGBOTTOM
 10
0.0
 20
0.0
 30
0.0
  9
$UCSORGLEFT
 10
0.0
 20
0.0
 30
0.0
  9
$UCSORGRIGHT
 10
0.0
 20
0.0
 30
0.0
  9
$UCSORGFRONT
 10
0.0
 20
0.0
 30
0.0
  9
$UCSORGBACK
 10
0.0
 20
0.0
 30
0.0
  9
$PUCSBASE
  2

  9
$PUCSNAME
  2

  9
$PUCSORG
 10
0.0
 20
0.0
 30
0.0
  9
$PUCSXDIR
 10
1.0
 20
0.0
 30
0.0
  9
$PUCSYDIR
 10
0.0
 20
1.0
 30
0.0
  9
$PUCSORTHOREF
  2

  9
$PUCSORTHOVIEW
 70
     0
  9
$PUCSORGTOP
 10
0.0
 20
0.0
 30
0.0
  9
$PUCSORGBOTTOM
 10
0.0
 20
0.0
 30
0.0
  9
$PUCSORGLEFT
 10
0.0
 20
0.0
 30
0.0
  9
$PUCSORGRIGHT
 10
0.0
 20
0.0
 30
0.0
  9
$PUCSORGFRONT
 10
0.0
 20
0.0
 30
0.0
  9
$PUCSORGBACK
 10
0.0
 20
0.0
 30
0.0
  9
$USERI1
 70
     0
  9
$USERI2
 70
     0
  9
$USERI3
 70
     0
  9
$USERI4
 70
     0
  9
$USERI5
 70
     0
  9
$USERR1
 40
0.0
  9
$USERR2
 40
0.0
  9
$USERR3
 40
0.0
  9
$USERR4
 40
0.0
  9
$USERR5
 40
0.0
  9
$WORLDVIEW
 70
     1
  9
$SHADEDGE
 70
     3
  9
$SHADEDIF
 70
    70
  9
$TILEMODE
 70
     1
  9
$MAXACTVP
 70
    48
  9
$PINSBASE
 10
0.0
 20
0.0
 30
0.0
  9
$PLIMCHECK
 70
     0
  9
$PEXTMIN
 10
1.000000000000000E+20
 20
1.000000000000000E+20
 30
1.000000000000000E+20
  9
$PEXTMAX
 10
-1.000000000000000E+20
 20
-1.000000000000000E+20
 30
-1.000000000000000E+20
  9
$PLIMMIN
 10
0.0
 20
0.0
  9
$PLIMMAX
 10
420.0
 20
297.0
  9
$UNITMODE
 70
     0
  9
$VISRETAIN
 70
     1
  9
$PLINEGEN
 70
     0
  9
$PSLTSCALE
 70
     1
  9
$TREEDEPTH
 70
  3020
  9
$CMLSTYLE
  2
STANDARD
  9
$CMLJUST
 70
     0
  9
$CMLSCALE
 40
20.0
  9
$PROXYGRAPHICS
 70
     1
  9
$MEASUREMENT
 70
     0
  9
$CELWEIGHT
370
    -1
  9
$ENDCAPS
280
     0
  9
$JOINSTYLE
280
     0
  9
$LWDISPLAY
290
     0
  9
$INSUNITS
 70
     0
  9
$HYPERLINKBASE
  1

  9
$STYLESHEET
  1

  9
$XEDIT
290
     1
  9
$CEPSNTYPE
380
     0
  9
$PSTYLEMODE
290
     1
  9
$FINGERPRINTGUID
  2
{E08B155B-C00A-42F5-AE30-2AEDADC33178}
  9
$VERSIONGUID
  2
{D6F3F902-944F-4DBC-8967-206CBF12BCF6}
  9
$EXTNAMES
290
     1
  9
$PSVPSCALE
 40
0.0
  9
$OLESTARTUP
290
     0
  0
ENDSEC
  0
SECTION
  2
CLASSES
  0
CLASS
  1
ACDBDICTIONARYWDFLT
  2
AcDbDictionaryWithDefault
  3
ObjectDBX Classes
 90
        0
280
     0
281
     0
  0
CLASS
  1
ACDBPLACEHOLDER
  2
AcDbPlaceHolder
  3
ObjectDBX Classes
 90
        0
280
     0
281
     0
  0
CLASS
  1
LAYOUT
  2
AcDbLayout
  3
ObjectDBX Classes
 90
        0
280
     0
281
     0
  0
CLASS
  1
DICTIONARYVAR
  2
AcDbDictionaryVar
  3
ObjectDBX Classes
 90
        0
280
     0
281
     0
  0
CLASS
  1
MATERIAL
  2
AcDbMaterial
  3
ObjectDBX Classes
 90
     1153
280
     0
281
     0
  0
CLASS
  1
VISUALSTYLE
  2
AcDbVisualStyle
  3
ObjectDBX Classes
 90
     4095
280
     0
281
     0
  0
CLASS
  1
TABLESTYLE
  2
AcDbTableStyle
  3
ObjectDBX Classes
 90
     4095
280
     0
281
     0
  0
CLASS
  1
SCALE
  2
AcDbScale
  3
ObjectDBX Classes
 90
     1153
280
     0
281
     0
  0
CLASS
  1
MLEADERSTYLE
  2
AcDbMLeaderStyle
  3
ACDB_MLEADERSTYLE_CLASS
 90
     4095
280
     0
281
     0
  0
CLASS
  1
ACDBSECTIONVIEWSTYLE
  2
AcDbSectionViewStyle
  3
ObjectDBX Classes
 90
     1025
280
     0
281
     0
  0
CLASS
  1
ACDBDETAILVIEWSTYLE
  2
AcDbDetailViewStyle
  3
ObjectDBX Classes
 90
     1025
280
     0
281
     0
  0
CLASS
  1
CELLSTYLEMAP
  2
AcDbCellStyleMap
  3
ObjectDBX Classes
 90
     1152
280
     0
281
     0
  0
ENDSEC
  0
SECTION
  2
TABLES
  0
TABLE
  2
VPORT
  5
8
330
0
100
AcDbSymbolTable
 70
     1
  0
VPORT
  5
2314
330
8
100
AcDbSymbolTableRecord
100
AcDbViewportTableRecord
  2
*ACTIVE
 70
     0
 10
0.0
 20
0.0
 11
1.0
 21
1.0
 12
412.1085848087671
 22
186.4261189671236
 13
0.0
 23
0.0
 14
10.0
 24
10.0
 15
10.0
 25
10.0
 16
0.0
 26
0.0
 36
1.0
 17
0.0
 27
0.0
 37
0.0
 40
356.8410627014513
 41
1.899603698811096
 42
50.0
 43
0.0
 44
0.0
 50
0.0
 51
0.0
 71
     0
 72
   100
 73
     1
 74
     0
 75
     0
 76
     0
 77
     0
 78
     0
281
     0
 65
     1
110
0.0
120
0.0
130
0.0
111
1.0
121
0.0
131
0.0
112
0.0
122
1.0
132
0.0
 79
     0
146
0.0
1001
ACAD_NAV_VCDISPLAY
1070
     3
  0
ENDTAB
  0
TABLE
  2
LTYPE
  5
5
330
0
100
AcDbSymbolTable
 70
     4
  0
LTYPE
  5
12
330
5
100
AcDbSymbolTableRecord
100
AcDbLinetypeTableRecord
  2
BYBLOCK
 70
     0
  3

 72
    65
 73
     0
 40
0.0
  0
LTYPE
  5
13
330
5
100
AcDbSymbolTableRecord
100
AcDbLinetypeTableRecord
  2
BYLAYER
 70
     0
  3

 72
    65
 73
     0
 40
0.0
  0
LTYPE
  5
14
330
5
100
AcDbSymbolTableRecord
100
AcDbLinetypeTableRecord
  2
CONTINUOUS
 70
     0
  3
Solid line
 72
    65
 73
     0
 40
0.0
  0
LTYPE
  5
80C
330
5
100
AcDbSymbolTableRecord
100
AcDbLinetypeTableRecord
  2
DASHED
 70
     0
  3
Dashed __ __ __ __ __ __ __ __ __ __ __ __ __ _
 72
    65
 73
     2
 40
19.04999999999999
 49
12.7
 74
     0
 49
-6.349999999999998
 74
     0
  0
LTYPE
  5
80D
330
5
100
AcDbSymbolTableRecord
100
AcDbLinetypeTableRecord
  2
CENTER
 70
     0
  3
Center ____ _ ____ _ ____ _ ____ _ ____ _ ____
 72
    65
 73
     4
 40
50.8
 49
31.75
 74
     0
 49
-6.349999999999998
 74
     0
 49
6.349999999999998
 74
     0
 49
-6.349999999999998
 74
     0
  0
LTYPE
  5
80E
330
5
100
AcDbSymbolTableRecord
100
AcDbLinetypeTableRecord
  2
PHANTOM
 70
     0
  3
Phantom ______  __  __  ______  __  __  ______
 72
    65
 73
     6
 40
63.5
 49
31.75
 74
     0
 49
-6.349999999999998
 74
     0
 49
6.349999999999998
 74
     0
 49
-6.349999999999998
 74
     0
 49
6.349999999999998
 74
     0
 49
-6.349999999999998
 74
     0
  0
ENDTAB
  0
TABLE
  2
LAYER
  5
2
330
0
100
AcDbSymbolTable
 70
     8
  0
LAYER
  5
E
102
{ACAD_XDICTIONARY
360
236E
102
}
330
2
100
AcDbSymbolTableRecord
100
AcDbLayerTableRecord
  2
0
 70
     0
 62
     7
  6
CONTINUOUS
370
    -3
390
231D
  0
LAYER
  5
80F
102
{ACAD_XDICTIONARY
360
2370
102
}
330
2
100
AcDbSymbolTableRecord
100
AcDbLayerTableRecord
  2
4
 70
     0
 62
     1
  6
CENTER
370
    -3
390
231D
  0
LAYER
  5
810
102
{ACAD_XDICTIONARY
360
2372
102
}
330
2
100
AcDbSymbolTableRecord
100
AcDbLayerTableRecord
  2
5
 70
     0
 62
     6
  6
PHANTOM
370
    -3
390
231D
  0
LAYER
  5
811
102
{ACAD_XDICTIONARY
360
2374
102
}
330
2
100
AcDbSymbolTableRecord
100
AcDbLayerTableRecord
  2
1
 70
     0
 62
     7
  6
CONTINUOUS
370
    -3
390
231D
  0
LAYER
  5
812
102
{ACAD_XDICTIONARY
360
2376
102
}
330
2
100
AcDbSymbolTableRecord
100
AcDbLayerTableRecord
  2
2
 70
     0
 62
     4
  6
CONTINUOUS
370
    -3
390
231D
  0
LAYER
  5
813
102
{ACAD_XDICTIONARY
360
2378
102
}
330
2
100
AcDbSymbolTableRecord
100
AcDbLayerTableRecord
  2
3
 70
     0
 62
     2
  6
DASHED
370
    -3
390
231D
  0
LAYER
  5
814
102
{ACAD_XDICTIONARY
360
237A
102
}
330
2
100
AcDbSymbolTableRecord
100
AcDbLayerTableRecord
  2
6
 70
     0
 62
     5
  6
CONTINUOUS
370
    -3
390
231D
  0
LAYER
  5
815
102
{ACAD_XDICTIONARY
360
237C
102
}
330
2
100
AcDbSymbolTableRecord
100
AcDbLayerTableRecord
  2
7
 70
     0
 62
     3
  6
CONTINUOUS
370
    -3
390
231D
  0
ENDTAB
  0
TABLE
  2
STYLE
  5
3
330
0
100
AcDbSymbolTable
 70
     1
  0
STYLE
  5
F
330
3
100
AcDbSymbolTableRecord
100
AcDbTextStyleTableRecord
  2
STANDARD
 70
     0
 40
0.0
 41
1.0
 50
0.0
 71
     0
 42
2.5
  3
simplex.shx
  4

  0
ENDTAB
  0
TABLE
  2
VIEW
  5
6
330
0
100
AcDbSymbolTable
 70
     0
  0
ENDTAB
  0
TABLE
  2
UCS
  5
7
330
0
100
AcDbSymbolTable
 70
     0
  0
ENDTAB
  0
TABLE
  2
APPID
  5
9
330
0
100
AcDbSymbolTable
 70
     7
  0
APPID
  5
10
330
9
100
AcDbSymbolTableRecord
100
AcDbRegAppTableRecord
  2
ACAD
 70
     0
  0
APPID
  5
3E
330
9
100
AcDbSymbolTableRecord
100
AcDbRegAppTableRecord
  2
CONTENTTABDATA
 70
     0
  0
APPID
  5
3F
330
9
100
AcDbSymbolTableRecord
100
AcDbRegAppTableRecord
  2
CONTENTCURRENTTAB
 70
     0
  0
APPID
  5
1D5B
330
9
100
AcDbSymbolTableRecord
100
AcDbRegAppTableRecord
  2
CONTENTBLOCKICON
 70
     0
  0
APPID
  5
1D5C
330
9
100
AcDbSymbolTableRecord
100
AcDbRegAppTableRecord
  2
CONTENTBLOCKDESCRIPTION
 70
     0
  0
APPID
  5
2388
330
9
100
AcDbSymbolTableRecord
100
AcDbRegAppTableRecord
  2
ACAD_NAV_VCDISPLAY
 70
     0
  0
APPID
  5
23C1
330
9
100
AcDbSymbolTableRecord
100
AcDbRegAppTableRecord
  2
ACAD_MLEADERVER
 70
     0
  0
ENDTAB
  0
TABLE
  2
DIMSTYLE
  5
A
330
0
100
AcDbSymbolTable
 70
     1
100
AcDbDimStyleTable
 71
     0
  0
DIMSTYLE
105
1D
330
A
100
AcDbSymbolTableRecord
100
AcDbDimStyleTableRecord
  2
STANDARD
 70
     0
 41
3.0
 42
1.0
 43
10.0
 44
1.0
 73
     0
 74
     0
 77
     3
 78
     8
140
3.2
141
0.0
147
1.0
172
     1
173
     1
340
F
341
2E
343
2E
344
2E
  0
ENDTAB
  0
TABLE
  2
BLOCK_RECORD
  5
1
330
0
100
AcDbSymbolTable
 70
     1
  0
BLOCK_RECORD
  5
18
102
{ACAD_XDICTIONARY
360
2317
102
}
330
1
100
AcDbSymbolTableRecord
100
AcDbBlockTableRecord
  2
*MODEL_SPACE
340
236B
  0
BLOCK_RECORD
  5
15
102
{ACAD_XDICTIONARY
360
2315
102
}
330
1
100
AcDbSymbolTableRecord
100
AcDbBlockTableRecord
  2
*PAPER_SPACE
340
236C
  0
BLOCK_RECORD
  5
2E
330
1
100
AcDbSymbolTableRecord
100
AcDbBlockTableRecord
  2
_OPEN
340
0
  0
ENDTAB
  0
ENDSEC
  0
SECTION
  2
BLOCKS
  0
BLOCK
  5
19
330
18
100
AcDbEntity
  8
0
100
AcDbBlockBegin
  2
*MODEL_SPACE
 70
     0
 10
0.0
 20
0.0
 30
0.0
  3
*MODEL_SPACE
  1

  0
ENDBLK
  5
1A
330
18
100
AcDbEntity
  8
0
100
AcDbBlockEnd
  0
BLOCK
  5
16
330
15
100
AcDbEntity
 67
     1
  8
0
100
AcDbBlockBegin
  2
*PAPER_SPACE
 70
     0
 10
0.0
 20
0.0
 30
0.0
  3
*PAPER_SPACE
  1

  0
ENDBLK
  5
17
330
15
100
AcDbEntity
 67
     1
  8
0
100
AcDbBlockEnd
  0
BLOCK
  5
2F
330
2E
100
AcDbEntity
  8
0
100
AcDbBlockBegin
  2
_OPEN
 70
     0
 10
0.0
 20
0.0
 30
0.0
  3
_OPEN
  1

  0
LINE
  5
30
330
2E
100
AcDbEntity
  8
0
  6
ByBlock
 62
     0
100
AcDbLine
 10
-1.0
 20
0.1666666666666666
 30
0.0
 11
0.0
 21
0.0
 31
0.0
  0
LINE
  5
31
330
2E
100
AcDbEntity
  8
0
  6
ByBlock
 62
     0
100
AcDbLine
 10
0.0
 20
0.0
 30
0.0
 11
-1.0
 21
-0.1666666666666666
 31
0.0
  0
LINE
  5
32
330
2E
100
AcDbEntity
  8
0
  6
ByBlock
 62
     0
100
AcDbLine
 10
0.0
 20
0.0
 30
0.0
 11
-1.0
 21
0.0
 31
0.0
  0
ENDBLK
  5
33
330
2E
100
AcDbEntity
  8
0
100
AcDbBlockEnd
  0
ENDSEC
  0
SECTION
  2
ENTITIES
  0
ARC
  5
BFB
330
18
100
AcDbEntity
  8
5
  6
PHANTOM
100
AcDbCircle
 10
125.2847542693519
 20
241.9559086506336
 30
0.0
 40
28.0
100
AcDbArc
 50
345.167152079193
 51
14.83284792081368
  0
ARC
  5
BFC
330
18
100
AcDbEntity
  8
5
  6
PHANTOM
100
AcDbCircle
 10
32.78123677346934
 20
241.9055367660003
 30
0.0
 40
10.21051532818236
100
AcDbArc
 50
142.6740577821696
 51
217.3226234462146
  0
LINE
  5
C0A
330
18
100
AcDbEntity
  8
1
  6
Continuous
100
AcDbLine
 10
219.9083005620991
 20
240.9059086505594
 30
0.0
 11
219.9083005620991
 21
231.8834295004302
 31
0.0
  0
LINE
  5
C0B
330
18
100
AcDbEntity
  8
1
  6
Continuous
100
AcDbLine
 10
261.9999569626886
 20
247.905908650548
 30
0.0
 11
261.9999569626886
 21
235.9059086505481
 31
0.0
  0
ARC
  5
C0C
330
18
100
AcDbEntity
  8
1
  6
Continuous
100
AcDbCircle
 10
265.4220062423802
 20
239.1276847152244
 30
0.0
 40
1.6
100
AcDbArc
 50
274.9999999999997
 51
344.5060324994777
  0
LINE
  5
C0D
330
18
100
AcDbEntity
  8
1
  6
Continuous
100
AcDbLine
 10
264.0999569626889
 20
246.5059086505488
 30
0.0
 11
264.0999569626889
 21
237.3059086505488
 31
0.0
  0
LINE
  5
C0E
330
18
100
AcDbEntity
  8
1
  6
Continuous
100
AcDbLine
 10
262.7999569626886
 20
247.905908650548
 30
0.0
 11
262.7999569626886
 21
235.9059086505481
 31
0.0
  0
LINE
  5
C0F
330
18
100
AcDbEntity
  8
1
  6
Continuous
100
AcDbLine
 10
230.8925115781388
 20
246.9059086505549
 30
0.0
 11
230.8925115781388
 21
236.9059086505531
 31
0.0
  0
LINE
  5
C10
330
18
100
AcDbEntity
  8
1
  6
Continuous
100
AcDbLine
 10
226.8925115781379
 20
249.4591547196618
 30
0.0
 11
226.8925115781379
 21
230.6559086504336
 31
0.0
  0
LINE
  5
C12
330
18
100
AcDbEntity
  8
1
  6
Continuous
100
AcDbLine
 10
228.8925115781388
 20
251.6486944431155
 30
0.0
 11
228.8925115781388
 21
230.6559086504406
 31
0.0
  0
LINE
  5
C13
330
18
100
AcDbEntity
  8
1
  6
Continuous
100
AcDbLine
 10
226.792511578139
 20
250.3661626883805
 30
0.0
 11
226.792511578139
 21
232.1559086505518
 31
0.0
  0
LINE
  5
C14
330
18
100
AcDbEntity
  8
1
  6
Continuous
100
AcDbLine
 10
226.392511578139
 20
252.6057830216307
 30
0.0
 11
226.392511578139
 21
230.4059086505527
 31
0.0
  0
LINE
  5
C15
330
18
100
AcDbEntity
  8
4
  6
CENTER
100
AcDbLine
 10
210.1925115781386
 20
249.3294883555893
 30
0.0
 11
210.1925115781386
 21
235.2727490123286
 31
0.0
  0
LINE
  5
C16
330
18
100
AcDbEntity
  8
5
  6
PHANTOM
100
AcDbLine
 10
205.1925115781396
 20
241.9059086505487
 30
0.0
 11
205.192511578134
 21
237.1485493376588
 31
0.0
  0
LINE
  5
C17
330
18
100
AcDbEntity
  8
1
  6
Continuous
100
AcDbLine
 10
215.392511578139
 20
253.4059086505503
 30
0.0
 11
215.392511578139
 21
139.4919935803919
 31
0.0
  0
LINE
  5
C18
330
18
100
AcDbEntity
  8
1
  6
Continuous
100
AcDbLine
 10
213.392511578139
 20
267.4059086505528
 30
0.0
 11
213.392511578139
 21
125.4059086505529
 31
0.0
  0
LINE
  5
C19
330
18
100
AcDbEntity
  8
1
  6
Continuous
100
AcDbLine
 10
206.3925115781387
 20
260.1341507860812
 30
0.0
 11
206.3925115781387
 21
132.6776665150408
 31
0.0
  0
LINE
  5
C1A
330
18
100
AcDbEntity
  8
1
  6
Continuous
100
AcDbLine
 10
203.3925115781386
 20
241.4878727659907
 30
0.0
 11
203.3925115781386
 21
121.4059086505512
 31
0.0
  0
ARC
  5
C1B
330
18
100
AcDbEntity
  8
1
  6
Continuous
100
AcDbCircle
 10
31.73475426930679
 20
241.955908650592
 30
0.0
 40
9.900000000005332
100
AcDbArc
 50
341.7126811218504
 51
198.2873188797464
  0
LINE
  5
C1C
330
18
100
AcDbEntity
  8
4
  6
CENTER
100
AcDbLine
 10
31.73475426934851
 20
271.1637794246994
 30
0.0
 11
31.73475426934851
 21
116.5759165635174
 31
0.0
  0
LINE
  5
C1D
330
18
100
AcDbEntity
  8
1
  6
Continuous
100
AcDbLine
 10
22.33475426935012
 20
241.9059086505467
 30
0.0
 11
22.33475426935012
 21
124.2389891116393
 31
0.0
  0
LINE
  5
C1E
330
18
100
AcDbEntity
  8
1
  6
Continuous
100
AcDbLine
 10
41.13475426935008
 20
241.9059086505468
 30
0.0
 11
41.13475426935008
 21
124.2389891116404
 31
0.0
  0
LINE
  5
C1F
330
18
100
AcDbEntity
  8
1
  6
Continuous
100
AcDbLine
 10
15.73475426931219
 20
266.4059086505083
 30
0.0
 11
15.73475426931219
 21
126.4059086505084
 31
0.0
  0
LINE
  5
C20
330
18
100
AcDbEntity
  8
1
  6
Continuous
100
AcDbLine
 10
47.73475426931213
 20
266.4059086505243
 30
0.0
 11
47.73475426931213
 21
126.4059086505245
 31
0.0
  0
LINE
  5
C21
330
18
100
AcDbEntity
  8
1
  6
Continuous
100
AcDbLine
 10
21.83475426931215
 20
241.955908650592
 30
0.0
 11
21.83475426931215
 21
125.405908650511
 31
0.0
  0
LINE
  5
C22
330
18
100
AcDbEntity
  8
1
  6
Continuous
100
AcDbLine
 10
41.63475426931216
 20
241.955908650592
 30
0.0
 11
41.63475426931216
 21
125.4059086505218
 31
0.0
  0
LINE
  5
C23
330
18
100
AcDbEntity
  8
5
  6
PHANTOM
100
AcDbLine
 10
205.08858945732
 20
246.418638753867
 30
0.0
 11
120.1778183330931
 21
161.5078676296399
 31
0.0
  0
LINE
  5
C24
330
18
100
AcDbEntity
  8
5
  6
PHANTOM
100
AcDbLine
 10
31.7847542693521
 20
232.5559086506353
 30
0.0
 11
149.4516738082594
 21
232.5559086506353
 31
0.0
  0
TEXT
  5
C25
330
18
100
AcDbEntity
  8
7
  6
Continuous
 48
0.25
100
AcDbText
 10
9.999997526638502
 20
18.00000076076889
 30
0.0
 40
3.0
  1
TYPE No.THA-506-1
100
AcDbText
  0
TEXT
  5
C26
330
18
100
AcDbEntity
  8
7
  6
Continuous
 48
0.25
100
AcDbText
 10
9.999997526638502
 20
26.0000007607689
 30
0.0
 40
3.0
  1
CODE No.13277
100
AcDbText
  0
TEXT
  5
C27
330
18
100
AcDbEntity
  8
4
  6
CENTER
 48
0.25
100
AcDbText
 10
23.97950852663849
 20
10.0
 30
0.0
 40
1.399999999999999
  1
4
100
AcDbText
  0
TEXT
  5
C28
330
18
100
AcDbEntity
  8
1
  6
Continuous
 48
0.25
100
AcDbText
 10
9.999997526638502
 20
10.00000076076889
 30
0.0
 40
1.399999999999999
  1
LAYER
100
AcDbText
  0
TEXT
  5
C29
330
18
100
AcDbEntity
  8
1
  6
Continuous
 48
0.25
100
AcDbText
 10
17.9795085266385
 20
10.0
 30
0.0
 40
1.399999999999999
  1
1
100
AcDbText
  0
TEXT
  5
C2A
330
18
100
AcDbEntity
  8
3
  6
DASHED
 48
0.25
100
AcDbText
 10
21.9795085266385
 20
10.0
 30
0.0
 40
1.399999999999999
  1
3
100
AcDbText
  0
TEXT
  5
C2B
330
18
100
AcDbEntity
  8
2
  6
Continuous
 48
0.25
100
AcDbText
 10
19.9795085266385
 20
10.0
 30
0.0
 40
1.399999999999999
  1
2
100
AcDbText
  0
TEXT
  5
C2C
330
18
100
AcDbEntity
  8
7
  6
Continuous
 48
0.25
100
AcDbText
 10
29.9795085266385
 20
10.0
 30
0.0
 40
1.399999999999999
  1
7
100
AcDbText
  0
TEXT
  5
C2D
330
18
100
AcDbEntity
  8
6
  6
Continuous
 48
0.25
100
AcDbText
 10
27.9795085266385
 20
10.0
 30
0.0
 40
1.399999999999999
  1
6
100
AcDbText
  0
TEXT
  5
C2E
330
18
100
AcDbEntity
  8
5
  6
PHANTOM
 48
0.25
100
AcDbText
 10
25.9795085266385
 20
10.0
 30
0.0
 40
1.399999999999999
  1
5
100
AcDbText
  0
ARC
  5
C36
330
18
100
AcDbEntity
  8
1
  6
Continuous
100
AcDbCircle
 10
31.7347542693484
 20
148.4059086505468
 30
0.0
 40
28.0
100
AcDbArc
 50
255.167152079193
 51
284.8328479208137
  0
LINE
  5
C37
330
18
100
AcDbEntity
  8
1
  6
Continuous
100
AcDbLine
 10
22.33475426935012
 20
125.4059086505113
 30
0.0
 11
16.7347542693127
 21
125.4059086505084
 31
0.0
  0
ARC
  5
C38
330
18
100
AcDbEntity
  8
1
  6
Continuous
100
AcDbCircle
 10
25.33475426935013
 20
124.2389891116393
 30
0.0
 40
3.0
100
AcDbArc
 50
180.0
 51
255.167152079193
  0
ARC
  5
C39
330
18
100
AcDbEntity
  8
1
  6
Continuous
100
AcDbCircle
 10
16.73475426931219
 20
126.4059086505084
 30
0.0
 40
1.0
100
AcDbArc
 50
180.0
 51
270.0
  0
ARC
  5
C3A
330
18
100
AcDbEntity
  8
1
  6
Continuous
100
AcDbCircle
 10
31.73475426930548
 20
110.6201943649145
 30
0.0
 40
21.78571428566616
100
AcDbArc
 50
117.0280229024764
 51
133.5380121013193
  0
ARC
  5
C3B
330
18
100
AcDbEntity
  8
1
  6
Continuous
100
AcDbCircle
 10
24.33475426931215
 20
142.9108348784443
 30
0.0
 40
2.5
100
AcDbArc
 50
180.0
 51
216.869897647315
  0
ARC
  5
C3D
330
18
100
AcDbEntity
  8
1
  6
Continuous
100
AcDbCircle
 10
38.13475426935008
 20
124.2389891116404
 30
0.0
 40
3.0
100
AcDbArc
 50
284.8328479208137
 51
0.0
  0
ARC
  5
C3E
330
18
100
AcDbEntity
  8
1
  6
Continuous
100
AcDbCircle
 10
31.73475426930548
 20
110.6201943649145
 30
0.0
 40
21.78571428566616
100
AcDbArc
 50
46.43476497604373
 51
62.97197709748346
  0
LINE
  5
C3F
330
18
100
AcDbEntity
  8
1
  6
Continuous
100
AcDbLine
 10
46.73475426931282
 20
125.4059086505246
 30
0.0
 11
41.13475426935008
 21
125.4059086505215
 31
0.0
  0
ARC
  5
C40
330
18
100
AcDbEntity
  8
1
  6
Continuous
100
AcDbCircle
 10
46.73475426931213
 20
126.4059086505245
 30
0.0
 40
1.0
100
AcDbArc
 50
270.0
 51
0.0
  0
ARC
  5
C41
330
18
100
AcDbEntity
  8
1
  6
Continuous
100
AcDbCircle
 10
39.13475426931217
 20
142.9108348784522
 30
0.0
 40
2.5
100
AcDbArc
 50
323.1301023556111
 51
0.0
  0
ARC
  5
C42
330
18
100
AcDbEntity
  8
1
  6
Continuous
100
AcDbCircle
 10
24.33475426931215
 20
160.9059086505073
 30
0.0
 40
2.5
100
AcDbArc
 50
143.1301023527102
 51
180.0
  0
ARC
  5
C45
330
18
100
AcDbEntity
  8
5
  6
PHANTOM
100
AcDbCircle
 10
31.73475426932941
 20
241.9059086505261
 30
0.0
 40
9.4
100
AcDbArc
 50
221.1947459530556
 51
270.0
  0
ARC
  5
C46
330
18
100
AcDbEntity
  8
1
  6
Continuous
100
AcDbCircle
 10
39.13475426931217
 20
160.9059086505152
 30
0.0
 40
2.5
100
AcDbArc
 50
0.0
 51
36.86989764438412
  0
LINE
  5
C48
330
18
100
AcDbEntity
  8
1
  6
Continuous
100
AcDbLine
 10
215.3925115780484
 20
41.34922672981372
 30
0.0
 11
225.3925115781385
 21
41.34922672980946
 31
0.0
  0
LINE
  5
C49
330
18
100
AcDbEntity
  8
1
  6
Continuous
100
AcDbLine
 10
215.3925115780583
 20
64.34922672997514
 30
0.0
 11
225.3925115781409
 21
64.3492267299552
 31
0.0
  0
LINE
  5
C4F
330
18
100
AcDbEntity
  8
4
  6
CENTER
100
AcDbLine
 10
236.0936270327888
 20
52.84922672993372
 30
0.0
 11
199.1153416485841
 21
52.84922672996278
 31
0.0
  0
LINE
  5
C51
330
18
100
AcDbEntity
  8
1
  6
Continuous
100
AcDbLine
 10
215.3925115780483
 20
41.14922672994402
 30
0.0
 11
215.3925115780484
 21
41.34922672981373
 31
0.0
  0
LINE
  5
C55
330
18
100
AcDbEntity
  8
1
  6
Continuous
100
AcDbLine
 10
213.3925115781357
 20
36.84922672990661
 30
0.0
 11
213.3925115781357
 21
68.84922672990659
 31
0.0
  0
LINE
  5
C56
330
18
100
AcDbEntity
  8
1
  6
Continuous
100
AcDbLine
 10
209.392511578139
 20
43.98172614098097
 30
0.0
 11
209.392511578139
 21
61.71672731892716
 31
0.0
  0
LINE
  5
C57
330
18
100
AcDbEntity
  8
1
  6
Continuous
100
AcDbLine
 10
211.892511578139
 20
44.04993043769535
 30
0.0
 11
211.892511578139
 21
61.64852302221469
 31
0.0
  0
LINE
  5
C58
330
18
100
AcDbEntity
  8
1
  6
Continuous
100
AcDbLine
 10
221.9925115781391
 20
61.84922672997585
 30
0.0
 11
221.9925115781391
 21
43.84922672982088
 31
0.0
  0
ARC
  5
C59
330
18
100
AcDbEntity
  8
1
  6
Continuous
100
AcDbCircle
 10
263.3925115781391
 20
52.84922672995936
 30
0.0
 40
60.0
100
AcDbArc
 50
171.8148219823015
 51
188.1851780178825
  0
LINE
  5
C5A
330
18
100
AcDbEntity
  8
1
  6
Continuous
100
AcDbLine
 10
206.3925115781391
 20
44.44922672986688
 30
0.0
 11
206.3925115781391
 21
61.24922672986691
 31
0.0
  0
ARC
  5
C5C
330
18
100
AcDbEntity
  8
1
  6
Continuous
100
AcDbCircle
 10
211.8925115781353
 20
41.09638582080259
 30
0.0
 40
4.247159090896102
100
AcDbArc
 50
192.1693877305989
 51
270.0
  0
LINE
  5
C5D
330
18
100
AcDbEntity
  8
1
  6
Continuous
100
AcDbLine
 10
208.1120242890946
 20
43.44922672986536
 30
0.0
 11
204.9935389844502
 21
43.44922672986536
 31
0.0
  0
ARC
  5
C5E
330
18
100
AcDbEntity
  8
1
  6
Continuous
100
AcDbCircle
 10
266.3925115781357
 20
52.84922672995357
 30
0.0
 40
60.0
100
AcDbArc
 50
189.013470262384
 51
192.1693877305973
  0
LINE
  5
C5F
330
18
100
AcDbEntity
  8
1
  6
Continuous
100
AcDbLine
 10
207.4450662380882
 20
42.9555061268769
 30
0.0
 11
210.919783149704
 21
43.05030237617233
 31
0.0
  0
ARC
  5
C60
330
18
100
AcDbEntity
  8
1
  6
Continuous
100
AcDbCircle
 10
207.4505205524011
 20
42.75558051457227
 30
0.0
 40
0.2
100
AcDbArc
 50
91.5627397038388
 51
189.7174786546482
  0
ARC
  5
C61
330
18
100
AcDbEntity
  8
1
  6
Continuous
100
AcDbCircle
 10
204.9935389844502
 20
44.44922672986542
 30
0.0
 40
1.0
100
AcDbArc
 50
188.1851780178825
 51
270.0
  0
ARC
  5
C62
330
18
100
AcDbEntity
  8
1
  6
Continuous
100
AcDbCircle
 10
205.3925115781391
 20
44.44922672986688
 30
0.0
 40
1.0
100
AcDbArc
 50
270.0
 51
0.0
  0
ARC
  5
C63
330
18
100
AcDbEntity
  8
1
  6
Continuous
100
AcDbCircle
 10
214.3925115781353
 20
41.14922672995118
 30
0.0
 40
1.0
100
AcDbArc
 50
270.0
 51
0.0
  0
ARC
  5
C64
330
18
100
AcDbEntity
  8
1
  6
Continuous
100
AcDbCircle
 10
208.1120242890946
 20
44.44922672986542
 30
0.0
 40
1.0
100
AcDbArc
 50
270.0
 51
276.7539945882274
  0
ARC
  5
C65
330
18
100
AcDbEntity
  8
1
  6
Continuous
100
AcDbCircle
 10
210.892511578139
 20
44.04993043769535
 30
0.0
 40
1.0
100
AcDbArc
 50
271.5627397038371
 51
0.0
  0
LINE
  5
C66
330
18
100
AcDbEntity
  8
1
  6
Continuous
100
AcDbLine
 10
213.3925115781357
 20
40.14922672995179
 30
0.0
 11
214.3925115781347
 21
40.14922672995111
 31
0.0
  0
LINE
  5
C67
330
18
100
AcDbEntity
  8
1
  6
Continuous
100
AcDbLine
 10
211.8925115781363
 20
36.84922672990649
 30
0.0
 11
213.3925115781357
 21
36.84922672990682
 31
0.0
  0
ARC
  5
C68
330
18
100
AcDbEntity
  8
1
  6
Continuous
100
AcDbCircle
 10
208.392511578139
 20
43.98172614098097
 30
0.0
 40
1.0
100
AcDbArc
 50
271.5627397038371
 51
0.0
  0
LINE
  5
C69
330
18
100
AcDbEntity
  8
1
  6
Continuous
100
AcDbLine
 10
209.3100682129036
 20
43.58412103286537
 30
0.0
 11
208.2296309217252
 21
43.45616646988037
 31
0.0
  0
ARC
  5
C6A
330
18
100
AcDbEntity
  8
1
  6
Continuous
100
AcDbCircle
 10
219.4925115781391
 20
43.84922672982088
 30
0.0
 40
2.5
100
AcDbArc
 50
270.0
 51
0.0
  0
ARC
  5
C6C
330
18
100
AcDbEntity
  8
1
  6
Continuous
100
AcDbCircle
 10
211.8925115781261
 20
64.60206763910854
 30
0.0
 40
4.247159090896102
100
AcDbArc
 50
90.00000000004476
 51
167.830612269446
  0
LINE
  5
C6D
330
18
100
AcDbEntity
  8
1
  6
Continuous
100
AcDbLine
 10
208.1120242906347
 20
62.24922672986526
 30
0.0
 11
204.9935389844232
 21
62.24922672986526
 31
0.0
  0
ARC
  5
C6E
330
18
100
AcDbEntity
  8
1
  6
Continuous
100
AcDbCircle
 10
266.3925115781357
 20
52.84922672995357
 30
0.0
 40
60.0
100
AcDbArc
 50
167.8306122693994
 51
170.9865297377874
  0
LINE
  5
C6F
330
18
100
AcDbEntity
  8
1
  6
Continuous
100
AcDbLine
 10
207.4450662380804
 20
62.74294733303065
 30
0.0
 11
210.9197831497032
 21
62.64815108373772
 31
0.0
  0
LINE
  5
C70
330
18
100
AcDbEntity
  8
1
  6
Continuous
100
AcDbLine
 10
209.392511578139
 20
60.24922672986526
 30
0.0
 11
206.8925115781391
 21
60.24922672986526
 31
0.0
  0
LINE
  5
C71
330
18
100
AcDbEntity
  8
1
  6
Continuous
100
AcDbLine
 10
209.392511578139
 20
45.44922672986536
 30
0.0
 11
206.8925115781391
 21
45.44922672986536
 31
0.0
  0
ARC
  5
C72
330
18
100
AcDbEntity
  8
1
  6
Continuous
100
AcDbCircle
 10
206.8925115781391
 20
45.9492267298654
 30
0.0
 40
0.5
100
AcDbArc
 50
180.0
 51
270.0
  0
ARC
  5
C73
330
18
100
AcDbEntity
  8
1
  6
Continuous
100
AcDbCircle
 10
207.4505205523932
 20
62.94287294533541
 30
0.0
 40
0.2
100
AcDbArc
 50
170.2825213453962
 51
268.437260296206
  0
ARC
  5
C74
330
18
100
AcDbEntity
  8
1
  6
Continuous
100
AcDbCircle
 10
204.9935389844232
 20
61.24922672986524
 30
0.0
 40
1.0
100
AcDbArc
 50
90.0
 51
171.8148219823015
  0
ARC
  5
C75
330
18
100
AcDbEntity
  8
1
  6
Continuous
100
AcDbCircle
 10
205.3925115781391
 20
61.24922672986691
 30
0.0
 40
1.0
100
AcDbArc
 50
0.0
 51
90.0
  0
ARC
  5
C76
330
18
100
AcDbEntity
  8
1
  6
Continuous
100
AcDbCircle
 10
206.8925115781391
 20
59.74922672986526
 30
0.0
 40
0.5
100
AcDbArc
 50
90.0
 51
180.0
  0
LINE
  5
C78
330
18
100
AcDbEntity
  8
1
  6
Continuous
100
AcDbLine
 10
217.3925115781356
 20
55.84922672994958
 30
0.0
 11
216.8925115781357
 21
56.34922672994957
 31
0.0
  0
LINE
  5
C79
330
18
100
AcDbEntity
  8
1
  6
Continuous
100
AcDbLine
 10
216.8925115781356
 20
49.34922672994957
 30
0.0
 11
216.8925115781356
 21
56.34922672994957
 31
0.0
  0
LINE
  5
C7A
330
18
100
AcDbEntity
  8
1
  6
Continuous
100
AcDbLine
 10
216.8925115781356
 20
49.34922672994957
 30
0.0
 11
213.3925115781356
 21
49.34922672995014
 31
0.0
  0
LINE
  5
C7B
330
18
100
AcDbEntity
  8
1
  6
Continuous
100
AcDbLine
 10
216.8925115781357
 20
49.34922672994957
 30
0.0
 11
217.3925115781356
 21
49.84922672994958
 31
0.0
  0
LINE
  5
C7C
330
18
100
AcDbEntity
  8
1
  6
Continuous
100
AcDbLine
 10
217.3925115781357
 20
55.84922672994968
 30
0.0
 11
217.3925115781357
 21
49.84922672994969
 31
0.0
  0
ARC
  5
C7D
330
18
100
AcDbEntity
  8
1
  6
Continuous
100
AcDbCircle
 10
214.3925115781353
 20
64.54922672995116
 30
0.0
 40
1.0
100
AcDbArc
 50
0.0
 51
90.0
  0
LINE
  5
C7E
330
18
100
AcDbEntity
  8
1
  6
Continuous
100
AcDbLine
 10
216.8925115781356
 20
56.34922672994957
 30
0.0
 11
213.3925115781356
 21
56.34922672995013
 31
0.0
  0
ARC
  5
C7F
330
18
100
AcDbEntity
  8
1
  6
Continuous
100
AcDbCircle
 10
208.1120242906347
 20
61.24922672986524
 30
0.0
 40
1.0
100
AcDbArc
 50
83.24600541168235
 51
90.0
  0
LINE
  5
C80
330
18
100
AcDbEntity
  8
1
  6
Continuous
100
AcDbLine
 10
213.3925115781357
 20
65.54922672995179
 30
0.0
 11
214.3925115781359
 21
65.54922672995115
 31
0.0
  0
ARC
  5
C81
330
18
100
AcDbEntity
  8
1
  6
Continuous
100
AcDbCircle
 10
210.892511578139
 20
61.64852302221469
 30
0.0
 40
1.0
100
AcDbArc
 50
0.0
 51
88.43726029620762
  0
ARC
  5
C82
330
18
100
AcDbEntity
  8
1
  6
Continuous
100
AcDbCircle
 10
208.392511578139
 20
61.71672731892716
 30
0.0
 40
1.0
100
AcDbArc
 50
0.0
 51
88.43726029620842
  0
LINE
  5
C83
330
18
100
AcDbEntity
  8
1
  6
Continuous
100
AcDbLine
 10
209.3100682129021
 20
62.11433242704607
 30
0.0
 11
208.229630923267
 21
62.24228698985007
 31
0.0
  0
LINE
  5
C84
330
18
100
AcDbEntity
  8
1
  6
Continuous
100
AcDbLine
 10
215.3925115780583
 20
64.34922672997514
 30
0.0
 11
215.3925115780584
 21
64.54922672994405
 31
0.0
  0
ARC
  5
C85
330
18
100
AcDbEntity
  8
1
  6
Continuous
100
AcDbCircle
 10
219.4925115781391
 20
61.8492267299759
 30
0.0
 40
2.5
100
AcDbArc
 50
0.0
 51
90.0
  0
LINE
  5
C86
330
18
100
AcDbEntity
  8
1
  6
Continuous
100
AcDbLine
 10
211.8925115781357
 20
68.84922672990636
 30
0.0
 11
213.3925115781357
 21
68.84922672990659
 31
0.0
  0
LINE
  5
C87
330
18
100
AcDbEntity
  8
1
  6
Continuous
100
AcDbLine
 10
226.3925115781389
 20
46.67165138150575
 30
0.0
 11
226.3925115781389
 21
42.34922672980945
 31
0.0
  0
LINE
  5
C88
330
18
100
AcDbEntity
  8
1
  6
Continuous
100
AcDbLine
 10
228.8925115781387
 20
41.59922672993018
 30
0.0
 11
228.8925115781387
 21
62.59201252250972
 31
0.0
  0
LINE
  5
C89
330
18
100
AcDbEntity
  8
1
  6
Continuous
100
AcDbLine
 10
226.3925115781389
 20
63.34922672995521
 30
0.0
 11
226.3925115781389
 21
42.84922672995299
 31
0.0
  0
LINE
  5
C8A
330
18
100
AcDbEntity
  8
1
  6
Continuous
100
AcDbLine
 10
226.8925115782882
 20
41.59922672993018
 30
0.0
 11
226.8925115782882
 21
62.59201252250972
 31
0.0
  0
LINE
  5
C8B
330
18
100
AcDbEntity
  8
1
  6
Continuous
100
AcDbLine
 10
226.7925115781389
 20
62.6492267299293
 30
0.0
 11
226.7925115781388
 21
43.04922672995309
 31
0.0
  0
ARC
  5
C8C
330
18
100
AcDbEntity
  8
1
  6
Continuous
100
AcDbCircle
 10
226.5925115781389
 20
43.04922672995309
 30
0.0
 40
0.2
100
AcDbArc
 50
269.9999999999755
 51
0.0
  0
LINE
  5
C8D
330
18
100
AcDbEntity
  8
1
  6
Continuous
100
AcDbLine
 10
226.5925115781387
 20
42.8492267299531
 30
0.0
 11
226.3925115781231
 21
42.84922672995316
 31
0.0
  0
LINE
  5
C8E
330
18
100
AcDbEntity
  8
1
  6
Continuous
100
AcDbLine
 10
228.8925115781387
 20
41.59922672993018
 30
0.0
 11
226.8925115782882
 21
41.59922672993018
 31
0.0
  0
ARC
  5
C8F
330
18
100
AcDbEntity
  8
1
  6
Continuous
100
AcDbCircle
 10
225.3925115781389
 20
42.34922672980945
 30
0.0
 40
1.0
100
AcDbArc
 50
269.9999999999753
 51
359.9999999999998
  0
LINE
  5
C92
330
18
100
AcDbEntity
  8
1
  6
Continuous
100
AcDbLine
 10
230.8925115781387
 20
47.84922672995202
 30
0.0
 11
230.8925115781387
 21
57.84922672996112
 31
0.0
  0
LINE
  5
C93
330
18
100
AcDbEntity
  8
1
  6
Continuous
100
AcDbLine
 10
230.8925115781387
 20
47.84922672995202
 30
0.0
 11
228.8925115781387
 21
47.84922672995202
 31
0.0
  0
LINE
  5
C94
330
18
100
AcDbEntity
  8
1
  6
Continuous
100
AcDbLine
 10
230.8925115781387
 20
52.26308315863929
 30
0.0
 11
228.8925115781387
 21
52.26308315863929
 31
0.0
  0
LINE
  5
C95
330
18
100
AcDbEntity
  8
1
  6
Continuous
100
AcDbLine
 10
230.8925115781387
 20
53.43537030132342
 30
0.0
 11
228.8925115781387
 21
53.43537030132342
 31
0.0
  0
LINE
  5
C96
330
18
100
AcDbEntity
  8
1
  6
Continuous
100
AcDbLine
 10
226.8925115782882
 20
45.84922672994093
 30
0.0
 11
226.7925115781389
 21
45.84922672994104
 31
0.0
  0
LINE
  5
C97
330
18
100
AcDbEntity
  8
1
  6
Continuous
100
AcDbLine
 10
230.8925115781387
 20
57.84922672996112
 30
0.0
 11
228.8925115781387
 21
57.84922672996112
 31
0.0
  0
LINE
  5
C98
330
18
100
AcDbEntity
  8
1
  6
Continuous
100
AcDbLine
 10
226.8925115782882
 20
59.84922672994094
 30
0.0
 11
226.7925115781389
 21
59.84922672994104
 31
0.0
  0
ARC
  5
C99
330
18
100
AcDbEntity
  8
1
  6
Continuous
100
AcDbCircle
 10
226.5925115781389
 20
62.6492267299293
 30
0.0
 40
0.2
100
AcDbArc
 50
0.0
 51
89.99999999993486
  0
ARC
  5
C9A
330
18
100
AcDbEntity
  8
1
  6
Continuous
100
AcDbCircle
 10
225.3925115781389
 20
63.34922672995521
 30
0.0
 40
1.0
100
AcDbArc
 50
359.9999999999998
 51
89.99999999988558
  0
LINE
  5
C9B
330
18
100
AcDbEntity
  8
1
  6
Continuous
100
AcDbLine
 10
228.8925115781387
 20
62.59201252250972
 30
0.0
 11
226.8925115782882
 21
62.59201252250972
 31
0.0
  0
LINE
  5
C9C
330
18
100
AcDbEntity
  8
1
  6
Continuous
100
AcDbLine
 10
226.5925115781391
 20
62.84922672992928
 30
0.0
 11
226.3925115781389
 21
62.84922672992951
 31
0.0
  0
ARC
  5
CA1
330
18
100
AcDbEntity
  8
1
  6
Continuous
100
AcDbCircle
 10
246.0999569626884
 20
52.84922672994179
 30
0.0
 40
9.0
100
AcDbArc
 50
344.1191499917205
 51
15.88085000827938
  0
LINE
  5
CA2
330
18
100
AcDbEntity
  8
4
  6
CENTER
100
AcDbLine
 10
257.4999569626884
 20
52.84922672994179
 30
0.0
 11
243.9530032045344
 21
52.84922672994179
 31
0.0
  0
ARC
  5
CA3
330
18
100
AcDbEntity
  8
1
  6
Continuous
100
AcDbCircle
 10
253.5060696868973
 20
54.95623748352465
 30
0.0
 40
1.3
100
AcDbArc
 50
15.88085000827938
 51
85.00000000000019
  0
LINE
  5
CA4
330
18
100
AcDbEntity
  8
1
  6
Continuous
100
AcDbLine
 10
252.4999569626884
 20
56.64922672994187
 30
0.0
 11
252.4999569626884
 21
49.04922672994178
 31
0.0
  0
LINE
  5
CA5
330
18
100
AcDbEntity
  8
1
  6
Continuous
100
AcDbLine
 10
251.499956962689
 20
46.34922672994071
 30
0.0
 11
251.4999569626879
 21
59.34922672994275
 31
0.0
  0
LINE
  5
CA6
330
18
100
AcDbEntity
  8
1
  6
Continuous
100
AcDbLine
 10
246.4999569626891
 20
45.84922672994104
 30
0.0
 11
246.4999569626879
 21
59.84922672994247
 31
0.0
  0
LINE
  5
CA7
330
18
100
AcDbEntity
  8
1
  6
Continuous
100
AcDbLine
 10
246.4999569626879
 20
45.84922672994104
 30
0.0
 11
250.9999569626879
 21
45.84922672994082
 31
0.0
  0
ARC
  5
CA8
330
18
100
AcDbEntity
  8
1
  6
Continuous
100
AcDbCircle
 10
253.5060696869111
 20
50.74221597635562
 30
0.0
 40
1.3
100
AcDbArc
 50
274.9999999999997
 51
344.1191499917205
  0
LINE
  5
CA9
330
18
100
AcDbEntity
  8
1
  6
Continuous
100
AcDbLine
 10
251.4999569626884
 20
51.84922672994185
 30
0.0
 11
252.4999569626884
 21
52.84922672994179
 31
0.0
  0
LINE
  5
CAA
330
18
100
AcDbEntity
  8
1
  6
Continuous
100
AcDbLine
 10
252.4999569626884
 20
49.04922672994178
 30
0.0
 11
251.4999569626884
 21
49.04922672994178
 31
0.0
  0
ARC
  5
CAB
330
18
100
AcDbEntity
  8
1
  6
Continuous
100
AcDbCircle
 10
250.9999569626877
 20
46.34922672994076
 30
0.0
 40
0.5
100
AcDbArc
 50
269.999999999995
 51
359.9999999999951
  0
LINE
  5
CAC
330
18
100
AcDbEntity
  8
1
  6
Continuous
100
AcDbLine
 10
252.4999569626884
 20
49.34922672994179
 30
0.0
 11
253.6193721525228
 21
49.44716286883096
 31
0.0
  0
LINE
  5
CAD
330
18
100
AcDbEntity
  8
1
  6
Continuous
100
AcDbLine
 10
251.4999569626884
 20
52.84922672994179
 30
0.0
 11
252.4999569626884
 21
53.84922672994173
 31
0.0
  0
LINE
  5
CAE
330
18
100
AcDbEntity
  8
1
  6
Continuous
100
AcDbLine
 10
246.4999569626879
 20
59.84922672994253
 30
0.0
 11
250.9999569626879
 21
59.84922672994276
 31
0.0
  0
LINE
  5
CAF
330
18
100
AcDbEntity
  8
1
  6
Continuous
100
AcDbLine
 10
252.4999569626884
 20
56.64922672994187
 30
0.0
 11
251.4999569626884
 21
56.64922672994187
 31
0.0
  0
ARC
  5
CB0
330
18
100
AcDbEntity
  8
1
  6
Continuous
100
AcDbCircle
 10
250.9999569626877
 20
59.34922672994281
 30
0.0
 40
0.5
100
AcDbArc
 50
0.0000000000048853
 51
90.00000000000486
  0
LINE
  5
CB1
330
18
100
AcDbEntity
  8
1
  6
Continuous
100
AcDbLine
 10
252.4999569626884
 20
56.34922672994179
 30
0.0
 11
253.6193721524893
 21
56.2512905910554
 31
0.0
  0
LINE
  5
CB5
330
18
100
AcDbEntity
  8
1
  6
Continuous
100
AcDbLine
 10
217.8449932745931
 20
229.4059086505512
 30
0.0
 11
225.3925115781391
 21
229.4059086505527
 31
0.0
  0
LINE
  5
CB6
330
18
100
AcDbEntity
  8
1
  6
Continuous
100
AcDbLine
 10
221.9925115781391
 20
162.4059086505651
 30
0.0
 11
221.9925115781391
 21
143.2823428626478
 31
0.0
  0
LINE
  5
CBA
330
18
100
AcDbEntity
  8
1
  6
Continuous
100
AcDbLine
 10
217.392511578139
 20
129.4059086505532
 30
0.0
 11
217.392511578139
 21
135.4059086505532
 31
0.0
  0
LINE
  5
CBB
330
18
100
AcDbEntity
  8
1
  6
Continuous
100
AcDbLine
 10
216.892511578139
 20
135.9059086505532
 30
0.0
 11
216.892511578139
 21
128.9059086505532
 31
0.0
  0
ARC
  5
CBC
330
18
100
AcDbEntity
  8
1
  6
Continuous
100
AcDbCircle
 10
216.3925115781386
 20
131.5799824137842
 30
0.0
 40
10.0
100
AcDbArc
 50
175.2070596831295
 51
180.0
  0
ARC
  5
CBD
330
18
100
AcDbEntity
  8
1
  6
Continuous
100
AcDbCircle
 10
234.0600886410858
 20
148.4840049142966
 30
0.0
 40
32.0
100
AcDbArc
 50
210.6559624057083
 51
225.4139233241449
  0
ARC
  5
CBE
330
18
100
AcDbEntity
  8
1
  6
Continuous
100
AcDbCircle
 10
205.3925115781386
 20
121.4059086505512
 30
0.0
 40
1.0
100
AcDbArc
 50
270.0
 51
0.0
  0
ARC
  5
CBF
330
18
100
AcDbEntity
  8
1
  6
Continuous
100
AcDbCircle
 10
204.3925115781386
 20
121.4059086505512
 30
0.0
 40
1.0
100
AcDbArc
 50
180.0
 51
270.0
  0
LINE
  5
CC0
330
18
100
AcDbEntity
  8
1
  6
Continuous
100
AcDbLine
 10
204.3925115781386
 20
120.4059086505512
 30
0.0
 11
205.3925115781386
 21
120.4059086505512
 31
0.0
  0
LINE
  5
CC1
330
18
100
AcDbEntity
  8
1
  6
Continuous
100
AcDbLine
 10
206.3925115781386
 20
121.4059086505512
 30
0.0
 11
206.3925115781386
 21
131.5799824137842
 31
0.0
  0
LINE
  5
CC2
330
18
100
AcDbEntity
  8
1
  6
Continuous
100
AcDbLine
 10
216.892511578139
 20
128.9059086505532
 30
0.0
 11
213.392511578139
 21
128.9059086505528
 31
0.0
  0
LINE
  5
CC3
330
18
100
AcDbEntity
  8
1
  6
Continuous
100
AcDbLine
 10
213.392511578139
 20
125.4059086505529
 30
0.0
 11
212.2987085063342
 21
125.4059086505529
 31
0.0
  0
ARC
  5
CC4
330
18
100
AcDbEntity
  8
1
  6
Continuous
100
AcDbCircle
 10
212.2987085063342
 20
126.4059086505595
 30
0.0
 40
1.0
100
AcDbArc
 50
225.4139233241449
 51
270.0
  0
LINE
  5
CC5
330
18
100
AcDbEntity
  8
1
  6
Continuous
100
AcDbLine
 10
217.3925115781388
 20
129.4059086505532
 30
0.0
 11
216.892511578139
 21
128.9059086505532
 31
0.0
  0
ARC
  5
CC6
330
18
100
AcDbEntity
  8
1
  6
Continuous
100
AcDbCircle
 10
207.3925115781388
 20
132.6776665150408
 30
0.0
 40
1.0
100
AcDbArc
 50
180.0
 51
210.6559624057083
  0
ARC
  5
CC7
330
18
100
AcDbEntity
  8
1
  6
Continuous
100
AcDbCircle
 10
218.9925115781391
 20
143.2823428626478
 30
0.0
 40
3.0
100
AcDbArc
 50
325.2280559680503
 51
0.0
  0
LINE
  5
CC8
330
18
100
AcDbEntity
  8
4
  6
CENTER
100
AcDbLine
 10
220.436751881929
 20
132.4059086505532
 30
0.0
 11
209.2395644284383
 21
132.4059086505528
 31
0.0
  0
LINE
  5
CC9
330
18
100
AcDbEntity
  8
1
  6
Continuous
100
AcDbLine
 10
216.892511578139
 20
135.9059086505532
 30
0.0
 11
213.392511578139
 21
135.9059086505528
 31
0.0
  0
ARC
  5
CCA
330
18
100
AcDbEntity
  8
1
  6
Continuous
100
AcDbCircle
 10
210.192511578139
 20
241.9059086505618
 30
0.0
 40
103.4999999999999
100
AcDbArc
 50
271.7717460639964
 51
273.2758289597979
  0
ARC
  5
CCB
330
18
100
AcDbEntity
  8
1
  6
Continuous
100
AcDbCircle
 10
214.392511578139
 20
139.4919935803919
 30
0.0
 40
1.0
100
AcDbArc
 50
272.3483869720769
 51
0.0
  0
ARC
  5
CCC
330
18
100
AcDbEntity
  8
1
  6
Continuous
100
AcDbCircle
 10
215.7067972924248
 20
145.563588494458
 30
0.0
 40
7.0
100
AcDbArc
 50
311.0823331404507
 51
325.2280559680507
  0
LINE
  5
CCD
330
18
100
AcDbEntity
  8
1
  6
Continuous
100
AcDbLine
 10
216.892511578139
 20
135.9059086505532
 30
0.0
 11
217.3925115781388
 21
135.4059086505533
 31
0.0
  0
ARC
  5
CCE
330
18
100
AcDbEntity
  8
1
  6
Continuous
100
AcDbCircle
 10
215.7067972924248
 20
145.563588494458
 30
0.0
 40
7.0
100
AcDbArc
 50
273.2758289597979
 51
311.0823331404507
  0
LINE
  5
CCF
330
18
100
AcDbEntity
  8
5
  6
PHANTOM
100
AcDbLine
 10
203.62093870288
 20
232.5059086505437
 30
0.0
 11
159.6326086800476
 21
188.5175786277114
 31
0.0
  0
LINE
  5
CD0
330
18
100
AcDbEntity
  8
5
  6
PHANTOM
100
AcDbLine
 10
204.0209387028804
 20
234.3201222129173
 30
0.0
 11
158.927269942114
 21
189.2264534521508
 31
0.0
  0
ARC
  5
CD1
330
18
100
AcDbEntity
  8
5
  6
PHANTOM
100
AcDbCircle
 10
136.5643630387924
 20
159.509636024489
 30
0.0
 40
10.0
100
AcDbArc
 50
48.21647499751075
 51
134.9999999999997
  0
LINE
  5
CD2
330
18
100
AcDbEntity
  8
5
  6
PHANTOM
100
AcDbLine
 10
122.2991386766527
 20
159.3865472860804
 30
0.0
 11
129.4932952269269
 21
166.5807038363545
 31
0.0
  0
LINE
  5
CD3
330
18
100
AcDbEntity
  8
5
  6
PHANTOM
100
AcDbLine
 10
120.177818333093
 20
160.0936540672669
 30
0.0
 11
120.8849251142796
 21
159.3865472860804
 31
0.0
  0
ARC
  5
CD4
330
18
100
AcDbEntity
  8
5
  6
PHANTOM
100
AcDbCircle
 10
120.8849251142796
 20
160.8007608484536
 30
0.0
 40
1.0
100
AcDbArc
 50
134.9999999999997
 51
225.0000000000003
  0
ARC
  5
CD5
330
18
100
AcDbEntity
  8
5
  6
PHANTOM
100
AcDbCircle
 10
121.5920318954661
 20
160.0936540672669
 30
0.0
 40
1.0
100
AcDbArc
 50
225.0000000000003
 51
315.0
  0
LINE
  5
CD6
330
18
100
AcDbEntity
  8
5
  6
PHANTOM
100
AcDbLine
 10
159.4929553670633
 20
177.3470595282168
 30
0.0
 11
149.0097142367632
 21
166.8638183979168
 31
0.0
  0
ARC
  5
CD7
330
18
100
AcDbEntity
  8
5
  6
PHANTOM
100
AcDbCircle
 10
146.181287112017
 20
169.692245522663
 30
0.0
 40
4.0
100
AcDbArc
 50
233.6269265586793
 51
315.0
  0
ARC
  5
CD8
330
18
100
AcDbEntity
  8
5
  6
PHANTOM
100
AcDbCircle
 10
146.181287112017
 20
169.692245522663
 30
0.0
 40
4.0
100
AcDbArc
 50
228.4457608888005
 51
233.6269265586793
  0
ARC
  5
CD9
330
18
100
AcDbEntity
  8
5
  6
PHANTOM
100
AcDbCircle
 10
210.1925115781388
 20
241.9059086505487
 30
0.0
 40
100.5
100
AcDbArc
 50
228.216474997511
 51
228.4457608888005
  0
ARC
  5
CDA
330
18
100
AcDbEntity
  8
5
  6
PHANTOM
100
AcDbCircle
 10
163.8752493671669
 20
184.2749379405921
 30
0.0
 40
6.0
100
AcDbArc
 50
134.9999999999997
 51
223.5674562624328
  0
ARC
  5
CDB
330
18
100
AcDbEntity
  8
5
  6
PHANTOM
100
AcDbCircle
 10
163.1699106292332
 20
184.9838127650316
 30
0.0
 40
6.0
100
AcDbArc
 50
134.9999999999997
 51
225.0000000000003
  0
ARC
  5
CDC
330
18
100
AcDbEntity
  8
5
  6
PHANTOM
100
AcDbCircle
 10
158.0787418046901
 20
178.76127309059
 30
0.0
 40
2.0
100
AcDbArc
 50
315.0
 51
43.56745626243312
  0
LINE
  5
CDD
330
18
100
AcDbEntity
  8
5
  6
PHANTOM
100
AcDbLine
 10
159.4929553670633
 20
180.1754866529631
 30
0.0
 11
158.927269942114
 21
180.7411720779124
 31
0.0
  0
ARC
  5
CDE
330
18
100
AcDbEntity
  8
5
  6
PHANTOM
100
AcDbCircle
 10
149.4516738082594
 20
235.5559086506354
 30
0.0
 40
3.0
100
AcDbArc
 50
270.0
 51
345.167152079193
  0
ARC
  5
CDF
330
18
100
AcDbEntity
  8
1
  6
Continuous
100
AcDbCircle
 10
218.9925115781391
 20
162.4059086505651
 30
0.0
 40
3.0
100
AcDbArc
 50
0.0
 51
90.0
  0
ARC
  5
CE0
330
18
100
AcDbEntity
  8
1
  6
Continuous
100
AcDbCircle
 10
218.3925115781391
 20
168.4059086505651
 30
0.0
 40
2.999999999999971
100
AcDbArc
 50
180.0
 51
270.0
  0
LINE
  5
CE1
330
18
100
AcDbEntity
  8
1
  6
Continuous
100
AcDbLine
 10
218.9925115781391
 20
165.405908650565
 30
0.0
 11
218.3925115781391
 21
165.405908650565
 31
0.0
  0
LINE
  5
CE2
330
18
100
AcDbEntity
  8
5
  6
PHANTOM
100
AcDbLine
 10
205.6925115781386
 20
233.6804907280391
 30
0.0
 11
205.6925115781386
 21
232.5059086505453
 31
0.0
  0
LINE
  5
CE3
330
18
100
AcDbEntity
  8
5
  6
PHANTOM
100
AcDbLine
 10
206.3925115781387
 20
233.6804907280388
 30
0.0
 11
205.6925115782034
 21
233.6804907280389
 31
0.0
  0
ARC
  5
CE4
330
18
100
AcDbEntity
  8
5
  6
PHANTOM
100
AcDbCircle
 10
201.1925115781341
 20
237.1485493376635
 30
0.0
 40
4.0
100
AcDbArc
 50
315.0
 51
359.9999999999332
  0
LINE
  5
CE5
330
18
100
AcDbEntity
  8
5
  6
PHANTOM
100
AcDbLine
 10
205.6925115781386
 20
232.5059086505453
 30
0.0
 11
202.2067251405058
 21
232.5059086505427
 31
0.0
  0
LINE
  5
CE6
330
18
100
AcDbEntity
  8
1
  6
Continuous
100
AcDbLine
 10
219.6154073432856
 20
231.1763227192437
 30
0.0
 11
215.3925115781399
 21
226.9534269540979
 31
0.0
  0
LINE
  5
CE7
330
18
100
AcDbEntity
  8
1
  6
Continuous
100
AcDbLine
 10
219.6154073432856
 20
231.1763227192437
 30
0.0
 11
215.39251157814
 21
226.9534269540979
 31
0.0
  0
ARC
  5
CE8
330
18
100
AcDbEntity
  8
1
  6
Continuous
100
AcDbCircle
 10
218.908300562099
 20
231.8834295004302
 30
0.0
 40
1.0
100
AcDbArc
 50
315.0
 51
0.0
  0
LINE
  5
CEB
330
18
100
AcDbEntity
  8
1
  6
Continuous
100
AcDbLine
 10
251.4999569627584
 20
131.4059086505484
 30
0.0
 11
252.4999569627583
 21
132.4059086505484
 31
0.0
  0
ARC
  5
CEC
330
18
100
AcDbEntity
  8
1
  6
Continuous
100
AcDbCircle
 10
246.0999569627584
 20
132.4059086505484
 30
0.0
 40
9.0
100
AcDbArc
 50
344.1191499917205
 51
15.88085000827938
  0
LINE
  5
CED
330
18
100
AcDbEntity
  8
1
  6
Continuous
100
AcDbLine
 10
252.4999569627583
 20
136.2059086505484
 30
0.0
 11
252.4999569627583
 21
128.6059086505484
 31
0.0
  0
LINE
  5
CEE
330
18
100
AcDbEntity
  8
1
  6
Continuous
100
AcDbLine
 10
251.4999569627588
 20
136.9059086505514
 30
0.0
 11
251.4999569627578
 21
126.9059086505515
 31
0.0
  0
LINE
  5
CEF
330
18
100
AcDbEntity
  8
1
  6
Continuous
100
AcDbLine
 10
246.4999569627587
 20
137.4059086505517
 30
0.0
 11
246.4999569627578
 21
126.4059086505517
 31
0.0
  0
LINE
  5
CF2
330
18
100
AcDbEntity
  8
1
  6
Continuous
100
AcDbLine
 10
246.4999569627578
 20
126.4059086505517
 30
0.0
 11
250.9999569627578
 21
126.4059086505515
 31
0.0
  0
LINE
  5
CF3
330
18
100
AcDbEntity
  8
1
  6
Continuous
100
AcDbLine
 10
252.4999569627583
 20
128.9059086505484
 30
0.0
 11
253.6193721525929
 21
129.0038447894377
 31
0.0
  0
ARC
  5
CF4
330
18
100
AcDbEntity
  8
1
  6
Continuous
100
AcDbCircle
 10
253.5060696869812
 20
130.2988978969622
 30
0.0
 40
1.3
100
AcDbArc
 50
274.9999999999997
 51
344.1191499917205
  0
LINE
  5
CF5
330
18
100
AcDbEntity
  8
1
  6
Continuous
100
AcDbLine
 10
252.4999569627583
 20
128.6059086505484
 30
0.0
 11
251.4999569627584
 21
128.6059086505484
 31
0.0
  0
ARC
  5
CF6
330
18
100
AcDbEntity
  8
1
  6
Continuous
100
AcDbCircle
 10
250.9999569627576
 20
126.9059086505515
 30
0.0
 40
0.5
100
AcDbArc
 50
269.999999999995
 51
359.9999999999951
  0
LINE
  5
CF7
330
18
100
AcDbEntity
  8
4
  6
CENTER
100
AcDbLine
 10
257.4999569627584
 20
132.4059086505484
 30
0.0
 11
243.6316324985681
 21
132.4059086505484
 31
0.0
  0
LINE
  5
CF8
330
18
100
AcDbEntity
  8
1
  6
Continuous
100
AcDbLine
 10
246.4999569627587
 20
137.4059086505518
 30
0.0
 11
250.9999569627587
 21
137.4059086505516
 31
0.0
  0
LINE
  5
CF9
330
18
100
AcDbEntity
  8
1
  6
Continuous
100
AcDbLine
 10
251.4999569627584
 20
132.4059086505484
 30
0.0
 11
252.4999569627583
 21
133.4059086505483
 31
0.0
  0
LINE
  5
CFA
330
18
100
AcDbEntity
  8
1
  6
Continuous
100
AcDbLine
 10
252.4999569627583
 20
135.9059086505484
 30
0.0
 11
253.6193721525593
 21
135.8079725116621
 31
0.0
  0
ARC
  5
CFB
330
18
100
AcDbEntity
  8
1
  6
Continuous
100
AcDbCircle
 10
253.5060696869672
 20
134.5129194041311
 30
0.0
 40
1.3
100
AcDbArc
 50
15.88085000827938
 51
85.00000000000019
  0
LINE
  5
CFC
330
18
100
AcDbEntity
  8
1
  6
Continuous
100
AcDbLine
 10
252.4999569627583
 20
136.2059086505484
 30
0.0
 11
251.4999569627584
 21
136.2059086505484
 31
0.0
  0
ARC
  5
CFD
330
18
100
AcDbEntity
  8
1
  6
Continuous
100
AcDbCircle
 10
250.9999569627587
 20
136.9059086505514
 30
0.0
 40
0.5
100
AcDbArc
 50
359.9999999999951
 51
89.99999999999511
  0
LINE
  5
CFE
330
18
100
AcDbEntity
  8
1
  6
Continuous
100
AcDbLine
 10
230.8925115781361
 20
236.9059086505531
 30
0.0
 11
228.8925115781388
 21
236.9059086505541
 31
0.0
  0
LINE
  5
CFF
330
18
100
AcDbEntity
  8
1
  6
Continuous
100
AcDbLine
 10
226.7925115781388
 20
234.9059086505523
 30
0.0
 11
226.8925115781375
 21
234.9059086505525
 31
0.0
  0
LINE
  5
D00
330
18
100
AcDbEntity
  8
1
  6
Continuous
100
AcDbLine
 10
228.892511578139
 20
230.6559086504406
 30
0.0
 11
226.8925115782883
 21
230.6559086504336
 31
0.0
  0
LINE
  5
D01
330
18
100
AcDbEntity
  8
1
  6
Continuous
100
AcDbLine
 10
228.892511578143
 20
237.7559086505415
 30
0.0
 11
226.8925115780596
 21
237.755908650541
 31
0.0
  0
LINE
  5
D02
330
18
100
AcDbEntity
  8
1
  6
Continuous
100
AcDbLine
 10
228.8925115781436
 20
236.2809086505442
 30
0.0
 11
226.89251157806
 21
236.2809086505436
 31
0.0
  0
LINE
  5
D03
330
18
100
AcDbEntity
  8
1
  6
Continuous
100
AcDbLine
 10
226.392511578139
 20
231.9059086505518
 30
0.0
 11
226.5925115781389
 21
231.9059086505518
 31
0.0
  0
ARC
  5
D04
330
18
100
AcDbEntity
  8
1
  6
Continuous
100
AcDbCircle
 10
225.392511578139
 20
230.4059086505527
 30
0.0
 40
1.0
100
AcDbArc
 50
270.0
 51
0.0
  0
ARC
  5
D05
330
18
100
AcDbEntity
  8
1
  6
Continuous
100
AcDbCircle
 10
226.5362615781389
 20
232.1559086505518
 30
0.0
 40
0.2562500000000227
100
AcDbArc
 50
282.6803834918263
 51
0.0
  0
LINE
  5
D07
330
18
100
AcDbEntity
  8
1
  6
Continuous
100
AcDbLine
 10
262.7999569626886
 20
235.9059086505483
 30
0.0
 11
261.9999569626886
 21
235.9059086505481
 31
0.0
  0
LINE
  5
D08
330
18
100
AcDbEntity
  8
1
  6
Continuous
100
AcDbLine
 10
264.0999569626889
 20
237.4059086505488
 30
0.0
 11
265.5614554308252
 21
237.5337731982712
 31
0.0
  0
LINE
  5
D09
330
18
100
AcDbEntity
  8
1
  6
Continuous
100
AcDbLine
 10
264.0999569626889
 20
237.3059086505488
 30
0.0
 11
262.7999569626886
 21
237.3059086505488
 31
0.0
  0
LINE
  5
D0A
330
18
100
AcDbEntity
  8
5
  6
PHANTOM
100
AcDbLine
 10
31.78475426935199
 20
251.3559086506353
 30
0.0
 11
149.4516738082584
 21
251.3559086506353
 31
0.0
  0
LINE
  5
D0B
330
18
100
AcDbEntity
  8
4
  6
CENTER
100
AcDbLine
 10
17.33047878995285
 20
241.9059086505261
 30
0.0
 11
158.2155404687032
 21
241.9059086505258
 31
0.0
  0
ARC
  5
D0C
330
18
100
AcDbEntity
  8
1
  6
Continuous
100
AcDbCircle
 10
31.73438238482441
 20
240.8594261464069
 30
0.0
 40
10.21051532818227
100
AcDbArc
 50
52.63665458699405
 51
127.3226234462155
  0
LINE
  5
D0D
330
18
100
AcDbEntity
  8
1
  6
Continuous
100
AcDbLine
 10
46.73475426931156
 20
267.4059086505244
 30
0.0
 11
16.73475426931156
 21
267.4059086505083
 31
0.0
  0
ARC
  5
D0E
330
18
100
AcDbEntity
  8
1
  6
Continuous
100
AcDbCircle
 10
31.73475426930548
 20
282.191622936161
 30
0.0
 40
21.78571428566616
100
AcDbArc
 50
226.4619878986805
 51
313.5652350239563
  0
ARC
  5
D10
330
18
100
AcDbEntity
  8
1
  6
Continuous
100
AcDbCircle
 10
31.7347542693501
 20
241.9059086505468
 30
0.0
 40
9.4
100
AcDbArc
 50
131.1947459530567
 51
180.0
  0
ARC
  5
D11
330
18
100
AcDbEntity
  8
5
  6
PHANTOM
100
AcDbCircle
 10
31.73475426932941
 20
241.9059086505261
 30
0.0
 40
9.4
100
AcDbArc
 50
90.0
 51
138.7645320801528
  0
ARC
  5
D12
330
18
100
AcDbEntity
  8
1
  6
Continuous
100
AcDbCircle
 10
16.73475426931219
 20
266.4059086505083
 30
0.0
 40
1.0
100
AcDbArc
 50
90.0
 51
180.0
  0
ARC
  5
D13
330
18
100
AcDbEntity
  8
1
  6
Continuous
100
AcDbCircle
 10
31.7347542693501
 20
241.9059086505468
 30
0.0
 40
9.4
100
AcDbArc
 50
0.0
 51
48.76453208015315
  0
ARC
  5
D14
330
18
100
AcDbEntity
  8
1
  6
Continuous
100
AcDbCircle
 10
46.73475426931213
 20
266.4059086505243
 30
0.0
 40
1.0
100
AcDbArc
 50
0.0
 51
90.0
  0
LINE
  5
D85
330
18
100
AcDbEntity
  8
1
  6
Continuous
100
AcDbLine
 10
215.3925115780584
 20
335.3571536100393
 30
0.0
 11
225.3925115781409
 21
335.3571536100593
 31
0.0
  0
LINE
  5
D86
330
18
100
AcDbEntity
  8
4
  6
CENTER
100
AcDbLine
 10
235.3227317923373
 20
346.8571536100959
 30
0.0
 11
199.1153416485023
 21
346.8571536100518
 31
0.0
  0
LINE
  5
D87
330
18
100
AcDbEntity
  8
1
  6
Continuous
100
AcDbLine
 10
215.3925115780485
 20
358.3571536102008
 30
0.0
 11
225.3925115781385
 21
358.3571536102052
 31
0.0
  0
LINE
  5
D88
330
18
100
AcDbEntity
  8
1
  6
Continuous
100
AcDbLine
 10
213.392511578139
 20
254.40590865055
 30
0.0
 11
228.392511578139
 21
254.4059086505531
 31
0.0
  0
LINE
  5
D89
330
18
100
AcDbEntity
  8
4
  6
CENTER
100
AcDbLine
 10
199.5654937172576
 20
241.9059086505471
 30
0.0
 11
235.6143019278712
 21
241.9059086505549
 31
0.0
  0
ARC
  5
D8A
330
18
100
AcDbEntity
  8
5
  6
PHANTOM
100
AcDbCircle
 10
149.4516738082584
 20
248.3559086506353
 30
0.0
 40
3.0
100
AcDbArc
 50
14.83284792081368
 51
90.0
  0
LINE
  5
D8F
330
18
100
AcDbEntity
  8
1
  6
Continuous
100
AcDbLine
 10
217.392511578139
 20
257.4059086505529
 30
0.0
 11
217.392511578139
 21
263.405908650553
 31
0.0
  0
LINE
  5
D90
330
18
100
AcDbEntity
  8
1
  6
Continuous
100
AcDbLine
 10
216.892511578139
 20
263.9059086505529
 30
0.0
 11
216.892511578139
 21
256.905908650553
 31
0.0
  0
ARC
  5
D91
330
18
100
AcDbEntity
  8
1
  6
Continuous
100
AcDbCircle
 10
207.3925115781386
 20
246.5232672027947
 30
0.0
 40
4.0
100
AcDbArc
 50
121.2329290155124
 51
138.590377890729
  0
ARC
  5
D92
330
18
100
AcDbEntity
  8
1
  6
Continuous
100
AcDbCircle
 10
233.3925115781386
 20
241.4878727659907
 30
0.0
 40
30.0
100
AcDbArc
 50
165.1648884180242
 51
180.0
  0
ARC
  5
D93
330
18
100
AcDbEntity
  8
5
  6
PHANTOM
100
AcDbCircle
 10
226.3017928929163
 20
225.2054353182705
 30
0.0
 40
30.0
100
AcDbArc
 50
131.5782819119079
 51
134.9999999999997
  0
ARC
  5
D94
330
18
100
AcDbEntity
  8
1
  6
Continuous
100
AcDbCircle
 10
210.1925115781386
 20
241.9059086505486
 30
0.0
 40
9.4
100
AcDbArc
 50
113.8444700235039
 51
121.2329290155124
  0
ARC
  5
D95
330
18
100
AcDbEntity
  8
1
  6
Continuous
100
AcDbCircle
 10
214.392511578139
 20
253.4059086505503
 30
0.0
 40
1.0
100
AcDbArc
 50
0.0
 51
90.0
  0
LINE
  5
D96
330
18
100
AcDbEntity
  8
1
  6
Continuous
100
AcDbLine
 10
216.892511578139
 20
256.9059086505529
 30
0.0
 11
213.392511578139
 21
256.9059086505528
 31
0.0
  0
LINE
  5
D97
330
18
100
AcDbEntity
  8
1
  6
Continuous
100
AcDbLine
 10
217.3925115781388
 20
257.4059086505528
 30
0.0
 11
216.8925115781388
 21
256.9059086505529
 31
0.0
  0
ARC
  5
D98
330
18
100
AcDbEntity
  8
1
  6
Continuous
100
AcDbCircle
 10
234.0600886410816
 20
244.3278123868187
 30
0.0
 40
32.0
100
AcDbArc
 50
134.5860766758447
 51
149.3440375942768
  0
ARC
  5
D99
330
18
100
AcDbEntity
  8
1
  6
Continuous
100
AcDbCircle
 10
207.3925115781388
 20
260.1341507860812
 30
0.0
 40
1.0
100
AcDbArc
 50
149.3440375942777
 51
180.0
  0
LINE
  5
D9A
330
18
100
AcDbEntity
  8
4
  6
CENTER
100
AcDbLine
 10
221.1220001782714
 20
260.4059086505531
 30
0.0
 11
209.2395644284384
 21
260.4059086505529
 31
0.0
  0
LINE
  5
D9B
330
18
100
AcDbEntity
  8
1
  6
Continuous
100
AcDbLine
 10
216.892511578139
 20
263.9059086505529
 30
0.0
 11
213.392511578139
 21
263.9059086505528
 31
0.0
  0
LINE
  5
D9C
330
18
100
AcDbEntity
  8
1
  6
Continuous
100
AcDbLine
 10
213.392511578139
 20
267.4059086505528
 30
0.0
 11
212.2987085063339
 21
267.4059086505528
 31
0.0
  0
ARC
  5
D9D
330
18
100
AcDbEntity
  8
1
  6
Continuous
100
AcDbCircle
 10
212.2987085063339
 20
266.4059086505595
 30
0.0
 40
1.0
100
AcDbArc
 50
90.0
 51
134.5860766758447
  0
LINE
  5
D9E
330
18
100
AcDbEntity
  8
1
  6
Continuous
100
AcDbLine
 10
216.8925115781387
 20
263.9059086505526
 30
0.0
 11
217.3925115781388
 21
263.4059086505526
 31
0.0
  0
LINE
  5
DA3
330
18
100
AcDbEntity
  8
4
  6
CENTER
100
AcDbLine
 10
210.1925115781386
 20
335.5669530391296
 30
0.0
 11
210.1925115781386
 21
358.1164095530529
 31
0.0
  0
LINE
  5
DA4
330
18
100
AcDbEntity
  8
1
  6
Continuous
100
AcDbLine
 10
217.3925115780551
 20
343.8571536100728
 30
0.0
 11
217.3925115780525
 21
349.8571536100728
 31
0.0
  0
LINE
  5
DA5
330
18
100
AcDbEntity
  8
1
  6
Continuous
100
AcDbLine
 10
216.8925115780524
 20
350.3571536100727
 30
0.0
 11
216.8925115780552
 21
343.3571536100727
 31
0.0
  0
ARC
  5
DA6
330
18
100
AcDbEntity
  8
1
  6
Continuous
100
AcDbCircle
 10
263.3925115780574
 20
346.8571536100828
 30
0.0
 40
60.0
100
AcDbArc
 50
171.8148219821419
 51
188.185178017723
  0
ARC
  5
DA7
330
18
100
AcDbEntity
  8
1
  6
Continuous
100
AcDbCircle
 10
266.3925115780539
 20
346.85715361009
 30
0.0
 40
60.0
100
AcDbArc
 50
167.8306122694271
 51
180.0000000000279
  0
LINE
  5
DA8
330
18
100
AcDbEntity
  8
1
  6
Continuous
100
AcDbLine
 10
213.392511578047
 20
362.8571536101142
 30
0.0
 11
213.3925115780607
 21
330.8571536101141
 31
0.0
  0
ARC
  5
DA9
330
18
100
AcDbEntity
  8
1
  6
Continuous
100
AcDbCircle
 10
211.8925115780493
 20
335.1043127009116
 30
0.0
 40
4.247159090896102
100
AcDbArc
 50
192.1693877305785
 51
269.9999999999798
  0
ARC
  5
DAA
330
18
100
AcDbEntity
  8
1
  6
Continuous
100
AcDbCircle
 10
266.3925115780539
 20
346.85715361009
 30
0.0
 40
60.0
100
AcDbArc
 50
180.0000000000279
 51
192.1693877306251
  0
ARC
  5
DAB
330
18
100
AcDbEntity
  8
1
  6
Continuous
100
AcDbCircle
 10
204.993538984345
 20
338.4571536101518
 30
0.0
 40
1.0
100
AcDbArc
 50
188.185178017723
 51
270.0000000000246
  0
LINE
  5
DAC
330
18
100
AcDbEntity
  8
1
  6
Continuous
100
AcDbLine
 10
207.13341944865
 20
337.4571536101528
 30
0.0
 11
204.9935389843454
 21
337.457153610152
 31
0.0
  0
LINE
  5
DAD
330
18
100
AcDbEntity
  8
1
  6
Continuous
100
AcDbLine
 10
215.3925115780562
 20
343.3571536100719
 30
0.0
 11
215.3925115780585
 21
335.1571536100705
 31
0.0
  0
ARC
  5
DAE
330
18
100
AcDbEntity
  8
1
  6
Continuous
100
AcDbCircle
 10
214.3925115780585
 20
335.1571536100701
 30
0.0
 40
1.0
100
AcDbArc
 50
270.0000000000246
 51
0.0000000000246178
  0
LINE
  5
DAF
330
18
100
AcDbEntity
  8
1
  6
Continuous
100
AcDbLine
 10
211.8925115780607
 20
330.8571536101138
 30
0.0
 11
213.3925115780608
 21
330.8571536101141
 31
0.0
  0
LINE
  5
DB0
330
18
100
AcDbEntity
  8
1
  6
Continuous
100
AcDbLine
 10
213.3925115780593
 20
334.1571536100691
 30
0.0
 11
214.3925115780595
 21
334.1571536100701
 31
0.0
  0
LINE
  5
DB1
330
18
100
AcDbEntity
  8
1
  6
Continuous
100
AcDbLine
 10
216.8925115780552
 20
343.3571536100727
 30
0.0
 11
213.3925115780553
 21
343.3571536100706
 31
0.0
  0
LINE
  5
DB2
330
18
100
AcDbEntity
  8
1
  6
Continuous
100
AcDbLine
 10
217.392511578055
 20
343.8571536100729
 30
0.0
 11
216.8925115780554
 21
343.3571536100727
 31
0.0
  0
ARC
  5
DB3
330
18
100
AcDbEntity
  8
1
  6
Continuous
100
AcDbCircle
 10
211.8925115780484
 20
358.6099945192176
 30
0.0
 40
4.247159090896102
100
AcDbArc
 50
90.00000000002458
 51
167.8306122694256
  0
LINE
  5
DB4
330
18
100
AcDbEntity
  8
1
  6
Continuous
100
AcDbLine
 10
207.1334194486699
 20
356.2571536101527
 30
0.0
 11
204.9935389843644
 21
356.2571536101518
 31
0.0
  0
ARC
  5
DB5
330
18
100
AcDbEntity
  8
1
  6
Continuous
100
AcDbCircle
 10
204.9935389843648
 20
355.2571536101518
 30
0.0
 40
1.0
100
AcDbArc
 50
90.00000000002458
 51
171.8148219821419
  0
LINE
  5
DB6
330
18
100
AcDbEntity
  8
1
  6
Continuous
100
AcDbLine
 10
215.3925115780484
 20
358.5571536100705
 30
0.0
 11
215.3925115780531
 21
350.3571536100718
 31
0.0
  0
LINE
  5
DB7
330
18
100
AcDbEntity
  8
1
  6
Continuous
100
AcDbLine
 10
216.8925115780524
 20
350.3571536100727
 30
0.0
 11
213.3925115780523
 21
350.3571536100707
 31
0.0
  0
LINE
  5
DB8
330
18
100
AcDbEntity
  8
1
  6
Continuous
100
AcDbLine
 10
216.8925115780524
 20
350.3571536100727
 30
0.0
 11
217.3925115780525
 21
349.8571536100729
 31
0.0
  0
ARC
  5
DB9
330
18
100
AcDbEntity
  8
1
  6
Continuous
100
AcDbCircle
 10
214.3925115780484
 20
358.5571536100701
 30
0.0
 40
1.0
100
AcDbArc
 50
0.0000000000246178
 51
90.00000000002458
  0
LINE
  5
DBA
330
18
100
AcDbEntity
  8
1
  6
Continuous
100
AcDbLine
 10
211.8925115780475
 20
362.8571536101137
 30
0.0
 11
213.392511578047
 21
362.857153610114
 31
0.0
  0
LINE
  5
DBB
330
18
100
AcDbEntity
  8
1
  6
Continuous
100
AcDbLine
 10
213.3925115780484
 20
359.557153610069
 30
0.0
 11
214.3925115780473
 21
359.55715361007
 31
0.0
  0
LINE
  5
DBD
330
18
100
AcDbEntity
  8
1
  6
Continuous
100
AcDbLine
 10
230.8925115781413
 20
246.905908650555
 30
0.0
 11
228.8925115781388
 21
246.905908650556
 31
0.0
  0
LINE
  5
DBE
330
18
100
AcDbEntity
  8
1
  6
Continuous
100
AcDbLine
 10
230.892511578139
 20
242.5627629000028
 30
0.0
 11
228.8925115781388
 21
242.5627629000039
 31
0.0
  0
LINE
  5
DBF
330
18
100
AcDbEntity
  8
1
  6
Continuous
100
AcDbLine
 10
230.8925115781383
 20
241.2490544011274
 30
0.0
 11
228.892511578139
 21
241.2490544011284
 31
0.0
  0
LINE
  5
DC0
330
18
100
AcDbEntity
  8
1
  6
Continuous
100
AcDbLine
 10
226.7925115781388
 20
248.9059086505519
 30
0.0
 11
226.8925115781375
 21
248.9059086505519
 31
0.0
  0
LINE
  5
DC1
330
18
100
AcDbEntity
  8
1
  6
Continuous
100
AcDbLine
 10
228.892511578139
 20
251.6486944431155
 30
0.0
 11
228.5925115781388
 21
251.6486944431155
 31
0.0
  0
LINE
  5
DC2
330
18
100
AcDbEntity
  8
1
  6
Continuous
100
AcDbLine
 10
228.8925115781393
 20
250.2059086505339
 30
0.0
 11
228.5925115781388
 21
250.2059086505339
 31
0.0
  0
LINE
  5
DC3
330
18
100
AcDbEntity
  8
1
  6
Continuous
100
AcDbLine
 10
228.592511578139
 20
254.2059086505533
 30
0.0
 11
228.592511578139
 21
249.6591547196617
 31
0.0
  0
LINE
  5
DC4
330
18
100
AcDbEntity
  8
1
  6
Continuous
100
AcDbLine
 10
228.3925115781388
 20
249.4591547196617
 30
0.0
 11
226.7925115781388
 21
249.4591547196618
 31
0.0
  0
ARC
  5
DC5
330
18
100
AcDbEntity
  8
1
  6
Continuous
100
AcDbCircle
 10
228.392511578139
 20
254.2059086505533
 30
0.0
 40
0.2
100
AcDbArc
 50
0.0
 51
90.0
  0
ARC
  5
DC6
330
18
100
AcDbEntity
  8
1
  6
Continuous
100
AcDbCircle
 10
228.392511578139
 20
252.805783021628
 30
0.0
 40
0.2
100
AcDbArc
 50
270.0
 51
0.0
  0
ARC
  5
DC7
330
18
100
AcDbEntity
  8
1
  6
Continuous
100
AcDbCircle
 10
228.392511578139
 20
249.6591547196617
 30
0.0
 40
0.2
100
AcDbArc
 50
270.0
 51
0.0
  0
LINE
  5
DC8
330
18
100
AcDbEntity
  8
1
  6
Continuous
100
AcDbLine
 10
226.5925115781391
 20
250.5661626883806
 30
0.0
 11
226.392511578139
 21
250.5661626883806
 31
0.0
  0
LINE
  5
DC9
330
18
100
AcDbEntity
  8
1
  6
Continuous
100
AcDbLine
 10
228.3925115781388
 20
252.6057830216278
 30
0.0
 11
226.392511578139
 21
252.6057830216307
 31
0.0
  0
ARC
  5
DCA
330
18
100
AcDbEntity
  8
1
  6
Continuous
100
AcDbCircle
 10
226.5925115781391
 20
250.3661626883805
 30
0.0
 40
0.1999999999999886
100
AcDbArc
 50
0.0
 51
90.0
  0
LINE
  5
DCF
330
18
100
AcDbEntity
  8
1
  6
Continuous
100
AcDbLine
 10
251.499956962689
 20
259.4059086505523
 30
0.0
 11
252.4999569626889
 21
260.4059086505522
 31
0.0
  0
ARC
  5
DD0
330
18
100
AcDbEntity
  8
1
  6
Continuous
100
AcDbCircle
 10
246.0999569626888
 20
260.4059086505522
 30
0.0
 40
9.0
100
AcDbArc
 50
344.1191499917205
 51
15.88085000827938
  0
LINE
  5
DD1
330
18
100
AcDbEntity
  8
1
  6
Continuous
100
AcDbLine
 10
252.4999569626889
 20
264.2059086505523
 30
0.0
 11
252.4999569626889
 21
256.6059086505522
 31
0.0
  0
LINE
  5
DD2
330
18
100
AcDbEntity
  8
1
  6
Continuous
100
AcDbLine
 10
251.4999569626894
 20
255.9059086505532
 30
0.0
 11
251.4999569626884
 21
265.9059086505532
 31
0.0
  0
LINE
  5
DD3
330
18
100
AcDbEntity
  8
1
  6
Continuous
100
AcDbLine
 10
246.4999569626893
 20
255.4059086505529
 30
0.0
 11
246.4999569626884
 21
266.4059086505529
 31
0.0
  0
LINE
  5
DD4
330
18
100
AcDbEntity
  8
1
  6
Continuous
100
AcDbLine
 10
246.4999569626892
 20
255.4059086505529
 30
0.0
 11
250.9999569626891
 21
255.4059086505532
 31
0.0
  0
LINE
  5
DD5
330
18
100
AcDbEntity
  8
1
  6
Continuous
100
AcDbLine
 10
252.4999569626889
 20
256.9059086505522
 30
0.0
 11
253.6193721525233
 21
257.0038447894414
 31
0.0
  0
ARC
  5
DD6
330
18
100
AcDbEntity
  8
1
  6
Continuous
100
AcDbCircle
 10
253.5060696869116
 20
258.298897896966
 30
0.0
 40
1.3
100
AcDbArc
 50
274.9999999999997
 51
344.1191499917205
  0
LINE
  5
DD7
330
18
100
AcDbEntity
  8
1
  6
Continuous
100
AcDbLine
 10
252.4999569626889
 20
256.6059086505522
 30
0.0
 11
251.499956962689
 21
256.6059086505522
 31
0.0
  0
ARC
  5
DD8
330
18
100
AcDbEntity
  8
1
  6
Continuous
100
AcDbCircle
 10
250.9999569626894
 20
255.9059086505532
 30
0.0
 40
0.5
100
AcDbArc
 50
270.0000000000049
 51
0.0000000000048853
  0
LINE
  5
DD9
330
18
100
AcDbEntity
  8
1
  6
Continuous
100
AcDbLine
 10
262.7999569626886
 20
247.9059086505483
 30
0.0
 11
261.9999569626886
 21
247.905908650548
 31
0.0
  0
LINE
  5
DDA
330
18
100
AcDbEntity
  8
4
  6
CENTER
100
AcDbLine
 10
269.6048196674148
 20
241.9059086505487
 30
0.0
 11
258.8658622993774
 21
241.9059086505487
 31
0.0
  0
LINE
  5
DDB
330
18
100
AcDbEntity
  8
1
  6
Continuous
100
AcDbLine
 10
262.7999569626886
 20
240.6059086505488
 30
0.0
 11
264.0999569626889
 21
241.9059086505487
 31
0.0
  0
LINE
  5
DDC
330
18
100
AcDbEntity
  8
1
  6
Continuous
100
AcDbLine
 10
262.7999569626886
 20
241.9059086505487
 30
0.0
 11
264.0999569626889
 21
243.2059086505487
 31
0.0
  0
ARC
  5
DDD
330
18
100
AcDbEntity
  8
1
  6
Continuous
100
AcDbCircle
 10
255.3999569626889
 20
241.9059086505487
 30
0.0
 40
12.0
100
AcDbArc
 50
344.5060324994777
 51
15.4939675005222
  0
LINE
  5
DDE
330
18
100
AcDbEntity
  8
1
  6
Continuous
100
AcDbLine
 10
264.0999569626886
 20
246.4059086505487
 30
0.0
 11
265.5614554307839
 21
246.27804410283
 31
0.0
  0
ARC
  5
DDF
330
18
100
AcDbEntity
  8
1
  6
Continuous
100
AcDbCircle
 10
265.422006242363
 20
244.6841325858691
 30
0.0
 40
1.6
100
AcDbArc
 50
15.4939675005222
 51
85.00000000000019
  0
LINE
  5
DE0
330
18
100
AcDbEntity
  8
1
  6
Continuous
100
AcDbLine
 10
264.0999569626889
 20
246.5059086505488
 30
0.0
 11
262.7999569626886
 21
246.5059086505488
 31
0.0
  0
LINE
  5
DE1
330
18
100
AcDbEntity
  8
4
  6
CENTER
100
AcDbLine
 10
257.499956962689
 20
260.4059086505522
 30
0.0
 11
243.9530032045349
 21
260.4059086505522
 31
0.0
  0
LINE
  5
DE2
330
18
100
AcDbEntity
  8
1
  6
Continuous
100
AcDbLine
 10
246.4999569626884
 20
266.4059086505529
 30
0.0
 11
250.9999569626884
 21
266.4059086505532
 31
0.0
  0
LINE
  5
DE3
330
18
100
AcDbEntity
  8
1
  6
Continuous
100
AcDbLine
 10
251.499956962689
 20
260.4059086505522
 30
0.0
 11
252.4999569626889
 21
261.4059086505521
 31
0.0
  0
LINE
  5
DE4
330
18
100
AcDbEntity
  8
1
  6
Continuous
100
AcDbLine
 10
252.4999569626889
 20
263.9059086505522
 30
0.0
 11
253.6193721524898
 21
263.8079725116658
 31
0.0
  0
ARC
  5
DE5
330
18
100
AcDbEntity
  8
1
  6
Continuous
100
AcDbCircle
 10
253.5060696868979
 20
262.5129194041351
 30
0.0
 40
1.3
100
AcDbArc
 50
15.88085000827938
 51
85.00000000000019
  0
LINE
  5
DE6
330
18
100
AcDbEntity
  8
1
  6
Continuous
100
AcDbLine
 10
252.4999569626889
 20
264.2059086505523
 30
0.0
 11
251.499956962689
 21
264.2059086505523
 31
0.0
  0
ARC
  5
DE7
330
18
100
AcDbEntity
  8
1
  6
Continuous
100
AcDbCircle
 10
250.9999569626882
 20
265.9059086505532
 30
0.0
 40
0.5
100
AcDbArc
 50
0.0000000000048853
 51
90.00000000000486
  0
LINE
  5
DEA
330
18
100
AcDbEntity
  8
1
  6
Continuous
100
AcDbLine
 10
228.3925115781388
 20
340.6795782616599
 30
0.0
 11
228.3925115781388
 21
353.0347289585088
 31
0.0
  0
LINE
  5
DEB
330
18
100
AcDbEntity
  8
1
  6
Continuous
100
AcDbLine
 10
230.8925115781388
 20
351.8571536100625
 30
0.0
 11
230.8925115781388
 21
341.8571536100534
 31
0.0
  0
LINE
  5
DED
330
18
100
AcDbEntity
  8
1
  6
Continuous
100
AcDbLine
 10
226.792511578139
 20
337.0571536100852
 30
0.0
 11
226.792511578139
 21
340.6795782616599
 31
0.0
  0
LINE
  5
DEE
330
18
100
AcDbEntity
  8
1
  6
Continuous
100
AcDbLine
 10
228.8925115781388
 20
341.8571536100534
 30
0.0
 11
228.8925115781388
 21
337.1143678175048
 31
0.0
  0
LINE
  5
DEF
330
18
100
AcDbEntity
  8
1
  6
Continuous
100
AcDbLine
 10
226.8925115782883
 20
340.6795782616599
 30
0.0
 11
226.8925115782883
 21
337.1143678175048
 31
0.0
  0
LINE
  5
DF0
330
18
100
AcDbEntity
  8
1
  6
Continuous
100
AcDbLine
 10
226.392511578139
 20
336.3571536100593
 30
0.0
 11
226.392511578139
 21
340.6795782616599
 31
0.0
  0
ARC
  5
DF1
330
18
100
AcDbEntity
  8
1
  6
Continuous
100
AcDbCircle
 10
226.5925115781389
 20
337.0571536100852
 30
0.0
 40
0.2
100
AcDbArc
 50
270.0000000000651
 51
0.0
  0
LINE
  5
DF2
330
18
100
AcDbEntity
  8
1
  6
Continuous
100
AcDbLine
 10
226.5925115781392
 20
336.8571536100852
 30
0.0
 11
226.392511578139
 21
336.857153610085
 31
0.0
  0
LINE
  5
DF3
330
18
100
AcDbEntity
  8
1
  6
Continuous
100
AcDbLine
 10
228.8925115781388
 20
337.1143678175048
 30
0.0
 11
226.8925115782883
 21
337.1143678175048
 31
0.0
  0
ARC
  5
DF4
330
18
100
AcDbEntity
  8
1
  6
Continuous
100
AcDbCircle
 10
225.392511578139
 20
336.3571536100593
 30
0.0
 40
1.0
100
AcDbArc
 50
270.0000000001143
 51
0.0
  0
LINE
  5
DF5
330
18
100
AcDbEntity
  8
1
  6
Continuous
100
AcDbLine
 10
230.8925115781388
 20
346.2710100386911
 30
0.0
 11
228.3925115781388
 21
346.2710100386911
 31
0.0
  0
LINE
  5
DF6
330
18
100
AcDbEntity
  8
1
  6
Continuous
100
AcDbLine
 10
230.8925115781388
 20
347.4432971813752
 30
0.0
 11
228.3925115781388
 21
347.4432971813752
 31
0.0
  0
LINE
  5
DF7
330
18
100
AcDbEntity
  8
1
  6
Continuous
100
AcDbLine
 10
230.8925115781388
 20
341.8571536100534
 30
0.0
 11
228.3925115781388
 21
341.8571536100534
 31
0.0
  0
LINE
  5
DF8
330
18
100
AcDbEntity
  8
1
  6
Continuous
100
AcDbLine
 10
226.8925115782883
 20
339.8571536100857
 30
0.0
 11
226.7925115781221
 21
339.8571536100855
 31
0.0
  0
LINE
  5
DF9
330
18
100
AcDbEntity
  8
1
  6
Continuous
100
AcDbLine
 10
228.8925115781388
 20
339.6691427586703
 30
0.0
 11
226.8925115782883
 21
339.6691427586703
 31
0.0
  0
LINE
  5
DFA
330
18
100
AcDbEntity
  8
1
  6
Continuous
100
AcDbLine
 10
228.3925115781388
 20
340.6795782616599
 30
0.0
 11
226.392511578139
 21
340.6795782616599
 31
0.0
  0
ARC
  5
DFB
330
18
100
AcDbEntity
  8
1
  6
Continuous
100
AcDbCircle
 10
225.392511578139
 20
357.3571536102051
 30
0.0
 40
1.0
100
AcDbArc
 50
0.0
 51
90.00000000002458
  0
LINE
  5
DFC
330
18
100
AcDbEntity
  8
1
  6
Continuous
100
AcDbLine
 10
230.8925115781388
 20
351.8571536100625
 30
0.0
 11
228.3925115781388
 21
351.8571536100625
 31
0.0
  0
LINE
  5
DFD
330
18
100
AcDbEntity
  8
1
  6
Continuous
100
AcDbLine
 10
226.8925115782883
 20
353.8571536100857
 30
0.0
 11
226.7925115781221
 21
353.8571536100855
 31
0.0
  0
LINE
  5
DFE
330
18
100
AcDbEntity
  8
1
  6
Continuous
100
AcDbLine
 10
226.7925115781153
 20
356.6571536100858
 30
0.0
 11
226.7925115781241
 21
353.0347289585112
 31
0.0
  0
ARC
  5
DFF
330
18
100
AcDbEntity
  8
1
  6
Continuous
100
AcDbCircle
 10
226.5925115781153
 20
356.6571536100854
 30
0.0
 40
0.2
100
AcDbArc
 50
0.0000000001380921
 51
90.00000000007293
  0
LINE
  5
E00
330
18
100
AcDbEntity
  8
1
  6
Continuous
100
AcDbLine
 10
226.5925115781151
 20
356.8571536100853
 30
0.0
 11
226.3925115781149
 21
356.8571536100852
 31
0.0
  0
LINE
  5
E01
330
18
100
AcDbEntity
  8
1
  6
Continuous
100
AcDbLine
 10
226.8925115782883
 20
358.1071536100843
 30
0.0
 11
226.8925115782883
 21
353.0347289585088
 31
0.0
  0
LINE
  5
E02
330
18
100
AcDbEntity
  8
1
  6
Continuous
100
AcDbLine
 10
228.8925115781388
 20
358.1071536100843
 30
0.0
 11
226.8925115782883
 21
358.1071536100843
 31
0.0
  0
LINE
  5
E03
330
18
100
AcDbEntity
  8
1
  6
Continuous
100
AcDbLine
 10
228.8925115781388
 20
358.1071536100843
 30
0.0
 11
228.8925115781388
 21
351.8571536100625
 31
0.0
  0
LINE
  5
E04
330
18
100
AcDbEntity
  8
1
  6
Continuous
100
AcDbLine
 10
226.392511578139
 20
353.0347289585088
 30
0.0
 11
226.392511578139
 21
357.3571536102051
 31
0.0
  0
LINE
  5
E05
330
18
100
AcDbEntity
  8
1
  6
Continuous
100
AcDbLine
 10
228.3925115781388
 20
353.0347289585088
 30
0.0
 11
226.392511578139
 21
353.0347289585088
 31
0.0
  0
LINE
  5
E0A
330
18
100
AcDbEntity
  8
1
  6
Continuous
100
AcDbLine
 10
251.4999569626884
 20
346.8571536100959
 30
0.0
 11
252.4999569626884
 21
347.8571536100958
 31
0.0
  0
LINE
  5
E0B
330
18
100
AcDbEntity
  8
1
  6
Continuous
100
AcDbLine
 10
246.4999569626891
 20
339.8571536100951
 30
0.0
 11
246.4999569626879
 21
353.8571536100965
 31
0.0
  0
LINE
  5
E0C
330
18
100
AcDbEntity
  8
1
  6
Continuous
100
AcDbLine
 10
251.499956962689
 20
340.3571536100948
 30
0.0
 11
251.4999569626879
 21
353.3571536100968
 31
0.0
  0
LINE
  5
E0D
330
18
100
AcDbEntity
  8
1
  6
Continuous
100
AcDbLine
 10
252.4999569626884
 20
350.6571536100959
 30
0.0
 11
252.4999569626884
 21
343.0571536100958
 31
0.0
  0
ARC
  5
E0E
330
18
100
AcDbEntity
  8
1
  6
Continuous
100
AcDbCircle
 10
246.0999569626884
 20
346.8571536100959
 30
0.0
 40
9.0
100
AcDbArc
 50
344.1191499917205
 51
15.88085000827938
  0
LINE
  5
E0F
330
18
100
AcDbEntity
  8
4
  6
CENTER
100
AcDbLine
 10
257.4999569626884
 20
346.8571536100959
 30
0.0
 11
243.9530032045344
 21
346.8571536100959
 31
0.0
  0
LINE
  5
E10
330
18
100
AcDbEntity
  8
1
  6
Continuous
100
AcDbLine
 10
246.4999569626879
 20
339.8571536100951
 30
0.0
 11
250.9999569626879
 21
339.8571536100949
 31
0.0
  0
ARC
  5
E11
330
18
100
AcDbEntity
  8
1
  6
Continuous
100
AcDbCircle
 10
250.9999569626877
 20
340.3571536100948
 30
0.0
 40
0.5
100
AcDbArc
 50
269.999999999995
 51
359.9999999999951
  0
ARC
  5
E12
330
18
100
AcDbEntity
  8
1
  6
Continuous
100
AcDbCircle
 10
253.5060696869111
 20
344.7501428565097
 30
0.0
 40
1.3
100
AcDbArc
 50
274.9999999999997
 51
344.1191499917205
  0
LINE
  5
E13
330
18
100
AcDbEntity
  8
1
  6
Continuous
100
AcDbLine
 10
252.4999569626884
 20
343.0571536100958
 30
0.0
 11
251.4999569626884
 21
343.0571536100958
 31
0.0
  0
LINE
  5
E14
330
18
100
AcDbEntity
  8
1
  6
Continuous
100
AcDbLine
 10
252.4999569626884
 20
343.3571536100958
 30
0.0
 11
253.6193721525228
 21
343.455089748985
 31
0.0
  0
LINE
  5
E15
330
18
100
AcDbEntity
  8
1
  6
Continuous
100
AcDbLine
 10
251.4999569626884
 20
345.8571536100959
 30
0.0
 11
252.4999569626884
 21
346.8571536100959
 31
0.0
  0
LINE
  5
E16
330
18
100
AcDbEntity
  8
1
  6
Continuous
100
AcDbLine
 10
246.4999569626879
 20
353.8571536100966
 30
0.0
 11
250.9999569626879
 21
353.8571536100968
 31
0.0
  0
ARC
  5
E17
330
18
100
AcDbEntity
  8
1
  6
Continuous
100
AcDbCircle
 10
253.5060696868973
 20
348.9641643636787
 30
0.0
 40
1.3
100
AcDbArc
 50
15.88085000827938
 51
85.00000000000019
  0
ARC
  5
E18
330
18
100
AcDbEntity
  8
1
  6
Continuous
100
AcDbCircle
 10
250.9999569626877
 20
353.3571536100969
 30
0.0
 40
0.5
100
AcDbArc
 50
0.0000000000048853
 51
90.00000000000486
  0
LINE
  5
E19
330
18
100
AcDbEntity
  8
1
  6
Continuous
100
AcDbLine
 10
252.4999569626884
 20
350.6571536100959
 30
0.0
 11
251.4999569626884
 21
350.6571536100959
 31
0.0
  0
LINE
  5
E1A
330
18
100
AcDbEntity
  8
1
  6
Continuous
100
AcDbLine
 10
252.4999569626884
 20
350.3571536100959
 30
0.0
 11
253.6193721524893
 21
350.2592174712095
 31
0.0
  0
LINE
  5
E1F
330
18
100
AcDbEntity
  8
1
  6
Continuous
100
AcDbLine
 10
464.2512059236868
 20
247.9059086505515
 30
0.0
 11
464.2512059236868
 21
235.9059086505514
 31
0.0
  0
ARC
  5
E20
330
18
100
AcDbEntity
  8
1
  6
Continuous
100
AcDbCircle
 10
460.8291566439953
 20
239.1276847152278
 30
0.0
 40
1.6
100
AcDbArc
 50
195.4939675005222
 51
265.0000000000002
  0
LINE
  5
E21
330
18
100
AcDbEntity
  8
1
  6
Continuous
100
AcDbLine
 10
462.1512059236867
 20
246.5059086505522
 30
0.0
 11
462.1512059236867
 21
237.3059086505522
 31
0.0
  0
LINE
  5
E22
330
18
100
AcDbEntity
  8
1
  6
Continuous
100
AcDbLine
 10
463.4512059236866
 20
247.9059086505515
 30
0.0
 11
463.4512059236866
 21
235.9059086505514
 31
0.0
  0
LINE
  5
E36
330
18
100
AcDbEntity
  8
1
  6
Continuous
100
AcDbLine
 10
493.3991704764836
 20
251.6486944431214
 30
0.0
 11
493.3991704764836
 21
230.6559086504336
 31
0.0
  0
LINE
  5
E37
330
18
100
AcDbEntity
  8
1
  6
Continuous
100
AcDbLine
 10
489.3991704764827
 20
246.9059086505549
 30
0.0
 11
489.3991704764827
 21
236.9059086505531
 31
0.0
  0
LINE
  5
E38
330
18
100
AcDbEntity
  8
4
  6
CENTER
100
AcDbLine
 10
510.0991704764829
 20
248.2699843964278
 30
0.0
 11
510.0991704764829
 21
235.5269190989156
 31
0.0
  0
LINE
  5
E39
330
18
100
AcDbEntity
  8
1
  6
Continuous
100
AcDbLine
 10
493.8991704764824
 20
252.6057830216307
 30
0.0
 11
493.8991704764824
 21
230.4059086505527
 31
0.0
  0
LINE
  5
E3A
330
18
100
AcDbEntity
  8
1
  6
Continuous
100
AcDbLine
 10
493.4991704764824
 20
250.3661626883805
 30
0.0
 11
493.4991704764824
 21
232.1559086505518
 31
0.0
  0
LINE
  5
E3B
330
18
100
AcDbEntity
  8
1
  6
Continuous
100
AcDbLine
 10
491.3991704764827
 20
251.6486944431155
 30
0.0
 11
491.3991704764827
 21
230.6559086504406
 31
0.0
  0
LINE
  5
E3D
330
18
100
AcDbEntity
  8
1
  6
Continuous
100
AcDbLine
 10
500.3833814925223
 20
240.9059086505594
 30
0.0
 11
500.3833814925223
 21
231.8834295004302
 31
0.0
  0
LINE
  5
E3E
330
18
100
AcDbEntity
  8
5
  6
PHANTOM
100
AcDbLine
 10
515.0991704764818
 20
241.9059086505487
 30
0.0
 11
515.0991704764873
 21
237.1485493376588
 31
0.0
  0
LINE
  5
E3F
330
18
100
AcDbEntity
  8
1
  6
Continuous
100
AcDbLine
 10
504.8991704764828
 20
253.4059086505503
 30
0.0
 11
504.8991704764828
 21
139.4919935803919
 31
0.0
  0
LINE
  5
E40
330
18
100
AcDbEntity
  8
1
  6
Continuous
100
AcDbLine
 10
516.8991704764827
 20
241.4878727659907
 30
0.0
 11
516.8991704764827
 21
121.4059086505512
 31
0.0
  0
LINE
  5
E41
330
18
100
AcDbEntity
  8
5
  6
PHANTOM
100
AcDbLine
 10
515.2030925973015
 20
246.418638753867
 30
0.0
 11
600.1138637215282
 21
161.5078676296399
 31
0.0
  0
LINE
  5
E42
330
18
100
AcDbEntity
  8
1
  6
Continuous
100
AcDbLine
 10
513.8991704764828
 20
260.1341507860812
 30
0.0
 11
513.8991704764828
 21
132.6776665150408
 31
0.0
  0
LINE
  5
E43
330
18
100
AcDbEntity
  8
1
  6
Continuous
100
AcDbLine
 10
506.8991704764824
 20
267.4059086505528
 30
0.0
 11
506.8991704764824
 21
125.4059086505529
 31
0.0
  0
ARC
  5
E44
330
18
100
AcDbEntity
  8
1
  6
Continuous
100
AcDbCircle
 10
357.0527686139172
 20
241.9059086505391
 30
0.0
 40
9.999999999988064
100
AcDbArc
 50
119.9999999999231
 51
209.9999999999567
  0
ARC
  5
E45
330
18
100
AcDbEntity
  8
1
  6
Continuous
100
AcDbCircle
 10
357.0527686139172
 20
241.9059086505391
 30
0.0
 40
9.499999999988006
100
AcDbArc
 50
119.9999999999227
 51
209.9999999999567
  0
LINE
  5
E46
330
18
100
AcDbEntity
  8
1
  6
Continuous
100
AcDbLine
 10
351.3959143643516
 20
241.9059086505404
 30
0.0
 11
357.0527686138443
 21
236.2490544010479
 31
0.0
  0
LINE
  5
E47
330
18
100
AcDbEntity
  8
1
  6
Continuous
100
AcDbLine
 10
352.0527686139364
 20
241.3197650791459
 30
0.0
 11
356.4666250425237
 21
236.9059086505586
 31
0.0
  0
ARC
  5
E48
330
18
100
AcDbEntity
  8
1
  6
Continuous
100
AcDbCircle
 10
357.0527686139172
 20
240.9059086505583
 30
0.0
 40
11.5
100
AcDbArc
 50
180.0
 51
0.0
  0
LINE
  5
E49
330
18
100
AcDbEntity
  8
1
  6
Continuous
100
AcDbLine
 10
357.0527686138443
 20
236.2490544010479
 30
0.0
 11
362.7096228633365
 21
241.9059086505403
 31
0.0
  0
ARC
  5
E4A
330
18
100
AcDbEntity
  8
1
  6
Continuous
100
AcDbCircle
 10
357.0527686139172
 20
241.9059086505388
 30
0.0
 40
11.25
100
AcDbArc
 50
209.9999999999567
 51
60.00000000008632
  0
ARC
  5
E4B
330
18
100
AcDbEntity
  8
1
  6
Continuous
100
AcDbCircle
 10
357.0527686139172
 20
241.9059086505388
 30
0.0
 40
8.3
100
AcDbArc
 50
60.0000000000845
 51
209.9999999999567
  0
LINE
  5
E4C
330
18
100
AcDbEntity
  8
1
  6
Continuous
100
AcDbLine
 10
362.0527686138974
 20
241.3197650791457
 30
0.0
 11
357.6389121852602
 21
236.9059086505085
 31
0.0
  0
LINE
  5
E4D
330
18
100
AcDbEntity
  8
1
  6
Continuous
100
AcDbLine
 10
341.0527686138808
 20
266.4059086505206
 30
0.0
 11
341.0527686138808
 21
126.4059086505208
 31
0.0
  0
LINE
  5
E4E
330
18
100
AcDbEntity
  8
1
  6
Continuous
100
AcDbLine
 10
373.0527686138809
 20
266.4059086505368
 30
0.0
 11
373.0527686138809
 21
126.4059086505369
 31
0.0
  0
LINE
  5
E4F
330
18
100
AcDbEntity
  8
1
  6
Continuous
100
AcDbLine
 10
345.5527686139172
 20
242.9059086505584
 30
0.0
 11
345.5527686139172
 21
140.9553890771675
 31
0.0
  0
LINE
  5
E50
330
18
100
AcDbEntity
  8
1
  6
Continuous
100
AcDbLine
 10
368.5527686139172
 20
242.9059086505584
 30
0.0
 11
368.5527686139172
 21
140.9553890771773
 31
0.0
  0
LINE
  5
E51
330
18
100
AcDbEntity
  8
1
  6
Continuous
100
AcDbLine
 10
344.3527686139171
 20
251.9059086505545
 30
0.0
 11
344.3527686139171
 21
140.9553890771669
 31
0.0
  0
LINE
  5
E52
330
18
100
AcDbEntity
  8
1
  6
Continuous
100
AcDbLine
 10
369.7527686139173
 20
251.9059086505622
 30
0.0
 11
369.7527686139173
 21
140.9553890771778
 31
0.0
  0
LINE
  5
E53
330
18
100
AcDbEntity
  8
4
  6
CENTER
100
AcDbLine
 10
357.0527686139172
 20
271.1637794246994
 30
0.0
 11
357.0527686139172
 21
115.3505749386522
 31
0.0
  0
CIRCLE
  5
E5C
330
18
100
AcDbEntity
  8
1
  6
Continuous
 48
0.25
100
AcDbCircle
 10
357.0527686139172
 20
132.4059086505511
 30
0.0
 40
3.5
  0
CIRCLE
  5
E5D
330
18
100
AcDbEntity
  8
1
  6
Continuous
100
AcDbCircle
 10
357.0527686139172
 20
132.4059086505511
 30
0.0
 40
3.800000000001205
  0
LINE
  5
E5E
330
18
100
AcDbEntity
  8
1
  6
Continuous
 48
0.25
100
AcDbLine
 10
358.1930389587522
 20
132.931996095754
 30
0.0
 11
358.8039792176973
 21
133.5641495581347
 31
0.0
  0
LINE
  5
E5F
330
18
100
AcDbEntity
  8
1
  6
Continuous
 48
0.25
100
AcDbLine
 10
358.1930389587522
 20
131.8812354189107
 30
0.0
 11
358.8039792176973
 21
131.2476677429676
 31
0.0
  0
ARC
  5
E60
330
18
100
AcDbEntity
  8
1
  6
Continuous
 48
0.25
100
AcDbCircle
 10
357.0517686139171
 20
132.4059086505511
 30
0.0
 40
2.1
100
AcDbArc
 50
33.46300000000106
 51
56.53699999999894
  0
ARC
  5
E61
330
18
100
AcDbEntity
  8
1
  6
Continuous
 48
0.25
100
AcDbCircle
 10
357.0517686139171
 20
132.4059086505511
 30
0.0
 40
2.1
100
AcDbArc
 50
303.4630000000011
 51
326.5369999999989
  0
LINE
  5
E62
330
18
100
AcDbEntity
  8
1
  6
Continuous
100
AcDbLine
 10
366.0527686138745
 20
142.1000975001756
 30
0.0
 11
348.0527686138747
 21
142.1000975001659
 31
0.0
  0
ARC
  5
E63
330
18
100
AcDbEntity
  8
1
  6
Continuous
100
AcDbCircle
 10
357.0527686139172
 20
148.4059086506761
 30
0.0
 40
28.0
100
AcDbArc
 50
255.1671520791997
 51
284.8328479208203
  0
LINE
  5
E64
330
18
100
AcDbEntity
  8
1
  6
Continuous
100
AcDbLine
 10
372.0527686138816
 20
125.4059086505369
 30
0.0
 11
342.0527686138815
 21
125.4059086505208
 31
0.0
  0
LINE
  5
E65
330
18
100
AcDbEntity
  8
1
  6
Continuous
100
AcDbLine
 10
367.2527686139186
 20
138.4553890771778
 30
0.0
 11
346.8527686139186
 21
138.4553890771669
 31
0.0
  0
LINE
  5
E66
330
18
100
AcDbEntity
  8
4
  6
CENTER
100
AcDbLine
 10
348.5345104548778
 20
132.4059086505511
 30
0.0
 11
365.3704654196931
 21
132.4059086505511
 31
0.0
  0
LINE
  5
E67
330
18
100
AcDbEntity
  8
1
  6
Continuous
100
AcDbLine
 10
361.1422227868173
 20
137.4059086505511
 30
0.0
 11
352.9633144410171
 21
137.4059086505511
 31
0.0
  0
ARC
  5
E68
330
18
100
AcDbEntity
  8
1
  6
Continuous
100
AcDbCircle
 10
357.0527686139172
 20
135.4059086505511
 30
0.0
 40
9.0
100
AcDbArc
 50
247.3801350519594
 51
292.6198649480405
  0
LINE
  5
E69
330
18
100
AcDbEntity
  8
1
  6
Continuous
 48
0.25
100
AcDbLine
 10
355.9112053758632
 20
131.8805283121296
 30
0.0
 11
355.300265116918
 21
131.2483748497487
 31
0.0
  0
ARC
  5
E6A
330
18
100
AcDbEntity
  8
1
  6
Continuous
100
AcDbCircle
 10
355.8027686139172
 20
132.4059086505511
 30
0.0
 40
5.750000000000002
100
AcDbArc
 50
119.5918457939504
 51
247.3801350519594
  0
ARC
  5
E6B
330
18
100
AcDbEntity
  8
1
  6
Continuous
100
AcDbCircle
 10
342.0527686138809
 20
126.4059086505208
 30
0.0
 40
1.0
100
AcDbArc
 50
180.0
 51
270.0
  0
ARC
  5
E6C
330
18
100
AcDbEntity
  8
1
  6
Continuous
100
AcDbCircle
 10
350.6527686139215
 20
124.238989111768
 30
0.0
 40
3.0
100
AcDbArc
 50
180.0
 51
255.1671520791997
  0
LINE
  5
E6D
330
18
100
AcDbEntity
  8
1
  6
Continuous
100
AcDbLine
 10
347.6527686139216
 20
125.4059086505237
 30
0.0
 11
347.6527686139216
 21
124.238989111768
 31
0.0
  0
LINE
  5
E6E
330
18
100
AcDbEntity
  8
1
  6
Continuous
 48
0.25
100
AcDbLine
 10
357.0524757206984
 20
131.4562642434177
 30
0.0
 11
357.5771489523388
 21
131.2653454124973
 31
0.0
  0
LINE
  5
E6F
330
18
100
AcDbEntity
  8
1
  6
Continuous
 48
0.25
100
AcDbLine
 10
357.5771489523388
 20
131.2653454124973
 30
0.0
 11
358.2107166282819
 21
130.654405153552
 31
0.0
  0
LINE
  5
E70
330
18
100
AcDbEntity
  8
1
  6
Continuous
 48
0.25
100
AcDbLine
 10
356.5263882754956
 20
131.2653454124973
 30
0.0
 11
355.8942348131147
 21
130.654405153552
 31
0.0
  0
ARC
  5
E71
330
18
100
AcDbEntity
  8
1
  6
Continuous
 48
0.25
100
AcDbCircle
 10
357.0517686139171
 20
132.4059086505511
 30
0.0
 40
2.1
100
AcDbArc
 50
213.463000000001
 51
236.5369999999989
  0
LINE
  5
E72
330
18
100
AcDbEntity
  8
1
  6
Continuous
 48
0.25
100
AcDbLine
 10
357.0524757206984
 20
131.4562642434177
 30
0.0
 11
356.5263882754956
 21
131.2653454124973
 31
0.0
  0
ARC
  5
E73
330
18
100
AcDbEntity
  8
1
  6
Continuous
100
AcDbCircle
 10
348.0527686139172
 20
140.9553890771675
 30
0.0
 40
2.5
100
AcDbArc
 50
180.0
 51
270.0
  0
ARC
  5
E74
330
18
100
AcDbEntity
  8
1
  6
Continuous
100
AcDbCircle
 10
346.8527686139172
 20
140.9553890771669
 30
0.0
 40
2.5
100
AcDbArc
 50
180.0
 51
270.0
  0
LINE
  5
E75
330
18
100
AcDbEntity
  8
1
  6
Continuous
 48
0.25
100
AcDbLine
 10
357.0517686139171
 20
133.3562601644659
 30
0.0
 11
357.5778560591199
 21
133.5471789953863
 31
0.0
  0
LINE
  5
E76
330
18
100
AcDbEntity
  8
1
  6
Continuous
 48
0.25
100
AcDbLine
 10
358.0021201278318
 20
132.4059086505511
 30
0.0
 11
358.1930389587522
 21
132.931996095754
 31
0.0
  0
LINE
  5
E77
330
18
100
AcDbEntity
  8
1
  6
Continuous
 48
0.25
100
AcDbLine
 10
358.0021201278318
 20
132.4059086505511
 30
0.0
 11
358.1930389587522
 21
131.8812354189107
 31
0.0
  0
LINE
  5
E78
330
18
100
AcDbEntity
  8
1
  6
Continuous
 48
0.25
100
AcDbLine
 10
357.5778560591199
 20
133.5471789953863
 30
0.0
 11
358.2100095215007
 21
134.1581192543314
 31
0.0
  0
LINE
  5
E79
330
18
100
AcDbEntity
  8
1
  6
Continuous
 48
0.25
100
AcDbLine
 10
356.1021242067836
 20
132.4066157573324
 30
0.0
 11
355.9112053758632
 21
132.9312889889727
 31
0.0
  0
LINE
  5
E7A
330
18
100
AcDbEntity
  8
1
  6
Continuous
 48
0.25
100
AcDbLine
 10
356.5270953822769
 20
133.5471789953862
 30
0.0
 11
355.8942348131148
 21
134.1574121475502
 31
0.0
  0
LINE
  5
E7B
330
18
100
AcDbEntity
  8
1
  6
Continuous
 48
0.25
100
AcDbLine
 10
356.1021242067836
 20
132.4066157573324
 30
0.0
 11
355.9112053758632
 21
131.8805283121296
 31
0.0
  0
LINE
  5
E7C
330
18
100
AcDbEntity
  8
1
  6
Continuous
 48
0.25
100
AcDbLine
 10
355.9112053758632
 20
132.9312889889727
 30
0.0
 11
355.300265116918
 21
133.5634424513535
 31
0.0
  0
ARC
  5
E7D
330
18
100
AcDbEntity
  8
1
  6
Continuous
 48
0.25
100
AcDbCircle
 10
357.0517686139171
 20
132.4059086505511
 30
0.0
 40
2.1
100
AcDbArc
 50
123.4630000000009
 51
146.5369999999989
  0
LINE
  5
E7E
330
18
100
AcDbEntity
  8
1
  6
Continuous
 48
0.25
100
AcDbLine
 10
357.0517686139171
 20
133.3562601644659
 30
0.0
 11
356.5270953822769
 21
133.5471789953862
 31
0.0
  0
LINE
  5
E7F
330
18
100
AcDbEntity
  8
1
  6
Continuous
100
AcDbLine
 10
349.7810629917058
 20
152.4022584285149
 30
0.0
 11
349.7810629917058
 21
150.4022584285349
 31
0.0
  0
LINE
  5
E80
330
18
100
AcDbEntity
  8
1
  6
Continuous
100
AcDbLine
 10
350.3810629916999
 20
152.4022584285149
 30
0.0
 11
349.1810629917118
 21
152.4022584285149
 31
0.0
  0
LINE
  5
E81
330
18
100
AcDbEntity
  8
1
  6
Continuous
100
AcDbLine
 10
353.9464293151149
 20
151.1522584285274
 30
0.0
 11
354.6964293151074
 21
151.1522584285274
 31
0.0
  0
LINE
  5
E82
330
18
100
AcDbEntity
  8
1
  6
Continuous
100
AcDbLine
 10
353.7214293151171
 20
150.4022584285349
 30
0.0
 11
354.3214293151112
 21
152.4022584285149
 31
0.0
  0
LINE
  5
E83
330
18
100
AcDbEntity
  8
1
  6
Continuous
100
AcDbLine
 10
354.3214293151112
 20
152.4022584285149
 30
0.0
 11
354.9214293151051
 21
150.4022584285349
 31
0.0
  0
LINE
  5
E84
330
18
100
AcDbEntity
  8
1
  6
Continuous
100
AcDbLine
 10
352.5928549032816
 20
152.4022584285149
 30
0.0
 11
352.5928549032816
 21
150.4022584285349
 31
0.0
  0
LINE
  5
E85
330
18
100
AcDbEntity
  8
1
  6
Continuous
100
AcDbLine
 10
351.442854903293
 20
152.4022584285149
 30
0.0
 11
351.442854903293
 21
150.4022584285349
 31
0.0
  0
LINE
  5
E86
330
18
100
AcDbEntity
  8
1
  6
Continuous
100
AcDbLine
 10
351.442854903293
 20
151.4022584285249
 30
0.0
 11
352.5928549032816
 21
151.4022584285249
 31
0.0
  0
LINE
  5
E87
330
18
100
AcDbEntity
  8
1
  6
Continuous
100
AcDbLine
 10
356.4574263808649
 20
151.4022584285249
 30
0.0
 11
355.5183078364088
 21
151.4022584285249
 31
0.0
  0
LINE
  5
E88
330
18
100
AcDbEntity
  8
1
  6
Continuous
100
AcDbLine
 10
357.4568410867006
 20
152.4022584285149
 30
0.0
 11
357.4568410867006
 21
151.4022584285249
 31
0.0
  0
LINE
  5
E89
330
18
100
AcDbEntity
  8
1
  6
Continuous
100
AcDbLine
 10
357.9568410866956
 20
150.4022584285349
 30
0.0
 11
357.4568410867006
 21
150.4022584285349
 31
0.0
  0
LINE
  5
E8A
330
18
100
AcDbEntity
  8
1
  6
Continuous
100
AcDbLine
 10
357.9568410866956
 20
151.4022584285249
 30
0.0
 11
357.4568410867006
 21
151.4022584285249
 31
0.0
  0
ARC
  5
E8B
330
18
100
AcDbEntity
  8
1
  6
Continuous
100
AcDbCircle
 10
357.9568410866956
 20
150.90225842853
 30
0.0
 40
0.499999999995
100
AcDbArc
 50
270.0
 51
89.99999999999998
  0
LINE
  5
E8C
330
18
100
AcDbEntity
  8
1
  6
Continuous
100
AcDbLine
 10
358.4568410866907
 20
152.4022584285149
 30
0.0
 11
357.4568410867006
 21
152.4022584285149
 31
0.0
  0
ARC
  5
E8E
330
18
100
AcDbEntity
  8
1
  6
Continuous
100
AcDbCircle
 10
358.3027686139172
 20
132.4059086505511
 30
0.0
 40
5.750000000000013
100
AcDbArc
 50
292.6198649480405
 51
60.40815420604918
  0
ARC
  5
E8F
330
18
100
AcDbEntity
  8
1
  6
Continuous
100
AcDbCircle
 10
363.4527686139216
 20
124.2389891117704
 30
0.0
 40
3.0
100
AcDbArc
 50
284.8328479208203
 51
0.0
  0
LINE
  5
E90
330
18
100
AcDbEntity
  8
1
  6
Continuous
100
AcDbLine
 10
366.4527686139217
 20
125.4059086505338
 30
0.0
 11
366.4527686139217
 21
124.2389891117704
 31
0.0
  0
ARC
  5
E91
330
18
100
AcDbEntity
  8
1
  6
Continuous
100
AcDbCircle
 10
372.052768613881
 20
126.4059086505369
 30
0.0
 40
1.0
100
AcDbArc
 50
270.0
 51
0.0
  0
ARC
  5
E92
330
18
100
AcDbEntity
  8
1
  6
Continuous
100
AcDbCircle
 10
366.0527686139172
 20
140.9553890771773
 30
0.0
 40
2.5
100
AcDbArc
 50
270.0
 51
0.0
  0
ARC
  5
E93
330
18
100
AcDbEntity
  8
1
  6
Continuous
100
AcDbCircle
 10
367.2527686139172
 20
140.9553890771778
 30
0.0
 40
2.5
100
AcDbArc
 50
270.0
 51
0.0
  0
LINE
  5
E94
330
18
100
AcDbEntity
  8
1
  6
Continuous
100
AcDbLine
 10
363.4769159611004
 20
151.4022584285249
 30
0.0
 11
362.5377974166443
 21
151.4022584285249
 31
0.0
  0
ARC
  5
E95
330
18
100
AcDbEntity
  8
1
  6
Continuous
100
AcDbCircle
 10
359.6379518799162
 20
151.9022584285199
 30
0.0
 40
0.4999999999949998
100
AcDbArc
 50
0.0
 51
180.0
  0
ARC
  5
E96
330
18
100
AcDbEntity
  8
1
  6
Continuous
100
AcDbCircle
 10
359.6379518799162
 20
150.90225842853
 30
0.0
 40
0.4999999999949998
100
AcDbArc
 50
180.0
 51
0.0
  0
LINE
  5
E97
330
18
100
AcDbEntity
  8
1
  6
Continuous
100
AcDbLine
 10
359.1379518799211
 20
151.9022584285199
 30
0.0
 11
359.1379518799211
 21
150.90225842853
 31
0.0
  0
LINE
  5
E98
330
18
100
AcDbEntity
  8
1
  6
Continuous
100
AcDbLine
 10
360.1379518799111
 20
151.9022584285199
 30
0.0
 11
360.1379518799111
 21
150.90225842853
 31
0.0
  0
LINE
  5
E99
330
18
100
AcDbEntity
  8
1
  6
Continuous
100
AcDbLine
 10
361.4892182677968
 20
152.4022584285149
 30
0.0
 11
361.0178137470107
 21
151.068925095195
 31
0.0
  0
CIRCLE
  5
E9A
330
18
100
AcDbEntity
  8
1
  6
Continuous
100
AcDbCircle
 10
361.4892182677968
 20
150.90225842853
 30
0.0
 40
0.4999999999949998
  0
LINE
  5
E9B
330
18
100
AcDbEntity
  8
1
  6
Continuous
100
AcDbLine
 10
364.2992901326606
 20
152.4022584285149
 30
0.0
 11
364.2992901326606
 21
150.4022584285349
 31
0.0
  0
LINE
  5
E9C
330
18
100
AcDbEntity
  8
1
  6
Continuous
100
AcDbLine
 10
364.2992901326606
 20
152.4022584285149
 30
0.0
 11
364.0552913654827
 21
151.8790013837059
 31
0.0
  0
LINE
  5
E9E
330
18
100
AcDbEntity
  8
1
  6
Continuous
100
AcDbLine
 10
367.5527686139172
 20
226.9534269540979
 30
0.0
 11
346.5527686139172
 21
226.9534269540979
 31
0.0
  0
ARC
  5
E9F
330
18
100
AcDbEntity
  8
1
  6
Continuous
100
AcDbCircle
 10
357.0527686139172
 20
151.6726202806364
 30
0.0
 40
5.733264282363177
100
AcDbArc
 50
54.46232220799835
 51
125.5376777920001
  0
ARC
  5
EA0
330
18
100
AcDbEntity
  8
1
  6
Continuous
100
AcDbCircle
 10
357.0527686139172
 20
159.1391970204582
 30
0.0
 40
5.733264282363177
100
AcDbArc
 50
234.4623222080521
 51
305.5376777919478
  0
LINE
  5
EA1
330
18
100
AcDbEntity
  8
1
  6
Continuous
100
AcDbLine
 10
366.0527686138617
 20
165.4059086505484
 30
0.0
 11
348.052768613862
 21
165.4059086505388
 31
0.0
  0
ARC
  5
EA2
330
18
100
AcDbEntity
  8
1
  6
Continuous
100
AcDbCircle
 10
348.0527686139172
 20
162.9059086505388
 30
0.0
 40
2.5
100
AcDbArc
 50
90.0
 51
180.0
  0
ARC
  5
EA3
330
18
100
AcDbEntity
  8
1
  6
Continuous
100
AcDbCircle
 10
357.0527686139172
 20
151.6726202806364
 30
0.0
 40
5.288825190707117
100
AcDbArc
 50
112.9439535565377
 51
116.0143659996371
  0
ARC
  5
EA4
330
18
100
AcDbEntity
  8
1
  6
Continuous
100
AcDbCircle
 10
355.0083487922993
 20
156.5021008551038
 30
0.0
 40
0.044443909165606
100
AcDbArc
 50
0.0
 51
112.9439535565377
  0
ARC
  5
EA5
330
18
100
AcDbEntity
  8
1
  6
Continuous
100
AcDbCircle
 10
355.8972269756115
 20
156.7881122949322
 30
0.0
 40
0.044443909165606
100
AcDbArc
 50
0.0
 51
102.7289438731228
  0
ARC
  5
EA6
330
18
100
AcDbEntity
  8
1
  6
Continuous
100
AcDbCircle
 10
357.0527686139172
 20
151.6726202806364
 30
0.0
 40
5.288825190707117
100
AcDbArc
 50
102.7289438731228
 51
103.2681189705554
  0
ARC
  5
EA7
330
18
100
AcDbEntity
  8
1
  6
Continuous
100
AcDbCircle
 10
357.0527686139172
 20
151.6726202806364
 30
0.0
 40
5.288825190707117
100
AcDbArc
 50
103.2681189705554
 51
105.2575232904568
  0
ARC
  5
EA8
330
18
100
AcDbEntity
  8
1
  6
Continuous
100
AcDbCircle
 10
355.719451338949
 20
156.5606421509835
 30
0.0
 40
0.2222195458280301
100
AcDbArc
 50
105.2575232904568
 51
180.0
  0
ARC
  5
EA9
330
18
100
AcDbEntity
  8
1
  6
Continuous
100
AcDbCircle
 10
357.9416467972293
 20
156.6606447729532
 30
0.0
 40
0.2222195458280301
100
AcDbArc
 50
0.0
 51
79.8958172838747
  0
ARC
  5
EAA
330
18
100
AcDbEntity
  8
1
  6
Continuous
100
AcDbCircle
 10
357.0527686139172
 20
151.6726202806364
 30
0.0
 40
5.288825190707117
100
AcDbArc
 50
79.8958172838747
 51
82.20707566457726
  0
ARC
  5
EAB
330
18
100
AcDbEntity
  8
1
  6
Continuous
100
AcDbCircle
 10
357.7638711605668
 20
156.8685675661976
 30
0.0
 40
0.044443909165606
100
AcDbArc
 50
82.20707566457726
 51
180.0
  0
ARC
  5
EAC
330
18
100
AcDbEntity
  8
1
  6
Continuous
100
AcDbCircle
 10
354.8305731556368
 20
156.2258982323893
 30
0.0
 40
0.2222195458280301
100
AcDbArc
 50
116.0143659996371
 51
180.0
  0
ARC
  5
EAD
330
18
100
AcDbEntity
  8
1
  6
Continuous
100
AcDbCircle
 10
355.0083487922993
 20
154.3097164459906
 30
0.0
 40
0.044443909165606
100
AcDbArc
 50
247.0560464434622
 51
0.0
  0
ARC
  5
EAE
330
18
100
AcDbEntity
  8
1
  6
Continuous
100
AcDbCircle
 10
357.0527686139172
 20
159.1391970204582
 30
0.0
 40
5.288825190707117
100
AcDbArc
 50
243.9856340003628
 51
247.0560464434622
  0
ARC
  5
EAF
330
18
100
AcDbEntity
  8
1
  6
Continuous
100
AcDbCircle
 10
355.719451338949
 20
154.251175150111
 30
0.0
 40
0.2222195458280301
100
AcDbArc
 50
180.0
 51
254.7424767095431
  0
ARC
  5
EB0
330
18
100
AcDbEntity
  8
1
  6
Continuous
100
AcDbCircle
 10
357.0527686139172
 20
159.1391970204582
 30
0.0
 40
5.288825190707117
100
AcDbArc
 50
254.7424767095431
 51
254.7937121239421
  0
ARC
  5
EB1
330
18
100
AcDbEntity
  8
1
  6
Continuous
100
AcDbCircle
 10
357.0527686139172
 20
159.1391970204582
 30
0.0
 40
5.288825190707117
100
AcDbArc
 50
254.7937121239421
 51
257.2710561268771
  0
ARC
  5
EB2
330
18
100
AcDbEntity
  8
1
  6
Continuous
100
AcDbCircle
 10
355.8972269756115
 20
154.0237050061623
 30
0.0
 40
0.044443909165606
100
AcDbArc
 50
257.2710561268771
 51
0.0
  0
LINE
  5
EB3
330
18
100
AcDbEntity
  8
1
  6
Continuous
100
AcDbLine
 10
355.941670884777
 20
154.0237050061623
 30
0.0
 11
355.941670884777
 21
154.8725817405563
 31
0.0
  0
LINE
  5
EB4
330
18
100
AcDbEntity
  8
1
  6
Continuous
100
AcDbLine
 10
356.8305490680892
 20
155.4059086505435
 30
0.0
 11
356.3861099764331
 21
155.4059086505435
 31
0.0
  0
ARC
  5
EB5
330
18
100
AcDbEntity
  8
1
  6
Continuous
100
AcDbCircle
 10
357.7638711605668
 20
153.9432497348969
 30
0.0
 40
0.044443909165606
100
AcDbArc
 50
180.0
 51
277.7929243354226
  0
ARC
  5
EB6
330
18
100
AcDbEntity
  8
1
  6
Continuous
100
AcDbCircle
 10
357.0527686139172
 20
159.1391970204582
 30
0.0
 40
5.288825190707117
100
AcDbArc
 50
277.7929243354226
 51
280.1041827161252
  0
ARC
  5
EB7
330
18
100
AcDbEntity
  8
1
  6
Continuous
100
AcDbCircle
 10
357.9416467972293
 20
154.1511725281413
 30
0.0
 40
0.2222195458280301
100
AcDbArc
 50
280.1041827161252
 51
0.0
  0
LINE
  5
EB8
330
18
100
AcDbEntity
  8
1
  6
Continuous
100
AcDbLine
 10
358.1638663430574
 20
154.1511725281413
 30
0.0
 11
358.1638663430574
 21
155.4059086505435
 31
0.0
  0
LINE
  5
EB9
330
18
100
AcDbEntity
  8
1
  6
Continuous
100
AcDbLine
 10
358.1638663430574
 20
155.4059086505435
 30
0.0
 11
357.9416467972293
 21
155.4059086505435
 31
0.0
  0
ARC
  5
EBA
330
18
100
AcDbEntity
  8
1
  6
Continuous
100
AcDbCircle
 10
354.3861340639808
 20
155.4059086505435
 30
0.0
 40
1.145412728988863
100
AcDbArc
 50
180.0
 51
234.4623222080521
  0
ARC
  5
EBB
330
18
100
AcDbEntity
  8
1
  6
Continuous
100
AcDbCircle
 10
354.8305731556368
 20
154.5859190687052
 30
0.0
 40
0.2222195458280301
100
AcDbArc
 50
180.0
 51
243.9856340003628
  0
ARC
  5
EBC
330
18
100
AcDbEntity
  8
1
  6
Continuous
100
AcDbCircle
 10
354.3861340639808
 20
155.4059086505435
 30
0.0
 40
1.145412728988863
100
AcDbArc
 50
125.5376777920001
 51
166.5374393917332
  0
LINE
  5
EBD
330
18
100
AcDbEntity
  8
1
  6
Continuous
100
AcDbLine
 10
354.1639145181527
 20
156.6248764679521
 30
0.0
 11
354.1639145181527
 21
154.7090509832215
 31
0.0
  0
LINE
  5
EBE
330
18
100
AcDbEntity
  8
1
  6
Continuous
100
AcDbLine
 10
354.6083536098088
 20
154.5859190687052
 30
0.0
 11
354.6083536098088
 21
156.2258982323893
 31
0.0
  0
LINE
  5
EBF
330
18
100
AcDbEntity
  8
1
  6
Continuous
100
AcDbLine
 10
355.0527927014649
 20
156.5021008551038
 30
0.0
 11
355.0527927014649
 21
154.3097164459906
 31
0.0
  0
LINE
  5
EC0
330
18
100
AcDbEntity
  8
1
  6
Continuous
100
AcDbLine
 10
355.941670884777
 20
155.9392355605309
 30
0.0
 11
355.941670884777
 21
156.7881122949322
 31
0.0
  0
LINE
  5
EC1
330
18
100
AcDbEntity
  8
1
  6
Continuous
100
AcDbLine
 10
355.497231793121
 20
156.5606421509835
 30
0.0
 11
355.497231793121
 21
154.251175150111
 31
0.0
  0
LINE
  5
EC2
330
18
100
AcDbEntity
  8
1
  6
Continuous
100
AcDbLine
 10
356.3861099764331
 20
156.9192609352769
 30
0.0
 11
356.3861099764331
 21
153.8925563658177
 31
0.0
  0
LINE
  5
EC3
330
18
100
AcDbEntity
  8
1
  6
Continuous
100
AcDbLine
 10
356.8305490680892
 20
156.9567749312224
 30
0.0
 11
356.8305490680892
 21
153.8550423698722
 31
0.0
  0
LINE
  5
EC4
330
18
100
AcDbEntity
  8
1
  6
Continuous
100
AcDbLine
 10
357.2749881597452
 20
156.9567749312224
 30
0.0
 11
357.2749881597452
 21
153.8550423698722
 31
0.0
  0
LINE
  5
EC5
330
18
100
AcDbEntity
  8
1
  6
Continuous
100
AcDbLine
 10
358.1638663430574
 20
155.9392355605309
 30
0.0
 11
358.1638663430574
 21
156.6606447729532
 31
0.0
  0
LINE
  5
EC6
330
18
100
AcDbEntity
  8
1
  6
Continuous
100
AcDbLine
 10
357.7194272514012
 20
156.8685675661976
 30
0.0
 11
357.7194272514012
 21
153.9432497348969
 31
0.0
  0
LINE
  5
EC7
330
18
100
AcDbEntity
  8
1
  6
Continuous
100
AcDbLine
 10
358.6083054347136
 20
156.866856590699
 30
0.0
 11
358.6083054347136
 21
154.0843006716686
 31
0.0
  0
ARC
  5
EC8
330
18
100
AcDbEntity
  8
1
  6
Continuous
100
AcDbCircle
 10
346.5527686139172
 20
227.9534269540979
 30
0.0
 40
1.0
100
AcDbArc
 50
180.0
 51
270.0
  0
ARC
  5
EC9
330
18
100
AcDbEntity
  8
1
  6
Continuous
100
AcDbCircle
 10
346.5527686139172
 20
232.4692159380573
 30
0.0
 40
1.0
100
AcDbArc
 50
180.0
 51
270.0
  0
LINE
  5
ECA
330
18
100
AcDbEntity
  8
1
  6
Continuous
100
AcDbLine
 10
350.4801868799385
 20
231.4692159380573
 30
0.0
 11
346.5527686139172
 21
231.4692159380573
 31
0.0
  0
LINE
  5
ECB
330
18
100
AcDbEntity
  8
1
  6
Continuous
100
AcDbLine
 10
349.864757762503
 20
237.7559086505443
 30
0.0
 11
347.3099828213376
 21
236.2809086505462
 31
0.0
  0
LINE
  5
ECC
330
18
100
AcDbEntity
  8
1
  6
Continuous
100
AcDbLine
 10
356.466625042524
 20
236.9059086505588
 30
0.0
 11
357.6389121852082
 21
236.9059086505608
 31
0.0
  0
ARC
  5
ECD
330
18
100
AcDbEntity
  8
1
  6
Continuous
100
AcDbCircle
 10
366.0527686139172
 20
162.9059086505485
 30
0.0
 40
2.5
100
AcDbArc
 50
0.0
 51
90.0
  0
ARC
  5
ECE
330
18
100
AcDbEntity
  8
1
  6
Continuous
100
AcDbCircle
 10
359.2749640721974
 20
155.6281281963717
 30
0.0
 40
0.2222195458280311
100
AcDbArc
 50
180.0
 51
0.0
  0
LINE
  5
ECF
330
18
100
AcDbEntity
  8
1
  6
Continuous
100
AcDbLine
 10
359.2749640721974
 20
155.4059086505435
 30
0.0
 11
359.2749640721974
 21
154.3398721467851
 31
0.0
  0
LINE
  5
ED0
330
18
100
AcDbEntity
  8
1
  6
Continuous
100
AcDbLine
 10
359.0527445263694
 20
156.6574757608847
 30
0.0
 11
359.0527445263694
 21
155.6281281963717
 31
0.0
  0
LINE
  5
ED1
330
18
100
AcDbEntity
  8
1
  6
Continuous
100
AcDbLine
 10
359.4971836180255
 20
155.6281281963717
 30
0.0
 11
359.4971836180255
 21
156.5775850852189
 31
0.0
  0
LINE
  5
ED2
330
18
100
AcDbEntity
  8
1
  6
Continuous
100
AcDbLine
 10
359.7234765513139
 20
154.5742226491191
 30
0.0
 11
360.2255418380841
 21
156.4479558080555
 31
0.0
  0
ARC
  5
ED3
330
18
100
AcDbEntity
  8
1
  6
Continuous
100
AcDbCircle
 10
359.7194031638536
 20
155.4059086505435
 30
0.0
 40
1.145412728988864
100
AcDbArc
 50
332.2496545546283
 51
54.46232220799835
  0
ARC
  5
ED4
330
18
100
AcDbEntity
  8
1
  6
Continuous
100
AcDbCircle
 10
359.7194031638536
 20
155.4059086505435
 30
0.0
 40
1.145412728988864
100
AcDbArc
 50
305.5376777919478
 51
315.6988392796176
  0
LINE
  5
ED5
330
18
100
AcDbEntity
  8
1
  6
Continuous
100
AcDbLine
 10
360.8648158928425
 20
155.4059086505435
 30
0.0
 11
359.9463261437528
 21
155.4059086505435
 31
0.0
  0
ARC
  5
ED6
330
18
100
AcDbEntity
  8
1
  6
Continuous
100
AcDbCircle
 10
367.5527686139172
 20
227.9534269540979
 30
0.0
 40
1.0
100
AcDbArc
 50
270.0
 51
0.0
  0
LINE
  5
ED7
330
18
100
AcDbEntity
  8
1
  6
Continuous
100
AcDbLine
 10
367.5527686139172
 20
231.4692159380573
 30
0.0
 11
363.6253503478959
 21
231.4692159380573
 31
0.0
  0
ARC
  5
ED8
330
18
100
AcDbEntity
  8
1
  6
Continuous
100
AcDbCircle
 10
367.5527686139172
 20
232.4692159380573
 30
0.0
 40
1.0
100
AcDbArc
 50
270.0
 51
0.0
  0
LINE
  5
EDD
330
18
100
AcDbEntity
  8
4
  6
CENTER
100
AcDbLine
 10
469.0779105090703
 20
132.4059086505484
 30
0.0
 11
482.9462349732606
 21
132.4059086505484
 31
0.0
  0
ARC
  5
EDE
330
18
100
AcDbEntity
  8
1
  6
Continuous
100
AcDbCircle
 10
480.4779105090703
 20
132.4059086505484
 30
0.0
 40
9.0
100
AcDbArc
 50
164.1191499917206
 51
195.8808500082794
  0
LINE
  5
EDF
330
18
100
AcDbEntity
  8
1
  6
Continuous
100
AcDbLine
 10
475.0779105090702
 20
132.4059086505484
 30
0.0
 11
474.0779105090703
 21
131.4059086505485
 31
0.0
  0
LINE
  5
EE1
330
18
100
AcDbEntity
  8
1
  6
Continuous
100
AcDbLine
 10
475.0779105090699
 20
136.9059086505514
 30
0.0
 11
475.0779105090709
 21
126.9059086505515
 31
0.0
  0
LINE
  5
EE2
330
18
100
AcDbEntity
  8
1
  6
Continuous
100
AcDbLine
 10
474.0779105090703
 20
136.2059086505484
 30
0.0
 11
474.0779105090703
 21
128.6059086505484
 31
0.0
  0
LINE
  5
EE3
330
18
100
AcDbEntity
  8
1
  6
Continuous
100
AcDbLine
 10
480.07791050907
 20
137.4059086505517
 30
0.0
 11
480.0779105090708
 21
126.4059086505517
 31
0.0
  0
LINE
  5
EE4
330
18
100
AcDbEntity
  8
1
  6
Continuous
100
AcDbLine
 10
480.0779105090708
 20
126.4059086505517
 30
0.0
 11
475.5779105090709
 21
126.4059086505515
 31
0.0
  0
LINE
  5
EE5
330
18
100
AcDbEntity
  8
1
  6
Continuous
100
AcDbLine
 10
474.0779105090703
 20
128.6059086505484
 30
0.0
 11
475.0779105090702
 21
128.6059086505484
 31
0.0
  0
ARC
  5
EE6
330
18
100
AcDbEntity
  8
1
  6
Continuous
100
AcDbCircle
 10
475.5779105090709
 20
126.9059086505515
 30
0.0
 40
0.5
100
AcDbArc
 50
180.0000000000049
 51
270.0000000000049
  0
LINE
  5
EE7
330
18
100
AcDbEntity
  8
1
  6
Continuous
100
AcDbLine
 10
474.0779105090703
 20
128.9059086505484
 30
0.0
 11
472.9584953192358
 21
129.0038447894377
 31
0.0
  0
ARC
  5
EE8
330
18
100
AcDbEntity
  8
1
  6
Continuous
100
AcDbCircle
 10
473.0717977848475
 20
130.2988978969622
 30
0.0
 40
1.3
100
AcDbArc
 50
195.8808500082794
 51
265.0000000000002
  0
LINE
  5
EE9
330
18
100
AcDbEntity
  8
1
  6
Continuous
100
AcDbLine
 10
480.07791050907
 20
137.4059086505518
 30
0.0
 11
475.5779105090701
 21
137.4059086505516
 31
0.0
  0
LINE
  5
EEA
330
18
100
AcDbEntity
  8
1
  6
Continuous
100
AcDbLine
 10
474.0779105090703
 20
136.2059086505484
 30
0.0
 11
475.0779105090702
 21
136.2059086505484
 31
0.0
  0
ARC
  5
EEB
330
18
100
AcDbEntity
  8
1
  6
Continuous
100
AcDbCircle
 10
475.5779105090701
 20
136.9059086505514
 30
0.0
 40
0.5
100
AcDbArc
 50
90.00000000000486
 51
180.0000000000049
  0
LINE
  5
EEC
330
18
100
AcDbEntity
  8
1
  6
Continuous
100
AcDbLine
 10
474.0779105090703
 20
135.9059086505484
 30
0.0
 11
472.9584953192693
 21
135.8079725116621
 31
0.0
  0
LINE
  5
EED
330
18
100
AcDbEntity
  8
1
  6
Continuous
100
AcDbLine
 10
475.0779105090702
 20
133.4059086505484
 30
0.0
 11
474.0779105090703
 21
132.4059086505484
 31
0.0
  0
ARC
  5
EEE
330
18
100
AcDbEntity
  8
1
  6
Continuous
100
AcDbCircle
 10
473.0717977848613
 20
134.5129194041311
 30
0.0
 40
1.3
100
AcDbArc
 50
94.99999999999978
 51
164.1191499917206
  0
LINE
  5
EF1
330
18
100
AcDbEntity
  8
1
  6
Continuous
100
AcDbLine
 10
462.1512059236867
 20
237.3059086505522
 30
0.0
 11
463.4512059236866
 21
237.3059086505522
 31
0.0
  0
LINE
  5
EF2
330
18
100
AcDbEntity
  8
1
  6
Continuous
100
AcDbLine
 10
462.1512059236867
 20
237.4059086505521
 30
0.0
 11
460.6897074555504
 21
237.5337731982746
 31
0.0
  0
LINE
  5
EF3
330
18
100
AcDbEntity
  8
1
  6
Continuous
100
AcDbLine
 10
463.4512059236866
 20
235.9059086505517
 30
0.0
 11
464.2512059236868
 21
235.9059086505514
 31
0.0
  0
ARC
  5
EF4
330
18
100
AcDbEntity
  8
5
  6
PHANTOM
100
AcDbCircle
 10
598.6996501591553
 20
160.0936540672669
 30
0.0
 40
1.0
100
AcDbArc
 50
225.0
 51
314.9999999999997
  0
LINE
  5
EF6
330
18
100
AcDbEntity
  8
1
  6
Continuous
100
AcDbLine
 10
501.9991704764826
 20
158.2059086505594
 30
0.0
 11
501.9991704764826
 21
147.6059086505594
 31
0.0
  0
LINE
  5
EF7
330
18
100
AcDbEntity
  8
1
  6
Continuous
100
AcDbLine
 10
498.2991704764824
 20
162.4059086505651
 30
0.0
 11
498.2991704764824
 21
143.2823428626478
 31
0.0
  0
ARC
  5
EFC
330
18
100
AcDbEntity
  8
1
  6
Continuous
100
AcDbCircle
 10
505.8991704764824
 20
139.4919935803919
 30
0.0
 40
1.0
100
AcDbArc
 50
180.0
 51
267.651613027923
  0
ARC
  5
EFD
330
18
100
AcDbEntity
  8
1
  6
Continuous
100
AcDbCircle
 10
510.0991704764822
 20
241.9059086505618
 30
0.0
 40
103.4999999999999
100
AcDbArc
 50
266.724171040202
 51
268.2282539360035
  0
LINE
  5
EFE
330
18
100
AcDbEntity
  8
4
  6
CENTER
100
AcDbLine
 10
500.8549301726924
 20
132.4059086505532
 30
0.0
 11
511.0521176261832
 21
132.4059086505528
 31
0.0
  0
LINE
  5
EFF
330
18
100
AcDbEntity
  8
1
  6
Continuous
100
AcDbLine
 10
503.3991704764826
 20
135.9059086505532
 30
0.0
 11
506.8991704764824
 21
135.9059086505528
 31
0.0
  0
LINE
  5
F00
330
18
100
AcDbEntity
  8
1
  6
Continuous
100
AcDbLine
 10
503.3991704764826
 20
128.9059086505532
 30
0.0
 11
506.8991704764824
 21
128.9059086505528
 31
0.0
  0
LINE
  5
F01
330
18
100
AcDbEntity
  8
1
  6
Continuous
100
AcDbLine
 10
503.3991704764826
 20
135.9059086505532
 30
0.0
 11
503.3991704764826
 21
128.9059086505532
 31
0.0
  0
LINE
  5
F02
330
18
100
AcDbEntity
  8
1
  6
Continuous
100
AcDbLine
 10
502.8991704764826
 20
129.4059086505532
 30
0.0
 11
502.8991704764826
 21
135.4059086505532
 31
0.0
  0
LINE
  5
F03
330
18
100
AcDbEntity
  8
1
  6
Continuous
100
AcDbLine
 10
502.8991704764827
 20
129.4059086505532
 30
0.0
 11
503.3991704764826
 21
128.9059086505532
 31
0.0
  0
ARC
  5
F04
330
18
100
AcDbEntity
  8
1
  6
Continuous
100
AcDbCircle
 10
501.2991704764823
 20
143.2823428626478
 30
0.0
 40
3.0
100
AcDbArc
 50
180.0
 51
214.7719440319497
  0
ARC
  5
F05
330
18
100
AcDbEntity
  8
1
  6
Continuous
100
AcDbCircle
 10
504.5848847621966
 20
145.563588494458
 30
0.0
 40
7.0
100
AcDbArc
 50
228.9176668595492
 51
266.724171040202
  0
ARC
  5
F06
330
18
100
AcDbEntity
  8
1
  6
Continuous
100
AcDbCircle
 10
504.5848847621966
 20
145.563588494458
 30
0.0
 40
7.0
100
AcDbArc
 50
214.7719440319492
 51
228.9176668595492
  0
LINE
  5
F07
330
18
100
AcDbEntity
  8
1
  6
Continuous
100
AcDbLine
 10
503.3991704764826
 20
135.9059086505532
 30
0.0
 11
502.8991704764827
 21
135.4059086505533
 31
0.0
  0
LINE
  5
F08
330
18
100
AcDbEntity
  8
1
  6
Continuous
100
AcDbLine
 10
504.8991704764826
 20
147.6059086505594
 30
0.0
 11
501.9991704764826
 21
147.6059086505594
 31
0.0
  0
ARC
  5
F09
330
18
100
AcDbEntity
  8
1
  6
Continuous
100
AcDbCircle
 10
503.8991704764828
 20
131.5799824137842
 30
0.0
 40
10.0
100
AcDbArc
 50
0.000000000000007
 51
4.792940316870503
  0
ARC
  5
F0A
330
18
100
AcDbEntity
  8
1
  6
Continuous
100
AcDbCircle
 10
486.2315934135357
 20
148.4840049142966
 30
0.0
 40
32.0
100
AcDbArc
 50
314.5860766758552
 51
329.3440375942917
  0
ARC
  5
F0B
330
18
100
AcDbEntity
  8
1
  6
Continuous
100
AcDbCircle
 10
515.8991704764828
 20
121.4059086505512
 30
0.0
 40
1.0
100
AcDbArc
 50
270.0
 51
0.000000000000007
  0
ARC
  5
F0C
330
18
100
AcDbEntity
  8
1
  6
Continuous
100
AcDbCircle
 10
514.8991704764828
 20
121.4059086505512
 30
0.0
 40
1.0
100
AcDbArc
 50
180.0
 51
270.0
  0
LINE
  5
F0D
330
18
100
AcDbEntity
  8
1
  6
Continuous
100
AcDbLine
 10
515.8991704764828
 20
120.4059086505512
 30
0.0
 11
514.8991704764828
 21
120.4059086505512
 31
0.0
  0
ARC
  5
F0E
330
18
100
AcDbEntity
  8
1
  6
Continuous
100
AcDbCircle
 10
507.9929735482873
 20
126.4059086505595
 30
0.0
 40
1.0
100
AcDbArc
 50
270.0
 51
314.5860766758552
  0
LINE
  5
F0F
330
18
100
AcDbEntity
  8
1
  6
Continuous
100
AcDbLine
 10
506.8991704764824
 20
125.4059086505529
 30
0.0
 11
507.9929735482873
 21
125.4059086505529
 31
0.0
  0
LINE
  5
F10
330
18
100
AcDbEntity
  8
1
  6
Continuous
100
AcDbLine
 10
513.8991704764828
 20
121.4059086505512
 30
0.0
 11
513.8991704764828
 21
131.5799824137842
 31
0.0
  0
ARC
  5
F11
330
18
100
AcDbEntity
  8
1
  6
Continuous
100
AcDbCircle
 10
512.8991704764827
 20
132.6776665150408
 30
0.0
 40
1.0
100
AcDbArc
 50
329.3440375942917
 51
0.000000000000007
  0
LINE
  5
F12
330
18
100
AcDbEntity
  8
5
  6
PHANTOM
100
AcDbLine
 10
516.2707433517409
 20
234.3201222129173
 30
0.0
 11
561.3644121125076
 21
189.2264534521508
 31
0.0
  0
LINE
  5
F13
330
18
100
AcDbEntity
  8
5
  6
PHANTOM
100
AcDbLine
 10
516.6707433517415
 20
232.5059086505437
 30
0.0
 11
560.6590733745738
 21
188.5175786277114
 31
0.0
  0
ARC
  5
F15
330
18
100
AcDbEntity
  8
1
  6
Continuous
100
AcDbCircle
 10
501.8991704764824
 20
168.4059086505651
 30
0.0
 40
2.999999999999971
100
AcDbArc
 50
270.0
 51
0.000000000000007
  0
ARC
  5
F16
330
18
100
AcDbEntity
  8
1
  6
Continuous
100
AcDbCircle
 10
501.2991704764823
 20
162.4059086505651
 30
0.0
 40
3.0
100
AcDbArc
 50
90.0
 51
180.0
  0
LINE
  5
F17
330
18
100
AcDbEntity
  8
1
  6
Continuous
100
AcDbLine
 10
504.8991704764826
 20
158.2059086505594
 30
0.0
 11
501.9991704764826
 21
158.2059086505594
 31
0.0
  0
LINE
  5
F18
330
18
100
AcDbEntity
  8
1
  6
Continuous
100
AcDbLine
 10
501.2991704764823
 20
165.405908650565
 30
0.0
 11
501.8991704764824
 21
165.405908650565
 31
0.0
  0
LINE
  5
F19
330
18
100
AcDbEntity
  8
1
  6
Continuous
100
AcDbLine
 10
489.3991704764854
 20
236.9059086505531
 30
0.0
 11
491.3991704764827
 21
236.9059086505541
 31
0.0
  0
LINE
  5
F1A
330
18
100
AcDbEntity
  8
1
  6
Continuous
100
AcDbLine
 10
500.6762747113358
 20
231.1763227192437
 30
0.0
 11
504.8991704764814
 21
226.9534269540979
 31
0.0
  0
LINE
  5
F1B
330
18
100
AcDbEntity
  8
1
  6
Continuous
100
AcDbLine
 10
500.6762747113358
 20
231.1763227192437
 30
0.0
 11
504.8991704764817
 21
226.9534269540979
 31
0.0
  0
LINE
  5
F1C
330
18
100
AcDbEntity
  8
1
  6
Continuous
100
AcDbLine
 10
502.4466887800283
 20
229.4059086505512
 30
0.0
 11
494.8991704764822
 21
229.4059086505527
 31
0.0
  0
LINE
  5
F1D
330
18
100
AcDbEntity
  8
1
  6
Continuous
100
AcDbLine
 10
493.4991704764827
 20
234.9059086505523
 30
0.0
 11
493.399170476484
 21
234.9059086505525
 31
0.0
  0
ARC
  5
F1E
330
18
100
AcDbEntity
  8
1
  6
Continuous
100
AcDbCircle
 10
493.7554204764826
 20
232.1559086505518
 30
0.0
 40
0.2562500000000227
100
AcDbArc
 50
180.0
 51
257.3196165081736
  0
ARC
  5
F1F
330
18
100
AcDbEntity
  8
1
  6
Continuous
100
AcDbCircle
 10
494.8991704764826
 20
230.4059086505527
 30
0.0
 40
1.0
100
AcDbArc
 50
180.0
 51
270.0
  0
LINE
  5
F20
330
18
100
AcDbEntity
  8
1
  6
Continuous
100
AcDbLine
 10
493.8991704764824
 20
231.9059086505518
 30
0.0
 11
493.6991704764825
 21
231.9059086505518
 31
0.0
  0
LINE
  5
F21
330
18
100
AcDbEntity
  8
1
  6
Continuous
100
AcDbLine
 10
491.3991704764826
 20
230.6559086504406
 30
0.0
 11
493.3991704763331
 21
230.6559086504336
 31
0.0
  0
ARC
  5
F22
330
18
100
AcDbEntity
  8
1
  6
Continuous
100
AcDbCircle
 10
501.3833814925223
 20
231.8834295004302
 30
0.0
 40
1.0
100
AcDbArc
 50
180.0
 51
225.0
  0
ARC
  5
F23
330
18
100
AcDbEntity
  8
5
  6
PHANTOM
100
AcDbCircle
 10
519.0991704764873
 20
237.1485493376635
 30
0.0
 40
4.0
100
AcDbArc
 50
180.0000000000667
 51
225.0
  0
LINE
  5
F24
330
18
100
AcDbEntity
  8
5
  6
PHANTOM
100
AcDbLine
 10
514.5991704764829
 20
232.5059086505453
 30
0.0
 11
518.0849569141156
 21
232.5059086505427
 31
0.0
  0
LINE
  5
F25
330
18
100
AcDbEntity
  8
5
  6
PHANTOM
100
AcDbLine
 10
513.8991704764828
 20
233.6804907280388
 30
0.0
 11
514.5991704764179
 21
233.6804907280389
 31
0.0
  0
LINE
  5
F26
330
18
100
AcDbEntity
  8
5
  6
PHANTOM
100
AcDbLine
 10
514.5991704764829
 20
233.6804907280391
 30
0.0
 11
514.5991704764829
 21
232.5059086505453
 31
0.0
  0
LINE
  5
F27
330
18
100
AcDbEntity
  8
5
  6
PHANTOM
100
AcDbLine
 10
560.798726687558
 20
177.3470595282168
 30
0.0
 11
571.2819678178582
 21
166.8638183979168
 31
0.0
  0
ARC
  5
F28
330
18
100
AcDbEntity
  8
5
  6
PHANTOM
100
AcDbCircle
 10
557.1217714253881
 20
184.9838127650316
 30
0.0
 40
6.0
100
AcDbArc
 50
314.9999999999997
 51
45.00000000000028
  0
ARC
  5
F29
330
18
100
AcDbEntity
  8
5
  6
PHANTOM
100
AcDbCircle
 10
556.4164326874545
 20
184.2749379405921
 30
0.0
 40
6.0
100
AcDbArc
 50
316.4325437375671
 51
45.00000000000028
  0
LINE
  5
F2A
330
18
100
AcDbEntity
  8
5
  6
PHANTOM
100
AcDbLine
 10
560.798726687558
 20
180.1754866529631
 30
0.0
 11
561.3644121125076
 21
180.7411720779124
 31
0.0
  0
ARC
  5
F2B
330
18
100
AcDbEntity
  8
5
  6
PHANTOM
100
AcDbCircle
 10
562.2129402499314
 20
178.76127309059
 30
0.0
 40
2.0
100
AcDbArc
 50
136.4325437375668
 51
225.0
  0
ARC
  5
F2C
330
18
100
AcDbEntity
  8
5
  6
PHANTOM
100
AcDbCircle
 10
583.7273190158291
 20
159.509636024489
 30
0.0
 40
10.0
100
AcDbArc
 50
45.00000000000028
 51
131.7835250024892
  0
ARC
  5
F2D
330
18
100
AcDbEntity
  8
5
  6
PHANTOM
100
AcDbCircle
 10
574.1103949426046
 20
169.692245522663
 30
0.0
 40
4.0
100
AcDbArc
 50
225.0
 51
306.3730734413206
  0
ARC
  5
F2E
330
18
100
AcDbEntity
  8
5
  6
PHANTOM
100
AcDbCircle
 10
510.0991704764827
 20
241.9059086505487
 30
0.0
 40
100.5
100
AcDbArc
 50
311.5542391111994
 51
311.7835250024889
  0
ARC
  5
F2F
330
18
100
AcDbEntity
  8
5
  6
PHANTOM
100
AcDbCircle
 10
574.1103949426046
 20
169.692245522663
 30
0.0
 40
4.0
100
AcDbArc
 50
306.3730734413206
 51
311.5542391111994
  0
LINE
  5
F30
330
18
100
AcDbEntity
  8
5
  6
PHANTOM
100
AcDbLine
 10
597.9925433779688
 20
159.3865472860804
 30
0.0
 11
590.7983868276946
 21
166.5807038363545
 31
0.0
  0
LINE
  5
F31
330
18
100
AcDbEntity
  8
5
  6
PHANTOM
100
AcDbLine
 10
600.1138637215284
 20
160.0936540672669
 30
0.0
 11
599.4067569403417
 21
159.3865472860804
 31
0.0
  0
ARC
  5
F32
330
18
100
AcDbEntity
  8
5
  6
PHANTOM
100
AcDbCircle
 10
599.4067569403417
 20
160.8007608484536
 30
0.0
 40
1.0
100
AcDbArc
 50
314.9999999999997
 51
45.00000000000028
  0
CIRCLE
  5
F41
330
18
100
AcDbEntity
  8
1
  6
Continuous
100
AcDbCircle
 10
357.0527686139172
 20
260.4059086505511
 30
0.0
 40
3.800000000001205
  0
LINE
  5
F42
330
18
100
AcDbEntity
  8
1
  6
Continuous
 48
0.25
100
AcDbLine
 10
358.1930389587522
 20
260.931996095754
 30
0.0
 11
358.8039792176973
 21
261.5641495581347
 31
0.0
  0
LINE
  5
F43
330
18
100
AcDbEntity
  8
1
  6
Continuous
 48
0.25
100
AcDbLine
 10
358.1930389587522
 20
259.8812354189107
 30
0.0
 11
358.8039792176973
 21
259.2476677429676
 31
0.0
  0
ARC
  5
F44
330
18
100
AcDbEntity
  8
1
  6
Continuous
 48
0.25
100
AcDbCircle
 10
357.0517686139171
 20
260.4059086505511
 30
0.0
 40
2.1
100
AcDbArc
 50
33.46300000000106
 51
56.53699999999894
  0
ARC
  5
F45
330
18
100
AcDbEntity
  8
1
  6
Continuous
 48
0.25
100
AcDbCircle
 10
357.0517686139171
 20
260.4059086505511
 30
0.0
 40
2.1
100
AcDbArc
 50
303.4630000000011
 51
326.5369999999989
  0
CIRCLE
  5
F46
330
18
100
AcDbEntity
  8
1
  6
Continuous
 48
0.25
100
AcDbCircle
 10
357.0527686139172
 20
260.4059086505511
 30
0.0
 40
3.5
  0
CIRCLE
  5
F47
330
18
100
AcDbEntity
  8
1
  6
Continuous
100
AcDbCircle
 10
357.0527686139172
 20
287.933341395648
 30
0.0
 40
6.000000000000683
  0
CIRCLE
  5
F48
330
18
100
AcDbEntity
  8
1
  6
Continuous
100
AcDbCircle
 10
357.0527686139172
 20
287.933341395648
 30
0.0
 40
4.599999999999909
  0
LINE
  5
F49
330
18
100
AcDbEntity
  8
4
  6
CENTER
100
AcDbLine
 10
349.0527686139165
 20
287.933341395648
 30
0.0
 11
365.0527686139179
 21
287.933341395648
 31
0.0
  0
CIRCLE
  5
F4A
330
18
100
AcDbEntity
  8
1
  6
Continuous
 48
0.25
100
AcDbCircle
 10
357.0527686139172
 20
287.933341395648
 30
0.0
 40
4.5
  0
ARC
  5
F4B
330
18
100
AcDbEntity
  8
1
  6
Continuous
 48
0.25
100
AcDbCircle
 10
357.0527686139172
 20
287.9333413956481
 30
0.0
 40
2.45
100
AcDbArc
 50
35.12899999999993
 51
54.87100000000009
  0
ARC
  5
F4C
330
18
100
AcDbEntity
  8
1
  6
Continuous
 48
0.25
100
AcDbCircle
 10
357.0527686139172
 20
287.9333413956481
 30
0.0
 40
2.45
100
AcDbArc
 50
305.1291099999997
 51
324.871
  0
LINE
  5
F4D
330
18
100
AcDbEntity
  8
1
  6
Continuous
 48
0.25
100
AcDbLine
 10
358.3022262962738
 20
288.5619593241229
 30
0.0
 11
359.0567092317999
 21
289.3433123173342
 31
0.0
  0
LINE
  5
F4E
330
18
100
AcDbEntity
  8
1
  6
Continuous
 48
0.25
100
AcDbLine
 10
358.3022262962739
 20
287.304723467173
 30
0.0
 11
359.0567092317999
 21
286.5233704739619
 31
0.0
  0
ARC
  5
F4F
330
18
100
AcDbEntity
  8
1
  6
Continuous
100
AcDbCircle
 10
357.0527686139172
 20
257.4059086505511
 30
0.0
 40
9.0
100
AcDbArc
 50
67.38013505195941
 51
112.6198649480405
  0
LINE
  5
F50
330
18
100
AcDbEntity
  8
1
  6
Continuous
100
AcDbLine
 10
361.1422227868173
 20
255.4059086505511
 30
0.0
 11
352.9633144410171
 21
255.4059086505511
 31
0.0
  0
CIRCLE
  5
F51
330
18
100
AcDbEntity
  8
1
  6
Continuous
100
AcDbCircle
 10
357.0527686139172
 20
241.9059086505391
 30
0.0
 40
2.066999999999999
  0
CIRCLE
  5
F52
330
18
100
AcDbEntity
  8
2
  6
Continuous
100
AcDbCircle
 10
357.0527686139172
 20
241.9059086505391
 30
0.0
 40
2.5
  0
LINE
  5
F53
330
18
100
AcDbEntity
  8
1
  6
Continuous
100
AcDbLine
 10
372.0527686138805
 20
267.4059086505368
 30
0.0
 11
342.0527686138805
 21
267.4059086505207
 31
0.0
  0
LINE
  5
F54
330
18
100
AcDbEntity
  8
4
  6
CENTER
100
AcDbLine
 10
371.7474656714383
 20
241.9059086505391
 30
0.0
 11
342.3931763814957
 21
241.9059086505391
 31
0.0
  0
ARC
  5
F55
330
18
100
AcDbEntity
  8
1
  6
Continuous
100
AcDbCircle
 10
357.0527686139172
 20
242.9059086505584
 30
0.0
 40
11.5
100
AcDbArc
 50
0.0
 51
180.0
  0
LINE
  5
F56
330
18
100
AcDbEntity
  8
1
  6
Continuous
100
AcDbLine
 10
367.2527686139161
 20
254.4059086505622
 30
0.0
 11
346.8527686139162
 21
254.4059086505545
 31
0.0
  0
ARC
  5
F57
330
18
100
AcDbEntity
  8
1
  6
Continuous
100
AcDbCircle
 10
357.0527686139172
 20
241.9059086505391
 30
0.0
 40
8.600000000101516
100
AcDbArc
 50
61.93168433155769
 51
118.0683156684423
  0
LINE
  5
F58
330
18
100
AcDbEntity
  8
4
  6
CENTER
100
AcDbLine
 10
347.8969115066007
 20
260.4059086505511
 30
0.0
 11
366.3347014657319
 21
260.4059086505511
 31
0.0
  0
LINE
  5
F59
330
18
100
AcDbEntity
  8
1
  6
Continuous
100
AcDbLine
 10
362.7096228633364
 20
241.9059086505403
 30
0.0
 11
357.052768613844
 21
247.5627629000328
 31
0.0
  0
LINE
  5
F5A
330
18
100
AcDbEntity
  8
1
  6
Continuous
100
AcDbLine
 10
357.6389121852602
 20
246.9059086505696
 30
0.0
 11
362.0527686139475
 21
242.4920522218823
 31
0.0
  0
LINE
  5
F5F
330
18
100
AcDbEntity
  8
1
  6
Continuous
 48
0.25
100
AcDbLine
 10
355.9112053758632
 20
259.8805283121297
 30
0.0
 11
355.300265116918
 21
259.2483748497487
 31
0.0
  0
ARC
  5
F60
330
18
100
AcDbEntity
  8
1
  6
Continuous
100
AcDbCircle
 10
355.8027686139172
 20
260.4059086505511
 30
0.0
 40
5.750000000000002
100
AcDbArc
 50
112.6198649480405
 51
240.4081542060495
  0
LINE
  5
F61
330
18
100
AcDbEntity
  8
1
  6
Continuous
100
AcDbLine
 10
356.466625042524
 20
246.9059086505196
 30
0.0
 11
357.6389121852082
 21
246.9059086505176
 31
0.0
  0
LINE
  5
F62
330
18
100
AcDbEntity
  8
1
  6
Continuous
100
AcDbLine
 10
352.0527686139364
 20
241.3197650791458
 30
0.0
 11
352.0527686139386
 21
242.49205222183
 31
0.0
  0
LINE
  5
F63
330
18
100
AcDbEntity
  8
1
  6
Continuous
100
AcDbLine
 10
357.052768613844
 20
247.5627629000328
 30
0.0
 11
351.3959143643516
 21
241.9059086505404
 31
0.0
  0
LINE
  5
F64
330
18
100
AcDbEntity
  8
1
  6
Continuous
100
AcDbLine
 10
356.4666250425237
 20
246.9059086505196
 30
0.0
 11
352.0527686138863
 21
242.4920522218819
 31
0.0
  0
LINE
  5
F65
330
18
100
AcDbEntity
  8
1
  6
Continuous
100
AcDbLine
 10
352.6052974222892
 20
249.6091547196613
 30
0.0
 11
350.8751932654928
 21
252.6057830216283
 31
0.0
  0
ARC
  5
F66
330
18
100
AcDbEntity
  8
1
  6
Continuous
100
AcDbCircle
 10
346.8527686139172
 20
251.9059086505545
 30
0.0
 40
2.5
100
AcDbArc
 50
90.0
 51
180.0
  0
LINE
  5
F67
330
18
100
AcDbEntity
  8
1
  6
Continuous
 48
0.25
100
AcDbLine
 10
357.0524757206984
 20
259.4562642434177
 30
0.0
 11
356.5263882754956
 21
259.2653454124973
 31
0.0
  0
LINE
  5
F68
330
18
100
AcDbEntity
  8
1
  6
Continuous
 48
0.25
100
AcDbLine
 10
356.5263882754956
 20
259.2653454124973
 30
0.0
 11
355.8942348131147
 21
258.6544051535521
 31
0.0
  0
LINE
  5
F69
330
18
100
AcDbEntity
  8
1
  6
Continuous
 48
0.25
100
AcDbLine
 10
357.0524757206984
 20
259.4562642434177
 30
0.0
 11
357.5771489523388
 21
259.2653454124973
 31
0.0
  0
ARC
  5
F6A
330
18
100
AcDbEntity
  8
1
  6
Continuous
 48
0.25
100
AcDbCircle
 10
357.0517686139171
 20
260.4059086505511
 30
0.0
 40
2.1
100
AcDbArc
 50
213.463000000001
 51
236.5369999999989
  0
LINE
  5
F6B
330
18
100
AcDbEntity
  8
1
  6
Continuous
 48
0.25
100
AcDbLine
 10
357.5771489523388
 20
259.2653454124973
 30
0.0
 11
358.2107166282819
 21
258.6544051535521
 31
0.0
  0
ARC
  5
F6C
330
18
100
AcDbEntity
  8
1
  6
Continuous
100
AcDbCircle
 10
352.8651050434249
 20
249.7591547196609
 30
0.0
 40
0.3
100
AcDbArc
 50
209.9999999999229
 51
298.0683156684459
  0
ARC
  5
F6D
330
18
100
AcDbEntity
  8
1
  6
Continuous
100
AcDbCircle
 10
342.0527686138809
 20
266.4059086505206
 30
0.0
 40
1.0
100
AcDbArc
 50
90.0
 51
180.0
  0
LINE
  5
F6E
330
18
100
AcDbEntity
  8
1
  6
Continuous
 48
0.25
100
AcDbLine
 10
358.0021201278318
 20
260.4059086505511
 30
0.0
 11
358.1930389587522
 21
260.931996095754
 31
0.0
  0
LINE
  5
F6F
330
18
100
AcDbEntity
  8
1
  6
Continuous
 48
0.25
100
AcDbLine
 10
358.0021201278318
 20
260.4059086505511
 30
0.0
 11
358.1930389587522
 21
259.8812354189107
 31
0.0
  0
LINE
  5
F70
330
18
100
AcDbEntity
  8
1
  6
Continuous
 48
0.25
100
AcDbLine
 10
357.0517686139171
 20
261.3562601644659
 30
0.0
 11
357.5778560591199
 21
261.5471789953863
 31
0.0
  0
LINE
  5
F71
330
18
100
AcDbEntity
  8
1
  6
Continuous
 48
0.25
100
AcDbLine
 10
356.1021242067836
 20
260.4066157573324
 30
0.0
 11
355.9112053758632
 21
260.9312889889727
 31
0.0
  0
LINE
  5
F72
330
18
100
AcDbEntity
  8
1
  6
Continuous
 48
0.25
100
AcDbLine
 10
356.5270953822769
 20
261.5471789953862
 30
0.0
 11
355.8942348131148
 21
262.1574121475502
 31
0.0
  0
LINE
  5
F73
330
18
100
AcDbEntity
  8
1
  6
Continuous
 48
0.25
100
AcDbLine
 10
357.0517686139171
 20
261.3562601644659
 30
0.0
 11
356.5270953822769
 21
261.5471789953862
 31
0.0
  0
LINE
  5
F74
330
18
100
AcDbEntity
  8
1
  6
Continuous
 48
0.25
100
AcDbLine
 10
356.1021242067836
 20
260.4066157573324
 30
0.0
 11
355.9112053758632
 21
259.8805283121297
 31
0.0
  0
LINE
  5
F75
330
18
100
AcDbEntity
  8
1
  6
Continuous
 48
0.25
100
AcDbLine
 10
355.9112053758632
 20
260.9312889889727
 30
0.0
 11
355.300265116918
 21
261.5634424513535
 31
0.0
  0
ARC
  5
F76
330
18
100
AcDbEntity
  8
1
  6
Continuous
 48
0.25
100
AcDbCircle
 10
357.0517686139171
 20
260.4059086505511
 30
0.0
 40
2.1
100
AcDbArc
 50
123.4630000000009
 51
146.5369999999989
  0
LINE
  5
F77
330
18
100
AcDbEntity
  8
1
  6
Continuous
 48
0.25
100
AcDbLine
 10
357.5778560591199
 20
261.5471789953863
 30
0.0
 11
358.2100095215007
 21
262.1581192543314
 31
0.0
  0
LINE
  5
F78
330
18
100
AcDbEntity
  8
4
  6
CENTER
100
AcDbLine
 10
357.0527686139172
 20
279.9333413956474
 30
0.0
 11
357.0527686139172
 21
295.9333413956487
 31
0.0
  0
LINE
  5
F79
330
18
100
AcDbEntity
  8
1
  6
Continuous
 48
0.25
100
AcDbLine
 10
357.6813865423921
 20
286.6838837132913
 30
0.0
 11
358.4627395356032
 21
285.9294007777654
 31
0.0
  0
LINE
  5
F7A
330
18
100
AcDbEntity
  8
1
  6
Continuous
 48
0.25
100
AcDbLine
 10
356.4241506854423
 20
286.6838837132914
 30
0.0
 11
355.6427976922311
 21
285.9294007777654
 31
0.0
  0
ARC
  5
F7B
330
18
100
AcDbEntity
  8
1
  6
Continuous
 48
0.25
100
AcDbCircle
 10
357.0527686139172
 20
287.9333413956481
 30
0.0
 40
2.45
100
AcDbArc
 50
215.1291
 51
234.8708999999987
  0
LINE
  5
F7C
330
18
100
AcDbEntity
  8
1
  6
Continuous
 48
0.25
100
AcDbLine
 10
357.681386542392
 20
289.1827990780047
 30
0.0
 11
358.4627395356032
 21
289.9372820135307
 31
0.0
  0
LINE
  5
F7D
330
18
100
AcDbEntity
  8
1
  6
Continuous
 48
0.25
100
AcDbLine
 10
357.0534757206984
 20
288.9536964809002
 30
0.0
 11
357.681386542392
 21
289.1827990780047
 31
0.0
  0
LINE
  5
F7E
330
18
100
AcDbEntity
  8
1
  6
Continuous
 48
0.25
100
AcDbLine
 10
357.0527686139172
 20
286.9122792036146
 30
0.0
 11
357.6813865423921
 21
286.6838837132913
 31
0.0
  0
LINE
  5
F7F
330
18
100
AcDbEntity
  8
1
  6
Continuous
 48
0.25
100
AcDbLine
 10
358.0738308059506
 20
287.933341395648
 30
0.0
 11
358.3022262962738
 21
288.5619593241229
 31
0.0
  0
LINE
  5
F80
330
18
100
AcDbEntity
  8
1
  6
Continuous
 48
0.25
100
AcDbLine
 10
358.0738308059506
 20
287.933341395648
 30
0.0
 11
358.3022262962739
 21
287.304723467173
 31
0.0
  0
LINE
  5
F81
330
18
100
AcDbEntity
  8
1
  6
Continuous
 48
0.25
100
AcDbLine
 10
356.4241506854423
 20
289.1827990780047
 30
0.0
 11
355.6427976922313
 21
289.9372820135307
 31
0.0
  0
LINE
  5
F82
330
18
100
AcDbEntity
  8
1
  6
Continuous
 48
0.25
100
AcDbLine
 10
355.8033109315606
 20
288.5619593241228
 30
0.0
 11
355.0488279960344
 21
289.343312317334
 31
0.0
  0
LINE
  5
F83
330
18
100
AcDbEntity
  8
1
  6
Continuous
 48
0.25
100
AcDbLine
 10
355.8033109315606
 20
287.3047234671732
 30
0.0
 11
355.0488279960344
 21
286.5233704739619
 31
0.0
  0
ARC
  5
F84
330
18
100
AcDbEntity
  8
1
  6
Continuous
 48
0.25
100
AcDbCircle
 10
357.0527686139172
 20
287.9333413956481
 30
0.0
 40
2.45
100
AcDbArc
 50
125.1289999999999
 51
144.8710000000001
  0
LINE
  5
F85
330
18
100
AcDbEntity
  8
1
  6
Continuous
 48
0.25
100
AcDbLine
 10
356.0324135286649
 20
287.9326342888668
 30
0.0
 11
355.8033109315606
 21
288.5619593241228
 31
0.0
  0
LINE
  5
F86
330
18
100
AcDbEntity
  8
1
  6
Continuous
 48
0.25
100
AcDbLine
 10
356.0324135286649
 20
287.9326342888668
 30
0.0
 11
355.8033109315606
 21
287.3047234671732
 31
0.0
  0
LINE
  5
F87
330
18
100
AcDbEntity
  8
1
  6
Continuous
 48
0.25
100
AcDbLine
 10
357.0534757206984
 20
288.9536964809002
 30
0.0
 11
356.4241506854423
 21
289.1827990780047
 31
0.0
  0
LINE
  5
F88
330
18
100
AcDbEntity
  8
1
  6
Continuous
 48
0.25
100
AcDbLine
 10
357.0527686139172
 20
286.9122792036146
 30
0.0
 11
356.4241506854423
 21
286.6838837132914
 31
0.0
  0
ARC
  5
F89
330
18
100
AcDbEntity
  8
1
  6
Continuous
100
AcDbCircle
 10
358.3027686139172
 20
260.4059086505511
 30
0.0
 40
5.750000000000013
100
AcDbArc
 50
299.5918457939508
 51
67.38013505195941
  0
LINE
  5
F8B
330
18
100
AcDbEntity
  8
1
  6
Continuous
100
AcDbLine
 10
362.0527686138974
 20
241.3197650791459
 30
0.0
 11
362.0527686138954
 21
242.49205222183
 31
0.0
  0
LINE
  5
F8C
330
18
100
AcDbEntity
  8
1
  6
Continuous
100
AcDbLine
 10
361.2027686139073
 20
249.0939195019554
 30
0.0
 11
363.2303439623417
 21
252.6057830216284
 31
0.0
  0
ARC
  5
F8D
330
18
100
AcDbEntity
  8
1
  6
Continuous
100
AcDbCircle
 10
361.2404321844095
 20
249.759154719661
 30
0.0
 40
0.3
100
AcDbArc
 50
241.9316843315558
 51
330.0000000000725
  0
ARC
  5
F8E
330
18
100
AcDbEntity
  8
1
  6
Continuous
100
AcDbCircle
 10
367.2527686139172
 20
251.9059086505622
 30
0.0
 40
2.5
100
AcDbArc
 50
0.0
 51
90.0
  0
ARC
  5
F8F
330
18
100
AcDbEntity
  8
1
  6
Continuous
100
AcDbCircle
 10
372.0527686138809
 20
266.4059086505368
 30
0.0
 40
1.0
100
AcDbArc
 50
0.0
 51
90.0
  0
LINE
  5
F94
330
18
100
AcDbEntity
  8
4
  6
CENTER
100
AcDbLine
 10
469.0779105091396
 20
260.4059086505522
 30
0.0
 11
482.6248642672936
 21
260.4059086505522
 31
0.0
  0
LINE
  5
F95
330
18
100
AcDbEntity
  8
1
  6
Continuous
100
AcDbLine
 10
463.4512059236866
 20
243.2059086505521
 30
0.0
 11
462.1512059236867
 21
241.9059086505522
 31
0.0
  0
LINE
  5
F96
330
18
100
AcDbEntity
  8
1
  6
Continuous
100
AcDbLine
 10
463.4512059236866
 20
241.9059086505522
 30
0.0
 11
462.1512059236867
 21
240.6059086505522
 31
0.0
  0
LINE
  5
F97
330
18
100
AcDbEntity
  8
1
  6
Continuous
100
AcDbLine
 10
462.1512059236867
 20
246.5059086505522
 30
0.0
 11
463.4512059236866
 21
246.5059086505522
 31
0.0
  0
LINE
  5
F98
330
18
100
AcDbEntity
  8
4
  6
CENTER
100
AcDbLine
 10
456.6463432189607
 20
241.9059086505522
 30
0.0
 11
467.3853005869982
 21
241.9059086505522
 31
0.0
  0
ARC
  5
F99
330
18
100
AcDbEntity
  8
1
  6
Continuous
100
AcDbCircle
 10
460.8291566440125
 20
244.6841325858725
 30
0.0
 40
1.6
100
AcDbArc
 50
94.99999999999978
 51
164.5060324994778
  0
LINE
  5
F9A
330
18
100
AcDbEntity
  8
1
  6
Continuous
100
AcDbLine
 10
462.1512059236869
 20
246.4059086505522
 30
0.0
 11
460.6897074555916
 21
246.2780441028334
 31
0.0
  0
ARC
  5
F9B
330
18
100
AcDbEntity
  8
1
  6
Continuous
100
AcDbCircle
 10
470.8512059236864
 20
241.9059086505522
 30
0.0
 40
12.0
100
AcDbArc
 50
164.5060324994778
 51
195.4939675005222
  0
LINE
  5
F9C
330
18
100
AcDbEntity
  8
1
  6
Continuous
100
AcDbLine
 10
463.4512059236866
 20
247.9059086505517
 30
0.0
 11
464.2512059236868
 21
247.9059086505515
 31
0.0
  0
ARC
  5
F9D
330
18
100
AcDbEntity
  8
1
  6
Continuous
100
AcDbCircle
 10
480.4779105091397
 20
260.4059086505522
 30
0.0
 40
9.0
100
AcDbArc
 50
164.1191499917206
 51
195.8808500082794
  0
LINE
  5
F9E
330
18
100
AcDbEntity
  8
1
  6
Continuous
100
AcDbLine
 10
475.0779105091397
 20
260.4059086505522
 30
0.0
 11
474.0779105091397
 21
259.4059086505523
 31
0.0
  0
LINE
  5
FA0
330
18
100
AcDbEntity
  8
1
  6
Continuous
100
AcDbLine
 10
475.0779105091394
 20
255.9059086505532
 30
0.0
 11
475.0779105091403
 21
265.9059086505532
 31
0.0
  0
LINE
  5
FA1
330
18
100
AcDbEntity
  8
1
  6
Continuous
100
AcDbLine
 10
474.0779105091397
 20
264.2059086505523
 30
0.0
 11
474.0779105091397
 21
256.6059086505522
 31
0.0
  0
LINE
  5
FA2
330
18
100
AcDbEntity
  8
1
  6
Continuous
100
AcDbLine
 10
480.0779105091394
 20
255.4059086505529
 30
0.0
 11
480.0779105091403
 21
266.4059086505529
 31
0.0
  0
LINE
  5
FA3
330
18
100
AcDbEntity
  8
1
  6
Continuous
100
AcDbLine
 10
480.0779105091394
 20
255.4059086505529
 30
0.0
 11
475.5779105091394
 21
255.4059086505532
 31
0.0
  0
LINE
  5
FA4
330
18
100
AcDbEntity
  8
1
  6
Continuous
100
AcDbLine
 10
474.0779105091397
 20
256.6059086505522
 30
0.0
 11
475.0779105091397
 21
256.6059086505522
 31
0.0
  0
ARC
  5
FA5
330
18
100
AcDbEntity
  8
1
  6
Continuous
100
AcDbCircle
 10
475.5779105091394
 20
255.9059086505532
 30
0.0
 40
0.5
100
AcDbArc
 50
179.9999999999951
 51
269.999999999995
  0
LINE
  5
FA6
330
18
100
AcDbEntity
  8
1
  6
Continuous
100
AcDbLine
 10
474.0779105091397
 20
256.9059086505522
 30
0.0
 11
472.9584953193055
 21
257.0038447894414
 31
0.0
  0
ARC
  5
FA7
330
18
100
AcDbEntity
  8
1
  6
Continuous
100
AcDbCircle
 10
473.0717977849171
 20
258.298897896966
 30
0.0
 40
1.3
100
AcDbArc
 50
195.8808500082794
 51
265.0000000000002
  0
LINE
  5
FA8
330
18
100
AcDbEntity
  8
1
  6
Continuous
100
AcDbLine
 10
480.0779105091403
 20
266.4059086505529
 30
0.0
 11
475.5779105091403
 21
266.4059086505532
 31
0.0
  0
LINE
  5
FA9
330
18
100
AcDbEntity
  8
1
  6
Continuous
100
AcDbLine
 10
474.0779105091397
 20
264.2059086505523
 30
0.0
 11
475.0779105091397
 21
264.2059086505523
 31
0.0
  0
ARC
  5
FAA
330
18
100
AcDbEntity
  8
1
  6
Continuous
100
AcDbCircle
 10
475.5779105091404
 20
265.9059086505532
 30
0.0
 40
0.5
100
AcDbArc
 50
89.99999999999515
 51
179.9999999999951
  0
LINE
  5
FAB
330
18
100
AcDbEntity
  8
1
  6
Continuous
100
AcDbLine
 10
474.0779105091397
 20
263.9059086505522
 30
0.0
 11
472.9584953193389
 21
263.8079725116658
 31
0.0
  0
LINE
  5
FAC
330
18
100
AcDbEntity
  8
1
  6
Continuous
100
AcDbLine
 10
475.0779105091397
 20
261.4059086505521
 30
0.0
 11
474.0779105091397
 21
260.4059086505522
 31
0.0
  0
ARC
  5
FAD
330
18
100
AcDbEntity
  8
1
  6
Continuous
100
AcDbCircle
 10
473.0717977849308
 20
262.5129194041351
 30
0.0
 40
1.3
100
AcDbArc
 50
94.99999999999978
 51
164.1191499917206
  0
LINE
  5
FB4
330
18
100
AcDbEntity
  8
4
  6
CENTER
100
AcDbLine
 10
499.1696818763499
 20
260.4059086505531
 30
0.0
 11
511.0521176261831
 21
260.4059086505529
 31
0.0
  0
LINE
  5
FB5
330
18
100
AcDbEntity
  8
1
  6
Continuous
100
AcDbLine
 10
503.3991704764826
 20
256.9059086505529
 30
0.0
 11
506.8991704764824
 21
256.9059086505528
 31
0.0
  0
LINE
  5
FB6
330
18
100
AcDbEntity
  8
1
  6
Continuous
100
AcDbLine
 10
503.3991704764826
 20
263.9059086505529
 30
0.0
 11
506.8991704764824
 21
263.9059086505528
 31
0.0
  0
ARC
  5
FB7
330
18
100
AcDbEntity
  8
1
  6
Continuous
100
AcDbCircle
 10
505.8991704764824
 20
253.4059086505503
 30
0.0
 40
1.0
100
AcDbArc
 50
90.0
 51
180.0
  0
LINE
  5
FB8
330
18
100
AcDbEntity
  8
1
  6
Continuous
100
AcDbLine
 10
506.8991704764824
 20
254.40590865055
 30
0.0
 11
491.8991704764826
 21
254.4059086505531
 31
0.0
  0
LINE
  5
FB9
330
18
100
AcDbEntity
  8
4
  6
CENTER
100
AcDbLine
 10
521.6359708408476
 20
241.9059086505469
 30
0.0
 11
484.6773801267501
 21
241.9059086505549
 31
0.0
  0
LINE
  5
FBA
330
18
100
AcDbEntity
  8
1
  6
Continuous
100
AcDbLine
 10
503.3991704764826
 20
263.9059086505529
 30
0.0
 11
503.3991704764826
 21
256.905908650553
 31
0.0
  0
LINE
  5
FBB
330
18
100
AcDbEntity
  8
1
  6
Continuous
100
AcDbLine
 10
502.8991704764826
 20
257.4059086505529
 30
0.0
 11
502.8991704764826
 21
263.405908650553
 31
0.0
  0
LINE
  5
FBC
330
18
100
AcDbEntity
  8
1
  6
Continuous
100
AcDbLine
 10
489.39917047648
 20
246.905908650555
 30
0.0
 11
491.3991704764827
 21
246.905908650556
 31
0.0
  0
LINE
  5
FBD
330
18
100
AcDbEntity
  8
1
  6
Continuous
100
AcDbLine
 10
489.3991704764832
 20
241.2490544011274
 30
0.0
 11
491.3991704764826
 21
241.2490544011284
 31
0.0
  0
LINE
  5
FBE
330
18
100
AcDbEntity
  8
1
  6
Continuous
100
AcDbLine
 10
489.3991704764824
 20
242.5627629000028
 30
0.0
 11
491.3991704764827
 21
242.5627629000039
 31
0.0
  0
LINE
  5
FBF
330
18
100
AcDbEntity
  8
1
  6
Continuous
100
AcDbLine
 10
493.4991704764827
 20
248.9059086505519
 30
0.0
 11
493.399170476484
 21
248.9059086505519
 31
0.0
  0
LINE
  5
FC0
330
18
100
AcDbEntity
  8
1
  6
Continuous
100
AcDbLine
 10
493.3991704764827
 20
251.6486944431214
 30
0.0
 11
491.3991704764827
 21
251.6486944431214
 31
0.0
  0
ARC
  5
FC1
330
18
100
AcDbEntity
  8
1
  6
Continuous
100
AcDbCircle
 10
493.6991704764824
 20
250.3661626883805
 30
0.0
 40
0.1999999999999886
100
AcDbArc
 50
90.0
 51
180.0
  0
LINE
  5
FC2
330
18
100
AcDbEntity
  8
1
  6
Continuous
100
AcDbLine
 10
491.8991704764827
 20
252.6057830216278
 30
0.0
 11
493.8991704764824
 21
252.6057830216307
 31
0.0
  0
LINE
  5
FC3
330
18
100
AcDbEntity
  8
1
  6
Continuous
100
AcDbLine
 10
493.6991704764824
 20
250.5661626883806
 30
0.0
 11
493.8991704764824
 21
250.5661626883806
 31
0.0
  0
ARC
  5
FC4
330
18
100
AcDbEntity
  8
1
  6
Continuous
100
AcDbCircle
 10
491.8991704764826
 20
252.805783021628
 30
0.0
 40
0.2
100
AcDbArc
 50
180.0
 51
270.0
  0
ARC
  5
FC5
330
18
100
AcDbEntity
  8
1
  6
Continuous
100
AcDbCircle
 10
491.8991704764826
 20
254.2059086505533
 30
0.0
 40
0.2
100
AcDbArc
 50
90.0
 51
180.0
  0
LINE
  5
FC6
330
18
100
AcDbEntity
  8
1
  6
Continuous
100
AcDbLine
 10
493.3991704764827
 20
249.4591547196618
 30
0.0
 11
493.4991704764827
 21
249.4591547196618
 31
0.0
  0
LINE
  5
FC7
330
18
100
AcDbEntity
  8
1
  6
Continuous
100
AcDbLine
 10
491.6991704764824
 20
254.2059086505533
 30
0.0
 11
491.6991704764824
 21
251.6486944431214
 31
0.0
  0
LINE
  5
FC8
330
18
100
AcDbEntity
  8
1
  6
Continuous
100
AcDbLine
 10
491.3991704764826
 20
251.6486944431155
 30
0.0
 11
491.6991704764828
 21
251.6486944431155
 31
0.0
  0
LINE
  5
FC9
330
18
100
AcDbEntity
  8
1
  6
Continuous
100
AcDbLine
 10
502.8991704764827
 20
257.4059086505528
 30
0.0
 11
503.3991704764827
 21
256.9059086505529
 31
0.0
  0
LINE
  5
FCA
330
18
100
AcDbEntity
  8
1
  6
Continuous
100
AcDbLine
 10
503.3991704764828
 20
263.9059086505526
 30
0.0
 11
502.8991704764828
 21
263.4059086505526
 31
0.0
  0
ARC
  5
FCB
330
18
100
AcDbEntity
  8
1
  6
Continuous
100
AcDbCircle
 10
512.8991704764827
 20
246.5232672027947
 30
0.0
 40
4.0
100
AcDbArc
 50
41.40962210927095
 51
58.76707098448759
  0
ARC
  5
FCC
330
18
100
AcDbEntity
  8
1
  6
Continuous
100
AcDbCircle
 10
486.8991704764828
 20
241.4878727659907
 30
0.0
 40
30.0
100
AcDbArc
 50
0.000000000000007
 51
14.83511158197576
  0
ARC
  5
FCD
330
18
100
AcDbEntity
  8
5
  6
PHANTOM
100
AcDbCircle
 10
493.989889161705
 20
225.2054353182705
 30
0.0
 40
30.0
100
AcDbArc
 50
45.00000000000028
 51
48.42171808809201
  0
ARC
  5
FCE
330
18
100
AcDbEntity
  8
1
  6
Continuous
100
AcDbCircle
 10
510.0991704764829
 20
241.9059086505486
 30
0.0
 40
9.4
100
AcDbArc
 50
58.76707098448759
 51
66.15552997649611
  0
ARC
  5
FCF
330
18
100
AcDbEntity
  8
1
  6
Continuous
100
AcDbCircle
 10
486.2315934135398
 20
244.3278123868187
 30
0.0
 40
32.0
100
AcDbArc
 50
30.6559624057232
 51
45.41392332415525
  0
ARC
  5
FD0
330
18
100
AcDbEntity
  8
1
  6
Continuous
100
AcDbCircle
 10
507.9929735482876
 20
266.4059086505595
 30
0.0
 40
1.0
100
AcDbArc
 50
45.41392332415525
 51
90.0
  0
LINE
  5
FD1
330
18
100
AcDbEntity
  8
1
  6
Continuous
100
AcDbLine
 10
506.8991704764824
 20
267.4059086505528
 30
0.0
 11
507.9929735482876
 21
267.4059086505528
 31
0.0
  0
ARC
  5
FD2
330
18
100
AcDbEntity
  8
1
  6
Continuous
100
AcDbCircle
 10
512.8991704764827
 20
260.1341507860812
 30
0.0
 40
1.0
100
AcDbArc
 50
0.000000000000007
 51
30.65596240572231
  0
LINE
  5
2285
330
18
100
AcDbEntity
  8
4
  6
CENTER
100
AcDbLine
 10
210.1925115782205
 20
41.55902615901196
 30
0.0
 11
210.1925115782205
 21
63.62216372553756
 31
0.0
  0
ENDSEC
  0
SECTION
  2
OBJECTS
  0
DICTIONARY
  5
C
330
0
100
AcDbDictionary
281
     1
  3
ACAD_CIP_PREVIOUS_PRODUCT_INFO
350
236D
  3
ACAD_COLOR
350
2350
  3
ACAD_DETAILVIEWSTYLE
350
2369
  3
ACAD_GROUP
350
D
  3
ACAD_LAYOUT
350
5D
  3
ACAD_MATERIAL
350
231E
  3
ACAD_MLEADERSTYLE
350
2365
  3
ACAD_MLINESTYLE
350
1B
  3
ACAD_PLOTSETTINGS
350
5E
  3
ACAD_PLOTSTYLENAME
350
231C
  3
ACAD_SCALELIST
350
2353
  3
ACAD_SECTIONVIEWSTYLE
350
2367
  3
ACAD_TABLESTYLE
350
2351
  3
ACAD_VISUALSTYLE
350
2337
  3
ACDB_RECOMPOSE_DATA
350
238B
  3
AcDbVariableDictionary
350
237E
  3
CONTENTDICTIONARY
350
3D
  3
DWGPROPS
350
238C
  0
DICTIONARY
  5
236E
330
E
100
AcDbDictionary
280
     1
281
     1
  3
ADSK_XREC_LAYER_RECONCILED
360
236F
  0
DICTIONARY
  5
2370
330
80F
100
AcDbDictionary
280
     1
281
     1
  3
ADSK_XREC_LAYER_RECONCILED
360
2371
  0
DICTIONARY
  5
2372
330
810
100
AcDbDictionary
280
     1
281
     1
  3
ADSK_XREC_LAYER_RECONCILED
360
2373
  0
DICTIONARY
  5
2374
330
811
100
AcDbDictionary
280
     1
281
     1
  3
ADSK_XREC_LAYER_RECONCILED
360
2375
  0
DICTIONARY
  5
2376
330
812
100
AcDbDictionary
280
     1
281
     1
  3
ADSK_XREC_LAYER_RECONCILED
360
2377
  0
DICTIONARY
  5
2378
330
813
100
AcDbDictionary
280
     1
281
     1
  3
ADSK_XREC_LAYER_RECONCILED
360
2379
  0
DICTIONARY
  5
237A
330
814
100
AcDbDictionary
280
     1
281
     1
  3
ADSK_XREC_LAYER_RECONCILED
360
237B
  0
DICTIONARY
  5
237C
330
815
100
AcDbDictionary
280
     1
281
     1
  3
ADSK_XREC_LAYER_RECONCILED
360
237D
  0
DICTIONARY
  5
2317
330
18
100
AcDbDictionary
281
     1
  3
ACAD_LAYOUTSELFREF
350
2318
  0
DICTIONARY
  5
2315
330
15
100
AcDbDictionary
281
     1
  3
ACAD_LAYOUTSELFREF
350
2316
  0
XRECORD
  5
236D
102
{ACAD_REACTORS
330
C
102
}
330
C
100
AcDbXrecord
280
     1
300
ACDLT
300
2014
300
ACDLT_F_S
  0
DICTIONARY
  5
2350
102
{ACAD_REACTORS
330
C
102
}
330
C
100
AcDbDictionary
281
     1
  0
DICTIONARY
  5
2369
102
{ACAD_REACTORS
330
C
102
}
330
C
100
AcDbDictionary
281
     1
  3
Imperial24
350
236A
  0
DICTIONARY
  5
D
102
{ACAD_REACTORS
330
C
102
}
330
C
100
AcDbDictionary
281
     1
  0
DICTIONARY
  5
5D
102
{ACAD_REACTORS
330
C
102
}
330
C
100
AcDbDictionary
281
     1
  3
Model
350
236B
  3
レイアウト1
350
236C
  0
DICTIONARY
  5
231E
102
{ACAD_REACTORS
330
C
102
}
330
C
100
AcDbDictionary
281
     1
  3
ByBlock
350
2327
  3
ByLayer
350
231F
  3
Global
350
232F
  0
DICTIONARY
  5
2365
102
{ACAD_REACTORS
330
C
102
}
330
C
100
AcDbDictionary
281
     1
  3
Standard
350
2366
  0
DICTIONARY
  5
1B
102
{ACAD_REACTORS
330
C
102
}
330
C
100
AcDbDictionary
281
     1
  3
STANDARD
350
1C
  0
DICTIONARY
  5
5E
102
{ACAD_REACTORS
330
C
102
}
330
C
100
AcDbDictionary
281
     1
  0
ACDBDICTIONARYWDFLT
  5
231C
102
{ACAD_REACTORS
330
C
102
}
330
C
100
AcDbDictionary
281
     1
  3
Normal
350
231D
100
AcDbDictionaryWithDefault
340
231D
  0
DICTIONARY
  5
2353
102
{ACAD_REACTORS
330
C
102
}
330
C
100
AcDbDictionary
281
     1
  3
A0
350
2354
  3
A1
350
2355
  3
A2
350
2356
  3
A3
350
2357
  3
A4
350
2358
  3
A5
350
2359
  3
A6
350
235A
  3
A7
350
235B
  3
A8
350
235C
  3
A9
350
235D
  3
B0
350
235E
  3
B1
350
235F
  3
B2
350
2360
  3
B3
350
2361
  3
B4
350
2362
  3
B5
350
2363
  3
B6
350
2364
  0
DICTIONARY
  5
2367
102
{ACAD_REACTORS
330
C
102
}
330
C
100
AcDbDictionary
281
     1
  3
Imperial24
350
2368
  0
DICTIONARY
  5
2351
102
{ACAD_REACTORS
330
C
102
}
330
C
100
AcDbDictionary
281
     1
  3
Standard
350
2352
  0
DICTIONARY
  5
2337
102
{ACAD_REACTORS
330
C
102
}
330
C
100
AcDbDictionary
281
     1
  3
2dWireframe
350
233D
  3
Basic
350
233C
  3
Brighten
350
2343
  3
ColorChange
350
2347
  3
Conceptual
350
2340
  3
Dim
350
2342
  3
EdgeColorOff
350
234F
  3
Facepattern
350
2346
  3
Flat
350
2338
  3
FlatWithEdges
350
2339
  3
Gouraud
350
233A
  3
GouraudWithEdges
350
233B
  3
Hidden
350
233F
  3
JitterOff
350
234D
  3
Linepattern
350
2345
  3
OverhangOff
350
234E
  3
Realistic
350
2341
  3
Shaded
350
234C
  3
Shaded with edges
350
234B
  3
Shades of Gray
350
2348
  3
Sketchy
350
2349
  3
Thicken
350
2344
  3
Wireframe
350
233E
  3
X-Ray
350
234A
  0
XRECORD
  5
238B
102
{ACAD_REACTORS
330
C
102
}
330
C
100
AcDbXrecord
280
     1
 90
        1
330
2352
  0
DICTIONARY
  5
237E
102
{ACAD_REACTORS
330
C
102
}
330
C
100
AcDbDictionary
281
     1
  3
CANNOSCALE
350
2383
  3
CMLEADERSTYLE
350
2380
  3
CTABLESTYLE
350
237F
  3
CVIEWDETAILSTYLE
350
2381
  3
CVIEWSECTIONSTYLE
350
2382
  3
DIMASSOC
350
2386
  3
INDEXCTL
350
2385
  3
SORTENTS
350
2384
  3
XCLIPFRAME
350
2387
  0
DICTIONARY
  5
3D
102
{ACAD_REACTORS
330
C
102
}
330
C
100
AcDbDictionary
281
     1
  0
XRECORD
  5
238C
102
{ACAD_REACTORS
330
C
102
}
330
C
100
AcDbXrecord
280
     1
  1
DWGPROPS COOKIE
  2

  3

  4

  6

  7

  8
Yoshitsune
  9

300
=
301
=
302
=
303
=
304
=
305
=
306
=
307
=
308
=
309
=
 40
0.0595772337962963
 41
2453031.60195529
 42
2457192.643649121
  1

 90
        0
  0
XRECORD
  5
236F
102
{ACAD_REACTORS
330
236E
102
}
330
236E
100
AcDbXrecord
280
     1
290
     1
  0
XRECORD
  5
2371
102
{ACAD_REACTORS
330
2370
102
}
330
2370
100
AcDbXrecord
280
     1
290
     1
  0
XRECORD
  5
2373
102
{ACAD_REACTORS
330
2372
102
}
330
2372
100
AcDbXrecord
280
     1
290
     1
  0
XRECORD
  5
2375
102
{ACAD_REACTORS
330
2374
102
}
330
2374
100
AcDbXrecord
280
     1
290
     1
  0
XRECORD
  5
2377
102
{ACAD_REACTORS
330
2376
102
}
330
2376
100
AcDbXrecord
280
     1
290
     1
  0
XRECORD
  5
2379
102
{ACAD_REACTORS
330
2378
102
}
330
2378
100
AcDbXrecord
280
     1
290
     1
  0
XRECORD
  5
237B
102
{ACAD_REACTORS
330
237A
102
}
330
237A
100
AcDbXrecord
280
     1
290
     1
  0
XRECORD
  5
237D
102
{ACAD_REACTORS
330
237C
102
}
330
237C
100
AcDbXrecord
280
     1
290
     1
  0
XRECORD
  5
2318
102
{ACAD_REACTORS
330
2317
102
}
330
2317
100
AcDbXrecord
280
     1
340
18
  0
XRECORD
  5
2316
102
{ACAD_REACTORS
330
2315
102
}
330
2315
100
AcDbXrecord
280
     1
340
15
  0
ACDBDETAILVIEWSTYLE
  5
236A
102
{ACAD_XDICTIONARY
360
23C4
102
}
102
{ACAD_REACTORS
330
2369
102
}
330
2369
100
AcDbModelDocViewStyle
 70
     0
  3
Imperial24
290
     0
100
AcDbDetailViewStyle
 70
     0
 71
     0
 90
        3
 71
     1
340
F
 40
0.24
340
0
 40
0.24
300

 40
0.36
280
     3
 71
     2
340
14
 90
       25
 71
     3
340
F
 40
0.24
 90
        1
 40
0.75
 90
        1
300
%<\AcVar ViewType \f "%tc1">% %<\AcVar ViewDetailId>%\PSCALE %<\AcVar ViewScale \f "%sn">%
 71
     4
340
14
 90
       25
340
14
 90
       25
280
     0
  0
LAYOUT
  5
236B
102
{ACAD_XDICTIONARY
360
23C6
102
}
102
{ACAD_REACTORS
330
5D
102
}
330
5D
100
AcDbPlotSettings
  1

  2
Canon LBP9100C
  4

  6

 40
0.0
 41
0.0
 42
0.0
 43
0.0
 44
0.0
 45
0.0
 46
0.0
 47
0.0
 48
0.0
 49
0.0
140
0.0
141
0.0
142
1.0
143
1.0
 70
  1712
 72
     0
 73
     0
 74
     0
  7

 75
     0
147
1.0
148
0.0
149
0.0
100
AcDbLayout
  1
Model
 70
     1
 71
     0
 10
0.0
 20
0.0
 11
12.0
 21
9.0
 12
0.0
 22
0.0
 32
0.0
 14
0.0
 24
0.0
 34
0.0
 15
0.0
 25
0.0
 35
0.0
146
0.0
 13
0.0
 23
0.0
 33
0.0
 16
1.0
 26
0.0
 36
0.0
 17
0.0
 27
1.0
 37
0.0
 76
     0
330
18
331
2314
  0
LAYOUT
  5
236C
102
{ACAD_XDICTIONARY
360
23C8
102
}
102
{ACAD_REACTORS
330
5D
102
}
330
5D
100
AcDbPlotSettings
  1

  2
Canon LBP9100C
  4

  6

 40
0.0
 41
0.0
 42
0.0
 43
0.0
 44
0.0
 45
0.0
 46
0.0
 47
0.0
 48
0.0
 49
0.0
140
0.0
141
0.0
142
1.0
143
1.0
 70
   688
 72
     0
 73
     0
 74
     5
  7

 75
    16
147
1.0
148
0.0
149
0.0
100
AcDbLayout
  1
レイアウト1
 70
     1
 71
     1
 10
0.0
 20
0.0
 11
420.0
 21
297.0
 12
0.0
 22
0.0
 32
0.0
 14
1.000000000000000E+20
 24
1.000000000000000E+20
 34
1.000000000000000E+20
 15
-1.000000000000000E+20
 25
-1.000000000000000E+20
 35
-1.000000000000000E+20
146
0.0
 13
0.0
 23
0.0
 33
0.0
 16
1.0
 26
0.0
 36
0.0
 17
0.0
 27
1.0
 37
0.0
 76
     0
330
15
  0
MATERIAL
  5
2327
102
{ACAD_XDICTIONARY
360
2328
102
}
102
{ACAD_REACTORS
330
231E
102
}
330
231E
100
AcDbMaterial
  1
ByBlock
 72
     0
 43
0.0208333333333333
 43
0.0
 43
0.0
 43
0.0
 43
0.0
 43
0.0208333333333333
 43
0.0
 43
0.0
 43
0.0
 43
0.0
 43
1.0
 43
0.0
 43
0.0
 43
0.0
 43
0.0
 43
1.0
 77
     0
 47
0.0208333333333333
 47
0.0
 47
0.0
 47
0.0
 47
0.0
 47
0.0208333333333333
 47
0.0
 47
0.0
 47
0.0
 47
0.0
 47
1.0
 47
0.0
 47
0.0
 47
0.0
 47
0.0
 47
1.0
171
     0
 49
0.0208333333333333
 49
0.0
 49
0.0
 49
0.0
 49
0.0
 49
0.0208333333333333
 49
0.0
 49
0.0
 49
0.0
 49
0.0
 49
1.0
 49
0.0
 49
0.0
 49
0.0
 49
0.0
 49
1.0
175
     0
142
0.0208333333333333
142
0.0
142
0.0
142
0.0
142
0.0
142
0.0208333333333333
142
0.0
142
0.0
142
0.0
142
0.0
142
1.0
142
0.0
142
0.0
142
0.0
142
0.0
142
1.0
179
     0
144
0.0208333333333333
144
0.0
144
0.0
144
0.0
144
0.0
144
0.0208333333333333
144
0.0
144
0.0
144
0.0
144
0.0
144
1.0
144
0.0
144
0.0
144
0.0
144
0.0
144
1.0
147
0.0208333333333333
147
0.0
147
0.0
147
0.0
147
0.0
147
0.0208333333333333
147
0.0
147
0.0
147
0.0
147
0.0
147
1.0
147
0.0
147
0.0
147
0.0
147
0.0
147
1.0
  0
MATERIAL
  5
231F
102
{ACAD_XDICTIONARY
360
2320
102
}
102
{ACAD_REACTORS
330
231E
102
}
330
231E
100
AcDbMaterial
  1
ByLayer
 72
     0
 43
0.0208333333333333
 43
0.0
 43
0.0
 43
0.0
 43
0.0
 43
0.0208333333333333
 43
0.0
 43
0.0
 43
0.0
 43
0.0
 43
1.0
 43
0.0
 43
0.0
 43
0.0
 43
0.0
 43
1.0
 77
     0
 47
0.0208333333333333
 47
0.0
 47
0.0
 47
0.0
 47
0.0
 47
0.0208333333333333
 47
0.0
 47
0.0
 47
0.0
 47
0.0
 47
1.0
 47
0.0
 47
0.0
 47
0.0
 47
0.0
 47
1.0
171
     0
 49
0.0208333333333333
 49
0.0
 49
0.0
 49
0.0
 49
0.0
 49
0.0208333333333333
 49
0.0
 49
0.0
 49
0.0
 49
0.0
 49
1.0
 49
0.0
 49
0.0
 49
0.0
 49
0.0
 49
1.0
175
     0
142
0.0208333333333333
142
0.0
142
0.0
142
0.0
142
0.0
142
0.0208333333333333
142
0.0
142
0.0
142
0.0
142
0.0
142
1.0
142
0.0
142
0.0
142
0.0
142
0.0
142
1.0
179
     0
144
0.0208333333333333
144
0.0
144
0.0
144
0.0
144
0.0
144
0.0208333333333333
144
0.0
144
0.0
144
0.0
144
0.0
144
1.0
144
0.0
144
0.0
144
0.0
144
0.0
144
1.0
147
0.0208333333333333
147
0.0
147
0.0
147
0.0
147
0.0
147
0.0208333333333333
147
0.0
147
0.0
147
0.0
147
0.0
147
1.0
147
0.0
147
0.0
147
0.0
147
0.0
147
1.0
  0
MATERIAL
  5
232F
102
{ACAD_XDICTIONARY
360
2330
102
}
102
{ACAD_REACTORS
330
231E
102
}
330
231E
100
AcDbMaterial
  1
Global
 72
     0
 43
0.0208333333333333
 43
0.0
 43
0.0
 43
0.0
 43
0.0
 43
0.0208333333333333
 43
0.0
 43
0.0
 43
0.0
 43
0.0
 43
1.0
 43
0.0
 43
0.0
 43
0.0
 43
0.0
 43
1.0
 77
     0
 47
0.0208333333333333
 47
0.0
 47
0.0
 47
0.0
 47
0.0
 47
0.0208333333333333
 47
0.0
 47
0.0
 47
0.0
 47
0.0
 47
1.0
 47
0.0
 47
0.0
 47
0.0
 47
0.0
 47
1.0
171
     0
 49
0.0208333333333333
 49
0.0
 49
0.0
 49
0.0
 49
0.0
 49
0.0208333333333333
 49
0.0
 49
0.0
 49
0.0
 49
0.0
 49
1.0
 49
0.0
 49
0.0
 49
0.0
 49
0.0
 49
1.0
175
     0
142
0.0208333333333333
142
0.0
142
0.0
142
0.0
142
0.0
142
0.0208333333333333
142
0.0
142
0.0
142
0.0
142
0.0
142
1.0
142
0.0
142
0.0
142
0.0
142
0.0
142
1.0
179
     0
144
0.0208333333333333
144
0.0
144
0.0
144
0.0
144
0.0
144
0.0208333333333333
144
0.0
144
0.0
144
0.0
144
0.0
144
1.0
144
0.0
144
0.0
144
0.0
144
0.0
144
1.0
147
0.0208333333333333
147
0.0
147
0.0
147
0.0
147
0.0
147
0.0208333333333333
147
0.0
147
0.0
147
0.0
147
0.0
147
1.0
147
0.0
147
0.0
147
0.0
147
0.0
147
1.0
  0
MLEADERSTYLE
  5
2366
102
{ACAD_REACTORS
330
2365
102
}
330
2365
100
AcDbMLeaderStyle
170
     2
171
     1
172
     0
 90
        2
 40
0.0
 41
0.0
173
     1
 91
-1056964608
340
12
 92
       -2
290
     1
 42
0.09
291
     1
 43
0.36
  3
Standard
 44
0.18
300

342
F
174
     1
178
     6
175
     1
176
     0
 93
-1056964608
 45
0.18
292
     0
297
     0
 46
0.18
 94
-1056964608
 47
1.0
 49
1.0
140
1.0
293
     1
141
0.0
294
     1
177
     0
142
1.0
295
     0
296
     0
143
0.125
1001
ACAD_MLEADERVER
1070
     2
  0
MLINESTYLE
  5
1C
102
{ACAD_REACTORS
330
1B
102
}
330
1B
100
AcDbMlineStyle
  2
STANDARD
 70
     0
  3

 62
   256
 51
90.0
 52
90.0
 71
     2
 49
0.5
 62
   256
  6
BYLAYER
 49
-0.5
 62
   256
  6
BYLAYER
  0
ACDBPLACEHOLDER
  5
231D
102
{ACAD_REACTORS
330
231C
102
}
330
231C
  0
SCALE
  5
2354
102
{ACAD_REACTORS
330
2353
102
}
330
2353
100
AcDbScale
 70
     0
300
1:1
140
1.0
141
1.0
290
     1
  0
SCALE
  5
2355
102
{ACAD_REACTORS
330
2353
102
}
330
2353
100
AcDbScale
 70
     0
300
1/128" = 1'-0"
140
0.0078125
141
12.0
290
     0
  0
SCALE
  5
2356
102
{ACAD_REACTORS
330
2353
102
}
330
2353
100
AcDbScale
 70
     0
300
1/64" = 1'-0"
140
0.015625
141
12.0
290
     0
  0
SCALE
  5
2357
102
{ACAD_REACTORS
330
2353
102
}
330
2353
100
AcDbScale
 70
     0
300
1/32" = 1'-0"
140
0.03125
141
12.0
290
     0
  0
SCALE
  5
2358
102
{ACAD_REACTORS
330
2353
102
}
330
2353
100
AcDbScale
 70
     0
300
1/16" = 1'-0"
140
0.0625
141
12.0
290
     0
  0
SCALE
  5
2359
102
{ACAD_REACTORS
330
2353
102
}
330
2353
100
AcDbScale
 70
     0
300
3/32" = 1'-0"
140
0.09375
141
12.0
290
     0
  0
SCALE
  5
235A
102
{ACAD_REACTORS
330
2353
102
}
330
2353
100
AcDbScale
 70
     0
300
1/8" = 1'-0"
140
0.125
141
12.0
290
     0
  0
SCALE
  5
235B
102
{ACAD_REACTORS
330
2353
102
}
330
2353
100
AcDbScale
 70
     0
300
3/16" = 1'-0"
140
0.1875
141
12.0
290
     0
  0
SCALE
  5
235C
102
{ACAD_REACTORS
330
2353
102
}
330
2353
100
AcDbScale
 70
     0
300
1/4" = 1'-0"
140
0.25
141
12.0
290
     0
  0
SCALE
  5
235D
102
{ACAD_REACTORS
330
2353
102
}
330
2353
100
AcDbScale
 70
     0
300
3/8" = 1'-0"
140
0.375
141
12.0
290
     0
  0
SCALE
  5
235E
102
{ACAD_REACTORS
330
2353
102
}
330
2353
100
AcDbScale
 70
     0
300
1/2" = 1'-0"
140
0.5
141
12.0
290
     0
  0
SCALE
  5
235F
102
{ACAD_REACTORS
330
2353
102
}
330
2353
100
AcDbScale
 70
     0
300
3/4" = 1'-0"
140
0.75
141
12.0
290
     0
  0
SCALE
  5
2360
102
{ACAD_REACTORS
330
2353
102
}
330
2353
100
AcDbScale
 70
     0
300
1" = 1'-0"
140
1.0
141
12.0
290
     0
  0
SCALE
  5
2361
102
{ACAD_REACTORS
330
2353
102
}
330
2353
100
AcDbScale
 70
     0
300
1-1/2" = 1'-0"
140
1.5
141
12.0
290
     0
  0
SCALE
  5
2362
102
{ACAD_REACTORS
330
2353
102
}
330
2353
100
AcDbScale
 70
     0
300
3" = 1'-0"
140
3.0
141
12.0
290
     0
  0
SCALE
  5
2363
102
{ACAD_REACTORS
330
2353
102
}
330
2353
100
AcDbScale
 70
     0
300
6" = 1'-0"
140
6.0
141
12.0
290
     0
  0
SCALE
  5
2364
102
{ACAD_REACTORS
330
2353
102
}
330
2353
100
AcDbScale
 70
     0
300
1'-0" = 1'-0"
140
12.0
141
12.0
290
     0
  0
ACDBSECTIONVIEWSTYLE
  5
2368
102
{ACAD_XDICTIONARY
360
23C2
102
}
102
{ACAD_REACTORS
330
2367
102
}
330
2367
100
AcDbModelDocViewStyle
 70
     0
  3
Imperial24
290
     0
100
AcDbSectionViewStyle
 70
     0
 71
     0
 90
       78
 71
     1
340
F
 40
0.24
340
0
340
0
 40
0.24
300
I, O, Q, S, X, Z
 40
0.48
 90
        3
 40
0.18
 90
        1
 71
     2
340
14
 90
       25
340
14
 90
       50
 40
0.24
 40
0.0
 40
0.24
 71
     3
340
F
 40
0.24
 90
        1
 40
0.75
 90
        1
300
%<\AcVar ViewType \f "%tc1">% %<\AcVar ViewSectionStartId>%-%<\AcVar ViewSectionEndId>%\PSCALE %<\AcVar ViewScale \f "%sn">%
 71
     4
300
ANSI31
 40
1.0
 90
        0
290
     0
290
     0
 90
        6
 40
0.0
 40
1.570796326794896
 40
0.2617993877991494
 40
1.308996938995747
 40
-0.2617993877991494
 40
1.832595714594046
  0
TABLESTYLE
  5
2352
102
{ACAD_XDICTIONARY
360
2389
102
}
102
{ACAD_REACTORS
330
2351
102
}
330
2351
100
AcDbTableStyle
  3
Standard
 70
     0
 71
     0
 40
0.06
 41
0.06
280
     0
281
     0
  7
STANDARD
140
0.18
170
     2
 62
     0
 63
     7
283
     0
274
    -2
284
     1
 64
     0
275
    -2
285
     1
 65
     0
276
    -2
286
     1
 66
     0
277
    -2
287
     1
 67
     0
278
    -2
288
     1
 68
     0
279
    -2
289
     1
 69
     0
  7
STANDARD
140
0.25
170
     5
 62
     0
 63
     7
283
     0
274
    -2
284
     1
 64
     0
275
    -2
285
     1
 65
     0
276
    -2
286
     1
 66
     0
277
    -2
287
     1
 67
     0
278
    -2
288
     1
 68
     0
279
    -2
289
     1
 69
     0
  7
STANDARD
140
0.18
170
     5
 62
     0
 63
     7
283
     0
274
    -2
284
     1
 64
     0
275
    -2
285
     1
 65
     0
276
    -2
286
     1
 66
     0
277
    -2
287
     1
 67
     0
278
    -2
288
     1
 68
     0
279
    -2
289
     1
 69
     0
  0
VISUALSTYLE
  5
233D
102
{ACAD_XDICTIONARY
360
239A
102
}
102
{ACAD_REACTORS
330
2337
102
}
330
2337
100
AcDbVisualStyle
  2
2dWireframe
 70
     4
 71
     0
 72
     2
 73
     0
 90
        0
 40
-0.6
 41
-30.0
 62
     5
 63
     7
 74
     1
 91
        4
 64
     7
 65
   257
 75
     1
175
     1
 42
1.0
 92
        0
 66
   257
 43
1.0
 76
     1
 77
     6
 78
     2
 67
     7
 79
     5
170
     0
171
     0
290
     0
174
     0
 93
        1
 44
0.0
173
     0
291
     0
 45
0.0
1001
ACAD
1000
AcDbSavedByObjectVersion
1070
     0
  0
VISUALSTYLE
  5
233C
102
{ACAD_XDICTIONARY
360
2398
102
}
102
{ACAD_REACTORS
330
2337
102
}
330
2337
100
AcDbVisualStyle
  2
Basic
 70
     7
 71
     1
 72
     0
 73
     1
 90
        0
 40
-0.6
 41
-30.0
 62
     5
 63
     7
 74
     0
 91
        4
 64
     7
 65
   257
 75
     1
175
     1
 42
1.0
 92
        8
 66
     7
 43
1.0
 76
     1
 77
     6
 78
     2
 67
     7
 79
     5
170
     0
171
     0
290
     0
174
     0
 93
        1
 44
0.0
173
     0
291
     1
 45
0.0
1001
ACAD
1000
AcDbSavedByObjectVersion
1070
     0
  0
VISUALSTYLE
  5
2343
102
{ACAD_XDICTIONARY
360
23A6
102
}
102
{ACAD_REACTORS
330
2337
102
}
330
2337
100
AcDbVisualStyle
  2
Brighten
 70
    12
 71
     2
 72
     2
 73
     0
 90
        0
 40
-0.6
 41
-30.0
 62
     5
 63
     7
 74
     1
 91
        4
 64
     7
 65
   257
 75
     1
175
     1
 42
1.0
 92
        8
 66
     7
 43
1.0
 76
     1
 77
     6
 78
     2
 67
     7
 79
     5
170
     0
171
     0
290
     0
174
     0
 93
        1
 44
50.0
173
     0
291
     1
 45
0.0
1001
ACAD
1000
AcDbSavedByObjectVersion
1070
     0
  0
VISUALSTYLE
  5
2347
102
{ACAD_XDICTIONARY
360
23AE
102
}
102
{ACAD_REACTORS
330
2337
102
}
330
2337
100
AcDbVisualStyle
  2
ColorChange
 70
    16
 71
     2
 72
     2
 73
     3
 90
        0
 40
-0.6
 41
-30.0
 62
     5
 63
     8
 74
     1
 91
        4
 64
     7
 65
   257
 75
     1
175
     1
 42
1.0
 92
        8
 66
     8
 43
1.0
 76
     1
 77
     6
 78
     2
 67
     7
 79
     5
170
     0
171
     0
290
     0
174
     0
 93
        1
 44
0.0
173
     0
291
     1
 45
0.0
1001
ACAD
1000
AcDbSavedByObjectVersion
1070
     0
  0
VISUALSTYLE
  5
2340
102
{ACAD_XDICTIONARY
360
23A0
102
}
102
{ACAD_REACTORS
330
2337
102
}
330
2337
100
AcDbVisualStyle
  2
Conceptual
 70
     9
 71
     3
 72
     2
 73
     0
 90
        0
 40
-0.6
 41
-30.0
 62
     5
 63
     7
 74
     2
 91
        2
 64
     7
 65
   257
 75
     1
175
     1
 42
179.0
 92
        8
 66
     7
 43
1.0
 76
     1
 77
     6
 78
     2
 67
     7
 79
     3
170
     0
171
     0
290
     0
174
     0
 93
        1
 44
0.0
173
     0
291
     0
 45
0.0
1001
ACAD
1000
AcDbSavedByObjectVersion
1070
     0
  0
VISUALSTYLE
  5
2342
102
{ACAD_XDICTIONARY
360
23A4
102
}
102
{ACAD_REACTORS
330
2337
102
}
330
2337
100
AcDbVisualStyle
  2
Dim
 70
    11
 71
     2
 72
     2
 73
     0
 90
        0
 40
-0.6
 41
-30.0
 62
     5
 63
     7
 74
     1
 91
        4
 64
     7
 65
   257
 75
     1
175
     1
 42
1.0
 92
        8
 66
     7
 43
1.0
 76
     1
 77
     6
 78
     2
 67
     7
 79
     5
170
     0
171
     0
290
     0
174
     0
 93
        1
 44
-50.0
173
     0
291
     1
 45
0.0
1001
ACAD
1000
AcDbSavedByObjectVersion
1070
     0
  0
VISUALSTYLE
  5
234F
102
{ACAD_XDICTIONARY
360
23BE
102
}
102
{ACAD_REACTORS
330
2337
102
}
330
2337
100
AcDbVisualStyle
  2
EdgeColorOff
 70
    22
 71
     2
 72
     2
 73
     0
 90
        0
 40
-0.6
 41
-30.0
 62
     5
 63
     7
 74
     1
 91
        4
 64
     7
 65
   257
 75
     1
175
     1
 42
1.0
 92
        8
 66
     7
 43
1.0
 76
     1
 77
     6
 78
     2
 67
     7
 79
     5
170
     0
171
     0
290
     0
174
     0
 93
        1
 44
0.0
173
     0
291
     1
 45
0.0
1001
ACAD
1000
AcDbSavedByObjectVersion
1070
     0
  0
VISUALSTYLE
  5
2346
102
{ACAD_XDICTIONARY
360
23AC
102
}
102
{ACAD_REACTORS
330
2337
102
}
330
2337
100
AcDbVisualStyle
  2
Facepattern
 70
    15
 71
     2
 72
     2
 73
     0
 90
        0
 40
-0.6
 41
-30.0
 62
     5
 63
     7
 74
     1
 91
        4
 64
     7
 65
   257
 75
     1
175
     1
 42
1.0
 92
        8
 66
     7
 43
1.0
 76
     1
 77
     6
 78
     2
 67
     7
 79
     5
170
     0
171
     0
290
     0
174
     0
 93
        1
 44
0.0
173
     0
291
     1
 45
0.0
1001
ACAD
1000
AcDbSavedByObjectVersion
1070
     0
  0
VISUALSTYLE
  5
2338
102
{ACAD_XDICTIONARY
360
2390
102
}
102
{ACAD_REACTORS
330
2337
102
}
330
2337
100
AcDbVisualStyle
  2
Flat
 70
     0
 71
     2
 72
     1
 73
     1
 90
        2
 40
-0.6
 41
30.0
 62
     5
 63
     7
 74
     0
 91
        0
 64
     7
 65
   257
 75
     1
175
     1
 42
1.0
 92
        8
 66
     7
 43
1.0
 76
     1
 77
     6
 78
     2
 67
     7
 79
     5
170
     0
171
     0
290
     0
174
     0
 93
       13
 44
0.0
173
     0
291
     1
 45
0.0
1001
ACAD
1000
AcDbSavedByObjectVersion
1070
     0
  0
VISUALSTYLE
  5
2339
102
{ACAD_XDICTIONARY
360
2392
102
}
102
{ACAD_REACTORS
330
2337
102
}
330
2337
100
AcDbVisualStyle
  2
FlatWithEdges
 70
     1
 71
     2
 72
     1
 73
     1
 90
        2
 40
-0.6
 41
30.0
 62
     5
 63
     7
 74
     1
 91
        0
 64
     7
 65
   257
 75
     1
175
     1
 42
1.0
 92
        0
 66
   257
 43
1.0
 76
     1
 77
     6
 78
     2
 67
     7
 79
     5
170
     0
171
     0
290
     0
174
     0
 93
       13
 44
0.0
173
     0
291
     1
 45
0.0
1001
ACAD
1000
AcDbSavedByObjectVersion
1070
     0
  0
VISUALSTYLE
  5
233A
102
{ACAD_XDICTIONARY
360
2394
102
}
102
{ACAD_REACTORS
330
2337
102
}
330
2337
100
AcDbVisualStyle
  2
Gouraud
 70
     2
 71
     2
 72
     2
 73
     1
 90
        2
 40
-0.6
 41
30.0
 62
     5
 63
     7
 74
     0
 91
        0
 64
     7
 65
   257
 75
     1
175
     1
 42
1.0
 92
        0
 66
     7
 43
1.0
 76
     1
 77
     6
 78
     2
 67
     7
 79
     5
170
     0
171
     0
290
     0
174
     0
 93
       13
 44
0.0
173
     0
291
     1
 45
0.0
1001
ACAD
1000
AcDbSavedByObjectVersion
1070
     0
  0
VISUALSTYLE
  5
233B
102
{ACAD_XDICTIONARY
360
2396
102
}
102
{ACAD_REACTORS
330
2337
102
}
330
2337
100
AcDbVisualStyle
  2
GouraudWithEdges
 70
     3
 71
     2
 72
     2
 73
     1
 90
        2
 40
-0.6
 41
30.0
 62
     5
 63
     7
 74
     1
 91
        0
 64
     7
 65
   257
 75
     1
175
     1
 42
1.0
 92
        0
 66
   257
 43
1.0
 76
     1
 77
     6
 78
     2
 67
     7
 79
     5
170
     0
171
     0
290
     0
174
     0
 93
       13
 44
0.0
173
     0
291
     1
 45
0.0
1001
ACAD
1000
AcDbSavedByObjectVersion
1070
     0
  0
VISUALSTYLE
  5
233F
102
{ACAD_XDICTIONARY
360
239E
102
}
102
{ACAD_REACTORS
330
2337
102
}
330
2337
100
AcDbVisualStyle
  2
Hidden
 70
     6
 71
     1
 72
     2
 73
     2
 90
        0
 40
-0.6
 41
-30.0
 62
     5
 63
     7
 74
     2
 91
        2
 64
     7
 65
   257
 75
     2
175
     1
 42
40.0
 92
        0
 66
   257
 43
1.0
 76
     1
 77
     6
 78
     2
 67
     7
 79
     3
170
     0
171
     0
290
     0
174
     0
 93
        1
 44
0.0
173
     0
291
     0
 45
0.0
1001
ACAD
1000
AcDbSavedByObjectVersion
1070
     0
  0
VISUALSTYLE
  5
234D
102
{ACAD_XDICTIONARY
360
23BA
102
}
102
{ACAD_REACTORS
330
2337
102
}
330
2337
100
AcDbVisualStyle
  2
JitterOff
 70
    20
 71
     2
 72
     2
 73
     0
 90
        0
 40
-0.6
 41
-30.0
 62
     5
 63
     7
 74
     1
 91
        4
 64
     7
 65
   257
 75
     1
175
     1
 42
1.0
 92
       10
 66
     7
 43
1.0
 76
     1
 77
     6
 78
     2
 67
     7
 79
     5
170
     0
171
     0
290
     0
174
     0
 93
        1
 44
0.0
173
     0
291
     1
 45
0.0
1001
ACAD
1000
AcDbSavedByObjectVersion
1070
     0
  0
VISUALSTYLE
  5
2345
102
{ACAD_XDICTIONARY
360
23AA
102
}
102
{ACAD_REACTORS
330
2337
102
}
330
2337
100
AcDbVisualStyle
  2
Linepattern
 70
    14
 71
     2
 72
     2
 73
     0
 90
        0
 40
-0.6
 41
-30.0
 62
     5
 63
     7
 74
     1
 91
        4
 64
     7
 65
   257
 75
     7
175
     7
 42
1.0
 92
        8
 66
     7
 43
1.0
 76
     1
 77
     6
 78
     2
 67
     7
 79
     5
170
     0
171
     0
290
     0
174
     0
 93
        1
 44
0.0
173
     0
291
     1
 45
0.0
1001
ACAD
1000
AcDbSavedByObjectVersion
1070
     0
  0
VISUALSTYLE
  5
234E
102
{ACAD_XDICTIONARY
360
23BC
102
}
102
{ACAD_REACTORS
330
2337
102
}
330
2337
100
AcDbVisualStyle
  2
OverhangOff
 70
    21
 71
     2
 72
     2
 73
     0
 90
        0
 40
-0.6
 41
-30.0
 62
     5
 63
     7
 74
     1
 91
        4
 64
     7
 65
   257
 75
     1
175
     1
 42
1.0
 92
        9
 66
     7
 43
1.0
 76
     1
 77
     6
 78
     2
 67
     7
 79
     5
170
     0
171
     0
290
     0
174
     0
 93
        1
 44
0.0
173
     0
291
     1
 45
0.0
1001
ACAD
1000
AcDbSavedByObjectVersion
1070
     0
  0
VISUALSTYLE
  5
2341
102
{ACAD_XDICTIONARY
360
23A2
102
}
102
{ACAD_REACTORS
330
2337
102
}
330
2337
100
AcDbVisualStyle
  2
Realistic
 70
     8
 71
     2
 72
     3
 73
     0
 90
        2
 40
-0.6
 41
30.0
 62
     5
 63
     7
 74
     0
 91
        0
 64
     7
 65
   257
 75
     1
175
     1
 42
1.0
 92
        8
 66
   257
 43
1.0
 76
     1
 77
     6
 78
     2
 67
     7
 79
     3
170
     0
171
     0
290
     0
174
     0
 93
       13
 44
0.0
173
     0
291
     0
 45
0.0
1001
ACAD
1000
AcDbSavedByObjectVersion
1070
     0
  0
VISUALSTYLE
  5
234C
102
{ACAD_XDICTIONARY
360
23B8
102
}
102
{ACAD_REACTORS
330
2337
102
}
330
2337
100
AcDbVisualStyle
  2
Shaded
 70
    27
 71
     2
 72
     2
 73
     1
 90
        2
 40
-0.6
 41
30.0
 62
     5
 63
     7
 74
     0
 91
        4
 64
     7
 65
   257
 75
     1
175
     1
 42
1.0
 92
        8
 66
   257
 43
1.0
 76
     1
 77
     6
 78
     2
 67
     8
 79
     3
170
     0
171
     0
290
     0
174
     0
 93
        5
 44
0.0
173
     0
291
     0
 45
0.0
1001
ACAD
1000
AcDbSavedByObjectVersion
1070
     0
  0
VISUALSTYLE
  5
234B
102
{ACAD_XDICTIONARY
360
23B6
102
}
102
{ACAD_REACTORS
330
2337
102
}
330
2337
100
AcDbVisualStyle
  2
Shaded with edges
 70
    26
 71
     2
 72
     2
 73
     1
 90
        2
 40
-0.6
 41
30.0
 62
     5
 63
     7
 74
     1
 91
       10
 64
     7
 65
   257
 75
     2
175
     1
 42
1.0
 92
        8
 66
   257
 43
1.0
 76
     1
 77
     6
 78
     2
 67
     7
 79
     3
170
     0
171
     0
290
     0
174
     0
 93
        5
 44
0.0
173
     0
291
     0
 45
0.0
1001
ACAD
1000
AcDbSavedByObjectVersion
1070
     0
  0
VISUALSTYLE
  5
2348
102
{ACAD_XDICTIONARY
360
23B0
102
}
102
{ACAD_REACTORS
330
2337
102
}
330
2337
100
AcDbVisualStyle
  2
Shades of Gray
 70
    23
 71
     2
 72
     2
 73
     3
 90
        0
 40
-0.6
 41
-30.0
 62
     5
 63
     7
 74
     2
 91
        2
 64
     7
 65
     7
 75
     1
175
     1
 42
40.0
 92
        8
 66
     7
 43
1.0
 76
     1
 77
     6
 78
     2
 67
     7
 79
     3
170
     0
171
     0
290
     0
174
     0
 93
        1
 44
0.0
173
     0
291
     0
 45
0.0
1001
ACAD
1000
AcDbSavedByObjectVersion
1070
     0
  0
VISUALSTYLE
  5
2349
102
{ACAD_XDICTIONARY
360
23B2
102
}
102
{ACAD_REACTORS
330
2337
102
}
330
2337
100
AcDbVisualStyle
  2
Sketchy
 70
    24
 71
     1
 72
     2
 73
     2
 90
        0
 40
-0.6
 41
-30.0
 62
     5
 63
     7
 74
     2
 91
        2
 64
     7
 65
     7
 75
     1
175
     1
 42
40.0
 92
       11
 66
     7
 43
1.0
 76
     1
 77
     6
 78
     2
 67
     7
 79
     6
170
     0
171
     0
290
     0
174
     0
 93
        1
 44
0.0
173
     0
291
     0
 45
0.0
1001
ACAD
1000
AcDbSavedByObjectVersion
1070
     0
  0
VISUALSTYLE
  5
2344
102
{ACAD_XDICTIONARY
360
23A8
102
}
102
{ACAD_REACTORS
330
2337
102
}
330
2337
100
AcDbVisualStyle
  2
Thicken
 70
    13
 71
     2
 72
     2
 73
     0
 90
        0
 40
-0.6
 41
-30.0
 62
     5
 63
     7
 74
     1
 91
        4
 64
     7
 65
   257
 75
     1
175
     1
 42
1.0
 92
       12
 66
     7
 43
1.0
 76
     1
 77
     6
 78
     2
 67
     7
 79
     5
170
     0
171
     0
290
     0
174
     0
 93
        1
 44
0.0
173
     0
291
     1
 45
0.0
1001
ACAD
1000
AcDbSavedByObjectVersion
1070
     0
  0
VISUALSTYLE
  5
233E
102
{ACAD_XDICTIONARY
360
239C
102
}
102
{ACAD_REACTORS
330
2337
102
}
330
2337
100
AcDbVisualStyle
  2
Wireframe
 70
     5
 71
     0
 72
     2
 73
     0
 90
        0
 40
-0.6
 41
-30.0
 62
     5
 63
     7
 74
     1
 91
        4
 64
     7
 65
   257
 75
     1
175
     1
 42
1.0
 92
        0
 66
   257
 43
1.0
 76
     1
 77
     6
 78
     2
 67
     7
 79
     3
170
     0
171
     0
290
     0
174
     0
 93
        1
 44
0.0
173
     0
291
     0
 45
0.0
1001
ACAD
1000
AcDbSavedByObjectVersion
1070
     0
  0
VISUALSTYLE
  5
234A
102
{ACAD_XDICTIONARY
360
23B4
102
}
102
{ACAD_REACTORS
330
2337
102
}
330
2337
100
AcDbVisualStyle
  2
X-Ray
 70
    25
 71
     2
 72
     2
 73
     1
 90
        1
 40
0.5
 41
-30.0
 62
     5
 63
     7
 74
     1
 91
        0
 64
     7
 65
   257
 75
     1
175
     1
 42
1.0
 92
        8
 66
     7
 43
1.0
 76
     1
 77
     6
 78
     2
 67
     7
 79
     3
170
     0
171
     0
290
     0
174
     0
 93
       13
 44
0.0
173
     0
291
     0
 45
0.0
1001
ACAD
1000
AcDbSavedByObjectVersion
1070
     0
  0
DICTIONARYVAR
  5
2383
102
{ACAD_REACTORS
330
237E
102
}
330
237E
100
DictionaryVariables
280
     0
  1
1:1
  0
DICTIONARYVAR
  5
2380
102
{ACAD_REACTORS
330
237E
102
}
330
237E
100
DictionaryVariables
280
     0
  1
STANDARD
  0
DICTIONARYVAR
  5
237F
102
{ACAD_REACTORS
330
237E
102
}
330
237E
100
DictionaryVariables
280
     0
  1
STANDARD
  0
DICTIONARYVAR
  5
2381
102
{ACAD_REACTORS
330
237E
102
}
330
237E
100
DictionaryVariables
280
     0
  1
Imperial24
  0
DICTIONARYVAR
  5
2382
102
{ACAD_REACTORS
330
237E
102
}
330
237E
100
DictionaryVariables
280
     0
  1
Imperial24
  0
DICTIONARYVAR
  5
2386
102
{ACAD_REACTORS
330
237E
102
}
330
237E
100
DictionaryVariables
280
     0
  1
1
  0
DICTIONARYVAR
  5
2385
102
{ACAD_REACTORS
330
237E
102
}
330
237E
100
DictionaryVariables
280
     0
  1
0
  0
DICTIONARYVAR
  5
2384
102
{ACAD_REACTORS
330
237E
102
}
330
237E
100
DictionaryVariables
280
     0
  1
127
  0
DICTIONARYVAR
  5
2387
102
{ACAD_REACTORS
330
237E
102
}
330
237E
100
DictionaryVariables
280
     0
  1
2
  0
DICTIONARY
  5
23C4
330
236A
100
AcDbDictionary
280
     1
281
     1
  3
ACAD_XREC_ROUNDTRIP
360
23C5
  0
DICTIONARY
  5
23C6
330
236B
100
AcDbDictionary
280
     1
281
     1
  3
ACAD_XREC_ROUNDTRIP
360
23C7
  0
DICTIONARY
  5
23C8
330
236C
100
AcDbDictionary
280
     1
281
     1
  3
ACAD_XREC_ROUNDTRIP
360
23C9
  0
DICTIONARY
  5
2328
330
2327
100
AcDbDictionary
280
     1
281
     1
  3
ACAD_XREC_ROUNDTRIP
360
238E
  3
BUMPTILE
360
232A
  3
DIFFUSETILE
360
2329
  3
OPACITYTILE
360
232D
  3
REFLECTIONTILE
360
232C
  3
REFRACTIONTILE
360
232E
  3
SPECULARTILE
360
232B
  0
DICTIONARY
  5
2320
330
231F
100
AcDbDictionary
280
     1
281
     1
  3
ACAD_XREC_ROUNDTRIP
360
238D
  3
BUMPTILE
360
2322
  3
DIFFUSETILE
360
2321
  3
OPACITYTILE
360
2325
  3
REFLECTIONTILE
360
2324
  3
REFRACTIONTILE
360
2326
  3
SPECULARTILE
360
2323
  0
DICTIONARY
  5
2330
330
232F
100
AcDbDictionary
280
     1
281
     1
  3
ACAD_XREC_ROUNDTRIP
360
238F
  3
BUMPTILE
360
2332
  3
DIFFUSETILE
360
2331
  3
OPACITYTILE
360
2335
  3
REFLECTIONTILE
360
2334
  3
REFRACTIONTILE
360
2336
  3
SPECULARTILE
360
2333
  0
DICTIONARY
  5
23C2
330
2368
100
AcDbDictionary
280
     1
281
     1
  3
ACAD_XREC_ROUNDTRIP
360
23C3
  0
DICTIONARY
  5
2389
330
2352
100
AcDbDictionary
280
     1
281
     1
  3
ACAD_ROUNDTRIP_2008_TABLESTYLE_CELLSTYLEMAP
360
238A
  3
ACAD_XREC_ROUNDTRIP
360
23C0
  0
DICTIONARY
  5
239A
330
233D
100
AcDbDictionary
280
     1
281
     1
  3
ACAD_XREC_ROUNDTRIP
360
239B
  0
DICTIONARY
  5
2398
330
233C
100
AcDbDictionary
280
     1
281
     1
  3
ACAD_XREC_ROUNDTRIP
360
2399
  0
DICTIONARY
  5
23A6
330
2343
100
AcDbDictionary
280
     1
281
     1
  3
ACAD_XREC_ROUNDTRIP
360
23A7
  0
DICTIONARY
  5
23AE
330
2347
100
AcDbDictionary
280
     1
281
     1
  3
ACAD_XREC_ROUNDTRIP
360
23AF
  0
DICTIONARY
  5
23A0
330
2340
100
AcDbDictionary
280
     1
281
     1
  3
ACAD_XREC_ROUNDTRIP
360
23A1
  0
DICTIONARY
  5
23A4
330
2342
100
AcDbDictionary
280
     1
281
     1
  3
ACAD_XREC_ROUNDTRIP
360
23A5
  0
DICTIONARY
  5
23BE
330
234F
100
AcDbDictionary
280
     1
281
     1
  3
ACAD_XREC_ROUNDTRIP
360
23BF
  0
DICTIONARY
  5
23AC
330
2346
100
AcDbDictionary
280
     1
281
     1
  3
ACAD_XREC_ROUNDTRIP
360
23AD
  0
DICTIONARY
  5
2390
330
2338
100
AcDbDictionary
280
     1
281
     1
  3
ACAD_XREC_ROUNDTRIP
360
2391
  0
DICTIONARY
  5
2392
330
2339
100
AcDbDictionary
280
     1
281
     1
  3
ACAD_XREC_ROUNDTRIP
360
2393
  0
DICTIONARY
  5
2394
330
233A
100
AcDbDictionary
280
     1
281
     1
  3
ACAD_XREC_ROUNDTRIP
360
2395
  0
DICTIONARY
  5
2396
330
233B
100
AcDbDictionary
280
     1
281
     1
  3
ACAD_XREC_ROUNDTRIP
360
2397
  0
DICTIONARY
  5
239E
330
233F
100
AcDbDictionary
280
     1
281
     1
  3
ACAD_XREC_ROUNDTRIP
360
239F
  0
DICTIONARY
  5
23BA
330
234D
100
AcDbDictionary
280
     1
281
     1
  3
ACAD_XREC_ROUNDTRIP
360
23BB
  0
DICTIONARY
  5
23AA
330
2345
100
AcDbDictionary
280
     1
281
     1
  3
ACAD_XREC_ROUNDTRIP
360
23AB
  0
DICTIONARY
  5
23BC
330
234E
100
AcDbDictionary
280
     1
281
     1
  3
ACAD_XREC_ROUNDTRIP
360
23BD
  0
DICTIONARY
  5
23A2
330
2341
100
AcDbDictionary
280
     1
281
     1
  3
ACAD_XREC_ROUNDTRIP
360
23A3
  0
DICTIONARY
  5
23B8
330
234C
100
AcDbDictionary
280
     1
281
     1
  3
ACAD_XREC_ROUNDTRIP
360
23B9
  0
DICTIONARY
  5
23B6
330
234B
100
AcDbDictionary
280
     1
281
     1
  3
ACAD_XREC_ROUNDTRIP
360
23B7
  0
DICTIONARY
  5
23B0
330
2348
100
AcDbDictionary
280
     1
281
     1
  3
ACAD_XREC_ROUNDTRIP
360
23B1
  0
DICTIONARY
  5
23B2
330
2349
100
AcDbDictionary
280
     1
281
     1
  3
ACAD_XREC_ROUNDTRIP
360
23B3
  0
DICTIONARY
  5
23A8
330
2344
100
AcDbDictionary
280
     1
281
     1
  3
ACAD_XREC_ROUNDTRIP
360
23A9
  0
DICTIONARY
  5
239C
330
233E
100
AcDbDictionary
280
     1
281
     1
  3
ACAD_XREC_ROUNDTRIP
360
239D
  0
DICTIONARY
  5
23B4
330
234A
100
AcDbDictionary
280
     1
281
     1
  3
ACAD_XREC_ROUNDTRIP
360
23B5
  0
XRECORD
  5
23C5
102
{ACAD_REACTORS
330
23C4
102
}
330
23C4
100
AcDbXrecord
280
     1
102
DISPLAYNAME
  1
Imperial24
102
FLAGS
 90
        0
  0
XRECORD
  5
23C7
102
{ACAD_REACTORS
330
23C6
102
}
330
23C6
100
AcDbXrecord
280
     1
102
SHADEPLOT
 70
     0
102
SHADEPLOTRESLEVEL
 70
     2
102
SHADEPLOTCUSTOMDPI
 70
   300
  0
XRECORD
  5
23C9
102
{ACAD_REACTORS
330
23C8
102
}
330
23C8
100
AcDbXrecord
280
     1
102
SHADEPLOT
 70
     0
102
SHADEPLOTRESLEVEL
 70
     2
102
SHADEPLOTCUSTOMDPI
 70
   300
  0
XRECORD
  5
238E
102
{ACAD_REACTORS
330
2328
102
}
330
2328
100
AcDbXrecord
280
     1
102
MATERIAL
148
0.0
149
0.0
149
0.0
 93
        0
 94
      127
282
     0
 72
     0
 77
     0
171
     0
175
     0
179
     0
273
     0
  0
XRECORD
  5
232A
102
{ACAD_REACTORS
330
2328
102
}
330
2328
100
AcDbXrecord
280
     1
270
     1
271
     1
  0
XRECORD
  5
2329
102
{ACAD_REACTORS
330
2328
102
}
330
2328
100
AcDbXrecord
280
     1
270
     1
271
     1
  0
XRECORD
  5
232D
102
{ACAD_REACTORS
330
2328
102
}
330
2328
100
AcDbXrecord
280
     1
270
     1
271
     1
  0
XRECORD
  5
232C
102
{ACAD_REACTORS
330
2328
102
}
330
2328
100
AcDbXrecord
280
     1
270
     1
271
     1
  0
XRECORD
  5
232E
102
{ACAD_REACTORS
330
2328
102
}
330
2328
100
AcDbXrecord
280
     1
270
     1
271
     1
  0
XRECORD
  5
232B
102
{ACAD_REACTORS
330
2328
102
}
330
2328
100
AcDbXrecord
280
     1
270
     1
271
     1
  0
XRECORD
  5
238D
102
{ACAD_REACTORS
330
2320
102
}
330
2320
100
AcDbXrecord
280
     1
102
MATERIAL
148
0.0
149
0.0
149
0.0
 93
        0
 94
      127
282
     0
 72
     0
 77
     0
171
     0
175
     0
179
     0
273
     0
  0
XRECORD
  5
2322
102
{ACAD_REACTORS
330
2320
102
}
330
2320
100
AcDbXrecord
280
     1
270
     1
271
     1
  0
XRECORD
  5
2321
102
{ACAD_REACTORS
330
2320
102
}
330
2320
100
AcDbXrecord
280
     1
270
     1
271
     1
  0
XRECORD
  5
2325
102
{ACAD_REACTORS
330
2320
102
}
330
2320
100
AcDbXrecord
280
     1
270
     1
271
     1
  0
XRECORD
  5
2324
102
{ACAD_REACTORS
330
2320
102
}
330
2320
100
AcDbXrecord
280
     1
270
     1
271
     1
  0
XRECORD
  5
2326
102
{ACAD_REACTORS
330
2320
102
}
330
2320
100
AcDbXrecord
280
     1
270
     1
271
     1
  0
XRECORD
  5
2323
102
{ACAD_REACTORS
330
2320
102
}
330
2320
100
AcDbXrecord
280
     1
270
     1
271
     1
  0
XRECORD
  5
238F
102
{ACAD_REACTORS
330
2330
102
}
330
2330
100
AcDbXrecord
280
     1
102
MATERIAL
148
0.0
149
0.0
149
0.0
 93
        0
 94
      127
282
     0
 72
     0
 77
     0
171
     0
175
     0
179
     0
273
     0
  0
XRECORD
  5
2332
102
{ACAD_REACTORS
330
2330
102
}
330
2330
100
AcDbXrecord
280
     1
270
     1
271
     1
  0
XRECORD
  5
2331
102
{ACAD_REACTORS
330
2330
102
}
330
2330
100
AcDbXrecord
280
     1
270
     1
271
     1
  0
XRECORD
  5
2335
102
{ACAD_REACTORS
330
2330
102
}
330
2330
100
AcDbXrecord
280
     1
270
     1
271
     1
  0
XRECORD
  5
2334
102
{ACAD_REACTORS
330
2330
102
}
330
2330
100
AcDbXrecord
280
     1
270
     1
271
     1
  0
XRECORD
  5
2336
102
{ACAD_REACTORS
330
2330
102
}
330
2330
100
AcDbXrecord
280
     1
270
     1
271
     1
  0
XRECORD
  5
2333
102
{ACAD_REACTORS
330
2330
102
}
330
2330
100
AcDbXrecord
280
     1
270
     1
271
     1
  0
XRECORD
  5
23C3
102
{ACAD_REACTORS
330
23C2
102
}
330
23C2
100
AcDbXrecord
280
     1
102
DISPLAYNAME
  1
Imperial24
102
FLAGS
 90
        0
  0
CELLSTYLEMAP
  5
238A
102
{ACAD_REACTORS
330
2389
102
}
330
2389
100
AcDbCellStyleMap
 90
        3
300
CELLSTYLE
  1
TABLEFORMAT_BEGIN
 90
        5
170
     1
 91
        0
 92
    32768
 62
   257
 93
        1
300
CONTENTFORMAT
  1
CONTENTFORMAT_BEGIN
 90
        0
 91
        0
 92
      512
 93
        0
300

 40
0.0
140
1.0
 94
        5
 62
     0
340
F
144
0.25
309
CONTENTFORMAT_END
171
     0
 94
        0
309
TABLEFORMAT_END
  1
CELLSTYLE_BEGIN
 90
        1
 91
        1
300
_TITLE
309
CELLSTYLE_END
300
CELLSTYLE
  1
TABLEFORMAT_BEGIN
 90
        5
170
     1
 91
        0
 92
        0
 62
   257
 93
        1
300
CONTENTFORMAT
  1
CONTENTFORMAT_BEGIN
 90
        0
 91
        0
 92
      512
 93
        0
300

 40
0.0
140
1.0
 94
        5
 62
     0
340
F
144
0.18
309
CONTENTFORMAT_END
171
     0
 94
        0
309
TABLEFORMAT_END
  1
CELLSTYLE_BEGIN
 90
        2
 91
        1
300
_HEADER
309
CELLSTYLE_END
300
CELLSTYLE
  1
TABLEFORMAT_BEGIN
 90
        5
170
     1
 91
        0
 92
        0
 62
   257
 93
        1
300
CONTENTFORMAT
  1
CONTENTFORMAT_BEGIN
 90
        0
 91
        0
 92
      512
 93
        0
300

 40
0.0
140
1.0
 94
        2
 62
     0
340
F
144
0.18
309
CONTENTFORMAT_END
171
     0
 94
        0
309
TABLEFORMAT_END
  1
CELLSTYLE_BEGIN
 90
        3
 91
        2
300
_DATA
309
CELLSTYLE_END
  0
XRECORD
  5
23C0
102
{ACAD_REACTORS
330
2389
102
}
330
2389
100
AcDbXrecord
280
     1
102
ACAD_ROUNDTRIP_PRE2007_TABLESTYLE
 90
      512
 91
        0
  1

 92
      512
 93
        0
  2

 94
      512
 95
        0
  3

  0
XRECORD
  5
239B
102
{ACAD_REACTORS
330
239A
102
}
330
239A
100
AcDbXrecord
280
     1
102
RTVSPost2010Prop28
280
     1
102
RTVSPost2010PropOp28
 70
     1
102
RTVSPost2010Prop29
280
     1
102
RTVSPost2010PropOp29
 70
     1
102
RTVSPost2010Prop30
280
     0
102
RTVSPost2010PropOp30
 70
     1
102
RTVSPost2010Prop31
280
     0
102
RTVSPost2010PropOp31
 70
     1
102
RTVSPost2010Prop32
280
     0
102
RTVSPost2010PropOp32
 70
     1
102
RTVSPost2010Prop33
280
     0
102
RTVSPost2010PropOp33
 70
     1
102
RTVSPost2010Prop34
280
     0
102
RTVSPost2010PropOp34
 70
     1
102
RTVSPost2010Prop35
280
     0
102
RTVSPost2010PropOp35
 70
     1
102
RTVSPost2010Prop36
280
     0
102
RTVSPost2010PropOp36
 70
     1
102
RTVSPost2010Prop37
 90
       50
102
RTVSPost2010PropOp37
 70
     1
102
RTVSPost2010Prop38
140
0.0
102
RTVSPost2010PropOp38
 70
     1
102
RTVSPost2010Prop39
140
1.0
102
RTVSPost2010PropOp39
 70
     1
102
RTVSPost2010Prop40
 90
        0
102
RTVSPost2010PropOp40
 70
     1
102
RTVSPost2010Prop41ColorIndex
 90
       18
102
RTVSPost2010Prop41ColorRGB
 90
        0
102
RTVSPost2010PropOp41
 70
     1
102
RTVSPost2010Prop42
 90
       50
102
RTVSPost2010PropOp42
 70
     1
102
RTVSPost2010Prop43
 90
        3
102
RTVSPost2010PropOp43
 70
     1
102
RTVSPost2010Prop44ColorIndex
 90
        5
102
RTVSPost2010Prop44ColorRGB
 90
      255
102
RTVSPost2010PropOp44
 70
     1
102
RTVSPost2010Prop45
280
     0
102
RTVSPost2010PropOp45
 70
     1
102
RTVSPost2010Prop46
 90
       50
102
RTVSPost2010PropOp46
 70
     1
102
RTVSPost2010Prop47
 90
       50
102
RTVSPost2010PropOp47
 70
     1
102
RTVSPost2010Prop48
 90
       50
102
RTVSPost2010PropOp48
 70
     1
102
RTVSPost2010Prop49
280
     0
102
RTVSPost2010PropOp49
 70
     1
102
RTVSPost2010Prop50
 90
       50
102
RTVSPost2010PropOp50
 70
     1
102
RTVSPost2010Prop51ColorIndex
 90
      256
102
RTVSPost2010Prop51ColorRGB
 90
-16777216
102
RTVSPost2010PropOp51
 70
     0
102
RTVSPost2010Prop52
140
1.0
102
RTVSPost2010PropOp52
 70
     0
102
RTVSPost2010Prop53
 90
        2
102
RTVSPost2010PropOp53
 70
     1
102
RTVSPost2010Prop54
  1
strokes_ogs.tif
102
RTVSPost2010PropOp54
 70
     1
102
RTVSPost2010Prop55
280
     0
102
RTVSPost2010PropOp55
 70
     1
102
RTVSPost2010Prop56
140
1.0
102
RTVSPost2010PropOp56
 70
     1
102
RTVSPost2010Prop57
140
1.0
102
RTVSPost2010PropOp57
 70
     1
102
RTVSPropertyOp0
 70
     1
102
RTVSPropertyOp1
 70
     1
102
RTVSPropertyOp2
 70
     1
102
RTVSPropertyOp3
 70
     1
102
RTVSPropertyOp4
 70
     1
102
RTVSPropertyOp5
 70
     1
102
RTVSPropertyOp6
 70
     1
102
RTVSPropertyOp7
 70
     1
102
RTVSPropertyOp8
 70
     1
102
RTVSPropertyOp9
 70
     1
102
RTVSPropertyOp10
 70
     1
102
RTVSPropertyOp11
 70
     1
102
RTVSPropertyOp12
 70
     1
102
RTVSPropertyOp13
 70
     1
102
RTVSPropertyOp14
 70
     1
102
RTVSPropertyOp15
 70
     1
102
RTVSPropertyOp16
 70
     1
102
RTVSPropertyOp17
 70
     1
102
RTVSPropertyOp18
 70
     1
102
RTVSPropertyOp19
 70
     1
102
RTVSPropertyOp20
 70
     1
102
RTVSPropertyOp21
 70
     1
102
RTVSPropertyOp22
 70
     1
102
RTVSPropertyOp23
 70
     1
102
RTVSPropertyOp24
 70
     1
102
RTVSPropertyOp25
 70
     1
102
RTVSPropertyOp26
 70
     1
102
RTVSPropertyOp27
 70
     1
102
RTVSPropertyOp28
 70
     1
102
RTVSPropertyOp29
 70
     1
102
RTVSPropertyOp30
 70
     1
102
RTVSPropertyOp31
 70
     1
102
RTVSPropertyOp32
 70
     1
102
RTVSPropertyOp33
 70
     1
102
RTVSPropertyOp34
 70
     1
102
RTVSPropertyOp35
 70
     1
102
RTVSPropertyOp36
 70
     1
102
RTVSPropertyOp37
 70
     1
102
RTVSPropertyOp38
 70
     1
102
RTVSPropertyOp39
 70
     1
102
RTVSPropertyOp40
 70
     1
102
RTVSPropertyOp41
 70
     1
102
RTVSPropertyOp42
 70
     1
102
RTVSPropertyOp43
 70
     1
102
RTVSPropertyOp44
 70
     1
102
RTVSPropertyOp45
 70
     1
102
RTVSPropertyOp46
 70
     1
102
RTVSPropertyOp47
 70
     1
102
RTVSPropertyOp48
 70
     1
102
RTVSPropertyOp49
 70
     1
102
RTVSPropertyOp50
 70
     1
102
RTVSPropertyOp51
 70
     0
102
RTVSPropertyOp52
 70
     0
102
RTVSPropertyOp53
 70
     1
102
RTVSPropertyOp54
 70
     1
102
RTVSPropertyOp55
 70
     1
102
RTVSPropertyOp56
 70
     1
102
RTVSPropertyOp57
 70
     1
102
RTVSPropertyOp58
 70
     1
102
RTVSPropertyOp59
 70
     1
102
RTVSPropertyOp60
 70
     1
102
RTVSPropertyOp61
 70
     1
102
RTVSPropertyOp62
 70
     1
  0
XRECORD
  5
2399
102
{ACAD_REACTORS
330
2398
102
}
330
2398
100
AcDbXrecord
280
     1
102
RTVSPost2010Prop28
280
     0
102
RTVSPost2010PropOp28
 70
     1
102
RTVSPost2010Prop29
280
     1
102
RTVSPost2010PropOp29
 70
     1
102
RTVSPost2010Prop30
280
     1
102
RTVSPost2010PropOp30
 70
     1
102
RTVSPost2010Prop31
280
     0
102
RTVSPost2010PropOp31
 70
     1
102
RTVSPost2010Prop32
280
     0
102
RTVSPost2010PropOp32
 70
     1
102
RTVSPost2010Prop33
280
     0
102
RTVSPost2010PropOp33
 70
     1
102
RTVSPost2010Prop34
280
     0
102
RTVSPost2010PropOp34
 70
     1
102
RTVSPost2010Prop35
280
     0
102
RTVSPost2010PropOp35
 70
     1
102
RTVSPost2010Prop36
280
     0
102
RTVSPost2010PropOp36
 70
     1
102
RTVSPost2010Prop37
 90
       50
102
RTVSPost2010PropOp37
 70
     1
102
RTVSPost2010Prop38
140
0.0
102
RTVSPost2010PropOp38
 70
     1
102
RTVSPost2010Prop39
140
1.0
102
RTVSPost2010PropOp39
 70
     1
102
RTVSPost2010Prop40
 90
        0
102
RTVSPost2010PropOp40
 70
     1
102
RTVSPost2010Prop41ColorIndex
 90
       18
102
RTVSPost2010Prop41ColorRGB
 90
        0
102
RTVSPost2010PropOp41
 70
     1
102
RTVSPost2010Prop42
 90
       50
102
RTVSPost2010PropOp42
 70
     1
102
RTVSPost2010Prop43
 90
        3
102
RTVSPost2010PropOp43
 70
     1
102
RTVSPost2010Prop44ColorIndex
 90
        5
102
RTVSPost2010Prop44ColorRGB
 90
      255
102
RTVSPost2010PropOp44
 70
     1
102
RTVSPost2010Prop45
280
     0
102
RTVSPost2010PropOp45
 70
     1
102
RTVSPost2010Prop46
 90
       50
102
RTVSPost2010PropOp46
 70
     1
102
RTVSPost2010Prop47
 90
       50
102
RTVSPost2010PropOp47
 70
     1
102
RTVSPost2010Prop48
 90
       50
102
RTVSPost2010PropOp48
 70
     1
102
RTVSPost2010Prop49
280
     0
102
RTVSPost2010PropOp49
 70
     1
102
RTVSPost2010Prop50
 90
       50
102
RTVSPost2010PropOp50
 70
     1
102
RTVSPost2010Prop51ColorIndex
 90
      256
102
RTVSPost2010Prop51ColorRGB
 90
-16777216
102
RTVSPost2010PropOp51
 70
     0
102
RTVSPost2010Prop52
140
1.0
102
RTVSPost2010PropOp52
 70
     0
102
RTVSPost2010Prop53
 90
        2
102
RTVSPost2010PropOp53
 70
     1
102
RTVSPost2010Prop54
  1
strokes_ogs.tif
102
RTVSPost2010PropOp54
 70
     1
102
RTVSPost2010Prop55
280
     0
102
RTVSPost2010PropOp55
 70
     1
102
RTVSPost2010Prop56
140
1.0
102
RTVSPost2010PropOp56
 70
     1
102
RTVSPost2010Prop57
140
1.0
102
RTVSPost2010PropOp57
 70
     1
102
RTVSPropertyOp0
 70
     1
102
RTVSPropertyOp1
 70
     1
102
RTVSPropertyOp2
 70
     1
102
RTVSPropertyOp3
 70
     1
102
RTVSPropertyOp4
 70
     1
102
RTVSPropertyOp5
 70
     1
102
RTVSPropertyOp6
 70
     1
102
RTVSPropertyOp7
 70
     1
102
RTVSPropertyOp8
 70
     1
102
RTVSPropertyOp9
 70
     1
102
RTVSPropertyOp10
 70
     1
102
RTVSPropertyOp11
 70
     1
102
RTVSPropertyOp12
 70
     1
102
RTVSPropertyOp13
 70
     1
102
RTVSPropertyOp14
 70
     1
102
RTVSPropertyOp15
 70
     1
102
RTVSPropertyOp16
 70
     1
102
RTVSPropertyOp17
 70
     1
102
RTVSPropertyOp18
 70
     1
102
RTVSPropertyOp19
 70
     1
102
RTVSPropertyOp20
 70
     1
102
RTVSPropertyOp21
 70
     1
102
RTVSPropertyOp22
 70
     1
102
RTVSPropertyOp23
 70
     1
102
RTVSPropertyOp24
 70
     1
102
RTVSPropertyOp25
 70
     1
102
RTVSPropertyOp26
 70
     1
102
RTVSPropertyOp27
 70
     1
102
RTVSPropertyOp28
 70
     1
102
RTVSPropertyOp29
 70
     1
102
RTVSPropertyOp30
 70
     1
102
RTVSPropertyOp31
 70
     1
102
RTVSPropertyOp32
 70
     1
102
RTVSPropertyOp33
 70
     1
102
RTVSPropertyOp34
 70
     1
102
RTVSPropertyOp35
 70
     1
102
RTVSPropertyOp36
 70
     1
102
RTVSPropertyOp37
 70
     1
102
RTVSPropertyOp38
 70
     1
102
RTVSPropertyOp39
 70
     1
102
RTVSPropertyOp40
 70
     1
102
RTVSPropertyOp41
 70
     1
102
RTVSPropertyOp42
 70
     1
102
RTVSPropertyOp43
 70
     1
102
RTVSPropertyOp44
 70
     1
102
RTVSPropertyOp45
 70
     1
102
RTVSPropertyOp46
 70
     1
102
RTVSPropertyOp47
 70
     1
102
RTVSPropertyOp48
 70
     1
102
RTVSPropertyOp49
 70
     1
102
RTVSPropertyOp50
 70
     1
102
RTVSPropertyOp51
 70
     0
102
RTVSPropertyOp52
 70
     0
102
RTVSPropertyOp53
 70
     1
102
RTVSPropertyOp54
 70
     1
102
RTVSPropertyOp55
 70
     1
102
RTVSPropertyOp56
 70
     1
102
RTVSPropertyOp57
 70
     1
102
RTVSPropertyOp58
 70
     1
102
RTVSPropertyOp59
 70
     1
102
RTVSPropertyOp60
 70
     1
102
RTVSPropertyOp61
 70
     1
102
RTVSPropertyOp62
 70
     1
  0
XRECORD
  5
23A7
102
{ACAD_REACTORS
330
23A6
102
}
330
23A6
100
AcDbXrecord
280
     1
102
RTVSPost2010Prop28
280
     0
102
RTVSPost2010PropOp28
 70
     1
102
RTVSPost2010Prop29
280
     1
102
RTVSPost2010PropOp29
 70
     1
102
RTVSPost2010Prop30
280
     1
102
RTVSPost2010PropOp30
 70
     1
102
RTVSPost2010Prop31
280
     0
102
RTVSPost2010PropOp31
 70
     1
102
RTVSPost2010Prop32
280
     0
102
RTVSPost2010PropOp32
 70
     1
102
RTVSPost2010Prop33
280
     0
102
RTVSPost2010PropOp33
 70
     1
102
RTVSPost2010Prop34
280
     0
102
RTVSPost2010PropOp34
 70
     1
102
RTVSPost2010Prop35
280
     0
102
RTVSPost2010PropOp35
 70
     1
102
RTVSPost2010Prop36
280
     0
102
RTVSPost2010PropOp36
 70
     1
102
RTVSPost2010Prop37
 90
       50
102
RTVSPost2010PropOp37
 70
     1
102
RTVSPost2010Prop38
140
0.0
102
RTVSPost2010PropOp38
 70
     1
102
RTVSPost2010Prop39
140
1.0
102
RTVSPost2010PropOp39
 70
     1
102
RTVSPost2010Prop40
 90
        0
102
RTVSPost2010PropOp40
 70
     1
102
RTVSPost2010Prop41ColorIndex
 90
       18
102
RTVSPost2010Prop41ColorRGB
 90
        0
102
RTVSPost2010PropOp41
 70
     1
102
RTVSPost2010Prop42
 90
       50
102
RTVSPost2010PropOp42
 70
     1
102
RTVSPost2010Prop43
 90
        3
102
RTVSPost2010PropOp43
 70
     1
102
RTVSPost2010Prop44ColorIndex
 90
        5
102
RTVSPost2010Prop44ColorRGB
 90
      255
102
RTVSPost2010PropOp44
 70
     1
102
RTVSPost2010Prop45
280
     0
102
RTVSPost2010PropOp45
 70
     1
102
RTVSPost2010Prop46
 90
       50
102
RTVSPost2010PropOp46
 70
     1
102
RTVSPost2010Prop47
 90
       50
102
RTVSPost2010PropOp47
 70
     1
102
RTVSPost2010Prop48
 90
       50
102
RTVSPost2010PropOp48
 70
     1
102
RTVSPost2010Prop49
280
     0
102
RTVSPost2010PropOp49
 70
     1
102
RTVSPost2010Prop50
 90
       50
102
RTVSPost2010PropOp50
 70
     1
102
RTVSPost2010Prop51ColorIndex
 90
      256
102
RTVSPost2010Prop51ColorRGB
 90
-16777216
102
RTVSPost2010PropOp51
 70
     0
102
RTVSPost2010Prop52
140
1.0
102
RTVSPost2010PropOp52
 70
     0
102
RTVSPost2010Prop53
 90
        2
102
RTVSPost2010PropOp53
 70
     1
102
RTVSPost2010Prop54
  1
strokes_ogs.tif
102
RTVSPost2010PropOp54
 70
     1
102
RTVSPost2010Prop55
280
     0
102
RTVSPost2010PropOp55
 70
     1
102
RTVSPost2010Prop56
140
1.0
102
RTVSPost2010PropOp56
 70
     1
102
RTVSPost2010Prop57
140
1.0
102
RTVSPost2010PropOp57
 70
     1
102
RTVSPropertyOp0
 70
     1
102
RTVSPropertyOp1
 70
     1
102
RTVSPropertyOp2
 70
     1
102
RTVSPropertyOp3
 70
     1
102
RTVSPropertyOp4
 70
     1
102
RTVSPropertyOp5
 70
     1
102
RTVSPropertyOp6
 70
     1
102
RTVSPropertyOp7
 70
     1
102
RTVSPropertyOp8
 70
     1
102
RTVSPropertyOp9
 70
     1
102
RTVSPropertyOp10
 70
     1
102
RTVSPropertyOp11
 70
     1
102
RTVSPropertyOp12
 70
     1
102
RTVSPropertyOp13
 70
     1
102
RTVSPropertyOp14
 70
     1
102
RTVSPropertyOp15
 70
     1
102
RTVSPropertyOp16
 70
     1
102
RTVSPropertyOp17
 70
     1
102
RTVSPropertyOp18
 70
     1
102
RTVSPropertyOp19
 70
     1
102
RTVSPropertyOp20
 70
     1
102
RTVSPropertyOp21
 70
     1
102
RTVSPropertyOp22
 70
     1
102
RTVSPropertyOp23
 70
     1
102
RTVSPropertyOp24
 70
     1
102
RTVSPropertyOp25
 70
     1
102
RTVSPropertyOp26
 70
     1
102
RTVSPropertyOp27
 70
     1
102
RTVSPropertyOp28
 70
     1
102
RTVSPropertyOp29
 70
     1
102
RTVSPropertyOp30
 70
     1
102
RTVSPropertyOp31
 70
     1
102
RTVSPropertyOp32
 70
     1
102
RTVSPropertyOp33
 70
     1
102
RTVSPropertyOp34
 70
     1
102
RTVSPropertyOp35
 70
     1
102
RTVSPropertyOp36
 70
     1
102
RTVSPropertyOp37
 70
     1
102
RTVSPropertyOp38
 70
     1
102
RTVSPropertyOp39
 70
     1
102
RTVSPropertyOp40
 70
     1
102
RTVSPropertyOp41
 70
     1
102
RTVSPropertyOp42
 70
     1
102
RTVSPropertyOp43
 70
     1
102
RTVSPropertyOp44
 70
     1
102
RTVSPropertyOp45
 70
     1
102
RTVSPropertyOp46
 70
     1
102
RTVSPropertyOp47
 70
     1
102
RTVSPropertyOp48
 70
     1
102
RTVSPropertyOp49
 70
     1
102
RTVSPropertyOp50
 70
     1
102
RTVSPropertyOp51
 70
     0
102
RTVSPropertyOp52
 70
     0
102
RTVSPropertyOp53
 70
     1
102
RTVSPropertyOp54
 70
     1
102
RTVSPropertyOp55
 70
     1
102
RTVSPropertyOp56
 70
     1
102
RTVSPropertyOp57
 70
     1
102
RTVSPropertyOp58
 70
     1
102
RTVSPropertyOp59
 70
     1
102
RTVSPropertyOp60
 70
     1
102
RTVSPropertyOp61
 70
     1
102
RTVSPropertyOp62
 70
     1
  0
XRECORD
  5
23AF
102
{ACAD_REACTORS
330
23AE
102
}
330
23AE
100
AcDbXrecord
280
     1
102
RTVSPost2010Prop28
280
     0
102
RTVSPost2010PropOp28
 70
     1
102
RTVSPost2010Prop29
280
     1
102
RTVSPost2010PropOp29
 70
     1
102
RTVSPost2010Prop30
280
     1
102
RTVSPost2010PropOp30
 70
     1
102
RTVSPost2010Prop31
280
     0
102
RTVSPost2010PropOp31
 70
     1
102
RTVSPost2010Prop32
280
     0
102
RTVSPost2010PropOp32
 70
     1
102
RTVSPost2010Prop33
280
     0
102
RTVSPost2010PropOp33
 70
     1
102
RTVSPost2010Prop34
280
     0
102
RTVSPost2010PropOp34
 70
     1
102
RTVSPost2010Prop35
280
     0
102
RTVSPost2010PropOp35
 70
     1
102
RTVSPost2010Prop36
280
     0
102
RTVSPost2010PropOp36
 70
     1
102
RTVSPost2010Prop37
 90
       50
102
RTVSPost2010PropOp37
 70
     1
102
RTVSPost2010Prop38
140
0.0
102
RTVSPost2010PropOp38
 70
     1
102
RTVSPost2010Prop39
140
1.0
102
RTVSPost2010PropOp39
 70
     1
102
RTVSPost2010Prop40
 90
        0
102
RTVSPost2010PropOp40
 70
     1
102
RTVSPost2010Prop41ColorIndex
 90
       18
102
RTVSPost2010Prop41ColorRGB
 90
        0
102
RTVSPost2010PropOp41
 70
     1
102
RTVSPost2010Prop42
 90
       50
102
RTVSPost2010PropOp42
 70
     1
102
RTVSPost2010Prop43
 90
        3
102
RTVSPost2010PropOp43
 70
     1
102
RTVSPost2010Prop44ColorIndex
 90
        5
102
RTVSPost2010Prop44ColorRGB
 90
      255
102
RTVSPost2010PropOp44
 70
     1
102
RTVSPost2010Prop45
280
     0
102
RTVSPost2010PropOp45
 70
     1
102
RTVSPost2010Prop46
 90
       50
102
RTVSPost2010PropOp46
 70
     1
102
RTVSPost2010Prop47
 90
       50
102
RTVSPost2010PropOp47
 70
     1
102
RTVSPost2010Prop48
 90
       50
102
RTVSPost2010PropOp48
 70
     1
102
RTVSPost2010Prop49
280
     0
102
RTVSPost2010PropOp49
 70
     1
102
RTVSPost2010Prop50
 90
       50
102
RTVSPost2010PropOp50
 70
     1
102
RTVSPost2010Prop51ColorIndex
 90
      256
102
RTVSPost2010Prop51ColorRGB
 90
-16777216
102
RTVSPost2010PropOp51
 70
     0
102
RTVSPost2010Prop52
140
1.0
102
RTVSPost2010PropOp52
 70
     0
102
RTVSPost2010Prop53
 90
        2
102
RTVSPost2010PropOp53
 70
     1
102
RTVSPost2010Prop54
  1
strokes_ogs.tif
102
RTVSPost2010PropOp54
 70
     1
102
RTVSPost2010Prop55
280
     0
102
RTVSPost2010PropOp55
 70
     1
102
RTVSPost2010Prop56
140
1.0
102
RTVSPost2010PropOp56
 70
     1
102
RTVSPost2010Prop57
140
1.0
102
RTVSPost2010PropOp57
 70
     1
102
RTVSPropertyOp0
 70
     1
102
RTVSPropertyOp1
 70
     1
102
RTVSPropertyOp2
 70
     1
102
RTVSPropertyOp3
 70
     1
102
RTVSPropertyOp4
 70
     1
102
RTVSPropertyOp5
 70
     1
102
RTVSPropertyOp6
 70
     1
102
RTVSPropertyOp7
 70
     1
102
RTVSPropertyOp8
 70
     1
102
RTVSPropertyOp9
 70
     1
102
RTVSPropertyOp10
 70
     1
102
RTVSPropertyOp11
 70
     1
102
RTVSPropertyOp12
 70
     1
102
RTVSPropertyOp13
 70
     1
102
RTVSPropertyOp14
 70
     1
102
RTVSPropertyOp15
 70
     1
102
RTVSPropertyOp16
 70
     1
102
RTVSPropertyOp17
 70
     1
102
RTVSPropertyOp18
 70
     1
102
RTVSPropertyOp19
 70
     1
102
RTVSPropertyOp20
 70
     1
102
RTVSPropertyOp21
 70
     1
102
RTVSPropertyOp22
 70
     1
102
RTVSPropertyOp23
 70
     1
102
RTVSPropertyOp24
 70
     1
102
RTVSPropertyOp25
 70
     1
102
RTVSPropertyOp26
 70
     1
102
RTVSPropertyOp27
 70
     1
102
RTVSPropertyOp28
 70
     1
102
RTVSPropertyOp29
 70
     1
102
RTVSPropertyOp30
 70
     1
102
RTVSPropertyOp31
 70
     1
102
RTVSPropertyOp32
 70
     1
102
RTVSPropertyOp33
 70
     1
102
RTVSPropertyOp34
 70
     1
102
RTVSPropertyOp35
 70
     1
102
RTVSPropertyOp36
 70
     1
102
RTVSPropertyOp37
 70
     1
102
RTVSPropertyOp38
 70
     1
102
RTVSPropertyOp39
 70
     1
102
RTVSPropertyOp40
 70
     1
102
RTVSPropertyOp41
 70
     1
102
RTVSPropertyOp42
 70
     1
102
RTVSPropertyOp43
 70
     1
102
RTVSPropertyOp44
 70
     1
102
RTVSPropertyOp45
 70
     1
102
RTVSPropertyOp46
 70
     1
102
RTVSPropertyOp47
 70
     1
102
RTVSPropertyOp48
 70
     1
102
RTVSPropertyOp49
 70
     1
102
RTVSPropertyOp50
 70
     1
102
RTVSPropertyOp51
 70
     0
102
RTVSPropertyOp52
 70
     0
102
RTVSPropertyOp53
 70
     1
102
RTVSPropertyOp54
 70
     1
102
RTVSPropertyOp55
 70
     1
102
RTVSPropertyOp56
 70
     1
102
RTVSPropertyOp57
 70
     1
102
RTVSPropertyOp58
 70
     1
102
RTVSPropertyOp59
 70
     1
102
RTVSPropertyOp60
 70
     1
102
RTVSPropertyOp61
 70
     1
102
RTVSPropertyOp62
 70
     1
  0
XRECORD
  5
23A1
102
{ACAD_REACTORS
330
23A0
102
}
330
23A0
100
AcDbXrecord
280
     1
102
RTVSPost2010Prop28
280
     0
102
RTVSPost2010PropOp28
 70
     1
102
RTVSPost2010Prop29
280
     1
102
RTVSPost2010PropOp29
 70
     1
102
RTVSPost2010Prop30
280
     1
102
RTVSPost2010PropOp30
 70
     1
102
RTVSPost2010Prop31
280
     0
102
RTVSPost2010PropOp31
 70
     1
102
RTVSPost2010Prop32
280
     0
102
RTVSPost2010PropOp32
 70
     1
102
RTVSPost2010Prop33
280
     0
102
RTVSPost2010PropOp33
 70
     1
102
RTVSPost2010Prop34
280
     0
102
RTVSPost2010PropOp34
 70
     1
102
RTVSPost2010Prop35
280
     0
102
RTVSPost2010PropOp35
 70
     1
102
RTVSPost2010Prop36
280
     0
102
RTVSPost2010PropOp36
 70
     1
102
RTVSPost2010Prop37
 90
       50
102
RTVSPost2010PropOp37
 70
     1
102
RTVSPost2010Prop38
140
0.0
102
RTVSPost2010PropOp38
 70
     1
102
RTVSPost2010Prop39
140
1.0
102
RTVSPost2010PropOp39
 70
     1
102
RTVSPost2010Prop40
 90
        0
102
RTVSPost2010PropOp40
 70
     1
102
RTVSPost2010Prop41ColorIndex
 90
       18
102
RTVSPost2010Prop41ColorRGB
 90
        0
102
RTVSPost2010PropOp41
 70
     1
102
RTVSPost2010Prop42
 90
       50
102
RTVSPost2010PropOp42
 70
     1
102
RTVSPost2010Prop43
 90
        3
102
RTVSPost2010PropOp43
 70
     1
102
RTVSPost2010Prop44ColorIndex
 90
        5
102
RTVSPost2010Prop44ColorRGB
 90
      255
102
RTVSPost2010PropOp44
 70
     1
102
RTVSPost2010Prop45
280
     0
102
RTVSPost2010PropOp45
 70
     1
102
RTVSPost2010Prop46
 90
       50
102
RTVSPost2010PropOp46
 70
     1
102
RTVSPost2010Prop47
 90
       50
102
RTVSPost2010PropOp47
 70
     1
102
RTVSPost2010Prop48
 90
       50
102
RTVSPost2010PropOp48
 70
     1
102
RTVSPost2010Prop49
280
     0
102
RTVSPost2010PropOp49
 70
     1
102
RTVSPost2010Prop50
 90
       50
102
RTVSPost2010PropOp50
 70
     1
102
RTVSPost2010Prop51ColorIndex
 90
      256
102
RTVSPost2010Prop51ColorRGB
 90
-16777216
102
RTVSPost2010PropOp51
 70
     0
102
RTVSPost2010Prop52
140
1.0
102
RTVSPost2010PropOp52
 70
     0
102
RTVSPost2010Prop53
 90
        2
102
RTVSPost2010PropOp53
 70
     1
102
RTVSPost2010Prop54
  1
strokes_ogs.tif
102
RTVSPost2010PropOp54
 70
     1
102
RTVSPost2010Prop55
280
     0
102
RTVSPost2010PropOp55
 70
     1
102
RTVSPost2010Prop56
140
1.0
102
RTVSPost2010PropOp56
 70
     1
102
RTVSPost2010Prop57
140
1.0
102
RTVSPost2010PropOp57
 70
     1
102
RTVSPropertyOp0
 70
     1
102
RTVSPropertyOp1
 70
     1
102
RTVSPropertyOp2
 70
     1
102
RTVSPropertyOp3
 70
     1
102
RTVSPropertyOp4
 70
     1
102
RTVSPropertyOp5
 70
     1
102
RTVSPropertyOp6
 70
     1
102
RTVSPropertyOp7
 70
     1
102
RTVSPropertyOp8
 70
     1
102
RTVSPropertyOp9
 70
     1
102
RTVSPropertyOp10
 70
     1
102
RTVSPropertyOp11
 70
     1
102
RTVSPropertyOp12
 70
     1
102
RTVSPropertyOp13
 70
     1
102
RTVSPropertyOp14
 70
     1
102
RTVSPropertyOp15
 70
     1
102
RTVSPropertyOp16
 70
     1
102
RTVSPropertyOp17
 70
     1
102
RTVSPropertyOp18
 70
     1
102
RTVSPropertyOp19
 70
     1
102
RTVSPropertyOp20
 70
     1
102
RTVSPropertyOp21
 70
     1
102
RTVSPropertyOp22
 70
     1
102
RTVSPropertyOp23
 70
     1
102
RTVSPropertyOp24
 70
     1
102
RTVSPropertyOp25
 70
     1
102
RTVSPropertyOp26
 70
     1
102
RTVSPropertyOp27
 70
     1
102
RTVSPropertyOp28
 70
     1
102
RTVSPropertyOp29
 70
     1
102
RTVSPropertyOp30
 70
     1
102
RTVSPropertyOp31
 70
     1
102
RTVSPropertyOp32
 70
     1
102
RTVSPropertyOp33
 70
     1
102
RTVSPropertyOp34
 70
     1
102
RTVSPropertyOp35
 70
     1
102
RTVSPropertyOp36
 70
     1
102
RTVSPropertyOp37
 70
     1
102
RTVSPropertyOp38
 70
     1
102
RTVSPropertyOp39
 70
     1
102
RTVSPropertyOp40
 70
     1
102
RTVSPropertyOp41
 70
     1
102
RTVSPropertyOp42
 70
     1
102
RTVSPropertyOp43
 70
     1
102
RTVSPropertyOp44
 70
     1
102
RTVSPropertyOp45
 70
     1
102
RTVSPropertyOp46
 70
     1
102
RTVSPropertyOp47
 70
     1
102
RTVSPropertyOp48
 70
     1
102
RTVSPropertyOp49
 70
     1
102
RTVSPropertyOp50
 70
     1
102
RTVSPropertyOp51
 70
     0
102
RTVSPropertyOp52
 70
     0
102
RTVSPropertyOp53
 70
     1
102
RTVSPropertyOp54
 70
     1
102
RTVSPropertyOp55
 70
     1
102
RTVSPropertyOp56
 70
     1
102
RTVSPropertyOp57
 70
     1
102
RTVSPropertyOp58
 70
     1
102
RTVSPropertyOp59
 70
     1
102
RTVSPropertyOp60
 70
     1
102
RTVSPropertyOp61
 70
     1
102
RTVSPropertyOp62
 70
     1
  0
XRECORD
  5
23A5
102
{ACAD_REACTORS
330
23A4
102
}
330
23A4
100
AcDbXrecord
280
     1
102
RTVSPost2010Prop28
280
     0
102
RTVSPost2010PropOp28
 70
     1
102
RTVSPost2010Prop29
280
     1
102
RTVSPost2010PropOp29
 70
     1
102
RTVSPost2010Prop30
280
     1
102
RTVSPost2010PropOp30
 70
     1
102
RTVSPost2010Prop31
280
     0
102
RTVSPost2010PropOp31
 70
     1
102
RTVSPost2010Prop32
280
     0
102
RTVSPost2010PropOp32
 70
     1
102
RTVSPost2010Prop33
280
     0
102
RTVSPost2010PropOp33
 70
     1
102
RTVSPost2010Prop34
280
     0
102
RTVSPost2010PropOp34
 70
     1
102
RTVSPost2010Prop35
280
     0
102
RTVSPost2010PropOp35
 70
     1
102
RTVSPost2010Prop36
280
     0
102
RTVSPost2010PropOp36
 70
     1
102
RTVSPost2010Prop37
 90
       50
102
RTVSPost2010PropOp37
 70
     1
102
RTVSPost2010Prop38
140
0.0
102
RTVSPost2010PropOp38
 70
     1
102
RTVSPost2010Prop39
140
1.0
102
RTVSPost2010PropOp39
 70
     1
102
RTVSPost2010Prop40
 90
        0
102
RTVSPost2010PropOp40
 70
     1
102
RTVSPost2010Prop41ColorIndex
 90
       18
102
RTVSPost2010Prop41ColorRGB
 90
        0
102
RTVSPost2010PropOp41
 70
     1
102
RTVSPost2010Prop42
 90
       50
102
RTVSPost2010PropOp42
 70
     1
102
RTVSPost2010Prop43
 90
        3
102
RTVSPost2010PropOp43
 70
     1
102
RTVSPost2010Prop44ColorIndex
 90
        5
102
RTVSPost2010Prop44ColorRGB
 90
      255
102
RTVSPost2010PropOp44
 70
     1
102
RTVSPost2010Prop45
280
     0
102
RTVSPost2010PropOp45
 70
     1
102
RTVSPost2010Prop46
 90
       50
102
RTVSPost2010PropOp46
 70
     1
102
RTVSPost2010Prop47
 90
       50
102
RTVSPost2010PropOp47
 70
     1
102
RTVSPost2010Prop48
 90
       50
102
RTVSPost2010PropOp48
 70
     1
102
RTVSPost2010Prop49
280
     0
102
RTVSPost2010PropOp49
 70
     1
102
RTVSPost2010Prop50
 90
       50
102
RTVSPost2010PropOp50
 70
     1
102
RTVSPost2010Prop51ColorIndex
 90
      256
102
RTVSPost2010Prop51ColorRGB
 90
-16777216
102
RTVSPost2010PropOp51
 70
     0
102
RTVSPost2010Prop52
140
1.0
102
RTVSPost2010PropOp52
 70
     0
102
RTVSPost2010Prop53
 90
        2
102
RTVSPost2010PropOp53
 70
     1
102
RTVSPost2010Prop54
  1
strokes_ogs.tif
102
RTVSPost2010PropOp54
 70
     1
102
RTVSPost2010Prop55
280
     0
102
RTVSPost2010PropOp55
 70
     1
102
RTVSPost2010Prop56
140
1.0
102
RTVSPost2010PropOp56
 70
     1
102
RTVSPost2010Prop57
140
1.0
102
RTVSPost2010PropOp57
 70
     1
102
RTVSPropertyOp0
 70
     1
102
RTVSPropertyOp1
 70
     1
102
RTVSPropertyOp2
 70
     1
102
RTVSPropertyOp3
 70
     1
102
RTVSPropertyOp4
 70
     1
102
RTVSPropertyOp5
 70
     1
102
RTVSPropertyOp6
 70
     1
102
RTVSPropertyOp7
 70
     1
102
RTVSPropertyOp8
 70
     1
102
RTVSPropertyOp9
 70
     1
102
RTVSPropertyOp10
 70
     1
102
RTVSPropertyOp11
 70
     1
102
RTVSPropertyOp12
 70
     1
102
RTVSPropertyOp13
 70
     1
102
RTVSPropertyOp14
 70
     1
102
RTVSPropertyOp15
 70
     1
102
RTVSPropertyOp16
 70
     1
102
RTVSPropertyOp17
 70
     1
102
RTVSPropertyOp18
 70
     1
102
RTVSPropertyOp19
 70
     1
102
RTVSPropertyOp20
 70
     1
102
RTVSPropertyOp21
 70
     1
102
RTVSPropertyOp22
 70
     1
102
RTVSPropertyOp23
 70
     1
102
RTVSPropertyOp24
 70
     1
102
RTVSPropertyOp25
 70
     1
102
RTVSPropertyOp26
 70
     1
102
RTVSPropertyOp27
 70
     1
102
RTVSPropertyOp28
 70
     1
102
RTVSPropertyOp29
 70
     1
102
RTVSPropertyOp30
 70
     1
102
RTVSPropertyOp31
 70
     1
102
RTVSPropertyOp32
 70
     1
102
RTVSPropertyOp33
 70
     1
102
RTVSPropertyOp34
 70
     1
102
RTVSPropertyOp35
 70
     1
102
RTVSPropertyOp36
 70
     1
102
RTVSPropertyOp37
 70
     1
102
RTVSPropertyOp38
 70
     1
102
RTVSPropertyOp39
 70
     1
102
RTVSPropertyOp40
 70
     1
102
RTVSPropertyOp41
 70
     1
102
RTVSPropertyOp42
 70
     1
102
RTVSPropertyOp43
 70
     1
102
RTVSPropertyOp44
 70
     1
102
RTVSPropertyOp45
 70
     1
102
RTVSPropertyOp46
 70
     1
102
RTVSPropertyOp47
 70
     1
102
RTVSPropertyOp48
 70
     1
102
RTVSPropertyOp49
 70
     1
102
RTVSPropertyOp50
 70
     1
102
RTVSPropertyOp51
 70
     0
102
RTVSPropertyOp52
 70
     0
102
RTVSPropertyOp53
 70
     1
102
RTVSPropertyOp54
 70
     1
102
RTVSPropertyOp55
 70
     1
102
RTVSPropertyOp56
 70
     1
102
RTVSPropertyOp57
 70
     1
102
RTVSPropertyOp58
 70
     1
102
RTVSPropertyOp59
 70
     1
102
RTVSPropertyOp60
 70
     1
102
RTVSPropertyOp61
 70
     1
102
RTVSPropertyOp62
 70
     1
  0
XRECORD
  5
23BF
102
{ACAD_REACTORS
330
23BE
102
}
330
23BE
100
AcDbXrecord
280
     1
102
RTVSPost2010Prop28
280
     0
102
RTVSPost2010PropOp28
 70
     1
102
RTVSPost2010Prop29
280
     1
102
RTVSPost2010PropOp29
 70
     1
102
RTVSPost2010Prop30
280
     1
102
RTVSPost2010PropOp30
 70
     1
102
RTVSPost2010Prop31
280
     0
102
RTVSPost2010PropOp31
 70
     1
102
RTVSPost2010Prop32
280
     0
102
RTVSPost2010PropOp32
 70
     1
102
RTVSPost2010Prop33
280
     0
102
RTVSPost2010PropOp33
 70
     1
102
RTVSPost2010Prop34
280
     0
102
RTVSPost2010PropOp34
 70
     1
102
RTVSPost2010Prop35
280
     0
102
RTVSPost2010PropOp35
 70
     1
102
RTVSPost2010Prop36
280
     0
102
RTVSPost2010PropOp36
 70
     1
102
RTVSPost2010Prop37
 90
       50
102
RTVSPost2010PropOp37
 70
     0
102
RTVSPost2010Prop38
140
0.0
102
RTVSPost2010PropOp38
 70
     0
102
RTVSPost2010Prop39
140
1.0
102
RTVSPost2010PropOp39
 70
     0
102
RTVSPost2010Prop40
 90
        0
102
RTVSPost2010PropOp40
 70
     0
102
RTVSPost2010Prop41ColorIndex
 90
       18
102
RTVSPost2010Prop41ColorRGB
 90
        0
102
RTVSPost2010PropOp41
 70
     0
102
RTVSPost2010Prop42
 90
       50
102
RTVSPost2010PropOp42
 70
     0
102
RTVSPost2010Prop43
 90
        3
102
RTVSPost2010PropOp43
 70
     0
102
RTVSPost2010Prop44ColorIndex
 90
        5
102
RTVSPost2010Prop44ColorRGB
 90
      255
102
RTVSPost2010PropOp44
 70
     0
102
RTVSPost2010Prop45
280
     0
102
RTVSPost2010PropOp45
 70
     1
102
RTVSPost2010Prop46
 90
       50
102
RTVSPost2010PropOp46
 70
     0
102
RTVSPost2010Prop47
 90
       50
102
RTVSPost2010PropOp47
 70
     0
102
RTVSPost2010Prop48
 90
       50
102
RTVSPost2010PropOp48
 70
     0
102
RTVSPost2010Prop49
280
     0
102
RTVSPost2010PropOp49
 70
     1
102
RTVSPost2010Prop50
 90
       50
102
RTVSPost2010PropOp50
 70
     0
102
RTVSPost2010Prop51ColorIndex
 90
      256
102
RTVSPost2010Prop51ColorRGB
 90
-16777216
102
RTVSPost2010PropOp51
 70
     0
102
RTVSPost2010Prop52
140
1.0
102
RTVSPost2010PropOp52
 70
     0
102
RTVSPost2010Prop53
 90
        2
102
RTVSPost2010PropOp53
 70
     0
102
RTVSPost2010Prop54
  1
strokes_ogs.tif
102
RTVSPost2010PropOp54
 70
     0
102
RTVSPost2010Prop55
280
     0
102
RTVSPost2010PropOp55
 70
     1
102
RTVSPost2010Prop56
140
1.0
102
RTVSPost2010PropOp56
 70
     0
102
RTVSPost2010Prop57
140
1.0
102
RTVSPost2010PropOp57
 70
     0
102
RTVSPropertyOp0
 70
     0
102
RTVSPropertyOp1
 70
     0
102
RTVSPropertyOp2
 70
     0
102
RTVSPropertyOp3
 70
     0
102
RTVSPropertyOp4
 70
     0
102
RTVSPropertyOp5
 70
     0
102
RTVSPropertyOp6
 70
     0
102
RTVSPropertyOp7
 70
     0
102
RTVSPropertyOp8
 70
     0
102
RTVSPropertyOp9
 70
     0
102
RTVSPropertyOp10
 70
     0
102
RTVSPropertyOp11
 70
     0
102
RTVSPropertyOp12
 70
     0
102
RTVSPropertyOp13
 70
     0
102
RTVSPropertyOp14
 70
     2
102
RTVSPropertyOp15
 70
     0
102
RTVSPropertyOp16
 70
     0
102
RTVSPropertyOp17
 70
     0
102
RTVSPropertyOp18
 70
     0
102
RTVSPropertyOp19
 70
     0
102
RTVSPropertyOp20
 70
     0
102
RTVSPropertyOp21
 70
     0
102
RTVSPropertyOp22
 70
     0
102
RTVSPropertyOp23
 70
     0
102
RTVSPropertyOp24
 70
     0
102
RTVSPropertyOp25
 70
     0
102
RTVSPropertyOp26
 70
     0
102
RTVSPropertyOp27
 70
     0
102
RTVSPropertyOp28
 70
     1
102
RTVSPropertyOp29
 70
     1
102
RTVSPropertyOp30
 70
     1
102
RTVSPropertyOp31
 70
     1
102
RTVSPropertyOp32
 70
     1
102
RTVSPropertyOp33
 70
     1
102
RTVSPropertyOp34
 70
     1
102
RTVSPropertyOp35
 70
     1
102
RTVSPropertyOp36
 70
     1
102
RTVSPropertyOp37
 70
     0
102
RTVSPropertyOp38
 70
     0
102
RTVSPropertyOp39
 70
     0
102
RTVSPropertyOp40
 70
     0
102
RTVSPropertyOp41
 70
     0
102
RTVSPropertyOp42
 70
     0
102
RTVSPropertyOp43
 70
     0
102
RTVSPropertyOp44
 70
     0
102
RTVSPropertyOp45
 70
     1
102
RTVSPropertyOp46
 70
     0
102
RTVSPropertyOp47
 70
     0
102
RTVSPropertyOp48
 70
     0
102
RTVSPropertyOp49
 70
     1
102
RTVSPropertyOp50
 70
     0
102
RTVSPropertyOp51
 70
     0
102
RTVSPropertyOp52
 70
     0
102
RTVSPropertyOp53
 70
     0
102
RTVSPropertyOp54
 70
     0
102
RTVSPropertyOp55
 70
     1
102
RTVSPropertyOp56
 70
     0
102
RTVSPropertyOp57
 70
     0
102
RTVSPropertyOp58
 70
     0
102
RTVSPropertyOp59
 70
     0
102
RTVSPropertyOp60
 70
     0
102
RTVSPropertyOp61
 70
     0
102
RTVSPropertyOp62
 70
     0
  0
XRECORD
  5
23AD
102
{ACAD_REACTORS
330
23AC
102
}
330
23AC
100
AcDbXrecord
280
     1
102
RTVSPost2010Prop28
280
     0
102
RTVSPost2010PropOp28
 70
     1
102
RTVSPost2010Prop29
280
     1
102
RTVSPost2010PropOp29
 70
     1
102
RTVSPost2010Prop30
280
     1
102
RTVSPost2010PropOp30
 70
     1
102
RTVSPost2010Prop31
280
     0
102
RTVSPost2010PropOp31
 70
     1
102
RTVSPost2010Prop32
280
     0
102
RTVSPost2010PropOp32
 70
     1
102
RTVSPost2010Prop33
280
     0
102
RTVSPost2010PropOp33
 70
     1
102
RTVSPost2010Prop34
280
     0
102
RTVSPost2010PropOp34
 70
     1
102
RTVSPost2010Prop35
280
     0
102
RTVSPost2010PropOp35
 70
     1
102
RTVSPost2010Prop36
280
     0
102
RTVSPost2010PropOp36
 70
     1
102
RTVSPost2010Prop37
 90
       50
102
RTVSPost2010PropOp37
 70
     1
102
RTVSPost2010Prop38
140
0.0
102
RTVSPost2010PropOp38
 70
     1
102
RTVSPost2010Prop39
140
1.0
102
RTVSPost2010PropOp39
 70
     1
102
RTVSPost2010Prop40
 90
        0
102
RTVSPost2010PropOp40
 70
     1
102
RTVSPost2010Prop41ColorIndex
 90
       18
102
RTVSPost2010Prop41ColorRGB
 90
        0
102
RTVSPost2010PropOp41
 70
     1
102
RTVSPost2010Prop42
 90
       50
102
RTVSPost2010PropOp42
 70
     1
102
RTVSPost2010Prop43
 90
        3
102
RTVSPost2010PropOp43
 70
     1
102
RTVSPost2010Prop44ColorIndex
 90
        5
102
RTVSPost2010Prop44ColorRGB
 90
      255
102
RTVSPost2010PropOp44
 70
     1
102
RTVSPost2010Prop45
280
     0
102
RTVSPost2010PropOp45
 70
     1
102
RTVSPost2010Prop46
 90
       50
102
RTVSPost2010PropOp46
 70
     1
102
RTVSPost2010Prop47
 90
       50
102
RTVSPost2010PropOp47
 70
     1
102
RTVSPost2010Prop48
 90
       50
102
RTVSPost2010PropOp48
 70
     1
102
RTVSPost2010Prop49
280
     0
102
RTVSPost2010PropOp49
 70
     1
102
RTVSPost2010Prop50
 90
       50
102
RTVSPost2010PropOp50
 70
     1
102
RTVSPost2010Prop51ColorIndex
 90
      256
102
RTVSPost2010Prop51ColorRGB
 90
-16777216
102
RTVSPost2010PropOp51
 70
     0
102
RTVSPost2010Prop52
140
1.0
102
RTVSPost2010PropOp52
 70
     0
102
RTVSPost2010Prop53
 90
        2
102
RTVSPost2010PropOp53
 70
     1
102
RTVSPost2010Prop54
  1
strokes_ogs.tif
102
RTVSPost2010PropOp54
 70
     1
102
RTVSPost2010Prop55
280
     0
102
RTVSPost2010PropOp55
 70
     1
102
RTVSPost2010Prop56
140
1.0
102
RTVSPost2010PropOp56
 70
     1
102
RTVSPost2010Prop57
140
1.0
102
RTVSPost2010PropOp57
 70
     1
102
RTVSPropertyOp0
 70
     1
102
RTVSPropertyOp1
 70
     1
102
RTVSPropertyOp2
 70
     1
102
RTVSPropertyOp3
 70
     1
102
RTVSPropertyOp4
 70
     1
102
RTVSPropertyOp5
 70
     1
102
RTVSPropertyOp6
 70
     1
102
RTVSPropertyOp7
 70
     1
102
RTVSPropertyOp8
 70
     1
102
RTVSPropertyOp9
 70
     1
102
RTVSPropertyOp10
 70
     1
102
RTVSPropertyOp11
 70
     1
102
RTVSPropertyOp12
 70
     1
102
RTVSPropertyOp13
 70
     1
102
RTVSPropertyOp14
 70
     1
102
RTVSPropertyOp15
 70
     1
102
RTVSPropertyOp16
 70
     1
102
RTVSPropertyOp17
 70
     1
102
RTVSPropertyOp18
 70
     1
102
RTVSPropertyOp19
 70
     1
102
RTVSPropertyOp20
 70
     1
102
RTVSPropertyOp21
 70
     1
102
RTVSPropertyOp22
 70
     1
102
RTVSPropertyOp23
 70
     1
102
RTVSPropertyOp24
 70
     1
102
RTVSPropertyOp25
 70
     1
102
RTVSPropertyOp26
 70
     1
102
RTVSPropertyOp27
 70
     1
102
RTVSPropertyOp28
 70
     1
102
RTVSPropertyOp29
 70
     1
102
RTVSPropertyOp30
 70
     1
102
RTVSPropertyOp31
 70
     1
102
RTVSPropertyOp32
 70
     1
102
RTVSPropertyOp33
 70
     1
102
RTVSPropertyOp34
 70
     1
102
RTVSPropertyOp35
 70
     1
102
RTVSPropertyOp36
 70
     1
102
RTVSPropertyOp37
 70
     1
102
RTVSPropertyOp38
 70
     1
102
RTVSPropertyOp39
 70
     1
102
RTVSPropertyOp40
 70
     1
102
RTVSPropertyOp41
 70
     1
102
RTVSPropertyOp42
 70
     1
102
RTVSPropertyOp43
 70
     1
102
RTVSPropertyOp44
 70
     1
102
RTVSPropertyOp45
 70
     1
102
RTVSPropertyOp46
 70
     1
102
RTVSPropertyOp47
 70
     1
102
RTVSPropertyOp48
 70
     1
102
RTVSPropertyOp49
 70
     1
102
RTVSPropertyOp50
 70
     1
102
RTVSPropertyOp51
 70
     0
102
RTVSPropertyOp52
 70
     0
102
RTVSPropertyOp53
 70
     1
102
RTVSPropertyOp54
 70
     1
102
RTVSPropertyOp55
 70
     1
102
RTVSPropertyOp56
 70
     1
102
RTVSPropertyOp57
 70
     1
102
RTVSPropertyOp58
 70
     1
102
RTVSPropertyOp59
 70
     1
102
RTVSPropertyOp60
 70
     1
102
RTVSPropertyOp61
 70
     1
102
RTVSPropertyOp62
 70
     1
  0
XRECORD
  5
2391
102
{ACAD_REACTORS
330
2390
102
}
330
2390
100
AcDbXrecord
280
     1
102
RTVSPost2010Prop28
280
     0
102
RTVSPost2010PropOp28
 70
     1
102
RTVSPost2010Prop29
280
     1
102
RTVSPost2010PropOp29
 70
     1
102
RTVSPost2010Prop30
280
     1
102
RTVSPost2010PropOp30
 70
     1
102
RTVSPost2010Prop31
280
     0
102
RTVSPost2010PropOp31
 70
     1
102
RTVSPost2010Prop32
280
     0
102
RTVSPost2010PropOp32
 70
     1
102
RTVSPost2010Prop33
280
     0
102
RTVSPost2010PropOp33
 70
     1
102
RTVSPost2010Prop34
280
     0
102
RTVSPost2010PropOp34
 70
     1
102
RTVSPost2010Prop35
280
     0
102
RTVSPost2010PropOp35
 70
     1
102
RTVSPost2010Prop36
280
     0
102
RTVSPost2010PropOp36
 70
     1
102
RTVSPost2010Prop37
 90
       50
102
RTVSPost2010PropOp37
 70
     1
102
RTVSPost2010Prop38
140
0.0
102
RTVSPost2010PropOp38
 70
     1
102
RTVSPost2010Prop39
140
1.0
102
RTVSPost2010PropOp39
 70
     1
102
RTVSPost2010Prop40
 90
        0
102
RTVSPost2010PropOp40
 70
     1
102
RTVSPost2010Prop41ColorIndex
 90
       18
102
RTVSPost2010Prop41ColorRGB
 90
        0
102
RTVSPost2010PropOp41
 70
     1
102
RTVSPost2010Prop42
 90
       50
102
RTVSPost2010PropOp42
 70
     1
102
RTVSPost2010Prop43
 90
        3
102
RTVSPost2010PropOp43
 70
     1
102
RTVSPost2010Prop44ColorIndex
 90
        5
102
RTVSPost2010Prop44ColorRGB
 90
      255
102
RTVSPost2010PropOp44
 70
     1
102
RTVSPost2010Prop45
280
     0
102
RTVSPost2010PropOp45
 70
     1
102
RTVSPost2010Prop46
 90
       50
102
RTVSPost2010PropOp46
 70
     1
102
RTVSPost2010Prop47
 90
       50
102
RTVSPost2010PropOp47
 70
     1
102
RTVSPost2010Prop48
 90
       50
102
RTVSPost2010PropOp48
 70
     1
102
RTVSPost2010Prop49
280
     0
102
RTVSPost2010PropOp49
 70
     1
102
RTVSPost2010Prop50
 90
       50
102
RTVSPost2010PropOp50
 70
     1
102
RTVSPost2010Prop51ColorIndex
 90
      256
102
RTVSPost2010Prop51ColorRGB
 90
-16777216
102
RTVSPost2010PropOp51
 70
     0
102
RTVSPost2010Prop52
140
1.0
102
RTVSPost2010PropOp52
 70
     0
102
RTVSPost2010Prop53
 90
        2
102
RTVSPost2010PropOp53
 70
     1
102
RTVSPost2010Prop54
  1
strokes_ogs.tif
102
RTVSPost2010PropOp54
 70
     1
102
RTVSPost2010Prop55
280
     0
102
RTVSPost2010PropOp55
 70
     1
102
RTVSPost2010Prop56
140
1.0
102
RTVSPost2010PropOp56
 70
     1
102
RTVSPost2010Prop57
140
1.0
102
RTVSPost2010PropOp57
 70
     1
102
RTVSPropertyOp0
 70
     1
102
RTVSPropertyOp1
 70
     1
102
RTVSPropertyOp2
 70
     1
102
RTVSPropertyOp3
 70
     1
102
RTVSPropertyOp4
 70
     1
102
RTVSPropertyOp5
 70
     1
102
RTVSPropertyOp6
 70
     1
102
RTVSPropertyOp7
 70
     1
102
RTVSPropertyOp8
 70
     1
102
RTVSPropertyOp9
 70
     1
102
RTVSPropertyOp10
 70
     1
102
RTVSPropertyOp11
 70
     1
102
RTVSPropertyOp12
 70
     1
102
RTVSPropertyOp13
 70
     1
102
RTVSPropertyOp14
 70
     1
102
RTVSPropertyOp15
 70
     1
102
RTVSPropertyOp16
 70
     1
102
RTVSPropertyOp17
 70
     1
102
RTVSPropertyOp18
 70
     1
102
RTVSPropertyOp19
 70
     1
102
RTVSPropertyOp20
 70
     1
102
RTVSPropertyOp21
 70
     1
102
RTVSPropertyOp22
 70
     1
102
RTVSPropertyOp23
 70
     1
102
RTVSPropertyOp24
 70
     1
102
RTVSPropertyOp25
 70
     1
102
RTVSPropertyOp26
 70
     1
102
RTVSPropertyOp27
 70
     1
102
RTVSPropertyOp28
 70
     1
102
RTVSPropertyOp29
 70
     1
102
RTVSPropertyOp30
 70
     1
102
RTVSPropertyOp31
 70
     1
102
RTVSPropertyOp32
 70
     1
102
RTVSPropertyOp33
 70
     1
102
RTVSPropertyOp34
 70
     1
102
RTVSPropertyOp35
 70
     1
102
RTVSPropertyOp36
 70
     1
102
RTVSPropertyOp37
 70
     1
102
RTVSPropertyOp38
 70
     1
102
RTVSPropertyOp39
 70
     1
102
RTVSPropertyOp40
 70
     1
102
RTVSPropertyOp41
 70
     1
102
RTVSPropertyOp42
 70
     1
102
RTVSPropertyOp43
 70
     1
102
RTVSPropertyOp44
 70
     1
102
RTVSPropertyOp45
 70
     1
102
RTVSPropertyOp46
 70
     1
102
RTVSPropertyOp47
 70
     1
102
RTVSPropertyOp48
 70
     1
102
RTVSPropertyOp49
 70
     1
102
RTVSPropertyOp50
 70
     1
102
RTVSPropertyOp51
 70
     0
102
RTVSPropertyOp52
 70
     0
102
RTVSPropertyOp53
 70
     1
102
RTVSPropertyOp54
 70
     1
102
RTVSPropertyOp55
 70
     1
102
RTVSPropertyOp56
 70
     1
102
RTVSPropertyOp57
 70
     1
102
RTVSPropertyOp58
 70
     1
102
RTVSPropertyOp59
 70
     1
102
RTVSPropertyOp60
 70
     1
102
RTVSPropertyOp61
 70
     1
102
RTVSPropertyOp62
 70
     1
  0
XRECORD
  5
2393
102
{ACAD_REACTORS
330
2392
102
}
330
2392
100
AcDbXrecord
280
     1
102
RTVSPost2010Prop28
280
     0
102
RTVSPost2010PropOp28
 70
     1
102
RTVSPost2010Prop29
280
     1
102
RTVSPost2010PropOp29
 70
     1
102
RTVSPost2010Prop30
280
     1
102
RTVSPost2010PropOp30
 70
     1
102
RTVSPost2010Prop31
280
     0
102
RTVSPost2010PropOp31
 70
     1
102
RTVSPost2010Prop32
280
     0
102
RTVSPost2010PropOp32
 70
     1
102
RTVSPost2010Prop33
280
     0
102
RTVSPost2010PropOp33
 70
     1
102
RTVSPost2010Prop34
280
     0
102
RTVSPost2010PropOp34
 70
     1
102
RTVSPost2010Prop35
280
     0
102
RTVSPost2010PropOp35
 70
     1
102
RTVSPost2010Prop36
280
     0
102
RTVSPost2010PropOp36
 70
     1
102
RTVSPost2010Prop37
 90
       50
102
RTVSPost2010PropOp37
 70
     1
102
RTVSPost2010Prop38
140
0.0
102
RTVSPost2010PropOp38
 70
     1
102
RTVSPost2010Prop39
140
1.0
102
RTVSPost2010PropOp39
 70
     1
102
RTVSPost2010Prop40
 90
        0
102
RTVSPost2010PropOp40
 70
     1
102
RTVSPost2010Prop41ColorIndex
 90
       18
102
RTVSPost2010Prop41ColorRGB
 90
        0
102
RTVSPost2010PropOp41
 70
     1
102
RTVSPost2010Prop42
 90
       50
102
RTVSPost2010PropOp42
 70
     1
102
RTVSPost2010Prop43
 90
        3
102
RTVSPost2010PropOp43
 70
     1
102
RTVSPost2010Prop44ColorIndex
 90
        5
102
RTVSPost2010Prop44ColorRGB
 90
      255
102
RTVSPost2010PropOp44
 70
     1
102
RTVSPost2010Prop45
280
     0
102
RTVSPost2010PropOp45
 70
     1
102
RTVSPost2010Prop46
 90
       50
102
RTVSPost2010PropOp46
 70
     1
102
RTVSPost2010Prop47
 90
       50
102
RTVSPost2010PropOp47
 70
     1
102
RTVSPost2010Prop48
 90
       50
102
RTVSPost2010PropOp48
 70
     1
102
RTVSPost2010Prop49
280
     0
102
RTVSPost2010PropOp49
 70
     1
102
RTVSPost2010Prop50
 90
       50
102
RTVSPost2010PropOp50
 70
     1
102
RTVSPost2010Prop51ColorIndex
 90
      256
102
RTVSPost2010Prop51ColorRGB
 90
-16777216
102
RTVSPost2010PropOp51
 70
     0
102
RTVSPost2010Prop52
140
1.0
102
RTVSPost2010PropOp52
 70
     0
102
RTVSPost2010Prop53
 90
        2
102
RTVSPost2010PropOp53
 70
     1
102
RTVSPost2010Prop54
  1
strokes_ogs.tif
102
RTVSPost2010PropOp54
 70
     1
102
RTVSPost2010Prop55
280
     0
102
RTVSPost2010PropOp55
 70
     1
102
RTVSPost2010Prop56
140
1.0
102
RTVSPost2010PropOp56
 70
     1
102
RTVSPost2010Prop57
140
1.0
102
RTVSPost2010PropOp57
 70
     1
102
RTVSPropertyOp0
 70
     1
102
RTVSPropertyOp1
 70
     1
102
RTVSPropertyOp2
 70
     1
102
RTVSPropertyOp3
 70
     1
102
RTVSPropertyOp4
 70
     1
102
RTVSPropertyOp5
 70
     1
102
RTVSPropertyOp6
 70
     1
102
RTVSPropertyOp7
 70
     1
102
RTVSPropertyOp8
 70
     1
102
RTVSPropertyOp9
 70
     1
102
RTVSPropertyOp10
 70
     1
102
RTVSPropertyOp11
 70
     1
102
RTVSPropertyOp12
 70
     1
102
RTVSPropertyOp13
 70
     1
102
RTVSPropertyOp14
 70
     1
102
RTVSPropertyOp15
 70
     1
102
RTVSPropertyOp16
 70
     1
102
RTVSPropertyOp17
 70
     1
102
RTVSPropertyOp18
 70
     1
102
RTVSPropertyOp19
 70
     1
102
RTVSPropertyOp20
 70
     1
102
RTVSPropertyOp21
 70
     1
102
RTVSPropertyOp22
 70
     1
102
RTVSPropertyOp23
 70
     1
102
RTVSPropertyOp24
 70
     1
102
RTVSPropertyOp25
 70
     1
102
RTVSPropertyOp26
 70
     1
102
RTVSPropertyOp27
 70
     1
102
RTVSPropertyOp28
 70
     1
102
RTVSPropertyOp29
 70
     1
102
RTVSPropertyOp30
 70
     1
102
RTVSPropertyOp31
 70
     1
102
RTVSPropertyOp32
 70
     1
102
RTVSPropertyOp33
 70
     1
102
RTVSPropertyOp34
 70
     1
102
RTVSPropertyOp35
 70
     1
102
RTVSPropertyOp36
 70
     1
102
RTVSPropertyOp37
 70
     1
102
RTVSPropertyOp38
 70
     1
102
RTVSPropertyOp39
 70
     1
102
RTVSPropertyOp40
 70
     1
102
RTVSPropertyOp41
 70
     1
102
RTVSPropertyOp42
 70
     1
102
RTVSPropertyOp43
 70
     1
102
RTVSPropertyOp44
 70
     1
102
RTVSPropertyOp45
 70
     1
102
RTVSPropertyOp46
 70
     1
102
RTVSPropertyOp47
 70
     1
102
RTVSPropertyOp48
 70
     1
102
RTVSPropertyOp49
 70
     1
102
RTVSPropertyOp50
 70
     1
102
RTVSPropertyOp51
 70
     0
102
RTVSPropertyOp52
 70
     0
102
RTVSPropertyOp53
 70
     1
102
RTVSPropertyOp54
 70
     1
102
RTVSPropertyOp55
 70
     1
102
RTVSPropertyOp56
 70
     1
102
RTVSPropertyOp57
 70
     1
102
RTVSPropertyOp58
 70
     1
102
RTVSPropertyOp59
 70
     1
102
RTVSPropertyOp60
 70
     1
102
RTVSPropertyOp61
 70
     1
102
RTVSPropertyOp62
 70
     1
  0
XRECORD
  5
2395
102
{ACAD_REACTORS
330
2394
102
}
330
2394
100
AcDbXrecord
280
     1
102
RTVSPost2010Prop28
280
     0
102
RTVSPost2010PropOp28
 70
     1
102
RTVSPost2010Prop29
280
     1
102
RTVSPost2010PropOp29
 70
     1
102
RTVSPost2010Prop30
280
     1
102
RTVSPost2010PropOp30
 70
     1
102
RTVSPost2010Prop31
280
     0
102
RTVSPost2010PropOp31
 70
     1
102
RTVSPost2010Prop32
280
     0
102
RTVSPost2010PropOp32
 70
     1
102
RTVSPost2010Prop33
280
     0
102
RTVSPost2010PropOp33
 70
     1
102
RTVSPost2010Prop34
280
     0
102
RTVSPost2010PropOp34
 70
     1
102
RTVSPost2010Prop35
280
     0
102
RTVSPost2010PropOp35
 70
     1
102
RTVSPost2010Prop36
280
     0
102
RTVSPost2010PropOp36
 70
     1
102
RTVSPost2010Prop37
 90
       50
102
RTVSPost2010PropOp37
 70
     1
102
RTVSPost2010Prop38
140
0.0
102
RTVSPost2010PropOp38
 70
     1
102
RTVSPost2010Prop39
140
1.0
102
RTVSPost2010PropOp39
 70
     1
102
RTVSPost2010Prop40
 90
        0
102
RTVSPost2010PropOp40
 70
     1
102
RTVSPost2010Prop41ColorIndex
 90
       18
102
RTVSPost2010Prop41ColorRGB
 90
        0
102
RTVSPost2010PropOp41
 70
     1
102
RTVSPost2010Prop42
 90
       50
102
RTVSPost2010PropOp42
 70
     1
102
RTVSPost2010Prop43
 90
        3
102
RTVSPost2010PropOp43
 70
     1
102
RTVSPost2010Prop44ColorIndex
 90
        5
102
RTVSPost2010Prop44ColorRGB
 90
      255
102
RTVSPost2010PropOp44
 70
     1
102
RTVSPost2010Prop45
280
     0
102
RTVSPost2010PropOp45
 70
     1
102
RTVSPost2010Prop46
 90
       50
102
RTVSPost2010PropOp46
 70
     1
102
RTVSPost2010Prop47
 90
       50
102
RTVSPost2010PropOp47
 70
     1
102
RTVSPost2010Prop48
 90
       50
102
RTVSPost2010PropOp48
 70
     1
102
RTVSPost2010Prop49
280
     0
102
RTVSPost2010PropOp49
 70
     1
102
RTVSPost2010Prop50
 90
       50
102
RTVSPost2010PropOp50
 70
     1
102
RTVSPost2010Prop51ColorIndex
 90
      256
102
RTVSPost2010Prop51ColorRGB
 90
-16777216
102
RTVSPost2010PropOp51
 70
     0
102
RTVSPost2010Prop52
140
1.0
102
RTVSPost2010PropOp52
 70
     0
102
RTVSPost2010Prop53
 90
        2
102
RTVSPost2010PropOp53
 70
     1
102
RTVSPost2010Prop54
  1
strokes_ogs.tif
102
RTVSPost2010PropOp54
 70
     1
102
RTVSPost2010Prop55
280
     0
102
RTVSPost2010PropOp55
 70
     1
102
RTVSPost2010Prop56
140
1.0
102
RTVSPost2010PropOp56
 70
     1
102
RTVSPost2010Prop57
140
1.0
102
RTVSPost2010PropOp57
 70
     1
102
RTVSPropertyOp0
 70
     1
102
RTVSPropertyOp1
 70
     1
102
RTVSPropertyOp2
 70
     1
102
RTVSPropertyOp3
 70
     1
102
RTVSPropertyOp4
 70
     1
102
RTVSPropertyOp5
 70
     1
102
RTVSPropertyOp6
 70
     1
102
RTVSPropertyOp7
 70
     1
102
RTVSPropertyOp8
 70
     1
102
RTVSPropertyOp9
 70
     1
102
RTVSPropertyOp10
 70
     1
102
RTVSPropertyOp11
 70
     1
102
RTVSPropertyOp12
 70
     1
102
RTVSPropertyOp13
 70
     1
102
RTVSPropertyOp14
 70
     1
102
RTVSPropertyOp15
 70
     1
102
RTVSPropertyOp16
 70
     1
102
RTVSPropertyOp17
 70
     1
102
RTVSPropertyOp18
 70
     1
102
RTVSPropertyOp19
 70
     1
102
RTVSPropertyOp20
 70
     1
102
RTVSPropertyOp21
 70
     1
102
RTVSPropertyOp22
 70
     1
102
RTVSPropertyOp23
 70
     1
102
RTVSPropertyOp24
 70
     1
102
RTVSPropertyOp25
 70
     1
102
RTVSPropertyOp26
 70
     1
102
RTVSPropertyOp27
 70
     1
102
RTVSPropertyOp28
 70
     1
102
RTVSPropertyOp29
 70
     1
102
RTVSPropertyOp30
 70
     1
102
RTVSPropertyOp31
 70
     1
102
RTVSPropertyOp32
 70
     1
102
RTVSPropertyOp33
 70
     1
102
RTVSPropertyOp34
 70
     1
102
RTVSPropertyOp35
 70
     1
102
RTVSPropertyOp36
 70
     1
102
RTVSPropertyOp37
 70
     1
102
RTVSPropertyOp38
 70
     1
102
RTVSPropertyOp39
 70
     1
102
RTVSPropertyOp40
 70
     1
102
RTVSPropertyOp41
 70
     1
102
RTVSPropertyOp42
 70
     1
102
RTVSPropertyOp43
 70
     1
102
RTVSPropertyOp44
 70
     1
102
RTVSPropertyOp45
 70
     1
102
RTVSPropertyOp46
 70
     1
102
RTVSPropertyOp47
 70
     1
102
RTVSPropertyOp48
 70
     1
102
RTVSPropertyOp49
 70
     1
102
RTVSPropertyOp50
 70
     1
102
RTVSPropertyOp51
 70
     0
102
RTVSPropertyOp52
 70
     0
102
RTVSPropertyOp53
 70
     1
102
RTVSPropertyOp54
 70
     1
102
RTVSPropertyOp55
 70
     1
102
RTVSPropertyOp56
 70
     1
102
RTVSPropertyOp57
 70
     1
102
RTVSPropertyOp58
 70
     1
102
RTVSPropertyOp59
 70
     1
102
RTVSPropertyOp60
 70
     1
102
RTVSPropertyOp61
 70
     1
102
RTVSPropertyOp62
 70
     1
  0
XRECORD
  5
2397
102
{ACAD_REACTORS
330
2396
102
}
330
2396
100
AcDbXrecord
280
     1
102
RTVSPost2010Prop28
280
     0
102
RTVSPost2010PropOp28
 70
     1
102
RTVSPost2010Prop29
280
     1
102
RTVSPost2010PropOp29
 70
     1
102
RTVSPost2010Prop30
280
     1
102
RTVSPost2010PropOp30
 70
     1
102
RTVSPost2010Prop31
280
     0
102
RTVSPost2010PropOp31
 70
     1
102
RTVSPost2010Prop32
280
     0
102
RTVSPost2010PropOp32
 70
     1
102
RTVSPost2010Prop33
280
     0
102
RTVSPost2010PropOp33
 70
     1
102
RTVSPost2010Prop34
280
     0
102
RTVSPost2010PropOp34
 70
     1
102
RTVSPost2010Prop35
280
     0
102
RTVSPost2010PropOp35
 70
     1
102
RTVSPost2010Prop36
280
     0
102
RTVSPost2010PropOp36
 70
     1
102
RTVSPost2010Prop37
 90
       50
102
RTVSPost2010PropOp37
 70
     1
102
RTVSPost2010Prop38
140
0.0
102
RTVSPost2010PropOp38
 70
     1
102
RTVSPost2010Prop39
140
1.0
102
RTVSPost2010PropOp39
 70
     1
102
RTVSPost2010Prop40
 90
        0
102
RTVSPost2010PropOp40
 70
     1
102
RTVSPost2010Prop41ColorIndex
 90
       18
102
RTVSPost2010Prop41ColorRGB
 90
        0
102
RTVSPost2010PropOp41
 70
     1
102
RTVSPost2010Prop42
 90
       50
102
RTVSPost2010PropOp42
 70
     1
102
RTVSPost2010Prop43
 90
        3
102
RTVSPost2010PropOp43
 70
     1
102
RTVSPost2010Prop44ColorIndex
 90
        5
102
RTVSPost2010Prop44ColorRGB
 90
      255
102
RTVSPost2010PropOp44
 70
     1
102
RTVSPost2010Prop45
280
     0
102
RTVSPost2010PropOp45
 70
     1
102
RTVSPost2010Prop46
 90
       50
102
RTVSPost2010PropOp46
 70
     1
102
RTVSPost2010Prop47
 90
       50
102
RTVSPost2010PropOp47
 70
     1
102
RTVSPost2010Prop48
 90
       50
102
RTVSPost2010PropOp48
 70
     1
102
RTVSPost2010Prop49
280
     0
102
RTVSPost2010PropOp49
 70
     1
102
RTVSPost2010Prop50
 90
       50
102
RTVSPost2010PropOp50
 70
     1
102
RTVSPost2010Prop51ColorIndex
 90
      256
102
RTVSPost2010Prop51ColorRGB
 90
-16777216
102
RTVSPost2010PropOp51
 70
     0
102
RTVSPost2010Prop52
140
1.0
102
RTVSPost2010PropOp52
 70
     0
102
RTVSPost2010Prop53
 90
        2
102
RTVSPost2010PropOp53
 70
     1
102
RTVSPost2010Prop54
  1
strokes_ogs.tif
102
RTVSPost2010PropOp54
 70
     1
102
RTVSPost2010Prop55
280
     0
102
RTVSPost2010PropOp55
 70
     1
102
RTVSPost2010Prop56
140
1.0
102
RTVSPost2010PropOp56
 70
     1
102
RTVSPost2010Prop57
140
1.0
102
RTVSPost2010PropOp57
 70
     1
102
RTVSPropertyOp0
 70
     1
102
RTVSPropertyOp1
 70
     1
102
RTVSPropertyOp2
 70
     1
102
RTVSPropertyOp3
 70
     1
102
RTVSPropertyOp4
 70
     1
102
RTVSPropertyOp5
 70
     1
102
RTVSPropertyOp6
 70
     1
102
RTVSPropertyOp7
 70
     1
102
RTVSPropertyOp8
 70
     1
102
RTVSPropertyOp9
 70
     1
102
RTVSPropertyOp10
 70
     1
102
RTVSPropertyOp11
 70
     1
102
RTVSPropertyOp12
 70
     1
102
RTVSPropertyOp13
 70
     1
102
RTVSPropertyOp14
 70
     1
102
RTVSPropertyOp15
 70
     1
102
RTVSPropertyOp16
 70
     1
102
RTVSPropertyOp17
 70
     1
102
RTVSPropertyOp18
 70
     1
102
RTVSPropertyOp19
 70
     1
102
RTVSPropertyOp20
 70
     1
102
RTVSPropertyOp21
 70
     1
102
RTVSPropertyOp22
 70
     1
102
RTVSPropertyOp23
 70
     1
102
RTVSPropertyOp24
 70
     1
102
RTVSPropertyOp25
 70
     1
102
RTVSPropertyOp26
 70
     1
102
RTVSPropertyOp27
 70
     1
102
RTVSPropertyOp28
 70
     1
102
RTVSPropertyOp29
 70
     1
102
RTVSPropertyOp30
 70
     1
102
RTVSPropertyOp31
 70
     1
102
RTVSPropertyOp32
 70
     1
102
RTVSPropertyOp33
 70
     1
102
RTVSPropertyOp34
 70
     1
102
RTVSPropertyOp35
 70
     1
102
RTVSPropertyOp36
 70
     1
102
RTVSPropertyOp37
 70
     1
102
RTVSPropertyOp38
 70
     1
102
RTVSPropertyOp39
 70
     1
102
RTVSPropertyOp40
 70
     1
102
RTVSPropertyOp41
 70
     1
102
RTVSPropertyOp42
 70
     1
102
RTVSPropertyOp43
 70
     1
102
RTVSPropertyOp44
 70
     1
102
RTVSPropertyOp45
 70
     1
102
RTVSPropertyOp46
 70
     1
102
RTVSPropertyOp47
 70
     1
102
RTVSPropertyOp48
 70
     1
102
RTVSPropertyOp49
 70
     1
102
RTVSPropertyOp50
 70
     1
102
RTVSPropertyOp51
 70
     0
102
RTVSPropertyOp52
 70
     0
102
RTVSPropertyOp53
 70
     1
102
RTVSPropertyOp54
 70
     1
102
RTVSPropertyOp55
 70
     1
102
RTVSPropertyOp56
 70
     1
102
RTVSPropertyOp57
 70
     1
102
RTVSPropertyOp58
 70
     1
102
RTVSPropertyOp59
 70
     1
102
RTVSPropertyOp60
 70
     1
102
RTVSPropertyOp61
 70
     1
102
RTVSPropertyOp62
 70
     1
  0
XRECORD
  5
239F
102
{ACAD_REACTORS
330
239E
102
}
330
239E
100
AcDbXrecord
280
     1
102
RTVSPost2010Prop28
280
     0
102
RTVSPost2010PropOp28
 70
     1
102
RTVSPost2010Prop29
280
     1
102
RTVSPost2010PropOp29
 70
     1
102
RTVSPost2010Prop30
280
     1
102
RTVSPost2010PropOp30
 70
     1
102
RTVSPost2010Prop31
280
     0
102
RTVSPost2010PropOp31
 70
     1
102
RTVSPost2010Prop32
280
     0
102
RTVSPost2010PropOp32
 70
     1
102
RTVSPost2010Prop33
280
     0
102
RTVSPost2010PropOp33
 70
     1
102
RTVSPost2010Prop34
280
     0
102
RTVSPost2010PropOp34
 70
     1
102
RTVSPost2010Prop35
280
     0
102
RTVSPost2010PropOp35
 70
     1
102
RTVSPost2010Prop36
280
     0
102
RTVSPost2010PropOp36
 70
     1
102
RTVSPost2010Prop37
 90
       50
102
RTVSPost2010PropOp37
 70
     1
102
RTVSPost2010Prop38
140
0.0
102
RTVSPost2010PropOp38
 70
     1
102
RTVSPost2010Prop39
140
1.0
102
RTVSPost2010PropOp39
 70
     1
102
RTVSPost2010Prop40
 90
        0
102
RTVSPost2010PropOp40
 70
     1
102
RTVSPost2010Prop41ColorIndex
 90
       18
102
RTVSPost2010Prop41ColorRGB
 90
        0
102
RTVSPost2010PropOp41
 70
     1
102
RTVSPost2010Prop42
 90
       50
102
RTVSPost2010PropOp42
 70
     1
102
RTVSPost2010Prop43
 90
        3
102
RTVSPost2010PropOp43
 70
     1
102
RTVSPost2010Prop44ColorIndex
 90
        5
102
RTVSPost2010Prop44ColorRGB
 90
      255
102
RTVSPost2010PropOp44
 70
     1
102
RTVSPost2010Prop45
280
     0
102
RTVSPost2010PropOp45
 70
     1
102
RTVSPost2010Prop46
 90
       50
102
RTVSPost2010PropOp46
 70
     1
102
RTVSPost2010Prop47
 90
       50
102
RTVSPost2010PropOp47
 70
     1
102
RTVSPost2010Prop48
 90
       50
102
RTVSPost2010PropOp48
 70
     1
102
RTVSPost2010Prop49
280
     0
102
RTVSPost2010PropOp49
 70
     1
102
RTVSPost2010Prop50
 90
       50
102
RTVSPost2010PropOp50
 70
     1
102
RTVSPost2010Prop51ColorIndex
 90
      256
102
RTVSPost2010Prop51ColorRGB
 90
-16777216
102
RTVSPost2010PropOp51
 70
     0
102
RTVSPost2010Prop52
140
1.0
102
RTVSPost2010PropOp52
 70
     0
102
RTVSPost2010Prop53
 90
        2
102
RTVSPost2010PropOp53
 70
     1
102
RTVSPost2010Prop54
  1
strokes_ogs.tif
102
RTVSPost2010PropOp54
 70
     1
102
RTVSPost2010Prop55
280
     0
102
RTVSPost2010PropOp55
 70
     1
102
RTVSPost2010Prop56
140
1.0
102
RTVSPost2010PropOp56
 70
     1
102
RTVSPost2010Prop57
140
1.0
102
RTVSPost2010PropOp57
 70
     1
102
RTVSPropertyOp0
 70
     1
102
RTVSPropertyOp1
 70
     1
102
RTVSPropertyOp2
 70
     1
102
RTVSPropertyOp3
 70
     1
102
RTVSPropertyOp4
 70
     1
102
RTVSPropertyOp5
 70
     1
102
RTVSPropertyOp6
 70
     1
102
RTVSPropertyOp7
 70
     1
102
RTVSPropertyOp8
 70
     1
102
RTVSPropertyOp9
 70
     1
102
RTVSPropertyOp10
 70
     1
102
RTVSPropertyOp11
 70
     1
102
RTVSPropertyOp12
 70
     1
102
RTVSPropertyOp13
 70
     1
102
RTVSPropertyOp14
 70
     1
102
RTVSPropertyOp15
 70
     1
102
RTVSPropertyOp16
 70
     1
102
RTVSPropertyOp17
 70
     1
102
RTVSPropertyOp18
 70
     1
102
RTVSPropertyOp19
 70
     1
102
RTVSPropertyOp20
 70
     1
102
RTVSPropertyOp21
 70
     1
102
RTVSPropertyOp22
 70
     1
102
RTVSPropertyOp23
 70
     1
102
RTVSPropertyOp24
 70
     1
102
RTVSPropertyOp25
 70
     1
102
RTVSPropertyOp26
 70
     1
102
RTVSPropertyOp27
 70
     1
102
RTVSPropertyOp28
 70
     1
102
RTVSPropertyOp29
 70
     1
102
RTVSPropertyOp30
 70
     1
102
RTVSPropertyOp31
 70
     1
102
RTVSPropertyOp32
 70
     1
102
RTVSPropertyOp33
 70
     1
102
RTVSPropertyOp34
 70
     1
102
RTVSPropertyOp35
 70
     1
102
RTVSPropertyOp36
 70
     1
102
RTVSPropertyOp37
 70
     1
102
RTVSPropertyOp38
 70
     1
102
RTVSPropertyOp39
 70
     1
102
RTVSPropertyOp40
 70
     1
102
RTVSPropertyOp41
 70
     1
102
RTVSPropertyOp42
 70
     1
102
RTVSPropertyOp43
 70
     1
102
RTVSPropertyOp44
 70
     1
102
RTVSPropertyOp45
 70
     1
102
RTVSPropertyOp46
 70
     1
102
RTVSPropertyOp47
 70
     1
102
RTVSPropertyOp48
 70
     1
102
RTVSPropertyOp49
 70
     1
102
RTVSPropertyOp50
 70
     1
102
RTVSPropertyOp51
 70
     0
102
RTVSPropertyOp52
 70
     0
102
RTVSPropertyOp53
 70
     1
102
RTVSPropertyOp54
 70
     1
102
RTVSPropertyOp55
 70
     1
102
RTVSPropertyOp56
 70
     1
102
RTVSPropertyOp57
 70
     1
102
RTVSPropertyOp58
 70
     1
102
RTVSPropertyOp59
 70
     1
102
RTVSPropertyOp60
 70
     1
102
RTVSPropertyOp61
 70
     1
102
RTVSPropertyOp62
 70
     1
  0
XRECORD
  5
23BB
102
{ACAD_REACTORS
330
23BA
102
}
330
23BA
100
AcDbXrecord
280
     1
102
RTVSPost2010Prop28
280
     0
102
RTVSPost2010PropOp28
 70
     1
102
RTVSPost2010Prop29
280
     1
102
RTVSPost2010PropOp29
 70
     1
102
RTVSPost2010Prop30
280
     1
102
RTVSPost2010PropOp30
 70
     1
102
RTVSPost2010Prop31
280
     0
102
RTVSPost2010PropOp31
 70
     1
102
RTVSPost2010Prop32
280
     0
102
RTVSPost2010PropOp32
 70
     1
102
RTVSPost2010Prop33
280
     0
102
RTVSPost2010PropOp33
 70
     1
102
RTVSPost2010Prop34
280
     0
102
RTVSPost2010PropOp34
 70
     1
102
RTVSPost2010Prop35
280
     0
102
RTVSPost2010PropOp35
 70
     1
102
RTVSPost2010Prop36
280
     0
102
RTVSPost2010PropOp36
 70
     1
102
RTVSPost2010Prop37
 90
       50
102
RTVSPost2010PropOp37
 70
     0
102
RTVSPost2010Prop38
140
0.0
102
RTVSPost2010PropOp38
 70
     0
102
RTVSPost2010Prop39
140
1.0
102
RTVSPost2010PropOp39
 70
     0
102
RTVSPost2010Prop40
 90
        0
102
RTVSPost2010PropOp40
 70
     0
102
RTVSPost2010Prop41ColorIndex
 90
       18
102
RTVSPost2010Prop41ColorRGB
 90
        0
102
RTVSPost2010PropOp41
 70
     0
102
RTVSPost2010Prop42
 90
       50
102
RTVSPost2010PropOp42
 70
     0
102
RTVSPost2010Prop43
 90
        3
102
RTVSPost2010PropOp43
 70
     0
102
RTVSPost2010Prop44ColorIndex
 90
        5
102
RTVSPost2010Prop44ColorRGB
 90
      255
102
RTVSPost2010PropOp44
 70
     0
102
RTVSPost2010Prop45
280
     0
102
RTVSPost2010PropOp45
 70
     1
102
RTVSPost2010Prop46
 90
       50
102
RTVSPost2010PropOp46
 70
     0
102
RTVSPost2010Prop47
 90
       50
102
RTVSPost2010PropOp47
 70
     0
102
RTVSPost2010Prop48
 90
       50
102
RTVSPost2010PropOp48
 70
     0
102
RTVSPost2010Prop49
280
     0
102
RTVSPost2010PropOp49
 70
     1
102
RTVSPost2010Prop50
 90
       50
102
RTVSPost2010PropOp50
 70
     0
102
RTVSPost2010Prop51ColorIndex
 90
      256
102
RTVSPost2010Prop51ColorRGB
 90
-16777216
102
RTVSPost2010PropOp51
 70
     0
102
RTVSPost2010Prop52
140
1.0
102
RTVSPost2010PropOp52
 70
     0
102
RTVSPost2010Prop53
 90
        2
102
RTVSPost2010PropOp53
 70
     0
102
RTVSPost2010Prop54
  1
strokes_ogs.tif
102
RTVSPost2010PropOp54
 70
     0
102
RTVSPost2010Prop55
280
     0
102
RTVSPost2010PropOp55
 70
     1
102
RTVSPost2010Prop56
140
1.0
102
RTVSPost2010PropOp56
 70
     0
102
RTVSPost2010Prop57
140
1.0
102
RTVSPost2010PropOp57
 70
     0
102
RTVSPropertyOp0
 70
     0
102
RTVSPropertyOp1
 70
     0
102
RTVSPropertyOp2
 70
     0
102
RTVSPropertyOp3
 70
     0
102
RTVSPropertyOp4
 70
     0
102
RTVSPropertyOp5
 70
     0
102
RTVSPropertyOp6
 70
     0
102
RTVSPropertyOp7
 70
     0
102
RTVSPropertyOp8
 70
     0
102
RTVSPropertyOp9
 70
     0
102
RTVSPropertyOp10
 70
     0
102
RTVSPropertyOp11
 70
     0
102
RTVSPropertyOp12
 70
     0
102
RTVSPropertyOp13
 70
     0
102
RTVSPropertyOp14
 70
     2
102
RTVSPropertyOp15
 70
     0
102
RTVSPropertyOp16
 70
     0
102
RTVSPropertyOp17
 70
     0
102
RTVSPropertyOp18
 70
     0
102
RTVSPropertyOp19
 70
     0
102
RTVSPropertyOp20
 70
     0
102
RTVSPropertyOp21
 70
     0
102
RTVSPropertyOp22
 70
     0
102
RTVSPropertyOp23
 70
     0
102
RTVSPropertyOp24
 70
     0
102
RTVSPropertyOp25
 70
     0
102
RTVSPropertyOp26
 70
     0
102
RTVSPropertyOp27
 70
     0
102
RTVSPropertyOp28
 70
     1
102
RTVSPropertyOp29
 70
     1
102
RTVSPropertyOp30
 70
     1
102
RTVSPropertyOp31
 70
     1
102
RTVSPropertyOp32
 70
     1
102
RTVSPropertyOp33
 70
     1
102
RTVSPropertyOp34
 70
     1
102
RTVSPropertyOp35
 70
     1
102
RTVSPropertyOp36
 70
     1
102
RTVSPropertyOp37
 70
     0
102
RTVSPropertyOp38
 70
     0
102
RTVSPropertyOp39
 70
     0
102
RTVSPropertyOp40
 70
     0
102
RTVSPropertyOp41
 70
     0
102
RTVSPropertyOp42
 70
     0
102
RTVSPropertyOp43
 70
     0
102
RTVSPropertyOp44
 70
     0
102
RTVSPropertyOp45
 70
     1
102
RTVSPropertyOp46
 70
     0
102
RTVSPropertyOp47
 70
     0
102
RTVSPropertyOp48
 70
     0
102
RTVSPropertyOp49
 70
     1
102
RTVSPropertyOp50
 70
     0
102
RTVSPropertyOp51
 70
     0
102
RTVSPropertyOp52
 70
     0
102
RTVSPropertyOp53
 70
     0
102
RTVSPropertyOp54
 70
     0
102
RTVSPropertyOp55
 70
     1
102
RTVSPropertyOp56
 70
     0
102
RTVSPropertyOp57
 70
     0
102
RTVSPropertyOp58
 70
     0
102
RTVSPropertyOp59
 70
     0
102
RTVSPropertyOp60
 70
     0
102
RTVSPropertyOp61
 70
     0
102
RTVSPropertyOp62
 70
     0
  0
XRECORD
  5
23AB
102
{ACAD_REACTORS
330
23AA
102
}
330
23AA
100
AcDbXrecord
280
     1
102
RTVSPost2010Prop28
280
     0
102
RTVSPost2010PropOp28
 70
     1
102
RTVSPost2010Prop29
280
     1
102
RTVSPost2010PropOp29
 70
     1
102
RTVSPost2010Prop30
280
     1
102
RTVSPost2010PropOp30
 70
     1
102
RTVSPost2010Prop31
280
     0
102
RTVSPost2010PropOp31
 70
     1
102
RTVSPost2010Prop32
280
     0
102
RTVSPost2010PropOp32
 70
     1
102
RTVSPost2010Prop33
280
     0
102
RTVSPost2010PropOp33
 70
     1
102
RTVSPost2010Prop34
280
     0
102
RTVSPost2010PropOp34
 70
     1
102
RTVSPost2010Prop35
280
     0
102
RTVSPost2010PropOp35
 70
     1
102
RTVSPost2010Prop36
280
     0
102
RTVSPost2010PropOp36
 70
     1
102
RTVSPost2010Prop37
 90
       50
102
RTVSPost2010PropOp37
 70
     1
102
RTVSPost2010Prop38
140
0.0
102
RTVSPost2010PropOp38
 70
     1
102
RTVSPost2010Prop39
140
1.0
102
RTVSPost2010PropOp39
 70
     1
102
RTVSPost2010Prop40
 90
        0
102
RTVSPost2010PropOp40
 70
     1
102
RTVSPost2010Prop41ColorIndex
 90
       18
102
RTVSPost2010Prop41ColorRGB
 90
        0
102
RTVSPost2010PropOp41
 70
     1
102
RTVSPost2010Prop42
 90
       50
102
RTVSPost2010PropOp42
 70
     1
102
RTVSPost2010Prop43
 90
        3
102
RTVSPost2010PropOp43
 70
     1
102
RTVSPost2010Prop44ColorIndex
 90
        5
102
RTVSPost2010Prop44ColorRGB
 90
      255
102
RTVSPost2010PropOp44
 70
     1
102
RTVSPost2010Prop45
280
     0
102
RTVSPost2010PropOp45
 70
     1
102
RTVSPost2010Prop46
 90
       50
102
RTVSPost2010PropOp46
 70
     1
102
RTVSPost2010Prop47
 90
       50
102
RTVSPost2010PropOp47
 70
     1
102
RTVSPost2010Prop48
 90
       50
102
RTVSPost2010PropOp48
 70
     1
102
RTVSPost2010Prop49
280
     0
102
RTVSPost2010PropOp49
 70
     1
102
RTVSPost2010Prop50
 90
       50
102
RTVSPost2010PropOp50
 70
     1
102
RTVSPost2010Prop51ColorIndex
 90
      256
102
RTVSPost2010Prop51ColorRGB
 90
-16777216
102
RTVSPost2010PropOp51
 70
     0
102
RTVSPost2010Prop52
140
1.0
102
RTVSPost2010PropOp52
 70
     0
102
RTVSPost2010Prop53
 90
        2
102
RTVSPost2010PropOp53
 70
     1
102
RTVSPost2010Prop54
  1
strokes_ogs.tif
102
RTVSPost2010PropOp54
 70
     1
102
RTVSPost2010Prop55
280
     0
102
RTVSPost2010PropOp55
 70
     1
102
RTVSPost2010Prop56
140
1.0
102
RTVSPost2010PropOp56
 70
     1
102
RTVSPost2010Prop57
140
1.0
102
RTVSPost2010PropOp57
 70
     1
102
RTVSPropertyOp0
 70
     1
102
RTVSPropertyOp1
 70
     1
102
RTVSPropertyOp2
 70
     1
102
RTVSPropertyOp3
 70
     1
102
RTVSPropertyOp4
 70
     1
102
RTVSPropertyOp5
 70
     1
102
RTVSPropertyOp6
 70
     1
102
RTVSPropertyOp7
 70
     1
102
RTVSPropertyOp8
 70
     1
102
RTVSPropertyOp9
 70
     1
102
RTVSPropertyOp10
 70
     1
102
RTVSPropertyOp11
 70
     1
102
RTVSPropertyOp12
 70
     1
102
RTVSPropertyOp13
 70
     1
102
RTVSPropertyOp14
 70
     1
102
RTVSPropertyOp15
 70
     1
102
RTVSPropertyOp16
 70
     1
102
RTVSPropertyOp17
 70
     1
102
RTVSPropertyOp18
 70
     1
102
RTVSPropertyOp19
 70
     1
102
RTVSPropertyOp20
 70
     1
102
RTVSPropertyOp21
 70
     1
102
RTVSPropertyOp22
 70
     1
102
RTVSPropertyOp23
 70
     1
102
RTVSPropertyOp24
 70
     1
102
RTVSPropertyOp25
 70
     1
102
RTVSPropertyOp26
 70
     1
102
RTVSPropertyOp27
 70
     1
102
RTVSPropertyOp28
 70
     1
102
RTVSPropertyOp29
 70
     1
102
RTVSPropertyOp30
 70
     1
102
RTVSPropertyOp31
 70
     1
102
RTVSPropertyOp32
 70
     1
102
RTVSPropertyOp33
 70
     1
102
RTVSPropertyOp34
 70
     1
102
RTVSPropertyOp35
 70
     1
102
RTVSPropertyOp36
 70
     1
102
RTVSPropertyOp37
 70
     1
102
RTVSPropertyOp38
 70
     1
102
RTVSPropertyOp39
 70
     1
102
RTVSPropertyOp40
 70
     1
102
RTVSPropertyOp41
 70
     1
102
RTVSPropertyOp42
 70
     1
102
RTVSPropertyOp43
 70
     1
102
RTVSPropertyOp44
 70
     1
102
RTVSPropertyOp45
 70
     1
102
RTVSPropertyOp46
 70
     1
102
RTVSPropertyOp47
 70
     1
102
RTVSPropertyOp48
 70
     1
102
RTVSPropertyOp49
 70
     1
102
RTVSPropertyOp50
 70
     1
102
RTVSPropertyOp51
 70
     0
102
RTVSPropertyOp52
 70
     0
102
RTVSPropertyOp53
 70
     1
102
RTVSPropertyOp54
 70
     1
102
RTVSPropertyOp55
 70
     1
102
RTVSPropertyOp56
 70
     1
102
RTVSPropertyOp57
 70
     1
102
RTVSPropertyOp58
 70
     1
102
RTVSPropertyOp59
 70
     1
102
RTVSPropertyOp60
 70
     1
102
RTVSPropertyOp61
 70
     1
102
RTVSPropertyOp62
 70
     1
  0
XRECORD
  5
23BD
102
{ACAD_REACTORS
330
23BC
102
}
330
23BC
100
AcDbXrecord
280
     1
102
RTVSPost2010Prop28
280
     0
102
RTVSPost2010PropOp28
 70
     1
102
RTVSPost2010Prop29
280
     1
102
RTVSPost2010PropOp29
 70
     1
102
RTVSPost2010Prop30
280
     1
102
RTVSPost2010PropOp30
 70
     1
102
RTVSPost2010Prop31
280
     0
102
RTVSPost2010PropOp31
 70
     1
102
RTVSPost2010Prop32
280
     0
102
RTVSPost2010PropOp32
 70
     1
102
RTVSPost2010Prop33
280
     0
102
RTVSPost2010PropOp33
 70
     1
102
RTVSPost2010Prop34
280
     0
102
RTVSPost2010PropOp34
 70
     1
102
RTVSPost2010Prop35
280
     0
102
RTVSPost2010PropOp35
 70
     1
102
RTVSPost2010Prop36
280
     0
102
RTVSPost2010PropOp36
 70
     1
102
RTVSPost2010Prop37
 90
       50
102
RTVSPost2010PropOp37
 70
     0
102
RTVSPost2010Prop38
140
0.0
102
RTVSPost2010PropOp38
 70
     0
102
RTVSPost2010Prop39
140
1.0
102
RTVSPost2010PropOp39
 70
     0
102
RTVSPost2010Prop40
 90
        0
102
RTVSPost2010PropOp40
 70
     0
102
RTVSPost2010Prop41ColorIndex
 90
       18
102
RTVSPost2010Prop41ColorRGB
 90
        0
102
RTVSPost2010PropOp41
 70
     0
102
RTVSPost2010Prop42
 90
       50
102
RTVSPost2010PropOp42
 70
     0
102
RTVSPost2010Prop43
 90
        3
102
RTVSPost2010PropOp43
 70
     0
102
RTVSPost2010Prop44ColorIndex
 90
        5
102
RTVSPost2010Prop44ColorRGB
 90
      255
102
RTVSPost2010PropOp44
 70
     0
102
RTVSPost2010Prop45
280
     0
102
RTVSPost2010PropOp45
 70
     1
102
RTVSPost2010Prop46
 90
       50
102
RTVSPost2010PropOp46
 70
     0
102
RTVSPost2010Prop47
 90
       50
102
RTVSPost2010PropOp47
 70
     0
102
RTVSPost2010Prop48
 90
       50
102
RTVSPost2010PropOp48
 70
     0
102
RTVSPost2010Prop49
280
     0
102
RTVSPost2010PropOp49
 70
     1
102
RTVSPost2010Prop50
 90
       50
102
RTVSPost2010PropOp50
 70
     0
102
RTVSPost2010Prop51ColorIndex
 90
      256
102
RTVSPost2010Prop51ColorRGB
 90
-16777216
102
RTVSPost2010PropOp51
 70
     0
102
RTVSPost2010Prop52
140
1.0
102
RTVSPost2010PropOp52
 70
     0
102
RTVSPost2010Prop53
 90
        2
102
RTVSPost2010PropOp53
 70
     0
102
RTVSPost2010Prop54
  1
strokes_ogs.tif
102
RTVSPost2010PropOp54
 70
     0
102
RTVSPost2010Prop55
280
     0
102
RTVSPost2010PropOp55
 70
     1
102
RTVSPost2010Prop56
140
1.0
102
RTVSPost2010PropOp56
 70
     0
102
RTVSPost2010Prop57
140
1.0
102
RTVSPost2010PropOp57
 70
     0
102
RTVSPropertyOp0
 70
     0
102
RTVSPropertyOp1
 70
     0
102
RTVSPropertyOp2
 70
     0
102
RTVSPropertyOp3
 70
     0
102
RTVSPropertyOp4
 70
     0
102
RTVSPropertyOp5
 70
     0
102
RTVSPropertyOp6
 70
     0
102
RTVSPropertyOp7
 70
     0
102
RTVSPropertyOp8
 70
     0
102
RTVSPropertyOp9
 70
     0
102
RTVSPropertyOp10
 70
     0
102
RTVSPropertyOp11
 70
     0
102
RTVSPropertyOp12
 70
     0
102
RTVSPropertyOp13
 70
     0
102
RTVSPropertyOp14
 70
     2
102
RTVSPropertyOp15
 70
     0
102
RTVSPropertyOp16
 70
     0
102
RTVSPropertyOp17
 70
     0
102
RTVSPropertyOp18
 70
     0
102
RTVSPropertyOp19
 70
     0
102
RTVSPropertyOp20
 70
     0
102
RTVSPropertyOp21
 70
     0
102
RTVSPropertyOp22
 70
     0
102
RTVSPropertyOp23
 70
     0
102
RTVSPropertyOp24
 70
     0
102
RTVSPropertyOp25
 70
     0
102
RTVSPropertyOp26
 70
     0
102
RTVSPropertyOp27
 70
     0
102
RTVSPropertyOp28
 70
     1
102
RTVSPropertyOp29
 70
     1
102
RTVSPropertyOp30
 70
     1
102
RTVSPropertyOp31
 70
     1
102
RTVSPropertyOp32
 70
     1
102
RTVSPropertyOp33
 70
     1
102
RTVSPropertyOp34
 70
     1
102
RTVSPropertyOp35
 70
     1
102
RTVSPropertyOp36
 70
     1
102
RTVSPropertyOp37
 70
     0
102
RTVSPropertyOp38
 70
     0
102
RTVSPropertyOp39
 70
     0
102
RTVSPropertyOp40
 70
     0
102
RTVSPropertyOp41
 70
     0
102
RTVSPropertyOp42
 70
     0
102
RTVSPropertyOp43
 70
     0
102
RTVSPropertyOp44
 70
     0
102
RTVSPropertyOp45
 70
     1
102
RTVSPropertyOp46
 70
     0
102
RTVSPropertyOp47
 70
     0
102
RTVSPropertyOp48
 70
     0
102
RTVSPropertyOp49
 70
     1
102
RTVSPropertyOp50
 70
     0
102
RTVSPropertyOp51
 70
     0
102
RTVSPropertyOp52
 70
     0
102
RTVSPropertyOp53
 70
     0
102
RTVSPropertyOp54
 70
     0
102
RTVSPropertyOp55
 70
     1
102
RTVSPropertyOp56
 70
     0
102
RTVSPropertyOp57
 70
     0
102
RTVSPropertyOp58
 70
     0
102
RTVSPropertyOp59
 70
     0
102
RTVSPropertyOp60
 70
     0
102
RTVSPropertyOp61
 70
     0
102
RTVSPropertyOp62
 70
     0
  0
XRECORD
  5
23A3
102
{ACAD_REACTORS
330
23A2
102
}
330
23A2
100
AcDbXrecord
280
     1
102
RTVSPost2010Prop28
280
     0
102
RTVSPost2010PropOp28
 70
     1
102
RTVSPost2010Prop29
280
     1
102
RTVSPost2010PropOp29
 70
     1
102
RTVSPost2010Prop30
280
     1
102
RTVSPost2010PropOp30
 70
     1
102
RTVSPost2010Prop31
280
     0
102
RTVSPost2010PropOp31
 70
     1
102
RTVSPost2010Prop32
280
     0
102
RTVSPost2010PropOp32
 70
     1
102
RTVSPost2010Prop33
280
     0
102
RTVSPost2010PropOp33
 70
     1
102
RTVSPost2010Prop34
280
     0
102
RTVSPost2010PropOp34
 70
     1
102
RTVSPost2010Prop35
280
     0
102
RTVSPost2010PropOp35
 70
     1
102
RTVSPost2010Prop36
280
     0
102
RTVSPost2010PropOp36
 70
     1
102
RTVSPost2010Prop37
 90
       50
102
RTVSPost2010PropOp37
 70
     1
102
RTVSPost2010Prop38
140
0.0
102
RTVSPost2010PropOp38
 70
     1
102
RTVSPost2010Prop39
140
1.0
102
RTVSPost2010PropOp39
 70
     1
102
RTVSPost2010Prop40
 90
        0
102
RTVSPost2010PropOp40
 70
     1
102
RTVSPost2010Prop41ColorIndex
 90
       18
102
RTVSPost2010Prop41ColorRGB
 90
        0
102
RTVSPost2010PropOp41
 70
     1
102
RTVSPost2010Prop42
 90
       50
102
RTVSPost2010PropOp42
 70
     1
102
RTVSPost2010Prop43
 90
        3
102
RTVSPost2010PropOp43
 70
     1
102
RTVSPost2010Prop44ColorIndex
 90
        5
102
RTVSPost2010Prop44ColorRGB
 90
      255
102
RTVSPost2010PropOp44
 70
     1
102
RTVSPost2010Prop45
280
     0
102
RTVSPost2010PropOp45
 70
     1
102
RTVSPost2010Prop46
 90
       50
102
RTVSPost2010PropOp46
 70
     1
102
RTVSPost2010Prop47
 90
       50
102
RTVSPost2010PropOp47
 70
     1
102
RTVSPost2010Prop48
 90
       50
102
RTVSPost2010PropOp48
 70
     1
102
RTVSPost2010Prop49
280
     0
102
RTVSPost2010PropOp49
 70
     1
102
RTVSPost2010Prop50
 90
       50
102
RTVSPost2010PropOp50
 70
     1
102
RTVSPost2010Prop51ColorIndex
 90
      256
102
RTVSPost2010Prop51ColorRGB
 90
-16777216
102
RTVSPost2010PropOp51
 70
     0
102
RTVSPost2010Prop52
140
1.0
102
RTVSPost2010PropOp52
 70
     0
102
RTVSPost2010Prop53
 90
        2
102
RTVSPost2010PropOp53
 70
     1
102
RTVSPost2010Prop54
  1
strokes_ogs.tif
102
RTVSPost2010PropOp54
 70
     1
102
RTVSPost2010Prop55
280
     0
102
RTVSPost2010PropOp55
 70
     1
102
RTVSPost2010Prop56
140
1.0
102
RTVSPost2010PropOp56
 70
     1
102
RTVSPost2010Prop57
140
1.0
102
RTVSPost2010PropOp57
 70
     1
102
RTVSPropertyOp0
 70
     1
102
RTVSPropertyOp1
 70
     1
102
RTVSPropertyOp2
 70
     1
102
RTVSPropertyOp3
 70
     1
102
RTVSPropertyOp4
 70
     1
102
RTVSPropertyOp5
 70
     1
102
RTVSPropertyOp6
 70
     1
102
RTVSPropertyOp7
 70
     1
102
RTVSPropertyOp8
 70
     1
102
RTVSPropertyOp9
 70
     1
102
RTVSPropertyOp10
 70
     1
102
RTVSPropertyOp11
 70
     1
102
RTVSPropertyOp12
 70
     1
102
RTVSPropertyOp13
 70
     1
102
RTVSPropertyOp14
 70
     1
102
RTVSPropertyOp15
 70
     1
102
RTVSPropertyOp16
 70
     1
102
RTVSPropertyOp17
 70
     1
102
RTVSPropertyOp18
 70
     1
102
RTVSPropertyOp19
 70
     1
102
RTVSPropertyOp20
 70
     1
102
RTVSPropertyOp21
 70
     1
102
RTVSPropertyOp22
 70
     1
102
RTVSPropertyOp23
 70
     1
102
RTVSPropertyOp24
 70
     1
102
RTVSPropertyOp25
 70
     1
102
RTVSPropertyOp26
 70
     1
102
RTVSPropertyOp27
 70
     1
102
RTVSPropertyOp28
 70
     1
102
RTVSPropertyOp29
 70
     1
102
RTVSPropertyOp30
 70
     1
102
RTVSPropertyOp31
 70
     1
102
RTVSPropertyOp32
 70
     1
102
RTVSPropertyOp33
 70
     1
102
RTVSPropertyOp34
 70
     1
102
RTVSPropertyOp35
 70
     1
102
RTVSPropertyOp36
 70
     1
102
RTVSPropertyOp37
 70
     1
102
RTVSPropertyOp38
 70
     1
102
RTVSPropertyOp39
 70
     1
102
RTVSPropertyOp40
 70
     1
102
RTVSPropertyOp41
 70
     1
102
RTVSPropertyOp42
 70
     1
102
RTVSPropertyOp43
 70
     1
102
RTVSPropertyOp44
 70
     1
102
RTVSPropertyOp45
 70
     1
102
RTVSPropertyOp46
 70
     1
102
RTVSPropertyOp47
 70
     1
102
RTVSPropertyOp48
 70
     1
102
RTVSPropertyOp49
 70
     1
102
RTVSPropertyOp50
 70
     1
102
RTVSPropertyOp51
 70
     0
102
RTVSPropertyOp52
 70
     0
102
RTVSPropertyOp53
 70
     1
102
RTVSPropertyOp54
 70
     1
102
RTVSPropertyOp55
 70
     1
102
RTVSPropertyOp56
 70
     1
102
RTVSPropertyOp57
 70
     1
102
RTVSPropertyOp58
 70
     1
102
RTVSPropertyOp59
 70
     1
102
RTVSPropertyOp60
 70
     1
102
RTVSPropertyOp61
 70
     1
102
RTVSPropertyOp62
 70
     1
  0
XRECORD
  5
23B9
102
{ACAD_REACTORS
330
23B8
102
}
330
23B8
100
AcDbXrecord
280
     1
102
RTVSPost2010Prop28
280
     0
102
RTVSPost2010PropOp28
 70
     1
102
RTVSPost2010Prop29
280
     1
102
RTVSPost2010PropOp29
 70
     1
102
RTVSPost2010Prop30
280
     1
102
RTVSPost2010PropOp30
 70
     1
102
RTVSPost2010Prop31
280
     0
102
RTVSPost2010PropOp31
 70
     1
102
RTVSPost2010Prop32
280
     0
102
RTVSPost2010PropOp32
 70
     1
102
RTVSPost2010Prop33
280
     0
102
RTVSPost2010PropOp33
 70
     1
102
RTVSPost2010Prop34
280
     0
102
RTVSPost2010PropOp34
 70
     1
102
RTVSPost2010Prop35
280
     0
102
RTVSPost2010PropOp35
 70
     1
102
RTVSPost2010Prop36
280
     0
102
RTVSPost2010PropOp36
 70
     1
102
RTVSPost2010Prop37
 90
       50
102
RTVSPost2010PropOp37
 70
     1
102
RTVSPost2010Prop38
140
0.0
102
RTVSPost2010PropOp38
 70
     1
102
RTVSPost2010Prop39
140
1.0
102
RTVSPost2010PropOp39
 70
     1
102
RTVSPost2010Prop40
 90
        0
102
RTVSPost2010PropOp40
 70
     1
102
RTVSPost2010Prop41ColorIndex
 90
       18
102
RTVSPost2010Prop41ColorRGB
 90
        0
102
RTVSPost2010PropOp41
 70
     1
102
RTVSPost2010Prop42
 90
       50
102
RTVSPost2010PropOp42
 70
     1
102
RTVSPost2010Prop43
 90
        3
102
RTVSPost2010PropOp43
 70
     1
102
RTVSPost2010Prop44ColorIndex
 90
        5
102
RTVSPost2010Prop44ColorRGB
 90
      255
102
RTVSPost2010PropOp44
 70
     1
102
RTVSPost2010Prop45
280
     0
102
RTVSPost2010PropOp45
 70
     1
102
RTVSPost2010Prop46
 90
       50
102
RTVSPost2010PropOp46
 70
     1
102
RTVSPost2010Prop47
 90
       50
102
RTVSPost2010PropOp47
 70
     1
102
RTVSPost2010Prop48
 90
       50
102
RTVSPost2010PropOp48
 70
     1
102
RTVSPost2010Prop49
280
     0
102
RTVSPost2010PropOp49
 70
     1
102
RTVSPost2010Prop50
 90
       50
102
RTVSPost2010PropOp50
 70
     1
102
RTVSPost2010Prop51ColorIndex
 90
      256
102
RTVSPost2010Prop51ColorRGB
 90
-16777216
102
RTVSPost2010PropOp51
 70
     0
102
RTVSPost2010Prop52
140
1.0
102
RTVSPost2010PropOp52
 70
     0
102
RTVSPost2010Prop53
 90
        2
102
RTVSPost2010PropOp53
 70
     1
102
RTVSPost2010Prop54
  1
strokes_ogs.tif
102
RTVSPost2010PropOp54
 70
     1
102
RTVSPost2010Prop55
280
     0
102
RTVSPost2010PropOp55
 70
     1
102
RTVSPost2010Prop56
140
1.0
102
RTVSPost2010PropOp56
 70
     1
102
RTVSPost2010Prop57
140
1.0
102
RTVSPost2010PropOp57
 70
     1
102
RTVSPropertyOp0
 70
     1
102
RTVSPropertyOp1
 70
     1
102
RTVSPropertyOp2
 70
     1
102
RTVSPropertyOp3
 70
     1
102
RTVSPropertyOp4
 70
     1
102
RTVSPropertyOp5
 70
     1
102
RTVSPropertyOp6
 70
     1
102
RTVSPropertyOp7
 70
     1
102
RTVSPropertyOp8
 70
     1
102
RTVSPropertyOp9
 70
     1
102
RTVSPropertyOp10
 70
     1
102
RTVSPropertyOp11
 70
     1
102
RTVSPropertyOp12
 70
     1
102
RTVSPropertyOp13
 70
     1
102
RTVSPropertyOp14
 70
     1
102
RTVSPropertyOp15
 70
     1
102
RTVSPropertyOp16
 70
     1
102
RTVSPropertyOp17
 70
     1
102
RTVSPropertyOp18
 70
     1
102
RTVSPropertyOp19
 70
     1
102
RTVSPropertyOp20
 70
     1
102
RTVSPropertyOp21
 70
     1
102
RTVSPropertyOp22
 70
     1
102
RTVSPropertyOp23
 70
     1
102
RTVSPropertyOp24
 70
     1
102
RTVSPropertyOp25
 70
     1
102
RTVSPropertyOp26
 70
     1
102
RTVSPropertyOp27
 70
     1
102
RTVSPropertyOp28
 70
     1
102
RTVSPropertyOp29
 70
     1
102
RTVSPropertyOp30
 70
     1
102
RTVSPropertyOp31
 70
     1
102
RTVSPropertyOp32
 70
     1
102
RTVSPropertyOp33
 70
     1
102
RTVSPropertyOp34
 70
     1
102
RTVSPropertyOp35
 70
     1
102
RTVSPropertyOp36
 70
     1
102
RTVSPropertyOp37
 70
     1
102
RTVSPropertyOp38
 70
     1
102
RTVSPropertyOp39
 70
     1
102
RTVSPropertyOp40
 70
     1
102
RTVSPropertyOp41
 70
     1
102
RTVSPropertyOp42
 70
     1
102
RTVSPropertyOp43
 70
     1
102
RTVSPropertyOp44
 70
     1
102
RTVSPropertyOp45
 70
     1
102
RTVSPropertyOp46
 70
     1
102
RTVSPropertyOp47
 70
     1
102
RTVSPropertyOp48
 70
     1
102
RTVSPropertyOp49
 70
     1
102
RTVSPropertyOp50
 70
     1
102
RTVSPropertyOp51
 70
     0
102
RTVSPropertyOp52
 70
     0
102
RTVSPropertyOp53
 70
     1
102
RTVSPropertyOp54
 70
     1
102
RTVSPropertyOp55
 70
     1
102
RTVSPropertyOp56
 70
     1
102
RTVSPropertyOp57
 70
     1
102
RTVSPropertyOp58
 70
     1
102
RTVSPropertyOp59
 70
     1
102
RTVSPropertyOp60
 70
     1
102
RTVSPropertyOp61
 70
     1
102
RTVSPropertyOp62
 70
     1
  0
XRECORD
  5
23B7
102
{ACAD_REACTORS
330
23B6
102
}
330
23B6
100
AcDbXrecord
280
     1
102
RTVSPost2010Prop28
280
     0
102
RTVSPost2010PropOp28
 70
     1
102
RTVSPost2010Prop29
280
     1
102
RTVSPost2010PropOp29
 70
     1
102
RTVSPost2010Prop30
280
     1
102
RTVSPost2010PropOp30
 70
     1
102
RTVSPost2010Prop31
280
     0
102
RTVSPost2010PropOp31
 70
     1
102
RTVSPost2010Prop32
280
     0
102
RTVSPost2010PropOp32
 70
     1
102
RTVSPost2010Prop33
280
     0
102
RTVSPost2010PropOp33
 70
     1
102
RTVSPost2010Prop34
280
     0
102
RTVSPost2010PropOp34
 70
     1
102
RTVSPost2010Prop35
280
     0
102
RTVSPost2010PropOp35
 70
     1
102
RTVSPost2010Prop36
280
     0
102
RTVSPost2010PropOp36
 70
     1
102
RTVSPost2010Prop37
 90
       50
102
RTVSPost2010PropOp37
 70
     1
102
RTVSPost2010Prop38
140
0.0
102
RTVSPost2010PropOp38
 70
     1
102
RTVSPost2010Prop39
140
1.0
102
RTVSPost2010PropOp39
 70
     1
102
RTVSPost2010Prop40
 90
        0
102
RTVSPost2010PropOp40
 70
     1
102
RTVSPost2010Prop41ColorIndex
 90
       18
102
RTVSPost2010Prop41ColorRGB
 90
        0
102
RTVSPost2010PropOp41
 70
     1
102
RTVSPost2010Prop42
 90
       50
102
RTVSPost2010PropOp42
 70
     1
102
RTVSPost2010Prop43
 90
        3
102
RTVSPost2010PropOp43
 70
     1
102
RTVSPost2010Prop44ColorIndex
 90
        5
102
RTVSPost2010Prop44ColorRGB
 90
      255
102
RTVSPost2010PropOp44
 70
     1
102
RTVSPost2010Prop45
280
     0
102
RTVSPost2010PropOp45
 70
     1
102
RTVSPost2010Prop46
 90
       50
102
RTVSPost2010PropOp46
 70
     1
102
RTVSPost2010Prop47
 90
       50
102
RTVSPost2010PropOp47
 70
     1
102
RTVSPost2010Prop48
 90
       50
102
RTVSPost2010PropOp48
 70
     1
102
RTVSPost2010Prop49
280
     0
102
RTVSPost2010PropOp49
 70
     1
102
RTVSPost2010Prop50
 90
       50
102
RTVSPost2010PropOp50
 70
     1
102
RTVSPost2010Prop51ColorIndex
 90
      256
102
RTVSPost2010Prop51ColorRGB
 90
-16777216
102
RTVSPost2010PropOp51
 70
     0
102
RTVSPost2010Prop52
140
1.0
102
RTVSPost2010PropOp52
 70
     0
102
RTVSPost2010Prop53
 90
        2
102
RTVSPost2010PropOp53
 70
     1
102
RTVSPost2010Prop54
  1
strokes_ogs.tif
102
RTVSPost2010PropOp54
 70
     1
102
RTVSPost2010Prop55
280
     0
102
RTVSPost2010PropOp55
 70
     1
102
RTVSPost2010Prop56
140
1.0
102
RTVSPost2010PropOp56
 70
     1
102
RTVSPost2010Prop57
140
1.0
102
RTVSPost2010PropOp57
 70
     1
102
RTVSPropertyOp0
 70
     1
102
RTVSPropertyOp1
 70
     1
102
RTVSPropertyOp2
 70
     1
102
RTVSPropertyOp3
 70
     1
102
RTVSPropertyOp4
 70
     1
102
RTVSPropertyOp5
 70
     1
102
RTVSPropertyOp6
 70
     1
102
RTVSPropertyOp7
 70
     1
102
RTVSPropertyOp8
 70
     1
102
RTVSPropertyOp9
 70
     1
102
RTVSPropertyOp10
 70
     1
102
RTVSPropertyOp11
 70
     1
102
RTVSPropertyOp12
 70
     1
102
RTVSPropertyOp13
 70
     1
102
RTVSPropertyOp14
 70
     1
102
RTVSPropertyOp15
 70
     1
102
RTVSPropertyOp16
 70
     1
102
RTVSPropertyOp17
 70
     1
102
RTVSPropertyOp18
 70
     1
102
RTVSPropertyOp19
 70
     1
102
RTVSPropertyOp20
 70
     1
102
RTVSPropertyOp21
 70
     1
102
RTVSPropertyOp22
 70
     1
102
RTVSPropertyOp23
 70
     1
102
RTVSPropertyOp24
 70
     1
102
RTVSPropertyOp25
 70
     1
102
RTVSPropertyOp26
 70
     1
102
RTVSPropertyOp27
 70
     1
102
RTVSPropertyOp28
 70
     1
102
RTVSPropertyOp29
 70
     1
102
RTVSPropertyOp30
 70
     1
102
RTVSPropertyOp31
 70
     1
102
RTVSPropertyOp32
 70
     1
102
RTVSPropertyOp33
 70
     1
102
RTVSPropertyOp34
 70
     1
102
RTVSPropertyOp35
 70
     1
102
RTVSPropertyOp36
 70
     1
102
RTVSPropertyOp37
 70
     1
102
RTVSPropertyOp38
 70
     1
102
RTVSPropertyOp39
 70
     1
102
RTVSPropertyOp40
 70
     1
102
RTVSPropertyOp41
 70
     1
102
RTVSPropertyOp42
 70
     1
102
RTVSPropertyOp43
 70
     1
102
RTVSPropertyOp44
 70
     1
102
RTVSPropertyOp45
 70
     1
102
RTVSPropertyOp46
 70
     1
102
RTVSPropertyOp47
 70
     1
102
RTVSPropertyOp48
 70
     1
102
RTVSPropertyOp49
 70
     1
102
RTVSPropertyOp50
 70
     1
102
RTVSPropertyOp51
 70
     0
102
RTVSPropertyOp52
 70
     0
102
RTVSPropertyOp53
 70
     1
102
RTVSPropertyOp54
 70
     1
102
RTVSPropertyOp55
 70
     1
102
RTVSPropertyOp56
 70
     1
102
RTVSPropertyOp57
 70
     1
102
RTVSPropertyOp58
 70
     1
102
RTVSPropertyOp59
 70
     1
102
RTVSPropertyOp60
 70
     1
102
RTVSPropertyOp61
 70
     1
102
RTVSPropertyOp62
 70
     1
  0
XRECORD
  5
23B1
102
{ACAD_REACTORS
330
23B0
102
}
330
23B0
100
AcDbXrecord
280
     1
102
RTVSPost2010Prop28
280
     0
102
RTVSPost2010PropOp28
 70
     1
102
RTVSPost2010Prop29
280
     1
102
RTVSPost2010PropOp29
 70
     1
102
RTVSPost2010Prop30
280
     1
102
RTVSPost2010PropOp30
 70
     1
102
RTVSPost2010Prop31
280
     0
102
RTVSPost2010PropOp31
 70
     1
102
RTVSPost2010Prop32
280
     0
102
RTVSPost2010PropOp32
 70
     1
102
RTVSPost2010Prop33
280
     0
102
RTVSPost2010PropOp33
 70
     1
102
RTVSPost2010Prop34
280
     0
102
RTVSPost2010PropOp34
 70
     1
102
RTVSPost2010Prop35
280
     0
102
RTVSPost2010PropOp35
 70
     1
102
RTVSPost2010Prop36
280
     0
102
RTVSPost2010PropOp36
 70
     1
102
RTVSPost2010Prop37
 90
       50
102
RTVSPost2010PropOp37
 70
     1
102
RTVSPost2010Prop38
140
0.0
102
RTVSPost2010PropOp38
 70
     1
102
RTVSPost2010Prop39
140
1.0
102
RTVSPost2010PropOp39
 70
     1
102
RTVSPost2010Prop40
 90
        0
102
RTVSPost2010PropOp40
 70
     1
102
RTVSPost2010Prop41ColorIndex
 90
       18
102
RTVSPost2010Prop41ColorRGB
 90
        0
102
RTVSPost2010PropOp41
 70
     1
102
RTVSPost2010Prop42
 90
       50
102
RTVSPost2010PropOp42
 70
     1
102
RTVSPost2010Prop43
 90
        3
102
RTVSPost2010PropOp43
 70
     1
102
RTVSPost2010Prop44ColorIndex
 90
        5
102
RTVSPost2010Prop44ColorRGB
 90
      255
102
RTVSPost2010PropOp44
 70
     1
102
RTVSPost2010Prop45
280
     0
102
RTVSPost2010PropOp45
 70
     1
102
RTVSPost2010Prop46
 90
       50
102
RTVSPost2010PropOp46
 70
     1
102
RTVSPost2010Prop47
 90
       50
102
RTVSPost2010PropOp47
 70
     1
102
RTVSPost2010Prop48
 90
       50
102
RTVSPost2010PropOp48
 70
     1
102
RTVSPost2010Prop49
280
     0
102
RTVSPost2010PropOp49
 70
     1
102
RTVSPost2010Prop50
 90
       50
102
RTVSPost2010PropOp50
 70
     1
102
RTVSPost2010Prop51ColorIndex
 90
      256
102
RTVSPost2010Prop51ColorRGB
 90
-16777216
102
RTVSPost2010PropOp51
 70
     0
102
RTVSPost2010Prop52
140
1.0
102
RTVSPost2010PropOp52
 70
     0
102
RTVSPost2010Prop53
 90
        2
102
RTVSPost2010PropOp53
 70
     1
102
RTVSPost2010Prop54
  1
strokes_ogs.tif
102
RTVSPost2010PropOp54
 70
     1
102
RTVSPost2010Prop55
280
     0
102
RTVSPost2010PropOp55
 70
     1
102
RTVSPost2010Prop56
140
1.0
102
RTVSPost2010PropOp56
 70
     1
102
RTVSPost2010Prop57
140
1.0
102
RTVSPost2010PropOp57
 70
     1
102
RTVSPropertyOp0
 70
     1
102
RTVSPropertyOp1
 70
     1
102
RTVSPropertyOp2
 70
     1
102
RTVSPropertyOp3
 70
     1
102
RTVSPropertyOp4
 70
     1
102
RTVSPropertyOp5
 70
     1
102
RTVSPropertyOp6
 70
     1
102
RTVSPropertyOp7
 70
     1
102
RTVSPropertyOp8
 70
     1
102
RTVSPropertyOp9
 70
     1
102
RTVSPropertyOp10
 70
     1
102
RTVSPropertyOp11
 70
     1
102
RTVSPropertyOp12
 70
     1
102
RTVSPropertyOp13
 70
     1
102
RTVSPropertyOp14
 70
     1
102
RTVSPropertyOp15
 70
     1
102
RTVSPropertyOp16
 70
     1
102
RTVSPropertyOp17
 70
     1
102
RTVSPropertyOp18
 70
     1
102
RTVSPropertyOp19
 70
     1
102
RTVSPropertyOp20
 70
     1
102
RTVSPropertyOp21
 70
     1
102
RTVSPropertyOp22
 70
     1
102
RTVSPropertyOp23
 70
     1
102
RTVSPropertyOp24
 70
     1
102
RTVSPropertyOp25
 70
     1
102
RTVSPropertyOp26
 70
     1
102
RTVSPropertyOp27
 70
     1
102
RTVSPropertyOp28
 70
     1
102
RTVSPropertyOp29
 70
     1
102
RTVSPropertyOp30
 70
     1
102
RTVSPropertyOp31
 70
     1
102
RTVSPropertyOp32
 70
     1
102
RTVSPropertyOp33
 70
     1
102
RTVSPropertyOp34
 70
     1
102
RTVSPropertyOp35
 70
     1
102
RTVSPropertyOp36
 70
     1
102
RTVSPropertyOp37
 70
     1
102
RTVSPropertyOp38
 70
     1
102
RTVSPropertyOp39
 70
     1
102
RTVSPropertyOp40
 70
     1
102
RTVSPropertyOp41
 70
     1
102
RTVSPropertyOp42
 70
     1
102
RTVSPropertyOp43
 70
     1
102
RTVSPropertyOp44
 70
     1
102
RTVSPropertyOp45
 70
     1
102
RTVSPropertyOp46
 70
     1
102
RTVSPropertyOp47
 70
     1
102
RTVSPropertyOp48
 70
     1
102
RTVSPropertyOp49
 70
     1
102
RTVSPropertyOp50
 70
     1
102
RTVSPropertyOp51
 70
     0
102
RTVSPropertyOp52
 70
     0
102
RTVSPropertyOp53
 70
     1
102
RTVSPropertyOp54
 70
     1
102
RTVSPropertyOp55
 70
     1
102
RTVSPropertyOp56
 70
     1
102
RTVSPropertyOp57
 70
     1
102
RTVSPropertyOp58
 70
     1
102
RTVSPropertyOp59
 70
     1
102
RTVSPropertyOp60
 70
     1
102
RTVSPropertyOp61
 70
     1
102
RTVSPropertyOp62
 70
     1
  0
XRECORD
  5
23B3
102
{ACAD_REACTORS
330
23B2
102
}
330
23B2
100
AcDbXrecord
280
     1
102
RTVSPost2010Prop28
280
     0
102
RTVSPost2010PropOp28
 70
     1
102
RTVSPost2010Prop29
280
     1
102
RTVSPost2010PropOp29
 70
     1
102
RTVSPost2010Prop30
280
     1
102
RTVSPost2010PropOp30
 70
     1
102
RTVSPost2010Prop31
280
     0
102
RTVSPost2010PropOp31
 70
     1
102
RTVSPost2010Prop32
280
     0
102
RTVSPost2010PropOp32
 70
     1
102
RTVSPost2010Prop33
280
     0
102
RTVSPost2010PropOp33
 70
     1
102
RTVSPost2010Prop34
280
     0
102
RTVSPost2010PropOp34
 70
     1
102
RTVSPost2010Prop35
280
     0
102
RTVSPost2010PropOp35
 70
     1
102
RTVSPost2010Prop36
280
     0
102
RTVSPost2010PropOp36
 70
     1
102
RTVSPost2010Prop37
 90
       50
102
RTVSPost2010PropOp37
 70
     1
102
RTVSPost2010Prop38
140
0.0
102
RTVSPost2010PropOp38
 70
     1
102
RTVSPost2010Prop39
140
1.0
102
RTVSPost2010PropOp39
 70
     1
102
RTVSPost2010Prop40
 90
        0
102
RTVSPost2010PropOp40
 70
     1
102
RTVSPost2010Prop41ColorIndex
 90
       18
102
RTVSPost2010Prop41ColorRGB
 90
        0
102
RTVSPost2010PropOp41
 70
     1
102
RTVSPost2010Prop42
 90
       50
102
RTVSPost2010PropOp42
 70
     1
102
RTVSPost2010Prop43
 90
        3
102
RTVSPost2010PropOp43
 70
     1
102
RTVSPost2010Prop44ColorIndex
 90
        5
102
RTVSPost2010Prop44ColorRGB
 90
      255
102
RTVSPost2010PropOp44
 70
     1
102
RTVSPost2010Prop45
280
     0
102
RTVSPost2010PropOp45
 70
     1
102
RTVSPost2010Prop46
 90
       50
102
RTVSPost2010PropOp46
 70
     1
102
RTVSPost2010Prop47
 90
       50
102
RTVSPost2010PropOp47
 70
     1
102
RTVSPost2010Prop48
 90
       50
102
RTVSPost2010PropOp48
 70
     1
102
RTVSPost2010Prop49
280
     0
102
RTVSPost2010PropOp49
 70
     1
102
RTVSPost2010Prop50
 90
       50
102
RTVSPost2010PropOp50
 70
     1
102
RTVSPost2010Prop51ColorIndex
 90
      256
102
RTVSPost2010Prop51ColorRGB
 90
-16777216
102
RTVSPost2010PropOp51
 70
     0
102
RTVSPost2010Prop52
140
1.0
102
RTVSPost2010PropOp52
 70
     0
102
RTVSPost2010Prop53
 90
        2
102
RTVSPost2010PropOp53
 70
     1
102
RTVSPost2010Prop54
  1
strokes_ogs.tif
102
RTVSPost2010PropOp54
 70
     1
102
RTVSPost2010Prop55
280
     0
102
RTVSPost2010PropOp55
 70
     1
102
RTVSPost2010Prop56
140
1.0
102
RTVSPost2010PropOp56
 70
     1
102
RTVSPost2010Prop57
140
1.0
102
RTVSPost2010PropOp57
 70
     1
102
RTVSPropertyOp0
 70
     1
102
RTVSPropertyOp1
 70
     1
102
RTVSPropertyOp2
 70
     1
102
RTVSPropertyOp3
 70
     1
102
RTVSPropertyOp4
 70
     1
102
RTVSPropertyOp5
 70
     1
102
RTVSPropertyOp6
 70
     1
102
RTVSPropertyOp7
 70
     1
102
RTVSPropertyOp8
 70
     1
102
RTVSPropertyOp9
 70
     1
102
RTVSPropertyOp10
 70
     1
102
RTVSPropertyOp11
 70
     1
102
RTVSPropertyOp12
 70
     1
102
RTVSPropertyOp13
 70
     1
102
RTVSPropertyOp14
 70
     1
102
RTVSPropertyOp15
 70
     1
102
RTVSPropertyOp16
 70
     1
102
RTVSPropertyOp17
 70
     1
102
RTVSPropertyOp18
 70
     1
102
RTVSPropertyOp19
 70
     1
102
RTVSPropertyOp20
 70
     1
102
RTVSPropertyOp21
 70
     1
102
RTVSPropertyOp22
 70
     1
102
RTVSPropertyOp23
 70
     1
102
RTVSPropertyOp24
 70
     1
102
RTVSPropertyOp25
 70
     1
102
RTVSPropertyOp26
 70
     1
102
RTVSPropertyOp27
 70
     1
102
RTVSPropertyOp28
 70
     1
102
RTVSPropertyOp29
 70
     1
102
RTVSPropertyOp30
 70
     1
102
RTVSPropertyOp31
 70
     1
102
RTVSPropertyOp32
 70
     1
102
RTVSPropertyOp33
 70
     1
102
RTVSPropertyOp34
 70
     1
102
RTVSPropertyOp35
 70
     1
102
RTVSPropertyOp36
 70
     1
102
RTVSPropertyOp37
 70
     1
102
RTVSPropertyOp38
 70
     1
102
RTVSPropertyOp39
 70
     1
102
RTVSPropertyOp40
 70
     1
102
RTVSPropertyOp41
 70
     1
102
RTVSPropertyOp42
 70
     1
102
RTVSPropertyOp43
 70
     1
102
RTVSPropertyOp44
 70
     1
102
RTVSPropertyOp45
 70
     1
102
RTVSPropertyOp46
 70
     1
102
RTVSPropertyOp47
 70
     1
102
RTVSPropertyOp48
 70
     1
102
RTVSPropertyOp49
 70
     1
102
RTVSPropertyOp50
 70
     1
102
RTVSPropertyOp51
 70
     0
102
RTVSPropertyOp52
 70
     0
102
RTVSPropertyOp53
 70
     1
102
RTVSPropertyOp54
 70
     1
102
RTVSPropertyOp55
 70
     1
102
RTVSPropertyOp56
 70
     1
102
RTVSPropertyOp57
 70
     1
102
RTVSPropertyOp58
 70
     1
102
RTVSPropertyOp59
 70
     1
102
RTVSPropertyOp60
 70
     1
102
RTVSPropertyOp61
 70
     1
102
RTVSPropertyOp62
 70
     1
  0
XRECORD
  5
23A9
102
{ACAD_REACTORS
330
23A8
102
}
330
23A8
100
AcDbXrecord
280
     1
102
RTVSPost2010Prop28
280
     0
102
RTVSPost2010PropOp28
 70
     1
102
RTVSPost2010Prop29
280
     1
102
RTVSPost2010PropOp29
 70
     1
102
RTVSPost2010Prop30
280
     1
102
RTVSPost2010PropOp30
 70
     1
102
RTVSPost2010Prop31
280
     0
102
RTVSPost2010PropOp31
 70
     1
102
RTVSPost2010Prop32
280
     0
102
RTVSPost2010PropOp32
 70
     1
102
RTVSPost2010Prop33
280
     0
102
RTVSPost2010PropOp33
 70
     1
102
RTVSPost2010Prop34
280
     0
102
RTVSPost2010PropOp34
 70
     1
102
RTVSPost2010Prop35
280
     0
102
RTVSPost2010PropOp35
 70
     1
102
RTVSPost2010Prop36
280
     0
102
RTVSPost2010PropOp36
 70
     1
102
RTVSPost2010Prop37
 90
       50
102
RTVSPost2010PropOp37
 70
     1
102
RTVSPost2010Prop38
140
0.0
102
RTVSPost2010PropOp38
 70
     1
102
RTVSPost2010Prop39
140
1.0
102
RTVSPost2010PropOp39
 70
     1
102
RTVSPost2010Prop40
 90
        0
102
RTVSPost2010PropOp40
 70
     1
102
RTVSPost2010Prop41ColorIndex
 90
       18
102
RTVSPost2010Prop41ColorRGB
 90
        0
102
RTVSPost2010PropOp41
 70
     1
102
RTVSPost2010Prop42
 90
       50
102
RTVSPost2010PropOp42
 70
     1
102
RTVSPost2010Prop43
 90
        3
102
RTVSPost2010PropOp43
 70
     1
102
RTVSPost2010Prop44ColorIndex
 90
        5
102
RTVSPost2010Prop44ColorRGB
 90
      255
102
RTVSPost2010PropOp44
 70
     1
102
RTVSPost2010Prop45
280
     0
102
RTVSPost2010PropOp45
 70
     1
102
RTVSPost2010Prop46
 90
       50
102
RTVSPost2010PropOp46
 70
     1
102
RTVSPost2010Prop47
 90
       50
102
RTVSPost2010PropOp47
 70
     1
102
RTVSPost2010Prop48
 90
       50
102
RTVSPost2010PropOp48
 70
     1
102
RTVSPost2010Prop49
280
     0
102
RTVSPost2010PropOp49
 70
     1
102
RTVSPost2010Prop50
 90
       50
102
RTVSPost2010PropOp50
 70
     1
102
RTVSPost2010Prop51ColorIndex
 90
      256
102
RTVSPost2010Prop51ColorRGB
 90
-16777216
102
RTVSPost2010PropOp51
 70
     0
102
RTVSPost2010Prop52
140
1.0
102
RTVSPost2010PropOp52
 70
     0
102
RTVSPost2010Prop53
 90
        2
102
RTVSPost2010PropOp53
 70
     1
102
RTVSPost2010Prop54
  1
strokes_ogs.tif
102
RTVSPost2010PropOp54
 70
     1
102
RTVSPost2010Prop55
280
     0
102
RTVSPost2010PropOp55
 70
     1
102
RTVSPost2010Prop56
140
1.0
102
RTVSPost2010PropOp56
 70
     1
102
RTVSPost2010Prop57
140
1.0
102
RTVSPost2010PropOp57
 70
     1
102
RTVSPropertyOp0
 70
     1
102
RTVSPropertyOp1
 70
     1
102
RTVSPropertyOp2
 70
     1
102
RTVSPropertyOp3
 70
     1
102
RTVSPropertyOp4
 70
     1
102
RTVSPropertyOp5
 70
     1
102
RTVSPropertyOp6
 70
     1
102
RTVSPropertyOp7
 70
     1
102
RTVSPropertyOp8
 70
     1
102
RTVSPropertyOp9
 70
     1
102
RTVSPropertyOp10
 70
     1
102
RTVSPropertyOp11
 70
     1
102
RTVSPropertyOp12
 70
     1
102
RTVSPropertyOp13
 70
     1
102
RTVSPropertyOp14
 70
     1
102
RTVSPropertyOp15
 70
     1
102
RTVSPropertyOp16
 70
     1
102
RTVSPropertyOp17
 70
     1
102
RTVSPropertyOp18
 70
     1
102
RTVSPropertyOp19
 70
     1
102
RTVSPropertyOp20
 70
     1
102
RTVSPropertyOp21
 70
     1
102
RTVSPropertyOp22
 70
     1
102
RTVSPropertyOp23
 70
     1
102
RTVSPropertyOp24
 70
     1
102
RTVSPropertyOp25
 70
     1
102
RTVSPropertyOp26
 70
     1
102
RTVSPropertyOp27
 70
     1
102
RTVSPropertyOp28
 70
     1
102
RTVSPropertyOp29
 70
     1
102
RTVSPropertyOp30
 70
     1
102
RTVSPropertyOp31
 70
     1
102
RTVSPropertyOp32
 70
     1
102
RTVSPropertyOp33
 70
     1
102
RTVSPropertyOp34
 70
     1
102
RTVSPropertyOp35
 70
     1
102
RTVSPropertyOp36
 70
     1
102
RTVSPropertyOp37
 70
     1
102
RTVSPropertyOp38
 70
     1
102
RTVSPropertyOp39
 70
     1
102
RTVSPropertyOp40
 70
     1
102
RTVSPropertyOp41
 70
     1
102
RTVSPropertyOp42
 70
     1
102
RTVSPropertyOp43
 70
     1
102
RTVSPropertyOp44
 70
     1
102
RTVSPropertyOp45
 70
     1
102
RTVSPropertyOp46
 70
     1
102
RTVSPropertyOp47
 70
     1
102
RTVSPropertyOp48
 70
     1
102
RTVSPropertyOp49
 70
     1
102
RTVSPropertyOp50
 70
     1
102
RTVSPropertyOp51
 70
     0
102
RTVSPropertyOp52
 70
     0
102
RTVSPropertyOp53
 70
     1
102
RTVSPropertyOp54
 70
     1
102
RTVSPropertyOp55
 70
     1
102
RTVSPropertyOp56
 70
     1
102
RTVSPropertyOp57
 70
     1
102
RTVSPropertyOp58
 70
     1
102
RTVSPropertyOp59
 70
     1
102
RTVSPropertyOp60
 70
     1
102
RTVSPropertyOp61
 70
     1
102
RTVSPropertyOp62
 70
     1
  0
XRECORD
  5
239D
102
{ACAD_REACTORS
330
239C
102
}
330
239C
100
AcDbXrecord
280
     1
102
RTVSPost2010Prop28
280
     0
102
RTVSPost2010PropOp28
 70
     1
102
RTVSPost2010Prop29
280
     1
102
RTVSPost2010PropOp29
 70
     1
102
RTVSPost2010Prop30
280
     1
102
RTVSPost2010PropOp30
 70
     1
102
RTVSPost2010Prop31
280
     0
102
RTVSPost2010PropOp31
 70
     1
102
RTVSPost2010Prop32
280
     0
102
RTVSPost2010PropOp32
 70
     1
102
RTVSPost2010Prop33
280
     0
102
RTVSPost2010PropOp33
 70
     1
102
RTVSPost2010Prop34
280
     0
102
RTVSPost2010PropOp34
 70
     1
102
RTVSPost2010Prop35
280
     0
102
RTVSPost2010PropOp35
 70
     1
102
RTVSPost2010Prop36
280
     0
102
RTVSPost2010PropOp36
 70
     1
102
RTVSPost2010Prop37
 90
       50
102
RTVSPost2010PropOp37
 70
     1
102
RTVSPost2010Prop38
140
0.0
102
RTVSPost2010PropOp38
 70
     1
102
RTVSPost2010Prop39
140
1.0
102
RTVSPost2010PropOp39
 70
     1
102
RTVSPost2010Prop40
 90
        0
102
RTVSPost2010PropOp40
 70
     1
102
RTVSPost2010Prop41ColorIndex
 90
       18
102
RTVSPost2010Prop41ColorRGB
 90
        0
102
RTVSPost2010PropOp41
 70
     1
102
RTVSPost2010Prop42
 90
       50
102
RTVSPost2010PropOp42
 70
     1
102
RTVSPost2010Prop43
 90
        3
102
RTVSPost2010PropOp43
 70
     1
102
RTVSPost2010Prop44ColorIndex
 90
        5
102
RTVSPost2010Prop44ColorRGB
 90
      255
102
RTVSPost2010PropOp44
 70
     1
102
RTVSPost2010Prop45
280
     0
102
RTVSPost2010PropOp45
 70
     1
102
RTVSPost2010Prop46
 90
       50
102
RTVSPost2010PropOp46
 70
     1
102
RTVSPost2010Prop47
 90
       50
102
RTVSPost2010PropOp47
 70
     1
102
RTVSPost2010Prop48
 90
       50
102
RTVSPost2010PropOp48
 70
     1
102
RTVSPost2010Prop49
280
     0
102
RTVSPost2010PropOp49
 70
     1
102
RTVSPost2010Prop50
 90
       50
102
RTVSPost2010PropOp50
 70
     1
102
RTVSPost2010Prop51ColorIndex
 90
      256
102
RTVSPost2010Prop51ColorRGB
 90
-16777216
102
RTVSPost2010PropOp51
 70
     0
102
RTVSPost2010Prop52
140
1.0
102
RTVSPost2010PropOp52
 70
     0
102
RTVSPost2010Prop53
 90
        2
102
RTVSPost2010PropOp53
 70
     1
102
RTVSPost2010Prop54
  1
strokes_ogs.tif
102
RTVSPost2010PropOp54
 70
     1
102
RTVSPost2010Prop55
280
     0
102
RTVSPost2010PropOp55
 70
     1
102
RTVSPost2010Prop56
140
1.0
102
RTVSPost2010PropOp56
 70
     1
102
RTVSPost2010Prop57
140
1.0
102
RTVSPost2010PropOp57
 70
     1
102
RTVSPropertyOp0
 70
     1
102
RTVSPropertyOp1
 70
     1
102
RTVSPropertyOp2
 70
     1
102
RTVSPropertyOp3
 70
     1
102
RTVSPropertyOp4
 70
     1
102
RTVSPropertyOp5
 70
     1
102
RTVSPropertyOp6
 70
     1
102
RTVSPropertyOp7
 70
     1
102
RTVSPropertyOp8
 70
     1
102
RTVSPropertyOp9
 70
     1
102
RTVSPropertyOp10
 70
     1
102
RTVSPropertyOp11
 70
     1
102
RTVSPropertyOp12
 70
     1
102
RTVSPropertyOp13
 70
     1
102
RTVSPropertyOp14
 70
     1
102
RTVSPropertyOp15
 70
     1
102
RTVSPropertyOp16
 70
     1
102
RTVSPropertyOp17
 70
     1
102
RTVSPropertyOp18
 70
     1
102
RTVSPropertyOp19
 70
     1
102
RTVSPropertyOp20
 70
     1
102
RTVSPropertyOp21
 70
     1
102
RTVSPropertyOp22
 70
     1
102
RTVSPropertyOp23
 70
     1
102
RTVSPropertyOp24
 70
     1
102
RTVSPropertyOp25
 70
     1
102
RTVSPropertyOp26
 70
     1
102
RTVSPropertyOp27
 70
     1
102
RTVSPropertyOp28
 70
     1
102
RTVSPropertyOp29
 70
     1
102
RTVSPropertyOp30
 70
     1
102
RTVSPropertyOp31
 70
     1
102
RTVSPropertyOp32
 70
     1
102
RTVSPropertyOp33
 70
     1
102
RTVSPropertyOp34
 70
     1
102
RTVSPropertyOp35
 70
     1
102
RTVSPropertyOp36
 70
     1
102
RTVSPropertyOp37
 70
     1
102
RTVSPropertyOp38
 70
     1
102
RTVSPropertyOp39
 70
     1
102
RTVSPropertyOp40
 70
     1
102
RTVSPropertyOp41
 70
     1
102
RTVSPropertyOp42
 70
     1
102
RTVSPropertyOp43
 70
     1
102
RTVSPropertyOp44
 70
     1
102
RTVSPropertyOp45
 70
     1
102
RTVSPropertyOp46
 70
     1
102
RTVSPropertyOp47
 70
     1
102
RTVSPropertyOp48
 70
     1
102
RTVSPropertyOp49
 70
     1
102
RTVSPropertyOp50
 70
     1
102
RTVSPropertyOp51
 70
     0
102
RTVSPropertyOp52
 70
     0
102
RTVSPropertyOp53
 70
     1
102
RTVSPropertyOp54
 70
     1
102
RTVSPropertyOp55
 70
     1
102
RTVSPropertyOp56
 70
     1
102
RTVSPropertyOp57
 70
     1
102
RTVSPropertyOp58
 70
     1
102
RTVSPropertyOp59
 70
     1
102
RTVSPropertyOp60
 70
     1
102
RTVSPropertyOp61
 70
     1
102
RTVSPropertyOp62
 70
     1
  0
XRECORD
  5
23B5
102
{ACAD_REACTORS
330
23B4
102
}
330
23B4
100
AcDbXrecord
280
     1
102
RTVSPost2010Prop28
280
     0
102
RTVSPost2010PropOp28
 70
     1
102
RTVSPost2010Prop29
280
     1
102
RTVSPost2010PropOp29
 70
     1
102
RTVSPost2010Prop30
280
     1
102
RTVSPost2010PropOp30
 70
     1
102
RTVSPost2010Prop31
280
     0
102
RTVSPost2010PropOp31
 70
     1
102
RTVSPost2010Prop32
280
     0
102
RTVSPost2010PropOp32
 70
     1
102
RTVSPost2010Prop33
280
     0
102
RTVSPost2010PropOp33
 70
     1
102
RTVSPost2010Prop34
280
     0
102
RTVSPost2010PropOp34
 70
     1
102
RTVSPost2010Prop35
280
     0
102
RTVSPost2010PropOp35
 70
     1
102
RTVSPost2010Prop36
280
     0
102
RTVSPost2010PropOp36
 70
     1
102
RTVSPost2010Prop37
 90
       50
102
RTVSPost2010PropOp37
 70
     1
102
RTVSPost2010Prop38
140
0.0
102
RTVSPost2010PropOp38
 70
     1
102
RTVSPost2010Prop39
140
1.0
102
RTVSPost2010PropOp39
 70
     1
102
RTVSPost2010Prop40
 90
        0
102
RTVSPost2010PropOp40
 70
     1
102
RTVSPost2010Prop41ColorIndex
 90
       18
102
RTVSPost2010Prop41ColorRGB
 90
        0
102
RTVSPost2010PropOp41
 70
     1
102
RTVSPost2010Prop42
 90
       50
102
RTVSPost2010PropOp42
 70
     1
102
RTVSPost2010Prop43
 90
        3
102
RTVSPost2010PropOp43
 70
     1
102
RTVSPost2010Prop44ColorIndex
 90
        5
102
RTVSPost2010Prop44ColorRGB
 90
      255
102
RTVSPost2010PropOp44
 70
     1
102
RTVSPost2010Prop45
280
     0
102
RTVSPost2010PropOp45
 70
     1
102
RTVSPost2010Prop46
 90
       50
102
RTVSPost2010PropOp46
 70
     1
102
RTVSPost2010Prop47
 90
       50
102
RTVSPost2010PropOp47
 70
     1
102
RTVSPost2010Prop48
 90
       50
102
RTVSPost2010PropOp48
 70
     1
102
RTVSPost2010Prop49
280
     0
102
RTVSPost2010PropOp49
 70
     1
102
RTVSPost2010Prop50
 90
       50
102
RTVSPost2010PropOp50
 70
     1
102
RTVSPost2010Prop51ColorIndex
 90
      256
102
RTVSPost2010Prop51ColorRGB
 90
-16777216
102
RTVSPost2010PropOp51
 70
     0
102
RTVSPost2010Prop52
140
1.0
102
RTVSPost2010PropOp52
 70
     0
102
RTVSPost2010Prop53
 90
        2
102
RTVSPost2010PropOp53
 70
     1
102
RTVSPost2010Prop54
  1
strokes_ogs.tif
102
RTVSPost2010PropOp54
 70
     1
102
RTVSPost2010Prop55
280
     0
102
RTVSPost2010PropOp55
 70
     1
102
RTVSPost2010Prop56
140
1.0
102
RTVSPost2010PropOp56
 70
     1
102
RTVSPost2010Prop57
140
1.0
102
RTVSPost2010PropOp57
 70
     1
102
RTVSPropertyOp0
 70
     1
102
RTVSPropertyOp1
 70
     1
102
RTVSPropertyOp2
 70
     1
102
RTVSPropertyOp3
 70
     1
102
RTVSPropertyOp4
 70
     1
102
RTVSPropertyOp5
 70
     1
102
RTVSPropertyOp6
 70
     1
102
RTVSPropertyOp7
 70
     1
102
RTVSPropertyOp8
 70
     1
102
RTVSPropertyOp9
 70
     1
102
RTVSPropertyOp10
 70
     1
102
RTVSPropertyOp11
 70
     1
102
RTVSPropertyOp12
 70
     1
102
RTVSPropertyOp13
 70
     1
102
RTVSPropertyOp14
 70
     1
102
RTVSPropertyOp15
 70
     1
102
RTVSPropertyOp16
 70
     1
102
RTVSPropertyOp17
 70
     1
102
RTVSPropertyOp18
 70
     1
102
RTVSPropertyOp19
 70
     1
102
RTVSPropertyOp20
 70
     1
102
RTVSPropertyOp21
 70
     1
102
RTVSPropertyOp22
 70
     1
102
RTVSPropertyOp23
 70
     1
102
RTVSPropertyOp24
 70
     1
102
RTVSPropertyOp25
 70
     1
102
RTVSPropertyOp26
 70
     1
102
RTVSPropertyOp27
 70
     1
102
RTVSPropertyOp28
 70
     1
102
RTVSPropertyOp29
 70
     1
102
RTVSPropertyOp30
 70
     1
102
RTVSPropertyOp31
 70
     1
102
RTVSPropertyOp32
 70
     1
102
RTVSPropertyOp33
 70
     1
102
RTVSPropertyOp34
 70
     1
102
RTVSPropertyOp35
 70
     1
102
RTVSPropertyOp36
 70
     1
102
RTVSPropertyOp37
 70
     1
102
RTVSPropertyOp38
 70
     1
102
RTVSPropertyOp39
 70
     1
102
RTVSPropertyOp40
 70
     1
102
RTVSPropertyOp41
 70
     1
102
RTVSPropertyOp42
 70
     1
102
RTVSPropertyOp43
 70
     1
102
RTVSPropertyOp44
 70
     1
102
RTVSPropertyOp45
 70
     1
102
RTVSPropertyOp46
 70
     1
102
RTVSPropertyOp47
 70
     1
102
RTVSPropertyOp48
 70
     1
102
RTVSPropertyOp49
 70
     1
102
RTVSPropertyOp50
 70
     1
102
RTVSPropertyOp51
 70
     0
102
RTVSPropertyOp52
 70
     0
102
RTVSPropertyOp53
 70
     1
102
RTVSPropertyOp54
 70
     1
102
RTVSPropertyOp55
 70
     1
102
RTVSPropertyOp56
 70
     1
102
RTVSPropertyOp57
 70
     1
102
RTVSPropertyOp58
 70
     1
102
RTVSPropertyOp59
 70
     1
102
RTVSPropertyOp60
 70
     1
102
RTVSPropertyOp61
 70
     1
102
RTVSPropertyOp62
 70
     1
  0
ENDSEC
  0
EOF
