  0
SECTION
  2
HEADER
  9
$ACADVER
  1
AC1015
  9
$ACADMAINTVER
 70
    20
  9
$DWGCODEPAGE
  3
ANSI_932
  9
$INSBASE
 10
0.0
 20
0.0
 30
0.0
  9
$EXTMIN
 10
9.9999975266385
 20
10.0
 30
0.0
  9
$EXTMAX
 10
453.0587776238473
 20
270.0983470441155
 30
0.0
  9
$LIMMIN
 10
0.0000015376081137
 20
-0.0000001931532552
  9
$LIMMAX
 10
465.000001537608
 20
320.5681816250284
  9
$ORTHOMODE
 70
     1
  9
$REGENMODE
 70
     1
  9
$FILLMODE
 70
     1
  9
$QTEXTMODE
 70
     0
  9
$MIRRTEXT
 70
     1
  9
$LTSCALE
 40
0.3
  9
$ATTMODE
 70
     1
  9
$TEXTSIZE
 40
2.5
  9
$TRACEWID
 40
1.0
  9
$TEXTSTYLE
  7
STANDARD
  9
$CLAYER
  8
0
  9
$CELTYPE
  6
BYLAYER
  9
$CECOLOR
 62
   256
  9
$CELTSCALE
 40
1.0
  9
$DISPSILH
 70
     0
  9
$DIMSCALE
 40
1.0
  9
$DIMASZ
 40
3.0
  9
$DIMEXO
 40
1.0
  9
$DIMDLI
 40
10.0
  9
$DIMRND
 40
0.0
  9
$DIMDLE
 40
0.0
  9
$DIMEXE
 40
1.0
  9
$DIMTP
 40
0.0
  9
$DIMTM
 40
0.0
  9
$DIMTXT
 40
3.2
  9
$DIMCEN
 40
0.0
  9
$DIMTSZ
 40
0.0
  9
$DIMTOL
 70
     0
  9
$DIMLIM
 70
     0
  9
$DIMTIH
 70
     0
  9
$DIMTOH
 70
     0
  9
$DIMSE1
 70
     0
  9
$DIMSE2
 70
     0
  9
$DIMTAD
 70
     3
  9
$DIMZIN
 70
     8
  9
$DIMBLK
  1

  9
$DIMASO
 70
     1
  9
$DIMSHO
 70
     1
  9
$DIMPOST
  1

  9
$DIMAPOST
  1

  9
$DIMALT
 70
     0
  9
$DIMALTD
 70
     2
  9
$DIMALTF
 40
25.4
  9
$DIMLFAC
 40
1.0
  9
$DIMTOFL
 70
     1
  9
$DIMTVP
 40
0.0
  9
$DIMTIX
 70
     0
  9
$DIMSOXD
 70
     0
  9
$DIMSAH
 70
     1
  9
$DIMBLK1
  1
OPEN
  9
$DIMBLK2
  1
OPEN
  9
$DIMSTYLE
  2
STANDARD
  9
$DIMCLRD
 70
     0
  9
$DIMCLRE
 70
     0
  9
$DIMCLRT
 70
     0
  9
$DIMTFAC
 40
1.0
  9
$DIMGAP
 40
1.0
  9
$DIMJUST
 70
     0
  9
$DIMSD1
 70
     0
  9
$DIMSD2
 70
     0
  9
$DIMTOLJ
 70
     1
  9
$DIMTZIN
 70
     0
  9
$DIMALTZ
 70
     0
  9
$DIMALTTZ
 70
     0
  9
$DIMUPT
 70
     0
  9
$DIMDEC
 70
     4
  9
$DIMTDEC
 70
     4
  9
$DIMALTU
 70
     2
  9
$DIMALTTD
 70
     2
  9
$DIMTXSTY
  7
STANDARD
  9
$DIMAUNIT
 70
     0
  9
$DIMADEC
 70
     0
  9
$DIMALTRND
 40
0.0
  9
$DIMAZIN
 70
     0
  9
$DIMDSEP
 70
    46
  9
$DIMATFIT
 70
     3
  9
$DIMFRAC
 70
     0
  9
$DIMLDRBLK
  1
OPEN
  9
$DIMLUNIT
 70
     2
  9
$DIMLWD
 70
    -2
  9
$DIMLWE
 70
    -2
  9
$DIMTMOVE
 70
     0
  9
$LUNITS
 70
     2
  9
$LUPREC
 70
     4
  9
$SKETCHINC
 40
1.0
  9
$FILLETRAD
 40
1.0
  9
$AUNITS
 70
     0
  9
$AUPREC
 70
     0
  9
$MENU
  1
.
  9
$ELEVATION
 40
0.0
  9
$PELEVATION
 40
0.0
  9
$THICKNESS
 40
0.0
  9
$LIMCHECK
 70
     0
  9
$CHAMFERA
 40
10.0
  9
$CHAMFERB
 40
10.0
  9
$CHAMFERC
 40
20.0
  9
$CHAMFERD
 40
0.0
  9
$SKPOLY
 70
     0
  9
$TDCREATE
 40
2453028.673886898
  9
$TDUCREATE
 40
2453028.298886898
  9
$TDUPDATE
 40
2457192.643698542
  9
$TDUUPDATE
 40
2457192.268698542
  9
$TDINDWG
 40
0.1170271181
  9
$TDUSRTIMER
 40
0.1170271065
  9
$USRTIMER
 70
     1
  9
$ANGBASE
 50
0.0
  9
$ANGDIR
 70
     0
  9
$PDMODE
 70
     0
  9
$PDSIZE
 40
0.0
  9
$PLINEWID
 40
0.0
  9
$SPLFRAME
 70
     0
  9
$SPLINETYPE
 70
     6
  9
$SPLINESEGS
 70
     8
  9
$HANDSEED
  5
30C7
  9
$SURFTAB1
 70
     6
  9
$SURFTAB2
 70
     6
  9
$SURFTYPE
 70
     6
  9
$SURFU
 70
     6
  9
$SURFV
 70
     6
  9
$UCSBASE
  2

  9
$UCSNAME
  2

  9
$UCSORG
 10
0.0
 20
0.0
 30
0.0
  9
$UCSXDIR
 10
1.0
 20
0.0
 30
0.0
  9
$UCSYDIR
 10
0.0
 20
1.0
 30
0.0
  9
$UCSORTHOREF
  2

  9
$UCSORTHOVIEW
 70
     0
  9
$UCSORGTOP
 10
0.0
 20
0.0
 30
0.0
  9
$UCSORGBOTTOM
 10
0.0
 20
0.0
 30
0.0
  9
$UCSORGLEFT
 10
0.0
 20
0.0
 30
0.0
  9
$UCSORGRIGHT
 10
0.0
 20
0.0
 30
0.0
  9
$UCSORGFRONT
 10
0.0
 20
0.0
 30
0.0
  9
$UCSORGBACK
 10
0.0
 20
0.0
 30
0.0
  9
$PUCSBASE
  2

  9
$PUCSNAME
  2

  9
$PUCSORG
 10
0.0
 20
0.0
 30
0.0
  9
$PUCSXDIR
 10
1.0
 20
0.0
 30
0.0
  9
$PUCSYDIR
 10
0.0
 20
1.0
 30
0.0
  9
$PUCSORTHOREF
  2

  9
$PUCSORTHOVIEW
 70
     0
  9
$PUCSORGTOP
 10
0.0
 20
0.0
 30
0.0
  9
$PUCSORGBOTTOM
 10
0.0
 20
0.0
 30
0.0
  9
$PUCSORGLEFT
 10
0.0
 20
0.0
 30
0.0
  9
$PUCSORGRIGHT
 10
0.0
 20
0.0
 30
0.0
  9
$PUCSORGFRONT
 10
0.0
 20
0.0
 30
0.0
  9
$PUCSORGBACK
 10
0.0
 20
0.0
 30
0.0
  9
$USERI1
 70
     0
  9
$USERI2
 70
     0
  9
$USERI3
 70
     0
  9
$USERI4
 70
     0
  9
$USERI5
 70
     0
  9
$USERR1
 40
0.0
  9
$USERR2
 40
0.0
  9
$USERR3
 40
0.0
  9
$USERR4
 40
0.0
  9
$USERR5
 40
0.0
  9
$WORLDVIEW
 70
     1
  9
$SHADEDGE
 70
     3
  9
$SHADEDIF
 70
    70
  9
$TILEMODE
 70
     1
  9
$MAXACTVP
 70
    48
  9
$PINSBASE
 10
0.0
 20
0.0
 30
0.0
  9
$PLIMCHECK
 70
     0
  9
$PEXTMIN
 10
1.000000000000000E+20
 20
1.000000000000000E+20
 30
1.000000000000000E+20
  9
$PEXTMAX
 10
-1.000000000000000E+20
 20
-1.000000000000000E+20
 30
-1.000000000000000E+20
  9
$PLIMMIN
 10
0.0
 20
0.0
  9
$PLIMMAX
 10
420.0
 20
297.0
  9
$UNITMODE
 70
     0
  9
$VISRETAIN
 70
     1
  9
$PLINEGEN
 70
     0
  9
$PSLTSCALE
 70
     1
  9
$TREEDEPTH
 70
  3020
  9
$CMLSTYLE
  2
STANDARD
  9
$CMLJUST
 70
     0
  9
$CMLSCALE
 40
20.0
  9
$PROXYGRAPHICS
 70
     1
  9
$MEASUREMENT
 70
     0
  9
$CELWEIGHT
370
    -1
  9
$ENDCAPS
280
     0
  9
$JOINSTYLE
280
     0
  9
$LWDISPLAY
290
     0
  9
$INSUNITS
 70
     0
  9
$HYPERLINKBASE
  1

  9
$STYLESHEET
  1

  9
$XEDIT
290
     1
  9
$CEPSNTYPE
380
     0
  9
$PSTYLEMODE
290
     1
  9
$FINGERPRINTGUID
  2
{C50D0E75-F3D7-4859-A77D-0CC4C32D19BC}
  9
$VERSIONGUID
  2
{F209E4A3-A6CA-4517-808E-32B943AB74AD}
  9
$EXTNAMES
290
     1
  9
$PSVPSCALE
 40
0.0
  9
$OLESTARTUP
290
     0
  0
ENDSEC
  0
SECTION
  2
CLASSES
  0
CLASS
  1
ACDBDICTIONARYWDFLT
  2
AcDbDictionaryWithDefault
  3
ObjectDBX Classes
 90
        0
280
     0
281
     0
  0
CLASS
  1
ACDBPLACEHOLDER
  2
AcDbPlaceHolder
  3
ObjectDBX Classes
 90
        0
280
     0
281
     0
  0
CLASS
  1
LAYOUT
  2
AcDbLayout
  3
ObjectDBX Classes
 90
        0
280
     0
281
     0
  0
CLASS
  1
DICTIONARYVAR
  2
AcDbDictionaryVar
  3
ObjectDBX Classes
 90
        0
280
     0
281
     0
  0
CLASS
  1
MATERIAL
  2
AcDbMaterial
  3
ObjectDBX Classes
 90
     1153
280
     0
281
     0
  0
CLASS
  1
VISUALSTYLE
  2
AcDbVisualStyle
  3
ObjectDBX Classes
 90
     4095
280
     0
281
     0
  0
CLASS
  1
TABLESTYLE
  2
AcDbTableStyle
  3
ObjectDBX Classes
 90
     4095
280
     0
281
     0
  0
CLASS
  1
SCALE
  2
AcDbScale
  3
ObjectDBX Classes
 90
     1153
280
     0
281
     0
  0
CLASS
  1
MLEADERSTYLE
  2
AcDbMLeaderStyle
  3
ACDB_MLEADERSTYLE_CLASS
 90
     4095
280
     0
281
     0
  0
CLASS
  1
ACDBSECTIONVIEWSTYLE
  2
AcDbSectionViewStyle
  3
ObjectDBX Classes
 90
     1025
280
     0
281
     0
  0
CLASS
  1
ACDBDETAILVIEWSTYLE
  2
AcDbDetailViewStyle
  3
ObjectDBX Classes
 90
     1025
280
     0
281
     0
  0
CLASS
  1
CELLSTYLEMAP
  2
AcDbCellStyleMap
  3
ObjectDBX Classes
 90
     1152
280
     0
281
     0
  0
ENDSEC
  0
SECTION
  2
TABLES
  0
TABLE
  2
VPORT
  5
8
330
0
100
AcDbSymbolTable
 70
     1
  0
VPORT
  5
3011
330
8
100
AcDbSymbolTableRecord
100
AcDbViewportTableRecord
  2
*ACTIVE
 70
     0
 10
0.0
 20
0.0
 11
1.0
 21
1.0
 12
310.3305205512096
 22
140.0578122667415
 13
0.0
 23
0.0
 14
10.0
 24
10.0
 15
10.0
 25
10.0
 16
0.0
 26
0.0
 36
1.0
 17
0.0
 27
0.0
 37
0.0
 40
263.0384185501679
 41
1.899603698811096
 42
50.0
 43
0.0
 44
0.0
 50
0.0
 51
0.0
 71
     0
 72
   100
 73
     1
 74
     0
 75
     0
 76
     0
 77
     0
 78
     0
281
     0
 65
     1
110
0.0
120
0.0
130
0.0
111
1.0
121
0.0
131
0.0
112
0.0
122
1.0
132
0.0
 79
     0
146
0.0
1001
ACAD_NAV_VCDISPLAY
1070
     3
  0
ENDTAB
  0
TABLE
  2
LTYPE
  5
5
330
0
100
AcDbSymbolTable
 70
     4
  0
LTYPE
  5
12
330
5
100
AcDbSymbolTableRecord
100
AcDbLinetypeTableRecord
  2
BYBLOCK
 70
     0
  3

 72
    65
 73
     0
 40
0.0
  0
LTYPE
  5
13
330
5
100
AcDbSymbolTableRecord
100
AcDbLinetypeTableRecord
  2
BYLAYER
 70
     0
  3

 72
    65
 73
     0
 40
0.0
  0
LTYPE
  5
14
330
5
100
AcDbSymbolTableRecord
100
AcDbLinetypeTableRecord
  2
CONTINUOUS
 70
     0
  3
Solid line
 72
    65
 73
     0
 40
0.0
  0
LTYPE
  5
4B
330
5
100
AcDbSymbolTableRecord
100
AcDbLinetypeTableRecord
  2
DASHED
 70
     0
  3
Dashed __ __ __ __ __ __ __ __ __ __ __ __ __ _
 72
    65
 73
     2
 40
19.04999999999999
 49
12.7
 74
     0
 49
-6.349999999999998
 74
     0
  0
LTYPE
  5
4C
330
5
100
AcDbSymbolTableRecord
100
AcDbLinetypeTableRecord
  2
CENTER
 70
     0
  3
Center ____ _ ____ _ ____ _ ____ _ ____ _ ____
 72
    65
 73
     4
 40
50.8
 49
31.75
 74
     0
 49
-6.349999999999998
 74
     0
 49
6.349999999999998
 74
     0
 49
-6.349999999999998
 74
     0
  0
LTYPE
  5
4D
330
5
100
AcDbSymbolTableRecord
100
AcDbLinetypeTableRecord
  2
PHANTOM
 70
     0
  3
Phantom ______  __  __  ______  __  __  ______
 72
    65
 73
     6
 40
63.5
 49
31.75
 74
     0
 49
-6.349999999999998
 74
     0
 49
6.349999999999998
 74
     0
 49
-6.349999999999998
 74
     0
 49
6.349999999999998
 74
     0
 49
-6.349999999999998
 74
     0
  0
ENDTAB
  0
TABLE
  2
LAYER
  5
2
330
0
100
AcDbSymbolTable
 70
     8
  0
LAYER
  5
E
102
{ACAD_XDICTIONARY
360
306B
102
}
330
2
100
AcDbSymbolTableRecord
100
AcDbLayerTableRecord
  2
0
 70
     0
 62
     7
  6
CONTINUOUS
370
    -3
390
301A
  0
LAYER
  5
4E
102
{ACAD_XDICTIONARY
360
306D
102
}
330
2
100
AcDbSymbolTableRecord
100
AcDbLayerTableRecord
  2
4
 70
     0
 62
     1
  6
CENTER
370
    -3
390
301A
  0
LAYER
  5
4F
102
{ACAD_XDICTIONARY
360
306F
102
}
330
2
100
AcDbSymbolTableRecord
100
AcDbLayerTableRecord
  2
5
 70
     0
 62
     6
  6
PHANTOM
370
    -3
390
301A
  0
LAYER
  5
50
102
{ACAD_XDICTIONARY
360
3071
102
}
330
2
100
AcDbSymbolTableRecord
100
AcDbLayerTableRecord
  2
1
 70
     0
 62
     7
  6
CONTINUOUS
370
    -3
390
301A
  0
LAYER
  5
51
102
{ACAD_XDICTIONARY
360
3073
102
}
330
2
100
AcDbSymbolTableRecord
100
AcDbLayerTableRecord
  2
2
 70
     0
 62
     4
  6
CONTINUOUS
370
    -3
390
301A
  0
LAYER
  5
52
102
{ACAD_XDICTIONARY
360
3075
102
}
330
2
100
AcDbSymbolTableRecord
100
AcDbLayerTableRecord
  2
3
 70
     0
 62
     2
  6
DASHED
370
    -3
390
301A
  0
LAYER
  5
53
102
{ACAD_XDICTIONARY
360
3077
102
}
330
2
100
AcDbSymbolTableRecord
100
AcDbLayerTableRecord
  2
6
 70
     0
 62
     5
  6
CONTINUOUS
370
    -3
390
301A
  0
LAYER
  5
54
102
{ACAD_XDICTIONARY
360
3079
102
}
330
2
100
AcDbSymbolTableRecord
100
AcDbLayerTableRecord
  2
7
 70
     0
 62
     3
  6
CONTINUOUS
370
    -3
390
301A
  0
ENDTAB
  0
TABLE
  2
STYLE
  5
3
330
0
100
AcDbSymbolTable
 70
     1
  0
STYLE
  5
F
330
3
100
AcDbSymbolTableRecord
100
AcDbTextStyleTableRecord
  2
STANDARD
 70
     0
 40
0.0
 41
1.0
 50
0.0
 71
     0
 42
2.5
  3
simplex.shx
  4

  0
ENDTAB
  0
TABLE
  2
VIEW
  5
6
330
0
100
AcDbSymbolTable
 70
     0
  0
ENDTAB
  0
TABLE
  2
UCS
  5
7
330
0
100
AcDbSymbolTable
 70
     0
  0
ENDTAB
  0
TABLE
  2
APPID
  5
9
330
0
100
AcDbSymbolTable
 70
     7
  0
APPID
  5
10
330
9
100
AcDbSymbolTableRecord
100
AcDbRegAppTableRecord
  2
ACAD
 70
     0
  0
APPID
  5
3E
330
9
100
AcDbSymbolTableRecord
100
AcDbRegAppTableRecord
  2
CONTENTTABDATA
 70
     0
  0
APPID
  5
3F
330
9
100
AcDbSymbolTableRecord
100
AcDbRegAppTableRecord
  2
CONTENTCURRENTTAB
 70
     0
  0
APPID
  5
2FE1
330
9
100
AcDbSymbolTableRecord
100
AcDbRegAppTableRecord
  2
CONTENTBLOCKICON
 70
     0
  0
APPID
  5
2FE2
330
9
100
AcDbSymbolTableRecord
100
AcDbRegAppTableRecord
  2
CONTENTBLOCKDESCRIPTION
 70
     0
  0
APPID
  5
3085
330
9
100
AcDbSymbolTableRecord
100
AcDbRegAppTableRecord
  2
ACAD_NAV_VCDISPLAY
 70
     0
  0
APPID
  5
30BE
330
9
100
AcDbSymbolTableRecord
100
AcDbRegAppTableRecord
  2
ACAD_MLEADERVER
 70
     0
  0
ENDTAB
  0
TABLE
  2
DIMSTYLE
  5
A
330
0
100
AcDbSymbolTable
 70
     1
100
AcDbDimStyleTable
 71
     0
  0
DIMSTYLE
105
1D
330
A
100
AcDbSymbolTableRecord
100
AcDbDimStyleTableRecord
  2
STANDARD
 70
     0
 41
3.0
 42
1.0
 43
10.0
 44
1.0
 73
     0
 74
     0
 77
     3
 78
     8
140
3.2
141
0.0
147
1.0
172
     1
173
     1
340
F
341
2E
343
2E
344
2E
  0
ENDTAB
  0
TABLE
  2
BLOCK_RECORD
  5
1
330
0
100
AcDbSymbolTable
 70
     1
  0
BLOCK_RECORD
  5
18
102
{ACAD_XDICTIONARY
360
3014
102
}
330
1
100
AcDbSymbolTableRecord
100
AcDbBlockTableRecord
  2
*MODEL_SPACE
340
3068
  0
BLOCK_RECORD
  5
15
102
{ACAD_XDICTIONARY
360
3012
102
}
330
1
100
AcDbSymbolTableRecord
100
AcDbBlockTableRecord
  2
*PAPER_SPACE
340
3069
  0
BLOCK_RECORD
  5
2E
330
1
100
AcDbSymbolTableRecord
100
AcDbBlockTableRecord
  2
_OPEN
340
0
  0
ENDTAB
  0
ENDSEC
  0
SECTION
  2
BLOCKS
  0
BLOCK
  5
19
330
18
100
AcDbEntity
  8
0
100
AcDbBlockBegin
  2
*MODEL_SPACE
 70
     0
 10
0.0
 20
0.0
 30
0.0
  3
*MODEL_SPACE
  1

  0
ENDBLK
  5
1A
330
18
100
AcDbEntity
  8
0
100
AcDbBlockEnd
  0
BLOCK
  5
16
330
15
100
AcDbEntity
 67
     1
  8
0
100
AcDbBlockBegin
  2
*PAPER_SPACE
 70
     0
 10
0.0
 20
0.0
 30
0.0
  3
*PAPER_SPACE
  1

  0
ENDBLK
  5
17
330
15
100
AcDbEntity
 67
     1
  8
0
100
AcDbBlockEnd
  0
BLOCK
  5
2F
330
2E
100
AcDbEntity
  8
0
100
AcDbBlockBegin
  2
_OPEN
 70
     0
 10
0.0
 20
0.0
 30
0.0
  3
_OPEN
  1

  0
LINE
  5
30
330
2E
100
AcDbEntity
  8
0
  6
ByBlock
 62
     0
100
AcDbLine
 10
-1.0
 20
0.1666666666666666
 30
0.0
 11
0.0
 21
0.0
 31
0.0
  0
LINE
  5
31
330
2E
100
AcDbEntity
  8
0
  6
ByBlock
 62
     0
100
AcDbLine
 10
0.0
 20
0.0
 30
0.0
 11
-1.0
 21
-0.1666666666666666
 31
0.0
  0
LINE
  5
32
330
2E
100
AcDbEntity
  8
0
  6
ByBlock
 62
     0
100
AcDbLine
 10
0.0
 20
0.0
 30
0.0
 11
-1.0
 21
0.0
 31
0.0
  0
ENDBLK
  5
33
330
2E
100
AcDbEntity
  8
0
100
AcDbBlockEnd
  0
ENDSEC
  0
SECTION
  2
ENTITIES
  0
TEXT
  5
63
330
18
100
AcDbEntity
  8
4
  6
CENTER
 48
0.25
100
AcDbText
 10
23.97950852663849
 20
10.0
 30
0.0
 40
1.399999999999999
  1
4
100
AcDbText
  0
TEXT
  5
64
330
18
100
AcDbEntity
  8
7
  6
Continuous
 48
0.25
100
AcDbText
 10
9.999997526638502
 20
26.0000007607689
 30
0.0
 40
3.0
  1
CODE No.13279
100
AcDbText
  0
TEXT
  5
65
330
18
100
AcDbEntity
  8
7
  6
Continuous
 48
0.25
100
AcDbText
 10
9.999997526638502
 20
18.00000076076889
 30
0.0
 40
3.0
  1
TYPE No.THA-506-3
100
AcDbText
  0
TEXT
  5
66
330
18
100
AcDbEntity
  8
1
  6
Continuous
 48
0.25
100
AcDbText
 10
9.999997526638502
 20
10.00000076076889
 30
0.0
 40
1.399999999999999
  1
LAYER
100
AcDbText
  0
TEXT
  5
67
330
18
100
AcDbEntity
  8
2
  6
Continuous
 48
0.25
100
AcDbText
 10
19.9795085266385
 20
10.0
 30
0.0
 40
1.399999999999999
  1
2
100
AcDbText
  0
TEXT
  5
68
330
18
100
AcDbEntity
  8
3
  6
DASHED
 48
0.25
100
AcDbText
 10
21.9795085266385
 20
10.0
 30
0.0
 40
1.399999999999999
  1
3
100
AcDbText
  0
TEXT
  5
69
330
18
100
AcDbEntity
  8
1
  6
Continuous
 48
0.25
100
AcDbText
 10
17.9795085266385
 20
10.0
 30
0.0
 40
1.399999999999999
  1
1
100
AcDbText
  0
TEXT
  5
6A
330
18
100
AcDbEntity
  8
5
  6
PHANTOM
 48
0.25
100
AcDbText
 10
25.9795085266385
 20
10.0
 30
0.0
 40
1.399999999999999
  1
5
100
AcDbText
  0
TEXT
  5
6B
330
18
100
AcDbEntity
  8
6
  6
Continuous
 48
0.25
100
AcDbText
 10
27.9795085266385
 20
10.0
 30
0.0
 40
1.399999999999999
  1
6
100
AcDbText
  0
TEXT
  5
6C
330
18
100
AcDbEntity
  8
7
  6
Continuous
 48
0.25
100
AcDbText
 10
29.9795085266385
 20
10.0
 30
0.0
 40
1.399999999999999
  1
7
100
AcDbText
  0
LINE
  5
1B6
330
18
100
AcDbEntity
  8
4
  6
CENTER
100
AcDbLine
 10
132.3432544637753
 20
169.4328735168697
 30
0.0
 11
168.9474519296518
 21
169.4328735168778
 31
0.0
  0
LINE
  5
1B7
330
18
100
AcDbEntity
  8
5
  6
PHANTOM
100
AcDbLine
 10
131.716978334104
 20
143.7648973598005
 30
0.0
 11
121.3983811505517
 21
133.4463001762481
 31
0.0
  0
LINE
  5
1B9
330
18
100
AcDbEntity
  8
5
  6
PHANTOM
100
AcDbLine
 10
138.4217394591006
 20
173.9456036201904
 30
0.0
 11
92.40184130013391
 21
127.9257054612236
 31
0.0
  0
LINE
  5
1BA
330
18
100
AcDbEntity
  8
1
  6
Continuous
100
AcDbLine
 10
136.7256615799194
 20
169.0148376323142
 30
0.0
 11
136.7256615799194
 21
103.9328735168748
 31
0.0
  0
LINE
  5
1BD
330
18
100
AcDbEntity
  8
1
  6
Continuous
100
AcDbLine
 10
35.83192627231724
 20
169.4328735168748
 30
0.0
 11
35.83192627231724
 21
106.765953977968
 31
0.0
  0
LINE
  5
1BE
330
18
100
AcDbEntity
  8
1
  6
Continuous
100
AcDbLine
 10
17.03192627231726
 20
169.4328735168748
 30
0.0
 11
17.03192627231726
 21
106.7659539779679
 31
0.0
  0
LINE
  5
1BF
330
18
100
AcDbEntity
  8
1
  6
Continuous
100
AcDbLine
 10
139.7256615799194
 20
187.1611156524039
 30
0.0
 11
139.7256615799194
 21
115.7046313813636
 31
0.0
  0
LINE
  5
1C0
330
18
100
AcDbEntity
  8
1
  6
Continuous
100
AcDbLine
 10
155.3256615799196
 20
145.4328735168878
 30
0.0
 11
155.3256615799196
 21
125.694422124161
 31
0.0
  0
LINE
  5
1C1
330
18
100
AcDbEntity
  8
1
  6
Continuous
100
AcDbLine
 10
146.7256615799195
 20
194.4328735168755
 30
0.0
 11
146.7256615799195
 21
108.4328735168756
 31
0.0
  0
LINE
  5
1C3
330
18
100
AcDbEntity
  8
1
  6
Continuous
100
AcDbLine
 10
36.33192627228095
 20
168.9828735169408
 30
0.0
 11
36.33192627228095
 21
108.4328735168705
 31
0.0
  0
LINE
  5
1C4
330
18
100
AcDbEntity
  8
1
  6
Continuous
100
AcDbLine
 10
16.53192627228099
 20
168.9828735169408
 30
0.0
 11
16.53192627228099
 21
108.4328735168598
 31
0.0
  0
LINE
  5
1C5
330
18
100
AcDbEntity
  8
1
  6
Continuous
100
AcDbLine
 10
40.43192627228097
 20
193.4328735168721
 30
0.0
 11
40.43192627228097
 21
109.4328735168722
 31
0.0
  0
LINE
  5
1C6
330
18
100
AcDbEntity
  8
1
  6
Continuous
100
AcDbLine
 10
12.43192627228097
 20
193.4328735168581
 30
0.0
 11
12.43192627228097
 21
109.4328735168582
 31
0.0
  0
LINE
  5
1C7
330
18
100
AcDbEntity
  8
1
  6
Continuous
100
AcDbLine
 10
17.03192627231726
 20
108.4328735168601
 30
0.0
 11
13.43192627228151
 21
108.4328735168582
 31
0.0
  0
ARC
  5
1C8
330
18
100
AcDbEntity
  8
1
  6
Continuous
100
AcDbCircle
 10
26.43192627228663
 20
97.93287351686528
 30
0.0
 40
17.49999999999998
100
AcDbArc
 50
124.4519072966346
 51
138.9176668595174
  0
ARC
  5
1C9
330
18
100
AcDbEntity
  8
1
  6
Continuous
100
AcDbCircle
 10
13.43192627228097
 20
109.4328735168582
 30
0.0
 40
1.0
100
AcDbArc
 50
180.0
 51
270.0
  0
ARC
  5
1CA
330
18
100
AcDbEntity
  8
1
  6
Continuous
100
AcDbCircle
 10
26.43192627231721
 20
130.9328735168749
 30
0.0
 40
28.0
100
AcDbArc
 50
255.1671520791898
 51
284.83284792081
  0
ARC
  5
1CB
330
18
100
AcDbEntity
  8
1
  6
Continuous
100
AcDbCircle
 10
20.03192627231726
 20
106.7659539779679
 30
0.0
 40
3.0
100
AcDbArc
 50
180.0
 51
255.1671520791898
  0
ARC
  5
1CC
330
18
100
AcDbEntity
  8
1
  6
Continuous
100
AcDbCircle
 10
32.83192627231724
 20
106.765953977968
 30
0.0
 40
3.0
100
AcDbArc
 50
284.83284792081
 51
0.0
  0
LINE
  5
1CD
330
18
100
AcDbEntity
  8
1
  6
Continuous
100
AcDbLine
 10
39.43192627228154
 20
108.4328735168722
 30
0.0
 11
35.83192627231724
 21
108.4328735168702
 31
0.0
  0
ARC
  5
1CE
330
18
100
AcDbEntity
  8
1
  6
Continuous
100
AcDbCircle
 10
26.43192627228663
 20
97.93287351686528
 30
0.0
 40
17.49999999999998
100
AcDbArc
 50
41.08233314048257
 51
55.54809270341038
  0
ARC
  5
1CF
330
18
100
AcDbEntity
  8
1
  6
Continuous
100
AcDbCircle
 10
39.43192627228103
 20
109.4328735168722
 30
0.0
 40
1.0
100
AcDbArc
 50
270.0
 51
0.0
  0
ARC
  5
1D2
330
18
100
AcDbEntity
  8
1
  6
Continuous
100
AcDbCircle
 10
19.03192627228094
 20
125.4368987760047
 30
0.0
 40
2.5
100
AcDbArc
 50
180.0
 51
216.8698976472321
  0
ARC
  5
1E5
330
18
100
AcDbEntity
  8
1
  6
Continuous
100
AcDbCircle
 10
33.83192627228095
 20
125.4368987760127
 30
0.0
 40
2.5
100
AcDbArc
 50
323.1301023555425
 51
0.0
  0
LINE
  5
1E6
330
18
100
AcDbEntity
  8
5
  6
PHANTOM
100
AcDbLine
 10
94.52316164369358
 20
125.804385117664
 30
0.0
 11
101.8398737791471
 21
133.1210972531175
 31
0.0
  0
ARC
  5
1E7
330
18
100
AcDbEntity
  8
5
  6
PHANTOM
100
AcDbCircle
 10
93.10894808132053
 20
127.2185986800371
 30
0.0
 40
1.0
100
AcDbArc
 50
134.9999999999994
 51
225.0000000000006
  0
ARC
  5
1E8
330
18
100
AcDbEntity
  8
5
  6
PHANTOM
100
AcDbCircle
 10
93.81605486250704
 20
126.5114918988505
 30
0.0
 40
1.0
100
AcDbArc
 50
225.0000000000006
 51
314.9999999999994
  0
LINE
  5
1E9
330
18
100
AcDbEntity
  8
5
  6
PHANTOM
100
AcDbLine
 10
92.40184130013391
 20
126.5114918988505
 30
0.0
 11
93.10894808132053
 21
125.804385117664
 31
0.0
  0
ARC
  5
1EA
330
18
100
AcDbEntity
  8
5
  6
PHANTOM
100
AcDbCircle
 10
118.5699540258054
 20
136.2747273009943
 30
0.0
 40
4.0
100
AcDbArc
 50
233.0339029522765
 51
314.9999999999994
  0
ARC
  5
1EB
330
18
100
AcDbEntity
  8
5
  6
PHANTOM
100
AcDbCircle
 10
108.9109415910124
 20
126.050029441252
 30
0.0
 40
10.0
100
AcDbArc
 50
51.41399766633306
 51
134.9999999999994
  0
LINE
  5
1EC
330
18
100
AcDbEntity
  8
5
  6
PHANTOM
100
AcDbLine
 10
101.7173181939676
 20
132.9985416679381
 30
0.0
 11
101.7479843565909
 21
133.0292078305613
 31
0.0
  0
ARC
  5
1ED
330
18
100
AcDbEntity
  8
5
  6
PHANTOM
100
AcDbCircle
 10
143.5256615799195
 20
169.4328735168722
 30
0.0
 40
45.49999999999999
100
AcDbArc
 50
231.4139976663331
 51
233.0339029522765
  0
LINE
  5
1EE
330
18
100
AcDbEntity
  8
1
  6
Continuous
100
AcDbLine
 10
150.2256615799195
 20
118.9328735168759
 30
0.0
 11
150.2256615799195
 21
111.932873516876
 31
0.0
  0
LINE
  5
1EF
330
18
100
AcDbEntity
  8
1
  6
Continuous
100
AcDbLine
 10
150.7256615799196
 20
112.4328735168759
 30
0.0
 11
150.7256615799196
 21
118.4328735168759
 31
0.0
  0
LINE
  5
1F0
330
18
100
AcDbEntity
  8
4
  6
CENTER
100
AcDbLine
 10
154.8159098284795
 20
115.432873516876
 30
0.0
 11
142.5727144302189
 21
115.4328735168755
 31
0.0
  0
LINE
  5
1F1
330
18
100
AcDbEntity
  8
1
  6
Continuous
100
AcDbLine
 10
139.7256615799194
 20
103.9328735168748
 30
0.0
 11
139.7256615799194
 21
114.1503157831953
 31
0.0
  0
LINE
  5
1F2
330
18
100
AcDbEntity
  8
1
  6
Continuous
100
AcDbLine
 10
137.7256615799194
 20
102.9328735168748
 30
0.0
 11
138.7256615799194
 21
102.9328735168748
 31
0.0
  0
ARC
  5
1F3
330
18
100
AcDbEntity
  8
1
  6
Continuous
100
AcDbCircle
 10
137.7256615799194
 20
103.9328735168748
 30
0.0
 40
1.0
100
AcDbArc
 50
180.0
 51
270.0
  0
ARC
  5
1F4
330
18
100
AcDbEntity
  8
1
  6
Continuous
100
AcDbCircle
 10
138.7256615799194
 20
103.9328735168748
 30
0.0
 40
1.0
100
AcDbArc
 50
270.0
 51
0.0
  0
ARC
  5
1F5
330
18
100
AcDbEntity
  8
1
  6
Continuous
100
AcDbCircle
 10
167.3932386428664
 20
131.5109697806193
 30
0.0
 40
32.0
100
AcDbArc
 50
210.655962405708
 51
225.4139233241457
  0
ARC
  5
1F6
330
18
100
AcDbEntity
  8
1
  6
Continuous
100
AcDbCircle
 10
149.7256615799194
 20
114.1503157831953
 30
0.0
 40
10.0
100
AcDbArc
 50
173.1918167184608
 51
180.0
  0
ARC
  5
1F8
330
18
100
AcDbEntity
  8
1
  6
Continuous
100
AcDbCircle
 10
140.7256615799194
 20
115.7046313813636
 30
0.0
 40
1.0
100
AcDbArc
 50
180.0
 51
210.655962405708
  0
LINE
  5
1F9
330
18
100
AcDbEntity
  8
1
  6
Continuous
100
AcDbLine
 10
146.7256615799195
 20
108.4328735168756
 30
0.0
 11
145.6318585081147
 21
108.4328735168756
 31
0.0
  0
ARC
  5
1FA
330
18
100
AcDbEntity
  8
1
  6
Continuous
100
AcDbCircle
 10
145.6318585081147
 20
109.4328735168824
 30
0.0
 40
1.0
100
AcDbArc
 50
225.4139233241457
 51
270.0
  0
LINE
  5
1FB
330
18
100
AcDbEntity
  8
1
  6
Continuous
100
AcDbLine
 10
150.7256615799195
 20
112.4328735168759
 30
0.0
 11
150.2256615799195
 21
111.932873516876
 31
0.0
  0
LINE
  5
1FC
330
18
100
AcDbEntity
  8
1
  6
Continuous
100
AcDbLine
 10
150.2256615799195
 20
111.932873516876
 30
0.0
 11
146.7256615799195
 21
111.9328735168755
 31
0.0
  0
ARC
  5
1FD
330
18
100
AcDbEntity
  8
1
  6
Continuous
100
AcDbCircle
 10
149.3256615799199
 20
128.3401734352262
 30
0.0
 40
7.0
100
AcDbArc
 50
278.0339029522764
 51
318.5903778907158
  0
LINE
  5
1FE
330
18
100
AcDbEntity
  8
1
  6
Continuous
100
AcDbLine
 10
150.2256615799195
 20
118.9328735168759
 30
0.0
 11
150.7256615799196
 21
118.432873516876
 31
0.0
  0
LINE
  5
1FF
330
18
100
AcDbEntity
  8
1
  6
Continuous
100
AcDbLine
 10
150.2256615799195
 20
118.9328735168759
 30
0.0
 11
146.7256615799195
 21
118.9328735168755
 31
0.0
  0
ARC
  5
200
330
18
100
AcDbEntity
  8
1
  6
Continuous
100
AcDbCircle
 10
143.5256615799201
 20
169.4328735168709
 30
0.0
 40
48.5
100
AcDbArc
 50
273.7830882910313
 51
278.0339029522764
  0
ARC
  5
201
330
18
100
AcDbEntity
  8
1
  6
Continuous
100
AcDbCircle
 10
152.3256615799194
 20
125.694422124161
 30
0.0
 40
3.0
100
AcDbArc
 50
318.5903778907158
 51
0.0
  0
LINE
  5
202
330
18
100
AcDbEntity
  8
4
  6
CENTER
100
AcDbLine
 10
14.31269555188487
 20
169.4328735168748
 30
0.0
 11
96.39469527941264
 21
169.4328735168748
 31
0.0
  0
LINE
  5
206
330
18
100
AcDbEntity
  8
4
  6
CENTER
100
AcDbLine
 10
26.43192627231724
 20
198.5773266433618
 30
0.0
 11
26.43192627231724
 21
98.34837176772431
 31
0.0
  0
ARC
  5
207
330
18
100
AcDbEntity
  8
1
  6
Continuous
100
AcDbCircle
 10
26.43192627227523
 20
169.4828735169408
 30
0.0
 40
9.900000000005332
100
AcDbArc
 50
341.7126811218273
 51
198.2873188797233
  0
ARC
  5
208
330
18
100
AcDbEntity
  8
5
  6
PHANTOM
100
AcDbCircle
 10
26.43192627229822
 20
169.4328735168748
 30
0.0
 40
9.4
100
AcDbArc
 50
221.1947459530544
 51
270.0
  0
ARC
  5
209
330
18
100
AcDbEntity
  8
1
  6
Continuous
100
AcDbCircle
 10
19.03192627228099
 20
143.932873516856
 30
0.0
 40
2.5
100
AcDbArc
 50
143.1301023527747
 51
180.0
  0
ARC
  5
20D
330
18
100
AcDbEntity
  8
1
  6
Continuous
100
AcDbCircle
 10
33.83192627228095
 20
143.9328735168639
 30
0.0
 40
2.5
100
AcDbArc
 50
0.0
 51
36.86989764446098
  0
ARC
  5
20F
330
18
100
AcDbEntity
  8
1
  6
Continuous
100
AcDbCircle
 10
26.43192627231726
 20
169.4328735168748
 30
0.0
 40
9.4
100
AcDbArc
 50
131.1947459530562
 51
180.0
  0
ARC
  5
211
330
18
100
AcDbEntity
  8
5
  6
PHANTOM
100
AcDbCircle
 10
26.43192627229822
 20
169.4328735168748
 30
0.0
 40
9.4
100
AcDbArc
 50
90.0
 51
138.8052546311457
  0
ARC
  5
212
330
18
100
AcDbEntity
  8
1
  6
Continuous
100
AcDbCircle
 10
26.43192627231726
 20
169.4328735168748
 30
0.0
 40
9.4
100
AcDbArc
 50
0.0
 51
48.76453208015324
  0
ARC
  5
213
330
18
100
AcDbEntity
  8
1
  6
Continuous
100
AcDbCircle
 10
26.43192627227534
 20
204.9328735168114
 30
0.0
 40
17.49999999996778
100
AcDbArc
 50
221.0823331402799
 51
318.91766685972
  0
LINE
  5
214
330
18
100
AcDbEntity
  8
1
  6
Continuous
100
AcDbLine
 10
39.43192627228043
 20
194.4328735168721
 30
0.0
 11
13.43192627228042
 21
194.4328735168581
 31
0.0
  0
ARC
  5
215
330
18
100
AcDbEntity
  8
1
  6
Continuous
100
AcDbCircle
 10
13.43192627228097
 20
193.4328735168581
 30
0.0
 40
1.0
100
AcDbArc
 50
90.0
 51
180.0
  0
ARC
  5
216
330
18
100
AcDbEntity
  8
1
  6
Continuous
100
AcDbCircle
 10
39.43192627228097
 20
193.4328735168721
 30
0.0
 40
1.0
100
AcDbArc
 50
0.0
 51
90.0
  0
LINE
  5
217
330
18
100
AcDbEntity
  8
1
  6
Continuous
100
AcDbLine
 10
150.2256615799195
 20
190.9328735168758
 30
0.0
 11
150.2256615799195
 21
183.9328735168757
 31
0.0
  0
LINE
  5
218
330
18
100
AcDbEntity
  8
1
  6
Continuous
100
AcDbLine
 10
150.7256615799196
 20
184.4328735168756
 30
0.0
 11
150.7256615799196
 21
190.4328735168758
 31
0.0
  0
LINE
  5
219
330
18
100
AcDbEntity
  8
5
  6
PHANTOM
100
AcDbLine
 10
137.3540887046611
 20
161.8470870792407
 30
0.0
 11
131.1512929091547
 21
155.6442912837344
 31
0.0
  0
LINE
  5
21A
330
18
100
AcDbEntity
  8
5
  6
PHANTOM
100
AcDbLine
 10
136.9540887046607
 20
160.0328735168673
 30
0.0
 11
131.8566316470885
 21
154.935416459295
 31
0.0
  0
ARC
  5
21B
330
18
100
AcDbEntity
  8
5
  6
PHANTOM
100
AcDbCircle
 10
136.0992723342078
 20
150.6927757721757
 30
0.0
 40
6.0
100
AcDbArc
 50
134.9999999999994
 51
223.5674562624337
  0
ARC
  5
21C
330
18
100
AcDbEntity
  8
5
  6
PHANTOM
100
AcDbCircle
 10
135.393933596274
 20
151.4016505966153
 30
0.0
 40
6.0
100
AcDbArc
 50
134.9999999999994
 51
225.0000000000006
  0
ARC
  5
21D
330
18
100
AcDbEntity
  8
5
  6
PHANTOM
100
AcDbCircle
 10
130.3027647717309
 20
145.1791109221736
 30
0.0
 40
2.0
100
AcDbArc
 50
314.9999999999994
 51
43.56745626243371
  0
LINE
  5
21E
330
18
100
AcDbEntity
  8
5
  6
PHANTOM
100
AcDbLine
 10
131.7169783341041
 20
146.5933244845468
 30
0.0
 11
131.1512929091549
 21
147.1590099094959
 31
0.0
  0
ARC
  5
21F
330
18
100
AcDbEntity
  8
5
  6
PHANTOM
100
AcDbCircle
 10
134.5256615799149
 20
164.675514203987
 30
0.0
 40
4.0
100
AcDbArc
 50
314.9999999999994
 51
359.9999999999332
  0
LINE
  5
220
330
18
100
AcDbEntity
  8
1
  6
Continuous
100
AcDbLine
 10
162.2256615799188
 20
179.1756593095393
 30
0.0
 11
162.2256615799188
 21
158.1828735169753
 31
0.0
  0
LINE
  5
221
330
18
100
AcDbEntity
  8
1
  6
Continuous
100
AcDbLine
 10
160.2256615799188
 20
176.9861195860723
 30
0.0
 11
160.2256615799188
 21
158.1828735169741
 31
0.0
  0
LINE
  5
222
330
18
100
AcDbEntity
  8
1
  6
Continuous
100
AcDbLine
 10
153.2414505638796
 20
168.4328735168821
 30
0.0
 11
153.2414505638796
 21
159.4103943667529
 31
0.0
  0
LINE
  5
223
330
18
100
AcDbEntity
  8
1
  6
Continuous
100
AcDbLine
 10
159.7256615799196
 20
180.1327478879534
 30
0.0
 11
159.7256615799196
 21
157.9328735168755
 31
0.0
  0
LINE
  5
224
330
18
100
AcDbEntity
  8
1
  6
Continuous
100
AcDbLine
 10
160.1256615799195
 20
177.8931275547034
 30
0.0
 11
160.1256615799195
 21
159.6828735168746
 31
0.0
  0
LINE
  5
225
330
18
100
AcDbEntity
  8
1
  6
Continuous
100
AcDbLine
 10
152.9485573450662
 20
158.7032875855664
 30
0.0
 11
148.7256615799205
 21
154.4803918204208
 31
0.0
  0
ARC
  5
226
330
18
100
AcDbEntity
  8
1
  6
Continuous
100
AcDbCircle
 10
151.7256615799197
 20
151.4328735168878
 30
0.0
 40
2.999999999999971
100
AcDbArc
 50
180.0
 51
270.0
  0
LINE
  5
227
330
18
100
AcDbEntity
  8
5
  6
PHANTOM
100
AcDbLine
 10
139.0256615799193
 20
160.0328735168688
 30
0.0
 11
135.5398751422866
 21
160.0328735168663
 31
0.0
  0
LINE
  5
228
330
18
100
AcDbEntity
  8
5
  6
PHANTOM
100
AcDbLine
 10
139.7256615799193
 20
161.2074555943624
 30
0.0
 11
139.0256615799841
 21
161.2074555943624
 31
0.0
  0
LINE
  5
229
330
18
100
AcDbEntity
  8
5
  6
PHANTOM
100
AcDbLine
 10
139.0256615799194
 20
161.2074555943625
 30
0.0
 11
139.0256615799194
 21
160.0328735168688
 31
0.0
  0
LINE
  5
22B
330
18
100
AcDbEntity
  8
1
  6
Continuous
100
AcDbLine
 10
148.7256615799205
 20
154.4803918204208
 30
0.0
 11
148.7256615799195
 21
151.4328735168878
 31
0.0
  0
ARC
  5
22C
330
18
100
AcDbEntity
  8
1
  6
Continuous
100
AcDbCircle
 10
152.3256615799196
 20
145.4328735168878
 30
0.0
 40
3.0
100
AcDbArc
 50
0.0
 51
90.0
  0
LINE
  5
22D
330
18
100
AcDbEntity
  8
1
  6
Continuous
100
AcDbLine
 10
152.3256615799196
 20
148.4328735168878
 30
0.0
 11
151.7256615799197
 21
148.4328735168878
 31
0.0
  0
ARC
  5
22E
330
18
100
AcDbEntity
  8
1
  6
Continuous
100
AcDbCircle
 10
158.7256615799196
 20
157.9328735168755
 30
0.0
 40
1.0
100
AcDbArc
 50
270.0
 51
0.0
  0
LINE
  5
22F
330
18
100
AcDbEntity
  8
1
  6
Continuous
100
AcDbLine
 10
151.1781432763737
 20
156.9328735168739
 30
0.0
 11
158.7256615799198
 21
156.9328735168755
 31
0.0
  0
ARC
  5
230
330
18
100
AcDbEntity
  8
1
  6
Continuous
100
AcDbCircle
 10
152.2414505638796
 20
159.4103943667529
 30
0.0
 40
1.0
100
AcDbArc
 50
315.0
 51
0.0
  0
LINE
  5
231
330
18
100
AcDbEntity
  8
1
  6
Continuous
100
AcDbLine
 10
162.2256615799187
 20
158.1828735169754
 30
0.0
 11
160.2256615799183
 21
158.1828735169741
 31
0.0
  0
LINE
  5
232
330
18
100
AcDbEntity
  8
1
  6
Continuous
100
AcDbLine
 10
159.7256615799196
 20
159.4328735168746
 30
0.0
 11
159.9256615799195
 21
159.4328735168746
 31
0.0
  0
ARC
  5
233
330
18
100
AcDbEntity
  8
1
  6
Continuous
100
AcDbCircle
 10
159.8694115799195
 20
159.6828735168746
 30
0.0
 40
0.2562500000000227
100
AcDbArc
 50
282.6803834918257
 51
0.0
  0
LINE
  5
234
330
18
100
AcDbEntity
  8
1
  6
Continuous
100
AcDbLine
 10
146.7256615799195
 20
181.9328735168728
 30
0.0
 11
161.7256615799195
 21
181.9328735168761
 31
0.0
  0
ARC
  5
235
330
18
100
AcDbEntity
  8
5
  6
PHANTOM
100
AcDbCircle
 10
159.6349428946971
 20
152.732400184594
 30
0.0
 40
30.0
100
AcDbArc
 50
131.5782819119091
 51
134.9999999999994
  0
ARC
  5
236
330
18
100
AcDbEntity
  8
1
  6
Continuous
100
AcDbCircle
 10
166.7256615799194
 20
169.0148376323142
 30
0.0
 40
30.0
100
AcDbArc
 50
165.1648884180242
 51
180.0
  0
LINE
  5
237
330
18
100
AcDbEntity
  8
1
  6
Continuous
100
AcDbLine
 10
148.7256615799195
 20
180.932873516873
 30
0.0
 11
148.7256615799195
 21
170.4328735168971
 31
0.0
  0
LINE
  5
238
330
18
100
AcDbEntity
  8
5
  6
PHANTOM
100
AcDbLine
 10
138.5256615799203
 20
169.4328735168722
 30
0.0
 11
138.5256615799147
 21
164.6755142039823
 31
0.0
  0
ARC
  5
239
330
18
100
AcDbEntity
  8
1
  6
Continuous
100
AcDbCircle
 10
140.7256615799194
 20
174.0502320691182
 30
0.0
 40
4.0
100
AcDbArc
 50
121.2329290155135
 51
138.590377890729
  0
ARC
  5
23A
330
18
100
AcDbEntity
  8
1
  6
Continuous
100
AcDbCircle
 10
143.5256615799194
 20
169.4328735168721
 30
0.0
 40
9.4
100
AcDbArc
 50
113.8444700235049
 51
121.2329290155135
  0
ARC
  5
23B
330
18
100
AcDbEntity
  8
1
  6
Continuous
100
AcDbCircle
 10
147.7256615799196
 20
180.932873516873
 30
0.0
 40
1.0
100
AcDbArc
 50
0.0
 51
90.0
  0
LINE
  5
23C
330
18
100
AcDbEntity
  8
1
  6
Continuous
100
AcDbLine
 10
150.2256615799195
 20
183.9328735168756
 30
0.0
 11
146.7256615799195
 21
183.9328735168755
 31
0.0
  0
LINE
  5
23D
330
18
100
AcDbEntity
  8
1
  6
Continuous
100
AcDbLine
 10
150.7256615799194
 20
184.4328735168756
 30
0.0
 11
150.2256615799194
 21
183.9328735168756
 31
0.0
  0
LINE
  5
23E
330
18
100
AcDbEntity
  8
1
  6
Continuous
100
AcDbLine
 10
164.2256615799188
 20
174.4328735169693
 30
0.0
 11
164.2256615799188
 21
164.4328735169675
 31
0.0
  0
LINE
  5
23F
330
18
100
AcDbEntity
  8
1
  6
Continuous
100
AcDbLine
 10
164.225661579916
 20
164.4328735169676
 30
0.0
 11
162.2256615799188
 21
164.4328735169691
 31
0.0
  0
LINE
  5
240
330
18
100
AcDbEntity
  8
1
  6
Continuous
100
AcDbLine
 10
162.2256615799153
 20
163.8078735169884
 30
0.0
 11
160.2256615799148
 21
163.8078735169872
 31
0.0
  0
LINE
  5
241
330
18
100
AcDbEntity
  8
1
  6
Continuous
100
AcDbLine
 10
162.2256615799144
 20
165.2828735169849
 30
0.0
 11
160.2256615799138
 21
165.2828735169836
 31
0.0
  0
LINE
  5
242
330
18
100
AcDbEntity
  8
1
  6
Continuous
100
AcDbLine
 10
160.1256615799195
 20
163.5328735169665
 30
0.0
 11
160.2256615799188
 21
163.5328735169665
 31
0.0
  0
LINE
  5
243
330
18
100
AcDbEntity
  8
1
  6
Continuous
100
AcDbLine
 10
164.2256615799183
 20
168.7760192675418
 30
0.0
 11
162.2256615799187
 21
168.7760192675434
 31
0.0
  0
LINE
  5
244
330
18
100
AcDbEntity
  8
1
  6
Continuous
100
AcDbLine
 10
164.225661579919
 20
170.0897277664173
 30
0.0
 11
162.2256615799187
 21
170.0897277664188
 31
0.0
  0
LINE
  5
245
330
18
100
AcDbEntity
  8
1
  6
Continuous
100
AcDbLine
 10
161.9256615799194
 20
181.7328735168761
 30
0.0
 11
161.9256615799194
 21
177.1861195859844
 31
0.0
  0
LINE
  5
246
330
18
100
AcDbEntity
  8
1
  6
Continuous
100
AcDbLine
 10
164.2256615799213
 20
174.4328735169693
 30
0.0
 11
162.2256615799188
 21
174.4328735169709
 31
0.0
  0
LINE
  5
247
330
18
100
AcDbEntity
  8
1
  6
Continuous
100
AcDbLine
 10
162.2256615799187
 20
177.7328735170206
 30
0.0
 11
161.9256615798716
 21
177.7328735170206
 31
0.0
  0
LINE
  5
248
330
18
100
AcDbEntity
  8
1
  6
Continuous
100
AcDbLine
 10
162.2256615799187
 20
179.1756593095393
 30
0.0
 11
161.9256615798716
 21
179.1756593095391
 31
0.0
  0
LINE
  5
249
330
18
100
AcDbEntity
  8
1
  6
Continuous
100
AcDbLine
 10
160.1256615799195
 20
175.3328735169666
 30
0.0
 11
160.2256615799188
 21
175.3328735169666
 31
0.0
  0
ARC
  5
24A
330
18
100
AcDbEntity
  8
1
  6
Continuous
100
AcDbCircle
 10
159.9256615799196
 20
177.8931275547034
 30
0.0
 40
0.1999999999999886
100
AcDbArc
 50
0.0
 51
90.0
  0
LINE
  5
24B
330
18
100
AcDbEntity
  8
1
  6
Continuous
100
AcDbLine
 10
159.9256615799196
 20
178.0931275547033
 30
0.0
 11
159.7256615799196
 21
178.0931275547033
 31
0.0
  0
ARC
  5
24C
330
18
100
AcDbEntity
  8
1
  6
Continuous
100
AcDbCircle
 10
161.7256615799196
 20
177.1861195859844
 30
0.0
 40
0.2
100
AcDbArc
 50
270.0
 51
0.0
  0
LINE
  5
24D
330
18
100
AcDbEntity
  8
1
  6
Continuous
100
AcDbLine
 10
161.7256615799194
 20
176.9861195859844
 30
0.0
 11
160.1256615799194
 21
176.9861195859845
 31
0.0
  0
ARC
  5
24E
330
18
100
AcDbEntity
  8
1
  6
Continuous
100
AcDbCircle
 10
161.7256615799196
 20
180.3327478879507
 30
0.0
 40
0.2
100
AcDbArc
 50
270.0
 51
0.0
  0
ARC
  5
24F
330
18
100
AcDbEntity
  8
1
  6
Continuous
100
AcDbCircle
 10
161.7256615799196
 20
181.7328735168761
 30
0.0
 40
0.2
100
AcDbArc
 50
0.0
 51
90.0
  0
LINE
  5
250
330
18
100
AcDbEntity
  8
1
  6
Continuous
100
AcDbLine
 10
161.7256615799193
 20
180.1327478879507
 30
0.0
 11
159.7256615799196
 21
180.1327478879534
 31
0.0
  0
LINE
  5
251
330
18
100
AcDbEntity
  8
4
  6
CENTER
100
AcDbLine
 10
154.4551501800521
 20
187.4328735168758
 30
0.0
 11
142.5727144302189
 21
187.4328735168756
 31
0.0
  0
ARC
  5
252
330
18
100
AcDbEntity
  8
1
  6
Continuous
100
AcDbCircle
 10
167.3932386428623
 20
171.3547772531414
 30
0.0
 40
32.0
100
AcDbArc
 50
134.586076675845
 51
149.3440375942765
  0
ARC
  5
253
330
18
100
AcDbEntity
  8
1
  6
Continuous
100
AcDbCircle
 10
140.7256615799194
 20
187.1611156524039
 30
0.0
 40
1.0
100
AcDbArc
 50
149.3440375942784
 51
180.0
  0
LINE
  5
254
330
18
100
AcDbEntity
  8
1
  6
Continuous
100
AcDbLine
 10
150.2256615799194
 20
190.9328735168756
 30
0.0
 11
150.7256615799194
 21
190.4328735168755
 31
0.0
  0
LINE
  5
255
330
18
100
AcDbEntity
  8
1
  6
Continuous
100
AcDbLine
 10
150.2256615799195
 20
190.9328735168756
 30
0.0
 11
146.7256615799195
 21
190.9328735168756
 31
0.0
  0
LINE
  5
256
330
18
100
AcDbEntity
  8
1
  6
Continuous
100
AcDbLine
 10
146.7256615799195
 20
194.4328735168755
 30
0.0
 11
145.6318585081146
 21
194.4328735168755
 31
0.0
  0
ARC
  5
257
330
18
100
AcDbEntity
  8
1
  6
Continuous
100
AcDbCircle
 10
145.6318585081146
 20
193.4328735168822
 30
0.0
 40
1.0
100
AcDbArc
 50
90.0
 51
134.586076675845
  0
LINE
  5
258
330
18
100
AcDbEntity
  8
1
  6
Continuous
100
AcDbLine
 10
280.4491648483848
 20
137.6011875154582
 30
0.0
 11
280.9512301351548
 21
139.4749206743947
 31
0.0
  0
LINE
  5
259
330
18
100
AcDbEntity
  8
1
  6
Continuous
100
AcDbLine
 10
280.2228719150962
 20
138.6550930627108
 30
0.0
 11
280.2228719150962
 21
139.6045499515581
 31
0.0
  0
LINE
  5
25A
330
18
100
AcDbEntity
  8
1
  6
Continuous
100
AcDbLine
 10
279.7784328234401
 20
139.6844406272239
 30
0.0
 11
279.7784328234401
 21
138.6550930627108
 31
0.0
  0
LINE
  5
25B
330
18
100
AcDbEntity
  8
1
  6
Continuous
100
AcDbLine
 10
279.3339937317842
 20
139.8938214570383
 30
0.0
 11
279.3339937317842
 21
137.1112655380078
 31
0.0
  0
LINE
  5
25C
330
18
100
AcDbEntity
  8
1
  6
Continuous
100
AcDbLine
 10
278.4451155484719
 20
139.8955324325369
 30
0.0
 11
278.4451155484719
 21
136.9702146012361
 31
0.0
  0
LINE
  5
25D
330
18
100
AcDbEntity
  8
1
  6
Continuous
100
AcDbLine
 10
278.8895546401281
 20
138.96620042687
 30
0.0
 11
278.8895546401281
 21
139.6876096392924
 31
0.0
  0
LINE
  5
25E
330
18
100
AcDbEntity
  8
1
  6
Continuous
100
AcDbLine
 10
278.000676456816
 20
139.9837397975616
 30
0.0
 11
278.000676456816
 21
136.8820072362114
 31
0.0
  0
LINE
  5
25F
330
18
100
AcDbEntity
  8
1
  6
Continuous
100
AcDbLine
 10
277.5562373651599
 20
139.9837397975616
 30
0.0
 11
277.5562373651599
 21
136.8820072362114
 31
0.0
  0
LINE
  5
260
330
18
100
AcDbEntity
  8
1
  6
Continuous
100
AcDbLine
 10
277.1117982735038
 20
139.946225801616
 30
0.0
 11
277.1117982735038
 21
136.9195212321569
 31
0.0
  0
LINE
  5
261
330
18
100
AcDbEntity
  8
1
  6
Continuous
100
AcDbLine
 10
276.2229200901916
 20
139.5876070173226
 30
0.0
 11
276.2229200901916
 21
137.2781400164502
 31
0.0
  0
LINE
  5
262
330
18
100
AcDbEntity
  8
1
  6
Continuous
100
AcDbLine
 10
276.6673591818478
 20
138.96620042687
 30
0.0
 11
276.6673591818478
 21
139.8150771612714
 31
0.0
  0
LINE
  5
263
330
18
100
AcDbEntity
  8
1
  6
Continuous
100
AcDbLine
 10
275.7784809985356
 20
139.5290657214431
 30
0.0
 11
275.7784809985356
 21
137.3366813123299
 31
0.0
  0
LINE
  5
264
330
18
100
AcDbEntity
  8
1
  6
Continuous
100
AcDbLine
 10
275.3340419068795
 20
137.6128839350445
 30
0.0
 11
275.3340419068795
 21
139.2528630987284
 31
0.0
  0
LINE
  5
265
330
18
100
AcDbEntity
  8
1
  6
Continuous
100
AcDbLine
 10
274.8896028152234
 20
139.6518413342913
 30
0.0
 11
274.8896028152234
 21
137.7360158495607
 31
0.0
  0
ARC
  5
266
330
18
100
AcDbEntity
  8
1
  6
Continuous
100
AcDbCircle
 10
280.4450914609243
 20
138.4328735168828
 30
0.0
 40
1.145412728988864
100
AcDbArc
 50
332.2496545546283
 51
54.46232220799902
  0
ARC
  5
267
330
18
100
AcDbEntity
  8
1
  6
Continuous
100
AcDbCircle
 10
275.1118223610515
 20
138.4328735168828
 30
0.0
 40
1.145412728988863
100
AcDbArc
 50
125.5376777920009
 51
166.5374393917324
  0
LINE
  5
268
330
18
100
AcDbEntity
  8
1
  6
Continuous
100
AcDbLine
 10
289.2784569109879
 20
179.4328735169015
 30
0.0
 11
289.2784569109879
 21
123.5385556685993
 31
0.0
  0
LINE
  5
269
330
18
100
AcDbEntity
  8
1
  6
Continuous
100
AcDbLine
 10
266.2784569109879
 20
179.4328735168939
 30
0.0
 11
266.2784569109879
 21
123.495719833801
 31
0.0
  0
LINE
  5
26A
330
18
100
AcDbEntity
  8
1
  6
Continuous
100
AcDbLine
 10
291.7784569109516
 20
193.4328735168748
 30
0.0
 11
291.7784569109516
 21
109.432873516875
 31
0.0
  0
LINE
  5
26B
330
18
100
AcDbEntity
  8
1
  6
Continuous
100
AcDbLine
 10
263.7784569109516
 20
193.4328735168609
 30
0.0
 11
263.7784569109516
 21
109.4328735168611
 31
0.0
  0
ARC
  5
26C
330
18
100
AcDbEntity
  8
1
  6
Continuous
100
AcDbCircle
 10
264.7784569109516
 20
109.4328735168611
 30
0.0
 40
1.0
100
AcDbArc
 50
180.0
 51
270.0
  0
LINE
  5
272
330
18
100
AcDbEntity
  8
4
  6
CENTER
100
AcDbLine
 10
268.5045769200262
 20
115.4328735168902
 30
0.0
 11
286.9631264791889
 21
115.4328735168902
 31
0.0
  0
LINE
  5
273
330
18
100
AcDbEntity
  8
1
  6
Continuous
100
AcDbLine
 10
290.7784569109521
 20
108.432873516875
 30
0.0
 11
264.7784569109522
 21
108.4328735168611
 31
0.0
  0
ARC
  5
274
330
18
100
AcDbEntity
  8
1
  6
Continuous
100
AcDbCircle
 10
290.7784569109516
 20
109.432873516875
 30
0.0
 40
1.0
100
AcDbArc
 50
270.0
 51
0.0
  0
ARC
  5
275
330
18
100
AcDbEntity
  8
1
  6
Continuous
100
AcDbCircle
 10
280.0006523692682
 20
138.6550930627108
 30
0.0
 40
0.2222195458280311
100
AcDbArc
 50
180.0
 51
0.0
  0
ARC
  5
276
330
18
100
AcDbEntity
  8
1
  6
Continuous
100
AcDbCircle
 10
277.7784569109879
 20
142.1661618867974
 30
0.0
 40
5.733264282363177
100
AcDbArc
 50
234.4623222080521
 51
305.5376777919478
  0
LINE
  5
278
330
18
100
AcDbEntity
  8
1
  6
Continuous
100
AcDbLine
 10
286.7784569109453
 20
125.1270623665147
 30
0.0
 11
268.7784569109454
 21
125.127062366505
 31
0.0
  0
LINE
  5
279
330
18
100
AcDbEntity
  8
1
  6
Continuous
100
AcDbLine
 10
286.7784569109892
 20
121.0385556685993
 30
0.0
 11
268.7784569109892
 21
121.0385556685896
 31
0.0
  0
ARC
  5
27A
330
18
100
AcDbEntity
  8
1
  6
Continuous
100
AcDbCircle
 10
268.7784569109879
 20
123.495719833801
 30
0.0
 40
2.5
100
AcDbArc
 50
180.0
 51
270.0
  0
ARC
  5
27B
330
18
100
AcDbEntity
  8
1
  6
Continuous
100
AcDbCircle
 10
275.5562614527075
 20
137.6128839350445
 30
0.0
 40
0.2222195458280301
100
AcDbArc
 50
180.0
 51
243.9856340003631
  0
ARC
  5
27C
330
18
100
AcDbEntity
  8
1
  6
Continuous
100
AcDbCircle
 10
277.7784569109879
 20
142.1661618867974
 30
0.0
 40
5.288825190707117
100
AcDbArc
 50
243.9856340003631
 51
247.0560464434622
  0
ARC
  5
27D
330
18
100
AcDbEntity
  8
1
  6
Continuous
100
AcDbCircle
 10
275.73403708937
 20
137.3366813123299
 30
0.0
 40
0.044443909165606
100
AcDbArc
 50
247.0560464434622
 51
0.0
  0
ARC
  5
27E
330
18
100
AcDbEntity
  8
1
  6
Continuous
100
AcDbCircle
 10
275.1118223610515
 20
138.4328735168828
 30
0.0
 40
1.145412728988863
100
AcDbArc
 50
180.0
 51
234.4623222080521
  0
LINE
  5
27F
330
18
100
AcDbEntity
  8
1
  6
Continuous
100
AcDbLine
 10
280.0006523692682
 20
138.4328735168828
 30
0.0
 11
280.0006523692682
 21
137.3668370131243
 31
0.0
  0
LINE
  5
280
330
18
100
AcDbEntity
  8
1
  6
Continuous
100
AcDbLine
 10
278.8895546401281
 20
138.4328735168828
 30
0.0
 11
278.6673350943
 21
138.4328735168828
 31
0.0
  0
LINE
  5
281
330
18
100
AcDbEntity
  8
1
  6
Continuous
100
AcDbLine
 10
278.8895546401281
 20
137.1781373944805
 30
0.0
 11
278.8895546401281
 21
138.4328735168828
 31
0.0
  0
ARC
  5
282
330
18
100
AcDbEntity
  8
1
  6
Continuous
100
AcDbCircle
 10
278.6673350943
 20
137.1781373944805
 30
0.0
 40
0.2222195458280301
100
AcDbArc
 50
280.1041827161252
 51
0.0
  0
ARC
  5
283
330
18
100
AcDbEntity
  8
1
  6
Continuous
100
AcDbCircle
 10
277.7784569109879
 20
142.1661618867974
 30
0.0
 40
5.288825190707117
100
AcDbArc
 50
277.7929243354226
 51
280.1041827161252
  0
ARC
  5
284
330
18
100
AcDbEntity
  8
1
  6
Continuous
100
AcDbCircle
 10
278.4895594576376
 20
136.9702146012361
 30
0.0
 40
0.044443909165606
100
AcDbArc
 50
180.0
 51
277.7929243354226
  0
LINE
  5
285
330
18
100
AcDbEntity
  8
1
  6
Continuous
100
AcDbLine
 10
277.5562373651599
 20
138.4328735168828
 30
0.0
 11
277.1117982735038
 21
138.4328735168828
 31
0.0
  0
LINE
  5
286
330
18
100
AcDbEntity
  8
1
  6
Continuous
100
AcDbLine
 10
276.6673591818478
 20
137.0506698725015
 30
0.0
 11
276.6673591818478
 21
137.8995466068955
 31
0.0
  0
ARC
  5
287
330
18
100
AcDbEntity
  8
1
  6
Continuous
100
AcDbCircle
 10
276.6229152726821
 20
137.0506698725015
 30
0.0
 40
0.044443909165606
100
AcDbArc
 50
257.2710561268771
 51
0.0
  0
ARC
  5
288
330
18
100
AcDbEntity
  8
1
  6
Continuous
100
AcDbCircle
 10
277.7784569109879
 20
142.1661618867974
 30
0.0
 40
5.288825190707117
100
AcDbArc
 50
254.7937121239413
 51
257.2710561268771
  0
ARC
  5
289
330
18
100
AcDbEntity
  8
1
  6
Continuous
100
AcDbCircle
 10
277.7784569109879
 20
142.1661618867974
 30
0.0
 40
5.288825190707117
100
AcDbArc
 50
254.7424767095433
 51
254.7937121239413
  0
ARC
  5
28A
330
18
100
AcDbEntity
  8
1
  6
Continuous
100
AcDbCircle
 10
276.4451396360197
 20
137.2781400164502
 30
0.0
 40
0.2222195458280301
100
AcDbArc
 50
180.0
 51
254.7424767095433
  0
ARC
  5
28B
330
18
100
AcDbEntity
  8
1
  6
Continuous
100
AcDbCircle
 10
286.7784569109879
 20
123.5385556685993
 30
0.0
 40
2.5
100
AcDbArc
 50
270.0
 51
0.0
  0
LINE
  5
28C
330
18
100
AcDbEntity
  8
1
  6
Continuous
100
AcDbLine
 10
281.5905041899132
 20
138.4328735168828
 30
0.0
 11
280.6720144408235
 21
138.4328735168828
 31
0.0
  0
ARC
  5
28D
330
18
100
AcDbEntity
  8
1
  6
Continuous
100
AcDbCircle
 10
280.4450914609243
 20
138.4328735168828
 30
0.0
 40
1.145412728988864
100
AcDbArc
 50
305.5376777919478
 51
315.698839279617
  0
ARC
  5
28E
330
18
100
AcDbEntity
  8
1
  6
Continuous
100
AcDbCircle
 10
264.7784569109516
 20
193.4328735168609
 30
0.0
 40
1.0
100
AcDbArc
 50
90.0
 51
180.0
  0
LINE
  5
28F
330
18
100
AcDbEntity
  8
4
  6
CENTER
100
AcDbLine
 10
293.8767050789051
 20
169.4328735168783
 30
0.0
 11
261.3728632306631
 21
169.4328735168783
 31
0.0
  0
LINE
  5
290
330
18
100
AcDbEntity
  8
4
  6
CENTER
100
AcDbLine
 10
277.7784569109879
 20
198.6907442910387
 30
0.0
 11
277.7784569109879
 21
98.19367725347888
 31
0.0
  0
ARC
  5
294
330
18
100
AcDbEntity
  8
1
  6
Continuous
100
AcDbCircle
 10
277.7784569109878
 20
169.4328735168783
 30
0.0
 40
9.499999999988006
100
AcDbArc
 50
119.9999999999231
 51
209.999999999957
  0
ARC
  5
295
330
18
100
AcDbEntity
  8
1
  6
Continuous
100
AcDbCircle
 10
277.7784569109879
 20
169.4328735168783
 30
0.0
 40
9.999999999988064
100
AcDbArc
 50
119.9999999999238
 51
209.9999999999567
  0
ARC
  5
296
330
18
100
AcDbEntity
  8
1
  6
Continuous
100
AcDbCircle
 10
277.7784569109879
 20
168.4328735168974
 30
0.0
 40
11.5
100
AcDbArc
 50
180.0
 51
0.0
  0
ARC
  5
297
330
18
100
AcDbEntity
  8
1
  6
Continuous
100
AcDbCircle
 10
277.7784569109879
 20
169.4328735168781
 30
0.0
 40
11.25
100
AcDbArc
 50
209.9999999999567
 51
60.00000000008562
  0
ARC
  5
298
330
18
100
AcDbEntity
  8
1
  6
Continuous
100
AcDbCircle
 10
277.7784569109879
 20
134.6995851469756
 30
0.0
 40
5.733264282363177
100
AcDbArc
 50
54.46232220799902
 51
125.5376777920009
  0
LINE
  5
299
330
18
100
AcDbEntity
  8
1
  6
Continuous
100
AcDbLine
 10
288.2784569109879
 20
158.99618080438
 30
0.0
 11
284.3510386449431
 21
158.99618080438
 31
0.0
  0
LINE
  5
29A
330
18
100
AcDbEntity
  8
1
  6
Continuous
100
AcDbLine
 10
286.7784569109324
 20
148.4328735168877
 30
0.0
 11
268.7784569109324
 21
148.432873516878
 31
0.0
  0
LINE
  5
29B
330
18
100
AcDbEntity
  8
1
  6
Continuous
100
AcDbLine
 10
267.2784569232329
 20
154.4819046865039
 30
0.0
 11
288.2784568987429
 21
154.4829188756613
 31
0.0
  0
ARC
  5
29C
330
18
100
AcDbEntity
  8
1
  6
Continuous
100
AcDbCircle
 10
268.7784569109879
 20
145.9328735168779
 30
0.0
 40
2.5
100
AcDbArc
 50
90.0
 51
180.0
  0
ARC
  5
29D
330
18
100
AcDbEntity
  8
1
  6
Continuous
100
AcDbCircle
 10
275.73403708937
 20
139.5290657214431
 30
0.0
 40
0.044443909165606
100
AcDbArc
 50
0.0
 51
112.9439535565377
  0
ARC
  5
29E
330
18
100
AcDbEntity
  8
1
  6
Continuous
100
AcDbCircle
 10
277.7784569109879
 20
134.6995851469756
 30
0.0
 40
5.288825190707117
100
AcDbArc
 50
112.9439535565377
 51
116.0143659996368
  0
ARC
  5
29F
330
18
100
AcDbEntity
  8
1
  6
Continuous
100
AcDbCircle
 10
275.5562614527075
 20
139.2528630987284
 30
0.0
 40
0.2222195458280301
100
AcDbArc
 50
116.0143659996368
 51
180.0
  0
ARC
  5
2A0
330
18
100
AcDbEntity
  8
1
  6
Continuous
100
AcDbCircle
 10
278.4895594576376
 20
139.8955324325369
 30
0.0
 40
0.044443909165606
100
AcDbArc
 50
82.20707566457726
 51
180.0
  0
ARC
  5
2A1
330
18
100
AcDbEntity
  8
1
  6
Continuous
100
AcDbCircle
 10
277.7784569109879
 20
134.6995851469756
 30
0.0
 40
5.288825190707117
100
AcDbArc
 50
79.8958172838747
 51
82.20707566457726
  0
ARC
  5
2A2
330
18
100
AcDbEntity
  8
1
  6
Continuous
100
AcDbCircle
 10
278.6673350943
 20
139.6876096392924
 30
0.0
 40
0.2222195458280301
100
AcDbArc
 50
0.0
 51
79.8958172838747
  0
ARC
  5
2A3
330
18
100
AcDbEntity
  8
1
  6
Continuous
100
AcDbCircle
 10
276.4451396360197
 20
139.5876070173226
 30
0.0
 40
0.2222195458280301
100
AcDbArc
 50
105.2575232904566
 51
180.0
  0
ARC
  5
2A4
330
18
100
AcDbEntity
  8
1
  6
Continuous
100
AcDbCircle
 10
277.7784569109879
 20
134.6995851469756
 30
0.0
 40
5.288825190707117
100
AcDbArc
 50
103.2681189705564
 51
105.2575232904566
  0
ARC
  5
2A5
330
18
100
AcDbEntity
  8
1
  6
Continuous
100
AcDbCircle
 10
277.7784569109879
 20
134.6995851469756
 30
0.0
 40
5.288825190707117
100
AcDbArc
 50
102.7289438731228
 51
103.2681189705564
  0
ARC
  5
2A6
330
18
100
AcDbEntity
  8
1
  6
Continuous
100
AcDbCircle
 10
276.6229152726821
 20
139.8150771612714
 30
0.0
 40
0.044443909165606
100
AcDbArc
 50
0.0
 51
102.7289438731228
  0
LINE
  5
2A7
330
18
100
AcDbEntity
  8
1
  6
Continuous
100
AcDbLine
 10
271.2058751770328
 20
158.99618080438
 30
0.0
 11
267.2784569109879
 21
158.99618080438
 31
0.0
  0
ARC
  5
2A9
330
18
100
AcDbEntity
  8
1
  6
Continuous
100
AcDbCircle
 10
267.2784569109879
 20
159.99618080438
 30
0.0
 40
1.0
100
AcDbArc
 50
180.0
 51
270.0
  0
ARC
  5
2AA
330
18
100
AcDbEntity
  8
1
  6
Continuous
100
AcDbCircle
 10
286.7784569109879
 20
145.9328735168876
 30
0.0
 40
2.5
100
AcDbArc
 50
0.0
 51
90.0
  0
ARC
  5
2AB
330
18
100
AcDbEntity
  8
1
  6
Continuous
100
AcDbCircle
 10
288.2784569109879
 20
159.99618080438
 30
0.0
 40
1.0
100
AcDbArc
 50
270.0
 51
0.0
  0
CIRCLE
  5
2AD
330
18
100
AcDbEntity
  8
2
  6
Continuous
100
AcDbCircle
 10
277.7784569109879
 20
169.4328735168783
 30
0.0
 40
2.5
  0
ARC
  5
2AE
330
18
100
AcDbEntity
  8
1
  6
Continuous
100
AcDbCircle
 10
277.7784569109879
 20
169.4328735168783
 30
0.0
 40
8.600000000101516
100
AcDbArc
 50
61.93168433155769
 51
118.0683156684423
  0
LINE
  5
2AF
330
18
100
AcDbEntity
  8
1
  6
Continuous
100
AcDbLine
 10
286.7784569109868
 20
181.932873516901
 30
0.0
 11
268.7784569109869
 21
181.9328735168942
 31
0.0
  0
ARC
  5
2B0
330
18
100
AcDbEntity
  8
1
  6
Continuous
100
AcDbCircle
 10
277.7784569109879
 20
170.4328735168976
 30
0.0
 40
11.5
100
AcDbArc
 50
0.0
 51
180.0
  0
ARC
  5
2B2
330
18
100
AcDbEntity
  8
1
  6
Continuous
100
AcDbCircle
 10
277.7784569109879
 20
169.4328735168781
 30
0.0
 40
8.3
100
AcDbArc
 50
60.00000000008562
 51
209.9999999999567
  0
LINE
  5
2B3
330
18
100
AcDbEntity
  8
1
  6
Continuous
100
AcDbLine
 10
283.4353111604073
 20
169.4328735168796
 30
0.0
 11
277.7784569109148
 21
175.089727766372
 31
0.0
  0
LINE
  5
2B4
330
18
100
AcDbEntity
  8
1
  6
Continuous
100
AcDbLine
 10
277.778456910915
 20
163.7760192673871
 30
0.0
 11
283.4353111604073
 21
169.4328735168796
 31
0.0
  0
LINE
  5
2B5
330
18
100
AcDbEntity
  8
1
  6
Continuous
100
AcDbLine
 10
282.7784569109683
 20
168.8467299454851
 30
0.0
 11
278.364600482331
 21
164.4328735168478
 31
0.0
  0
LINE
  5
2B6
330
18
100
AcDbEntity
  8
1
  6
Continuous
100
AcDbLine
 10
278.3646004823309
 20
174.4328735169089
 30
0.0
 11
282.7784569110183
 21
170.0190170882215
 31
0.0
  0
LINE
  5
2B7
330
18
100
AcDbEntity
  8
1
  6
Continuous
100
AcDbLine
 10
277.7784569109148
 20
175.089727766372
 30
0.0
 11
272.1216026614225
 21
169.4328735168797
 31
0.0
  0
LINE
  5
2B8
330
18
100
AcDbEntity
  8
1
  6
Continuous
100
AcDbLine
 10
277.1923133395946
 20
174.4328735168588
 30
0.0
 11
272.7784569109571
 21
170.0190170882212
 31
0.0
  0
LINE
  5
2B9
330
18
100
AcDbEntity
  8
1
  6
Continuous
100
AcDbLine
 10
270.5904460595738
 20
165.2828735168836
 30
0.0
 11
268.0356711184086
 21
163.8078735168856
 31
0.0
  0
CIRCLE
  5
2BA
330
18
100
AcDbEntity
  8
1
  6
Continuous
100
AcDbCircle
 10
277.7784569109879
 20
169.4328735168783
 30
0.0
 40
2.066999999999999
  0
LINE
  5
2BB
330
18
100
AcDbEntity
  8
1
  6
Continuous
100
AcDbLine
 10
272.1216026614225
 20
169.4328735168797
 30
0.0
 11
277.778456910915
 21
163.7760192673871
 31
0.0
  0
LINE
  5
2BC
330
18
100
AcDbEntity
  8
1
  6
Continuous
100
AcDbLine
 10
272.7784569110074
 20
168.8467299454853
 30
0.0
 11
277.1923133395946
 21
164.4328735168979
 31
0.0
  0
LINE
  5
2BD
330
18
100
AcDbEntity
  8
1
  6
Continuous
100
AcDbLine
 10
277.1923133395946
 20
164.4328735168979
 30
0.0
 11
278.3646004822789
 21
164.4328735168999
 31
0.0
  0
LINE
  5
2BE
330
18
100
AcDbEntity
  8
1
  6
Continuous
100
AcDbLine
 10
272.7784569110072
 20
168.8467299454852
 30
0.0
 11
272.7784569110093
 21
170.0190170881693
 31
0.0
  0
LINE
  5
2BF
330
18
100
AcDbEntity
  8
1
  6
Continuous
100
AcDbLine
 10
273.3309857193599
 20
177.1361195860004
 30
0.0
 11
271.6008815625634
 21
180.1327478879675
 31
0.0
  0
ARC
  5
2C0
330
18
100
AcDbEntity
  8
1
  6
Continuous
100
AcDbCircle
 10
268.7784569109879
 20
179.4328735168939
 30
0.0
 40
2.5
100
AcDbArc
 50
90.0
 51
180.0
  0
ARC
  5
2C1
330
18
100
AcDbEntity
  8
1
  6
Continuous
100
AcDbCircle
 10
273.5907933404956
 20
177.2861195860001
 30
0.0
 40
0.3
100
AcDbArc
 50
209.9999999999226
 51
298.0683156684467
  0
LINE
  5
2C2
330
18
100
AcDbEntity
  8
1
  6
Continuous
100
AcDbLine
 10
277.1923133395948
 20
174.4328735168589
 30
0.0
 11
278.3646004822789
 21
174.4328735168569
 31
0.0
  0
LINE
  5
2C3
330
18
100
AcDbEntity
  8
1
  6
Continuous
100
AcDbLine
 10
282.7784569109681
 20
168.8467299454851
 30
0.0
 11
282.7784569109662
 21
170.0190170881692
 31
0.0
  0
ARC
  5
2C4
330
18
100
AcDbEntity
  8
1
  6
Continuous
100
AcDbCircle
 10
286.7784569109879
 20
179.4328735169015
 30
0.0
 40
2.5
100
AcDbArc
 50
0.0
 51
90.0
  0
LINE
  5
2C5
330
18
100
AcDbEntity
  8
1
  6
Continuous
100
AcDbLine
 10
282.2259281026157
 20
177.1361195860006
 30
0.0
 11
283.9560322594124
 21
180.1327478879677
 31
0.0
  0
ARC
  5
2C6
330
18
100
AcDbEntity
  8
1
  6
Continuous
100
AcDbCircle
 10
281.9661204814802
 20
177.2861195860001
 30
0.0
 40
0.3
100
AcDbArc
 50
241.9316843315562
 51
330.0000000000717
  0
LINE
  5
2C7
330
18
100
AcDbEntity
  8
1
  6
Continuous
100
AcDbLine
 10
281.9284569109772
 20
176.6208843682951
 30
0.0
 11
282.2259281026147
 21
177.1361195860011
 31
0.0
  0
LINE
  5
2C8
330
18
100
AcDbEntity
  8
4
  6
CENTER
100
AcDbLine
 10
268.713625260107
 20
187.4328735168901
 30
0.0
 11
286.9543071895991
 21
187.4328735168901
 31
0.0
  0
LINE
  5
2C9
330
18
100
AcDbEntity
  8
1
  6
Continuous
100
AcDbLine
 10
290.7784569109512
 20
194.4328735168748
 30
0.0
 11
264.7784569109512
 21
194.4328735168608
 31
0.0
  0
ARC
  5
2CB
330
18
100
AcDbEntity
  8
1
  6
Continuous
100
AcDbCircle
 10
290.7784569109516
 20
193.4328735168748
 30
0.0
 40
1.0
100
AcDbArc
 50
0.0
 51
90.0
  0
ARC
  5
2CD
330
18
100
AcDbEntity
  8
1
  6
Continuous
100
AcDbCircle
 10
26.43155438779155
 20
168.3863910127349
 30
0.0
 40
10.21051532818231
100
AcDbArc
 50
52.63665458699304
 51
127.322623446211
  0
LINE
  5
2EA
330
18
100
AcDbEntity
  8
1
  6
Continuous
100
AcDbLine
 10
271.0344792543357
 20
134.6083056252147
 30
0.0
 11
269.8344792543476
 21
134.6083056252147
 31
0.0
  0
LINE
  5
2EB
330
18
100
AcDbEntity
  8
1
  6
Continuous
100
AcDbLine
 10
273.2462711659173
 20
134.6083056252147
 30
0.0
 11
273.2462711659173
 21
132.6083056252347
 31
0.0
  0
LINE
  5
2EC
330
18
100
AcDbEntity
  8
1
  6
Continuous
100
AcDbLine
 10
272.0962711659288
 20
134.6083056252147
 30
0.0
 11
272.0962711659288
 21
132.6083056252347
 31
0.0
  0
LINE
  5
2ED
330
18
100
AcDbEntity
  8
1
  6
Continuous
100
AcDbLine
 10
272.0962711659288
 20
133.6083056252247
 30
0.0
 11
273.2462711659173
 21
133.6083056252247
 31
0.0
  0
LINE
  5
2EE
330
18
100
AcDbEntity
  8
1
  6
Continuous
100
AcDbLine
 10
270.4344792543416
 20
134.6083056252147
 30
0.0
 11
270.4344792543416
 21
132.6083056252347
 31
0.0
  0
LINE
  5
2EF
330
18
100
AcDbEntity
  8
1
  6
Continuous
100
AcDbLine
 10
274.5998455777507
 20
133.3583056252272
 30
0.0
 11
275.3498455777431
 21
133.3583056252272
 31
0.0
  0
LINE
  5
2F0
330
18
100
AcDbEntity
  8
1
  6
Continuous
100
AcDbLine
 10
274.3748455777529
 20
132.6083056252347
 30
0.0
 11
274.974845577747
 21
134.6083056252147
 31
0.0
  0
LINE
  5
2F1
330
18
100
AcDbEntity
  8
1
  6
Continuous
100
AcDbLine
 10
274.974845577747
 20
134.6083056252147
 30
0.0
 11
275.5748455777409
 21
132.6083056252347
 31
0.0
  0
LINE
  5
2F2
330
18
100
AcDbEntity
  8
1
  6
Continuous
100
AcDbLine
 10
277.1108426435007
 20
133.6083056252247
 30
0.0
 11
276.1717240990447
 21
133.6083056252247
 31
0.0
  0
LINE
  5
2F3
330
18
100
AcDbEntity
  8
1
  6
Continuous
100
AcDbLine
 10
278.1102573493364
 20
134.6083056252147
 30
0.0
 11
278.1102573493364
 21
133.6083056252247
 31
0.0
  0
LINE
  5
2F4
330
18
100
AcDbEntity
  8
1
  6
Continuous
100
AcDbLine
 10
278.6102573493315
 20
132.6083056252347
 30
0.0
 11
278.1102573493364
 21
132.6083056252347
 31
0.0
  0
LINE
  5
2F5
330
18
100
AcDbEntity
  8
1
  6
Continuous
100
AcDbLine
 10
278.6102573493315
 20
133.6083056252247
 30
0.0
 11
278.1102573493364
 21
133.6083056252247
 31
0.0
  0
ARC
  5
2F6
330
18
100
AcDbEntity
  8
1
  6
Continuous
100
AcDbCircle
 10
278.6102573493315
 20
133.1083056252297
 30
0.0
 40
0.499999999995
100
AcDbArc
 50
270.0
 51
90.0
  0
LINE
  5
2F7
330
18
100
AcDbEntity
  8
1
  6
Continuous
100
AcDbLine
 10
279.1102573493265
 20
134.6083056252147
 30
0.0
 11
278.1102573493364
 21
134.6083056252147
 31
0.0
  0
LINE
  5
2F8
330
18
100
AcDbEntity
  8
1
  6
Continuous
100
AcDbLine
 10
281.2913681425469
 20
134.1083056252197
 30
0.0
 11
281.2913681425469
 21
133.1083056252297
 31
0.0
  0
LINE
  5
2F9
330
18
100
AcDbEntity
  8
1
  6
Continuous
100
AcDbLine
 10
280.2913681425569
 20
134.1083056252197
 30
0.0
 11
280.2913681425569
 21
133.1083056252297
 31
0.0
  0
ARC
  5
2FA
330
18
100
AcDbEntity
  8
1
  6
Continuous
100
AcDbCircle
 10
280.7913681425519
 20
133.1083056252297
 30
0.0
 40
0.4999999999949998
100
AcDbArc
 50
180.0
 51
0.0
  0
ARC
  5
2FB
330
18
100
AcDbEntity
  8
1
  6
Continuous
100
AcDbCircle
 10
280.7913681425519
 20
134.1083056252197
 30
0.0
 40
0.4999999999949998
100
AcDbArc
 50
0.0
 51
180.0
  0
CIRCLE
  5
2FC
330
18
100
AcDbEntity
  8
1
  6
Continuous
100
AcDbCircle
 10
282.9426345304327
 20
133.1083056252297
 30
0.0
 40
0.4999999999949998
  0
LINE
  5
2FD
330
18
100
AcDbEntity
  8
1
  6
Continuous
100
AcDbLine
 10
282.9426345304327
 20
134.6083056252147
 30
0.0
 11
282.4712300096464
 21
133.2749722918947
 31
0.0
  0
LINE
  5
301
330
18
100
AcDbEntity
  8
1
  6
Continuous
100
AcDbLine
 10
284.9303322237362
 20
133.6083056252247
 30
0.0
 11
283.9912136792801
 21
133.6083056252247
 31
0.0
  0
ARC
  5
309
330
18
100
AcDbEntity
  8
1
  6
Continuous
100
AcDbCircle
 10
286.6597166923367
 20
133.1083056829728
 30
0.0
 40
0.5000000000000005
100
AcDbArc
 50
180.0
 51
90.0
  0
LINE
  5
30A
330
18
100
AcDbEntity
  8
1
  6
Continuous
100
AcDbLine
 10
286.6597166923367
 20
133.6083056829728
 30
0.0
 11
286.5095533734137
 21
133.6083056829728
 31
0.0
  0
ARC
  5
30B
330
18
100
AcDbEntity
  8
1
  6
Continuous
100
AcDbCircle
 10
286.6597166923367
 20
134.1083056829728
 30
0.0
 40
0.5
100
AcDbArc
 50
270.0
 51
180.0
  0
ARC
  5
BF4
330
18
100
AcDbEntity
  8
1
  6
Continuous
100
AcDbCircle
 10
279.0284569109878
 20
187.4328735168901
 30
0.0
 40
5.750000000000013
100
AcDbArc
 50
299.5918457939493
 51
67.38013505196057
  0
ARC
  5
BF5
330
18
100
AcDbEntity
  8
1
  6
Continuous
100
AcDbCircle
 10
276.5284569109879
 20
187.4328735168901
 30
0.0
 40
5.750000000000002
100
AcDbArc
 50
112.6198649480394
 51
240.4081542060509
  0
CIRCLE
  5
BF6
330
18
100
AcDbEntity
  8
1
  6
Continuous
 48
0.25
100
AcDbCircle
 10
277.7784569109879
 20
187.4328735168901
 30
0.0
 40
3.5
  0
CIRCLE
  5
BF7
330
18
100
AcDbEntity
  8
1
  6
Continuous
100
AcDbCircle
 10
277.7784569109879
 20
187.4328735168901
 30
0.0
 40
3.800000000001205
  0
LINE
  5
BF8
330
18
100
AcDbEntity
  8
1
  6
Continuous
100
AcDbLine
 10
281.8679110838878
 20
182.4328735168901
 30
0.0
 11
273.6890027380876
 21
182.4328735168901
 31
0.0
  0
LINE
  5
BF9
330
18
100
AcDbEntity
  8
1
  6
Continuous
 48
0.25
100
AcDbLine
 10
277.7781640177689
 20
186.4832291097568
 30
0.0
 11
278.3028372494094
 21
186.2923102788364
 31
0.0
  0
LINE
  5
BFA
330
18
100
AcDbEntity
  8
1
  6
Continuous
 48
0.25
100
AcDbLine
 10
277.7774569109877
 20
188.383225030805
 30
0.0
 11
278.3035443561906
 21
188.5741438617254
 31
0.0
  0
ARC
  5
BFB
330
18
100
AcDbEntity
  8
1
  6
Continuous
100
AcDbCircle
 10
277.7784569109879
 20
184.4328735168901
 30
0.0
 40
9.0
100
AcDbArc
 50
67.38013505196057
 51
112.6198649480394
  0
LINE
  5
BFC
330
18
100
AcDbEntity
  8
1
  6
Continuous
 48
0.25
100
AcDbLine
 10
276.8278125038542
 20
187.4335806236715
 30
0.0
 11
276.6368936729339
 21
186.9074931784688
 31
0.0
  0
ARC
  5
BFD
330
18
100
AcDbEntity
  8
1
  6
Continuous
 48
0.25
100
AcDbCircle
 10
277.7774569109877
 20
187.4328735168901
 30
0.0
 40
2.1
100
AcDbArc
 50
213.4630000000017
 51
236.5369999999993
  0
LINE
  5
BFE
330
18
100
AcDbEntity
  8
1
  6
Continuous
 48
0.25
100
AcDbLine
 10
277.2520765725661
 20
186.2923102788364
 30
0.0
 11
276.6199231101853
 21
185.6813700198912
 31
0.0
  0
LINE
  5
BFF
330
18
100
AcDbEntity
  8
1
  6
Continuous
 48
0.25
100
AcDbLine
 10
277.7781640177689
 20
186.4832291097568
 30
0.0
 11
277.2520765725661
 21
186.2923102788364
 31
0.0
  0
LINE
  5
C00
330
18
100
AcDbEntity
  8
1
  6
Continuous
 48
0.25
100
AcDbLine
 10
276.6368936729339
 20
186.9074931784688
 30
0.0
 11
276.0259534139885
 21
186.2753397160879
 31
0.0
  0
LINE
  5
C01
330
18
100
AcDbEntity
  8
1
  6
Continuous
 48
0.25
100
AcDbLine
 10
277.2527836793473
 20
188.5741438617253
 30
0.0
 11
276.6199231101853
 21
189.1843770138893
 31
0.0
  0
LINE
  5
C02
330
18
100
AcDbEntity
  8
1
  6
Continuous
 48
0.25
100
AcDbLine
 10
277.7774569109877
 20
188.383225030805
 30
0.0
 11
277.2527836793473
 21
188.5741438617253
 31
0.0
  0
ARC
  5
C03
330
18
100
AcDbEntity
  8
1
  6
Continuous
 48
0.25
100
AcDbCircle
 10
277.7774569109877
 20
187.4328735168901
 30
0.0
 40
2.1
100
AcDbArc
 50
123.4630000000006
 51
146.5369999999982
  0
LINE
  5
C04
330
18
100
AcDbEntity
  8
1
  6
Continuous
 48
0.25
100
AcDbLine
 10
276.6368936729339
 20
187.9582538553119
 30
0.0
 11
276.0259534139885
 21
188.5904073176926
 31
0.0
  0
LINE
  5
C05
330
18
100
AcDbEntity
  8
1
  6
Continuous
 48
0.25
100
AcDbLine
 10
276.8278125038542
 20
187.4335806236715
 30
0.0
 11
276.6368936729339
 21
187.9582538553119
 31
0.0
  0
LINE
  5
C06
330
18
100
AcDbEntity
  8
1
  6
Continuous
 48
0.25
100
AcDbLine
 10
278.3028372494094
 20
186.2923102788364
 30
0.0
 11
278.9364049253525
 21
185.6813700198912
 31
0.0
  0
ARC
  5
C07
330
18
100
AcDbEntity
  8
1
  6
Continuous
 48
0.25
100
AcDbCircle
 10
277.7774569109877
 20
187.4328735168901
 30
0.0
 40
2.1
100
AcDbArc
 50
303.4630000000006
 51
326.5369999999983
  0
LINE
  5
C08
330
18
100
AcDbEntity
  8
1
  6
Continuous
 48
0.25
100
AcDbLine
 10
278.9187272558227
 20
186.9082002852499
 30
0.0
 11
279.5296675147682
 21
186.2746326093066
 31
0.0
  0
LINE
  5
C09
330
18
100
AcDbEntity
  8
1
  6
Continuous
 48
0.25
100
AcDbLine
 10
278.7278084249024
 20
187.4328735168903
 30
0.0
 11
278.9187272558227
 21
186.9082002852499
 31
0.0
  0
LINE
  5
C0A
330
18
100
AcDbEntity
  8
1
  6
Continuous
 48
0.25
100
AcDbLine
 10
278.3035443561906
 20
188.5741438617254
 30
0.0
 11
278.9356978185713
 21
189.1850841206705
 31
0.0
  0
ARC
  5
C0B
330
18
100
AcDbEntity
  8
1
  6
Continuous
 48
0.25
100
AcDbCircle
 10
277.7774569109877
 20
187.4328735168901
 30
0.0
 40
2.1
100
AcDbArc
 50
33.46300000000175
 51
56.53699999999938
  0
LINE
  5
C0C
330
18
100
AcDbEntity
  8
1
  6
Continuous
 48
0.25
100
AcDbLine
 10
278.9187272558227
 20
187.9589609620932
 30
0.0
 11
279.5296675147679
 21
188.5911144244738
 31
0.0
  0
LINE
  5
C0D
330
18
100
AcDbEntity
  8
1
  6
Continuous
 48
0.25
100
AcDbLine
 10
278.7278084249024
 20
187.4328735168903
 30
0.0
 11
278.9187272558227
 21
187.9589609620932
 31
0.0
  0
ARC
  5
C0E
330
18
100
AcDbEntity
  8
1
  6
Continuous
100
AcDbCircle
 10
279.0284569109878
 20
115.4328735168902
 30
0.0
 40
5.750000000000013
100
AcDbArc
 50
292.6198649480394
 51
60.40815420605017
  0
ARC
  5
C0F
330
18
100
AcDbEntity
  8
1
  6
Continuous
100
AcDbCircle
 10
276.5284569109879
 20
115.4328735168902
 30
0.0
 40
5.750000000000002
100
AcDbArc
 50
119.591845793949
 51
247.3801350519605
  0
ARC
  5
C10
330
18
100
AcDbEntity
  8
1
  6
Continuous
100
AcDbCircle
 10
277.7784569109879
 20
118.4328735168902
 30
0.0
 40
9.0
100
AcDbArc
 50
247.3801350519605
 51
292.6198649480394
  0
LINE
  5
C11
330
18
100
AcDbEntity
  8
1
  6
Continuous
 48
0.25
100
AcDbLine
 10
277.7774569109877
 20
116.383225030805
 30
0.0
 11
278.3035443561906
 21
116.5741438617254
 31
0.0
  0
LINE
  5
C12
330
18
100
AcDbEntity
  8
1
  6
Continuous
 48
0.25
100
AcDbLine
 10
277.7781640177689
 20
114.4832291097568
 30
0.0
 11
278.3028372494094
 21
114.2923102788364
 31
0.0
  0
CIRCLE
  5
C13
330
18
100
AcDbEntity
  8
1
  6
Continuous
100
AcDbCircle
 10
277.7784569109879
 20
115.4328735168902
 30
0.0
 40
3.800000000001205
  0
CIRCLE
  5
C14
330
18
100
AcDbEntity
  8
1
  6
Continuous
 48
0.25
100
AcDbCircle
 10
277.7784569109879
 20
115.4328735168902
 30
0.0
 40
3.5
  0
LINE
  5
C15
330
18
100
AcDbEntity
  8
1
  6
Continuous
100
AcDbLine
 10
281.8679110838878
 20
120.4328735168902
 30
0.0
 11
273.6890027380876
 21
120.4328735168902
 31
0.0
  0
ARC
  5
C16
330
18
100
AcDbEntity
  8
1
  6
Continuous
 48
0.25
100
AcDbCircle
 10
277.7774569109877
 20
115.4328735168902
 30
0.0
 40
2.1
100
AcDbArc
 50
123.4630000000001
 51
146.5369999999982
  0
LINE
  5
C17
330
18
100
AcDbEntity
  8
1
  6
Continuous
 48
0.25
100
AcDbLine
 10
277.2527836793473
 20
116.5741438617253
 30
0.0
 11
276.6199231101853
 21
117.1843770138893
 31
0.0
  0
LINE
  5
C18
330
18
100
AcDbEntity
  8
1
  6
Continuous
 48
0.25
100
AcDbLine
 10
277.7774569109877
 20
116.383225030805
 30
0.0
 11
277.2527836793473
 21
116.5741438617253
 31
0.0
  0
LINE
  5
C19
330
18
100
AcDbEntity
  8
1
  6
Continuous
 48
0.25
100
AcDbLine
 10
276.8278125038542
 20
115.4335806236715
 30
0.0
 11
276.6368936729339
 21
114.9074931784688
 31
0.0
  0
LINE
  5
C1A
330
18
100
AcDbEntity
  8
1
  6
Continuous
 48
0.25
100
AcDbLine
 10
276.8278125038542
 20
115.4335806236715
 30
0.0
 11
276.6368936729339
 21
115.9582538553119
 31
0.0
  0
ARC
  5
C1B
330
18
100
AcDbEntity
  8
1
  6
Continuous
 48
0.25
100
AcDbCircle
 10
277.7774569109877
 20
115.4328735168902
 30
0.0
 40
2.1
100
AcDbArc
 50
213.4630000000017
 51
236.5369999999998
  0
LINE
  5
C1C
330
18
100
AcDbEntity
  8
1
  6
Continuous
 48
0.25
100
AcDbLine
 10
277.2520765725661
 20
114.2923102788364
 30
0.0
 11
276.6199231101853
 21
113.6813700198912
 31
0.0
  0
LINE
  5
C1D
330
18
100
AcDbEntity
  8
1
  6
Continuous
 48
0.25
100
AcDbLine
 10
277.7781640177689
 20
114.4832291097568
 30
0.0
 11
277.2520765725661
 21
114.2923102788364
 31
0.0
  0
LINE
  5
C1E
330
18
100
AcDbEntity
  8
1
  6
Continuous
 48
0.25
100
AcDbLine
 10
276.6368936729339
 20
114.9074931784688
 30
0.0
 11
276.0259534139885
 21
114.2753397160878
 31
0.0
  0
LINE
  5
C1F
330
18
100
AcDbEntity
  8
1
  6
Continuous
 48
0.25
100
AcDbLine
 10
276.6368936729339
 20
115.9582538553119
 30
0.0
 11
276.0259534139885
 21
116.5904073176926
 31
0.0
  0
LINE
  5
C20
330
18
100
AcDbEntity
  8
1
  6
Continuous
 48
0.25
100
AcDbLine
 10
278.3035443561906
 20
116.5741438617254
 30
0.0
 11
278.9356978185713
 21
117.1850841206705
 31
0.0
  0
ARC
  5
C21
330
18
100
AcDbEntity
  8
1
  6
Continuous
 48
0.25
100
AcDbCircle
 10
277.7774569109877
 20
115.4328735168902
 30
0.0
 40
2.1
100
AcDbArc
 50
33.46300000000175
 51
56.53699999999985
  0
LINE
  5
C22
330
18
100
AcDbEntity
  8
1
  6
Continuous
 48
0.25
100
AcDbLine
 10
278.7278084249024
 20
115.4328735168903
 30
0.0
 11
278.9187272558227
 21
114.9082002852499
 31
0.0
  0
LINE
  5
C23
330
18
100
AcDbEntity
  8
1
  6
Continuous
 48
0.25
100
AcDbLine
 10
278.7278084249024
 20
115.4328735168903
 30
0.0
 11
278.9187272558227
 21
115.9589609620932
 31
0.0
  0
LINE
  5
C24
330
18
100
AcDbEntity
  8
1
  6
Continuous
 48
0.25
100
AcDbLine
 10
278.3028372494094
 20
114.2923102788364
 30
0.0
 11
278.9364049253525
 21
113.6813700198912
 31
0.0
  0
ARC
  5
C25
330
18
100
AcDbEntity
  8
1
  6
Continuous
 48
0.25
100
AcDbCircle
 10
277.7774569109877
 20
115.4328735168902
 30
0.0
 40
2.1
100
AcDbArc
 50
303.4630000000001
 51
326.5369999999983
  0
LINE
  5
C26
330
18
100
AcDbEntity
  8
1
  6
Continuous
 48
0.25
100
AcDbLine
 10
278.9187272558227
 20
114.9082002852499
 30
0.0
 11
279.5296675147682
 21
114.2746326093067
 31
0.0
  0
LINE
  5
C27
330
18
100
AcDbEntity
  8
1
  6
Continuous
 48
0.25
100
AcDbLine
 10
278.9187272558227
 20
115.9589609620932
 30
0.0
 11
279.5296675147679
 21
116.5911144244738
 31
0.0
  0
LINE
  5
C9D
330
18
100
AcDbEntity
  8
1
  6
Continuous
100
AcDbLine
 10
164.2256615799826
 20
261.0983470441779
 30
0.0
 11
164.2256615799826
 21
251.0983470441761
 31
0.0
  0
LINE
  5
C9E
330
18
100
AcDbEntity
  8
1
  6
Continuous
100
AcDbLine
 10
150.2256615799144
 20
259.5983470440674
 30
0.0
 11
150.2256615799176
 21
252.5983470440674
 31
0.0
  0
LINE
  5
C9F
330
18
100
AcDbEntity
  8
1
  6
Continuous
100
AcDbLine
 10
150.7256615799174
 20
253.0983470440675
 30
0.0
 11
150.7256615799146
 21
259.0983470440675
 31
0.0
  0
LINE
  5
CA0
330
18
100
AcDbEntity
  8
1
  6
Continuous
100
AcDbLine
 10
161.9256615799836
 20
249.9207716956545
 30
0.0
 11
161.9256615799836
 21
262.2759223925034
 31
0.0
  0
LINE
  5
CA1
330
18
100
AcDbEntity
  8
1
  6
Continuous
100
AcDbLine
 10
146.7256615799099
 20
270.0983470441086
 30
0.0
 11
146.7256615799221
 21
242.0983470441088
 31
0.0
  0
ARC
  5
CA2
330
18
100
AcDbEntity
  8
1
  6
Continuous
100
AcDbCircle
 10
196.7256615799194
 20
256.098347044078
 30
0.0
 40
60.0
100
AcDbArc
 50
171.8148219821421
 51
188.1851780177228
  0
ARC
  5
CA3
330
18
100
AcDbEntity
  8
1
  6
Continuous
100
AcDbCircle
 10
199.6923189821782
 20
258.0983470440866
 30
0.0
 40
60.0
100
AcDbArc
 50
181.9102131717399
 51
192.1693877306261
  0
ARC
  5
CA5
330
18
100
AcDbEntity
  8
1
  6
Continuous
100
AcDbCircle
 10
158.7256615799833
 20
245.5983470440541
 30
0.0
 40
1.0
100
AcDbArc
 50
270.0000000001172
 51
0.0
  0
ARC
  5
CA6
330
18
100
AcDbEntity
  8
1
  6
Continuous
100
AcDbCircle
 10
145.1923189821739
 20
246.3455061349079
 30
0.0
 40
4.247159090896102
100
AcDbArc
 50
192.1693877305788
 51
270.0000000000152
  0
ARC
  5
CA7
330
18
100
AcDbEntity
  8
1
  6
Continuous
100
AcDbCircle
 10
138.3266889862072
 20
247.6983470441465
 30
0.0
 40
1.0
100
AcDbArc
 50
188.1851780177228
 51
270.000000000026
  0
LINE
  5
CA8
330
18
100
AcDbEntity
  8
1
  6
Continuous
100
AcDbLine
 10
140.7852735631335
 20
246.6983470441476
 30
0.0
 11
138.3266889862077
 21
246.6983470441466
 31
0.0
  0
LINE
  5
CA9
330
18
100
AcDbEntity
  8
1
  6
Continuous
100
AcDbLine
 10
145.192318982175
 20
242.0983470441084
 30
0.0
 11
146.7256615799221
 21
242.0983470441088
 31
0.0
  0
LINE
  5
CAA
330
18
100
AcDbEntity
  8
1
  6
Continuous
100
AcDbLine
 10
146.725661579921
 20
244.59834704403
 30
0.0
 11
158.7256615799853
 21
244.5983470440546
 31
0.0
  0
LINE
  5
CAB
330
18
100
AcDbEntity
  8
1
  6
Continuous
100
AcDbLine
 10
150.7256615799174
 20
253.0983470440677
 30
0.0
 11
150.2256615799176
 21
252.5983470440674
 31
0.0
  0
LINE
  5
CAC
330
18
100
AcDbEntity
  8
1
  6
Continuous
100
AcDbLine
 10
150.2256615799176
 20
252.5983470440674
 30
0.0
 11
146.7256615799176
 21
252.5983470440653
 31
0.0
  0
LINE
  5
CAD
330
18
100
AcDbEntity
  8
1
  6
Continuous
100
AcDbLine
 10
161.9256615799836
 20
249.9207716956545
 30
0.0
 11
159.7256615799833
 21
249.9207716956545
 31
0.0
  0
LINE
  5
CAE
330
18
100
AcDbEntity
  8
1
  6
Continuous
100
AcDbLine
 10
160.2256615799188
 20
248.9103361926651
 30
0.0
 11
162.2256615799826
 21
248.9103361926651
 31
0.0
  0
LINE
  5
CAF
330
18
100
AcDbEntity
  8
1
  6
Continuous
100
AcDbLine
 10
164.2256615799799
 20
251.0983470441761
 30
0.0
 11
161.9256615799836
 21
251.098347044178
 31
0.0
  0
LINE
  5
CB0
330
18
100
AcDbEntity
  8
1
  6
Continuous
100
AcDbLine
 10
159.9256615799834
 20
246.0983470440911
 30
0.0
 11
159.7256615799833
 21
246.0983470440911
 31
0.0
  0
LINE
  5
CB1
330
18
100
AcDbEntity
  8
1
  6
Continuous
100
AcDbLine
 10
162.2256615799826
 20
246.3555612514998
 30
0.0
 11
160.2256615799188
 21
246.3555612514998
 31
0.0
  0
LINE
  5
CB2
330
18
100
AcDbEntity
  8
1
  6
Continuous
100
AcDbLine
 10
159.7256615799833
 20
245.5983470440541
 30
0.0
 11
159.7256615799833
 21
249.9207716956545
 31
0.0
  0
LINE
  5
CB3
330
18
100
AcDbEntity
  8
1
  6
Continuous
100
AcDbLine
 10
160.1256615799834
 20
246.2983470440911
 30
0.0
 11
160.1256615799834
 21
249.9207716956545
 31
0.0
  0
LINE
  5
CB4
330
18
100
AcDbEntity
  8
1
  6
Continuous
100
AcDbLine
 10
162.2256615799826
 20
251.0983470441778
 30
0.0
 11
162.2256615799826
 21
246.3555612514998
 31
0.0
  0
ARC
  5
CB5
330
18
100
AcDbEntity
  8
1
  6
Continuous
100
AcDbCircle
 10
158.7256615799833
 20
266.5983470441998
 30
0.0
 40
1.0
100
AcDbArc
 50
0.0
 51
90.00000000002605
  0
LINE
  5
CB6
330
18
100
AcDbEntity
  8
4
  6
CENTER
100
AcDbLine
 10
168.9247169726816
 20
256.098347044091
 30
0.0
 11
132.4484916503645
 21
256.0983470440465
 31
0.0
  0
ARC
  5
CB7
330
18
100
AcDbEntity
  8
1
  6
Continuous
100
AcDbCircle
 10
145.19231898215
 20
265.8511879532194
 30
0.0
 40
4.247159090896102
100
AcDbArc
 50
90.00000000001303
 51
167.8306122695603
  0
ARC
  5
CB8
330
18
100
AcDbEntity
  8
1
  6
Continuous
100
AcDbCircle
 10
199.6923189821832
 20
254.0983470441739
 30
0.0
 40
60.0
100
AcDbArc
 50
167.8306122695144
 51
178.0897868284034
  0
ARC
  5
CB9
330
18
100
AcDbEntity
  8
1
  6
Continuous
100
AcDbCircle
 10
138.326688986227
 20
264.4983470441463
 30
0.0
 40
1.0
100
AcDbArc
 50
90.00000000002605
 51
171.8148219821421
  0
LINE
  5
CBA
330
18
100
AcDbEntity
  8
1
  6
Continuous
100
AcDbLine
 10
140.7852735631452
 20
265.4983470441475
 30
0.0
 11
138.3266889862265
 21
265.4983470441464
 31
0.0
  0
LINE
  5
CBB
330
18
100
AcDbEntity
  8
1
  6
Continuous
100
AcDbLine
 10
150.2256615799144
 20
259.5983470440674
 30
0.0
 11
150.7256615799146
 21
259.0983470440676
 31
0.0
  0
LINE
  5
CBC
330
18
100
AcDbEntity
  8
1
  6
Continuous
100
AcDbLine
 10
150.2256615799144
 20
259.5983470440674
 30
0.0
 11
146.7256615799144
 21
259.5983470440653
 31
0.0
  0
LINE
  5
CBD
330
18
100
AcDbEntity
  8
1
  6
Continuous
100
AcDbLine
 10
146.725661579911
 20
267.5983470441946
 30
0.0
 11
158.7256615799828
 21
267.5983470441993
 31
0.0
  0
LINE
  5
CBE
330
18
100
AcDbEntity
  8
1
  6
Continuous
100
AcDbLine
 10
145.192318982149
 20
270.0983470441083
 30
0.0
 11
146.7256615799099
 21
270.0983470441086
 31
0.0
  0
LINE
  5
CBF
330
18
100
AcDbEntity
  8
1
  6
Continuous
100
AcDbLine
 10
159.7256615799833
 20
262.2759223925034
 30
0.0
 11
159.7256615799833
 21
266.5983470441998
 31
0.0
  0
LINE
  5
CC0
330
18
100
AcDbEntity
  8
1
  6
Continuous
100
AcDbLine
 10
162.2256615799826
 20
267.3483470440791
 30
0.0
 11
162.2256615799829
 21
261.0983470441795
 31
0.0
  0
LINE
  5
CC1
330
18
100
AcDbEntity
  8
1
  6
Continuous
100
AcDbLine
 10
160.1256615799834
 20
262.2759223925034
 30
0.0
 11
160.1256615799834
 21
265.8983470440801
 31
0.0
  0
LINE
  5
CC2
330
18
100
AcDbEntity
  8
1
  6
Continuous
100
AcDbLine
 10
159.7256615799833
 20
262.2759223925034
 30
0.0
 11
161.9256615799836
 21
262.2759223925034
 31
0.0
  0
LINE
  5
CC3
330
18
100
AcDbEntity
  8
1
  6
Continuous
100
AcDbLine
 10
164.2256615799822
 20
255.4414927947504
 30
0.0
 11
161.9256615799836
 21
255.4414927947522
 31
0.0
  0
LINE
  5
CC4
330
18
100
AcDbEntity
  8
1
  6
Continuous
100
AcDbLine
 10
164.2256615799851
 20
261.0983470441779
 30
0.0
 11
161.9256615799836
 21
261.0983470441798
 31
0.0
  0
LINE
  5
CC5
330
18
100
AcDbEntity
  8
1
  6
Continuous
100
AcDbLine
 10
164.2256615799829
 20
256.7552012936258
 30
0.0
 11
161.9256615799836
 21
256.7552012936276
 31
0.0
  0
LINE
  5
CC6
330
18
100
AcDbEntity
  8
1
  6
Continuous
100
AcDbLine
 10
162.2256615799826
 20
267.3483470440791
 30
0.0
 11
160.2256615799188
 21
267.3483470440791
 31
0.0
  0
LINE
  5
CC7
330
18
100
AcDbEntity
  8
1
  6
Continuous
100
AcDbLine
 10
159.9256615799832
 20
266.0983470440799
 30
0.0
 11
159.7256615799833
 21
266.0983470440799
 31
0.0
  0
LINE
  5
CCA
330
18
100
AcDbEntity
  8
1
  6
Continuous
100
AcDbLine
 10
146.725661579916
 20
35.66026289117684
 30
0.0
 11
146.725661579916
 21
63.66026289117661
 31
0.0
  0
ARC
  5
CCB
330
18
100
AcDbEntity
  8
1
  6
Continuous
100
AcDbCircle
 10
138.7256615799194
 20
41.26026289113689
 30
0.0
 40
1.0
100
AcDbArc
 50
270.0
 51
0.0
  0
ARC
  5
CCC
330
18
100
AcDbEntity
  8
1
  6
Continuous
100
AcDbCircle
 10
138.3266889862307
 20
41.26026289113542
 30
0.0
 40
1.0
100
AcDbArc
 50
188.1851780178829
 51
270.0
  0
LINE
  5
CCD
330
18
100
AcDbEntity
  8
1
  6
Continuous
100
AcDbLine
 10
142.7256615799194
 20
40.79276230225099
 30
0.0
 11
142.7256615799194
 21
58.52776348019715
 31
0.0
  0
LINE
  5
CCE
330
18
100
AcDbEntity
  8
1
  6
Continuous
100
AcDbLine
 10
145.2256615799194
 20
40.86096659896536
 30
0.0
 11
145.2256615799194
 21
58.45955918348471
 31
0.0
  0
LINE
  5
CCF
330
18
100
AcDbEntity
  8
1
  6
Continuous
100
AcDbLine
 10
155.3256615799193
 20
58.66026289124585
 30
0.0
 11
155.3256615799193
 21
40.66026289109088
 31
0.0
  0
LINE
  5
CD0
330
18
100
AcDbEntity
  8
1
  6
Continuous
100
AcDbLine
 10
141.153737236729
 20
39.77678714634851
 30
0.0
 11
144.252933151468
 21
39.86133853743928
 31
0.0
  0
ARC
  5
CD2
330
18
100
AcDbEntity
  8
1
  6
Continuous
100
AcDbCircle
 10
141.445174290875
 20
41.26026289113542
 30
0.0
 40
1.0
100
AcDbArc
 50
270.0
 51
276.7539945882274
  0
ARC
  5
CD3
330
18
100
AcDbEntity
  8
1
  6
Continuous
100
AcDbCircle
 10
141.7256615799194
 20
40.79276230225099
 30
0.0
 40
1.0
100
AcDbArc
 50
271.5627397038331
 51
0.0
  0
LINE
  5
CD4
330
18
100
AcDbEntity
  8
1
  6
Continuous
100
AcDbLine
 10
142.6432182146838
 20
40.39515719413539
 30
0.0
 11
141.5627809235054
 21
40.26720263115038
 31
0.0
  0
ARC
  5
CD6
330
18
100
AcDbEntity
  8
1
  6
Continuous
100
AcDbCircle
 10
141.1591915510416
 20
39.57686153404387
 30
0.0
 40
0.2
100
AcDbArc
 50
91.56273970369623
 51
191.6576568658283
  0
LINE
  5
CD7
330
18
100
AcDbEntity
  8
1
  6
Continuous
100
AcDbLine
 10
141.445174290875
 20
40.26026289113537
 30
0.0
 11
138.3266889862307
 21
40.26026289113537
 31
0.0
  0
LINE
  5
CD8
330
18
100
AcDbEntity
  8
1
  6
Continuous
100
AcDbLine
 10
146.725661579916
 20
38.16026289109089
 30
0.0
 11
158.7256615799853
 21
38.16026289109089
 31
0.0
  0
ARC
  5
CDA
330
18
100
AcDbEntity
  8
1
  6
Continuous
100
AcDbCircle
 10
144.2256615799194
 20
40.86096659896536
 30
0.0
 40
1.0
100
AcDbArc
 50
271.5627397038331
 51
0.0
  0
ARC
  5
CDB
330
18
100
AcDbEntity
  8
1
  6
Continuous
100
AcDbCircle
 10
152.8256615799193
 20
40.66026289109088
 30
0.0
 40
2.5
100
AcDbArc
 50
270.0
 51
0.0
  0
LINE
  5
CDC
330
18
100
AcDbEntity
  8
1
  6
Continuous
100
AcDbLine
 10
141.1537372367445
 20
59.5437386361034
 30
0.0
 11
144.2529331514835
 21
59.45918724500774
 31
0.0
  0
LINE
  5
CDD
330
18
100
AcDbEntity
  8
4
  6
CENTER
100
AcDbLine
 10
168.3083257715545
 20
49.66026289120463
 30
0.0
 11
132.4484916503645
 21
49.66026289123277
 31
0.0
  0
LINE
  5
CDE
330
18
100
AcDbEntity
  8
1
  6
Continuous
100
AcDbLine
 10
139.7256615799194
 20
41.26026289113689
 30
0.0
 11
139.7256615799194
 21
58.06026289113692
 31
0.0
  0
ARC
  5
CDF
330
18
100
AcDbEntity
  8
1
  6
Continuous
100
AcDbCircle
 10
196.7256615799194
 20
49.66026289122936
 30
0.0
 40
60.0
100
AcDbArc
 50
171.8148219823013
 51
188.1851780178829
  0
ARC
  5
CE0
330
18
100
AcDbEntity
  8
1
  6
Continuous
100
AcDbCircle
 10
140.2256615799194
 20
42.76026289113541
 30
0.0
 40
0.5
100
AcDbArc
 50
180.0
 51
270.0
  0
LINE
  5
CE1
330
18
100
AcDbEntity
  8
1
  6
Continuous
100
AcDbLine
 10
142.7256615799194
 20
42.26026289113536
 30
0.0
 11
140.2256615799194
 21
42.26026289113536
 31
0.0
  0
ARC
  5
CE2
330
18
100
AcDbEntity
  8
1
  6
Continuous
100
AcDbCircle
 10
141.7256615799194
 20
58.52776348019715
 30
0.0
 40
1.0
100
AcDbArc
 50
0.0
 51
88.43726029620603
  0
ARC
  5
CE3
330
18
100
AcDbEntity
  8
1
  6
Continuous
100
AcDbCircle
 10
141.445174292415
 20
58.06026289113527
 30
0.0
 40
1.0
100
AcDbArc
 50
83.24600541168074
 51
90.0
  0
LINE
  5
CE4
330
18
100
AcDbEntity
  8
1
  6
Continuous
100
AcDbLine
 10
142.6432182146825
 20
58.92536858831608
 30
0.0
 11
141.5627809250471
 21
59.05332315112008
 31
0.0
  0
ARC
  5
CE6
330
18
100
AcDbEntity
  8
1
  6
Continuous
100
AcDbCircle
 10
141.1591915510573
 20
59.74366424840797
 30
0.0
 40
0.2
100
AcDbArc
 50
168.3423431340816
 51
268.4372602962125
  0
ARC
  5
CE7
330
18
100
AcDbEntity
  8
1
  6
Continuous
100
AcDbCircle
 10
138.7256615799194
 20
58.06026289113692
 30
0.0
 40
1.0
100
AcDbArc
 50
0.0
 51
90.0
  0
ARC
  5
CE8
330
18
100
AcDbEntity
  8
1
  6
Continuous
100
AcDbCircle
 10
138.3266889862036
 20
58.06026289113527
 30
0.0
 40
1.0
100
AcDbArc
 50
90.0
 51
171.8148219823013
  0
LINE
  5
CE9
330
18
100
AcDbEntity
  8
1
  6
Continuous
100
AcDbLine
 10
141.445174292415
 20
59.06026289113525
 30
0.0
 11
138.3266889862036
 21
59.06026289113525
 31
0.0
  0
LINE
  5
CEA
330
18
100
AcDbEntity
  8
1
  6
Continuous
100
AcDbLine
 10
142.7256615799194
 20
57.06026289113527
 30
0.0
 11
140.2256615799194
 21
57.06026289113527
 31
0.0
  0
ARC
  5
CEB
330
18
100
AcDbEntity
  8
1
  6
Continuous
100
AcDbCircle
 10
140.2256615799194
 20
56.56026289113525
 30
0.0
 40
0.5
100
AcDbArc
 50
90.0
 51
180.0
  0
LINE
  5
CEC
330
18
100
AcDbEntity
  8
1
  6
Continuous
100
AcDbLine
 10
150.225661579916
 20
46.16026289121959
 30
0.0
 11
150.225661579916
 21
53.1602628912196
 31
0.0
  0
LINE
  5
CED
330
18
100
AcDbEntity
  8
1
  6
Continuous
100
AcDbLine
 10
150.725661579916
 20
52.6602628912197
 30
0.0
 11
150.725661579916
 21
46.6602628912197
 31
0.0
  0
LINE
  5
CEE
330
18
100
AcDbEntity
  8
1
  6
Continuous
100
AcDbLine
 10
150.225661579916
 20
46.16026289121959
 30
0.0
 11
150.725661579916
 21
46.66026289121957
 31
0.0
  0
LINE
  5
CEF
330
18
100
AcDbEntity
  8
1
  6
Continuous
100
AcDbLine
 10
150.225661579916
 20
46.16026289121959
 30
0.0
 11
146.725661579916
 21
46.16026289122014
 31
0.0
  0
LINE
  5
CF0
330
18
100
AcDbEntity
  8
1
  6
Continuous
100
AcDbLine
 10
146.725661579916
 20
61.1602628912554
 30
0.0
 11
158.7256615799828
 21
61.16026289123658
 31
0.0
  0
ARC
  5
CF1
330
18
100
AcDbEntity
  8
1
  6
Continuous
100
AcDbCircle
 10
144.2256615799194
 20
58.45955918348471
 30
0.0
 40
1.0
100
AcDbArc
 50
0.0
 51
88.43726029620603
  0
LINE
  5
CF2
330
18
100
AcDbEntity
  8
1
  6
Continuous
100
AcDbLine
 10
150.725661579916
 20
52.6602628912196
 30
0.0
 11
150.225661579916
 21
53.1602628912196
 31
0.0
  0
LINE
  5
CF3
330
18
100
AcDbEntity
  8
1
  6
Continuous
100
AcDbLine
 10
150.225661579916
 20
53.1602628912196
 30
0.0
 11
146.725661579916
 21
53.16026289122016
 31
0.0
  0
ARC
  5
CF4
330
18
100
AcDbEntity
  8
1
  6
Continuous
100
AcDbCircle
 10
152.8256615799193
 20
58.6602628912459
 30
0.0
 40
2.5
100
AcDbArc
 50
0.0
 51
90.0
  0
LINE
  5
E13
330
18
100
AcDbEntity
  8
1
  6
Continuous
100
AcDbLine
 10
405.4420641252484
 20
187.1611156524039
 30
0.0
 11
405.4420641252484
 21
115.7046313813636
 31
0.0
  0
LINE
  5
E14
330
18
100
AcDbEntity
  8
1
  6
Continuous
100
AcDbLine
 10
398.4420641252481
 20
194.4328735168755
 30
0.0
 11
398.4420641252481
 21
108.4328735168756
 31
0.0
  0
LINE
  5
E15
330
18
100
AcDbEntity
  8
1
  6
Continuous
100
AcDbLine
 10
408.4420641252483
 20
169.0148376323142
 30
0.0
 11
408.4420641252483
 21
103.9328735168748
 31
0.0
  0
LINE
  5
E16
330
18
100
AcDbEntity
  8
1
  6
Continuous
100
AcDbLine
 10
394.9420641252481
 20
118.9328735168759
 30
0.0
 11
398.4420641252481
 21
118.9328735168755
 31
0.0
  0
LINE
  5
E17
330
18
100
AcDbEntity
  8
1
  6
Continuous
100
AcDbLine
 10
394.9420641252481
 20
111.932873516876
 30
0.0
 11
398.4420641252481
 21
111.9328735168755
 31
0.0
  0
LINE
  5
E18
330
18
100
AcDbEntity
  8
4
  6
CENTER
100
AcDbLine
 10
390.7714982462131
 20
115.432873516876
 30
0.0
 11
402.5950112749488
 21
115.4328735168755
 31
0.0
  0
LINE
  5
E19
330
18
100
AcDbEntity
  8
1
  6
Continuous
100
AcDbLine
 10
405.4420641252484
 20
103.9328735168748
 30
0.0
 11
405.4420641252484
 21
114.1503157831953
 31
0.0
  0
ARC
  5
E1A
330
18
100
AcDbEntity
  8
1
  6
Continuous
100
AcDbCircle
 10
377.7744870623014
 20
131.5109697806193
 30
0.0
 40
32.0
100
AcDbArc
 50
314.5860766758542
 51
329.3440375942919
  0
ARC
  5
E1B
330
18
100
AcDbEntity
  8
1
  6
Continuous
100
AcDbCircle
 10
406.4420641252484
 20
103.9328735168748
 30
0.0
 40
1.0
100
AcDbArc
 50
180.0
 51
270.0
  0
ARC
  5
E1C
330
18
100
AcDbEntity
  8
1
  6
Continuous
100
AcDbCircle
 10
407.4420641252483
 20
103.9328735168748
 30
0.0
 40
1.0
100
AcDbArc
 50
270.0
 51
0.000000000000007
  0
LINE
  5
E1D
330
18
100
AcDbEntity
  8
1
  6
Continuous
100
AcDbLine
 10
407.4420641252483
 20
102.9328735168748
 30
0.0
 11
406.4420641252484
 21
102.9328735168748
 31
0.0
  0
ARC
  5
E1E
330
18
100
AcDbEntity
  8
1
  6
Continuous
100
AcDbCircle
 10
399.5358671970532
 20
109.4328735168824
 30
0.0
 40
1.0
100
AcDbArc
 50
270.0
 51
314.5860766758542
  0
LINE
  5
E1F
330
18
100
AcDbEntity
  8
1
  6
Continuous
100
AcDbLine
 10
398.4420641252481
 20
108.4328735168756
 30
0.0
 11
399.5358671970532
 21
108.4328735168756
 31
0.0
  0
ARC
  5
E20
330
18
100
AcDbEntity
  8
1
  6
Continuous
100
AcDbCircle
 10
404.4420641252484
 20
115.7046313813636
 30
0.0
 40
1.0
100
AcDbArc
 50
329.3440375942919
 51
0.000000000000007
  0
ARC
  5
E21
330
18
100
AcDbEntity
  8
1
  6
Continuous
100
AcDbCircle
 10
395.4420641252484
 20
114.1503157831953
 30
0.0
 40
10.0
100
AcDbArc
 50
0.000000000000007
 51
6.808183281539143
  0
LINE
  5
E22
330
18
100
AcDbEntity
  8
1
  6
Continuous
100
AcDbLine
 10
394.9420641252481
 20
118.9328735168759
 30
0.0
 11
394.4420641252481
 21
118.432873516876
 31
0.0
  0
LINE
  5
E23
330
18
100
AcDbEntity
  8
1
  6
Continuous
100
AcDbLine
 10
394.4420641252484
 20
112.4328735168759
 30
0.0
 11
394.9420641252481
 21
111.932873516876
 31
0.0
  0
LINE
  5
E24
330
18
100
AcDbEntity
  8
1
  6
Continuous
100
AcDbLine
 10
394.4420641252481
 20
112.4328735168759
 30
0.0
 11
394.4420641252481
 21
118.4328735168759
 31
0.0
  0
LINE
  5
E25
330
18
100
AcDbEntity
  8
1
  6
Continuous
100
AcDbLine
 10
394.9420641252484
 20
118.9328735168759
 30
0.0
 11
394.9420641252484
 21
111.932873516876
 31
0.0
  0
LINE
  5
E26
330
18
100
AcDbEntity
  8
5
  6
PHANTOM
100
AcDbLine
 10
408.2136370005071
 20
160.0328735168673
 30
0.0
 11
413.3110940580793
 21
154.935416459295
 31
0.0
  0
LINE
  5
E27
330
18
100
AcDbEntity
  8
5
  6
PHANTOM
100
AcDbLine
 10
407.8136370005068
 20
161.8470870792407
 30
0.0
 11
414.016432796013
 21
155.6442912837344
 31
0.0
  0
LINE
  5
E28
330
18
100
AcDbEntity
  8
5
  6
PHANTOM
100
AcDbLine
 10
406.7459862460672
 20
173.9456036201904
 30
0.0
 11
452.7658844050338
 21
127.9257054612236
 31
0.0
  0
ARC
  5
E29
330
18
100
AcDbEntity
  8
5
  6
PHANTOM
100
AcDbCircle
 10
436.2567841141553
 20
126.050029441252
 30
0.0
 40
10.0
100
AcDbArc
 50
45.00000000000059
 51
128.5860023336669
  0
LINE
  5
E2A
330
18
100
AcDbEntity
  8
5
  6
PHANTOM
100
AcDbLine
 10
450.6445640614741
 20
125.804385117664
 30
0.0
 11
443.3278519260206
 21
133.1210972531175
 31
0.0
  0
LINE
  5
E2B
330
18
100
AcDbEntity
  8
5
  6
PHANTOM
100
AcDbLine
 10
452.7658844050338
 20
126.5114918988505
 30
0.0
 11
452.0587776238473
 21
125.804385117664
 31
0.0
  0
ARC
  5
E2C
330
18
100
AcDbEntity
  8
5
  6
PHANTOM
100
AcDbCircle
 10
451.3516708426608
 20
126.5114918988505
 30
0.0
 40
1.0
100
AcDbArc
 50
225.0000000000006
 51
314.9999999999994
  0
ARC
  5
E2D
330
18
100
AcDbEntity
  8
5
  6
PHANTOM
100
AcDbCircle
 10
452.0587776238473
 20
127.2185986800371
 30
0.0
 40
1.0
100
AcDbArc
 50
314.9999999999994
 51
45.00000000000059
  0
LINE
  5
E2E
330
18
100
AcDbEntity
  8
5
  6
PHANTOM
100
AcDbLine
 10
443.4504075112001
 20
132.9985416679381
 30
0.0
 11
443.4197413485769
 21
133.0292078305613
 31
0.0
  0
LINE
  5
E30
330
18
100
AcDbEntity
  8
5
  6
PHANTOM
100
AcDbLine
 10
413.4507473710638
 20
143.7648973598005
 30
0.0
 11
423.7693445546161
 21
133.4463001762481
 31
0.0
  0
ARC
  5
E31
330
18
100
AcDbEntity
  8
5
  6
PHANTOM
100
AcDbCircle
 10
426.5977716793623
 20
136.2747273009943
 30
0.0
 40
4.0
100
AcDbArc
 50
225.0000000000006
 51
306.9660970477235
  0
ARC
  5
E32
330
18
100
AcDbEntity
  8
5
  6
PHANTOM
100
AcDbCircle
 10
401.6420641252483
 20
169.4328735168722
 30
0.0
 40
45.49999999999999
100
AcDbArc
 50
306.9660970477235
 51
308.5860023336669
  0
ARC
  5
E33
330
18
100
AcDbEntity
  8
5
  6
PHANTOM
100
AcDbCircle
 10
409.7737921088936
 20
151.4016505966153
 30
0.0
 40
6.0
100
AcDbArc
 50
314.9999999999994
 51
45.00000000000059
  0
ARC
  5
E34
330
18
100
AcDbEntity
  8
5
  6
PHANTOM
100
AcDbCircle
 10
409.06845337096
 20
150.6927757721757
 30
0.0
 40
6.0
100
AcDbArc
 50
316.4325437375662
 51
45.00000000000059
  0
LINE
  5
E35
330
18
100
AcDbEntity
  8
5
  6
PHANTOM
100
AcDbLine
 10
413.4507473710637
 20
146.5933244845468
 30
0.0
 11
414.0164327960128
 21
147.1590099094959
 31
0.0
  0
ARC
  5
E36
330
18
100
AcDbEntity
  8
5
  6
PHANTOM
100
AcDbCircle
 10
414.8649609334368
 20
145.1791109221736
 30
0.0
 40
2.0
100
AcDbArc
 50
136.4325437375662
 51
225.0000000000006
  0
LINE
  5
E37
330
18
100
AcDbEntity
  8
1
  6
Continuous
100
AcDbLine
 10
385.0420641252483
 20
177.8931275547034
 30
0.0
 11
385.0420641252483
 21
159.6828735168746
 31
0.0
  0
LINE
  5
E38
330
18
100
AcDbEntity
  8
1
  6
Continuous
100
AcDbLine
 10
385.4420641252481
 20
180.1327478879534
 30
0.0
 11
385.4420641252481
 21
157.9328735168755
 31
0.0
  0
LINE
  5
E39
330
18
100
AcDbEntity
  8
1
  6
Continuous
100
AcDbLine
 10
391.9262751412881
 20
168.4328735168821
 30
0.0
 11
391.9262751412881
 21
159.4103943667529
 31
0.0
  0
LINE
  5
E3A
330
18
100
AcDbEntity
  8
1
  6
Continuous
100
AcDbLine
 10
384.9420641252491
 20
179.1756593095376
 30
0.0
 11
384.9420641252491
 21
158.1828735169741
 31
0.0
  0
LINE
  5
E3B
330
18
100
AcDbEntity
  8
1
  6
Continuous
100
AcDbLine
 10
382.942064125249
 20
179.1756593095393
 30
0.0
 11
382.942064125249
 21
158.1828735169753
 31
0.0
  0
ARC
  5
E3C
330
18
100
AcDbEntity
  8
5
  6
PHANTOM
100
AcDbCircle
 10
410.642064125253
 20
164.675514203987
 30
0.0
 40
4.0
100
AcDbArc
 50
180.0000000000667
 51
225.0000000000006
  0
LINE
  5
E3D
330
18
100
AcDbEntity
  8
1
  6
Continuous
100
AcDbLine
 10
389.8420641252481
 20
145.4328735168878
 30
0.0
 11
389.8420641252481
 21
125.694422124161
 31
0.0
  0
ARC
  5
E3E
330
18
100
AcDbEntity
  8
1
  6
Continuous
100
AcDbCircle
 10
401.6420641252476
 20
169.4328735168709
 30
0.0
 40
48.5
100
AcDbArc
 50
261.9660970477235
 51
266.2169117089686
  0
ARC
  5
E3F
330
18
100
AcDbEntity
  8
1
  6
Continuous
100
AcDbCircle
 10
392.8420641252484
 20
125.694422124161
 30
0.0
 40
3.0
100
AcDbArc
 50
180.0
 51
221.4096221092842
  0
ARC
  5
E40
330
18
100
AcDbEntity
  8
1
  6
Continuous
100
AcDbCircle
 10
395.8420641252478
 20
128.3401734352262
 30
0.0
 40
7.0
100
AcDbArc
 50
221.4096221092842
 51
261.9660970477235
  0
ARC
  5
E41
330
18
100
AcDbEntity
  8
1
  6
Continuous
100
AcDbCircle
 10
393.4420641252481
 20
151.4328735168878
 30
0.0
 40
2.999999999999971
100
AcDbArc
 50
270.0
 51
0.000000000000007
  0
LINE
  5
E42
330
18
100
AcDbEntity
  8
1
  6
Continuous
100
AcDbLine
 10
392.2191683601016
 20
158.7032875855664
 30
0.0
 11
396.4420641252472
 21
154.4803918204208
 31
0.0
  0
LINE
  5
E43
330
18
100
AcDbEntity
  8
1
  6
Continuous
100
AcDbLine
 10
396.4420641252472
 20
154.4803918204208
 30
0.0
 11
396.4420641252484
 21
151.4328735168878
 31
0.0
  0
LINE
  5
E45
330
18
100
AcDbEntity
  8
5
  6
PHANTOM
100
AcDbLine
 10
406.1420641252484
 20
161.2074555943625
 30
0.0
 11
406.1420641252484
 21
160.0328735168688
 31
0.0
  0
LINE
  5
E46
330
18
100
AcDbEntity
  8
5
  6
PHANTOM
100
AcDbLine
 10
405.4420641252484
 20
161.2074555943624
 30
0.0
 11
406.1420641251837
 21
161.2074555943624
 31
0.0
  0
LINE
  5
E47
330
18
100
AcDbEntity
  8
5
  6
PHANTOM
100
AcDbLine
 10
406.1420641252484
 20
160.0328735168688
 30
0.0
 11
409.6278505628811
 21
160.0328735168663
 31
0.0
  0
LINE
  5
E48
330
18
100
AcDbEntity
  8
1
  6
Continuous
100
AcDbLine
 10
392.8420641252482
 20
148.4328735168878
 30
0.0
 11
393.4420641252481
 21
148.4328735168878
 31
0.0
  0
ARC
  5
E49
330
18
100
AcDbEntity
  8
1
  6
Continuous
100
AcDbCircle
 10
392.8420641252482
 20
145.4328735168878
 30
0.0
 40
3.0
100
AcDbArc
 50
90.0
 51
180.0
  0
LINE
  5
E4A
330
18
100
AcDbEntity
  8
1
  6
Continuous
100
AcDbLine
 10
393.9895824287941
 20
156.9328735168739
 30
0.0
 11
386.442064125248
 21
156.9328735168755
 31
0.0
  0
ARC
  5
E4B
330
18
100
AcDbEntity
  8
1
  6
Continuous
100
AcDbCircle
 10
392.9262751412882
 20
159.4103943667529
 30
0.0
 40
1.0
100
AcDbArc
 50
180.0
 51
225.0
  0
ARC
  5
E4C
330
18
100
AcDbEntity
  8
1
  6
Continuous
100
AcDbCircle
 10
385.2983141252483
 20
159.6828735168746
 30
0.0
 40
0.2562500000000227
100
AcDbArc
 50
180.0
 51
257.3196165081742
  0
LINE
  5
E4D
330
18
100
AcDbEntity
  8
1
  6
Continuous
100
AcDbLine
 10
385.4420641252481
 20
159.4328735168746
 30
0.0
 11
385.2420641252484
 21
159.4328735168746
 31
0.0
  0
LINE
  5
E4E
330
18
100
AcDbEntity
  8
1
  6
Continuous
100
AcDbLine
 10
382.942064125249
 20
158.1828735169754
 30
0.0
 11
384.9420641252495
 21
158.1828735169741
 31
0.0
  0
ARC
  5
E4F
330
18
100
AcDbEntity
  8
1
  6
Continuous
100
AcDbCircle
 10
386.4420641252481
 20
157.9328735168755
 30
0.0
 40
1.0
100
AcDbArc
 50
180.0
 51
270.0
  0
LINE
  5
E50
330
18
100
AcDbEntity
  8
4
  6
CENTER
100
AcDbLine
 10
411.9586169465899
 20
169.4328735168699
 30
0.0
 11
376.220273775516
 21
169.4328735168778
 31
0.0
  0
LINE
  5
E51
330
18
100
AcDbEntity
  8
1
  6
Continuous
100
AcDbLine
 10
394.4420641252481
 20
184.4328735168756
 30
0.0
 11
394.4420641252481
 21
190.4328735168758
 31
0.0
  0
LINE
  5
E52
330
18
100
AcDbEntity
  8
1
  6
Continuous
100
AcDbLine
 10
394.9420641252484
 20
190.9328735168758
 30
0.0
 11
394.9420641252484
 21
183.9328735168757
 31
0.0
  0
LINE
  5
E53
330
18
100
AcDbEntity
  8
1
  6
Continuous
100
AcDbLine
 10
394.9420641252481
 20
183.9328735168756
 30
0.0
 11
398.4420641252481
 21
183.9328735168755
 31
0.0
  0
LINE
  5
E54
330
18
100
AcDbEntity
  8
1
  6
Continuous
100
AcDbLine
 10
398.4420641252481
 20
181.9328735168728
 30
0.0
 11
383.4420641252484
 21
181.9328735168761
 31
0.0
  0
LINE
  5
E55
330
18
100
AcDbEntity
  8
1
  6
Continuous
100
AcDbLine
 10
396.4420641252481
 20
180.932873516873
 30
0.0
 11
396.4420641252481
 21
170.4328735168971
 31
0.0
  0
ARC
  5
E56
330
18
100
AcDbEntity
  8
1
  6
Continuous
100
AcDbCircle
 10
378.4420641252484
 20
169.0148376323142
 30
0.0
 40
30.0
100
AcDbArc
 50
0.000000000000007
 51
14.83511158197576
  0
ARC
  5
E57
330
18
100
AcDbEntity
  8
5
  6
PHANTOM
100
AcDbCircle
 10
385.5327828104707
 20
152.732400184594
 30
0.0
 40
30.0
100
AcDbArc
 50
45.00000000000059
 51
48.42171808809087
  0
LINE
  5
E58
330
18
100
AcDbEntity
  8
5
  6
PHANTOM
100
AcDbLine
 10
406.6420641252475
 20
169.4328735168722
 30
0.0
 11
406.642064125253
 21
164.6755142039823
 31
0.0
  0
ARC
  5
E59
330
18
100
AcDbEntity
  8
1
  6
Continuous
100
AcDbCircle
 10
401.6420641252484
 20
169.4328735168721
 30
0.0
 40
9.4
100
AcDbArc
 50
58.76707098448645
 51
66.155529976495
  0
ARC
  5
E5A
330
18
100
AcDbEntity
  8
1
  6
Continuous
100
AcDbCircle
 10
404.4420641252484
 20
174.0502320691182
 30
0.0
 40
4.0
100
AcDbArc
 50
41.40962210927095
 51
58.76707098448645
  0
ARC
  5
E5B
330
18
100
AcDbEntity
  8
1
  6
Continuous
100
AcDbCircle
 10
397.4420641252482
 20
180.932873516873
 30
0.0
 40
1.0
100
AcDbArc
 50
90.0
 51
180.0
  0
LINE
  5
E5C
330
18
100
AcDbEntity
  8
1
  6
Continuous
100
AcDbLine
 10
380.942064125249
 20
174.4328735169693
 30
0.0
 11
380.942064125249
 21
164.4328735169675
 31
0.0
  0
LINE
  5
E5D
330
18
100
AcDbEntity
  8
1
  6
Continuous
100
AcDbLine
 10
380.9420641252488
 20
170.0897277664173
 30
0.0
 11
382.942064125249
 21
170.0897277664188
 31
0.0
  0
LINE
  5
E5E
330
18
100
AcDbEntity
  8
1
  6
Continuous
100
AcDbLine
 10
380.9420641252495
 20
168.7760192675418
 30
0.0
 11
382.942064125249
 21
168.7760192675434
 31
0.0
  0
LINE
  5
E5F
330
18
100
AcDbEntity
  8
1
  6
Continuous
100
AcDbLine
 10
385.0420641252483
 20
163.5328735169665
 30
0.0
 11
384.9420641252491
 21
163.5328735169665
 31
0.0
  0
LINE
  5
E62
330
18
100
AcDbEntity
  8
1
  6
Continuous
100
AcDbLine
 10
380.9420641252518
 20
164.4328735169676
 30
0.0
 11
382.942064125249
 21
164.4328735169691
 31
0.0
  0
LINE
  5
E63
330
18
100
AcDbEntity
  8
1
  6
Continuous
100
AcDbLine
 10
394.4420641252484
 20
184.4328735168756
 30
0.0
 11
394.9420641252484
 21
183.9328735168756
 31
0.0
  0
LINE
  5
E64
330
18
100
AcDbEntity
  8
1
  6
Continuous
100
AcDbLine
 10
383.4420641252485
 20
180.1327478879507
 30
0.0
 11
385.4420641252481
 21
180.1327478879534
 31
0.0
  0
ARC
  5
E65
330
18
100
AcDbEntity
  8
1
  6
Continuous
100
AcDbCircle
 10
383.4420641252481
 20
181.7328735168761
 30
0.0
 40
0.2
100
AcDbArc
 50
90.0
 51
180.0
  0
ARC
  5
E66
330
18
100
AcDbEntity
  8
1
  6
Continuous
100
AcDbCircle
 10
383.4420641252481
 20
180.3327478879507
 30
0.0
 40
0.2
100
AcDbArc
 50
180.0
 51
270.0
  0
LINE
  5
E67
330
18
100
AcDbEntity
  8
1
  6
Continuous
100
AcDbLine
 10
384.9420641252492
 20
176.9861195859845
 30
0.0
 11
385.0420641252484
 21
176.9861195859845
 31
0.0
  0
LINE
  5
E69
330
18
100
AcDbEntity
  8
1
  6
Continuous
100
AcDbLine
 10
385.2420641252482
 20
178.0931275547033
 30
0.0
 11
385.4420641252481
 21
178.0931275547033
 31
0.0
  0
ARC
  5
E6A
330
18
100
AcDbEntity
  8
1
  6
Continuous
100
AcDbCircle
 10
385.2420641252482
 20
177.8931275547034
 30
0.0
 40
0.1999999999999886
100
AcDbArc
 50
90.0
 51
180.0
  0
LINE
  5
E6B
330
18
100
AcDbEntity
  8
1
  6
Continuous
100
AcDbLine
 10
385.0420641252483
 20
175.3328735169666
 30
0.0
 11
384.9420641252491
 21
175.3328735169666
 31
0.0
  0
LINE
  5
E6C
330
18
100
AcDbEntity
  8
1
  6
Continuous
100
AcDbLine
 10
382.942064125249
 20
179.1756593095393
 30
0.0
 11
384.9420641252491
 21
179.1756593095378
 31
0.0
  0
LINE
  5
E6E
330
18
100
AcDbEntity
  8
1
  6
Continuous
100
AcDbLine
 10
380.9420641252465
 20
174.4328735169693
 30
0.0
 11
382.942064125249
 21
174.4328735169709
 31
0.0
  0
LINE
  5
E6F
330
18
100
AcDbEntity
  8
1
  6
Continuous
100
AcDbLine
 10
383.2420641252483
 20
181.7328735168761
 30
0.0
 11
383.2420641252483
 21
179.1756593095393
 31
0.0
  0
LINE
  5
E70
330
18
100
AcDbEntity
  8
1
  6
Continuous
100
AcDbLine
 10
394.9420641252481
 20
190.9328735168756
 30
0.0
 11
398.4420641252481
 21
190.9328735168756
 31
0.0
  0
LINE
  5
E71
330
18
100
AcDbEntity
  8
4
  6
CENTER
100
AcDbLine
 10
390.7125755251156
 20
187.4328735168758
 30
0.0
 11
402.5950112749488
 21
187.4328735168756
 31
0.0
  0
ARC
  5
E72
330
18
100
AcDbEntity
  8
1
  6
Continuous
100
AcDbCircle
 10
377.7744870623055
 20
171.3547772531414
 30
0.0
 40
32.0
100
AcDbArc
 50
30.65596240572343
 51
45.413923324155
  0
ARC
  5
E73
330
18
100
AcDbEntity
  8
1
  6
Continuous
100
AcDbCircle
 10
404.4420641252484
 20
187.1611156524039
 30
0.0
 40
1.0
100
AcDbArc
 50
0.000000000000007
 51
30.6559624057216
  0
ARC
  5
E74
330
18
100
AcDbEntity
  8
1
  6
Continuous
100
AcDbCircle
 10
399.5358671970532
 20
193.4328735168822
 30
0.0
 40
1.0
100
AcDbArc
 50
45.413923324155
 51
90.0
  0
LINE
  5
E75
330
18
100
AcDbEntity
  8
1
  6
Continuous
100
AcDbLine
 10
398.4420641252481
 20
194.4328735168755
 30
0.0
 11
399.5358671970532
 21
194.4328735168755
 31
0.0
  0
LINE
  5
E76
330
18
100
AcDbEntity
  8
1
  6
Continuous
100
AcDbLine
 10
394.9420641252484
 20
190.9328735168756
 30
0.0
 11
394.4420641252484
 21
190.4328735168755
 31
0.0
  0
LINE
  5
1037
330
18
100
AcDbEntity
  8
1
  6
Continuous
100
AcDbLine
 10
396.4420641252481
 20
130.1328735168748
 30
0.0
 11
393.5420641252481
 21
130.1328735168748
 31
0.0
  0
LINE
  5
1038
330
18
100
AcDbEntity
  8
1
  6
Continuous
100
AcDbLine
 10
396.4420641252481
 20
140.7328735168748
 30
0.0
 11
393.5420641252481
 21
140.7328735168748
 31
0.0
  0
LINE
  5
103B
330
18
100
AcDbEntity
  8
1
  6
Continuous
100
AcDbLine
 10
396.4420641252481
 20
140.7328735168748
 30
0.0
 11
396.4420641252481
 21
130.1328735168747
 31
0.0
  0
LINE
  5
1041
330
18
100
AcDbEntity
  8
1
  6
Continuous
100
AcDbLine
 10
393.5420641252481
 20
140.7328735168748
 30
0.0
 11
393.5420641252481
 21
130.1328735168747
 31
0.0
  0
LINE
  5
1201
330
18
100
AcDbEntity
  8
5
  6
PHANTOM
100
AcDbLine
 10
26.43192627231724
 20
160.0328735168748
 30
0.0
 11
89.09884581122412
 21
160.0328735168748
 31
0.0
  0
LINE
  5
1202
330
18
100
AcDbEntity
  8
5
  6
PHANTOM
100
AcDbLine
 10
26.43192627231724
 20
178.8328735168748
 30
0.0
 11
89.09884581122403
 21
178.8328735168748
 31
0.0
  0
ARC
  5
1203
330
18
100
AcDbEntity
  8
5
  6
PHANTOM
100
AcDbCircle
 10
64.93192627231713
 20
169.4328735168748
 30
0.0
 40
28.0
100
AcDbArc
 50
345.1671520791899
 51
14.83284792081009
  0
ARC
  5
1206
330
18
100
AcDbEntity
  8
5
  6
PHANTOM
100
AcDbCircle
 10
89.09884581122412
 20
163.0328735168748
 30
0.0
 40
3.0
100
AcDbArc
 50
270.0
 51
345.1671520791899
  0
ARC
  5
1209
330
18
100
AcDbEntity
  8
5
  6
PHANTOM
100
AcDbCircle
 10
89.09884581122403
 20
175.8328735168748
 30
0.0
 40
3.0
100
AcDbArc
 50
14.83284792081009
 51
90.0
  0
LINE
  5
1226
330
18
100
AcDbEntity
  8
1
  6
Continuous
100
AcDbLine
 10
268.378456910988
 20
108.432873516863
 30
0.0
 11
268.378456910988
 21
106.7659539779706
 31
0.0
  0
LINE
  5
1227
330
18
100
AcDbEntity
  8
1
  6
Continuous
100
AcDbLine
 10
287.1784569109879
 20
108.4328735168731
 30
0.0
 11
287.1784569109879
 21
106.7659539779707
 31
0.0
  0
ARC
  5
1228
330
18
100
AcDbEntity
  8
1
  6
Continuous
100
AcDbCircle
 10
277.7784569109879
 20
130.9328735168776
 30
0.0
 40
28.0
100
AcDbArc
 50
255.1671520791898
 51
284.83284792081
  0
ARC
  5
1229
330
18
100
AcDbEntity
  8
1
  6
Continuous
100
AcDbCircle
 10
271.378456910988
 20
106.7659539779706
 30
0.0
 40
3.0
100
AcDbArc
 50
180.0
 51
255.1671520791898
  0
ARC
  5
122A
330
18
100
AcDbEntity
  8
1
  6
Continuous
100
AcDbCircle
 10
284.1784569109879
 20
106.7659539779707
 30
0.0
 40
3.0
100
AcDbArc
 50
284.83284792081
 51
0.0
  0
LINE
  5
122B
330
18
100
AcDbEntity
  8
1
  6
Continuous
100
AcDbLine
 10
160.2256615799188
 20
267.3483470440791
 30
0.0
 11
160.2256615799188
 21
262.2759223925033
 31
0.0
  0
ARC
  5
122C
330
18
100
AcDbEntity
  8
1
  6
Continuous
100
AcDbCircle
 10
159.9256615799834
 20
246.2983470440911
 30
0.0
 40
0.2
100
AcDbArc
 50
270.0
 51
0.0
  0
ARC
  5
122D
330
18
100
AcDbEntity
  8
1
  6
Continuous
100
AcDbCircle
 10
159.9256615799834
 20
265.8983470440801
 30
0.0
 40
0.2
100
AcDbArc
 50
0.0
 51
90.00000000006512
  0
LINE
  5
122E
330
18
100
AcDbEntity
  8
1
  6
Continuous
100
AcDbLine
 10
160.2256615799188
 20
249.9207716956545
 30
0.0
 11
160.2256615799188
 21
246.3555612514998
 31
0.0
  0
LINE
  5
1231
330
18
100
AcDbEntity
  8
1
  6
Continuous
100
AcDbLine
 10
160.2256615799011
 20
38.41026289116502
 30
0.0
 11
160.2256615799341
 21
59.40304868374432
 31
0.0
  0
LINE
  5
1232
330
18
100
AcDbEntity
  8
1
  6
Continuous
100
AcDbLine
 10
160.1256615799988
 20
59.46026289115327
 30
0.0
 11
160.125661579968
 21
39.86026289116427
 31
0.0
  0
LINE
  5
1233
330
18
100
AcDbEntity
  8
1
  6
Continuous
100
AcDbLine
 10
162.2256615799649
 20
38.41026289116189
 30
0.0
 11
162.2256615799986
 21
59.40304868374119
 31
0.0
  0
LINE
  5
1234
330
18
100
AcDbEntity
  8
1
  6
Continuous
100
AcDbLine
 10
159.7256615799833
 20
39.16026289123186
 30
0.0
 11
159.7256615799833
 21
60.16026289137754
 31
0.0
  0
LINE
  5
1236
330
18
100
AcDbEntity
  8
1
  6
Continuous
100
AcDbLine
 10
164.2256615799748
 20
44.66026289105997
 30
0.0
 11
164.2256615799905
 21
54.66026289106179
 31
0.0
  0
LINE
  5
1239
330
18
100
AcDbEntity
  8
1
  6
Continuous
100
AcDbLine
 10
159.9256615799991
 20
59.66026289115359
 30
0.0
 11
159.725661579999
 21
59.66026289115387
 31
0.0
  0
ARC
  5
123A
330
18
100
AcDbEntity
  8
1
  6
Continuous
100
AcDbCircle
 10
159.9256615799988
 20
59.46026289115355
 30
0.0
 40
0.2
100
AcDbArc
 50
359.9999999999099
 51
89.99999999990995
  0
LINE
  5
123C
330
18
100
AcDbEntity
  8
1
  6
Continuous
100
AcDbLine
 10
162.225661579998
 20
59.40304868374119
 30
0.0
 11
160.2256615799341
 21
59.40304868374432
 31
0.0
  0
LINE
  5
123F
330
18
100
AcDbEntity
  8
1
  6
Continuous
100
AcDbLine
 10
164.2256615799877
 20
54.66026289106167
 30
0.0
 11
162.225661579991
 21
54.66026289106321
 31
0.0
  0
ARC
  5
1241
330
18
100
AcDbEntity
  8
1
  6
Continuous
100
AcDbCircle
 10
158.7256615799833
 20
39.16026289123186
 30
0.0
 40
1.0
100
AcDbArc
 50
270.0000000001172
 51
0.0
  0
LINE
  5
1242
330
18
100
AcDbEntity
  8
1
  6
Continuous
100
AcDbLine
 10
164.2256615799818
 20
49.00340864161204
 30
0.0
 11
162.2256615799819
 21
49.00340864161364
 31
0.0
  0
LINE
  5
1243
330
18
100
AcDbEntity
  8
1
  6
Continuous
100
AcDbLine
 10
164.2256615799773
 20
44.66026289105997
 30
0.0
 11
162.225661579975
 21
44.66026289106149
 31
0.0
  0
LINE
  5
1244
330
18
100
AcDbEntity
  8
1
  6
Continuous
100
AcDbLine
 10
164.2256615799832
 20
50.31711714048748
 30
0.0
 11
162.2256615799841
 21
50.31711714048903
 31
0.0
  0
LINE
  5
1246
330
18
100
AcDbEntity
  8
1
  6
Continuous
100
AcDbLine
 10
159.9256615799674
 20
39.66026289116462
 30
0.0
 11
159.7256615799676
 21
39.66026289116513
 31
0.0
  0
ARC
  5
1247
330
18
100
AcDbEntity
  8
1
  6
Continuous
100
AcDbCircle
 10
159.925661579968
 20
39.86026289116455
 30
0.0
 40
0.2
100
AcDbArc
 50
269.9999999998448
 51
359.9999999999099
  0
LINE
  5
1248
330
18
100
AcDbEntity
  8
1
  6
Continuous
100
AcDbLine
 10
162.2256615799649
 20
38.41026289116189
 30
0.0
 11
160.2256615799011
 21
38.41026289116502
 31
0.0
  0
ARC
  5
1249
330
18
100
AcDbEntity
  8
1
  6
Continuous
100
AcDbCircle
 10
158.7256615799833
 20
60.16026289137754
 30
0.0
 40
1.0
100
AcDbArc
 50
0.0
 51
90.00000000002605
  0
LINE
  5
124A
330
18
100
AcDbEntity
  8
1
  6
Continuous
100
AcDbLine
 10
160.1256615799741
 20
43.76026289112433
 30
0.0
 11
160.2256615799733
 21
43.76026289112417
 31
0.0
  0
LINE
  5
124B
330
18
100
AcDbEntity
  8
1
  6
Continuous
100
AcDbLine
 10
160.1256615799926
 20
55.56026289112447
 30
0.0
 11
160.2256615799919
 21
55.5602628911243
 31
0.0
  0
ARC
  5
124C
330
18
100
AcDbEntity
  8
5
  6
PHANTOM
100
AcDbCircle
 10
27.47950999167275
 20
169.4328735222155
 30
0.0
 40
10.2116165366446
100
AcDbArc
 50
142.6794639787655
 51
217.3205366054345
  0
LINE
  5
124D
330
18
100
AcDbEntity
  8
1
  6
Continuous
100
AcDbLine
 10
148.7256615799195
 20
245.5983470440321
 30
0.0
 11
148.7256615799195
 21
252.5983470440665
 31
0.0
  0
LINE
  5
124E
330
18
100
AcDbEntity
  8
1
  6
Continuous
100
AcDbLine
 10
148.7256615799195
 20
259.5983470440665
 30
0.0
 11
148.7256615799195
 21
266.598347044195
 31
0.0
  0
LINE
  5
12B7
330
18
100
AcDbEntity
  8
4
  6
CENTER
100
AcDbLine
 10
143.5256615799194
 20
161.7796297379013
 30
0.0
 11
143.5256615799194
 21
177.086117295843
 31
0.0
  0
LINE
  5
12B8
330
18
100
AcDbEntity
  8
4
  6
CENTER
100
AcDbLine
 10
401.6420641252484
 20
177.086117295843
 30
0.0
 11
401.6420641252484
 21
161.7796297379014
 31
0.0
  0
ARC
  5
1CD8
330
18
100
AcDbEntity
  8
1
  6
Continuous
100
AcDbCircle
 10
177.7481109107208
 20
256.0983470440465
 30
0.0
 40
9.0
100
AcDbArc
 50
344.1191499917188
 51
15.88085000828116
  0
LINE
  5
1CD9
330
18
100
AcDbEntity
  8
1
  6
Continuous
100
AcDbLine
 10
184.1481109107209
 20
259.8983470440465
 30
0.0
 11
184.1481109107209
 21
252.2983470440464
 31
0.0
  0
LINE
  5
1CDA
330
18
100
AcDbEntity
  8
1
  6
Continuous
100
AcDbLine
 10
183.1481109107215
 20
249.5983470440454
 30
0.0
 11
183.1481109107204
 21
262.5983470440475
 31
0.0
  0
LINE
  5
1CDB
330
18
100
AcDbEntity
  8
1
  6
Continuous
100
AcDbLine
 10
178.1481109107215
 20
249.0983470440456
 30
0.0
 11
178.1481109107204
 21
263.0983470440471
 31
0.0
  0
LINE
  5
1CDC
330
18
100
AcDbEntity
  8
1
  6
Continuous
100
AcDbLine
 10
183.1481109107209
 20
256.0983470440465
 30
0.0
 11
184.1481109107209
 21
257.0983470440463
 31
0.0
  0
LINE
  5
1CDE
330
18
100
AcDbEntity
  8
4
  6
CENTER
100
AcDbLine
 10
189.1481109107209
 20
256.0983470440465
 30
0.0
 11
175.6011571525668
 21
256.0983470440465
 31
0.0
  0
LINE
  5
1CDF
330
18
100
AcDbEntity
  8
1
  6
Continuous
100
AcDbLine
 10
178.1481109107204
 20
249.0983470440456
 30
0.0
 11
182.6481109107204
 21
249.0983470440454
 31
0.0
  0
LINE
  5
1CE0
330
18
100
AcDbEntity
  8
1
  6
Continuous
100
AcDbLine
 10
183.1481109107209
 20
255.0983470440466
 30
0.0
 11
184.1481109107209
 21
256.0983470440465
 31
0.0
  0
LINE
  5
1CE1
330
18
100
AcDbEntity
  8
1
  6
Continuous
100
AcDbLine
 10
184.1481109107208
 20
252.5983470440464
 30
0.0
 11
185.2675261005552
 21
252.6962831829356
 31
0.0
  0
LINE
  5
1CE2
330
18
100
AcDbEntity
  8
1
  6
Continuous
100
AcDbLine
 10
184.1481109107209
 20
252.2983470440464
 30
0.0
 11
183.1481109107209
 21
252.2983470440464
 31
0.0
  0
ARC
  5
1CE3
330
18
100
AcDbEntity
  8
1
  6
Continuous
100
AcDbCircle
 10
185.1542236349436
 20
253.9913362904602
 30
0.0
 40
1.3
100
AcDbArc
 50
274.9999999999997
 51
344.1191499917188
  0
ARC
  5
1CE4
330
18
100
AcDbEntity
  8
1
  6
Continuous
100
AcDbCircle
 10
182.6481109107201
 20
249.5983470440454
 30
0.0
 40
0.5
100
AcDbArc
 50
269.9999999999934
 51
359.9999999999933
  0
LINE
  5
1CE5
330
18
100
AcDbEntity
  8
1
  6
Continuous
100
AcDbLine
 10
178.1481109107204
 20
263.0983470440472
 30
0.0
 11
182.6481109107204
 21
263.0983470440475
 31
0.0
  0
LINE
  5
1CE6
330
18
100
AcDbEntity
  8
1
  6
Continuous
100
AcDbLine
 10
184.1481109107209
 20
259.5983470440464
 30
0.0
 11
185.2675261005218
 21
259.50041090516
 31
0.0
  0
LINE
  5
1CE7
330
18
100
AcDbEntity
  8
1
  6
Continuous
100
AcDbLine
 10
184.1481109107209
 20
259.8983470440465
 30
0.0
 11
183.1481109107209
 21
259.8983470440465
 31
0.0
  0
ARC
  5
1CE8
330
18
100
AcDbEntity
  8
1
  6
Continuous
100
AcDbCircle
 10
182.6481109107201
 20
262.5983470440475
 30
0.0
 40
0.5
100
AcDbArc
 50
0.0000000000065138
 51
90.00000000000325
  0
ARC
  5
1CE9
330
18
100
AcDbEntity
  8
1
  6
Continuous
100
AcDbCircle
 10
185.1542236349298
 20
258.2053577976292
 30
0.0
 40
1.3
100
AcDbArc
 50
15.88085000828116
 51
85.00000000000026
  0
LINE
  5
1CEC
330
18
100
AcDbEntity
  8
1
  6
Continuous
 48
0.25
100
AcDbLine
 10
279.0279145933447
 20
217.408133848759
 30
0.0
 11
279.7823975288705
 21
216.626780855548
 31
0.0
  0
LINE
  5
1CED
330
18
100
AcDbEntity
  8
1
  6
Continuous
 48
0.25
100
AcDbLine
 10
279.0279145933445
 20
218.6653697057088
 30
0.0
 11
279.7823975288706
 21
219.4467226989199
 31
0.0
  0
ARC
  5
1CEE
330
18
100
AcDbEntity
  8
1
  6
Continuous
 48
0.25
100
AcDbCircle
 10
277.7784569109879
 20
218.036751777234
 30
0.0
 40
2.45
100
AcDbArc
 50
305.1291099999997
 51
324.871
  0
ARC
  5
1CEF
330
18
100
AcDbEntity
  8
1
  6
Continuous
 48
0.25
100
AcDbCircle
 10
277.7784569109879
 20
218.036751777234
 30
0.0
 40
2.45
100
AcDbArc
 50
35.12899999999993
 51
54.87100000000006
  0
CIRCLE
  5
1CF0
330
18
100
AcDbEntity
  8
1
  6
Continuous
 48
0.25
100
AcDbCircle
 10
277.7784569109879
 20
218.036751777234
 30
0.0
 40
4.5
  0
LINE
  5
1CF1
330
18
100
AcDbEntity
  8
4
  6
CENTER
100
AcDbLine
 10
269.7784569109872
 20
218.036751777234
 30
0.0
 11
285.7784569109886
 21
218.036751777234
 31
0.0
  0
CIRCLE
  5
1CF2
330
18
100
AcDbEntity
  8
1
  6
Continuous
100
AcDbCircle
 10
277.7784569109879
 20
218.036751777234
 30
0.0
 40
4.599999999999909
  0
CIRCLE
  5
1CF3
330
18
100
AcDbEntity
  8
1
  6
Continuous
100
AcDbCircle
 10
277.7784569109879
 20
218.036751777234
 30
0.0
 40
6.000000000000683
  0
ARC
  5
1CF4
330
18
100
AcDbEntity
  8
1
  6
Continuous
 48
0.25
100
AcDbCircle
 10
277.7784569109879
 20
218.036751777234
 30
0.0
 40
2.45
100
AcDbArc
 50
215.1291000000012
 51
234.8708999999987
  0
LINE
  5
1CF5
330
18
100
AcDbEntity
  8
1
  6
Continuous
 48
0.25
100
AcDbLine
 10
277.149838982513
 20
216.7872940948773
 30
0.0
 11
276.3684859893019
 21
216.0328111593513
 31
0.0
  0
LINE
  5
1CF6
330
18
100
AcDbEntity
  8
1
  6
Continuous
 48
0.25
100
AcDbLine
 10
278.4070748394629
 20
216.7872940948773
 30
0.0
 11
279.1884278326739
 21
216.0328111593513
 31
0.0
  0
LINE
  5
1CF7
330
18
100
AcDbEntity
  8
4
  6
CENTER
100
AcDbLine
 10
277.7784569109879
 20
210.0367517772333
 30
0.0
 11
277.7784569109879
 21
226.0367517772347
 31
0.0
  0
LINE
  5
1CF8
330
18
100
AcDbEntity
  8
1
  6
Continuous
 48
0.25
100
AcDbLine
 10
277.7784569109879
 20
217.0156895852005
 30
0.0
 11
277.149838982513
 21
216.7872940948773
 31
0.0
  0
LINE
  5
1CF9
330
18
100
AcDbEntity
  8
1
  6
Continuous
 48
0.25
100
AcDbLine
 10
277.779164017769
 20
219.0571068624862
 30
0.0
 11
277.1498389825131
 21
219.2862094595906
 31
0.0
  0
LINE
  5
1CFA
330
18
100
AcDbEntity
  8
1
  6
Continuous
 48
0.25
100
AcDbLine
 10
276.7581018257357
 20
218.0360446704528
 30
0.0
 11
276.5289992286314
 21
217.4081338487592
 31
0.0
  0
LINE
  5
1CFB
330
18
100
AcDbEntity
  8
1
  6
Continuous
 48
0.25
100
AcDbLine
 10
276.7581018257357
 20
218.0360446704528
 30
0.0
 11
276.5289992286314
 21
218.6653697057088
 31
0.0
  0
ARC
  5
1CFC
330
18
100
AcDbEntity
  8
1
  6
Continuous
 48
0.25
100
AcDbCircle
 10
277.7784569109879
 20
218.036751777234
 30
0.0
 40
2.45
100
AcDbArc
 50
125.1289999999999
 51
144.8710000000001
  0
LINE
  5
1CFD
330
18
100
AcDbEntity
  8
1
  6
Continuous
 48
0.25
100
AcDbLine
 10
276.5289992286314
 20
217.4081338487592
 30
0.0
 11
275.7745162931052
 21
216.626780855548
 31
0.0
  0
LINE
  5
1CFE
330
18
100
AcDbEntity
  8
1
  6
Continuous
 48
0.25
100
AcDbLine
 10
276.5289992286314
 20
218.6653697057088
 30
0.0
 11
275.7745162931052
 21
219.4467226989199
 31
0.0
  0
LINE
  5
1CFF
330
18
100
AcDbEntity
  8
1
  6
Continuous
 48
0.25
100
AcDbLine
 10
277.1498389825131
 20
219.2862094595906
 30
0.0
 11
276.368485989302
 21
220.0406923951165
 31
0.0
  0
LINE
  5
1D00
330
18
100
AcDbEntity
  8
1
  6
Continuous
 48
0.25
100
AcDbLine
 10
278.7995191030213
 20
218.036751777234
 30
0.0
 11
279.0279145933447
 21
217.408133848759
 31
0.0
  0
LINE
  5
1D01
330
18
100
AcDbEntity
  8
1
  6
Continuous
 48
0.25
100
AcDbLine
 10
278.7995191030213
 20
218.036751777234
 30
0.0
 11
279.0279145933445
 21
218.6653697057088
 31
0.0
  0
LINE
  5
1D02
330
18
100
AcDbEntity
  8
1
  6
Continuous
 48
0.25
100
AcDbLine
 10
277.7784569109879
 20
217.0156895852005
 30
0.0
 11
278.4070748394629
 21
216.7872940948773
 31
0.0
  0
LINE
  5
1D03
330
18
100
AcDbEntity
  8
1
  6
Continuous
 48
0.25
100
AcDbLine
 10
277.779164017769
 20
219.0571068624862
 30
0.0
 11
278.4070748394627
 21
219.2862094595906
 31
0.0
  0
LINE
  5
1D04
330
18
100
AcDbEntity
  8
1
  6
Continuous
 48
0.25
100
AcDbLine
 10
278.4070748394627
 20
219.2862094595906
 30
0.0
 11
279.1884278326739
 21
220.0406923951165
 31
0.0
  0
LINE
  5
1D08
330
18
100
AcDbEntity
  8
1
  6
Continuous
100
AcDbLine
 10
196.4481109107209
 20
175.4328735168771
 30
0.0
 11
196.4481109107209
 21
163.4328735168771
 31
0.0
  0
LINE
  5
1D09
330
18
100
AcDbEntity
  8
1
  6
Continuous
100
AcDbLine
 10
197.7481109107209
 20
174.0328735168778
 30
0.0
 11
197.7481109107209
 21
164.8328735168778
 31
0.0
  0
ARC
  5
1D0A
330
18
100
AcDbEntity
  8
1
  6
Continuous
100
AcDbCircle
 10
199.0701601904123
 20
166.6546495815534
 30
0.0
 40
1.6
100
AcDbArc
 50
274.9999999999997
 51
344.506032499479
  0
LINE
  5
1D0B
330
18
100
AcDbEntity
  8
1
  6
Continuous
100
AcDbLine
 10
195.6481109107208
 20
175.4328735168771
 30
0.0
 11
195.6481109107208
 21
163.4328735168771
 31
0.0
  0
LINE
  5
1D0E
330
18
100
AcDbEntity
  8
1
  6
Continuous
100
AcDbLine
 10
196.4481109107209
 20
163.4328735168773
 30
0.0
 11
195.6481109107208
 21
163.4328735168771
 31
0.0
  0
LINE
  5
1D0F
330
18
100
AcDbEntity
  8
1
  6
Continuous
100
AcDbLine
 10
197.7481109107209
 20
164.8328735168778
 30
0.0
 11
196.4481109107209
 21
164.8328735168778
 31
0.0
  0
LINE
  5
1D10
330
18
100
AcDbEntity
  8
1
  6
Continuous
100
AcDbLine
 10
197.7481109107209
 20
164.9328735168777
 30
0.0
 11
199.2096093788573
 21
165.0607380646001
 31
0.0
  0
LINE
  5
1D15
330
18
100
AcDbEntity
  8
1
  6
Continuous
100
AcDbLine
 10
178.1481109107215
 20
182.4328735168766
 30
0.0
 11
178.1481109107204
 21
193.4328735168766
 31
0.0
  0
LINE
  5
1D16
330
18
100
AcDbEntity
  8
1
  6
Continuous
100
AcDbLine
 10
183.1481109107215
 20
182.9328735168769
 30
0.0
 11
183.1481109107206
 21
192.9328735168769
 31
0.0
  0
LINE
  5
1D17
330
18
100
AcDbEntity
  8
1
  6
Continuous
100
AcDbLine
 10
184.1481109107211
 20
191.2328735168761
 30
0.0
 11
184.1481109107211
 21
183.6328735168759
 31
0.0
  0
ARC
  5
1D18
330
18
100
AcDbEntity
  8
1
  6
Continuous
100
AcDbCircle
 10
177.748110910721
 20
187.4328735168759
 30
0.0
 40
9.0
100
AcDbArc
 50
344.1191499917188
 51
15.88085000828116
  0
LINE
  5
1D19
330
18
100
AcDbEntity
  8
1
  6
Continuous
100
AcDbLine
 10
183.1481109107211
 20
186.432873516876
 30
0.0
 11
184.1481109107211
 21
187.4328735168759
 31
0.0
  0
LINE
  5
1D1A
330
18
100
AcDbEntity
  8
1
  6
Continuous
100
AcDbLine
 10
178.1481109107213
 20
182.4328735168766
 30
0.0
 11
182.6481109107213
 21
182.4328735168769
 31
0.0
  0
ARC
  5
1D1B
330
18
100
AcDbEntity
  8
1
  6
Continuous
100
AcDbCircle
 10
182.6481109107215
 20
182.932873516877
 30
0.0
 40
0.5
100
AcDbArc
 50
270.0000000000032
 51
0.0000000000065138
  0
LINE
  5
1D1C
330
18
100
AcDbEntity
  8
1
  6
Continuous
100
AcDbLine
 10
184.1481109107211
 20
183.6328735168759
 30
0.0
 11
183.1481109107211
 21
183.6328735168759
 31
0.0
  0
ARC
  5
1D1D
330
18
100
AcDbEntity
  8
1
  6
Continuous
100
AcDbCircle
 10
185.1542236349437
 20
185.3258627632898
 30
0.0
 40
1.3
100
AcDbArc
 50
274.9999999999997
 51
344.1191499917188
  0
LINE
  5
1D1E
330
18
100
AcDbEntity
  8
1
  6
Continuous
100
AcDbLine
 10
184.148110910721
 20
183.9328735168759
 30
0.0
 11
185.2675261005554
 21
184.0308096557652
 31
0.0
  0
LINE
  5
1D1F
330
18
100
AcDbEntity
  8
4
  6
CENTER
100
AcDbLine
 10
203.252973615447
 20
169.4328735168778
 30
0.0
 11
192.5140162474093
 21
169.4328735168778
 31
0.0
  0
LINE
  5
1D20
330
18
100
AcDbEntity
  8
1
  6
Continuous
100
AcDbLine
 10
196.4481109107209
 20
175.4328735168773
 30
0.0
 11
195.6481109107208
 21
175.4328735168771
 31
0.0
  0
LINE
  5
1D21
330
18
100
AcDbEntity
  8
1
  6
Continuous
100
AcDbLine
 10
197.7481109107209
 20
174.0328735168778
 30
0.0
 11
196.4481109107209
 21
174.0328735168778
 31
0.0
  0
ARC
  5
1D22
330
18
100
AcDbEntity
  8
1
  6
Continuous
100
AcDbCircle
 10
199.0701601903952
 20
172.2110974521982
 30
0.0
 40
1.6
100
AcDbArc
 50
15.49396750052098
 51
85.00000000000026
  0
LINE
  5
1D23
330
18
100
AcDbEntity
  8
1
  6
Continuous
100
AcDbLine
 10
197.7481109107208
 20
173.9328735168778
 30
0.0
 11
199.2096093788161
 21
173.805008969159
 31
0.0
  0
ARC
  5
1D24
330
18
100
AcDbEntity
  8
1
  6
Continuous
100
AcDbCircle
 10
189.048110910721
 20
169.4328735168778
 30
0.0
 40
12.0
100
AcDbArc
 50
344.506032499479
 51
15.49396750052098
  0
LINE
  5
1D25
330
18
100
AcDbEntity
  8
1
  6
Continuous
100
AcDbLine
 10
196.4481109107209
 20
169.4328735168778
 30
0.0
 11
197.7481109107209
 21
170.7328735168777
 31
0.0
  0
LINE
  5
1D26
330
18
100
AcDbEntity
  8
1
  6
Continuous
100
AcDbLine
 10
196.4481109107209
 20
168.1328735168778
 30
0.0
 11
197.7481109107209
 21
169.4328735168778
 31
0.0
  0
LINE
  5
1D27
330
18
100
AcDbEntity
  8
4
  6
CENTER
100
AcDbLine
 10
189.1481109107211
 20
187.4328735168759
 30
0.0
 11
175.601157152567
 21
187.4328735168759
 31
0.0
  0
LINE
  5
1D28
330
18
100
AcDbEntity
  8
1
  6
Continuous
100
AcDbLine
 10
178.1481109107204
 20
193.4328735168767
 30
0.0
 11
182.6481109107206
 21
193.4328735168769
 31
0.0
  0
ARC
  5
1D29
330
18
100
AcDbEntity
  8
1
  6
Continuous
100
AcDbCircle
 10
182.6481109107204
 20
192.932873516877
 30
0.0
 40
0.5
100
AcDbArc
 50
0.0000000000065138
 51
90.00000000000325
  0
LINE
  5
1D2A
330
18
100
AcDbEntity
  8
1
  6
Continuous
100
AcDbLine
 10
184.1481109107211
 20
191.2328735168761
 30
0.0
 11
183.1481109107211
 21
191.2328735168761
 31
0.0
  0
ARC
  5
1D2B
330
18
100
AcDbEntity
  8
1
  6
Continuous
100
AcDbCircle
 10
185.15422363493
 20
189.5398842704588
 30
0.0
 40
1.3
100
AcDbArc
 50
15.88085000828116
 51
85.00000000000026
  0
LINE
  5
1D2C
330
18
100
AcDbEntity
  8
1
  6
Continuous
100
AcDbLine
 10
184.1481109107211
 20
190.9328735168759
 30
0.0
 11
185.2675261005219
 21
190.8349373779896
 31
0.0
  0
LINE
  5
1D2D
330
18
100
AcDbEntity
  8
1
  6
Continuous
100
AcDbLine
 10
183.1481109107211
 20
187.4328735168759
 30
0.0
 11
184.1481109107211
 21
188.4328735168759
 31
0.0
  0
LINE
  5
1D32
330
18
100
AcDbEntity
  8
1
  6
Continuous
100
AcDbLine
 10
178.1481109107214
 20
120.4328735168794
 30
0.0
 11
178.1481109107204
 21
109.4328735168794
 31
0.0
  0
LINE
  5
1D33
330
18
100
AcDbEntity
  8
1
  6
Continuous
100
AcDbLine
 10
183.1481109107214
 20
119.9328735168792
 30
0.0
 11
183.1481109107205
 21
109.9328735168792
 31
0.0
  0
LINE
  5
1D34
330
18
100
AcDbEntity
  8
1
  6
Continuous
100
AcDbLine
 10
184.148110910721
 20
119.2328735168761
 30
0.0
 11
184.148110910721
 21
111.632873516876
 31
0.0
  0
ARC
  5
1D35
330
18
100
AcDbEntity
  8
1
  6
Continuous
100
AcDbCircle
 10
177.748110910721
 20
115.432873516876
 30
0.0
 40
9.0
100
AcDbArc
 50
344.1191499917188
 51
15.88085000828116
  0
LINE
  5
1D36
330
18
100
AcDbEntity
  8
1
  6
Continuous
100
AcDbLine
 10
183.148110910721
 20
114.4328735168761
 30
0.0
 11
184.148110910721
 21
115.432873516876
 31
0.0
  0
LINE
  5
1D38
330
18
100
AcDbEntity
  8
1
  6
Continuous
100
AcDbLine
 10
178.1481109107204
 20
109.4328735168794
 30
0.0
 11
182.6481109107205
 21
109.4328735168792
 31
0.0
  0
ARC
  5
1D39
330
18
100
AcDbEntity
  8
1
  6
Continuous
100
AcDbCircle
 10
182.6481109107203
 20
109.9328735168792
 30
0.0
 40
0.5
100
AcDbArc
 50
269.9999999999934
 51
359.9999999999933
  0
LINE
  5
1D3A
330
18
100
AcDbEntity
  8
1
  6
Continuous
100
AcDbLine
 10
184.148110910721
 20
111.632873516876
 30
0.0
 11
183.148110910721
 21
111.632873516876
 31
0.0
  0
ARC
  5
1D3B
330
18
100
AcDbEntity
  8
1
  6
Continuous
100
AcDbCircle
 10
185.1542236349439
 20
113.3258627632899
 30
0.0
 40
1.3
100
AcDbArc
 50
274.9999999999997
 51
344.1191499917188
  0
LINE
  5
1D3C
330
18
100
AcDbEntity
  8
1
  6
Continuous
100
AcDbLine
 10
184.148110910721
 20
111.9328735168761
 30
0.0
 11
185.2675261005555
 21
112.0308096557654
 31
0.0
  0
LINE
  5
1D3D
330
18
100
AcDbEntity
  8
4
  6
CENTER
100
AcDbLine
 10
189.148110910721
 20
115.432873516876
 30
0.0
 11
175.2797864465308
 21
115.432873516876
 31
0.0
  0
LINE
  5
1D3E
330
18
100
AcDbEntity
  8
1
  6
Continuous
100
AcDbLine
 10
178.1481109107214
 20
120.4328735168795
 30
0.0
 11
182.6481109107214
 21
120.4328735168793
 31
0.0
  0
ARC
  5
1D3F
330
18
100
AcDbEntity
  8
1
  6
Continuous
100
AcDbCircle
 10
182.6481109107214
 20
119.9328735168792
 30
0.0
 40
0.5
100
AcDbArc
 50
359.9999999999933
 51
89.99999999999348
  0
LINE
  5
1D40
330
18
100
AcDbEntity
  8
1
  6
Continuous
100
AcDbLine
 10
184.148110910721
 20
119.2328735168761
 30
0.0
 11
183.148110910721
 21
119.2328735168761
 31
0.0
  0
ARC
  5
1D41
330
18
100
AcDbEntity
  8
1
  6
Continuous
100
AcDbCircle
 10
185.1542236349299
 20
117.5398842704589
 30
0.0
 40
1.3
100
AcDbArc
 50
15.88085000828116
 51
85.00000000000026
  0
LINE
  5
1D42
330
18
100
AcDbEntity
  8
1
  6
Continuous
100
AcDbLine
 10
184.148110910721
 20
118.9328735168761
 30
0.0
 11
185.267526100522
 21
118.8349373779898
 31
0.0
  0
LINE
  5
1D43
330
18
100
AcDbEntity
  8
1
  6
Continuous
100
AcDbLine
 10
183.148110910721
 20
115.432873516876
 30
0.0
 11
184.148110910721
 21
116.432873516876
 31
0.0
  0
LINE
  5
1D49
330
18
100
AcDbEntity
  8
4
  6
CENTER
100
AcDbLine
 10
189.148110910721
 20
49.66026289120457
 30
0.0
 11
175.601157152567
 21
49.66026289120457
 31
0.0
  0
ARC
  5
1D4A
330
18
100
AcDbEntity
  8
1
  6
Continuous
100
AcDbCircle
 10
177.7481109107209
 20
49.66026289120457
 30
0.0
 40
9.0
100
AcDbArc
 50
344.1191499917188
 51
15.88085000828116
  0
LINE
  5
1D4B
330
18
100
AcDbEntity
  8
1
  6
Continuous
100
AcDbLine
 10
178.1481109107216
 20
42.66026289120384
 30
0.0
 11
178.1481109107204
 21
56.66026289120527
 31
0.0
  0
LINE
  5
1D4C
330
18
100
AcDbEntity
  8
1
  6
Continuous
100
AcDbLine
 10
183.1481109107216
 20
43.1602628912035
 30
0.0
 11
183.1481109107205
 21
56.16026289120554
 31
0.0
  0
LINE
  5
1D4D
330
18
100
AcDbEntity
  8
1
  6
Continuous
100
AcDbLine
 10
184.148110910721
 20
53.46026289120465
 30
0.0
 11
184.148110910721
 21
45.86026289120456
 31
0.0
  0
ARC
  5
1D4E
330
18
100
AcDbEntity
  8
1
  6
Continuous
100
AcDbCircle
 10
185.1542236349299
 20
51.76727364478745
 30
0.0
 40
1.3
100
AcDbArc
 50
15.88085000828116
 51
85.00000000000026
  0
LINE
  5
1D4F
330
18
100
AcDbEntity
  8
1
  6
Continuous
100
AcDbLine
 10
178.1481109107204
 20
42.66026289120384
 30
0.0
 11
182.6481109107205
 21
42.6602628912036
 31
0.0
  0
LINE
  5
1D50
330
18
100
AcDbEntity
  8
1
  6
Continuous
100
AcDbLine
 10
183.148110910721
 20
49.66026289120457
 30
0.0
 11
184.148110910721
 21
50.66026289120451
 31
0.0
  0
LINE
  5
1D51
330
18
100
AcDbEntity
  8
1
  6
Continuous
100
AcDbLine
 10
184.148110910721
 20
46.16026289120457
 30
0.0
 11
185.2675261005554
 21
46.25819903009374
 31
0.0
  0
ARC
  5
1D52
330
18
100
AcDbEntity
  8
1
  6
Continuous
100
AcDbCircle
 10
182.6481109107203
 20
43.16026289120356
 30
0.0
 40
0.5
100
AcDbArc
 50
269.9999999999934
 51
359.9999999999933
  0
LINE
  5
1D53
330
18
100
AcDbEntity
  8
1
  6
Continuous
100
AcDbLine
 10
184.148110910721
 20
45.86026289120456
 30
0.0
 11
183.148110910721
 21
45.86026289120456
 31
0.0
  0
LINE
  5
1D54
330
18
100
AcDbEntity
  8
1
  6
Continuous
100
AcDbLine
 10
183.148110910721
 20
48.66026289120465
 30
0.0
 11
184.148110910721
 21
49.66026289120457
 31
0.0
  0
ARC
  5
1D55
330
18
100
AcDbEntity
  8
1
  6
Continuous
100
AcDbCircle
 10
185.1542236349437
 20
47.55325213761842
 30
0.0
 40
1.3
100
AcDbArc
 50
274.9999999999997
 51
344.1191499917188
  0
LINE
  5
1D56
330
18
100
AcDbEntity
  8
1
  6
Continuous
100
AcDbLine
 10
178.1481109107204
 20
56.66026289120532
 30
0.0
 11
182.6481109107205
 21
56.66026289120555
 31
0.0
  0
LINE
  5
1D57
330
18
100
AcDbEntity
  8
1
  6
Continuous
100
AcDbLine
 10
184.148110910721
 20
53.16026289120458
 30
0.0
 11
185.2675261005219
 21
53.0623267523182
 31
0.0
  0
ARC
  5
1D58
330
18
100
AcDbEntity
  8
1
  6
Continuous
100
AcDbCircle
 10
182.6481109107203
 20
56.16026289120561
 30
0.0
 40
0.5
100
AcDbArc
 50
0.0000000000065138
 51
90.00000000000325
  0
LINE
  5
1D59
330
18
100
AcDbEntity
  8
1
  6
Continuous
100
AcDbLine
 10
184.148110910721
 20
53.46026289120465
 30
0.0
 11
183.148110910721
 21
53.46026289120465
 31
0.0
  0
LINE
  5
1D5B
330
18
100
AcDbEntity
  8
1
  6
Continuous
100
AcDbLine
 10
355.5810175110303
 20
175.4328735168805
 30
0.0
 11
355.5810175110303
 21
163.4328735168805
 31
0.0
  0
LINE
  5
1D5C
330
18
100
AcDbEntity
  8
1
  6
Continuous
100
AcDbLine
 10
354.2810175110304
 20
174.0328735168812
 30
0.0
 11
354.2810175110304
 21
164.8328735168813
 31
0.0
  0
ARC
  5
1D5D
330
18
100
AcDbEntity
  8
1
  6
Continuous
100
AcDbCircle
 10
352.9589682313143
 20
166.6546495815708
 30
0.0
 40
1.6
100
AcDbArc
 50
195.493967500521
 51
265.0000000000003
  0
LINE
  5
1D5E
330
18
100
AcDbEntity
  8
1
  6
Continuous
100
AcDbLine
 10
356.3810175110303
 20
175.4328735168805
 30
0.0
 11
356.3810175110303
 21
163.4328735168805
 31
0.0
  0
LINE
  5
1D62
330
18
100
AcDbEntity
  8
4
  6
CENTER
100
AcDbLine
 10
362.8810175110308
 20
115.432873516876
 30
0.0
 11
376.7493419752211
 21
115.432873516876
 31
0.0
  0
LINE
  5
1D64
330
18
100
AcDbEntity
  8
1
  6
Continuous
100
AcDbLine
 10
373.8810175110304
 20
120.4328735168794
 30
0.0
 11
373.8810175110314
 21
109.4328735168794
 31
0.0
  0
LINE
  5
1D65
330
18
100
AcDbEntity
  8
1
  6
Continuous
100
AcDbLine
 10
367.8810175110307
 20
119.2328735168761
 30
0.0
 11
367.8810175110307
 21
111.632873516876
 31
0.0
  0
LINE
  5
1D66
330
18
100
AcDbEntity
  8
1
  6
Continuous
100
AcDbLine
 10
368.8810175110303
 20
119.9328735168792
 30
0.0
 11
368.8810175110313
 21
109.9328735168792
 31
0.0
  0
LINE
  5
1D68
330
18
100
AcDbEntity
  8
1
  6
Continuous
100
AcDbLine
 10
368.8810175110308
 20
115.432873516876
 30
0.0
 11
367.8810175110307
 21
114.4328735168762
 31
0.0
  0
ARC
  5
1D69
330
18
100
AcDbEntity
  8
1
  6
Continuous
100
AcDbCircle
 10
374.2810175110308
 20
115.432873516876
 30
0.0
 40
9.0
100
AcDbArc
 50
164.1191499917188
 51
195.8808500082812
  0
LINE
  5
1D6B
330
18
100
AcDbEntity
  8
1
  6
Continuous
100
AcDbLine
 10
373.8810175110314
 20
109.4328735168794
 30
0.0
 11
369.3810175110314
 21
109.4328735168792
 31
0.0
  0
ARC
  5
1D6C
330
18
100
AcDbEntity
  8
1
  6
Continuous
100
AcDbCircle
 10
366.8749047868079
 20
113.3258627632899
 30
0.0
 40
1.3
100
AcDbArc
 50
195.8808500082812
 51
265.0000000000003
  0
LINE
  5
1D6D
330
18
100
AcDbEntity
  8
1
  6
Continuous
100
AcDbLine
 10
367.8810175110307
 20
111.9328735168761
 30
0.0
 11
366.7616023211964
 21
112.0308096557654
 31
0.0
  0
ARC
  5
1D6E
330
18
100
AcDbEntity
  8
1
  6
Continuous
100
AcDbCircle
 10
369.3810175110316
 20
109.9328735168792
 30
0.0
 40
0.5
100
AcDbArc
 50
180.0000000000032
 51
270.0000000000032
  0
LINE
  5
1D6F
330
18
100
AcDbEntity
  8
1
  6
Continuous
100
AcDbLine
 10
367.8810175110307
 20
111.632873516876
 30
0.0
 11
368.8810175110308
 21
111.632873516876
 31
0.0
  0
LINE
  5
1D70
330
18
100
AcDbEntity
  8
1
  6
Continuous
100
AcDbLine
 10
373.8810175110304
 20
120.4328735168795
 30
0.0
 11
369.3810175110304
 21
120.4328735168793
 31
0.0
  0
ARC
  5
1D71
330
18
100
AcDbEntity
  8
1
  6
Continuous
100
AcDbCircle
 10
366.8749047868219
 20
117.5398842704589
 30
0.0
 40
1.3
100
AcDbArc
 50
94.99999999999976
 51
164.1191499917188
  0
LINE
  5
1D72
330
18
100
AcDbEntity
  8
1
  6
Continuous
100
AcDbLine
 10
368.8810175110308
 20
116.4328735168761
 30
0.0
 11
367.8810175110307
 21
115.432873516876
 31
0.0
  0
LINE
  5
1D73
330
18
100
AcDbEntity
  8
1
  6
Continuous
100
AcDbLine
 10
367.8810175110307
 20
118.9328735168761
 30
0.0
 11
366.7616023212298
 21
118.8349373779898
 31
0.0
  0
ARC
  5
1D74
330
18
100
AcDbEntity
  8
1
  6
Continuous
100
AcDbCircle
 10
369.3810175110304
 20
119.9328735168792
 30
0.0
 40
0.5
100
AcDbArc
 50
90.00000000000325
 51
180.0000000000032
  0
LINE
  5
1D75
330
18
100
AcDbEntity
  8
1
  6
Continuous
100
AcDbLine
 10
367.8810175110307
 20
119.2328735168761
 30
0.0
 11
368.8810175110308
 21
119.2328735168761
 31
0.0
  0
LINE
  5
1D78
330
18
100
AcDbEntity
  8
1
  6
Continuous
100
AcDbLine
 10
354.2810175110304
 20
164.8328735168813
 30
0.0
 11
355.5810175110303
 21
164.8328735168813
 31
0.0
  0
LINE
  5
1D79
330
18
100
AcDbEntity
  8
1
  6
Continuous
100
AcDbLine
 10
354.2810175110304
 20
164.9328735168812
 30
0.0
 11
352.819519042894
 21
165.0607380646036
 31
0.0
  0
LINE
  5
1D7A
330
18
100
AcDbEntity
  8
1
  6
Continuous
100
AcDbLine
 10
355.5810175110303
 20
163.4328735168806
 30
0.0
 11
356.3810175110303
 21
163.4328735168805
 31
0.0
  0
LINE
  5
1D7E
330
18
100
AcDbEntity
  8
4
  6
CENTER
100
AcDbLine
 10
362.8810175110308
 20
187.4328735168759
 30
0.0
 11
376.4279712691848
 21
187.4328735168759
 31
0.0
  0
LINE
  5
1D80
330
18
100
AcDbEntity
  8
4
  6
CENTER
100
AcDbLine
 10
348.7761548063043
 20
169.4328735168812
 30
0.0
 11
359.5151121743418
 21
169.4328735168812
 31
0.0
  0
LINE
  5
1D81
330
18
100
AcDbEntity
  8
1
  6
Continuous
100
AcDbLine
 10
354.2810175110304
 20
174.0328735168812
 30
0.0
 11
355.5810175110303
 21
174.0328735168812
 31
0.0
  0
LINE
  5
1D82
330
18
100
AcDbEntity
  8
1
  6
Continuous
100
AcDbLine
 10
355.5810175110303
 20
169.4328735168812
 30
0.0
 11
354.2810175110304
 21
168.1328735168811
 31
0.0
  0
LINE
  5
1D83
330
18
100
AcDbEntity
  8
1
  6
Continuous
100
AcDbLine
 10
355.5810175110303
 20
170.7328735168811
 30
0.0
 11
354.2810175110304
 21
169.4328735168812
 31
0.0
  0
ARC
  5
1D84
330
18
100
AcDbEntity
  8
1
  6
Continuous
100
AcDbCircle
 10
362.9810175110055
 20
169.4328735168951
 30
0.0
 40
12.0
100
AcDbArc
 50
164.506032499479
 51
195.493967500521
  0
LINE
  5
1D85
330
18
100
AcDbEntity
  8
1
  6
Continuous
100
AcDbLine
 10
354.2810175110305
 20
173.9328735168812
 30
0.0
 11
352.8195190429352
 21
173.8050089691624
 31
0.0
  0
ARC
  5
1D86
330
18
100
AcDbEntity
  8
1
  6
Continuous
100
AcDbCircle
 10
352.9589682313314
 20
172.2110974522155
 30
0.0
 40
1.6
100
AcDbArc
 50
94.99999999999976
 51
164.506032499479
  0
LINE
  5
1D87
330
18
100
AcDbEntity
  8
1
  6
Continuous
100
AcDbLine
 10
355.5810175110303
 20
175.4328735168807
 30
0.0
 11
356.3810175110303
 21
175.4328735168805
 31
0.0
  0
LINE
  5
1D88
330
18
100
AcDbEntity
  8
1
  6
Continuous
100
AcDbLine
 10
373.8810175110304
 20
182.4328735168766
 30
0.0
 11
373.8810175110314
 21
193.4328735168766
 31
0.0
  0
LINE
  5
1D89
330
18
100
AcDbEntity
  8
1
  6
Continuous
100
AcDbLine
 10
367.8810175110307
 20
191.2328735168761
 30
0.0
 11
367.8810175110307
 21
183.6328735168759
 31
0.0
  0
LINE
  5
1D8A
330
18
100
AcDbEntity
  8
1
  6
Continuous
100
AcDbLine
 10
368.8810175110303
 20
182.9328735168769
 30
0.0
 11
368.8810175110313
 21
192.9328735168769
 31
0.0
  0
LINE
  5
1D8C
330
18
100
AcDbEntity
  8
1
  6
Continuous
100
AcDbLine
 10
368.8810175110308
 20
187.4328735168759
 30
0.0
 11
367.8810175110307
 21
186.432873516876
 31
0.0
  0
ARC
  5
1D8D
330
18
100
AcDbEntity
  8
1
  6
Continuous
100
AcDbCircle
 10
374.2810175110308
 20
187.4328735168759
 30
0.0
 40
9.0
100
AcDbArc
 50
164.1191499917188
 51
195.8808500082812
  0
LINE
  5
1D8E
330
18
100
AcDbEntity
  8
1
  6
Continuous
100
AcDbLine
 10
373.8810175110305
 20
182.4328735168766
 30
0.0
 11
369.3810175110305
 21
182.4328735168769
 31
0.0
  0
ARC
  5
1D8F
330
18
100
AcDbEntity
  8
1
  6
Continuous
100
AcDbCircle
 10
366.8749047868081
 20
185.3258627632898
 30
0.0
 40
1.3
100
AcDbArc
 50
195.8808500082812
 51
265.0000000000003
  0
LINE
  5
1D90
330
18
100
AcDbEntity
  8
1
  6
Continuous
100
AcDbLine
 10
367.8810175110309
 20
183.9328735168759
 30
0.0
 11
366.7616023211965
 21
184.0308096557652
 31
0.0
  0
ARC
  5
1D91
330
18
100
AcDbEntity
  8
1
  6
Continuous
100
AcDbCircle
 10
369.3810175110304
 20
182.932873516877
 30
0.0
 40
0.5
100
AcDbArc
 50
179.9999999999934
 51
269.9999999999934
  0
LINE
  5
1D92
330
18
100
AcDbEntity
  8
1
  6
Continuous
100
AcDbLine
 10
367.8810175110307
 20
183.6328735168759
 30
0.0
 11
368.8810175110308
 21
183.6328735168759
 31
0.0
  0
LINE
  5
1D93
330
18
100
AcDbEntity
  8
1
  6
Continuous
100
AcDbLine
 10
373.8810175110314
 20
193.4328735168767
 30
0.0
 11
369.3810175110314
 21
193.4328735168769
 31
0.0
  0
ARC
  5
1D94
330
18
100
AcDbEntity
  8
1
  6
Continuous
100
AcDbCircle
 10
366.8749047868218
 20
189.5398842704588
 30
0.0
 40
1.3
100
AcDbArc
 50
94.99999999999976
 51
164.1191499917188
  0
LINE
  5
1D95
330
18
100
AcDbEntity
  8
1
  6
Continuous
100
AcDbLine
 10
368.8810175110308
 20
188.4328735168759
 30
0.0
 11
367.8810175110307
 21
187.4328735168759
 31
0.0
  0
LINE
  5
1D96
330
18
100
AcDbEntity
  8
1
  6
Continuous
100
AcDbLine
 10
367.8810175110307
 20
190.9328735168759
 30
0.0
 11
366.7616023212299
 21
190.8349373779896
 31
0.0
  0
ARC
  5
1D97
330
18
100
AcDbEntity
  8
1
  6
Continuous
100
AcDbCircle
 10
369.3810175110316
 20
192.932873516877
 30
0.0
 40
0.5
100
AcDbArc
 50
89.99999999999673
 51
179.9999999999934
  0
LINE
  5
1D98
330
18
100
AcDbEntity
  8
1
  6
Continuous
100
AcDbLine
 10
367.8810175110307
 20
191.2328735168761
 30
0.0
 11
368.8810175110308
 21
191.2328735168761
 31
0.0
  0
LINE
  5
2F31
330
18
100
AcDbEntity
  8
1
  6
Continuous
100
AcDbLine
 10
145.192318982149
 20
35.66026289117564
 30
0.0
 11
146.7256615799098
 21
35.6602628911753
 31
0.0
  0
ARC
  5
2F32
330
18
100
AcDbEntity
  8
1
  6
Continuous
100
AcDbCircle
 10
145.1923189821499
 20
39.90742198206447
 30
0.0
 40
4.247159090896102
100
AcDbArc
 50
192.1693877304395
 51
269.9999999999874
  0
ARC
  5
2F33
330
18
100
AcDbEntity
  8
1
  6
Continuous
100
AcDbCircle
 10
199.6923189821831
 20
51.66026289110999
 30
0.0
 40
60.0
100
AcDbArc
 50
190.9527841988664
 51
192.1693877304855
  0
ARC
  5
2F34
330
18
100
AcDbEntity
  8
1
  6
Continuous
100
AcDbCircle
 10
199.6923189821781
 20
47.66026289119724
 30
0.0
 40
60.0
100
AcDbArc
 50
167.8306122693738
 51
169.0472158011691
  0
ARC
  5
2F35
330
18
100
AcDbEntity
  8
1
  6
Continuous
100
AcDbCircle
 10
145.1923189821738
 20
59.41310380037606
 30
0.0
 40
4.247159090896102
100
AcDbArc
 50
89.99999999998506
 51
167.8306122694211
  0
LINE
  5
2F36
330
18
100
AcDbEntity
  8
1
  6
Continuous
100
AcDbLine
 10
145.1923189821749
 20
63.66026289117548
 30
0.0
 11
146.7256615799221
 21
63.66026289117508
 31
0.0
  0
ARC
  5
2F41
330
18
100
AcDbEntity
  8
1
  6
Continuous
100
AcDbCircle
 10
267.2784086285111
 20
155.4819046853377
 30
0.0
 40
1.0
100
AcDbArc
 50
180.0027670837319
 51
270.0027670837318
  0
ARC
  5
2F42
330
18
100
AcDbEntity
  8
1
  6
Continuous
100
AcDbCircle
 10
288.278408604021
 20
155.4829188744951
 30
0.0
 40
1.0
100
AcDbArc
 50
270.0027670837318
 51
0.0027670837319277
  0
ARC
  5
2FA4
330
18
100
AcDbEntity
  8
1
  6
Continuous
100
AcDbCircle
 10
147.7256615799196
 20
266.598347044195
 30
0.0
 40
1.0
100
AcDbArc
 50
0.0
 51
90.00000000002492
  0
ARC
  5
2FA5
330
18
100
AcDbEntity
  8
1
  6
Continuous
100
AcDbCircle
 10
147.7256615799196
 20
245.5983470440321
 30
0.0
 40
1.0
100
AcDbArc
 50
270.0000000001148
 51
0.0
  0
LINE
  5
2FA6
330
18
100
AcDbEntity
  8
4
  6
CENTER
100
AcDbLine
 10
143.5256615799158
 20
248.4451032650923
 30
0.0
 11
143.5256615799158
 21
263.751590823034
 31
0.0
  0
LINE
  5
2FB2
330
18
100
AcDbEntity
  8
4
  6
CENTER
100
AcDbLine
 10
143.5256615799158
 20
42.00701911225002
 30
0.0
 11
143.5256615799158
 21
57.31350667019171
 31
0.0
  0
ENDSEC
  0
SECTION
  2
OBJECTS
  0
DICTIONARY
  5
C
330
0
100
AcDbDictionary
281
     1
  3
ACAD_CIP_PREVIOUS_PRODUCT_INFO
350
306A
  3
ACAD_COLOR
350
304D
  3
ACAD_DETAILVIEWSTYLE
350
3066
  3
ACAD_GROUP
350
D
  3
ACAD_LAYOUT
350
94
  3
ACAD_MATERIAL
350
301B
  3
ACAD_MLEADERSTYLE
350
3062
  3
ACAD_MLINESTYLE
350
1B
  3
ACAD_PLOTSETTINGS
350
95
  3
ACAD_PLOTSTYLENAME
350
3019
  3
ACAD_SCALELIST
350
3050
  3
ACAD_SECTIONVIEWSTYLE
350
3064
  3
ACAD_TABLESTYLE
350
304E
  3
ACAD_VISUALSTYLE
350
3034
  3
ACDB_RECOMPOSE_DATA
350
3088
  3
AcDbVariableDictionary
350
307B
  3
CONTENTDICTIONARY
350
3D
  3
DWGPROPS
350
3089
  0
DICTIONARY
  5
306B
330
E
100
AcDbDictionary
280
     1
281
     1
  3
ADSK_XREC_LAYER_RECONCILED
360
306C
  0
DICTIONARY
  5
306D
330
4E
100
AcDbDictionary
280
     1
281
     1
  3
ADSK_XREC_LAYER_RECONCILED
360
306E
  0
DICTIONARY
  5
306F
330
4F
100
AcDbDictionary
280
     1
281
     1
  3
ADSK_XREC_LAYER_RECONCILED
360
3070
  0
DICTIONARY
  5
3071
330
50
100
AcDbDictionary
280
     1
281
     1
  3
ADSK_XREC_LAYER_RECONCILED
360
3072
  0
DICTIONARY
  5
3073
330
51
100
AcDbDictionary
280
     1
281
     1
  3
ADSK_XREC_LAYER_RECONCILED
360
3074
  0
DICTIONARY
  5
3075
330
52
100
AcDbDictionary
280
     1
281
     1
  3
ADSK_XREC_LAYER_RECONCILED
360
3076
  0
DICTIONARY
  5
3077
330
53
100
AcDbDictionary
280
     1
281
     1
  3
ADSK_XREC_LAYER_RECONCILED
360
3078
  0
DICTIONARY
  5
3079
330
54
100
AcDbDictionary
280
     1
281
     1
  3
ADSK_XREC_LAYER_RECONCILED
360
307A
  0
DICTIONARY
  5
3014
330
18
100
AcDbDictionary
281
     1
  3
ACAD_LAYOUTSELFREF
350
3015
  0
DICTIONARY
  5
3012
330
15
100
AcDbDictionary
281
     1
  3
ACAD_LAYOUTSELFREF
350
3013
  0
XRECORD
  5
306A
102
{ACAD_REACTORS
330
C
102
}
330
C
100
AcDbXrecord
280
     1
300
ACDLT
300
2014
300
ACDLT_F_S
  0
DICTIONARY
  5
304D
102
{ACAD_REACTORS
330
C
102
}
330
C
100
AcDbDictionary
281
     1
  0
DICTIONARY
  5
3066
102
{ACAD_REACTORS
330
C
102
}
330
C
100
AcDbDictionary
281
     1
  3
Imperial24
350
3067
  0
DICTIONARY
  5
D
102
{ACAD_REACTORS
330
C
102
}
330
C
100
AcDbDictionary
281
     1
  0
DICTIONARY
  5
94
102
{ACAD_REACTORS
330
C
102
}
330
C
100
AcDbDictionary
281
     1
  3
Model
350
3068
  3
レイアウト1
350
3069
  0
DICTIONARY
  5
301B
102
{ACAD_REACTORS
330
C
102
}
330
C
100
AcDbDictionary
281
     1
  3
ByBlock
350
3024
  3
ByLayer
350
301C
  3
Global
350
302C
  0
DICTIONARY
  5
3062
102
{ACAD_REACTORS
330
C
102
}
330
C
100
AcDbDictionary
281
     1
  3
Standard
350
3063
  0
DICTIONARY
  5
1B
102
{ACAD_REACTORS
330
C
102
}
330
C
100
AcDbDictionary
281
     1
  3
STANDARD
350
1C
  0
DICTIONARY
  5
95
102
{ACAD_REACTORS
330
C
102
}
330
C
100
AcDbDictionary
281
     1
  0
ACDBDICTIONARYWDFLT
  5
3019
102
{ACAD_REACTORS
330
C
102
}
330
C
100
AcDbDictionary
281
     1
  3
Normal
350
301A
100
AcDbDictionaryWithDefault
340
301A
  0
DICTIONARY
  5
3050
102
{ACAD_REACTORS
330
C
102
}
330
C
100
AcDbDictionary
281
     1
  3
A0
350
3051
  3
A1
350
3052
  3
A2
350
3053
  3
A3
350
3054
  3
A4
350
3055
  3
A5
350
3056
  3
A6
350
3057
  3
A7
350
3058
  3
A8
350
3059
  3
A9
350
305A
  3
B0
350
305B
  3
B1
350
305C
  3
B2
350
305D
  3
B3
350
305E
  3
B4
350
305F
  3
B5
350
3060
  3
B6
350
3061
  0
DICTIONARY
  5
3064
102
{ACAD_REACTORS
330
C
102
}
330
C
100
AcDbDictionary
281
     1
  3
Imperial24
350
3065
  0
DICTIONARY
  5
304E
102
{ACAD_REACTORS
330
C
102
}
330
C
100
AcDbDictionary
281
     1
  3
Standard
350
304F
  0
DICTIONARY
  5
3034
102
{ACAD_REACTORS
330
C
102
}
330
C
100
AcDbDictionary
281
     1
  3
2dWireframe
350
303A
  3
Basic
350
3039
  3
Brighten
350
3040
  3
ColorChange
350
3044
  3
Conceptual
350
303D
  3
Dim
350
303F
  3
EdgeColorOff
350
304C
  3
Facepattern
350
3043
  3
Flat
350
3035
  3
FlatWithEdges
350
3036
  3
Gouraud
350
3037
  3
GouraudWithEdges
350
3038
  3
Hidden
350
303C
  3
JitterOff
350
304A
  3
Linepattern
350
3042
  3
OverhangOff
350
304B
  3
Realistic
350
303E
  3
Shaded
350
3049
  3
Shaded with edges
350
3048
  3
Shades of Gray
350
3045
  3
Sketchy
350
3046
  3
Thicken
350
3041
  3
Wireframe
350
303B
  3
X-Ray
350
3047
  0
XRECORD
  5
3088
102
{ACAD_REACTORS
330
C
102
}
330
C
100
AcDbXrecord
280
     1
 90
        1
330
304F
  0
DICTIONARY
  5
307B
102
{ACAD_REACTORS
330
C
102
}
330
C
100
AcDbDictionary
281
     1
  3
CANNOSCALE
350
3080
  3
CMLEADERSTYLE
350
307D
  3
CTABLESTYLE
350
307C
  3
CVIEWDETAILSTYLE
350
307E
  3
CVIEWSECTIONSTYLE
350
307F
  3
DIMASSOC
350
3083
  3
INDEXCTL
350
3082
  3
SORTENTS
350
3081
  3
XCLIPFRAME
350
3084
  0
DICTIONARY
  5
3D
102
{ACAD_REACTORS
330
C
102
}
330
C
100
AcDbDictionary
281
     1
  0
XRECORD
  5
3089
102
{ACAD_REACTORS
330
C
102
}
330
C
100
AcDbXrecord
280
     1
  1
DWGPROPS COOKIE
  2

  3

  4

  6

  7

  8
Yoshitsune
  9

300
=
301
=
302
=
303
=
304
=
305
=
306
=
307
=
308
=
309
=
 40
0.1170264583333333
 41
2453028.673886898
 42
2457192.643698542
  1

 90
        0
  0
XRECORD
  5
306C
102
{ACAD_REACTORS
330
306B
102
}
330
306B
100
AcDbXrecord
280
     1
290
     1
  0
XRECORD
  5
306E
102
{ACAD_REACTORS
330
306D
102
}
330
306D
100
AcDbXrecord
280
     1
290
     1
  0
XRECORD
  5
3070
102
{ACAD_REACTORS
330
306F
102
}
330
306F
100
AcDbXrecord
280
     1
290
     1
  0
XRECORD
  5
3072
102
{ACAD_REACTORS
330
3071
102
}
330
3071
100
AcDbXrecord
280
     1
290
     1
  0
XRECORD
  5
3074
102
{ACAD_REACTORS
330
3073
102
}
330
3073
100
AcDbXrecord
280
     1
290
     1
  0
XRECORD
  5
3076
102
{ACAD_REACTORS
330
3075
102
}
330
3075
100
AcDbXrecord
280
     1
290
     1
  0
XRECORD
  5
3078
102
{ACAD_REACTORS
330
3077
102
}
330
3077
100
AcDbXrecord
280
     1
290
     1
  0
XRECORD
  5
307A
102
{ACAD_REACTORS
330
3079
102
}
330
3079
100
AcDbXrecord
280
     1
290
     1
  0
XRECORD
  5
3015
102
{ACAD_REACTORS
330
3014
102
}
330
3014
100
AcDbXrecord
280
     1
340
18
  0
XRECORD
  5
3013
102
{ACAD_REACTORS
330
3012
102
}
330
3012
100
AcDbXrecord
280
     1
340
15
  0
ACDBDETAILVIEWSTYLE
  5
3067
102
{ACAD_XDICTIONARY
360
30C1
102
}
102
{ACAD_REACTORS
330
3066
102
}
330
3066
100
AcDbModelDocViewStyle
 70
     0
  3
Imperial24
290
     0
100
AcDbDetailViewStyle
 70
     0
 71
     0
 90
        3
 71
     1
340
F
 40
0.24
340
0
 40
0.24
300

 40
0.36
280
     3
 71
     2
340
14
 90
       25
 71
     3
340
F
 40
0.24
 90
        1
 40
0.75
 90
        1
300
%<\AcVar ViewType \f "%tc1">% %<\AcVar ViewDetailId>%\PSCALE %<\AcVar ViewScale \f "%sn">%
 71
     4
340
14
 90
       25
340
14
 90
       25
280
     0
  0
LAYOUT
  5
3068
102
{ACAD_XDICTIONARY
360
30C3
102
}
102
{ACAD_REACTORS
330
94
102
}
330
94
100
AcDbPlotSettings
  1

  2
Canon LBP9100C
  4

  6

 40
0.0
 41
0.0
 42
0.0
 43
0.0
 44
0.0
 45
0.0
 46
0.0
 47
0.0
 48
0.0
 49
0.0
140
0.0
141
0.0
142
1.0
143
1.0
 70
  1712
 72
     0
 73
     0
 74
     0
  7

 75
     0
147
1.0
148
0.0
149
0.0
100
AcDbLayout
  1
Model
 70
     1
 71
     0
 10
0.0
 20
0.0
 11
12.0
 21
9.0
 12
0.0
 22
0.0
 32
0.0
 14
0.0
 24
0.0
 34
0.0
 15
0.0
 25
0.0
 35
0.0
146
0.0
 13
0.0
 23
0.0
 33
0.0
 16
1.0
 26
0.0
 36
0.0
 17
0.0
 27
1.0
 37
0.0
 76
     0
330
18
331
3011
  0
LAYOUT
  5
3069
102
{ACAD_XDICTIONARY
360
30C5
102
}
102
{ACAD_REACTORS
330
94
102
}
330
94
100
AcDbPlotSettings
  1

  2
Canon LBP9100C
  4

  6

 40
0.0
 41
0.0
 42
0.0
 43
0.0
 44
0.0
 45
0.0
 46
0.0
 47
0.0
 48
0.0
 49
0.0
140
0.0
141
0.0
142
1.0
143
1.0
 70
   688
 72
     0
 73
     0
 74
     5
  7

 75
    16
147
1.0
148
0.0
149
0.0
100
AcDbLayout
  1
レイアウト1
 70
     1
 71
     1
 10
0.0
 20
0.0
 11
420.0
 21
297.0
 12
0.0
 22
0.0
 32
0.0
 14
1.000000000000000E+20
 24
1.000000000000000E+20
 34
1.000000000000000E+20
 15
-1.000000000000000E+20
 25
-1.000000000000000E+20
 35
-1.000000000000000E+20
146
0.0
 13
0.0
 23
0.0
 33
0.0
 16
1.0
 26
0.0
 36
0.0
 17
0.0
 27
1.0
 37
0.0
 76
     0
330
15
  0
MATERIAL
  5
3024
102
{ACAD_XDICTIONARY
360
3025
102
}
102
{ACAD_REACTORS
330
301B
102
}
330
301B
100
AcDbMaterial
  1
ByBlock
 72
     0
 43
0.0208333333333333
 43
0.0
 43
0.0
 43
0.0
 43
0.0
 43
0.0208333333333333
 43
0.0
 43
0.0
 43
0.0
 43
0.0
 43
1.0
 43
0.0
 43
0.0
 43
0.0
 43
0.0
 43
1.0
 77
     0
 47
0.0208333333333333
 47
0.0
 47
0.0
 47
0.0
 47
0.0
 47
0.0208333333333333
 47
0.0
 47
0.0
 47
0.0
 47
0.0
 47
1.0
 47
0.0
 47
0.0
 47
0.0
 47
0.0
 47
1.0
171
     0
 49
0.0208333333333333
 49
0.0
 49
0.0
 49
0.0
 49
0.0
 49
0.0208333333333333
 49
0.0
 49
0.0
 49
0.0
 49
0.0
 49
1.0
 49
0.0
 49
0.0
 49
0.0
 49
0.0
 49
1.0
175
     0
142
0.0208333333333333
142
0.0
142
0.0
142
0.0
142
0.0
142
0.0208333333333333
142
0.0
142
0.0
142
0.0
142
0.0
142
1.0
142
0.0
142
0.0
142
0.0
142
0.0
142
1.0
179
     0
144
0.0208333333333333
144
0.0
144
0.0
144
0.0
144
0.0
144
0.0208333333333333
144
0.0
144
0.0
144
0.0
144
0.0
144
1.0
144
0.0
144
0.0
144
0.0
144
0.0
144
1.0
147
0.0208333333333333
147
0.0
147
0.0
147
0.0
147
0.0
147
0.0208333333333333
147
0.0
147
0.0
147
0.0
147
0.0
147
1.0
147
0.0
147
0.0
147
0.0
147
0.0
147
1.0
  0
MATERIAL
  5
301C
102
{ACAD_XDICTIONARY
360
301D
102
}
102
{ACAD_REACTORS
330
301B
102
}
330
301B
100
AcDbMaterial
  1
ByLayer
 72
     0
 43
0.0208333333333333
 43
0.0
 43
0.0
 43
0.0
 43
0.0
 43
0.0208333333333333
 43
0.0
 43
0.0
 43
0.0
 43
0.0
 43
1.0
 43
0.0
 43
0.0
 43
0.0
 43
0.0
 43
1.0
 77
     0
 47
0.0208333333333333
 47
0.0
 47
0.0
 47
0.0
 47
0.0
 47
0.0208333333333333
 47
0.0
 47
0.0
 47
0.0
 47
0.0
 47
1.0
 47
0.0
 47
0.0
 47
0.0
 47
0.0
 47
1.0
171
     0
 49
0.0208333333333333
 49
0.0
 49
0.0
 49
0.0
 49
0.0
 49
0.0208333333333333
 49
0.0
 49
0.0
 49
0.0
 49
0.0
 49
1.0
 49
0.0
 49
0.0
 49
0.0
 49
0.0
 49
1.0
175
     0
142
0.0208333333333333
142
0.0
142
0.0
142
0.0
142
0.0
142
0.0208333333333333
142
0.0
142
0.0
142
0.0
142
0.0
142
1.0
142
0.0
142
0.0
142
0.0
142
0.0
142
1.0
179
     0
144
0.0208333333333333
144
0.0
144
0.0
144
0.0
144
0.0
144
0.0208333333333333
144
0.0
144
0.0
144
0.0
144
0.0
144
1.0
144
0.0
144
0.0
144
0.0
144
0.0
144
1.0
147
0.0208333333333333
147
0.0
147
0.0
147
0.0
147
0.0
147
0.0208333333333333
147
0.0
147
0.0
147
0.0
147
0.0
147
1.0
147
0.0
147
0.0
147
0.0
147
0.0
147
1.0
  0
MATERIAL
  5
302C
102
{ACAD_XDICTIONARY
360
302D
102
}
102
{ACAD_REACTORS
330
301B
102
}
330
301B
100
AcDbMaterial
  1
Global
 72
     0
 43
0.0208333333333333
 43
0.0
 43
0.0
 43
0.0
 43
0.0
 43
0.0208333333333333
 43
0.0
 43
0.0
 43
0.0
 43
0.0
 43
1.0
 43
0.0
 43
0.0
 43
0.0
 43
0.0
 43
1.0
 77
     0
 47
0.0208333333333333
 47
0.0
 47
0.0
 47
0.0
 47
0.0
 47
0.0208333333333333
 47
0.0
 47
0.0
 47
0.0
 47
0.0
 47
1.0
 47
0.0
 47
0.0
 47
0.0
 47
0.0
 47
1.0
171
     0
 49
0.0208333333333333
 49
0.0
 49
0.0
 49
0.0
 49
0.0
 49
0.0208333333333333
 49
0.0
 49
0.0
 49
0.0
 49
0.0
 49
1.0
 49
0.0
 49
0.0
 49
0.0
 49
0.0
 49
1.0
175
     0
142
0.0208333333333333
142
0.0
142
0.0
142
0.0
142
0.0
142
0.0208333333333333
142
0.0
142
0.0
142
0.0
142
0.0
142
1.0
142
0.0
142
0.0
142
0.0
142
0.0
142
1.0
179
     0
144
0.0208333333333333
144
0.0
144
0.0
144
0.0
144
0.0
144
0.0208333333333333
144
0.0
144
0.0
144
0.0
144
0.0
144
1.0
144
0.0
144
0.0
144
0.0
144
0.0
144
1.0
147
0.0208333333333333
147
0.0
147
0.0
147
0.0
147
0.0
147
0.0208333333333333
147
0.0
147
0.0
147
0.0
147
0.0
147
1.0
147
0.0
147
0.0
147
0.0
147
0.0
147
1.0
  0
MLEADERSTYLE
  5
3063
102
{ACAD_REACTORS
330
3062
102
}
330
3062
100
AcDbMLeaderStyle
170
     2
171
     1
172
     0
 90
        2
 40
0.0
 41
0.0
173
     1
 91
-1056964608
340
12
 92
       -2
290
     1
 42
0.09
291
     1
 43
0.36
  3
Standard
 44
0.18
300

342
F
174
     1
178
     6
175
     1
176
     0
 93
-1056964608
 45
0.18
292
     0
297
     0
 46
0.18
 94
-1056964608
 47
1.0
 49
1.0
140
1.0
293
     1
141
0.0
294
     1
177
     0
142
1.0
295
     0
296
     0
143
0.125
1001
ACAD_MLEADERVER
1070
     2
  0
MLINESTYLE
  5
1C
102
{ACAD_REACTORS
330
1B
102
}
330
1B
100
AcDbMlineStyle
  2
STANDARD
 70
     0
  3

 62
   256
 51
90.0
 52
90.0
 71
     2
 49
0.5
 62
   256
  6
BYLAYER
 49
-0.5
 62
   256
  6
BYLAYER
  0
ACDBPLACEHOLDER
  5
301A
102
{ACAD_REACTORS
330
3019
102
}
330
3019
  0
SCALE
  5
3051
102
{ACAD_REACTORS
330
3050
102
}
330
3050
100
AcDbScale
 70
     0
300
1:1
140
1.0
141
1.0
290
     1
  0
SCALE
  5
3052
102
{ACAD_REACTORS
330
3050
102
}
330
3050
100
AcDbScale
 70
     0
300
1/128" = 1'-0"
140
0.0078125
141
12.0
290
     0
  0
SCALE
  5
3053
102
{ACAD_REACTORS
330
3050
102
}
330
3050
100
AcDbScale
 70
     0
300
1/64" = 1'-0"
140
0.015625
141
12.0
290
     0
  0
SCALE
  5
3054
102
{ACAD_REACTORS
330
3050
102
}
330
3050
100
AcDbScale
 70
     0
300
1/32" = 1'-0"
140
0.03125
141
12.0
290
     0
  0
SCALE
  5
3055
102
{ACAD_REACTORS
330
3050
102
}
330
3050
100
AcDbScale
 70
     0
300
1/16" = 1'-0"
140
0.0625
141
12.0
290
     0
  0
SCALE
  5
3056
102
{ACAD_REACTORS
330
3050
102
}
330
3050
100
AcDbScale
 70
     0
300
3/32" = 1'-0"
140
0.09375
141
12.0
290
     0
  0
SCALE
  5
3057
102
{ACAD_REACTORS
330
3050
102
}
330
3050
100
AcDbScale
 70
     0
300
1/8" = 1'-0"
140
0.125
141
12.0
290
     0
  0
SCALE
  5
3058
102
{ACAD_REACTORS
330
3050
102
}
330
3050
100
AcDbScale
 70
     0
300
3/16" = 1'-0"
140
0.1875
141
12.0
290
     0
  0
SCALE
  5
3059
102
{ACAD_REACTORS
330
3050
102
}
330
3050
100
AcDbScale
 70
     0
300
1/4" = 1'-0"
140
0.25
141
12.0
290
     0
  0
SCALE
  5
305A
102
{ACAD_REACTORS
330
3050
102
}
330
3050
100
AcDbScale
 70
     0
300
3/8" = 1'-0"
140
0.375
141
12.0
290
     0
  0
SCALE
  5
305B
102
{ACAD_REACTORS
330
3050
102
}
330
3050
100
AcDbScale
 70
     0
300
1/2" = 1'-0"
140
0.5
141
12.0
290
     0
  0
SCALE
  5
305C
102
{ACAD_REACTORS
330
3050
102
}
330
3050
100
AcDbScale
 70
     0
300
3/4" = 1'-0"
140
0.75
141
12.0
290
     0
  0
SCALE
  5
305D
102
{ACAD_REACTORS
330
3050
102
}
330
3050
100
AcDbScale
 70
     0
300
1" = 1'-0"
140
1.0
141
12.0
290
     0
  0
SCALE
  5
305E
102
{ACAD_REACTORS
330
3050
102
}
330
3050
100
AcDbScale
 70
     0
300
1-1/2" = 1'-0"
140
1.5
141
12.0
290
     0
  0
SCALE
  5
305F
102
{ACAD_REACTORS
330
3050
102
}
330
3050
100
AcDbScale
 70
     0
300
3" = 1'-0"
140
3.0
141
12.0
290
     0
  0
SCALE
  5
3060
102
{ACAD_REACTORS
330
3050
102
}
330
3050
100
AcDbScale
 70
     0
300
6" = 1'-0"
140
6.0
141
12.0
290
     0
  0
SCALE
  5
3061
102
{ACAD_REACTORS
330
3050
102
}
330
3050
100
AcDbScale
 70
     0
300
1'-0" = 1'-0"
140
12.0
141
12.0
290
     0
  0
ACDBSECTIONVIEWSTYLE
  5
3065
102
{ACAD_XDICTIONARY
360
30BF
102
}
102
{ACAD_REACTORS
330
3064
102
}
330
3064
100
AcDbModelDocViewStyle
 70
     0
  3
Imperial24
290
     0
100
AcDbSectionViewStyle
 70
     0
 71
     0
 90
       78
 71
     1
340
F
 40
0.24
340
0
340
0
 40
0.24
300
I, O, Q, S, X, Z
 40
0.48
 90
        3
 40
0.18
 90
        1
 71
     2
340
14
 90
       25
340
14
 90
       50
 40
0.24
 40
0.0
 40
0.24
 71
     3
340
F
 40
0.24
 90
        1
 40
0.75
 90
        1
300
%<\AcVar ViewType \f "%tc1">% %<\AcVar ViewSectionStartId>%-%<\AcVar ViewSectionEndId>%\PSCALE %<\AcVar ViewScale \f "%sn">%
 71
     4
300
ANSI31
 40
1.0
 90
        0
290
     0
290
     0
 90
        6
 40
0.0
 40
1.570796326794896
 40
0.2617993877991494
 40
1.308996938995747
 40
-0.2617993877991494
 40
1.832595714594046
  0
TABLESTYLE
  5
304F
102
{ACAD_XDICTIONARY
360
3086
102
}
102
{ACAD_REACTORS
330
304E
102
}
330
304E
100
AcDbTableStyle
  3
Standard
 70
     0
 71
     0
 40
0.06
 41
0.06
280
     0
281
     0
  7
STANDARD
140
0.18
170
     2
 62
     0
 63
     7
283
     0
274
    -2
284
     1
 64
     0
275
    -2
285
     1
 65
     0
276
    -2
286
     1
 66
     0
277
    -2
287
     1
 67
     0
278
    -2
288
     1
 68
     0
279
    -2
289
     1
 69
     0
  7
STANDARD
140
0.25
170
     5
 62
     0
 63
     7
283
     0
274
    -2
284
     1
 64
     0
275
    -2
285
     1
 65
     0
276
    -2
286
     1
 66
     0
277
    -2
287
     1
 67
     0
278
    -2
288
     1
 68
     0
279
    -2
289
     1
 69
     0
  7
STANDARD
140
0.18
170
     5
 62
     0
 63
     7
283
     0
274
    -2
284
     1
 64
     0
275
    -2
285
     1
 65
     0
276
    -2
286
     1
 66
     0
277
    -2
287
     1
 67
     0
278
    -2
288
     1
 68
     0
279
    -2
289
     1
 69
     0
  0
VISUALSTYLE
  5
303A
102
{ACAD_XDICTIONARY
360
3097
102
}
102
{ACAD_REACTORS
330
3034
102
}
330
3034
100
AcDbVisualStyle
  2
2dWireframe
 70
     4
 71
     0
 72
     2
 73
     0
 90
        0
 40
-0.6
 41
-30.0
 62
     5
 63
     7
 74
     1
 91
        4
 64
     7
 65
   257
 75
     1
175
     1
 42
1.0
 92
        0
 66
   257
 43
1.0
 76
     1
 77
     6
 78
     2
 67
     7
 79
     5
170
     0
171
     0
290
     0
174
     0
 93
        1
 44
0.0
173
     0
291
     0
 45
0.0
1001
ACAD
1000
AcDbSavedByObjectVersion
1070
     0
  0
VISUALSTYLE
  5
3039
102
{ACAD_XDICTIONARY
360
3095
102
}
102
{ACAD_REACTORS
330
3034
102
}
330
3034
100
AcDbVisualStyle
  2
Basic
 70
     7
 71
     1
 72
     0
 73
     1
 90
        0
 40
-0.6
 41
-30.0
 62
     5
 63
     7
 74
     0
 91
        4
 64
     7
 65
   257
 75
     1
175
     1
 42
1.0
 92
        8
 66
     7
 43
1.0
 76
     1
 77
     6
 78
     2
 67
     7
 79
     5
170
     0
171
     0
290
     0
174
     0
 93
        1
 44
0.0
173
     0
291
     1
 45
0.0
1001
ACAD
1000
AcDbSavedByObjectVersion
1070
     0
  0
VISUALSTYLE
  5
3040
102
{ACAD_XDICTIONARY
360
30A3
102
}
102
{ACAD_REACTORS
330
3034
102
}
330
3034
100
AcDbVisualStyle
  2
Brighten
 70
    12
 71
     2
 72
     2
 73
     0
 90
        0
 40
-0.6
 41
-30.0
 62
     5
 63
     7
 74
     1
 91
        4
 64
     7
 65
   257
 75
     1
175
     1
 42
1.0
 92
        8
 66
     7
 43
1.0
 76
     1
 77
     6
 78
     2
 67
     7
 79
     5
170
     0
171
     0
290
     0
174
     0
 93
        1
 44
50.0
173
     0
291
     1
 45
0.0
1001
ACAD
1000
AcDbSavedByObjectVersion
1070
     0
  0
VISUALSTYLE
  5
3044
102
{ACAD_XDICTIONARY
360
30AB
102
}
102
{ACAD_REACTORS
330
3034
102
}
330
3034
100
AcDbVisualStyle
  2
ColorChange
 70
    16
 71
     2
 72
     2
 73
     3
 90
        0
 40
-0.6
 41
-30.0
 62
     5
 63
     8
 74
     1
 91
        4
 64
     7
 65
   257
 75
     1
175
     1
 42
1.0
 92
        8
 66
     8
 43
1.0
 76
     1
 77
     6
 78
     2
 67
     7
 79
     5
170
     0
171
     0
290
     0
174
     0
 93
        1
 44
0.0
173
     0
291
     1
 45
0.0
1001
ACAD
1000
AcDbSavedByObjectVersion
1070
     0
  0
VISUALSTYLE
  5
303D
102
{ACAD_XDICTIONARY
360
309D
102
}
102
{ACAD_REACTORS
330
3034
102
}
330
3034
100
AcDbVisualStyle
  2
Conceptual
 70
     9
 71
     3
 72
     2
 73
     0
 90
        0
 40
-0.6
 41
-30.0
 62
     5
 63
     7
 74
     2
 91
        2
 64
     7
 65
   257
 75
     1
175
     1
 42
179.0
 92
        8
 66
     7
 43
1.0
 76
     1
 77
     6
 78
     2
 67
     7
 79
     3
170
     0
171
     0
290
     0
174
     0
 93
        1
 44
0.0
173
     0
291
     0
 45
0.0
1001
ACAD
1000
AcDbSavedByObjectVersion
1070
     0
  0
VISUALSTYLE
  5
303F
102
{ACAD_XDICTIONARY
360
30A1
102
}
102
{ACAD_REACTORS
330
3034
102
}
330
3034
100
AcDbVisualStyle
  2
Dim
 70
    11
 71
     2
 72
     2
 73
     0
 90
        0
 40
-0.6
 41
-30.0
 62
     5
 63
     7
 74
     1
 91
        4
 64
     7
 65
   257
 75
     1
175
     1
 42
1.0
 92
        8
 66
     7
 43
1.0
 76
     1
 77
     6
 78
     2
 67
     7
 79
     5
170
     0
171
     0
290
     0
174
     0
 93
        1
 44
-50.0
173
     0
291
     1
 45
0.0
1001
ACAD
1000
AcDbSavedByObjectVersion
1070
     0
  0
VISUALSTYLE
  5
304C
102
{ACAD_XDICTIONARY
360
30BB
102
}
102
{ACAD_REACTORS
330
3034
102
}
330
3034
100
AcDbVisualStyle
  2
EdgeColorOff
 70
    22
 71
     2
 72
     2
 73
     0
 90
        0
 40
-0.6
 41
-30.0
 62
     5
 63
     7
 74
     1
 91
        4
 64
     7
 65
   257
 75
     1
175
     1
 42
1.0
 92
        8
 66
     7
 43
1.0
 76
     1
 77
     6
 78
     2
 67
     7
 79
     5
170
     0
171
     0
290
     0
174
     0
 93
        1
 44
0.0
173
     0
291
     1
 45
0.0
1001
ACAD
1000
AcDbSavedByObjectVersion
1070
     0
  0
VISUALSTYLE
  5
3043
102
{ACAD_XDICTIONARY
360
30A9
102
}
102
{ACAD_REACTORS
330
3034
102
}
330
3034
100
AcDbVisualStyle
  2
Facepattern
 70
    15
 71
     2
 72
     2
 73
     0
 90
        0
 40
-0.6
 41
-30.0
 62
     5
 63
     7
 74
     1
 91
        4
 64
     7
 65
   257
 75
     1
175
     1
 42
1.0
 92
        8
 66
     7
 43
1.0
 76
     1
 77
     6
 78
     2
 67
     7
 79
     5
170
     0
171
     0
290
     0
174
     0
 93
        1
 44
0.0
173
     0
291
     1
 45
0.0
1001
ACAD
1000
AcDbSavedByObjectVersion
1070
     0
  0
VISUALSTYLE
  5
3035
102
{ACAD_XDICTIONARY
360
308D
102
}
102
{ACAD_REACTORS
330
3034
102
}
330
3034
100
AcDbVisualStyle
  2
Flat
 70
     0
 71
     2
 72
     1
 73
     1
 90
        2
 40
-0.6
 41
30.0
 62
     5
 63
     7
 74
     0
 91
        0
 64
     7
 65
   257
 75
     1
175
     1
 42
1.0
 92
        8
 66
     7
 43
1.0
 76
     1
 77
     6
 78
     2
 67
     7
 79
     5
170
     0
171
     0
290
     0
174
     0
 93
       13
 44
0.0
173
     0
291
     1
 45
0.0
1001
ACAD
1000
AcDbSavedByObjectVersion
1070
     0
  0
VISUALSTYLE
  5
3036
102
{ACAD_XDICTIONARY
360
308F
102
}
102
{ACAD_REACTORS
330
3034
102
}
330
3034
100
AcDbVisualStyle
  2
FlatWithEdges
 70
     1
 71
     2
 72
     1
 73
     1
 90
        2
 40
-0.6
 41
30.0
 62
     5
 63
     7
 74
     1
 91
        0
 64
     7
 65
   257
 75
     1
175
     1
 42
1.0
 92
        0
 66
   257
 43
1.0
 76
     1
 77
     6
 78
     2
 67
     7
 79
     5
170
     0
171
     0
290
     0
174
     0
 93
       13
 44
0.0
173
     0
291
     1
 45
0.0
1001
ACAD
1000
AcDbSavedByObjectVersion
1070
     0
  0
VISUALSTYLE
  5
3037
102
{ACAD_XDICTIONARY
360
3091
102
}
102
{ACAD_REACTORS
330
3034
102
}
330
3034
100
AcDbVisualStyle
  2
Gouraud
 70
     2
 71
     2
 72
     2
 73
     1
 90
        2
 40
-0.6
 41
30.0
 62
     5
 63
     7
 74
     0
 91
        0
 64
     7
 65
   257
 75
     1
175
     1
 42
1.0
 92
        0
 66
     7
 43
1.0
 76
     1
 77
     6
 78
     2
 67
     7
 79
     5
170
     0
171
     0
290
     0
174
     0
 93
       13
 44
0.0
173
     0
291
     1
 45
0.0
1001
ACAD
1000
AcDbSavedByObjectVersion
1070
     0
  0
VISUALSTYLE
  5
3038
102
{ACAD_XDICTIONARY
360
3093
102
}
102
{ACAD_REACTORS
330
3034
102
}
330
3034
100
AcDbVisualStyle
  2
GouraudWithEdges
 70
     3
 71
     2
 72
     2
 73
     1
 90
        2
 40
-0.6
 41
30.0
 62
     5
 63
     7
 74
     1
 91
        0
 64
     7
 65
   257
 75
     1
175
     1
 42
1.0
 92
        0
 66
   257
 43
1.0
 76
     1
 77
     6
 78
     2
 67
     7
 79
     5
170
     0
171
     0
290
     0
174
     0
 93
       13
 44
0.0
173
     0
291
     1
 45
0.0
1001
ACAD
1000
AcDbSavedByObjectVersion
1070
     0
  0
VISUALSTYLE
  5
303C
102
{ACAD_XDICTIONARY
360
309B
102
}
102
{ACAD_REACTORS
330
3034
102
}
330
3034
100
AcDbVisualStyle
  2
Hidden
 70
     6
 71
     1
 72
     2
 73
     2
 90
        0
 40
-0.6
 41
-30.0
 62
     5
 63
     7
 74
     2
 91
        2
 64
     7
 65
   257
 75
     2
175
     1
 42
40.0
 92
        0
 66
   257
 43
1.0
 76
     1
 77
     6
 78
     2
 67
     7
 79
     3
170
     0
171
     0
290
     0
174
     0
 93
        1
 44
0.0
173
     0
291
     0
 45
0.0
1001
ACAD
1000
AcDbSavedByObjectVersion
1070
     0
  0
VISUALSTYLE
  5
304A
102
{ACAD_XDICTIONARY
360
30B7
102
}
102
{ACAD_REACTORS
330
3034
102
}
330
3034
100
AcDbVisualStyle
  2
JitterOff
 70
    20
 71
     2
 72
     2
 73
     0
 90
        0
 40
-0.6
 41
-30.0
 62
     5
 63
     7
 74
     1
 91
        4
 64
     7
 65
   257
 75
     1
175
     1
 42
1.0
 92
       10
 66
     7
 43
1.0
 76
     1
 77
     6
 78
     2
 67
     7
 79
     5
170
     0
171
     0
290
     0
174
     0
 93
        1
 44
0.0
173
     0
291
     1
 45
0.0
1001
ACAD
1000
AcDbSavedByObjectVersion
1070
     0
  0
VISUALSTYLE
  5
3042
102
{ACAD_XDICTIONARY
360
30A7
102
}
102
{ACAD_REACTORS
330
3034
102
}
330
3034
100
AcDbVisualStyle
  2
Linepattern
 70
    14
 71
     2
 72
     2
 73
     0
 90
        0
 40
-0.6
 41
-30.0
 62
     5
 63
     7
 74
     1
 91
        4
 64
     7
 65
   257
 75
     7
175
     7
 42
1.0
 92
        8
 66
     7
 43
1.0
 76
     1
 77
     6
 78
     2
 67
     7
 79
     5
170
     0
171
     0
290
     0
174
     0
 93
        1
 44
0.0
173
     0
291
     1
 45
0.0
1001
ACAD
1000
AcDbSavedByObjectVersion
1070
     0
  0
VISUALSTYLE
  5
304B
102
{ACAD_XDICTIONARY
360
30B9
102
}
102
{ACAD_REACTORS
330
3034
102
}
330
3034
100
AcDbVisualStyle
  2
OverhangOff
 70
    21
 71
     2
 72
     2
 73
     0
 90
        0
 40
-0.6
 41
-30.0
 62
     5
 63
     7
 74
     1
 91
        4
 64
     7
 65
   257
 75
     1
175
     1
 42
1.0
 92
        9
 66
     7
 43
1.0
 76
     1
 77
     6
 78
     2
 67
     7
 79
     5
170
     0
171
     0
290
     0
174
     0
 93
        1
 44
0.0
173
     0
291
     1
 45
0.0
1001
ACAD
1000
AcDbSavedByObjectVersion
1070
     0
  0
VISUALSTYLE
  5
303E
102
{ACAD_XDICTIONARY
360
309F
102
}
102
{ACAD_REACTORS
330
3034
102
}
330
3034
100
AcDbVisualStyle
  2
Realistic
 70
     8
 71
     2
 72
     3
 73
     0
 90
        2
 40
-0.6
 41
30.0
 62
     5
 63
     7
 74
     0
 91
        0
 64
     7
 65
   257
 75
     1
175
     1
 42
1.0
 92
        8
 66
   257
 43
1.0
 76
     1
 77
     6
 78
     2
 67
     7
 79
     3
170
     0
171
     0
290
     0
174
     0
 93
       13
 44
0.0
173
     0
291
     0
 45
0.0
1001
ACAD
1000
AcDbSavedByObjectVersion
1070
     0
  0
VISUALSTYLE
  5
3049
102
{ACAD_XDICTIONARY
360
30B5
102
}
102
{ACAD_REACTORS
330
3034
102
}
330
3034
100
AcDbVisualStyle
  2
Shaded
 70
    27
 71
     2
 72
     2
 73
     1
 90
        2
 40
-0.6
 41
30.0
 62
     5
 63
     7
 74
     0
 91
        4
 64
     7
 65
   257
 75
     1
175
     1
 42
1.0
 92
        8
 66
   257
 43
1.0
 76
     1
 77
     6
 78
     2
 67
     8
 79
     3
170
     0
171
     0
290
     0
174
     0
 93
        5
 44
0.0
173
     0
291
     0
 45
0.0
1001
ACAD
1000
AcDbSavedByObjectVersion
1070
     0
  0
VISUALSTYLE
  5
3048
102
{ACAD_XDICTIONARY
360
30B3
102
}
102
{ACAD_REACTORS
330
3034
102
}
330
3034
100
AcDbVisualStyle
  2
Shaded with edges
 70
    26
 71
     2
 72
     2
 73
     1
 90
        2
 40
-0.6
 41
30.0
 62
     5
 63
     7
 74
     1
 91
       10
 64
     7
 65
   257
 75
     2
175
     1
 42
1.0
 92
        8
 66
   257
 43
1.0
 76
     1
 77
     6
 78
     2
 67
     7
 79
     3
170
     0
171
     0
290
     0
174
     0
 93
        5
 44
0.0
173
     0
291
     0
 45
0.0
1001
ACAD
1000
AcDbSavedByObjectVersion
1070
     0
  0
VISUALSTYLE
  5
3045
102
{ACAD_XDICTIONARY
360
30AD
102
}
102
{ACAD_REACTORS
330
3034
102
}
330
3034
100
AcDbVisualStyle
  2
Shades of Gray
 70
    23
 71
     2
 72
     2
 73
     3
 90
        0
 40
-0.6
 41
-30.0
 62
     5
 63
     7
 74
     2
 91
        2
 64
     7
 65
     7
 75
     1
175
     1
 42
40.0
 92
        8
 66
     7
 43
1.0
 76
     1
 77
     6
 78
     2
 67
     7
 79
     3
170
     0
171
     0
290
     0
174
     0
 93
        1
 44
0.0
173
     0
291
     0
 45
0.0
1001
ACAD
1000
AcDbSavedByObjectVersion
1070
     0
  0
VISUALSTYLE
  5
3046
102
{ACAD_XDICTIONARY
360
30AF
102
}
102
{ACAD_REACTORS
330
3034
102
}
330
3034
100
AcDbVisualStyle
  2
Sketchy
 70
    24
 71
     1
 72
     2
 73
     2
 90
        0
 40
-0.6
 41
-30.0
 62
     5
 63
     7
 74
     2
 91
        2
 64
     7
 65
     7
 75
     1
175
     1
 42
40.0
 92
       11
 66
     7
 43
1.0
 76
     1
 77
     6
 78
     2
 67
     7
 79
     6
170
     0
171
     0
290
     0
174
     0
 93
        1
 44
0.0
173
     0
291
     0
 45
0.0
1001
ACAD
1000
AcDbSavedByObjectVersion
1070
     0
  0
VISUALSTYLE
  5
3041
102
{ACAD_XDICTIONARY
360
30A5
102
}
102
{ACAD_REACTORS
330
3034
102
}
330
3034
100
AcDbVisualStyle
  2
Thicken
 70
    13
 71
     2
 72
     2
 73
     0
 90
        0
 40
-0.6
 41
-30.0
 62
     5
 63
     7
 74
     1
 91
        4
 64
     7
 65
   257
 75
     1
175
     1
 42
1.0
 92
       12
 66
     7
 43
1.0
 76
     1
 77
     6
 78
     2
 67
     7
 79
     5
170
     0
171
     0
290
     0
174
     0
 93
        1
 44
0.0
173
     0
291
     1
 45
0.0
1001
ACAD
1000
AcDbSavedByObjectVersion
1070
     0
  0
VISUALSTYLE
  5
303B
102
{ACAD_XDICTIONARY
360
3099
102
}
102
{ACAD_REACTORS
330
3034
102
}
330
3034
100
AcDbVisualStyle
  2
Wireframe
 70
     5
 71
     0
 72
     2
 73
     0
 90
        0
 40
-0.6
 41
-30.0
 62
     5
 63
     7
 74
     1
 91
        4
 64
     7
 65
   257
 75
     1
175
     1
 42
1.0
 92
        0
 66
   257
 43
1.0
 76
     1
 77
     6
 78
     2
 67
     7
 79
     3
170
     0
171
     0
290
     0
174
     0
 93
        1
 44
0.0
173
     0
291
     0
 45
0.0
1001
ACAD
1000
AcDbSavedByObjectVersion
1070
     0
  0
VISUALSTYLE
  5
3047
102
{ACAD_XDICTIONARY
360
30B1
102
}
102
{ACAD_REACTORS
330
3034
102
}
330
3034
100
AcDbVisualStyle
  2
X-Ray
 70
    25
 71
     2
 72
     2
 73
     1
 90
        1
 40
0.5
 41
-30.0
 62
     5
 63
     7
 74
     1
 91
        0
 64
     7
 65
   257
 75
     1
175
     1
 42
1.0
 92
        8
 66
     7
 43
1.0
 76
     1
 77
     6
 78
     2
 67
     7
 79
     3
170
     0
171
     0
290
     0
174
     0
 93
       13
 44
0.0
173
     0
291
     0
 45
0.0
1001
ACAD
1000
AcDbSavedByObjectVersion
1070
     0
  0
DICTIONARYVAR
  5
3080
102
{ACAD_REACTORS
330
307B
102
}
330
307B
100
DictionaryVariables
280
     0
  1
1:1
  0
DICTIONARYVAR
  5
307D
102
{ACAD_REACTORS
330
307B
102
}
330
307B
100
DictionaryVariables
280
     0
  1
STANDARD
  0
DICTIONARYVAR
  5
307C
102
{ACAD_REACTORS
330
307B
102
}
330
307B
100
DictionaryVariables
280
     0
  1
STANDARD
  0
DICTIONARYVAR
  5
307E
102
{ACAD_REACTORS
330
307B
102
}
330
307B
100
DictionaryVariables
280
     0
  1
Imperial24
  0
DICTIONARYVAR
  5
307F
102
{ACAD_REACTORS
330
307B
102
}
330
307B
100
DictionaryVariables
280
     0
  1
Imperial24
  0
DICTIONARYVAR
  5
3083
102
{ACAD_REACTORS
330
307B
102
}
330
307B
100
DictionaryVariables
280
     0
  1
1
  0
DICTIONARYVAR
  5
3082
102
{ACAD_REACTORS
330
307B
102
}
330
307B
100
DictionaryVariables
280
     0
  1
0
  0
DICTIONARYVAR
  5
3081
102
{ACAD_REACTORS
330
307B
102
}
330
307B
100
DictionaryVariables
280
     0
  1
127
  0
DICTIONARYVAR
  5
3084
102
{ACAD_REACTORS
330
307B
102
}
330
307B
100
DictionaryVariables
280
     0
  1
2
  0
DICTIONARY
  5
30C1
330
3067
100
AcDbDictionary
280
     1
281
     1
  3
ACAD_XREC_ROUNDTRIP
360
30C2
  0
DICTIONARY
  5
30C3
330
3068
100
AcDbDictionary
280
     1
281
     1
  3
ACAD_XREC_ROUNDTRIP
360
30C4
  0
DICTIONARY
  5
30C5
330
3069
100
AcDbDictionary
280
     1
281
     1
  3
ACAD_XREC_ROUNDTRIP
360
30C6
  0
DICTIONARY
  5
3025
330
3024
100
AcDbDictionary
280
     1
281
     1
  3
ACAD_XREC_ROUNDTRIP
360
308B
  3
BUMPTILE
360
3027
  3
DIFFUSETILE
360
3026
  3
OPACITYTILE
360
302A
  3
REFLECTIONTILE
360
3029
  3
REFRACTIONTILE
360
302B
  3
SPECULARTILE
360
3028
  0
DICTIONARY
  5
301D
330
301C
100
AcDbDictionary
280
     1
281
     1
  3
ACAD_XREC_ROUNDTRIP
360
308A
  3
BUMPTILE
360
301F
  3
DIFFUSETILE
360
301E
  3
OPACITYTILE
360
3022
  3
REFLECTIONTILE
360
3021
  3
REFRACTIONTILE
360
3023
  3
SPECULARTILE
360
3020
  0
DICTIONARY
  5
302D
330
302C
100
AcDbDictionary
280
     1
281
     1
  3
ACAD_XREC_ROUNDTRIP
360
308C
  3
BUMPTILE
360
302F
  3
DIFFUSETILE
360
302E
  3
OPACITYTILE
360
3032
  3
REFLECTIONTILE
360
3031
  3
REFRACTIONTILE
360
3033
  3
SPECULARTILE
360
3030
  0
DICTIONARY
  5
30BF
330
3065
100
AcDbDictionary
280
     1
281
     1
  3
ACAD_XREC_ROUNDTRIP
360
30C0
  0
DICTIONARY
  5
3086
330
304F
100
AcDbDictionary
280
     1
281
     1
  3
ACAD_ROUNDTRIP_2008_TABLESTYLE_CELLSTYLEMAP
360
3087
  3
ACAD_XREC_ROUNDTRIP
360
30BD
  0
DICTIONARY
  5
3097
330
303A
100
AcDbDictionary
280
     1
281
     1
  3
ACAD_XREC_ROUNDTRIP
360
3098
  0
DICTIONARY
  5
3095
330
3039
100
AcDbDictionary
280
     1
281
     1
  3
ACAD_XREC_ROUNDTRIP
360
3096
  0
DICTIONARY
  5
30A3
330
3040
100
AcDbDictionary
280
     1
281
     1
  3
ACAD_XREC_ROUNDTRIP
360
30A4
  0
DICTIONARY
  5
30AB
330
3044
100
AcDbDictionary
280
     1
281
     1
  3
ACAD_XREC_ROUNDTRIP
360
30AC
  0
DICTIONARY
  5
309D
330
303D
100
AcDbDictionary
280
     1
281
     1
  3
ACAD_XREC_ROUNDTRIP
360
309E
  0
DICTIONARY
  5
30A1
330
303F
100
AcDbDictionary
280
     1
281
     1
  3
ACAD_XREC_ROUNDTRIP
360
30A2
  0
DICTIONARY
  5
30BB
330
304C
100
AcDbDictionary
280
     1
281
     1
  3
ACAD_XREC_ROUNDTRIP
360
30BC
  0
DICTIONARY
  5
30A9
330
3043
100
AcDbDictionary
280
     1
281
     1
  3
ACAD_XREC_ROUNDTRIP
360
30AA
  0
DICTIONARY
  5
308D
330
3035
100
AcDbDictionary
280
     1
281
     1
  3
ACAD_XREC_ROUNDTRIP
360
308E
  0
DICTIONARY
  5
308F
330
3036
100
AcDbDictionary
280
     1
281
     1
  3
ACAD_XREC_ROUNDTRIP
360
3090
  0
DICTIONARY
  5
3091
330
3037
100
AcDbDictionary
280
     1
281
     1
  3
ACAD_XREC_ROUNDTRIP
360
3092
  0
DICTIONARY
  5
3093
330
3038
100
AcDbDictionary
280
     1
281
     1
  3
ACAD_XREC_ROUNDTRIP
360
3094
  0
DICTIONARY
  5
309B
330
303C
100
AcDbDictionary
280
     1
281
     1
  3
ACAD_XREC_ROUNDTRIP
360
309C
  0
DICTIONARY
  5
30B7
330
304A
100
AcDbDictionary
280
     1
281
     1
  3
ACAD_XREC_ROUNDTRIP
360
30B8
  0
DICTIONARY
  5
30A7
330
3042
100
AcDbDictionary
280
     1
281
     1
  3
ACAD_XREC_ROUNDTRIP
360
30A8
  0
DICTIONARY
  5
30B9
330
304B
100
AcDbDictionary
280
     1
281
     1
  3
ACAD_XREC_ROUNDTRIP
360
30BA
  0
DICTIONARY
  5
309F
330
303E
100
AcDbDictionary
280
     1
281
     1
  3
ACAD_XREC_ROUNDTRIP
360
30A0
  0
DICTIONARY
  5
30B5
330
3049
100
AcDbDictionary
280
     1
281
     1
  3
ACAD_XREC_ROUNDTRIP
360
30B6
  0
DICTIONARY
  5
30B3
330
3048
100
AcDbDictionary
280
     1
281
     1
  3
ACAD_XREC_ROUNDTRIP
360
30B4
  0
DICTIONARY
  5
30AD
330
3045
100
AcDbDictionary
280
     1
281
     1
  3
ACAD_XREC_ROUNDTRIP
360
30AE
  0
DICTIONARY
  5
30AF
330
3046
100
AcDbDictionary
280
     1
281
     1
  3
ACAD_XREC_ROUNDTRIP
360
30B0
  0
DICTIONARY
  5
30A5
330
3041
100
AcDbDictionary
280
     1
281
     1
  3
ACAD_XREC_ROUNDTRIP
360
30A6
  0
DICTIONARY
  5
3099
330
303B
100
AcDbDictionary
280
     1
281
     1
  3
ACAD_XREC_ROUNDTRIP
360
309A
  0
DICTIONARY
  5
30B1
330
3047
100
AcDbDictionary
280
     1
281
     1
  3
ACAD_XREC_ROUNDTRIP
360
30B2
  0
XRECORD
  5
30C2
102
{ACAD_REACTORS
330
30C1
102
}
330
30C1
100
AcDbXrecord
280
     1
102
DISPLAYNAME
  1
Imperial24
102
FLAGS
 90
        0
  0
XRECORD
  5
30C4
102
{ACAD_REACTORS
330
30C3
102
}
330
30C3
100
AcDbXrecord
280
     1
102
SHADEPLOT
 70
     0
102
SHADEPLOTRESLEVEL
 70
     2
102
SHADEPLOTCUSTOMDPI
 70
   300
  0
XRECORD
  5
30C6
102
{ACAD_REACTORS
330
30C5
102
}
330
30C5
100
AcDbXrecord
280
     1
102
SHADEPLOT
 70
     0
102
SHADEPLOTRESLEVEL
 70
     2
102
SHADEPLOTCUSTOMDPI
 70
   300
  0
XRECORD
  5
308B
102
{ACAD_REACTORS
330
3025
102
}
330
3025
100
AcDbXrecord
280
     1
102
MATERIAL
148
0.0
149
0.0
149
0.0
 93
        0
 94
      127
282
     0
 72
     0
 77
     0
171
     0
175
     0
179
     0
273
     0
  0
XRECORD
  5
3027
102
{ACAD_REACTORS
330
3025
102
}
330
3025
100
AcDbXrecord
280
     1
270
     1
271
     1
  0
XRECORD
  5
3026
102
{ACAD_REACTORS
330
3025
102
}
330
3025
100
AcDbXrecord
280
     1
270
     1
271
     1
  0
XRECORD
  5
302A
102
{ACAD_REACTORS
330
3025
102
}
330
3025
100
AcDbXrecord
280
     1
270
     1
271
     1
  0
XRECORD
  5
3029
102
{ACAD_REACTORS
330
3025
102
}
330
3025
100
AcDbXrecord
280
     1
270
     1
271
     1
  0
XRECORD
  5
302B
102
{ACAD_REACTORS
330
3025
102
}
330
3025
100
AcDbXrecord
280
     1
270
     1
271
     1
  0
XRECORD
  5
3028
102
{ACAD_REACTORS
330
3025
102
}
330
3025
100
AcDbXrecord
280
     1
270
     1
271
     1
  0
XRECORD
  5
308A
102
{ACAD_REACTORS
330
301D
102
}
330
301D
100
AcDbXrecord
280
     1
102
MATERIAL
148
0.0
149
0.0
149
0.0
 93
        0
 94
      127
282
     0
 72
     0
 77
     0
171
     0
175
     0
179
     0
273
     0
  0
XRECORD
  5
301F
102
{ACAD_REACTORS
330
301D
102
}
330
301D
100
AcDbXrecord
280
     1
270
     1
271
     1
  0
XRECORD
  5
301E
102
{ACAD_REACTORS
330
301D
102
}
330
301D
100
AcDbXrecord
280
     1
270
     1
271
     1
  0
XRECORD
  5
3022
102
{ACAD_REACTORS
330
301D
102
}
330
301D
100
AcDbXrecord
280
     1
270
     1
271
     1
  0
XRECORD
  5
3021
102
{ACAD_REACTORS
330
301D
102
}
330
301D
100
AcDbXrecord
280
     1
270
     1
271
     1
  0
XRECORD
  5
3023
102
{ACAD_REACTORS
330
301D
102
}
330
301D
100
AcDbXrecord
280
     1
270
     1
271
     1
  0
XRECORD
  5
3020
102
{ACAD_REACTORS
330
301D
102
}
330
301D
100
AcDbXrecord
280
     1
270
     1
271
     1
  0
XRECORD
  5
308C
102
{ACAD_REACTORS
330
302D
102
}
330
302D
100
AcDbXrecord
280
     1
102
MATERIAL
148
0.0
149
0.0
149
0.0
 93
        0
 94
      127
282
     0
 72
     0
 77
     0
171
     0
175
     0
179
     0
273
     0
  0
XRECORD
  5
302F
102
{ACAD_REACTORS
330
302D
102
}
330
302D
100
AcDbXrecord
280
     1
270
     1
271
     1
  0
XRECORD
  5
302E
102
{ACAD_REACTORS
330
302D
102
}
330
302D
100
AcDbXrecord
280
     1
270
     1
271
     1
  0
XRECORD
  5
3032
102
{ACAD_REACTORS
330
302D
102
}
330
302D
100
AcDbXrecord
280
     1
270
     1
271
     1
  0
XRECORD
  5
3031
102
{ACAD_REACTORS
330
302D
102
}
330
302D
100
AcDbXrecord
280
     1
270
     1
271
     1
  0
XRECORD
  5
3033
102
{ACAD_REACTORS
330
302D
102
}
330
302D
100
AcDbXrecord
280
     1
270
     1
271
     1
  0
XRECORD
  5
3030
102
{ACAD_REACTORS
330
302D
102
}
330
302D
100
AcDbXrecord
280
     1
270
     1
271
     1
  0
XRECORD
  5
30C0
102
{ACAD_REACTORS
330
30BF
102
}
330
30BF
100
AcDbXrecord
280
     1
102
DISPLAYNAME
  1
Imperial24
102
FLAGS
 90
        0
  0
CELLSTYLEMAP
  5
3087
102
{ACAD_REACTORS
330
3086
102
}
330
3086
100
AcDbCellStyleMap
 90
        3
300
CELLSTYLE
  1
TABLEFORMAT_BEGIN
 90
        5
170
     1
 91
        0
 92
    32768
 62
   257
 93
        1
300
CONTENTFORMAT
  1
CONTENTFORMAT_BEGIN
 90
        0
 91
        0
 92
      512
 93
        0
300

 40
0.0
140
1.0
 94
        5
 62
     0
340
F
144
0.25
309
CONTENTFORMAT_END
171
     0
 94
        0
309
TABLEFORMAT_END
  1
CELLSTYLE_BEGIN
 90
        1
 91
        1
300
_TITLE
309
CELLSTYLE_END
300
CELLSTYLE
  1
TABLEFORMAT_BEGIN
 90
        5
170
     1
 91
        0
 92
        0
 62
   257
 93
        1
300
CONTENTFORMAT
  1
CONTENTFORMAT_BEGIN
 90
        0
 91
        0
 92
      512
 93
        0
300

 40
0.0
140
1.0
 94
        5
 62
     0
340
F
144
0.18
309
CONTENTFORMAT_END
171
     0
 94
        0
309
TABLEFORMAT_END
  1
CELLSTYLE_BEGIN
 90
        2
 91
        1
300
_HEADER
309
CELLSTYLE_END
300
CELLSTYLE
  1
TABLEFORMAT_BEGIN
 90
        5
170
     1
 91
        0
 92
        0
 62
   257
 93
        1
300
CONTENTFORMAT
  1
CONTENTFORMAT_BEGIN
 90
        0
 91
        0
 92
      512
 93
        0
300

 40
0.0
140
1.0
 94
        2
 62
     0
340
F
144
0.18
309
CONTENTFORMAT_END
171
     0
 94
        0
309
TABLEFORMAT_END
  1
CELLSTYLE_BEGIN
 90
        3
 91
        2
300
_DATA
309
CELLSTYLE_END
  0
XRECORD
  5
30BD
102
{ACAD_REACTORS
330
3086
102
}
330
3086
100
AcDbXrecord
280
     1
102
ACAD_ROUNDTRIP_PRE2007_TABLESTYLE
 90
      512
 91
        0
  1

 92
      512
 93
        0
  2

 94
      512
 95
        0
  3

  0
XRECORD
  5
3098
102
{ACAD_REACTORS
330
3097
102
}
330
3097
100
AcDbXrecord
280
     1
102
RTVSPost2010Prop28
280
     1
102
RTVSPost2010PropOp28
 70
     1
102
RTVSPost2010Prop29
280
     1
102
RTVSPost2010PropOp29
 70
     1
102
RTVSPost2010Prop30
280
     0
102
RTVSPost2010PropOp30
 70
     1
102
RTVSPost2010Prop31
280
     0
102
RTVSPost2010PropOp31
 70
     1
102
RTVSPost2010Prop32
280
     0
102
RTVSPost2010PropOp32
 70
     1
102
RTVSPost2010Prop33
280
     0
102
RTVSPost2010PropOp33
 70
     1
102
RTVSPost2010Prop34
280
     0
102
RTVSPost2010PropOp34
 70
     1
102
RTVSPost2010Prop35
280
     0
102
RTVSPost2010PropOp35
 70
     1
102
RTVSPost2010Prop36
280
     0
102
RTVSPost2010PropOp36
 70
     1
102
RTVSPost2010Prop37
 90
       50
102
RTVSPost2010PropOp37
 70
     1
102
RTVSPost2010Prop38
140
0.0
102
RTVSPost2010PropOp38
 70
     1
102
RTVSPost2010Prop39
140
1.0
102
RTVSPost2010PropOp39
 70
     1
102
RTVSPost2010Prop40
 90
        0
102
RTVSPost2010PropOp40
 70
     1
102
RTVSPost2010Prop41ColorIndex
 90
       18
102
RTVSPost2010Prop41ColorRGB
 90
        0
102
RTVSPost2010PropOp41
 70
     1
102
RTVSPost2010Prop42
 90
       50
102
RTVSPost2010PropOp42
 70
     1
102
RTVSPost2010Prop43
 90
        3
102
RTVSPost2010PropOp43
 70
     1
102
RTVSPost2010Prop44ColorIndex
 90
        5
102
RTVSPost2010Prop44ColorRGB
 90
      255
102
RTVSPost2010PropOp44
 70
     1
102
RTVSPost2010Prop45
280
     0
102
RTVSPost2010PropOp45
 70
     1
102
RTVSPost2010Prop46
 90
       50
102
RTVSPost2010PropOp46
 70
     1
102
RTVSPost2010Prop47
 90
       50
102
RTVSPost2010PropOp47
 70
     1
102
RTVSPost2010Prop48
 90
       50
102
RTVSPost2010PropOp48
 70
     1
102
RTVSPost2010Prop49
280
     0
102
RTVSPost2010PropOp49
 70
     1
102
RTVSPost2010Prop50
 90
       50
102
RTVSPost2010PropOp50
 70
     1
102
RTVSPost2010Prop51ColorIndex
 90
      256
102
RTVSPost2010Prop51ColorRGB
 90
-16777216
102
RTVSPost2010PropOp51
 70
     0
102
RTVSPost2010Prop52
140
1.0
102
RTVSPost2010PropOp52
 70
     0
102
RTVSPost2010Prop53
 90
        2
102
RTVSPost2010PropOp53
 70
     1
102
RTVSPost2010Prop54
  1
strokes_ogs.tif
102
RTVSPost2010PropOp54
 70
     1
102
RTVSPost2010Prop55
280
     0
102
RTVSPost2010PropOp55
 70
     1
102
RTVSPost2010Prop56
140
1.0
102
RTVSPost2010PropOp56
 70
     1
102
RTVSPost2010Prop57
140
1.0
102
RTVSPost2010PropOp57
 70
     1
102
RTVSPropertyOp0
 70
     1
102
RTVSPropertyOp1
 70
     1
102
RTVSPropertyOp2
 70
     1
102
RTVSPropertyOp3
 70
     1
102
RTVSPropertyOp4
 70
     1
102
RTVSPropertyOp5
 70
     1
102
RTVSPropertyOp6
 70
     1
102
RTVSPropertyOp7
 70
     1
102
RTVSPropertyOp8
 70
     1
102
RTVSPropertyOp9
 70
     1
102
RTVSPropertyOp10
 70
     1
102
RTVSPropertyOp11
 70
     1
102
RTVSPropertyOp12
 70
     1
102
RTVSPropertyOp13
 70
     1
102
RTVSPropertyOp14
 70
     1
102
RTVSPropertyOp15
 70
     1
102
RTVSPropertyOp16
 70
     1
102
RTVSPropertyOp17
 70
     1
102
RTVSPropertyOp18
 70
     1
102
RTVSPropertyOp19
 70
     1
102
RTVSPropertyOp20
 70
     1
102
RTVSPropertyOp21
 70
     1
102
RTVSPropertyOp22
 70
     1
102
RTVSPropertyOp23
 70
     1
102
RTVSPropertyOp24
 70
     1
102
RTVSPropertyOp25
 70
     1
102
RTVSPropertyOp26
 70
     1
102
RTVSPropertyOp27
 70
     1
102
RTVSPropertyOp28
 70
     1
102
RTVSPropertyOp29
 70
     1
102
RTVSPropertyOp30
 70
     1
102
RTVSPropertyOp31
 70
     1
102
RTVSPropertyOp32
 70
     1
102
RTVSPropertyOp33
 70
     1
102
RTVSPropertyOp34
 70
     1
102
RTVSPropertyOp35
 70
     1
102
RTVSPropertyOp36
 70
     1
102
RTVSPropertyOp37
 70
     1
102
RTVSPropertyOp38
 70
     1
102
RTVSPropertyOp39
 70
     1
102
RTVSPropertyOp40
 70
     1
102
RTVSPropertyOp41
 70
     1
102
RTVSPropertyOp42
 70
     1
102
RTVSPropertyOp43
 70
     1
102
RTVSPropertyOp44
 70
     1
102
RTVSPropertyOp45
 70
     1
102
RTVSPropertyOp46
 70
     1
102
RTVSPropertyOp47
 70
     1
102
RTVSPropertyOp48
 70
     1
102
RTVSPropertyOp49
 70
     1
102
RTVSPropertyOp50
 70
     1
102
RTVSPropertyOp51
 70
     0
102
RTVSPropertyOp52
 70
     0
102
RTVSPropertyOp53
 70
     1
102
RTVSPropertyOp54
 70
     1
102
RTVSPropertyOp55
 70
     1
102
RTVSPropertyOp56
 70
     1
102
RTVSPropertyOp57
 70
     1
102
RTVSPropertyOp58
 70
     1
102
RTVSPropertyOp59
 70
     1
102
RTVSPropertyOp60
 70
     1
102
RTVSPropertyOp61
 70
     1
102
RTVSPropertyOp62
 70
     1
  0
XRECORD
  5
3096
102
{ACAD_REACTORS
330
3095
102
}
330
3095
100
AcDbXrecord
280
     1
102
RTVSPost2010Prop28
280
     0
102
RTVSPost2010PropOp28
 70
     1
102
RTVSPost2010Prop29
280
     1
102
RTVSPost2010PropOp29
 70
     1
102
RTVSPost2010Prop30
280
     1
102
RTVSPost2010PropOp30
 70
     1
102
RTVSPost2010Prop31
280
     0
102
RTVSPost2010PropOp31
 70
     1
102
RTVSPost2010Prop32
280
     0
102
RTVSPost2010PropOp32
 70
     1
102
RTVSPost2010Prop33
280
     0
102
RTVSPost2010PropOp33
 70
     1
102
RTVSPost2010Prop34
280
     0
102
RTVSPost2010PropOp34
 70
     1
102
RTVSPost2010Prop35
280
     0
102
RTVSPost2010PropOp35
 70
     1
102
RTVSPost2010Prop36
280
     0
102
RTVSPost2010PropOp36
 70
     1
102
RTVSPost2010Prop37
 90
       50
102
RTVSPost2010PropOp37
 70
     1
102
RTVSPost2010Prop38
140
0.0
102
RTVSPost2010PropOp38
 70
     1
102
RTVSPost2010Prop39
140
1.0
102
RTVSPost2010PropOp39
 70
     1
102
RTVSPost2010Prop40
 90
        0
102
RTVSPost2010PropOp40
 70
     1
102
RTVSPost2010Prop41ColorIndex
 90
       18
102
RTVSPost2010Prop41ColorRGB
 90
        0
102
RTVSPost2010PropOp41
 70
     1
102
RTVSPost2010Prop42
 90
       50
102
RTVSPost2010PropOp42
 70
     1
102
RTVSPost2010Prop43
 90
        3
102
RTVSPost2010PropOp43
 70
     1
102
RTVSPost2010Prop44ColorIndex
 90
        5
102
RTVSPost2010Prop44ColorRGB
 90
      255
102
RTVSPost2010PropOp44
 70
     1
102
RTVSPost2010Prop45
280
     0
102
RTVSPost2010PropOp45
 70
     1
102
RTVSPost2010Prop46
 90
       50
102
RTVSPost2010PropOp46
 70
     1
102
RTVSPost2010Prop47
 90
       50
102
RTVSPost2010PropOp47
 70
     1
102
RTVSPost2010Prop48
 90
       50
102
RTVSPost2010PropOp48
 70
     1
102
RTVSPost2010Prop49
280
     0
102
RTVSPost2010PropOp49
 70
     1
102
RTVSPost2010Prop50
 90
       50
102
RTVSPost2010PropOp50
 70
     1
102
RTVSPost2010Prop51ColorIndex
 90
      256
102
RTVSPost2010Prop51ColorRGB
 90
-16777216
102
RTVSPost2010PropOp51
 70
     0
102
RTVSPost2010Prop52
140
1.0
102
RTVSPost2010PropOp52
 70
     0
102
RTVSPost2010Prop53
 90
        2
102
RTVSPost2010PropOp53
 70
     1
102
RTVSPost2010Prop54
  1
strokes_ogs.tif
102
RTVSPost2010PropOp54
 70
     1
102
RTVSPost2010Prop55
280
     0
102
RTVSPost2010PropOp55
 70
     1
102
RTVSPost2010Prop56
140
1.0
102
RTVSPost2010PropOp56
 70
     1
102
RTVSPost2010Prop57
140
1.0
102
RTVSPost2010PropOp57
 70
     1
102
RTVSPropertyOp0
 70
     1
102
RTVSPropertyOp1
 70
     1
102
RTVSPropertyOp2
 70
     1
102
RTVSPropertyOp3
 70
     1
102
RTVSPropertyOp4
 70
     1
102
RTVSPropertyOp5
 70
     1
102
RTVSPropertyOp6
 70
     1
102
RTVSPropertyOp7
 70
     1
102
RTVSPropertyOp8
 70
     1
102
RTVSPropertyOp9
 70
     1
102
RTVSPropertyOp10
 70
     1
102
RTVSPropertyOp11
 70
     1
102
RTVSPropertyOp12
 70
     1
102
RTVSPropertyOp13
 70
     1
102
RTVSPropertyOp14
 70
     1
102
RTVSPropertyOp15
 70
     1
102
RTVSPropertyOp16
 70
     1
102
RTVSPropertyOp17
 70
     1
102
RTVSPropertyOp18
 70
     1
102
RTVSPropertyOp19
 70
     1
102
RTVSPropertyOp20
 70
     1
102
RTVSPropertyOp21
 70
     1
102
RTVSPropertyOp22
 70
     1
102
RTVSPropertyOp23
 70
     1
102
RTVSPropertyOp24
 70
     1
102
RTVSPropertyOp25
 70
     1
102
RTVSPropertyOp26
 70
     1
102
RTVSPropertyOp27
 70
     1
102
RTVSPropertyOp28
 70
     1
102
RTVSPropertyOp29
 70
     1
102
RTVSPropertyOp30
 70
     1
102
RTVSPropertyOp31
 70
     1
102
RTVSPropertyOp32
 70
     1
102
RTVSPropertyOp33
 70
     1
102
RTVSPropertyOp34
 70
     1
102
RTVSPropertyOp35
 70
     1
102
RTVSPropertyOp36
 70
     1
102
RTVSPropertyOp37
 70
     1
102
RTVSPropertyOp38
 70
     1
102
RTVSPropertyOp39
 70
     1
102
RTVSPropertyOp40
 70
     1
102
RTVSPropertyOp41
 70
     1
102
RTVSPropertyOp42
 70
     1
102
RTVSPropertyOp43
 70
     1
102
RTVSPropertyOp44
 70
     1
102
RTVSPropertyOp45
 70
     1
102
RTVSPropertyOp46
 70
     1
102
RTVSPropertyOp47
 70
     1
102
RTVSPropertyOp48
 70
     1
102
RTVSPropertyOp49
 70
     1
102
RTVSPropertyOp50
 70
     1
102
RTVSPropertyOp51
 70
     0
102
RTVSPropertyOp52
 70
     0
102
RTVSPropertyOp53
 70
     1
102
RTVSPropertyOp54
 70
     1
102
RTVSPropertyOp55
 70
     1
102
RTVSPropertyOp56
 70
     1
102
RTVSPropertyOp57
 70
     1
102
RTVSPropertyOp58
 70
     1
102
RTVSPropertyOp59
 70
     1
102
RTVSPropertyOp60
 70
     1
102
RTVSPropertyOp61
 70
     1
102
RTVSPropertyOp62
 70
     1
  0
XRECORD
  5
30A4
102
{ACAD_REACTORS
330
30A3
102
}
330
30A3
100
AcDbXrecord
280
     1
102
RTVSPost2010Prop28
280
     0
102
RTVSPost2010PropOp28
 70
     1
102
RTVSPost2010Prop29
280
     1
102
RTVSPost2010PropOp29
 70
     1
102
RTVSPost2010Prop30
280
     1
102
RTVSPost2010PropOp30
 70
     1
102
RTVSPost2010Prop31
280
     0
102
RTVSPost2010PropOp31
 70
     1
102
RTVSPost2010Prop32
280
     0
102
RTVSPost2010PropOp32
 70
     1
102
RTVSPost2010Prop33
280
     0
102
RTVSPost2010PropOp33
 70
     1
102
RTVSPost2010Prop34
280
     0
102
RTVSPost2010PropOp34
 70
     1
102
RTVSPost2010Prop35
280
     0
102
RTVSPost2010PropOp35
 70
     1
102
RTVSPost2010Prop36
280
     0
102
RTVSPost2010PropOp36
 70
     1
102
RTVSPost2010Prop37
 90
       50
102
RTVSPost2010PropOp37
 70
     1
102
RTVSPost2010Prop38
140
0.0
102
RTVSPost2010PropOp38
 70
     1
102
RTVSPost2010Prop39
140
1.0
102
RTVSPost2010PropOp39
 70
     1
102
RTVSPost2010Prop40
 90
        0
102
RTVSPost2010PropOp40
 70
     1
102
RTVSPost2010Prop41ColorIndex
 90
       18
102
RTVSPost2010Prop41ColorRGB
 90
        0
102
RTVSPost2010PropOp41
 70
     1
102
RTVSPost2010Prop42
 90
       50
102
RTVSPost2010PropOp42
 70
     1
102
RTVSPost2010Prop43
 90
        3
102
RTVSPost2010PropOp43
 70
     1
102
RTVSPost2010Prop44ColorIndex
 90
        5
102
RTVSPost2010Prop44ColorRGB
 90
      255
102
RTVSPost2010PropOp44
 70
     1
102
RTVSPost2010Prop45
280
     0
102
RTVSPost2010PropOp45
 70
     1
102
RTVSPost2010Prop46
 90
       50
102
RTVSPost2010PropOp46
 70
     1
102
RTVSPost2010Prop47
 90
       50
102
RTVSPost2010PropOp47
 70
     1
102
RTVSPost2010Prop48
 90
       50
102
RTVSPost2010PropOp48
 70
     1
102
RTVSPost2010Prop49
280
     0
102
RTVSPost2010PropOp49
 70
     1
102
RTVSPost2010Prop50
 90
       50
102
RTVSPost2010PropOp50
 70
     1
102
RTVSPost2010Prop51ColorIndex
 90
      256
102
RTVSPost2010Prop51ColorRGB
 90
-16777216
102
RTVSPost2010PropOp51
 70
     0
102
RTVSPost2010Prop52
140
1.0
102
RTVSPost2010PropOp52
 70
     0
102
RTVSPost2010Prop53
 90
        2
102
RTVSPost2010PropOp53
 70
     1
102
RTVSPost2010Prop54
  1
strokes_ogs.tif
102
RTVSPost2010PropOp54
 70
     1
102
RTVSPost2010Prop55
280
     0
102
RTVSPost2010PropOp55
 70
     1
102
RTVSPost2010Prop56
140
1.0
102
RTVSPost2010PropOp56
 70
     1
102
RTVSPost2010Prop57
140
1.0
102
RTVSPost2010PropOp57
 70
     1
102
RTVSPropertyOp0
 70
     1
102
RTVSPropertyOp1
 70
     1
102
RTVSPropertyOp2
 70
     1
102
RTVSPropertyOp3
 70
     1
102
RTVSPropertyOp4
 70
     1
102
RTVSPropertyOp5
 70
     1
102
RTVSPropertyOp6
 70
     1
102
RTVSPropertyOp7
 70
     1
102
RTVSPropertyOp8
 70
     1
102
RTVSPropertyOp9
 70
     1
102
RTVSPropertyOp10
 70
     1
102
RTVSPropertyOp11
 70
     1
102
RTVSPropertyOp12
 70
     1
102
RTVSPropertyOp13
 70
     1
102
RTVSPropertyOp14
 70
     1
102
RTVSPropertyOp15
 70
     1
102
RTVSPropertyOp16
 70
     1
102
RTVSPropertyOp17
 70
     1
102
RTVSPropertyOp18
 70
     1
102
RTVSPropertyOp19
 70
     1
102
RTVSPropertyOp20
 70
     1
102
RTVSPropertyOp21
 70
     1
102
RTVSPropertyOp22
 70
     1
102
RTVSPropertyOp23
 70
     1
102
RTVSPropertyOp24
 70
     1
102
RTVSPropertyOp25
 70
     1
102
RTVSPropertyOp26
 70
     1
102
RTVSPropertyOp27
 70
     1
102
RTVSPropertyOp28
 70
     1
102
RTVSPropertyOp29
 70
     1
102
RTVSPropertyOp30
 70
     1
102
RTVSPropertyOp31
 70
     1
102
RTVSPropertyOp32
 70
     1
102
RTVSPropertyOp33
 70
     1
102
RTVSPropertyOp34
 70
     1
102
RTVSPropertyOp35
 70
     1
102
RTVSPropertyOp36
 70
     1
102
RTVSPropertyOp37
 70
     1
102
RTVSPropertyOp38
 70
     1
102
RTVSPropertyOp39
 70
     1
102
RTVSPropertyOp40
 70
     1
102
RTVSPropertyOp41
 70
     1
102
RTVSPropertyOp42
 70
     1
102
RTVSPropertyOp43
 70
     1
102
RTVSPropertyOp44
 70
     1
102
RTVSPropertyOp45
 70
     1
102
RTVSPropertyOp46
 70
     1
102
RTVSPropertyOp47
 70
     1
102
RTVSPropertyOp48
 70
     1
102
RTVSPropertyOp49
 70
     1
102
RTVSPropertyOp50
 70
     1
102
RTVSPropertyOp51
 70
     0
102
RTVSPropertyOp52
 70
     0
102
RTVSPropertyOp53
 70
     1
102
RTVSPropertyOp54
 70
     1
102
RTVSPropertyOp55
 70
     1
102
RTVSPropertyOp56
 70
     1
102
RTVSPropertyOp57
 70
     1
102
RTVSPropertyOp58
 70
     1
102
RTVSPropertyOp59
 70
     1
102
RTVSPropertyOp60
 70
     1
102
RTVSPropertyOp61
 70
     1
102
RTVSPropertyOp62
 70
     1
  0
XRECORD
  5
30AC
102
{ACAD_REACTORS
330
30AB
102
}
330
30AB
100
AcDbXrecord
280
     1
102
RTVSPost2010Prop28
280
     0
102
RTVSPost2010PropOp28
 70
     1
102
RTVSPost2010Prop29
280
     1
102
RTVSPost2010PropOp29
 70
     1
102
RTVSPost2010Prop30
280
     1
102
RTVSPost2010PropOp30
 70
     1
102
RTVSPost2010Prop31
280
     0
102
RTVSPost2010PropOp31
 70
     1
102
RTVSPost2010Prop32
280
     0
102
RTVSPost2010PropOp32
 70
     1
102
RTVSPost2010Prop33
280
     0
102
RTVSPost2010PropOp33
 70
     1
102
RTVSPost2010Prop34
280
     0
102
RTVSPost2010PropOp34
 70
     1
102
RTVSPost2010Prop35
280
     0
102
RTVSPost2010PropOp35
 70
     1
102
RTVSPost2010Prop36
280
     0
102
RTVSPost2010PropOp36
 70
     1
102
RTVSPost2010Prop37
 90
       50
102
RTVSPost2010PropOp37
 70
     1
102
RTVSPost2010Prop38
140
0.0
102
RTVSPost2010PropOp38
 70
     1
102
RTVSPost2010Prop39
140
1.0
102
RTVSPost2010PropOp39
 70
     1
102
RTVSPost2010Prop40
 90
        0
102
RTVSPost2010PropOp40
 70
     1
102
RTVSPost2010Prop41ColorIndex
 90
       18
102
RTVSPost2010Prop41ColorRGB
 90
        0
102
RTVSPost2010PropOp41
 70
     1
102
RTVSPost2010Prop42
 90
       50
102
RTVSPost2010PropOp42
 70
     1
102
RTVSPost2010Prop43
 90
        3
102
RTVSPost2010PropOp43
 70
     1
102
RTVSPost2010Prop44ColorIndex
 90
        5
102
RTVSPost2010Prop44ColorRGB
 90
      255
102
RTVSPost2010PropOp44
 70
     1
102
RTVSPost2010Prop45
280
     0
102
RTVSPost2010PropOp45
 70
     1
102
RTVSPost2010Prop46
 90
       50
102
RTVSPost2010PropOp46
 70
     1
102
RTVSPost2010Prop47
 90
       50
102
RTVSPost2010PropOp47
 70
     1
102
RTVSPost2010Prop48
 90
       50
102
RTVSPost2010PropOp48
 70
     1
102
RTVSPost2010Prop49
280
     0
102
RTVSPost2010PropOp49
 70
     1
102
RTVSPost2010Prop50
 90
       50
102
RTVSPost2010PropOp50
 70
     1
102
RTVSPost2010Prop51ColorIndex
 90
      256
102
RTVSPost2010Prop51ColorRGB
 90
-16777216
102
RTVSPost2010PropOp51
 70
     0
102
RTVSPost2010Prop52
140
1.0
102
RTVSPost2010PropOp52
 70
     0
102
RTVSPost2010Prop53
 90
        2
102
RTVSPost2010PropOp53
 70
     1
102
RTVSPost2010Prop54
  1
strokes_ogs.tif
102
RTVSPost2010PropOp54
 70
     1
102
RTVSPost2010Prop55
280
     0
102
RTVSPost2010PropOp55
 70
     1
102
RTVSPost2010Prop56
140
1.0
102
RTVSPost2010PropOp56
 70
     1
102
RTVSPost2010Prop57
140
1.0
102
RTVSPost2010PropOp57
 70
     1
102
RTVSPropertyOp0
 70
     1
102
RTVSPropertyOp1
 70
     1
102
RTVSPropertyOp2
 70
     1
102
RTVSPropertyOp3
 70
     1
102
RTVSPropertyOp4
 70
     1
102
RTVSPropertyOp5
 70
     1
102
RTVSPropertyOp6
 70
     1
102
RTVSPropertyOp7
 70
     1
102
RTVSPropertyOp8
 70
     1
102
RTVSPropertyOp9
 70
     1
102
RTVSPropertyOp10
 70
     1
102
RTVSPropertyOp11
 70
     1
102
RTVSPropertyOp12
 70
     1
102
RTVSPropertyOp13
 70
     1
102
RTVSPropertyOp14
 70
     1
102
RTVSPropertyOp15
 70
     1
102
RTVSPropertyOp16
 70
     1
102
RTVSPropertyOp17
 70
     1
102
RTVSPropertyOp18
 70
     1
102
RTVSPropertyOp19
 70
     1
102
RTVSPropertyOp20
 70
     1
102
RTVSPropertyOp21
 70
     1
102
RTVSPropertyOp22
 70
     1
102
RTVSPropertyOp23
 70
     1
102
RTVSPropertyOp24
 70
     1
102
RTVSPropertyOp25
 70
     1
102
RTVSPropertyOp26
 70
     1
102
RTVSPropertyOp27
 70
     1
102
RTVSPropertyOp28
 70
     1
102
RTVSPropertyOp29
 70
     1
102
RTVSPropertyOp30
 70
     1
102
RTVSPropertyOp31
 70
     1
102
RTVSPropertyOp32
 70
     1
102
RTVSPropertyOp33
 70
     1
102
RTVSPropertyOp34
 70
     1
102
RTVSPropertyOp35
 70
     1
102
RTVSPropertyOp36
 70
     1
102
RTVSPropertyOp37
 70
     1
102
RTVSPropertyOp38
 70
     1
102
RTVSPropertyOp39
 70
     1
102
RTVSPropertyOp40
 70
     1
102
RTVSPropertyOp41
 70
     1
102
RTVSPropertyOp42
 70
     1
102
RTVSPropertyOp43
 70
     1
102
RTVSPropertyOp44
 70
     1
102
RTVSPropertyOp45
 70
     1
102
RTVSPropertyOp46
 70
     1
102
RTVSPropertyOp47
 70
     1
102
RTVSPropertyOp48
 70
     1
102
RTVSPropertyOp49
 70
     1
102
RTVSPropertyOp50
 70
     1
102
RTVSPropertyOp51
 70
     0
102
RTVSPropertyOp52
 70
     0
102
RTVSPropertyOp53
 70
     1
102
RTVSPropertyOp54
 70
     1
102
RTVSPropertyOp55
 70
     1
102
RTVSPropertyOp56
 70
     1
102
RTVSPropertyOp57
 70
     1
102
RTVSPropertyOp58
 70
     1
102
RTVSPropertyOp59
 70
     1
102
RTVSPropertyOp60
 70
     1
102
RTVSPropertyOp61
 70
     1
102
RTVSPropertyOp62
 70
     1
  0
XRECORD
  5
309E
102
{ACAD_REACTORS
330
309D
102
}
330
309D
100
AcDbXrecord
280
     1
102
RTVSPost2010Prop28
280
     0
102
RTVSPost2010PropOp28
 70
     1
102
RTVSPost2010Prop29
280
     1
102
RTVSPost2010PropOp29
 70
     1
102
RTVSPost2010Prop30
280
     1
102
RTVSPost2010PropOp30
 70
     1
102
RTVSPost2010Prop31
280
     0
102
RTVSPost2010PropOp31
 70
     1
102
RTVSPost2010Prop32
280
     0
102
RTVSPost2010PropOp32
 70
     1
102
RTVSPost2010Prop33
280
     0
102
RTVSPost2010PropOp33
 70
     1
102
RTVSPost2010Prop34
280
     0
102
RTVSPost2010PropOp34
 70
     1
102
RTVSPost2010Prop35
280
     0
102
RTVSPost2010PropOp35
 70
     1
102
RTVSPost2010Prop36
280
     0
102
RTVSPost2010PropOp36
 70
     1
102
RTVSPost2010Prop37
 90
       50
102
RTVSPost2010PropOp37
 70
     1
102
RTVSPost2010Prop38
140
0.0
102
RTVSPost2010PropOp38
 70
     1
102
RTVSPost2010Prop39
140
1.0
102
RTVSPost2010PropOp39
 70
     1
102
RTVSPost2010Prop40
 90
        0
102
RTVSPost2010PropOp40
 70
     1
102
RTVSPost2010Prop41ColorIndex
 90
       18
102
RTVSPost2010Prop41ColorRGB
 90
        0
102
RTVSPost2010PropOp41
 70
     1
102
RTVSPost2010Prop42
 90
       50
102
RTVSPost2010PropOp42
 70
     1
102
RTVSPost2010Prop43
 90
        3
102
RTVSPost2010PropOp43
 70
     1
102
RTVSPost2010Prop44ColorIndex
 90
        5
102
RTVSPost2010Prop44ColorRGB
 90
      255
102
RTVSPost2010PropOp44
 70
     1
102
RTVSPost2010Prop45
280
     0
102
RTVSPost2010PropOp45
 70
     1
102
RTVSPost2010Prop46
 90
       50
102
RTVSPost2010PropOp46
 70
     1
102
RTVSPost2010Prop47
 90
       50
102
RTVSPost2010PropOp47
 70
     1
102
RTVSPost2010Prop48
 90
       50
102
RTVSPost2010PropOp48
 70
     1
102
RTVSPost2010Prop49
280
     0
102
RTVSPost2010PropOp49
 70
     1
102
RTVSPost2010Prop50
 90
       50
102
RTVSPost2010PropOp50
 70
     1
102
RTVSPost2010Prop51ColorIndex
 90
      256
102
RTVSPost2010Prop51ColorRGB
 90
-16777216
102
RTVSPost2010PropOp51
 70
     0
102
RTVSPost2010Prop52
140
1.0
102
RTVSPost2010PropOp52
 70
     0
102
RTVSPost2010Prop53
 90
        2
102
RTVSPost2010PropOp53
 70
     1
102
RTVSPost2010Prop54
  1
strokes_ogs.tif
102
RTVSPost2010PropOp54
 70
     1
102
RTVSPost2010Prop55
280
     0
102
RTVSPost2010PropOp55
 70
     1
102
RTVSPost2010Prop56
140
1.0
102
RTVSPost2010PropOp56
 70
     1
102
RTVSPost2010Prop57
140
1.0
102
RTVSPost2010PropOp57
 70
     1
102
RTVSPropertyOp0
 70
     1
102
RTVSPropertyOp1
 70
     1
102
RTVSPropertyOp2
 70
     1
102
RTVSPropertyOp3
 70
     1
102
RTVSPropertyOp4
 70
     1
102
RTVSPropertyOp5
 70
     1
102
RTVSPropertyOp6
 70
     1
102
RTVSPropertyOp7
 70
     1
102
RTVSPropertyOp8
 70
     1
102
RTVSPropertyOp9
 70
     1
102
RTVSPropertyOp10
 70
     1
102
RTVSPropertyOp11
 70
     1
102
RTVSPropertyOp12
 70
     1
102
RTVSPropertyOp13
 70
     1
102
RTVSPropertyOp14
 70
     1
102
RTVSPropertyOp15
 70
     1
102
RTVSPropertyOp16
 70
     1
102
RTVSPropertyOp17
 70
     1
102
RTVSPropertyOp18
 70
     1
102
RTVSPropertyOp19
 70
     1
102
RTVSPropertyOp20
 70
     1
102
RTVSPropertyOp21
 70
     1
102
RTVSPropertyOp22
 70
     1
102
RTVSPropertyOp23
 70
     1
102
RTVSPropertyOp24
 70
     1
102
RTVSPropertyOp25
 70
     1
102
RTVSPropertyOp26
 70
     1
102
RTVSPropertyOp27
 70
     1
102
RTVSPropertyOp28
 70
     1
102
RTVSPropertyOp29
 70
     1
102
RTVSPropertyOp30
 70
     1
102
RTVSPropertyOp31
 70
     1
102
RTVSPropertyOp32
 70
     1
102
RTVSPropertyOp33
 70
     1
102
RTVSPropertyOp34
 70
     1
102
RTVSPropertyOp35
 70
     1
102
RTVSPropertyOp36
 70
     1
102
RTVSPropertyOp37
 70
     1
102
RTVSPropertyOp38
 70
     1
102
RTVSPropertyOp39
 70
     1
102
RTVSPropertyOp40
 70
     1
102
RTVSPropertyOp41
 70
     1
102
RTVSPropertyOp42
 70
     1
102
RTVSPropertyOp43
 70
     1
102
RTVSPropertyOp44
 70
     1
102
RTVSPropertyOp45
 70
     1
102
RTVSPropertyOp46
 70
     1
102
RTVSPropertyOp47
 70
     1
102
RTVSPropertyOp48
 70
     1
102
RTVSPropertyOp49
 70
     1
102
RTVSPropertyOp50
 70
     1
102
RTVSPropertyOp51
 70
     0
102
RTVSPropertyOp52
 70
     0
102
RTVSPropertyOp53
 70
     1
102
RTVSPropertyOp54
 70
     1
102
RTVSPropertyOp55
 70
     1
102
RTVSPropertyOp56
 70
     1
102
RTVSPropertyOp57
 70
     1
102
RTVSPropertyOp58
 70
     1
102
RTVSPropertyOp59
 70
     1
102
RTVSPropertyOp60
 70
     1
102
RTVSPropertyOp61
 70
     1
102
RTVSPropertyOp62
 70
     1
  0
XRECORD
  5
30A2
102
{ACAD_REACTORS
330
30A1
102
}
330
30A1
100
AcDbXrecord
280
     1
102
RTVSPost2010Prop28
280
     0
102
RTVSPost2010PropOp28
 70
     1
102
RTVSPost2010Prop29
280
     1
102
RTVSPost2010PropOp29
 70
     1
102
RTVSPost2010Prop30
280
     1
102
RTVSPost2010PropOp30
 70
     1
102
RTVSPost2010Prop31
280
     0
102
RTVSPost2010PropOp31
 70
     1
102
RTVSPost2010Prop32
280
     0
102
RTVSPost2010PropOp32
 70
     1
102
RTVSPost2010Prop33
280
     0
102
RTVSPost2010PropOp33
 70
     1
102
RTVSPost2010Prop34
280
     0
102
RTVSPost2010PropOp34
 70
     1
102
RTVSPost2010Prop35
280
     0
102
RTVSPost2010PropOp35
 70
     1
102
RTVSPost2010Prop36
280
     0
102
RTVSPost2010PropOp36
 70
     1
102
RTVSPost2010Prop37
 90
       50
102
RTVSPost2010PropOp37
 70
     1
102
RTVSPost2010Prop38
140
0.0
102
RTVSPost2010PropOp38
 70
     1
102
RTVSPost2010Prop39
140
1.0
102
RTVSPost2010PropOp39
 70
     1
102
RTVSPost2010Prop40
 90
        0
102
RTVSPost2010PropOp40
 70
     1
102
RTVSPost2010Prop41ColorIndex
 90
       18
102
RTVSPost2010Prop41ColorRGB
 90
        0
102
RTVSPost2010PropOp41
 70
     1
102
RTVSPost2010Prop42
 90
       50
102
RTVSPost2010PropOp42
 70
     1
102
RTVSPost2010Prop43
 90
        3
102
RTVSPost2010PropOp43
 70
     1
102
RTVSPost2010Prop44ColorIndex
 90
        5
102
RTVSPost2010Prop44ColorRGB
 90
      255
102
RTVSPost2010PropOp44
 70
     1
102
RTVSPost2010Prop45
280
     0
102
RTVSPost2010PropOp45
 70
     1
102
RTVSPost2010Prop46
 90
       50
102
RTVSPost2010PropOp46
 70
     1
102
RTVSPost2010Prop47
 90
       50
102
RTVSPost2010PropOp47
 70
     1
102
RTVSPost2010Prop48
 90
       50
102
RTVSPost2010PropOp48
 70
     1
102
RTVSPost2010Prop49
280
     0
102
RTVSPost2010PropOp49
 70
     1
102
RTVSPost2010Prop50
 90
       50
102
RTVSPost2010PropOp50
 70
     1
102
RTVSPost2010Prop51ColorIndex
 90
      256
102
RTVSPost2010Prop51ColorRGB
 90
-16777216
102
RTVSPost2010PropOp51
 70
     0
102
RTVSPost2010Prop52
140
1.0
102
RTVSPost2010PropOp52
 70
     0
102
RTVSPost2010Prop53
 90
        2
102
RTVSPost2010PropOp53
 70
     1
102
RTVSPost2010Prop54
  1
strokes_ogs.tif
102
RTVSPost2010PropOp54
 70
     1
102
RTVSPost2010Prop55
280
     0
102
RTVSPost2010PropOp55
 70
     1
102
RTVSPost2010Prop56
140
1.0
102
RTVSPost2010PropOp56
 70
     1
102
RTVSPost2010Prop57
140
1.0
102
RTVSPost2010PropOp57
 70
     1
102
RTVSPropertyOp0
 70
     1
102
RTVSPropertyOp1
 70
     1
102
RTVSPropertyOp2
 70
     1
102
RTVSPropertyOp3
 70
     1
102
RTVSPropertyOp4
 70
     1
102
RTVSPropertyOp5
 70
     1
102
RTVSPropertyOp6
 70
     1
102
RTVSPropertyOp7
 70
     1
102
RTVSPropertyOp8
 70
     1
102
RTVSPropertyOp9
 70
     1
102
RTVSPropertyOp10
 70
     1
102
RTVSPropertyOp11
 70
     1
102
RTVSPropertyOp12
 70
     1
102
RTVSPropertyOp13
 70
     1
102
RTVSPropertyOp14
 70
     1
102
RTVSPropertyOp15
 70
     1
102
RTVSPropertyOp16
 70
     1
102
RTVSPropertyOp17
 70
     1
102
RTVSPropertyOp18
 70
     1
102
RTVSPropertyOp19
 70
     1
102
RTVSPropertyOp20
 70
     1
102
RTVSPropertyOp21
 70
     1
102
RTVSPropertyOp22
 70
     1
102
RTVSPropertyOp23
 70
     1
102
RTVSPropertyOp24
 70
     1
102
RTVSPropertyOp25
 70
     1
102
RTVSPropertyOp26
 70
     1
102
RTVSPropertyOp27
 70
     1
102
RTVSPropertyOp28
 70
     1
102
RTVSPropertyOp29
 70
     1
102
RTVSPropertyOp30
 70
     1
102
RTVSPropertyOp31
 70
     1
102
RTVSPropertyOp32
 70
     1
102
RTVSPropertyOp33
 70
     1
102
RTVSPropertyOp34
 70
     1
102
RTVSPropertyOp35
 70
     1
102
RTVSPropertyOp36
 70
     1
102
RTVSPropertyOp37
 70
     1
102
RTVSPropertyOp38
 70
     1
102
RTVSPropertyOp39
 70
     1
102
RTVSPropertyOp40
 70
     1
102
RTVSPropertyOp41
 70
     1
102
RTVSPropertyOp42
 70
     1
102
RTVSPropertyOp43
 70
     1
102
RTVSPropertyOp44
 70
     1
102
RTVSPropertyOp45
 70
     1
102
RTVSPropertyOp46
 70
     1
102
RTVSPropertyOp47
 70
     1
102
RTVSPropertyOp48
 70
     1
102
RTVSPropertyOp49
 70
     1
102
RTVSPropertyOp50
 70
     1
102
RTVSPropertyOp51
 70
     0
102
RTVSPropertyOp52
 70
     0
102
RTVSPropertyOp53
 70
     1
102
RTVSPropertyOp54
 70
     1
102
RTVSPropertyOp55
 70
     1
102
RTVSPropertyOp56
 70
     1
102
RTVSPropertyOp57
 70
     1
102
RTVSPropertyOp58
 70
     1
102
RTVSPropertyOp59
 70
     1
102
RTVSPropertyOp60
 70
     1
102
RTVSPropertyOp61
 70
     1
102
RTVSPropertyOp62
 70
     1
  0
XRECORD
  5
30BC
102
{ACAD_REACTORS
330
30BB
102
}
330
30BB
100
AcDbXrecord
280
     1
102
RTVSPost2010Prop28
280
     0
102
RTVSPost2010PropOp28
 70
     1
102
RTVSPost2010Prop29
280
     1
102
RTVSPost2010PropOp29
 70
     1
102
RTVSPost2010Prop30
280
     1
102
RTVSPost2010PropOp30
 70
     1
102
RTVSPost2010Prop31
280
     0
102
RTVSPost2010PropOp31
 70
     1
102
RTVSPost2010Prop32
280
     0
102
RTVSPost2010PropOp32
 70
     1
102
RTVSPost2010Prop33
280
     0
102
RTVSPost2010PropOp33
 70
     1
102
RTVSPost2010Prop34
280
     0
102
RTVSPost2010PropOp34
 70
     1
102
RTVSPost2010Prop35
280
     0
102
RTVSPost2010PropOp35
 70
     1
102
RTVSPost2010Prop36
280
     0
102
RTVSPost2010PropOp36
 70
     1
102
RTVSPost2010Prop37
 90
       50
102
RTVSPost2010PropOp37
 70
     0
102
RTVSPost2010Prop38
140
0.0
102
RTVSPost2010PropOp38
 70
     0
102
RTVSPost2010Prop39
140
1.0
102
RTVSPost2010PropOp39
 70
     0
102
RTVSPost2010Prop40
 90
        0
102
RTVSPost2010PropOp40
 70
     0
102
RTVSPost2010Prop41ColorIndex
 90
       18
102
RTVSPost2010Prop41ColorRGB
 90
        0
102
RTVSPost2010PropOp41
 70
     0
102
RTVSPost2010Prop42
 90
       50
102
RTVSPost2010PropOp42
 70
     0
102
RTVSPost2010Prop43
 90
        3
102
RTVSPost2010PropOp43
 70
     0
102
RTVSPost2010Prop44ColorIndex
 90
        5
102
RTVSPost2010Prop44ColorRGB
 90
      255
102
RTVSPost2010PropOp44
 70
     0
102
RTVSPost2010Prop45
280
     0
102
RTVSPost2010PropOp45
 70
     1
102
RTVSPost2010Prop46
 90
       50
102
RTVSPost2010PropOp46
 70
     0
102
RTVSPost2010Prop47
 90
       50
102
RTVSPost2010PropOp47
 70
     0
102
RTVSPost2010Prop48
 90
       50
102
RTVSPost2010PropOp48
 70
     0
102
RTVSPost2010Prop49
280
     0
102
RTVSPost2010PropOp49
 70
     1
102
RTVSPost2010Prop50
 90
       50
102
RTVSPost2010PropOp50
 70
     0
102
RTVSPost2010Prop51ColorIndex
 90
      256
102
RTVSPost2010Prop51ColorRGB
 90
-16777216
102
RTVSPost2010PropOp51
 70
     0
102
RTVSPost2010Prop52
140
1.0
102
RTVSPost2010PropOp52
 70
     0
102
RTVSPost2010Prop53
 90
        2
102
RTVSPost2010PropOp53
 70
     0
102
RTVSPost2010Prop54
  1
strokes_ogs.tif
102
RTVSPost2010PropOp54
 70
     0
102
RTVSPost2010Prop55
280
     0
102
RTVSPost2010PropOp55
 70
     1
102
RTVSPost2010Prop56
140
1.0
102
RTVSPost2010PropOp56
 70
     0
102
RTVSPost2010Prop57
140
1.0
102
RTVSPost2010PropOp57
 70
     0
102
RTVSPropertyOp0
 70
     0
102
RTVSPropertyOp1
 70
     0
102
RTVSPropertyOp2
 70
     0
102
RTVSPropertyOp3
 70
     0
102
RTVSPropertyOp4
 70
     0
102
RTVSPropertyOp5
 70
     0
102
RTVSPropertyOp6
 70
     0
102
RTVSPropertyOp7
 70
     0
102
RTVSPropertyOp8
 70
     0
102
RTVSPropertyOp9
 70
     0
102
RTVSPropertyOp10
 70
     0
102
RTVSPropertyOp11
 70
     0
102
RTVSPropertyOp12
 70
     0
102
RTVSPropertyOp13
 70
     0
102
RTVSPropertyOp14
 70
     2
102
RTVSPropertyOp15
 70
     0
102
RTVSPropertyOp16
 70
     0
102
RTVSPropertyOp17
 70
     0
102
RTVSPropertyOp18
 70
     0
102
RTVSPropertyOp19
 70
     0
102
RTVSPropertyOp20
 70
     0
102
RTVSPropertyOp21
 70
     0
102
RTVSPropertyOp22
 70
     0
102
RTVSPropertyOp23
 70
     0
102
RTVSPropertyOp24
 70
     0
102
RTVSPropertyOp25
 70
     0
102
RTVSPropertyOp26
 70
     0
102
RTVSPropertyOp27
 70
     0
102
RTVSPropertyOp28
 70
     1
102
RTVSPropertyOp29
 70
     1
102
RTVSPropertyOp30
 70
     1
102
RTVSPropertyOp31
 70
     1
102
RTVSPropertyOp32
 70
     1
102
RTVSPropertyOp33
 70
     1
102
RTVSPropertyOp34
 70
     1
102
RTVSPropertyOp35
 70
     1
102
RTVSPropertyOp36
 70
     1
102
RTVSPropertyOp37
 70
     0
102
RTVSPropertyOp38
 70
     0
102
RTVSPropertyOp39
 70
     0
102
RTVSPropertyOp40
 70
     0
102
RTVSPropertyOp41
 70
     0
102
RTVSPropertyOp42
 70
     0
102
RTVSPropertyOp43
 70
     0
102
RTVSPropertyOp44
 70
     0
102
RTVSPropertyOp45
 70
     1
102
RTVSPropertyOp46
 70
     0
102
RTVSPropertyOp47
 70
     0
102
RTVSPropertyOp48
 70
     0
102
RTVSPropertyOp49
 70
     1
102
RTVSPropertyOp50
 70
     0
102
RTVSPropertyOp51
 70
     0
102
RTVSPropertyOp52
 70
     0
102
RTVSPropertyOp53
 70
     0
102
RTVSPropertyOp54
 70
     0
102
RTVSPropertyOp55
 70
     1
102
RTVSPropertyOp56
 70
     0
102
RTVSPropertyOp57
 70
     0
102
RTVSPropertyOp58
 70
     0
102
RTVSPropertyOp59
 70
     0
102
RTVSPropertyOp60
 70
     0
102
RTVSPropertyOp61
 70
     0
102
RTVSPropertyOp62
 70
     0
  0
XRECORD
  5
30AA
102
{ACAD_REACTORS
330
30A9
102
}
330
30A9
100
AcDbXrecord
280
     1
102
RTVSPost2010Prop28
280
     0
102
RTVSPost2010PropOp28
 70
     1
102
RTVSPost2010Prop29
280
     1
102
RTVSPost2010PropOp29
 70
     1
102
RTVSPost2010Prop30
280
     1
102
RTVSPost2010PropOp30
 70
     1
102
RTVSPost2010Prop31
280
     0
102
RTVSPost2010PropOp31
 70
     1
102
RTVSPost2010Prop32
280
     0
102
RTVSPost2010PropOp32
 70
     1
102
RTVSPost2010Prop33
280
     0
102
RTVSPost2010PropOp33
 70
     1
102
RTVSPost2010Prop34
280
     0
102
RTVSPost2010PropOp34
 70
     1
102
RTVSPost2010Prop35
280
     0
102
RTVSPost2010PropOp35
 70
     1
102
RTVSPost2010Prop36
280
     0
102
RTVSPost2010PropOp36
 70
     1
102
RTVSPost2010Prop37
 90
       50
102
RTVSPost2010PropOp37
 70
     1
102
RTVSPost2010Prop38
140
0.0
102
RTVSPost2010PropOp38
 70
     1
102
RTVSPost2010Prop39
140
1.0
102
RTVSPost2010PropOp39
 70
     1
102
RTVSPost2010Prop40
 90
        0
102
RTVSPost2010PropOp40
 70
     1
102
RTVSPost2010Prop41ColorIndex
 90
       18
102
RTVSPost2010Prop41ColorRGB
 90
        0
102
RTVSPost2010PropOp41
 70
     1
102
RTVSPost2010Prop42
 90
       50
102
RTVSPost2010PropOp42
 70
     1
102
RTVSPost2010Prop43
 90
        3
102
RTVSPost2010PropOp43
 70
     1
102
RTVSPost2010Prop44ColorIndex
 90
        5
102
RTVSPost2010Prop44ColorRGB
 90
      255
102
RTVSPost2010PropOp44
 70
     1
102
RTVSPost2010Prop45
280
     0
102
RTVSPost2010PropOp45
 70
     1
102
RTVSPost2010Prop46
 90
       50
102
RTVSPost2010PropOp46
 70
     1
102
RTVSPost2010Prop47
 90
       50
102
RTVSPost2010PropOp47
 70
     1
102
RTVSPost2010Prop48
 90
       50
102
RTVSPost2010PropOp48
 70
     1
102
RTVSPost2010Prop49
280
     0
102
RTVSPost2010PropOp49
 70
     1
102
RTVSPost2010Prop50
 90
       50
102
RTVSPost2010PropOp50
 70
     1
102
RTVSPost2010Prop51ColorIndex
 90
      256
102
RTVSPost2010Prop51ColorRGB
 90
-16777216
102
RTVSPost2010PropOp51
 70
     0
102
RTVSPost2010Prop52
140
1.0
102
RTVSPost2010PropOp52
 70
     0
102
RTVSPost2010Prop53
 90
        2
102
RTVSPost2010PropOp53
 70
     1
102
RTVSPost2010Prop54
  1
strokes_ogs.tif
102
RTVSPost2010PropOp54
 70
     1
102
RTVSPost2010Prop55
280
     0
102
RTVSPost2010PropOp55
 70
     1
102
RTVSPost2010Prop56
140
1.0
102
RTVSPost2010PropOp56
 70
     1
102
RTVSPost2010Prop57
140
1.0
102
RTVSPost2010PropOp57
 70
     1
102
RTVSPropertyOp0
 70
     1
102
RTVSPropertyOp1
 70
     1
102
RTVSPropertyOp2
 70
     1
102
RTVSPropertyOp3
 70
     1
102
RTVSPropertyOp4
 70
     1
102
RTVSPropertyOp5
 70
     1
102
RTVSPropertyOp6
 70
     1
102
RTVSPropertyOp7
 70
     1
102
RTVSPropertyOp8
 70
     1
102
RTVSPropertyOp9
 70
     1
102
RTVSPropertyOp10
 70
     1
102
RTVSPropertyOp11
 70
     1
102
RTVSPropertyOp12
 70
     1
102
RTVSPropertyOp13
 70
     1
102
RTVSPropertyOp14
 70
     1
102
RTVSPropertyOp15
 70
     1
102
RTVSPropertyOp16
 70
     1
102
RTVSPropertyOp17
 70
     1
102
RTVSPropertyOp18
 70
     1
102
RTVSPropertyOp19
 70
     1
102
RTVSPropertyOp20
 70
     1
102
RTVSPropertyOp21
 70
     1
102
RTVSPropertyOp22
 70
     1
102
RTVSPropertyOp23
 70
     1
102
RTVSPropertyOp24
 70
     1
102
RTVSPropertyOp25
 70
     1
102
RTVSPropertyOp26
 70
     1
102
RTVSPropertyOp27
 70
     1
102
RTVSPropertyOp28
 70
     1
102
RTVSPropertyOp29
 70
     1
102
RTVSPropertyOp30
 70
     1
102
RTVSPropertyOp31
 70
     1
102
RTVSPropertyOp32
 70
     1
102
RTVSPropertyOp33
 70
     1
102
RTVSPropertyOp34
 70
     1
102
RTVSPropertyOp35
 70
     1
102
RTVSPropertyOp36
 70
     1
102
RTVSPropertyOp37
 70
     1
102
RTVSPropertyOp38
 70
     1
102
RTVSPropertyOp39
 70
     1
102
RTVSPropertyOp40
 70
     1
102
RTVSPropertyOp41
 70
     1
102
RTVSPropertyOp42
 70
     1
102
RTVSPropertyOp43
 70
     1
102
RTVSPropertyOp44
 70
     1
102
RTVSPropertyOp45
 70
     1
102
RTVSPropertyOp46
 70
     1
102
RTVSPropertyOp47
 70
     1
102
RTVSPropertyOp48
 70
     1
102
RTVSPropertyOp49
 70
     1
102
RTVSPropertyOp50
 70
     1
102
RTVSPropertyOp51
 70
     0
102
RTVSPropertyOp52
 70
     0
102
RTVSPropertyOp53
 70
     1
102
RTVSPropertyOp54
 70
     1
102
RTVSPropertyOp55
 70
     1
102
RTVSPropertyOp56
 70
     1
102
RTVSPropertyOp57
 70
     1
102
RTVSPropertyOp58
 70
     1
102
RTVSPropertyOp59
 70
     1
102
RTVSPropertyOp60
 70
     1
102
RTVSPropertyOp61
 70
     1
102
RTVSPropertyOp62
 70
     1
  0
XRECORD
  5
308E
102
{ACAD_REACTORS
330
308D
102
}
330
308D
100
AcDbXrecord
280
     1
102
RTVSPost2010Prop28
280
     0
102
RTVSPost2010PropOp28
 70
     1
102
RTVSPost2010Prop29
280
     1
102
RTVSPost2010PropOp29
 70
     1
102
RTVSPost2010Prop30
280
     1
102
RTVSPost2010PropOp30
 70
     1
102
RTVSPost2010Prop31
280
     0
102
RTVSPost2010PropOp31
 70
     1
102
RTVSPost2010Prop32
280
     0
102
RTVSPost2010PropOp32
 70
     1
102
RTVSPost2010Prop33
280
     0
102
RTVSPost2010PropOp33
 70
     1
102
RTVSPost2010Prop34
280
     0
102
RTVSPost2010PropOp34
 70
     1
102
RTVSPost2010Prop35
280
     0
102
RTVSPost2010PropOp35
 70
     1
102
RTVSPost2010Prop36
280
     0
102
RTVSPost2010PropOp36
 70
     1
102
RTVSPost2010Prop37
 90
       50
102
RTVSPost2010PropOp37
 70
     1
102
RTVSPost2010Prop38
140
0.0
102
RTVSPost2010PropOp38
 70
     1
102
RTVSPost2010Prop39
140
1.0
102
RTVSPost2010PropOp39
 70
     1
102
RTVSPost2010Prop40
 90
        0
102
RTVSPost2010PropOp40
 70
     1
102
RTVSPost2010Prop41ColorIndex
 90
       18
102
RTVSPost2010Prop41ColorRGB
 90
        0
102
RTVSPost2010PropOp41
 70
     1
102
RTVSPost2010Prop42
 90
       50
102
RTVSPost2010PropOp42
 70
     1
102
RTVSPost2010Prop43
 90
        3
102
RTVSPost2010PropOp43
 70
     1
102
RTVSPost2010Prop44ColorIndex
 90
        5
102
RTVSPost2010Prop44ColorRGB
 90
      255
102
RTVSPost2010PropOp44
 70
     1
102
RTVSPost2010Prop45
280
     0
102
RTVSPost2010PropOp45
 70
     1
102
RTVSPost2010Prop46
 90
       50
102
RTVSPost2010PropOp46
 70
     1
102
RTVSPost2010Prop47
 90
       50
102
RTVSPost2010PropOp47
 70
     1
102
RTVSPost2010Prop48
 90
       50
102
RTVSPost2010PropOp48
 70
     1
102
RTVSPost2010Prop49
280
     0
102
RTVSPost2010PropOp49
 70
     1
102
RTVSPost2010Prop50
 90
       50
102
RTVSPost2010PropOp50
 70
     1
102
RTVSPost2010Prop51ColorIndex
 90
      256
102
RTVSPost2010Prop51ColorRGB
 90
-16777216
102
RTVSPost2010PropOp51
 70
     0
102
RTVSPost2010Prop52
140
1.0
102
RTVSPost2010PropOp52
 70
     0
102
RTVSPost2010Prop53
 90
        2
102
RTVSPost2010PropOp53
 70
     1
102
RTVSPost2010Prop54
  1
strokes_ogs.tif
102
RTVSPost2010PropOp54
 70
     1
102
RTVSPost2010Prop55
280
     0
102
RTVSPost2010PropOp55
 70
     1
102
RTVSPost2010Prop56
140
1.0
102
RTVSPost2010PropOp56
 70
     1
102
RTVSPost2010Prop57
140
1.0
102
RTVSPost2010PropOp57
 70
     1
102
RTVSPropertyOp0
 70
     1
102
RTVSPropertyOp1
 70
     1
102
RTVSPropertyOp2
 70
     1
102
RTVSPropertyOp3
 70
     1
102
RTVSPropertyOp4
 70
     1
102
RTVSPropertyOp5
 70
     1
102
RTVSPropertyOp6
 70
     1
102
RTVSPropertyOp7
 70
     1
102
RTVSPropertyOp8
 70
     1
102
RTVSPropertyOp9
 70
     1
102
RTVSPropertyOp10
 70
     1
102
RTVSPropertyOp11
 70
     1
102
RTVSPropertyOp12
 70
     1
102
RTVSPropertyOp13
 70
     1
102
RTVSPropertyOp14
 70
     1
102
RTVSPropertyOp15
 70
     1
102
RTVSPropertyOp16
 70
     1
102
RTVSPropertyOp17
 70
     1
102
RTVSPropertyOp18
 70
     1
102
RTVSPropertyOp19
 70
     1
102
RTVSPropertyOp20
 70
     1
102
RTVSPropertyOp21
 70
     1
102
RTVSPropertyOp22
 70
     1
102
RTVSPropertyOp23
 70
     1
102
RTVSPropertyOp24
 70
     1
102
RTVSPropertyOp25
 70
     1
102
RTVSPropertyOp26
 70
     1
102
RTVSPropertyOp27
 70
     1
102
RTVSPropertyOp28
 70
     1
102
RTVSPropertyOp29
 70
     1
102
RTVSPropertyOp30
 70
     1
102
RTVSPropertyOp31
 70
     1
102
RTVSPropertyOp32
 70
     1
102
RTVSPropertyOp33
 70
     1
102
RTVSPropertyOp34
 70
     1
102
RTVSPropertyOp35
 70
     1
102
RTVSPropertyOp36
 70
     1
102
RTVSPropertyOp37
 70
     1
102
RTVSPropertyOp38
 70
     1
102
RTVSPropertyOp39
 70
     1
102
RTVSPropertyOp40
 70
     1
102
RTVSPropertyOp41
 70
     1
102
RTVSPropertyOp42
 70
     1
102
RTVSPropertyOp43
 70
     1
102
RTVSPropertyOp44
 70
     1
102
RTVSPropertyOp45
 70
     1
102
RTVSPropertyOp46
 70
     1
102
RTVSPropertyOp47
 70
     1
102
RTVSPropertyOp48
 70
     1
102
RTVSPropertyOp49
 70
     1
102
RTVSPropertyOp50
 70
     1
102
RTVSPropertyOp51
 70
     0
102
RTVSPropertyOp52
 70
     0
102
RTVSPropertyOp53
 70
     1
102
RTVSPropertyOp54
 70
     1
102
RTVSPropertyOp55
 70
     1
102
RTVSPropertyOp56
 70
     1
102
RTVSPropertyOp57
 70
     1
102
RTVSPropertyOp58
 70
     1
102
RTVSPropertyOp59
 70
     1
102
RTVSPropertyOp60
 70
     1
102
RTVSPropertyOp61
 70
     1
102
RTVSPropertyOp62
 70
     1
  0
XRECORD
  5
3090
102
{ACAD_REACTORS
330
308F
102
}
330
308F
100
AcDbXrecord
280
     1
102
RTVSPost2010Prop28
280
     0
102
RTVSPost2010PropOp28
 70
     1
102
RTVSPost2010Prop29
280
     1
102
RTVSPost2010PropOp29
 70
     1
102
RTVSPost2010Prop30
280
     1
102
RTVSPost2010PropOp30
 70
     1
102
RTVSPost2010Prop31
280
     0
102
RTVSPost2010PropOp31
 70
     1
102
RTVSPost2010Prop32
280
     0
102
RTVSPost2010PropOp32
 70
     1
102
RTVSPost2010Prop33
280
     0
102
RTVSPost2010PropOp33
 70
     1
102
RTVSPost2010Prop34
280
     0
102
RTVSPost2010PropOp34
 70
     1
102
RTVSPost2010Prop35
280
     0
102
RTVSPost2010PropOp35
 70
     1
102
RTVSPost2010Prop36
280
     0
102
RTVSPost2010PropOp36
 70
     1
102
RTVSPost2010Prop37
 90
       50
102
RTVSPost2010PropOp37
 70
     1
102
RTVSPost2010Prop38
140
0.0
102
RTVSPost2010PropOp38
 70
     1
102
RTVSPost2010Prop39
140
1.0
102
RTVSPost2010PropOp39
 70
     1
102
RTVSPost2010Prop40
 90
        0
102
RTVSPost2010PropOp40
 70
     1
102
RTVSPost2010Prop41ColorIndex
 90
       18
102
RTVSPost2010Prop41ColorRGB
 90
        0
102
RTVSPost2010PropOp41
 70
     1
102
RTVSPost2010Prop42
 90
       50
102
RTVSPost2010PropOp42
 70
     1
102
RTVSPost2010Prop43
 90
        3
102
RTVSPost2010PropOp43
 70
     1
102
RTVSPost2010Prop44ColorIndex
 90
        5
102
RTVSPost2010Prop44ColorRGB
 90
      255
102
RTVSPost2010PropOp44
 70
     1
102
RTVSPost2010Prop45
280
     0
102
RTVSPost2010PropOp45
 70
     1
102
RTVSPost2010Prop46
 90
       50
102
RTVSPost2010PropOp46
 70
     1
102
RTVSPost2010Prop47
 90
       50
102
RTVSPost2010PropOp47
 70
     1
102
RTVSPost2010Prop48
 90
       50
102
RTVSPost2010PropOp48
 70
     1
102
RTVSPost2010Prop49
280
     0
102
RTVSPost2010PropOp49
 70
     1
102
RTVSPost2010Prop50
 90
       50
102
RTVSPost2010PropOp50
 70
     1
102
RTVSPost2010Prop51ColorIndex
 90
      256
102
RTVSPost2010Prop51ColorRGB
 90
-16777216
102
RTVSPost2010PropOp51
 70
     0
102
RTVSPost2010Prop52
140
1.0
102
RTVSPost2010PropOp52
 70
     0
102
RTVSPost2010Prop53
 90
        2
102
RTVSPost2010PropOp53
 70
     1
102
RTVSPost2010Prop54
  1
strokes_ogs.tif
102
RTVSPost2010PropOp54
 70
     1
102
RTVSPost2010Prop55
280
     0
102
RTVSPost2010PropOp55
 70
     1
102
RTVSPost2010Prop56
140
1.0
102
RTVSPost2010PropOp56
 70
     1
102
RTVSPost2010Prop57
140
1.0
102
RTVSPost2010PropOp57
 70
     1
102
RTVSPropertyOp0
 70
     1
102
RTVSPropertyOp1
 70
     1
102
RTVSPropertyOp2
 70
     1
102
RTVSPropertyOp3
 70
     1
102
RTVSPropertyOp4
 70
     1
102
RTVSPropertyOp5
 70
     1
102
RTVSPropertyOp6
 70
     1
102
RTVSPropertyOp7
 70
     1
102
RTVSPropertyOp8
 70
     1
102
RTVSPropertyOp9
 70
     1
102
RTVSPropertyOp10
 70
     1
102
RTVSPropertyOp11
 70
     1
102
RTVSPropertyOp12
 70
     1
102
RTVSPropertyOp13
 70
     1
102
RTVSPropertyOp14
 70
     1
102
RTVSPropertyOp15
 70
     1
102
RTVSPropertyOp16
 70
     1
102
RTVSPropertyOp17
 70
     1
102
RTVSPropertyOp18
 70
     1
102
RTVSPropertyOp19
 70
     1
102
RTVSPropertyOp20
 70
     1
102
RTVSPropertyOp21
 70
     1
102
RTVSPropertyOp22
 70
     1
102
RTVSPropertyOp23
 70
     1
102
RTVSPropertyOp24
 70
     1
102
RTVSPropertyOp25
 70
     1
102
RTVSPropertyOp26
 70
     1
102
RTVSPropertyOp27
 70
     1
102
RTVSPropertyOp28
 70
     1
102
RTVSPropertyOp29
 70
     1
102
RTVSPropertyOp30
 70
     1
102
RTVSPropertyOp31
 70
     1
102
RTVSPropertyOp32
 70
     1
102
RTVSPropertyOp33
 70
     1
102
RTVSPropertyOp34
 70
     1
102
RTVSPropertyOp35
 70
     1
102
RTVSPropertyOp36
 70
     1
102
RTVSPropertyOp37
 70
     1
102
RTVSPropertyOp38
 70
     1
102
RTVSPropertyOp39
 70
     1
102
RTVSPropertyOp40
 70
     1
102
RTVSPropertyOp41
 70
     1
102
RTVSPropertyOp42
 70
     1
102
RTVSPropertyOp43
 70
     1
102
RTVSPropertyOp44
 70
     1
102
RTVSPropertyOp45
 70
     1
102
RTVSPropertyOp46
 70
     1
102
RTVSPropertyOp47
 70
     1
102
RTVSPropertyOp48
 70
     1
102
RTVSPropertyOp49
 70
     1
102
RTVSPropertyOp50
 70
     1
102
RTVSPropertyOp51
 70
     0
102
RTVSPropertyOp52
 70
     0
102
RTVSPropertyOp53
 70
     1
102
RTVSPropertyOp54
 70
     1
102
RTVSPropertyOp55
 70
     1
102
RTVSPropertyOp56
 70
     1
102
RTVSPropertyOp57
 70
     1
102
RTVSPropertyOp58
 70
     1
102
RTVSPropertyOp59
 70
     1
102
RTVSPropertyOp60
 70
     1
102
RTVSPropertyOp61
 70
     1
102
RTVSPropertyOp62
 70
     1
  0
XRECORD
  5
3092
102
{ACAD_REACTORS
330
3091
102
}
330
3091
100
AcDbXrecord
280
     1
102
RTVSPost2010Prop28
280
     0
102
RTVSPost2010PropOp28
 70
     1
102
RTVSPost2010Prop29
280
     1
102
RTVSPost2010PropOp29
 70
     1
102
RTVSPost2010Prop30
280
     1
102
RTVSPost2010PropOp30
 70
     1
102
RTVSPost2010Prop31
280
     0
102
RTVSPost2010PropOp31
 70
     1
102
RTVSPost2010Prop32
280
     0
102
RTVSPost2010PropOp32
 70
     1
102
RTVSPost2010Prop33
280
     0
102
RTVSPost2010PropOp33
 70
     1
102
RTVSPost2010Prop34
280
     0
102
RTVSPost2010PropOp34
 70
     1
102
RTVSPost2010Prop35
280
     0
102
RTVSPost2010PropOp35
 70
     1
102
RTVSPost2010Prop36
280
     0
102
RTVSPost2010PropOp36
 70
     1
102
RTVSPost2010Prop37
 90
       50
102
RTVSPost2010PropOp37
 70
     1
102
RTVSPost2010Prop38
140
0.0
102
RTVSPost2010PropOp38
 70
     1
102
RTVSPost2010Prop39
140
1.0
102
RTVSPost2010PropOp39
 70
     1
102
RTVSPost2010Prop40
 90
        0
102
RTVSPost2010PropOp40
 70
     1
102
RTVSPost2010Prop41ColorIndex
 90
       18
102
RTVSPost2010Prop41ColorRGB
 90
        0
102
RTVSPost2010PropOp41
 70
     1
102
RTVSPost2010Prop42
 90
       50
102
RTVSPost2010PropOp42
 70
     1
102
RTVSPost2010Prop43
 90
        3
102
RTVSPost2010PropOp43
 70
     1
102
RTVSPost2010Prop44ColorIndex
 90
        5
102
RTVSPost2010Prop44ColorRGB
 90
      255
102
RTVSPost2010PropOp44
 70
     1
102
RTVSPost2010Prop45
280
     0
102
RTVSPost2010PropOp45
 70
     1
102
RTVSPost2010Prop46
 90
       50
102
RTVSPost2010PropOp46
 70
     1
102
RTVSPost2010Prop47
 90
       50
102
RTVSPost2010PropOp47
 70
     1
102
RTVSPost2010Prop48
 90
       50
102
RTVSPost2010PropOp48
 70
     1
102
RTVSPost2010Prop49
280
     0
102
RTVSPost2010PropOp49
 70
     1
102
RTVSPost2010Prop50
 90
       50
102
RTVSPost2010PropOp50
 70
     1
102
RTVSPost2010Prop51ColorIndex
 90
      256
102
RTVSPost2010Prop51ColorRGB
 90
-16777216
102
RTVSPost2010PropOp51
 70
     0
102
RTVSPost2010Prop52
140
1.0
102
RTVSPost2010PropOp52
 70
     0
102
RTVSPost2010Prop53
 90
        2
102
RTVSPost2010PropOp53
 70
     1
102
RTVSPost2010Prop54
  1
strokes_ogs.tif
102
RTVSPost2010PropOp54
 70
     1
102
RTVSPost2010Prop55
280
     0
102
RTVSPost2010PropOp55
 70
     1
102
RTVSPost2010Prop56
140
1.0
102
RTVSPost2010PropOp56
 70
     1
102
RTVSPost2010Prop57
140
1.0
102
RTVSPost2010PropOp57
 70
     1
102
RTVSPropertyOp0
 70
     1
102
RTVSPropertyOp1
 70
     1
102
RTVSPropertyOp2
 70
     1
102
RTVSPropertyOp3
 70
     1
102
RTVSPropertyOp4
 70
     1
102
RTVSPropertyOp5
 70
     1
102
RTVSPropertyOp6
 70
     1
102
RTVSPropertyOp7
 70
     1
102
RTVSPropertyOp8
 70
     1
102
RTVSPropertyOp9
 70
     1
102
RTVSPropertyOp10
 70
     1
102
RTVSPropertyOp11
 70
     1
102
RTVSPropertyOp12
 70
     1
102
RTVSPropertyOp13
 70
     1
102
RTVSPropertyOp14
 70
     1
102
RTVSPropertyOp15
 70
     1
102
RTVSPropertyOp16
 70
     1
102
RTVSPropertyOp17
 70
     1
102
RTVSPropertyOp18
 70
     1
102
RTVSPropertyOp19
 70
     1
102
RTVSPropertyOp20
 70
     1
102
RTVSPropertyOp21
 70
     1
102
RTVSPropertyOp22
 70
     1
102
RTVSPropertyOp23
 70
     1
102
RTVSPropertyOp24
 70
     1
102
RTVSPropertyOp25
 70
     1
102
RTVSPropertyOp26
 70
     1
102
RTVSPropertyOp27
 70
     1
102
RTVSPropertyOp28
 70
     1
102
RTVSPropertyOp29
 70
     1
102
RTVSPropertyOp30
 70
     1
102
RTVSPropertyOp31
 70
     1
102
RTVSPropertyOp32
 70
     1
102
RTVSPropertyOp33
 70
     1
102
RTVSPropertyOp34
 70
     1
102
RTVSPropertyOp35
 70
     1
102
RTVSPropertyOp36
 70
     1
102
RTVSPropertyOp37
 70
     1
102
RTVSPropertyOp38
 70
     1
102
RTVSPropertyOp39
 70
     1
102
RTVSPropertyOp40
 70
     1
102
RTVSPropertyOp41
 70
     1
102
RTVSPropertyOp42
 70
     1
102
RTVSPropertyOp43
 70
     1
102
RTVSPropertyOp44
 70
     1
102
RTVSPropertyOp45
 70
     1
102
RTVSPropertyOp46
 70
     1
102
RTVSPropertyOp47
 70
     1
102
RTVSPropertyOp48
 70
     1
102
RTVSPropertyOp49
 70
     1
102
RTVSPropertyOp50
 70
     1
102
RTVSPropertyOp51
 70
     0
102
RTVSPropertyOp52
 70
     0
102
RTVSPropertyOp53
 70
     1
102
RTVSPropertyOp54
 70
     1
102
RTVSPropertyOp55
 70
     1
102
RTVSPropertyOp56
 70
     1
102
RTVSPropertyOp57
 70
     1
102
RTVSPropertyOp58
 70
     1
102
RTVSPropertyOp59
 70
     1
102
RTVSPropertyOp60
 70
     1
102
RTVSPropertyOp61
 70
     1
102
RTVSPropertyOp62
 70
     1
  0
XRECORD
  5
3094
102
{ACAD_REACTORS
330
3093
102
}
330
3093
100
AcDbXrecord
280
     1
102
RTVSPost2010Prop28
280
     0
102
RTVSPost2010PropOp28
 70
     1
102
RTVSPost2010Prop29
280
     1
102
RTVSPost2010PropOp29
 70
     1
102
RTVSPost2010Prop30
280
     1
102
RTVSPost2010PropOp30
 70
     1
102
RTVSPost2010Prop31
280
     0
102
RTVSPost2010PropOp31
 70
     1
102
RTVSPost2010Prop32
280
     0
102
RTVSPost2010PropOp32
 70
     1
102
RTVSPost2010Prop33
280
     0
102
RTVSPost2010PropOp33
 70
     1
102
RTVSPost2010Prop34
280
     0
102
RTVSPost2010PropOp34
 70
     1
102
RTVSPost2010Prop35
280
     0
102
RTVSPost2010PropOp35
 70
     1
102
RTVSPost2010Prop36
280
     0
102
RTVSPost2010PropOp36
 70
     1
102
RTVSPost2010Prop37
 90
       50
102
RTVSPost2010PropOp37
 70
     1
102
RTVSPost2010Prop38
140
0.0
102
RTVSPost2010PropOp38
 70
     1
102
RTVSPost2010Prop39
140
1.0
102
RTVSPost2010PropOp39
 70
     1
102
RTVSPost2010Prop40
 90
        0
102
RTVSPost2010PropOp40
 70
     1
102
RTVSPost2010Prop41ColorIndex
 90
       18
102
RTVSPost2010Prop41ColorRGB
 90
        0
102
RTVSPost2010PropOp41
 70
     1
102
RTVSPost2010Prop42
 90
       50
102
RTVSPost2010PropOp42
 70
     1
102
RTVSPost2010Prop43
 90
        3
102
RTVSPost2010PropOp43
 70
     1
102
RTVSPost2010Prop44ColorIndex
 90
        5
102
RTVSPost2010Prop44ColorRGB
 90
      255
102
RTVSPost2010PropOp44
 70
     1
102
RTVSPost2010Prop45
280
     0
102
RTVSPost2010PropOp45
 70
     1
102
RTVSPost2010Prop46
 90
       50
102
RTVSPost2010PropOp46
 70
     1
102
RTVSPost2010Prop47
 90
       50
102
RTVSPost2010PropOp47
 70
     1
102
RTVSPost2010Prop48
 90
       50
102
RTVSPost2010PropOp48
 70
     1
102
RTVSPost2010Prop49
280
     0
102
RTVSPost2010PropOp49
 70
     1
102
RTVSPost2010Prop50
 90
       50
102
RTVSPost2010PropOp50
 70
     1
102
RTVSPost2010Prop51ColorIndex
 90
      256
102
RTVSPost2010Prop51ColorRGB
 90
-16777216
102
RTVSPost2010PropOp51
 70
     0
102
RTVSPost2010Prop52
140
1.0
102
RTVSPost2010PropOp52
 70
     0
102
RTVSPost2010Prop53
 90
        2
102
RTVSPost2010PropOp53
 70
     1
102
RTVSPost2010Prop54
  1
strokes_ogs.tif
102
RTVSPost2010PropOp54
 70
     1
102
RTVSPost2010Prop55
280
     0
102
RTVSPost2010PropOp55
 70
     1
102
RTVSPost2010Prop56
140
1.0
102
RTVSPost2010PropOp56
 70
     1
102
RTVSPost2010Prop57
140
1.0
102
RTVSPost2010PropOp57
 70
     1
102
RTVSPropertyOp0
 70
     1
102
RTVSPropertyOp1
 70
     1
102
RTVSPropertyOp2
 70
     1
102
RTVSPropertyOp3
 70
     1
102
RTVSPropertyOp4
 70
     1
102
RTVSPropertyOp5
 70
     1
102
RTVSPropertyOp6
 70
     1
102
RTVSPropertyOp7
 70
     1
102
RTVSPropertyOp8
 70
     1
102
RTVSPropertyOp9
 70
     1
102
RTVSPropertyOp10
 70
     1
102
RTVSPropertyOp11
 70
     1
102
RTVSPropertyOp12
 70
     1
102
RTVSPropertyOp13
 70
     1
102
RTVSPropertyOp14
 70
     1
102
RTVSPropertyOp15
 70
     1
102
RTVSPropertyOp16
 70
     1
102
RTVSPropertyOp17
 70
     1
102
RTVSPropertyOp18
 70
     1
102
RTVSPropertyOp19
 70
     1
102
RTVSPropertyOp20
 70
     1
102
RTVSPropertyOp21
 70
     1
102
RTVSPropertyOp22
 70
     1
102
RTVSPropertyOp23
 70
     1
102
RTVSPropertyOp24
 70
     1
102
RTVSPropertyOp25
 70
     1
102
RTVSPropertyOp26
 70
     1
102
RTVSPropertyOp27
 70
     1
102
RTVSPropertyOp28
 70
     1
102
RTVSPropertyOp29
 70
     1
102
RTVSPropertyOp30
 70
     1
102
RTVSPropertyOp31
 70
     1
102
RTVSPropertyOp32
 70
     1
102
RTVSPropertyOp33
 70
     1
102
RTVSPropertyOp34
 70
     1
102
RTVSPropertyOp35
 70
     1
102
RTVSPropertyOp36
 70
     1
102
RTVSPropertyOp37
 70
     1
102
RTVSPropertyOp38
 70
     1
102
RTVSPropertyOp39
 70
     1
102
RTVSPropertyOp40
 70
     1
102
RTVSPropertyOp41
 70
     1
102
RTVSPropertyOp42
 70
     1
102
RTVSPropertyOp43
 70
     1
102
RTVSPropertyOp44
 70
     1
102
RTVSPropertyOp45
 70
     1
102
RTVSPropertyOp46
 70
     1
102
RTVSPropertyOp47
 70
     1
102
RTVSPropertyOp48
 70
     1
102
RTVSPropertyOp49
 70
     1
102
RTVSPropertyOp50
 70
     1
102
RTVSPropertyOp51
 70
     0
102
RTVSPropertyOp52
 70
     0
102
RTVSPropertyOp53
 70
     1
102
RTVSPropertyOp54
 70
     1
102
RTVSPropertyOp55
 70
     1
102
RTVSPropertyOp56
 70
     1
102
RTVSPropertyOp57
 70
     1
102
RTVSPropertyOp58
 70
     1
102
RTVSPropertyOp59
 70
     1
102
RTVSPropertyOp60
 70
     1
102
RTVSPropertyOp61
 70
     1
102
RTVSPropertyOp62
 70
     1
  0
XRECORD
  5
309C
102
{ACAD_REACTORS
330
309B
102
}
330
309B
100
AcDbXrecord
280
     1
102
RTVSPost2010Prop28
280
     0
102
RTVSPost2010PropOp28
 70
     1
102
RTVSPost2010Prop29
280
     1
102
RTVSPost2010PropOp29
 70
     1
102
RTVSPost2010Prop30
280
     1
102
RTVSPost2010PropOp30
 70
     1
102
RTVSPost2010Prop31
280
     0
102
RTVSPost2010PropOp31
 70
     1
102
RTVSPost2010Prop32
280
     0
102
RTVSPost2010PropOp32
 70
     1
102
RTVSPost2010Prop33
280
     0
102
RTVSPost2010PropOp33
 70
     1
102
RTVSPost2010Prop34
280
     0
102
RTVSPost2010PropOp34
 70
     1
102
RTVSPost2010Prop35
280
     0
102
RTVSPost2010PropOp35
 70
     1
102
RTVSPost2010Prop36
280
     0
102
RTVSPost2010PropOp36
 70
     1
102
RTVSPost2010Prop37
 90
       50
102
RTVSPost2010PropOp37
 70
     1
102
RTVSPost2010Prop38
140
0.0
102
RTVSPost2010PropOp38
 70
     1
102
RTVSPost2010Prop39
140
1.0
102
RTVSPost2010PropOp39
 70
     1
102
RTVSPost2010Prop40
 90
        0
102
RTVSPost2010PropOp40
 70
     1
102
RTVSPost2010Prop41ColorIndex
 90
       18
102
RTVSPost2010Prop41ColorRGB
 90
        0
102
RTVSPost2010PropOp41
 70
     1
102
RTVSPost2010Prop42
 90
       50
102
RTVSPost2010PropOp42
 70
     1
102
RTVSPost2010Prop43
 90
        3
102
RTVSPost2010PropOp43
 70
     1
102
RTVSPost2010Prop44ColorIndex
 90
        5
102
RTVSPost2010Prop44ColorRGB
 90
      255
102
RTVSPost2010PropOp44
 70
     1
102
RTVSPost2010Prop45
280
     0
102
RTVSPost2010PropOp45
 70
     1
102
RTVSPost2010Prop46
 90
       50
102
RTVSPost2010PropOp46
 70
     1
102
RTVSPost2010Prop47
 90
       50
102
RTVSPost2010PropOp47
 70
     1
102
RTVSPost2010Prop48
 90
       50
102
RTVSPost2010PropOp48
 70
     1
102
RTVSPost2010Prop49
280
     0
102
RTVSPost2010PropOp49
 70
     1
102
RTVSPost2010Prop50
 90
       50
102
RTVSPost2010PropOp50
 70
     1
102
RTVSPost2010Prop51ColorIndex
 90
      256
102
RTVSPost2010Prop51ColorRGB
 90
-16777216
102
RTVSPost2010PropOp51
 70
     0
102
RTVSPost2010Prop52
140
1.0
102
RTVSPost2010PropOp52
 70
     0
102
RTVSPost2010Prop53
 90
        2
102
RTVSPost2010PropOp53
 70
     1
102
RTVSPost2010Prop54
  1
strokes_ogs.tif
102
RTVSPost2010PropOp54
 70
     1
102
RTVSPost2010Prop55
280
     0
102
RTVSPost2010PropOp55
 70
     1
102
RTVSPost2010Prop56
140
1.0
102
RTVSPost2010PropOp56
 70
     1
102
RTVSPost2010Prop57
140
1.0
102
RTVSPost2010PropOp57
 70
     1
102
RTVSPropertyOp0
 70
     1
102
RTVSPropertyOp1
 70
     1
102
RTVSPropertyOp2
 70
     1
102
RTVSPropertyOp3
 70
     1
102
RTVSPropertyOp4
 70
     1
102
RTVSPropertyOp5
 70
     1
102
RTVSPropertyOp6
 70
     1
102
RTVSPropertyOp7
 70
     1
102
RTVSPropertyOp8
 70
     1
102
RTVSPropertyOp9
 70
     1
102
RTVSPropertyOp10
 70
     1
102
RTVSPropertyOp11
 70
     1
102
RTVSPropertyOp12
 70
     1
102
RTVSPropertyOp13
 70
     1
102
RTVSPropertyOp14
 70
     1
102
RTVSPropertyOp15
 70
     1
102
RTVSPropertyOp16
 70
     1
102
RTVSPropertyOp17
 70
     1
102
RTVSPropertyOp18
 70
     1
102
RTVSPropertyOp19
 70
     1
102
RTVSPropertyOp20
 70
     1
102
RTVSPropertyOp21
 70
     1
102
RTVSPropertyOp22
 70
     1
102
RTVSPropertyOp23
 70
     1
102
RTVSPropertyOp24
 70
     1
102
RTVSPropertyOp25
 70
     1
102
RTVSPropertyOp26
 70
     1
102
RTVSPropertyOp27
 70
     1
102
RTVSPropertyOp28
 70
     1
102
RTVSPropertyOp29
 70
     1
102
RTVSPropertyOp30
 70
     1
102
RTVSPropertyOp31
 70
     1
102
RTVSPropertyOp32
 70
     1
102
RTVSPropertyOp33
 70
     1
102
RTVSPropertyOp34
 70
     1
102
RTVSPropertyOp35
 70
     1
102
RTVSPropertyOp36
 70
     1
102
RTVSPropertyOp37
 70
     1
102
RTVSPropertyOp38
 70
     1
102
RTVSPropertyOp39
 70
     1
102
RTVSPropertyOp40
 70
     1
102
RTVSPropertyOp41
 70
     1
102
RTVSPropertyOp42
 70
     1
102
RTVSPropertyOp43
 70
     1
102
RTVSPropertyOp44
 70
     1
102
RTVSPropertyOp45
 70
     1
102
RTVSPropertyOp46
 70
     1
102
RTVSPropertyOp47
 70
     1
102
RTVSPropertyOp48
 70
     1
102
RTVSPropertyOp49
 70
     1
102
RTVSPropertyOp50
 70
     1
102
RTVSPropertyOp51
 70
     0
102
RTVSPropertyOp52
 70
     0
102
RTVSPropertyOp53
 70
     1
102
RTVSPropertyOp54
 70
     1
102
RTVSPropertyOp55
 70
     1
102
RTVSPropertyOp56
 70
     1
102
RTVSPropertyOp57
 70
     1
102
RTVSPropertyOp58
 70
     1
102
RTVSPropertyOp59
 70
     1
102
RTVSPropertyOp60
 70
     1
102
RTVSPropertyOp61
 70
     1
102
RTVSPropertyOp62
 70
     1
  0
XRECORD
  5
30B8
102
{ACAD_REACTORS
330
30B7
102
}
330
30B7
100
AcDbXrecord
280
     1
102
RTVSPost2010Prop28
280
     0
102
RTVSPost2010PropOp28
 70
     1
102
RTVSPost2010Prop29
280
     1
102
RTVSPost2010PropOp29
 70
     1
102
RTVSPost2010Prop30
280
     1
102
RTVSPost2010PropOp30
 70
     1
102
RTVSPost2010Prop31
280
     0
102
RTVSPost2010PropOp31
 70
     1
102
RTVSPost2010Prop32
280
     0
102
RTVSPost2010PropOp32
 70
     1
102
RTVSPost2010Prop33
280
     0
102
RTVSPost2010PropOp33
 70
     1
102
RTVSPost2010Prop34
280
     0
102
RTVSPost2010PropOp34
 70
     1
102
RTVSPost2010Prop35
280
     0
102
RTVSPost2010PropOp35
 70
     1
102
RTVSPost2010Prop36
280
     0
102
RTVSPost2010PropOp36
 70
     1
102
RTVSPost2010Prop37
 90
       50
102
RTVSPost2010PropOp37
 70
     0
102
RTVSPost2010Prop38
140
0.0
102
RTVSPost2010PropOp38
 70
     0
102
RTVSPost2010Prop39
140
1.0
102
RTVSPost2010PropOp39
 70
     0
102
RTVSPost2010Prop40
 90
        0
102
RTVSPost2010PropOp40
 70
     0
102
RTVSPost2010Prop41ColorIndex
 90
       18
102
RTVSPost2010Prop41ColorRGB
 90
        0
102
RTVSPost2010PropOp41
 70
     0
102
RTVSPost2010Prop42
 90
       50
102
RTVSPost2010PropOp42
 70
     0
102
RTVSPost2010Prop43
 90
        3
102
RTVSPost2010PropOp43
 70
     0
102
RTVSPost2010Prop44ColorIndex
 90
        5
102
RTVSPost2010Prop44ColorRGB
 90
      255
102
RTVSPost2010PropOp44
 70
     0
102
RTVSPost2010Prop45
280
     0
102
RTVSPost2010PropOp45
 70
     1
102
RTVSPost2010Prop46
 90
       50
102
RTVSPost2010PropOp46
 70
     0
102
RTVSPost2010Prop47
 90
       50
102
RTVSPost2010PropOp47
 70
     0
102
RTVSPost2010Prop48
 90
       50
102
RTVSPost2010PropOp48
 70
     0
102
RTVSPost2010Prop49
280
     0
102
RTVSPost2010PropOp49
 70
     1
102
RTVSPost2010Prop50
 90
       50
102
RTVSPost2010PropOp50
 70
     0
102
RTVSPost2010Prop51ColorIndex
 90
      256
102
RTVSPost2010Prop51ColorRGB
 90
-16777216
102
RTVSPost2010PropOp51
 70
     0
102
RTVSPost2010Prop52
140
1.0
102
RTVSPost2010PropOp52
 70
     0
102
RTVSPost2010Prop53
 90
        2
102
RTVSPost2010PropOp53
 70
     0
102
RTVSPost2010Prop54
  1
strokes_ogs.tif
102
RTVSPost2010PropOp54
 70
     0
102
RTVSPost2010Prop55
280
     0
102
RTVSPost2010PropOp55
 70
     1
102
RTVSPost2010Prop56
140
1.0
102
RTVSPost2010PropOp56
 70
     0
102
RTVSPost2010Prop57
140
1.0
102
RTVSPost2010PropOp57
 70
     0
102
RTVSPropertyOp0
 70
     0
102
RTVSPropertyOp1
 70
     0
102
RTVSPropertyOp2
 70
     0
102
RTVSPropertyOp3
 70
     0
102
RTVSPropertyOp4
 70
     0
102
RTVSPropertyOp5
 70
     0
102
RTVSPropertyOp6
 70
     0
102
RTVSPropertyOp7
 70
     0
102
RTVSPropertyOp8
 70
     0
102
RTVSPropertyOp9
 70
     0
102
RTVSPropertyOp10
 70
     0
102
RTVSPropertyOp11
 70
     0
102
RTVSPropertyOp12
 70
     0
102
RTVSPropertyOp13
 70
     0
102
RTVSPropertyOp14
 70
     2
102
RTVSPropertyOp15
 70
     0
102
RTVSPropertyOp16
 70
     0
102
RTVSPropertyOp17
 70
     0
102
RTVSPropertyOp18
 70
     0
102
RTVSPropertyOp19
 70
     0
102
RTVSPropertyOp20
 70
     0
102
RTVSPropertyOp21
 70
     0
102
RTVSPropertyOp22
 70
     0
102
RTVSPropertyOp23
 70
     0
102
RTVSPropertyOp24
 70
     0
102
RTVSPropertyOp25
 70
     0
102
RTVSPropertyOp26
 70
     0
102
RTVSPropertyOp27
 70
     0
102
RTVSPropertyOp28
 70
     1
102
RTVSPropertyOp29
 70
     1
102
RTVSPropertyOp30
 70
     1
102
RTVSPropertyOp31
 70
     1
102
RTVSPropertyOp32
 70
     1
102
RTVSPropertyOp33
 70
     1
102
RTVSPropertyOp34
 70
     1
102
RTVSPropertyOp35
 70
     1
102
RTVSPropertyOp36
 70
     1
102
RTVSPropertyOp37
 70
     0
102
RTVSPropertyOp38
 70
     0
102
RTVSPropertyOp39
 70
     0
102
RTVSPropertyOp40
 70
     0
102
RTVSPropertyOp41
 70
     0
102
RTVSPropertyOp42
 70
     0
102
RTVSPropertyOp43
 70
     0
102
RTVSPropertyOp44
 70
     0
102
RTVSPropertyOp45
 70
     1
102
RTVSPropertyOp46
 70
     0
102
RTVSPropertyOp47
 70
     0
102
RTVSPropertyOp48
 70
     0
102
RTVSPropertyOp49
 70
     1
102
RTVSPropertyOp50
 70
     0
102
RTVSPropertyOp51
 70
     0
102
RTVSPropertyOp52
 70
     0
102
RTVSPropertyOp53
 70
     0
102
RTVSPropertyOp54
 70
     0
102
RTVSPropertyOp55
 70
     1
102
RTVSPropertyOp56
 70
     0
102
RTVSPropertyOp57
 70
     0
102
RTVSPropertyOp58
 70
     0
102
RTVSPropertyOp59
 70
     0
102
RTVSPropertyOp60
 70
     0
102
RTVSPropertyOp61
 70
     0
102
RTVSPropertyOp62
 70
     0
  0
XRECORD
  5
30A8
102
{ACAD_REACTORS
330
30A7
102
}
330
30A7
100
AcDbXrecord
280
     1
102
RTVSPost2010Prop28
280
     0
102
RTVSPost2010PropOp28
 70
     1
102
RTVSPost2010Prop29
280
     1
102
RTVSPost2010PropOp29
 70
     1
102
RTVSPost2010Prop30
280
     1
102
RTVSPost2010PropOp30
 70
     1
102
RTVSPost2010Prop31
280
     0
102
RTVSPost2010PropOp31
 70
     1
102
RTVSPost2010Prop32
280
     0
102
RTVSPost2010PropOp32
 70
     1
102
RTVSPost2010Prop33
280
     0
102
RTVSPost2010PropOp33
 70
     1
102
RTVSPost2010Prop34
280
     0
102
RTVSPost2010PropOp34
 70
     1
102
RTVSPost2010Prop35
280
     0
102
RTVSPost2010PropOp35
 70
     1
102
RTVSPost2010Prop36
280
     0
102
RTVSPost2010PropOp36
 70
     1
102
RTVSPost2010Prop37
 90
       50
102
RTVSPost2010PropOp37
 70
     1
102
RTVSPost2010Prop38
140
0.0
102
RTVSPost2010PropOp38
 70
     1
102
RTVSPost2010Prop39
140
1.0
102
RTVSPost2010PropOp39
 70
     1
102
RTVSPost2010Prop40
 90
        0
102
RTVSPost2010PropOp40
 70
     1
102
RTVSPost2010Prop41ColorIndex
 90
       18
102
RTVSPost2010Prop41ColorRGB
 90
        0
102
RTVSPost2010PropOp41
 70
     1
102
RTVSPost2010Prop42
 90
       50
102
RTVSPost2010PropOp42
 70
     1
102
RTVSPost2010Prop43
 90
        3
102
RTVSPost2010PropOp43
 70
     1
102
RTVSPost2010Prop44ColorIndex
 90
        5
102
RTVSPost2010Prop44ColorRGB
 90
      255
102
RTVSPost2010PropOp44
 70
     1
102
RTVSPost2010Prop45
280
     0
102
RTVSPost2010PropOp45
 70
     1
102
RTVSPost2010Prop46
 90
       50
102
RTVSPost2010PropOp46
 70
     1
102
RTVSPost2010Prop47
 90
       50
102
RTVSPost2010PropOp47
 70
     1
102
RTVSPost2010Prop48
 90
       50
102
RTVSPost2010PropOp48
 70
     1
102
RTVSPost2010Prop49
280
     0
102
RTVSPost2010PropOp49
 70
     1
102
RTVSPost2010Prop50
 90
       50
102
RTVSPost2010PropOp50
 70
     1
102
RTVSPost2010Prop51ColorIndex
 90
      256
102
RTVSPost2010Prop51ColorRGB
 90
-16777216
102
RTVSPost2010PropOp51
 70
     0
102
RTVSPost2010Prop52
140
1.0
102
RTVSPost2010PropOp52
 70
     0
102
RTVSPost2010Prop53
 90
        2
102
RTVSPost2010PropOp53
 70
     1
102
RTVSPost2010Prop54
  1
strokes_ogs.tif
102
RTVSPost2010PropOp54
 70
     1
102
RTVSPost2010Prop55
280
     0
102
RTVSPost2010PropOp55
 70
     1
102
RTVSPost2010Prop56
140
1.0
102
RTVSPost2010PropOp56
 70
     1
102
RTVSPost2010Prop57
140
1.0
102
RTVSPost2010PropOp57
 70
     1
102
RTVSPropertyOp0
 70
     1
102
RTVSPropertyOp1
 70
     1
102
RTVSPropertyOp2
 70
     1
102
RTVSPropertyOp3
 70
     1
102
RTVSPropertyOp4
 70
     1
102
RTVSPropertyOp5
 70
     1
102
RTVSPropertyOp6
 70
     1
102
RTVSPropertyOp7
 70
     1
102
RTVSPropertyOp8
 70
     1
102
RTVSPropertyOp9
 70
     1
102
RTVSPropertyOp10
 70
     1
102
RTVSPropertyOp11
 70
     1
102
RTVSPropertyOp12
 70
     1
102
RTVSPropertyOp13
 70
     1
102
RTVSPropertyOp14
 70
     1
102
RTVSPropertyOp15
 70
     1
102
RTVSPropertyOp16
 70
     1
102
RTVSPropertyOp17
 70
     1
102
RTVSPropertyOp18
 70
     1
102
RTVSPropertyOp19
 70
     1
102
RTVSPropertyOp20
 70
     1
102
RTVSPropertyOp21
 70
     1
102
RTVSPropertyOp22
 70
     1
102
RTVSPropertyOp23
 70
     1
102
RTVSPropertyOp24
 70
     1
102
RTVSPropertyOp25
 70
     1
102
RTVSPropertyOp26
 70
     1
102
RTVSPropertyOp27
 70
     1
102
RTVSPropertyOp28
 70
     1
102
RTVSPropertyOp29
 70
     1
102
RTVSPropertyOp30
 70
     1
102
RTVSPropertyOp31
 70
     1
102
RTVSPropertyOp32
 70
     1
102
RTVSPropertyOp33
 70
     1
102
RTVSPropertyOp34
 70
     1
102
RTVSPropertyOp35
 70
     1
102
RTVSPropertyOp36
 70
     1
102
RTVSPropertyOp37
 70
     1
102
RTVSPropertyOp38
 70
     1
102
RTVSPropertyOp39
 70
     1
102
RTVSPropertyOp40
 70
     1
102
RTVSPropertyOp41
 70
     1
102
RTVSPropertyOp42
 70
     1
102
RTVSPropertyOp43
 70
     1
102
RTVSPropertyOp44
 70
     1
102
RTVSPropertyOp45
 70
     1
102
RTVSPropertyOp46
 70
     1
102
RTVSPropertyOp47
 70
     1
102
RTVSPropertyOp48
 70
     1
102
RTVSPropertyOp49
 70
     1
102
RTVSPropertyOp50
 70
     1
102
RTVSPropertyOp51
 70
     0
102
RTVSPropertyOp52
 70
     0
102
RTVSPropertyOp53
 70
     1
102
RTVSPropertyOp54
 70
     1
102
RTVSPropertyOp55
 70
     1
102
RTVSPropertyOp56
 70
     1
102
RTVSPropertyOp57
 70
     1
102
RTVSPropertyOp58
 70
     1
102
RTVSPropertyOp59
 70
     1
102
RTVSPropertyOp60
 70
     1
102
RTVSPropertyOp61
 70
     1
102
RTVSPropertyOp62
 70
     1
  0
XRECORD
  5
30BA
102
{ACAD_REACTORS
330
30B9
102
}
330
30B9
100
AcDbXrecord
280
     1
102
RTVSPost2010Prop28
280
     0
102
RTVSPost2010PropOp28
 70
     1
102
RTVSPost2010Prop29
280
     1
102
RTVSPost2010PropOp29
 70
     1
102
RTVSPost2010Prop30
280
     1
102
RTVSPost2010PropOp30
 70
     1
102
RTVSPost2010Prop31
280
     0
102
RTVSPost2010PropOp31
 70
     1
102
RTVSPost2010Prop32
280
     0
102
RTVSPost2010PropOp32
 70
     1
102
RTVSPost2010Prop33
280
     0
102
RTVSPost2010PropOp33
 70
     1
102
RTVSPost2010Prop34
280
     0
102
RTVSPost2010PropOp34
 70
     1
102
RTVSPost2010Prop35
280
     0
102
RTVSPost2010PropOp35
 70
     1
102
RTVSPost2010Prop36
280
     0
102
RTVSPost2010PropOp36
 70
     1
102
RTVSPost2010Prop37
 90
       50
102
RTVSPost2010PropOp37
 70
     0
102
RTVSPost2010Prop38
140
0.0
102
RTVSPost2010PropOp38
 70
     0
102
RTVSPost2010Prop39
140
1.0
102
RTVSPost2010PropOp39
 70
     0
102
RTVSPost2010Prop40
 90
        0
102
RTVSPost2010PropOp40
 70
     0
102
RTVSPost2010Prop41ColorIndex
 90
       18
102
RTVSPost2010Prop41ColorRGB
 90
        0
102
RTVSPost2010PropOp41
 70
     0
102
RTVSPost2010Prop42
 90
       50
102
RTVSPost2010PropOp42
 70
     0
102
RTVSPost2010Prop43
 90
        3
102
RTVSPost2010PropOp43
 70
     0
102
RTVSPost2010Prop44ColorIndex
 90
        5
102
RTVSPost2010Prop44ColorRGB
 90
      255
102
RTVSPost2010PropOp44
 70
     0
102
RTVSPost2010Prop45
280
     0
102
RTVSPost2010PropOp45
 70
     1
102
RTVSPost2010Prop46
 90
       50
102
RTVSPost2010PropOp46
 70
     0
102
RTVSPost2010Prop47
 90
       50
102
RTVSPost2010PropOp47
 70
     0
102
RTVSPost2010Prop48
 90
       50
102
RTVSPost2010PropOp48
 70
     0
102
RTVSPost2010Prop49
280
     0
102
RTVSPost2010PropOp49
 70
     1
102
RTVSPost2010Prop50
 90
       50
102
RTVSPost2010PropOp50
 70
     0
102
RTVSPost2010Prop51ColorIndex
 90
      256
102
RTVSPost2010Prop51ColorRGB
 90
-16777216
102
RTVSPost2010PropOp51
 70
     0
102
RTVSPost2010Prop52
140
1.0
102
RTVSPost2010PropOp52
 70
     0
102
RTVSPost2010Prop53
 90
        2
102
RTVSPost2010PropOp53
 70
     0
102
RTVSPost2010Prop54
  1
strokes_ogs.tif
102
RTVSPost2010PropOp54
 70
     0
102
RTVSPost2010Prop55
280
     0
102
RTVSPost2010PropOp55
 70
     1
102
RTVSPost2010Prop56
140
1.0
102
RTVSPost2010PropOp56
 70
     0
102
RTVSPost2010Prop57
140
1.0
102
RTVSPost2010PropOp57
 70
     0
102
RTVSPropertyOp0
 70
     0
102
RTVSPropertyOp1
 70
     0
102
RTVSPropertyOp2
 70
     0
102
RTVSPropertyOp3
 70
     0
102
RTVSPropertyOp4
 70
     0
102
RTVSPropertyOp5
 70
     0
102
RTVSPropertyOp6
 70
     0
102
RTVSPropertyOp7
 70
     0
102
RTVSPropertyOp8
 70
     0
102
RTVSPropertyOp9
 70
     0
102
RTVSPropertyOp10
 70
     0
102
RTVSPropertyOp11
 70
     0
102
RTVSPropertyOp12
 70
     0
102
RTVSPropertyOp13
 70
     0
102
RTVSPropertyOp14
 70
     2
102
RTVSPropertyOp15
 70
     0
102
RTVSPropertyOp16
 70
     0
102
RTVSPropertyOp17
 70
     0
102
RTVSPropertyOp18
 70
     0
102
RTVSPropertyOp19
 70
     0
102
RTVSPropertyOp20
 70
     0
102
RTVSPropertyOp21
 70
     0
102
RTVSPropertyOp22
 70
     0
102
RTVSPropertyOp23
 70
     0
102
RTVSPropertyOp24
 70
     0
102
RTVSPropertyOp25
 70
     0
102
RTVSPropertyOp26
 70
     0
102
RTVSPropertyOp27
 70
     0
102
RTVSPropertyOp28
 70
     1
102
RTVSPropertyOp29
 70
     1
102
RTVSPropertyOp30
 70
     1
102
RTVSPropertyOp31
 70
     1
102
RTVSPropertyOp32
 70
     1
102
RTVSPropertyOp33
 70
     1
102
RTVSPropertyOp34
 70
     1
102
RTVSPropertyOp35
 70
     1
102
RTVSPropertyOp36
 70
     1
102
RTVSPropertyOp37
 70
     0
102
RTVSPropertyOp38
 70
     0
102
RTVSPropertyOp39
 70
     0
102
RTVSPropertyOp40
 70
     0
102
RTVSPropertyOp41
 70
     0
102
RTVSPropertyOp42
 70
     0
102
RTVSPropertyOp43
 70
     0
102
RTVSPropertyOp44
 70
     0
102
RTVSPropertyOp45
 70
     1
102
RTVSPropertyOp46
 70
     0
102
RTVSPropertyOp47
 70
     0
102
RTVSPropertyOp48
 70
     0
102
RTVSPropertyOp49
 70
     1
102
RTVSPropertyOp50
 70
     0
102
RTVSPropertyOp51
 70
     0
102
RTVSPropertyOp52
 70
     0
102
RTVSPropertyOp53
 70
     0
102
RTVSPropertyOp54
 70
     0
102
RTVSPropertyOp55
 70
     1
102
RTVSPropertyOp56
 70
     0
102
RTVSPropertyOp57
 70
     0
102
RTVSPropertyOp58
 70
     0
102
RTVSPropertyOp59
 70
     0
102
RTVSPropertyOp60
 70
     0
102
RTVSPropertyOp61
 70
     0
102
RTVSPropertyOp62
 70
     0
  0
XRECORD
  5
30A0
102
{ACAD_REACTORS
330
309F
102
}
330
309F
100
AcDbXrecord
280
     1
102
RTVSPost2010Prop28
280
     0
102
RTVSPost2010PropOp28
 70
     1
102
RTVSPost2010Prop29
280
     1
102
RTVSPost2010PropOp29
 70
     1
102
RTVSPost2010Prop30
280
     1
102
RTVSPost2010PropOp30
 70
     1
102
RTVSPost2010Prop31
280
     0
102
RTVSPost2010PropOp31
 70
     1
102
RTVSPost2010Prop32
280
     0
102
RTVSPost2010PropOp32
 70
     1
102
RTVSPost2010Prop33
280
     0
102
RTVSPost2010PropOp33
 70
     1
102
RTVSPost2010Prop34
280
     0
102
RTVSPost2010PropOp34
 70
     1
102
RTVSPost2010Prop35
280
     0
102
RTVSPost2010PropOp35
 70
     1
102
RTVSPost2010Prop36
280
     0
102
RTVSPost2010PropOp36
 70
     1
102
RTVSPost2010Prop37
 90
       50
102
RTVSPost2010PropOp37
 70
     1
102
RTVSPost2010Prop38
140
0.0
102
RTVSPost2010PropOp38
 70
     1
102
RTVSPost2010Prop39
140
1.0
102
RTVSPost2010PropOp39
 70
     1
102
RTVSPost2010Prop40
 90
        0
102
RTVSPost2010PropOp40
 70
     1
102
RTVSPost2010Prop41ColorIndex
 90
       18
102
RTVSPost2010Prop41ColorRGB
 90
        0
102
RTVSPost2010PropOp41
 70
     1
102
RTVSPost2010Prop42
 90
       50
102
RTVSPost2010PropOp42
 70
     1
102
RTVSPost2010Prop43
 90
        3
102
RTVSPost2010PropOp43
 70
     1
102
RTVSPost2010Prop44ColorIndex
 90
        5
102
RTVSPost2010Prop44ColorRGB
 90
      255
102
RTVSPost2010PropOp44
 70
     1
102
RTVSPost2010Prop45
280
     0
102
RTVSPost2010PropOp45
 70
     1
102
RTVSPost2010Prop46
 90
       50
102
RTVSPost2010PropOp46
 70
     1
102
RTVSPost2010Prop47
 90
       50
102
RTVSPost2010PropOp47
 70
     1
102
RTVSPost2010Prop48
 90
       50
102
RTVSPost2010PropOp48
 70
     1
102
RTVSPost2010Prop49
280
     0
102
RTVSPost2010PropOp49
 70
     1
102
RTVSPost2010Prop50
 90
       50
102
RTVSPost2010PropOp50
 70
     1
102
RTVSPost2010Prop51ColorIndex
 90
      256
102
RTVSPost2010Prop51ColorRGB
 90
-16777216
102
RTVSPost2010PropOp51
 70
     0
102
RTVSPost2010Prop52
140
1.0
102
RTVSPost2010PropOp52
 70
     0
102
RTVSPost2010Prop53
 90
        2
102
RTVSPost2010PropOp53
 70
     1
102
RTVSPost2010Prop54
  1
strokes_ogs.tif
102
RTVSPost2010PropOp54
 70
     1
102
RTVSPost2010Prop55
280
     0
102
RTVSPost2010PropOp55
 70
     1
102
RTVSPost2010Prop56
140
1.0
102
RTVSPost2010PropOp56
 70
     1
102
RTVSPost2010Prop57
140
1.0
102
RTVSPost2010PropOp57
 70
     1
102
RTVSPropertyOp0
 70
     1
102
RTVSPropertyOp1
 70
     1
102
RTVSPropertyOp2
 70
     1
102
RTVSPropertyOp3
 70
     1
102
RTVSPropertyOp4
 70
     1
102
RTVSPropertyOp5
 70
     1
102
RTVSPropertyOp6
 70
     1
102
RTVSPropertyOp7
 70
     1
102
RTVSPropertyOp8
 70
     1
102
RTVSPropertyOp9
 70
     1
102
RTVSPropertyOp10
 70
     1
102
RTVSPropertyOp11
 70
     1
102
RTVSPropertyOp12
 70
     1
102
RTVSPropertyOp13
 70
     1
102
RTVSPropertyOp14
 70
     1
102
RTVSPropertyOp15
 70
     1
102
RTVSPropertyOp16
 70
     1
102
RTVSPropertyOp17
 70
     1
102
RTVSPropertyOp18
 70
     1
102
RTVSPropertyOp19
 70
     1
102
RTVSPropertyOp20
 70
     1
102
RTVSPropertyOp21
 70
     1
102
RTVSPropertyOp22
 70
     1
102
RTVSPropertyOp23
 70
     1
102
RTVSPropertyOp24
 70
     1
102
RTVSPropertyOp25
 70
     1
102
RTVSPropertyOp26
 70
     1
102
RTVSPropertyOp27
 70
     1
102
RTVSPropertyOp28
 70
     1
102
RTVSPropertyOp29
 70
     1
102
RTVSPropertyOp30
 70
     1
102
RTVSPropertyOp31
 70
     1
102
RTVSPropertyOp32
 70
     1
102
RTVSPropertyOp33
 70
     1
102
RTVSPropertyOp34
 70
     1
102
RTVSPropertyOp35
 70
     1
102
RTVSPropertyOp36
 70
     1
102
RTVSPropertyOp37
 70
     1
102
RTVSPropertyOp38
 70
     1
102
RTVSPropertyOp39
 70
     1
102
RTVSPropertyOp40
 70
     1
102
RTVSPropertyOp41
 70
     1
102
RTVSPropertyOp42
 70
     1
102
RTVSPropertyOp43
 70
     1
102
RTVSPropertyOp44
 70
     1
102
RTVSPropertyOp45
 70
     1
102
RTVSPropertyOp46
 70
     1
102
RTVSPropertyOp47
 70
     1
102
RTVSPropertyOp48
 70
     1
102
RTVSPropertyOp49
 70
     1
102
RTVSPropertyOp50
 70
     1
102
RTVSPropertyOp51
 70
     0
102
RTVSPropertyOp52
 70
     0
102
RTVSPropertyOp53
 70
     1
102
RTVSPropertyOp54
 70
     1
102
RTVSPropertyOp55
 70
     1
102
RTVSPropertyOp56
 70
     1
102
RTVSPropertyOp57
 70
     1
102
RTVSPropertyOp58
 70
     1
102
RTVSPropertyOp59
 70
     1
102
RTVSPropertyOp60
 70
     1
102
RTVSPropertyOp61
 70
     1
102
RTVSPropertyOp62
 70
     1
  0
XRECORD
  5
30B6
102
{ACAD_REACTORS
330
30B5
102
}
330
30B5
100
AcDbXrecord
280
     1
102
RTVSPost2010Prop28
280
     0
102
RTVSPost2010PropOp28
 70
     1
102
RTVSPost2010Prop29
280
     1
102
RTVSPost2010PropOp29
 70
     1
102
RTVSPost2010Prop30
280
     1
102
RTVSPost2010PropOp30
 70
     1
102
RTVSPost2010Prop31
280
     0
102
RTVSPost2010PropOp31
 70
     1
102
RTVSPost2010Prop32
280
     0
102
RTVSPost2010PropOp32
 70
     1
102
RTVSPost2010Prop33
280
     0
102
RTVSPost2010PropOp33
 70
     1
102
RTVSPost2010Prop34
280
     0
102
RTVSPost2010PropOp34
 70
     1
102
RTVSPost2010Prop35
280
     0
102
RTVSPost2010PropOp35
 70
     1
102
RTVSPost2010Prop36
280
     0
102
RTVSPost2010PropOp36
 70
     1
102
RTVSPost2010Prop37
 90
       50
102
RTVSPost2010PropOp37
 70
     1
102
RTVSPost2010Prop38
140
0.0
102
RTVSPost2010PropOp38
 70
     1
102
RTVSPost2010Prop39
140
1.0
102
RTVSPost2010PropOp39
 70
     1
102
RTVSPost2010Prop40
 90
        0
102
RTVSPost2010PropOp40
 70
     1
102
RTVSPost2010Prop41ColorIndex
 90
       18
102
RTVSPost2010Prop41ColorRGB
 90
        0
102
RTVSPost2010PropOp41
 70
     1
102
RTVSPost2010Prop42
 90
       50
102
RTVSPost2010PropOp42
 70
     1
102
RTVSPost2010Prop43
 90
        3
102
RTVSPost2010PropOp43
 70
     1
102
RTVSPost2010Prop44ColorIndex
 90
        5
102
RTVSPost2010Prop44ColorRGB
 90
      255
102
RTVSPost2010PropOp44
 70
     1
102
RTVSPost2010Prop45
280
     0
102
RTVSPost2010PropOp45
 70
     1
102
RTVSPost2010Prop46
 90
       50
102
RTVSPost2010PropOp46
 70
     1
102
RTVSPost2010Prop47
 90
       50
102
RTVSPost2010PropOp47
 70
     1
102
RTVSPost2010Prop48
 90
       50
102
RTVSPost2010PropOp48
 70
     1
102
RTVSPost2010Prop49
280
     0
102
RTVSPost2010PropOp49
 70
     1
102
RTVSPost2010Prop50
 90
       50
102
RTVSPost2010PropOp50
 70
     1
102
RTVSPost2010Prop51ColorIndex
 90
      256
102
RTVSPost2010Prop51ColorRGB
 90
-16777216
102
RTVSPost2010PropOp51
 70
     0
102
RTVSPost2010Prop52
140
1.0
102
RTVSPost2010PropOp52
 70
     0
102
RTVSPost2010Prop53
 90
        2
102
RTVSPost2010PropOp53
 70
     1
102
RTVSPost2010Prop54
  1
strokes_ogs.tif
102
RTVSPost2010PropOp54
 70
     1
102
RTVSPost2010Prop55
280
     0
102
RTVSPost2010PropOp55
 70
     1
102
RTVSPost2010Prop56
140
1.0
102
RTVSPost2010PropOp56
 70
     1
102
RTVSPost2010Prop57
140
1.0
102
RTVSPost2010PropOp57
 70
     1
102
RTVSPropertyOp0
 70
     1
102
RTVSPropertyOp1
 70
     1
102
RTVSPropertyOp2
 70
     1
102
RTVSPropertyOp3
 70
     1
102
RTVSPropertyOp4
 70
     1
102
RTVSPropertyOp5
 70
     1
102
RTVSPropertyOp6
 70
     1
102
RTVSPropertyOp7
 70
     1
102
RTVSPropertyOp8
 70
     1
102
RTVSPropertyOp9
 70
     1
102
RTVSPropertyOp10
 70
     1
102
RTVSPropertyOp11
 70
     1
102
RTVSPropertyOp12
 70
     1
102
RTVSPropertyOp13
 70
     1
102
RTVSPropertyOp14
 70
     1
102
RTVSPropertyOp15
 70
     1
102
RTVSPropertyOp16
 70
     1
102
RTVSPropertyOp17
 70
     1
102
RTVSPropertyOp18
 70
     1
102
RTVSPropertyOp19
 70
     1
102
RTVSPropertyOp20
 70
     1
102
RTVSPropertyOp21
 70
     1
102
RTVSPropertyOp22
 70
     1
102
RTVSPropertyOp23
 70
     1
102
RTVSPropertyOp24
 70
     1
102
RTVSPropertyOp25
 70
     1
102
RTVSPropertyOp26
 70
     1
102
RTVSPropertyOp27
 70
     1
102
RTVSPropertyOp28
 70
     1
102
RTVSPropertyOp29
 70
     1
102
RTVSPropertyOp30
 70
     1
102
RTVSPropertyOp31
 70
     1
102
RTVSPropertyOp32
 70
     1
102
RTVSPropertyOp33
 70
     1
102
RTVSPropertyOp34
 70
     1
102
RTVSPropertyOp35
 70
     1
102
RTVSPropertyOp36
 70
     1
102
RTVSPropertyOp37
 70
     1
102
RTVSPropertyOp38
 70
     1
102
RTVSPropertyOp39
 70
     1
102
RTVSPropertyOp40
 70
     1
102
RTVSPropertyOp41
 70
     1
102
RTVSPropertyOp42
 70
     1
102
RTVSPropertyOp43
 70
     1
102
RTVSPropertyOp44
 70
     1
102
RTVSPropertyOp45
 70
     1
102
RTVSPropertyOp46
 70
     1
102
RTVSPropertyOp47
 70
     1
102
RTVSPropertyOp48
 70
     1
102
RTVSPropertyOp49
 70
     1
102
RTVSPropertyOp50
 70
     1
102
RTVSPropertyOp51
 70
     0
102
RTVSPropertyOp52
 70
     0
102
RTVSPropertyOp53
 70
     1
102
RTVSPropertyOp54
 70
     1
102
RTVSPropertyOp55
 70
     1
102
RTVSPropertyOp56
 70
     1
102
RTVSPropertyOp57
 70
     1
102
RTVSPropertyOp58
 70
     1
102
RTVSPropertyOp59
 70
     1
102
RTVSPropertyOp60
 70
     1
102
RTVSPropertyOp61
 70
     1
102
RTVSPropertyOp62
 70
     1
  0
XRECORD
  5
30B4
102
{ACAD_REACTORS
330
30B3
102
}
330
30B3
100
AcDbXrecord
280
     1
102
RTVSPost2010Prop28
280
     0
102
RTVSPost2010PropOp28
 70
     1
102
RTVSPost2010Prop29
280
     1
102
RTVSPost2010PropOp29
 70
     1
102
RTVSPost2010Prop30
280
     1
102
RTVSPost2010PropOp30
 70
     1
102
RTVSPost2010Prop31
280
     0
102
RTVSPost2010PropOp31
 70
     1
102
RTVSPost2010Prop32
280
     0
102
RTVSPost2010PropOp32
 70
     1
102
RTVSPost2010Prop33
280
     0
102
RTVSPost2010PropOp33
 70
     1
102
RTVSPost2010Prop34
280
     0
102
RTVSPost2010PropOp34
 70
     1
102
RTVSPost2010Prop35
280
     0
102
RTVSPost2010PropOp35
 70
     1
102
RTVSPost2010Prop36
280
     0
102
RTVSPost2010PropOp36
 70
     1
102
RTVSPost2010Prop37
 90
       50
102
RTVSPost2010PropOp37
 70
     1
102
RTVSPost2010Prop38
140
0.0
102
RTVSPost2010PropOp38
 70
     1
102
RTVSPost2010Prop39
140
1.0
102
RTVSPost2010PropOp39
 70
     1
102
RTVSPost2010Prop40
 90
        0
102
RTVSPost2010PropOp40
 70
     1
102
RTVSPost2010Prop41ColorIndex
 90
       18
102
RTVSPost2010Prop41ColorRGB
 90
        0
102
RTVSPost2010PropOp41
 70
     1
102
RTVSPost2010Prop42
 90
       50
102
RTVSPost2010PropOp42
 70
     1
102
RTVSPost2010Prop43
 90
        3
102
RTVSPost2010PropOp43
 70
     1
102
RTVSPost2010Prop44ColorIndex
 90
        5
102
RTVSPost2010Prop44ColorRGB
 90
      255
102
RTVSPost2010PropOp44
 70
     1
102
RTVSPost2010Prop45
280
     0
102
RTVSPost2010PropOp45
 70
     1
102
RTVSPost2010Prop46
 90
       50
102
RTVSPost2010PropOp46
 70
     1
102
RTVSPost2010Prop47
 90
       50
102
RTVSPost2010PropOp47
 70
     1
102
RTVSPost2010Prop48
 90
       50
102
RTVSPost2010PropOp48
 70
     1
102
RTVSPost2010Prop49
280
     0
102
RTVSPost2010PropOp49
 70
     1
102
RTVSPost2010Prop50
 90
       50
102
RTVSPost2010PropOp50
 70
     1
102
RTVSPost2010Prop51ColorIndex
 90
      256
102
RTVSPost2010Prop51ColorRGB
 90
-16777216
102
RTVSPost2010PropOp51
 70
     0
102
RTVSPost2010Prop52
140
1.0
102
RTVSPost2010PropOp52
 70
     0
102
RTVSPost2010Prop53
 90
        2
102
RTVSPost2010PropOp53
 70
     1
102
RTVSPost2010Prop54
  1
strokes_ogs.tif
102
RTVSPost2010PropOp54
 70
     1
102
RTVSPost2010Prop55
280
     0
102
RTVSPost2010PropOp55
 70
     1
102
RTVSPost2010Prop56
140
1.0
102
RTVSPost2010PropOp56
 70
     1
102
RTVSPost2010Prop57
140
1.0
102
RTVSPost2010PropOp57
 70
     1
102
RTVSPropertyOp0
 70
     1
102
RTVSPropertyOp1
 70
     1
102
RTVSPropertyOp2
 70
     1
102
RTVSPropertyOp3
 70
     1
102
RTVSPropertyOp4
 70
     1
102
RTVSPropertyOp5
 70
     1
102
RTVSPropertyOp6
 70
     1
102
RTVSPropertyOp7
 70
     1
102
RTVSPropertyOp8
 70
     1
102
RTVSPropertyOp9
 70
     1
102
RTVSPropertyOp10
 70
     1
102
RTVSPropertyOp11
 70
     1
102
RTVSPropertyOp12
 70
     1
102
RTVSPropertyOp13
 70
     1
102
RTVSPropertyOp14
 70
     1
102
RTVSPropertyOp15
 70
     1
102
RTVSPropertyOp16
 70
     1
102
RTVSPropertyOp17
 70
     1
102
RTVSPropertyOp18
 70
     1
102
RTVSPropertyOp19
 70
     1
102
RTVSPropertyOp20
 70
     1
102
RTVSPropertyOp21
 70
     1
102
RTVSPropertyOp22
 70
     1
102
RTVSPropertyOp23
 70
     1
102
RTVSPropertyOp24
 70
     1
102
RTVSPropertyOp25
 70
     1
102
RTVSPropertyOp26
 70
     1
102
RTVSPropertyOp27
 70
     1
102
RTVSPropertyOp28
 70
     1
102
RTVSPropertyOp29
 70
     1
102
RTVSPropertyOp30
 70
     1
102
RTVSPropertyOp31
 70
     1
102
RTVSPropertyOp32
 70
     1
102
RTVSPropertyOp33
 70
     1
102
RTVSPropertyOp34
 70
     1
102
RTVSPropertyOp35
 70
     1
102
RTVSPropertyOp36
 70
     1
102
RTVSPropertyOp37
 70
     1
102
RTVSPropertyOp38
 70
     1
102
RTVSPropertyOp39
 70
     1
102
RTVSPropertyOp40
 70
     1
102
RTVSPropertyOp41
 70
     1
102
RTVSPropertyOp42
 70
     1
102
RTVSPropertyOp43
 70
     1
102
RTVSPropertyOp44
 70
     1
102
RTVSPropertyOp45
 70
     1
102
RTVSPropertyOp46
 70
     1
102
RTVSPropertyOp47
 70
     1
102
RTVSPropertyOp48
 70
     1
102
RTVSPropertyOp49
 70
     1
102
RTVSPropertyOp50
 70
     1
102
RTVSPropertyOp51
 70
     0
102
RTVSPropertyOp52
 70
     0
102
RTVSPropertyOp53
 70
     1
102
RTVSPropertyOp54
 70
     1
102
RTVSPropertyOp55
 70
     1
102
RTVSPropertyOp56
 70
     1
102
RTVSPropertyOp57
 70
     1
102
RTVSPropertyOp58
 70
     1
102
RTVSPropertyOp59
 70
     1
102
RTVSPropertyOp60
 70
     1
102
RTVSPropertyOp61
 70
     1
102
RTVSPropertyOp62
 70
     1
  0
XRECORD
  5
30AE
102
{ACAD_REACTORS
330
30AD
102
}
330
30AD
100
AcDbXrecord
280
     1
102
RTVSPost2010Prop28
280
     0
102
RTVSPost2010PropOp28
 70
     1
102
RTVSPost2010Prop29
280
     1
102
RTVSPost2010PropOp29
 70
     1
102
RTVSPost2010Prop30
280
     1
102
RTVSPost2010PropOp30
 70
     1
102
RTVSPost2010Prop31
280
     0
102
RTVSPost2010PropOp31
 70
     1
102
RTVSPost2010Prop32
280
     0
102
RTVSPost2010PropOp32
 70
     1
102
RTVSPost2010Prop33
280
     0
102
RTVSPost2010PropOp33
 70
     1
102
RTVSPost2010Prop34
280
     0
102
RTVSPost2010PropOp34
 70
     1
102
RTVSPost2010Prop35
280
     0
102
RTVSPost2010PropOp35
 70
     1
102
RTVSPost2010Prop36
280
     0
102
RTVSPost2010PropOp36
 70
     1
102
RTVSPost2010Prop37
 90
       50
102
RTVSPost2010PropOp37
 70
     1
102
RTVSPost2010Prop38
140
0.0
102
RTVSPost2010PropOp38
 70
     1
102
RTVSPost2010Prop39
140
1.0
102
RTVSPost2010PropOp39
 70
     1
102
RTVSPost2010Prop40
 90
        0
102
RTVSPost2010PropOp40
 70
     1
102
RTVSPost2010Prop41ColorIndex
 90
       18
102
RTVSPost2010Prop41ColorRGB
 90
        0
102
RTVSPost2010PropOp41
 70
     1
102
RTVSPost2010Prop42
 90
       50
102
RTVSPost2010PropOp42
 70
     1
102
RTVSPost2010Prop43
 90
        3
102
RTVSPost2010PropOp43
 70
     1
102
RTVSPost2010Prop44ColorIndex
 90
        5
102
RTVSPost2010Prop44ColorRGB
 90
      255
102
RTVSPost2010PropOp44
 70
     1
102
RTVSPost2010Prop45
280
     0
102
RTVSPost2010PropOp45
 70
     1
102
RTVSPost2010Prop46
 90
       50
102
RTVSPost2010PropOp46
 70
     1
102
RTVSPost2010Prop47
 90
       50
102
RTVSPost2010PropOp47
 70
     1
102
RTVSPost2010Prop48
 90
       50
102
RTVSPost2010PropOp48
 70
     1
102
RTVSPost2010Prop49
280
     0
102
RTVSPost2010PropOp49
 70
     1
102
RTVSPost2010Prop50
 90
       50
102
RTVSPost2010PropOp50
 70
     1
102
RTVSPost2010Prop51ColorIndex
 90
      256
102
RTVSPost2010Prop51ColorRGB
 90
-16777216
102
RTVSPost2010PropOp51
 70
     0
102
RTVSPost2010Prop52
140
1.0
102
RTVSPost2010PropOp52
 70
     0
102
RTVSPost2010Prop53
 90
        2
102
RTVSPost2010PropOp53
 70
     1
102
RTVSPost2010Prop54
  1
strokes_ogs.tif
102
RTVSPost2010PropOp54
 70
     1
102
RTVSPost2010Prop55
280
     0
102
RTVSPost2010PropOp55
 70
     1
102
RTVSPost2010Prop56
140
1.0
102
RTVSPost2010PropOp56
 70
     1
102
RTVSPost2010Prop57
140
1.0
102
RTVSPost2010PropOp57
 70
     1
102
RTVSPropertyOp0
 70
     1
102
RTVSPropertyOp1
 70
     1
102
RTVSPropertyOp2
 70
     1
102
RTVSPropertyOp3
 70
     1
102
RTVSPropertyOp4
 70
     1
102
RTVSPropertyOp5
 70
     1
102
RTVSPropertyOp6
 70
     1
102
RTVSPropertyOp7
 70
     1
102
RTVSPropertyOp8
 70
     1
102
RTVSPropertyOp9
 70
     1
102
RTVSPropertyOp10
 70
     1
102
RTVSPropertyOp11
 70
     1
102
RTVSPropertyOp12
 70
     1
102
RTVSPropertyOp13
 70
     1
102
RTVSPropertyOp14
 70
     1
102
RTVSPropertyOp15
 70
     1
102
RTVSPropertyOp16
 70
     1
102
RTVSPropertyOp17
 70
     1
102
RTVSPropertyOp18
 70
     1
102
RTVSPropertyOp19
 70
     1
102
RTVSPropertyOp20
 70
     1
102
RTVSPropertyOp21
 70
     1
102
RTVSPropertyOp22
 70
     1
102
RTVSPropertyOp23
 70
     1
102
RTVSPropertyOp24
 70
     1
102
RTVSPropertyOp25
 70
     1
102
RTVSPropertyOp26
 70
     1
102
RTVSPropertyOp27
 70
     1
102
RTVSPropertyOp28
 70
     1
102
RTVSPropertyOp29
 70
     1
102
RTVSPropertyOp30
 70
     1
102
RTVSPropertyOp31
 70
     1
102
RTVSPropertyOp32
 70
     1
102
RTVSPropertyOp33
 70
     1
102
RTVSPropertyOp34
 70
     1
102
RTVSPropertyOp35
 70
     1
102
RTVSPropertyOp36
 70
     1
102
RTVSPropertyOp37
 70
     1
102
RTVSPropertyOp38
 70
     1
102
RTVSPropertyOp39
 70
     1
102
RTVSPropertyOp40
 70
     1
102
RTVSPropertyOp41
 70
     1
102
RTVSPropertyOp42
 70
     1
102
RTVSPropertyOp43
 70
     1
102
RTVSPropertyOp44
 70
     1
102
RTVSPropertyOp45
 70
     1
102
RTVSPropertyOp46
 70
     1
102
RTVSPropertyOp47
 70
     1
102
RTVSPropertyOp48
 70
     1
102
RTVSPropertyOp49
 70
     1
102
RTVSPropertyOp50
 70
     1
102
RTVSPropertyOp51
 70
     0
102
RTVSPropertyOp52
 70
     0
102
RTVSPropertyOp53
 70
     1
102
RTVSPropertyOp54
 70
     1
102
RTVSPropertyOp55
 70
     1
102
RTVSPropertyOp56
 70
     1
102
RTVSPropertyOp57
 70
     1
102
RTVSPropertyOp58
 70
     1
102
RTVSPropertyOp59
 70
     1
102
RTVSPropertyOp60
 70
     1
102
RTVSPropertyOp61
 70
     1
102
RTVSPropertyOp62
 70
     1
  0
XRECORD
  5
30B0
102
{ACAD_REACTORS
330
30AF
102
}
330
30AF
100
AcDbXrecord
280
     1
102
RTVSPost2010Prop28
280
     0
102
RTVSPost2010PropOp28
 70
     1
102
RTVSPost2010Prop29
280
     1
102
RTVSPost2010PropOp29
 70
     1
102
RTVSPost2010Prop30
280
     1
102
RTVSPost2010PropOp30
 70
     1
102
RTVSPost2010Prop31
280
     0
102
RTVSPost2010PropOp31
 70
     1
102
RTVSPost2010Prop32
280
     0
102
RTVSPost2010PropOp32
 70
     1
102
RTVSPost2010Prop33
280
     0
102
RTVSPost2010PropOp33
 70
     1
102
RTVSPost2010Prop34
280
     0
102
RTVSPost2010PropOp34
 70
     1
102
RTVSPost2010Prop35
280
     0
102
RTVSPost2010PropOp35
 70
     1
102
RTVSPost2010Prop36
280
     0
102
RTVSPost2010PropOp36
 70
     1
102
RTVSPost2010Prop37
 90
       50
102
RTVSPost2010PropOp37
 70
     1
102
RTVSPost2010Prop38
140
0.0
102
RTVSPost2010PropOp38
 70
     1
102
RTVSPost2010Prop39
140
1.0
102
RTVSPost2010PropOp39
 70
     1
102
RTVSPost2010Prop40
 90
        0
102
RTVSPost2010PropOp40
 70
     1
102
RTVSPost2010Prop41ColorIndex
 90
       18
102
RTVSPost2010Prop41ColorRGB
 90
        0
102
RTVSPost2010PropOp41
 70
     1
102
RTVSPost2010Prop42
 90
       50
102
RTVSPost2010PropOp42
 70
     1
102
RTVSPost2010Prop43
 90
        3
102
RTVSPost2010PropOp43
 70
     1
102
RTVSPost2010Prop44ColorIndex
 90
        5
102
RTVSPost2010Prop44ColorRGB
 90
      255
102
RTVSPost2010PropOp44
 70
     1
102
RTVSPost2010Prop45
280
     0
102
RTVSPost2010PropOp45
 70
     1
102
RTVSPost2010Prop46
 90
       50
102
RTVSPost2010PropOp46
 70
     1
102
RTVSPost2010Prop47
 90
       50
102
RTVSPost2010PropOp47
 70
     1
102
RTVSPost2010Prop48
 90
       50
102
RTVSPost2010PropOp48
 70
     1
102
RTVSPost2010Prop49
280
     0
102
RTVSPost2010PropOp49
 70
     1
102
RTVSPost2010Prop50
 90
       50
102
RTVSPost2010PropOp50
 70
     1
102
RTVSPost2010Prop51ColorIndex
 90
      256
102
RTVSPost2010Prop51ColorRGB
 90
-16777216
102
RTVSPost2010PropOp51
 70
     0
102
RTVSPost2010Prop52
140
1.0
102
RTVSPost2010PropOp52
 70
     0
102
RTVSPost2010Prop53
 90
        2
102
RTVSPost2010PropOp53
 70
     1
102
RTVSPost2010Prop54
  1
strokes_ogs.tif
102
RTVSPost2010PropOp54
 70
     1
102
RTVSPost2010Prop55
280
     0
102
RTVSPost2010PropOp55
 70
     1
102
RTVSPost2010Prop56
140
1.0
102
RTVSPost2010PropOp56
 70
     1
102
RTVSPost2010Prop57
140
1.0
102
RTVSPost2010PropOp57
 70
     1
102
RTVSPropertyOp0
 70
     1
102
RTVSPropertyOp1
 70
     1
102
RTVSPropertyOp2
 70
     1
102
RTVSPropertyOp3
 70
     1
102
RTVSPropertyOp4
 70
     1
102
RTVSPropertyOp5
 70
     1
102
RTVSPropertyOp6
 70
     1
102
RTVSPropertyOp7
 70
     1
102
RTVSPropertyOp8
 70
     1
102
RTVSPropertyOp9
 70
     1
102
RTVSPropertyOp10
 70
     1
102
RTVSPropertyOp11
 70
     1
102
RTVSPropertyOp12
 70
     1
102
RTVSPropertyOp13
 70
     1
102
RTVSPropertyOp14
 70
     1
102
RTVSPropertyOp15
 70
     1
102
RTVSPropertyOp16
 70
     1
102
RTVSPropertyOp17
 70
     1
102
RTVSPropertyOp18
 70
     1
102
RTVSPropertyOp19
 70
     1
102
RTVSPropertyOp20
 70
     1
102
RTVSPropertyOp21
 70
     1
102
RTVSPropertyOp22
 70
     1
102
RTVSPropertyOp23
 70
     1
102
RTVSPropertyOp24
 70
     1
102
RTVSPropertyOp25
 70
     1
102
RTVSPropertyOp26
 70
     1
102
RTVSPropertyOp27
 70
     1
102
RTVSPropertyOp28
 70
     1
102
RTVSPropertyOp29
 70
     1
102
RTVSPropertyOp30
 70
     1
102
RTVSPropertyOp31
 70
     1
102
RTVSPropertyOp32
 70
     1
102
RTVSPropertyOp33
 70
     1
102
RTVSPropertyOp34
 70
     1
102
RTVSPropertyOp35
 70
     1
102
RTVSPropertyOp36
 70
     1
102
RTVSPropertyOp37
 70
     1
102
RTVSPropertyOp38
 70
     1
102
RTVSPropertyOp39
 70
     1
102
RTVSPropertyOp40
 70
     1
102
RTVSPropertyOp41
 70
     1
102
RTVSPropertyOp42
 70
     1
102
RTVSPropertyOp43
 70
     1
102
RTVSPropertyOp44
 70
     1
102
RTVSPropertyOp45
 70
     1
102
RTVSPropertyOp46
 70
     1
102
RTVSPropertyOp47
 70
     1
102
RTVSPropertyOp48
 70
     1
102
RTVSPropertyOp49
 70
     1
102
RTVSPropertyOp50
 70
     1
102
RTVSPropertyOp51
 70
     0
102
RTVSPropertyOp52
 70
     0
102
RTVSPropertyOp53
 70
     1
102
RTVSPropertyOp54
 70
     1
102
RTVSPropertyOp55
 70
     1
102
RTVSPropertyOp56
 70
     1
102
RTVSPropertyOp57
 70
     1
102
RTVSPropertyOp58
 70
     1
102
RTVSPropertyOp59
 70
     1
102
RTVSPropertyOp60
 70
     1
102
RTVSPropertyOp61
 70
     1
102
RTVSPropertyOp62
 70
     1
  0
XRECORD
  5
30A6
102
{ACAD_REACTORS
330
30A5
102
}
330
30A5
100
AcDbXrecord
280
     1
102
RTVSPost2010Prop28
280
     0
102
RTVSPost2010PropOp28
 70
     1
102
RTVSPost2010Prop29
280
     1
102
RTVSPost2010PropOp29
 70
     1
102
RTVSPost2010Prop30
280
     1
102
RTVSPost2010PropOp30
 70
     1
102
RTVSPost2010Prop31
280
     0
102
RTVSPost2010PropOp31
 70
     1
102
RTVSPost2010Prop32
280
     0
102
RTVSPost2010PropOp32
 70
     1
102
RTVSPost2010Prop33
280
     0
102
RTVSPost2010PropOp33
 70
     1
102
RTVSPost2010Prop34
280
     0
102
RTVSPost2010PropOp34
 70
     1
102
RTVSPost2010Prop35
280
     0
102
RTVSPost2010PropOp35
 70
     1
102
RTVSPost2010Prop36
280
     0
102
RTVSPost2010PropOp36
 70
     1
102
RTVSPost2010Prop37
 90
       50
102
RTVSPost2010PropOp37
 70
     1
102
RTVSPost2010Prop38
140
0.0
102
RTVSPost2010PropOp38
 70
     1
102
RTVSPost2010Prop39
140
1.0
102
RTVSPost2010PropOp39
 70
     1
102
RTVSPost2010Prop40
 90
        0
102
RTVSPost2010PropOp40
 70
     1
102
RTVSPost2010Prop41ColorIndex
 90
       18
102
RTVSPost2010Prop41ColorRGB
 90
        0
102
RTVSPost2010PropOp41
 70
     1
102
RTVSPost2010Prop42
 90
       50
102
RTVSPost2010PropOp42
 70
     1
102
RTVSPost2010Prop43
 90
        3
102
RTVSPost2010PropOp43
 70
     1
102
RTVSPost2010Prop44ColorIndex
 90
        5
102
RTVSPost2010Prop44ColorRGB
 90
      255
102
RTVSPost2010PropOp44
 70
     1
102
RTVSPost2010Prop45
280
     0
102
RTVSPost2010PropOp45
 70
     1
102
RTVSPost2010Prop46
 90
       50
102
RTVSPost2010PropOp46
 70
     1
102
RTVSPost2010Prop47
 90
       50
102
RTVSPost2010PropOp47
 70
     1
102
RTVSPost2010Prop48
 90
       50
102
RTVSPost2010PropOp48
 70
     1
102
RTVSPost2010Prop49
280
     0
102
RTVSPost2010PropOp49
 70
     1
102
RTVSPost2010Prop50
 90
       50
102
RTVSPost2010PropOp50
 70
     1
102
RTVSPost2010Prop51ColorIndex
 90
      256
102
RTVSPost2010Prop51ColorRGB
 90
-16777216
102
RTVSPost2010PropOp51
 70
     0
102
RTVSPost2010Prop52
140
1.0
102
RTVSPost2010PropOp52
 70
     0
102
RTVSPost2010Prop53
 90
        2
102
RTVSPost2010PropOp53
 70
     1
102
RTVSPost2010Prop54
  1
strokes_ogs.tif
102
RTVSPost2010PropOp54
 70
     1
102
RTVSPost2010Prop55
280
     0
102
RTVSPost2010PropOp55
 70
     1
102
RTVSPost2010Prop56
140
1.0
102
RTVSPost2010PropOp56
 70
     1
102
RTVSPost2010Prop57
140
1.0
102
RTVSPost2010PropOp57
 70
     1
102
RTVSPropertyOp0
 70
     1
102
RTVSPropertyOp1
 70
     1
102
RTVSPropertyOp2
 70
     1
102
RTVSPropertyOp3
 70
     1
102
RTVSPropertyOp4
 70
     1
102
RTVSPropertyOp5
 70
     1
102
RTVSPropertyOp6
 70
     1
102
RTVSPropertyOp7
 70
     1
102
RTVSPropertyOp8
 70
     1
102
RTVSPropertyOp9
 70
     1
102
RTVSPropertyOp10
 70
     1
102
RTVSPropertyOp11
 70
     1
102
RTVSPropertyOp12
 70
     1
102
RTVSPropertyOp13
 70
     1
102
RTVSPropertyOp14
 70
     1
102
RTVSPropertyOp15
 70
     1
102
RTVSPropertyOp16
 70
     1
102
RTVSPropertyOp17
 70
     1
102
RTVSPropertyOp18
 70
     1
102
RTVSPropertyOp19
 70
     1
102
RTVSPropertyOp20
 70
     1
102
RTVSPropertyOp21
 70
     1
102
RTVSPropertyOp22
 70
     1
102
RTVSPropertyOp23
 70
     1
102
RTVSPropertyOp24
 70
     1
102
RTVSPropertyOp25
 70
     1
102
RTVSPropertyOp26
 70
     1
102
RTVSPropertyOp27
 70
     1
102
RTVSPropertyOp28
 70
     1
102
RTVSPropertyOp29
 70
     1
102
RTVSPropertyOp30
 70
     1
102
RTVSPropertyOp31
 70
     1
102
RTVSPropertyOp32
 70
     1
102
RTVSPropertyOp33
 70
     1
102
RTVSPropertyOp34
 70
     1
102
RTVSPropertyOp35
 70
     1
102
RTVSPropertyOp36
 70
     1
102
RTVSPropertyOp37
 70
     1
102
RTVSPropertyOp38
 70
     1
102
RTVSPropertyOp39
 70
     1
102
RTVSPropertyOp40
 70
     1
102
RTVSPropertyOp41
 70
     1
102
RTVSPropertyOp42
 70
     1
102
RTVSPropertyOp43
 70
     1
102
RTVSPropertyOp44
 70
     1
102
RTVSPropertyOp45
 70
     1
102
RTVSPropertyOp46
 70
     1
102
RTVSPropertyOp47
 70
     1
102
RTVSPropertyOp48
 70
     1
102
RTVSPropertyOp49
 70
     1
102
RTVSPropertyOp50
 70
     1
102
RTVSPropertyOp51
 70
     0
102
RTVSPropertyOp52
 70
     0
102
RTVSPropertyOp53
 70
     1
102
RTVSPropertyOp54
 70
     1
102
RTVSPropertyOp55
 70
     1
102
RTVSPropertyOp56
 70
     1
102
RTVSPropertyOp57
 70
     1
102
RTVSPropertyOp58
 70
     1
102
RTVSPropertyOp59
 70
     1
102
RTVSPropertyOp60
 70
     1
102
RTVSPropertyOp61
 70
     1
102
RTVSPropertyOp62
 70
     1
  0
XRECORD
  5
309A
102
{ACAD_REACTORS
330
3099
102
}
330
3099
100
AcDbXrecord
280
     1
102
RTVSPost2010Prop28
280
     0
102
RTVSPost2010PropOp28
 70
     1
102
RTVSPost2010Prop29
280
     1
102
RTVSPost2010PropOp29
 70
     1
102
RTVSPost2010Prop30
280
     1
102
RTVSPost2010PropOp30
 70
     1
102
RTVSPost2010Prop31
280
     0
102
RTVSPost2010PropOp31
 70
     1
102
RTVSPost2010Prop32
280
     0
102
RTVSPost2010PropOp32
 70
     1
102
RTVSPost2010Prop33
280
     0
102
RTVSPost2010PropOp33
 70
     1
102
RTVSPost2010Prop34
280
     0
102
RTVSPost2010PropOp34
 70
     1
102
RTVSPost2010Prop35
280
     0
102
RTVSPost2010PropOp35
 70
     1
102
RTVSPost2010Prop36
280
     0
102
RTVSPost2010PropOp36
 70
     1
102
RTVSPost2010Prop37
 90
       50
102
RTVSPost2010PropOp37
 70
     1
102
RTVSPost2010Prop38
140
0.0
102
RTVSPost2010PropOp38
 70
     1
102
RTVSPost2010Prop39
140
1.0
102
RTVSPost2010PropOp39
 70
     1
102
RTVSPost2010Prop40
 90
        0
102
RTVSPost2010PropOp40
 70
     1
102
RTVSPost2010Prop41ColorIndex
 90
       18
102
RTVSPost2010Prop41ColorRGB
 90
        0
102
RTVSPost2010PropOp41
 70
     1
102
RTVSPost2010Prop42
 90
       50
102
RTVSPost2010PropOp42
 70
     1
102
RTVSPost2010Prop43
 90
        3
102
RTVSPost2010PropOp43
 70
     1
102
RTVSPost2010Prop44ColorIndex
 90
        5
102
RTVSPost2010Prop44ColorRGB
 90
      255
102
RTVSPost2010PropOp44
 70
     1
102
RTVSPost2010Prop45
280
     0
102
RTVSPost2010PropOp45
 70
     1
102
RTVSPost2010Prop46
 90
       50
102
RTVSPost2010PropOp46
 70
     1
102
RTVSPost2010Prop47
 90
       50
102
RTVSPost2010PropOp47
 70
     1
102
RTVSPost2010Prop48
 90
       50
102
RTVSPost2010PropOp48
 70
     1
102
RTVSPost2010Prop49
280
     0
102
RTVSPost2010PropOp49
 70
     1
102
RTVSPost2010Prop50
 90
       50
102
RTVSPost2010PropOp50
 70
     1
102
RTVSPost2010Prop51ColorIndex
 90
      256
102
RTVSPost2010Prop51ColorRGB
 90
-16777216
102
RTVSPost2010PropOp51
 70
     0
102
RTVSPost2010Prop52
140
1.0
102
RTVSPost2010PropOp52
 70
     0
102
RTVSPost2010Prop53
 90
        2
102
RTVSPost2010PropOp53
 70
     1
102
RTVSPost2010Prop54
  1
strokes_ogs.tif
102
RTVSPost2010PropOp54
 70
     1
102
RTVSPost2010Prop55
280
     0
102
RTVSPost2010PropOp55
 70
     1
102
RTVSPost2010Prop56
140
1.0
102
RTVSPost2010PropOp56
 70
     1
102
RTVSPost2010Prop57
140
1.0
102
RTVSPost2010PropOp57
 70
     1
102
RTVSPropertyOp0
 70
     1
102
RTVSPropertyOp1
 70
     1
102
RTVSPropertyOp2
 70
     1
102
RTVSPropertyOp3
 70
     1
102
RTVSPropertyOp4
 70
     1
102
RTVSPropertyOp5
 70
     1
102
RTVSPropertyOp6
 70
     1
102
RTVSPropertyOp7
 70
     1
102
RTVSPropertyOp8
 70
     1
102
RTVSPropertyOp9
 70
     1
102
RTVSPropertyOp10
 70
     1
102
RTVSPropertyOp11
 70
     1
102
RTVSPropertyOp12
 70
     1
102
RTVSPropertyOp13
 70
     1
102
RTVSPropertyOp14
 70
     1
102
RTVSPropertyOp15
 70
     1
102
RTVSPropertyOp16
 70
     1
102
RTVSPropertyOp17
 70
     1
102
RTVSPropertyOp18
 70
     1
102
RTVSPropertyOp19
 70
     1
102
RTVSPropertyOp20
 70
     1
102
RTVSPropertyOp21
 70
     1
102
RTVSPropertyOp22
 70
     1
102
RTVSPropertyOp23
 70
     1
102
RTVSPropertyOp24
 70
     1
102
RTVSPropertyOp25
 70
     1
102
RTVSPropertyOp26
 70
     1
102
RTVSPropertyOp27
 70
     1
102
RTVSPropertyOp28
 70
     1
102
RTVSPropertyOp29
 70
     1
102
RTVSPropertyOp30
 70
     1
102
RTVSPropertyOp31
 70
     1
102
RTVSPropertyOp32
 70
     1
102
RTVSPropertyOp33
 70
     1
102
RTVSPropertyOp34
 70
     1
102
RTVSPropertyOp35
 70
     1
102
RTVSPropertyOp36
 70
     1
102
RTVSPropertyOp37
 70
     1
102
RTVSPropertyOp38
 70
     1
102
RTVSPropertyOp39
 70
     1
102
RTVSPropertyOp40
 70
     1
102
RTVSPropertyOp41
 70
     1
102
RTVSPropertyOp42
 70
     1
102
RTVSPropertyOp43
 70
     1
102
RTVSPropertyOp44
 70
     1
102
RTVSPropertyOp45
 70
     1
102
RTVSPropertyOp46
 70
     1
102
RTVSPropertyOp47
 70
     1
102
RTVSPropertyOp48
 70
     1
102
RTVSPropertyOp49
 70
     1
102
RTVSPropertyOp50
 70
     1
102
RTVSPropertyOp51
 70
     0
102
RTVSPropertyOp52
 70
     0
102
RTVSPropertyOp53
 70
     1
102
RTVSPropertyOp54
 70
     1
102
RTVSPropertyOp55
 70
     1
102
RTVSPropertyOp56
 70
     1
102
RTVSPropertyOp57
 70
     1
102
RTVSPropertyOp58
 70
     1
102
RTVSPropertyOp59
 70
     1
102
RTVSPropertyOp60
 70
     1
102
RTVSPropertyOp61
 70
     1
102
RTVSPropertyOp62
 70
     1
  0
XRECORD
  5
30B2
102
{ACAD_REACTORS
330
30B1
102
}
330
30B1
100
AcDbXrecord
280
     1
102
RTVSPost2010Prop28
280
     0
102
RTVSPost2010PropOp28
 70
     1
102
RTVSPost2010Prop29
280
     1
102
RTVSPost2010PropOp29
 70
     1
102
RTVSPost2010Prop30
280
     1
102
RTVSPost2010PropOp30
 70
     1
102
RTVSPost2010Prop31
280
     0
102
RTVSPost2010PropOp31
 70
     1
102
RTVSPost2010Prop32
280
     0
102
RTVSPost2010PropOp32
 70
     1
102
RTVSPost2010Prop33
280
     0
102
RTVSPost2010PropOp33
 70
     1
102
RTVSPost2010Prop34
280
     0
102
RTVSPost2010PropOp34
 70
     1
102
RTVSPost2010Prop35
280
     0
102
RTVSPost2010PropOp35
 70
     1
102
RTVSPost2010Prop36
280
     0
102
RTVSPost2010PropOp36
 70
     1
102
RTVSPost2010Prop37
 90
       50
102
RTVSPost2010PropOp37
 70
     1
102
RTVSPost2010Prop38
140
0.0
102
RTVSPost2010PropOp38
 70
     1
102
RTVSPost2010Prop39
140
1.0
102
RTVSPost2010PropOp39
 70
     1
102
RTVSPost2010Prop40
 90
        0
102
RTVSPost2010PropOp40
 70
     1
102
RTVSPost2010Prop41ColorIndex
 90
       18
102
RTVSPost2010Prop41ColorRGB
 90
        0
102
RTVSPost2010PropOp41
 70
     1
102
RTVSPost2010Prop42
 90
       50
102
RTVSPost2010PropOp42
 70
     1
102
RTVSPost2010Prop43
 90
        3
102
RTVSPost2010PropOp43
 70
     1
102
RTVSPost2010Prop44ColorIndex
 90
        5
102
RTVSPost2010Prop44ColorRGB
 90
      255
102
RTVSPost2010PropOp44
 70
     1
102
RTVSPost2010Prop45
280
     0
102
RTVSPost2010PropOp45
 70
     1
102
RTVSPost2010Prop46
 90
       50
102
RTVSPost2010PropOp46
 70
     1
102
RTVSPost2010Prop47
 90
       50
102
RTVSPost2010PropOp47
 70
     1
102
RTVSPost2010Prop48
 90
       50
102
RTVSPost2010PropOp48
 70
     1
102
RTVSPost2010Prop49
280
     0
102
RTVSPost2010PropOp49
 70
     1
102
RTVSPost2010Prop50
 90
       50
102
RTVSPost2010PropOp50
 70
     1
102
RTVSPost2010Prop51ColorIndex
 90
      256
102
RTVSPost2010Prop51ColorRGB
 90
-16777216
102
RTVSPost2010PropOp51
 70
     0
102
RTVSPost2010Prop52
140
1.0
102
RTVSPost2010PropOp52
 70
     0
102
RTVSPost2010Prop53
 90
        2
102
RTVSPost2010PropOp53
 70
     1
102
RTVSPost2010Prop54
  1
strokes_ogs.tif
102
RTVSPost2010PropOp54
 70
     1
102
RTVSPost2010Prop55
280
     0
102
RTVSPost2010PropOp55
 70
     1
102
RTVSPost2010Prop56
140
1.0
102
RTVSPost2010PropOp56
 70
     1
102
RTVSPost2010Prop57
140
1.0
102
RTVSPost2010PropOp57
 70
     1
102
RTVSPropertyOp0
 70
     1
102
RTVSPropertyOp1
 70
     1
102
RTVSPropertyOp2
 70
     1
102
RTVSPropertyOp3
 70
     1
102
RTVSPropertyOp4
 70
     1
102
RTVSPropertyOp5
 70
     1
102
RTVSPropertyOp6
 70
     1
102
RTVSPropertyOp7
 70
     1
102
RTVSPropertyOp8
 70
     1
102
RTVSPropertyOp9
 70
     1
102
RTVSPropertyOp10
 70
     1
102
RTVSPropertyOp11
 70
     1
102
RTVSPropertyOp12
 70
     1
102
RTVSPropertyOp13
 70
     1
102
RTVSPropertyOp14
 70
     1
102
RTVSPropertyOp15
 70
     1
102
RTVSPropertyOp16
 70
     1
102
RTVSPropertyOp17
 70
     1
102
RTVSPropertyOp18
 70
     1
102
RTVSPropertyOp19
 70
     1
102
RTVSPropertyOp20
 70
     1
102
RTVSPropertyOp21
 70
     1
102
RTVSPropertyOp22
 70
     1
102
RTVSPropertyOp23
 70
     1
102
RTVSPropertyOp24
 70
     1
102
RTVSPropertyOp25
 70
     1
102
RTVSPropertyOp26
 70
     1
102
RTVSPropertyOp27
 70
     1
102
RTVSPropertyOp28
 70
     1
102
RTVSPropertyOp29
 70
     1
102
RTVSPropertyOp30
 70
     1
102
RTVSPropertyOp31
 70
     1
102
RTVSPropertyOp32
 70
     1
102
RTVSPropertyOp33
 70
     1
102
RTVSPropertyOp34
 70
     1
102
RTVSPropertyOp35
 70
     1
102
RTVSPropertyOp36
 70
     1
102
RTVSPropertyOp37
 70
     1
102
RTVSPropertyOp38
 70
     1
102
RTVSPropertyOp39
 70
     1
102
RTVSPropertyOp40
 70
     1
102
RTVSPropertyOp41
 70
     1
102
RTVSPropertyOp42
 70
     1
102
RTVSPropertyOp43
 70
     1
102
RTVSPropertyOp44
 70
     1
102
RTVSPropertyOp45
 70
     1
102
RTVSPropertyOp46
 70
     1
102
RTVSPropertyOp47
 70
     1
102
RTVSPropertyOp48
 70
     1
102
RTVSPropertyOp49
 70
     1
102
RTVSPropertyOp50
 70
     1
102
RTVSPropertyOp51
 70
     0
102
RTVSPropertyOp52
 70
     0
102
RTVSPropertyOp53
 70
     1
102
RTVSPropertyOp54
 70
     1
102
RTVSPropertyOp55
 70
     1
102
RTVSPropertyOp56
 70
     1
102
RTVSPropertyOp57
 70
     1
102
RTVSPropertyOp58
 70
     1
102
RTVSPropertyOp59
 70
     1
102
RTVSPropertyOp60
 70
     1
102
RTVSPropertyOp61
 70
     1
102
RTVSPropertyOp62
 70
     1
  0
ENDSEC
  0
EOF
