  0
SECTION
  2
HEADER
  9
$ACADVER
  1
AC1015
  9
$ACADMAINTVER
 70
    20
  9
$DWGCODEPAGE
  3
ANSI_932
  9
$INSBASE
 10
0.0
 20
0.0
 30
0.0
  9
$EXTMIN
 10
9.999999064246615
 20
9.999999806846744
 30
0.0
  9
$EXTMAX
 10
371.2142976339178
 20
228.3504554780762
 30
0.0
  9
$LIMMIN
 10
0.0000015376081137
 20
-0.0000001931532552
  9
$LIMMAX
 10
396.0000015376081
 20
272.9999998068465
  9
$ORTHOMODE
 70
     0
  9
$REGENMODE
 70
     1
  9
$FILLMODE
 70
     1
  9
$QTEXTMODE
 70
     0
  9
$MIRRTEXT
 70
     1
  9
$LTSCALE
 40
1.0
  9
$ATTMODE
 70
     1
  9
$TEXTSIZE
 40
2.5
  9
$TRACEWID
 40
1.0
  9
$TEXTSTYLE
  7
STANDARD
  9
$CLAYER
  8
0
  9
$CELTYPE
  6
ByLayer
  9
$CECOLOR
 62
   256
  9
$CELTSCALE
 40
1.0
  9
$DISPSILH
 70
     0
  9
$DIMSCALE
 40
1.0
  9
$DIMASZ
 40
3.0
  9
$DIMEXO
 40
1.0
  9
$DIMDLI
 40
10.0
  9
$DIMRND
 40
0.0
  9
$DIMDLE
 40
0.0
  9
$DIMEXE
 40
1.0
  9
$DIMTP
 40
0.0
  9
$DIMTM
 40
0.0
  9
$DIMTXT
 40
3.2
  9
$DIMCEN
 40
0.0
  9
$DIMTSZ
 40
0.0
  9
$DIMTOL
 70
     0
  9
$DIMLIM
 70
     0
  9
$DIMTIH
 70
     0
  9
$DIMTOH
 70
     0
  9
$DIMSE1
 70
     0
  9
$DIMSE2
 70
     0
  9
$DIMTAD
 70
     3
  9
$DIMZIN
 70
     8
  9
$DIMBLK
  1

  9
$DIMASO
 70
     1
  9
$DIMSHO
 70
     1
  9
$DIMPOST
  1

  9
$DIMAPOST
  1

  9
$DIMALT
 70
     0
  9
$DIMALTD
 70
     2
  9
$DIMALTF
 40
25.4
  9
$DIMLFAC
 40
1.0
  9
$DIMTOFL
 70
     1
  9
$DIMTVP
 40
0.0
  9
$DIMTIX
 70
     0
  9
$DIMSOXD
 70
     0
  9
$DIMSAH
 70
     1
  9
$DIMBLK1
  1
OPEN
  9
$DIMBLK2
  1
OPEN
  9
$DIMSTYLE
  2
STANDARD
  9
$DIMCLRD
 70
     0
  9
$DIMCLRE
 70
     0
  9
$DIMCLRT
 70
     0
  9
$DIMTFAC
 40
1.0
  9
$DIMGAP
 40
1.0
  9
$DIMJUST
 70
     0
  9
$DIMSD1
 70
     0
  9
$DIMSD2
 70
     0
  9
$DIMTOLJ
 70
     1
  9
$DIMTZIN
 70
     0
  9
$DIMALTZ
 70
     0
  9
$DIMALTTZ
 70
     0
  9
$DIMUPT
 70
     0
  9
$DIMDEC
 70
     4
  9
$DIMTDEC
 70
     4
  9
$DIMALTU
 70
     2
  9
$DIMALTTD
 70
     2
  9
$DIMTXSTY
  7
STANDARD
  9
$DIMAUNIT
 70
     0
  9
$DIMADEC
 70
     0
  9
$DIMALTRND
 40
0.0
  9
$DIMAZIN
 70
     0
  9
$DIMDSEP
 70
    46
  9
$DIMATFIT
 70
     3
  9
$DIMFRAC
 70
     0
  9
$DIMLDRBLK
  1
OPEN
  9
$DIMLUNIT
 70
     2
  9
$DIMLWD
 70
    -2
  9
$DIMLWE
 70
    -2
  9
$DIMTMOVE
 70
     0
  9
$LUNITS
 70
     2
  9
$LUPREC
 70
     4
  9
$SKETCHINC
 40
1.0
  9
$FILLETRAD
 40
10.0
  9
$AUNITS
 70
     0
  9
$AUPREC
 70
     0
  9
$MENU
  1
.
  9
$ELEVATION
 40
0.0
  9
$PELEVATION
 40
0.0
  9
$THICKNESS
 40
0.0
  9
$LIMCHECK
 70
     0
  9
$CHAMFERA
 40
10.0
  9
$CHAMFERB
 40
10.0
  9
$CHAMFERC
 40
0.0
  9
$CHAMFERD
 40
0.0
  9
$SKPOLY
 70
     0
  9
$TDCREATE
 40
2456276.614124468
  9
$TDUCREATE
 40
2456276.239124468
  9
$TDUPDATE
 40
2457192.616099873
  9
$TDUUPDATE
 40
2457192.241099872
  9
$TDINDWG
 40
0.1040278819
  9
$TDUSRTIMER
 40
0.1040278819
  9
$USRTIMER
 70
     1
  9
$ANGBASE
 50
0.0
  9
$ANGDIR
 70
     0
  9
$PDMODE
 70
     0
  9
$PDSIZE
 40
0.0
  9
$PLINEWID
 40
0.0
  9
$SPLFRAME
 70
     0
  9
$SPLINETYPE
 70
     6
  9
$SPLINESEGS
 70
     8
  9
$HANDSEED
  5
809
  9
$SURFTAB1
 70
     6
  9
$SURFTAB2
 70
     6
  9
$SURFTYPE
 70
     6
  9
$SURFU
 70
     6
  9
$SURFV
 70
     6
  9
$UCSBASE
  2

  9
$UCSNAME
  2

  9
$UCSORG
 10
0.0
 20
0.0
 30
0.0
  9
$UCSXDIR
 10
1.0
 20
0.0
 30
0.0
  9
$UCSYDIR
 10
0.0
 20
1.0
 30
0.0
  9
$UCSORTHOREF
  2

  9
$UCSORTHOVIEW
 70
     0
  9
$UCSORGTOP
 10
0.0
 20
0.0
 30
0.0
  9
$UCSORGBOTTOM
 10
0.0
 20
0.0
 30
0.0
  9
$UCSORGLEFT
 10
0.0
 20
0.0
 30
0.0
  9
$UCSORGRIGHT
 10
0.0
 20
0.0
 30
0.0
  9
$UCSORGFRONT
 10
0.0
 20
0.0
 30
0.0
  9
$UCSORGBACK
 10
0.0
 20
0.0
 30
0.0
  9
$PUCSBASE
  2

  9
$PUCSNAME
  2

  9
$PUCSORG
 10
0.0
 20
0.0
 30
0.0
  9
$PUCSXDIR
 10
1.0
 20
0.0
 30
0.0
  9
$PUCSYDIR
 10
0.0
 20
1.0
 30
0.0
  9
$PUCSORTHOREF
  2

  9
$PUCSORTHOVIEW
 70
     0
  9
$PUCSORGTOP
 10
0.0
 20
0.0
 30
0.0
  9
$PUCSORGBOTTOM
 10
0.0
 20
0.0
 30
0.0
  9
$PUCSORGLEFT
 10
0.0
 20
0.0
 30
0.0
  9
$PUCSORGRIGHT
 10
0.0
 20
0.0
 30
0.0
  9
$PUCSORGFRONT
 10
0.0
 20
0.0
 30
0.0
  9
$PUCSORGBACK
 10
0.0
 20
0.0
 30
0.0
  9
$USERI1
 70
     0
  9
$USERI2
 70
     0
  9
$USERI3
 70
     0
  9
$USERI4
 70
     0
  9
$USERI5
 70
     0
  9
$USERR1
 40
0.0
  9
$USERR2
 40
0.0
  9
$USERR3
 40
0.0
  9
$USERR4
 40
0.0
  9
$USERR5
 40
0.0
  9
$WORLDVIEW
 70
     1
  9
$SHADEDGE
 70
     3
  9
$SHADEDIF
 70
    70
  9
$TILEMODE
 70
     1
  9
$MAXACTVP
 70
    48
  9
$PINSBASE
 10
0.0
 20
0.0
 30
0.0
  9
$PLIMCHECK
 70
     0
  9
$PEXTMIN
 10
1.000000000000000E+20
 20
1.000000000000000E+20
 30
1.000000000000000E+20
  9
$PEXTMAX
 10
-1.000000000000000E+20
 20
-1.000000000000000E+20
 30
-1.000000000000000E+20
  9
$PLIMMIN
 10
0.0
 20
0.0
  9
$PLIMMAX
 10
420.0
 20
297.0
  9
$UNITMODE
 70
     0
  9
$VISRETAIN
 70
     1
  9
$PLINEGEN
 70
     0
  9
$PSLTSCALE
 70
     1
  9
$TREEDEPTH
 70
  3020
  9
$CMLSTYLE
  2
Standard
  9
$CMLJUST
 70
     0
  9
$CMLSCALE
 40
1.0
  9
$PROXYGRAPHICS
 70
     1
  9
$MEASUREMENT
 70
     0
  9
$CELWEIGHT
370
    -1
  9
$ENDCAPS
280
     0
  9
$JOINSTYLE
280
     0
  9
$LWDISPLAY
290
     0
  9
$INSUNITS
 70
     0
  9
$HYPERLINKBASE
  1

  9
$STYLESHEET
  1

  9
$XEDIT
290
     1
  9
$CEPSNTYPE
380
     0
  9
$PSTYLEMODE
290
     1
  9
$FINGERPRINTGUID
  2
{72A21E09-A8AE-47B5-B4B4-ABFB77D8F593}
  9
$VERSIONGUID
  2
{03C79C55-22C9-4160-84B2-A32612C4318A}
  9
$EXTNAMES
290
     1
  9
$PSVPSCALE
 40
0.0
  9
$OLESTARTUP
290
     0
  0
ENDSEC
  0
SECTION
  2
CLASSES
  0
CLASS
  1
ACDBDICTIONARYWDFLT
  2
AcDbDictionaryWithDefault
  3
ObjectDBX Classes
 90
        0
280
     0
281
     0
  0
CLASS
  1
MATERIAL
  2
AcDbMaterial
  3
ObjectDBX Classes
 90
     1153
280
     0
281
     0
  0
CLASS
  1
VISUALSTYLE
  2
AcDbVisualStyle
  3
ObjectDBX Classes
 90
     4095
280
     0
281
     0
  0
CLASS
  1
SCALE
  2
AcDbScale
  3
ObjectDBX Classes
 90
     1153
280
     0
281
     0
  0
CLASS
  1
TABLESTYLE
  2
AcDbTableStyle
  3
ObjectDBX Classes
 90
     4095
280
     0
281
     0
  0
CLASS
  1
MLEADERSTYLE
  2
AcDbMLeaderStyle
  3
ACDB_MLEADERSTYLE_CLASS
 90
     4095
280
     0
281
     0
  0
CLASS
  1
ACDBSECTIONVIEWSTYLE
  2
AcDbSectionViewStyle
  3
ObjectDBX Classes
 90
     1025
280
     0
281
     0
  0
CLASS
  1
ACDBDETAILVIEWSTYLE
  2
AcDbDetailViewStyle
  3
ObjectDBX Classes
 90
     1025
280
     0
281
     0
  0
CLASS
  1
DICTIONARYVAR
  2
AcDbDictionaryVar
  3
ObjectDBX Classes
 90
        0
280
     0
281
     0
  0
CLASS
  1
CELLSTYLEMAP
  2
AcDbCellStyleMap
  3
ObjectDBX Classes
 90
     1152
280
     0
281
     0
  0
CLASS
  1
ACDBPLACEHOLDER
  2
AcDbPlaceHolder
  3
ObjectDBX Classes
 90
        0
280
     0
281
     0
  0
CLASS
  1
LAYOUT
  2
AcDbLayout
  3
ObjectDBX Classes
 90
        0
280
     0
281
     0
  0
ENDSEC
  0
SECTION
  2
TABLES
  0
TABLE
  2
VPORT
  5
72C
330
0
100
AcDbSymbolTable
 70
     1
  0
VPORT
  5
797
330
72C
100
AcDbSymbolTableRecord
100
AcDbViewportTableRecord
  2
*ACTIVE
 70
     0
 10
0.0
 20
0.0
 11
1.0
 21
1.0
 12
288.2879747195929
 22
119.1708988598005
 13
0.0
 23
0.0
 14
10.0
 24
10.0
 15
10.0
 25
10.0
 16
0.0
 26
0.0
 36
1.0
 17
0.0
 27
0.0
 37
0.0
 40
237.6409210859605
 41
1.899603698811096
 42
50.0
 43
0.0
 44
0.0
 50
0.0
 51
0.0
 71
     0
 72
   100
 73
     1
 74
     0
 75
     0
 76
     0
 77
     0
 78
     0
281
     0
 65
     1
110
0.0
120
0.0
130
0.0
111
1.0
121
0.0
131
0.0
112
0.0
122
1.0
132
0.0
 79
     0
146
0.0
1001
ACAD_NAV_VCDISPLAY
1070
     3
  0
ENDTAB
  0
TABLE
  2
LTYPE
  5
729
330
0
100
AcDbSymbolTable
 70
     4
  0
LTYPE
  5
77E
330
729
100
AcDbSymbolTableRecord
100
AcDbLinetypeTableRecord
  2
ByBlock
 70
     0
  3

 72
    65
 73
     0
 40
0.0
  0
LTYPE
  5
77F
330
729
100
AcDbSymbolTableRecord
100
AcDbLinetypeTableRecord
  2
ByLayer
 70
     0
  3

 72
    65
 73
     0
 40
0.0
  0
LTYPE
  5
780
330
729
100
AcDbSymbolTableRecord
100
AcDbLinetypeTableRecord
  2
CONTINUOUS
 70
     0
  3
Solid line
 72
    65
 73
     0
 40
0.0
  0
LTYPE
  5
798
330
729
100
AcDbSymbolTableRecord
100
AcDbLinetypeTableRecord
  2
DASHED
 70
     0
  3
Dashed __ __ __ __ __ __ __ __ __ __ __ __ __ _
 72
    65
 73
     2
 40
19.04999999999999
 49
12.7
 74
     0
 49
-6.349999999999998
 74
     0
  0
LTYPE
  5
799
330
729
100
AcDbSymbolTableRecord
100
AcDbLinetypeTableRecord
  2
CENTER
 70
     0
  3
Center ____ _ ____ _ ____ _ ____ _ ____ _ ____
 72
    65
 73
     4
 40
50.8
 49
31.75
 74
     0
 49
-6.349999999999998
 74
     0
 49
6.349999999999998
 74
     0
 49
-6.349999999999998
 74
     0
  0
LTYPE
  5
79A
330
729
100
AcDbSymbolTableRecord
100
AcDbLinetypeTableRecord
  2
PHANTOM
 70
     0
  3
Phantom ______  __  __  ______  __  __  ______
 72
    65
 73
     6
 40
63.5
 49
31.75
 74
     0
 49
-6.349999999999998
 74
     0
 49
6.349999999999998
 74
     0
 49
-6.349999999999998
 74
     0
 49
6.349999999999998
 74
     0
 49
-6.349999999999998
 74
     0
  0
ENDTAB
  0
TABLE
  2
LAYER
  5
726
330
0
100
AcDbSymbolTable
 70
     8
  0
LAYER
  5
778
102
{ACAD_XDICTIONARY
360
7AD
102
}
330
726
100
AcDbSymbolTableRecord
100
AcDbLayerTableRecord
  2
0
 70
     0
 62
     7
  6
CONTINUOUS
370
    -3
390
733
  0
LAYER
  5
79B
102
{ACAD_XDICTIONARY
360
7AF
102
}
330
726
100
AcDbSymbolTableRecord
100
AcDbLayerTableRecord
  2
4
 70
     0
 62
     1
  6
CENTER
370
    -3
390
733
  0
LAYER
  5
79C
102
{ACAD_XDICTIONARY
360
7B1
102
}
330
726
100
AcDbSymbolTableRecord
100
AcDbLayerTableRecord
  2
5
 70
     0
 62
     6
  6
PHANTOM
370
    -3
390
733
  0
LAYER
  5
79D
102
{ACAD_XDICTIONARY
360
7B3
102
}
330
726
100
AcDbSymbolTableRecord
100
AcDbLayerTableRecord
  2
1
 70
     0
 62
     7
  6
CONTINUOUS
370
    -3
390
733
  0
LAYER
  5
79E
102
{ACAD_XDICTIONARY
360
7B5
102
}
330
726
100
AcDbSymbolTableRecord
100
AcDbLayerTableRecord
  2
2
 70
     0
 62
     4
  6
CONTINUOUS
370
    -3
390
733
  0
LAYER
  5
79F
102
{ACAD_XDICTIONARY
360
7B7
102
}
330
726
100
AcDbSymbolTableRecord
100
AcDbLayerTableRecord
  2
3
 70
     0
 62
     2
  6
DASHED
370
    -3
390
733
  0
LAYER
  5
7A0
102
{ACAD_XDICTIONARY
360
7B9
102
}
330
726
100
AcDbSymbolTableRecord
100
AcDbLayerTableRecord
  2
6
 70
     0
 62
     5
  6
CONTINUOUS
370
    -3
390
733
  0
LAYER
  5
7A1
102
{ACAD_XDICTIONARY
360
7BB
102
}
330
726
100
AcDbSymbolTableRecord
100
AcDbLayerTableRecord
  2
7
 70
     0
 62
     3
  6
CONTINUOUS
370
    -3
390
733
  0
ENDTAB
  0
TABLE
  2
STYLE
  5
727
330
0
100
AcDbSymbolTable
 70
     2
  0
STYLE
  5
779
330
727
100
AcDbSymbolTableRecord
100
AcDbTextStyleTableRecord
  2
STANDARD
 70
     0
 40
0.0
 41
1.0
 50
0.0
 71
     0
 42
2.5
  3
simplex.shx
  4

  0
STYLE
  5
77D
330
727
100
AcDbSymbolTableRecord
100
AcDbTextStyleTableRecord
  2
Annotative
 70
     0
 40
0.0
 41
1.0
 50
0.0
 71
     0
 42
0.2
  3
txt
  4

1001
AcadAnnotative
1000
AnnotativeData
1002
{
1070
     1
1070
     1
1002
}
  0
ENDTAB
  0
TABLE
  2
VIEW
  5
72A
330
0
100
AcDbSymbolTable
 70
     0
  0
ENDTAB
  0
TABLE
  2
UCS
  5
72B
330
0
100
AcDbSymbolTable
 70
     0
  0
ENDTAB
  0
TABLE
  2
APPID
  5
72D
330
0
100
AcDbSymbolTable
 70
     6
  0
APPID
  5
77A
330
72D
100
AcDbSymbolTableRecord
100
AcDbRegAppTableRecord
  2
ACAD
 70
     0
  0
APPID
  5
781
330
72D
100
AcDbSymbolTableRecord
100
AcDbRegAppTableRecord
  2
AcadAnnotative
 70
     0
  0
APPID
  5
7A2
330
72D
100
AcDbSymbolTableRecord
100
AcDbRegAppTableRecord
  2
CONTENTTABDATA
 70
     0
  0
APPID
  5
7A3
330
72D
100
AcDbSymbolTableRecord
100
AcDbRegAppTableRecord
  2
CONTENTCURRENTTAB
 70
     0
  0
APPID
  5
7C7
330
72D
100
AcDbSymbolTableRecord
100
AcDbRegAppTableRecord
  2
ACAD_NAV_VCDISPLAY
 70
     0
  0
APPID
  5
800
330
72D
100
AcDbSymbolTableRecord
100
AcDbRegAppTableRecord
  2
ACAD_MLEADERVER
 70
     0
  0
ENDTAB
  0
TABLE
  2
DIMSTYLE
  5
72E
330
0
100
AcDbSymbolTable
 70
     2
100
AcDbDimStyleTable
 71
     0
  0
DIMSTYLE
105
77B
330
72E
100
AcDbSymbolTableRecord
100
AcDbDimStyleTableRecord
  2
STANDARD
 70
     0
 41
3.0
 42
1.0
 43
10.0
 44
1.0
 73
     0
 74
     0
 77
     3
 78
     8
140
3.2
141
0.0
147
1.0
172
     1
173
     1
279
     2
284
     8
285
     8
286
     8
340
779
  0
DIMSTYLE
105
77C
330
72E
100
AcDbSymbolTableRecord
100
AcDbDimStyleTableRecord
  2
Annotative
 70
     0
340
779
1001
AcadAnnotative
1000
AnnotativeData
1002
{
1070
     1
1070
     1
1002
}
  0
ENDTAB
  0
TABLE
  2
BLOCK_RECORD
  5
725
330
0
100
AcDbSymbolTable
 70
     3
  0
BLOCK_RECORD
  5
793
330
725
100
AcDbSymbolTableRecord
100
AcDbBlockTableRecord
  2
*Model_Space
340
796
  0
BLOCK_RECORD
  5
78F
330
725
100
AcDbSymbolTableRecord
100
AcDbBlockTableRecord
  2
*Paper_Space
340
792
  0
BLOCK_RECORD
  5
7A6
330
725
100
AcDbSymbolTableRecord
100
AcDbBlockTableRecord
  2
$MODEL_SPACE
340
0
  0
BLOCK_RECORD
  5
7A8
330
725
100
AcDbSymbolTableRecord
100
AcDbBlockTableRecord
  2
$PAPER_SPACE
340
0
  0
BLOCK_RECORD
  5
7AA
330
725
100
AcDbSymbolTableRecord
100
AcDbBlockTableRecord
  2
_OPEN
340
0
  0
ENDTAB
  0
ENDSEC
  0
SECTION
  2
BLOCKS
  0
BLOCK
  5
794
330
793
100
AcDbEntity
  8
0
100
AcDbBlockBegin
  2
*Model_Space
 70
     0
 10
0.0
 20
0.0
 30
0.0
  3
*Model_Space
  1

  0
ENDBLK
  5
795
330
793
100
AcDbEntity
  8
0
100
AcDbBlockEnd
  0
BLOCK
  5
790
330
78F
100
AcDbEntity
 67
     1
  8
0
100
AcDbBlockBegin
  2
*Paper_Space
 70
     0
 10
0.0
 20
0.0
 30
0.0
  3
*Paper_Space
  1

  0
ENDBLK
  5
791
330
78F
100
AcDbEntity
 67
     1
  8
0
100
AcDbBlockEnd
  0
BLOCK
  5
7A7
330
7A6
100
AcDbEntity
  8
0
100
AcDbBlockBegin
  2
$MODEL_SPACE
 70
     0
 10
0.0
 20
0.0
 30
0.0
  3
$MODEL_SPACE
  1

  0
ENDBLK
  5
1A
330
7A6
100
AcDbEntity
  8
0
100
AcDbBlockEnd
  0
BLOCK
  5
7A9
330
7A8
100
AcDbEntity
  8
0
100
AcDbBlockBegin
  2
$PAPER_SPACE
 70
     0
 10
0.0
 20
0.0
 30
0.0
  3
$PAPER_SPACE
  1

  0
ENDBLK
  5
17
330
7A8
100
AcDbEntity
  8
0
100
AcDbBlockEnd
  0
BLOCK
  5
7AB
330
7AA
100
AcDbEntity
  8
0
100
AcDbBlockBegin
  2
_OPEN
 70
     0
 10
0.0
 20
0.0
 30
0.0
  3
_OPEN
  1

  0
LINE
  5
30
330
7AA
100
AcDbEntity
  8
0
  6
ByBlock
 62
     0
100
AcDbLine
 10
-1.0
 20
0.1666666666666666
 30
0.0
 11
0.0
 21
0.0
 31
0.0
  0
LINE
  5
31
330
7AA
100
AcDbEntity
  8
0
  6
ByBlock
 62
     0
100
AcDbLine
 10
0.0
 20
0.0
 30
0.0
 11
-1.0
 21
-0.1666666666666666
 31
0.0
  0
LINE
  5
32
330
7AA
100
AcDbEntity
  8
0
  6
ByBlock
 62
     0
100
AcDbLine
 10
0.0
 20
0.0
 30
0.0
 11
-1.0
 21
0.0
 31
0.0
  0
ENDBLK
  5
33
330
7AA
100
AcDbEntity
  8
0
100
AcDbBlockEnd
  0
ENDSEC
  0
SECTION
  2
ENTITIES
  0
LINE
  5
29D
330
793
100
AcDbEntity
  8
1
  6
Continuous
100
AcDbLine
 10
235.7142976339189
 20
131.170258416001
 30
0.0
 11
222.5142976339189
 21
131.1702584160011
 31
0.0
  0
LINE
  5
29E
330
793
100
AcDbEntity
  8
1
  6
Continuous
100
AcDbLine
 10
235.7142976339189
 20
153.820258416001
 30
0.0
 11
232.7142976339189
 21
153.820258416001
 31
0.0
  0
LINE
  5
29F
330
793
100
AcDbEntity
  8
1
  6
Continuous
100
AcDbLine
 10
235.7142976339189
 20
153.1702584160008
 30
0.0
 11
222.2142976339188
 21
153.1702584160008
 31
0.0
  0
LINE
  5
2A0
330
793
100
AcDbEntity
  8
1
  6
Continuous
100
AcDbLine
 10
235.7142976339189
 20
151.670258416001
 30
0.0
 11
221.2142976339189
 21
151.670258416001
 31
0.0
  0
LINE
  5
2A1
330
793
100
AcDbEntity
  8
1
  6
Continuous
100
AcDbLine
 10
235.7142976339189
 20
149.170258416001
 30
0.0
 11
221.2142976339189
 21
149.170258416001
 31
0.0
  0
LINE
  5
2A2
330
793
100
AcDbEntity
  8
1
  6
Continuous
100
AcDbLine
 10
235.7142976339186
 20
113.170258416001
 30
0.0
 11
221.2142976339189
 21
113.170258416001
 31
0.0
  0
LINE
  5
2A3
330
793
100
AcDbEntity
  8
1
  6
Continuous
100
AcDbLine
 10
222.2142976339188
 20
176.170258416001
 30
0.0
 11
238.2142976339189
 21
176.170258416001
 31
0.0
  0
LINE
  5
2A4
330
793
100
AcDbEntity
  8
1
  6
Continuous
100
AcDbLine
 10
235.7142976339189
 20
110.670258416001
 30
0.0
 11
221.2142976339189
 21
110.670258416001
 31
0.0
  0
LINE
  5
2A5
330
793
100
AcDbEntity
  8
1
  6
Continuous
100
AcDbLine
 10
235.7142976339189
 20
108.520258416001
 30
0.0
 11
232.7142976339189
 21
108.520258416001
 31
0.0
  0
LINE
  5
2A6
330
793
100
AcDbEntity
  8
1
  6
Continuous
100
AcDbLine
 10
222.2142976339188
 20
109.170258416001
 30
0.0
 11
235.7142976339189
 21
109.170258416001
 31
0.0
  0
LINE
  5
2A7
330
793
100
AcDbEntity
  8
1
  6
Continuous
100
AcDbLine
 10
238.2142976339189
 20
86.17025841600097
 30
0.0
 11
222.2142976339188
 21
86.17025841600097
 31
0.0
  0
LINE
  5
2A8
330
793
100
AcDbEntity
  8
1
  6
Continuous
100
AcDbLine
 10
222.5142976339189
 20
149.170258416001
 30
0.0
 11
222.5142976339189
 21
113.170258416001
 31
0.0
  0
CIRCLE
  5
2A9
330
793
100
AcDbEntity
  8
1
  6
Continuous
100
AcDbCircle
 10
115.2142976339197
 20
140.170258416001
 30
0.0
 40
3.0
  0
LINE
  5
2AA
330
793
100
AcDbEntity
  8
1
  6
Continuous
100
AcDbLine
 10
119.0393411880621
 20
138.3178162957408
 30
0.0
 11
119.0393411880621
 21
124.0227005362607
 31
0.0
  0
LINE
  5
2AB
330
793
100
AcDbEntity
  8
1
  6
Continuous
100
AcDbLine
 10
120.0358629166539
 20
149.170258416001
 30
0.0
 11
120.0358629166542
 21
113.1702584160009
 31
0.0
  0
LINE
  5
2AC
330
793
100
AcDbEntity
  8
1
  6
Continuous
100
AcDbLine
 10
132.414297633923
 20
149.170258416001
 30
0.0
 11
132.414297633923
 21
113.170258416001
 31
0.0
  0
LINE
  5
2AD
330
793
100
AcDbEntity
  8
1
  6
Continuous
100
AcDbLine
 10
133.7142976339199
 20
151.670258416001
 30
0.0
 11
133.7142976339199
 21
110.6702584160009
 31
0.0
  0
LINE
  5
2AE
330
793
100
AcDbEntity
  8
4
  6
CENTER
100
AcDbLine
 10
115.2142976339197
 20
133.9202584160008
 30
0.0
 11
115.2142976339197
 21
146.4202584160008
 31
0.0
  0
LINE
  5
2AF
330
793
100
AcDbEntity
  8
1
  6
Continuous
100
AcDbLine
 10
110.7142976339231
 20
148.170258416001
 30
0.0
 11
110.7142976339231
 21
132.170258416001
 31
0.0
  0
CIRCLE
  5
2B0
330
793
100
AcDbEntity
  8
1
  6
Continuous
100
AcDbCircle
 10
115.2142976339197
 20
140.1702584160008
 30
0.0
 40
4.25
  0
LINE
  5
2B1
330
793
100
AcDbEntity
  8
1
  6
Continuous
100
AcDbLine
 10
25.01429763391991
 20
137.170258416001
 30
0.0
 11
25.01429763391991
 21
143.170258416001
 31
0.0
  0
LINE
  5
2B2
330
793
100
AcDbEntity
  8
1
  6
Continuous
100
AcDbLine
 10
29.91429763391982
 20
149.170258416001
 30
0.0
 11
29.91429763391982
 21
113.170258416001
 31
0.0
  0
LINE
  5
2B3
330
793
100
AcDbEntity
  8
1
  6
Continuous
100
AcDbLine
 10
23.51429763391989
 20
144.4202584160007
 30
0.0
 11
23.51429763391989
 21
135.9202584160008
 31
0.0
  0
ARC
  5
2B4
330
793
100
AcDbEntity
  8
1
  6
Continuous
100
AcDbCircle
 10
28.25318652280873
 20
140.1702584160009
 30
0.0
 40
9.338888888888872
100
AcDbArc
 50
154.6392330163613
 51
205.3607669836384
  0
ARC
  5
2B5
330
793
100
AcDbEntity
  8
1
  6
Continuous
100
AcDbCircle
 10
28.75318652280873
 20
140.1702584160009
 30
0.0
 40
9.338888888888872
100
AcDbArc
 50
154.6392330163613
 51
205.3607669836384
  0
LINE
  5
2B6
330
793
100
AcDbEntity
  8
1
  6
Continuous
100
AcDbLine
 10
18.91429763391988
 20
149.1702584160009
 30
0.0
 11
18.91429763391988
 21
113.1702584160009
 31
0.0
  0
LINE
  5
2B7
330
793
100
AcDbEntity
  8
1
  6
Continuous
100
AcDbLine
 10
20.31429763391741
 20
149.170258416001
 30
0.0
 11
20.31429763391747
 21
113.1702584160009
 31
0.0
  0
LINE
  5
2B8
330
793
100
AcDbEntity
  8
1
  6
Continuous
100
AcDbLine
 10
21.31429763391758
 20
149.1702584160009
 30
0.0
 11
21.31429763391764
 21
113.1702584160009
 31
0.0
  0
LINE
  5
2B9
330
793
100
AcDbEntity
  8
1
  6
Continuous
100
AcDbLine
 10
22.51429763391989
 20
149.170258416001
 30
0.0
 11
22.51429763392013
 21
113.170258416001
 31
0.0
  0
LINE
  5
2BA
330
793
100
AcDbEntity
  8
1
  6
Continuous
100
AcDbLine
 10
17.91429763392005
 20
149.1702584160009
 30
0.0
 11
17.91429763392028
 21
113.170258416001
 31
0.0
  0
LINE
  5
2BB
330
793
100
AcDbEntity
  8
4
  6
CENTER
100
AcDbLine
 10
23.71429763391995
 20
81.17025841600099
 30
0.0
 11
23.71429763391995
 21
181.1702584160008
 31
0.0
  0
LINE
  5
2BC
330
793
100
AcDbEntity
  8
4
  6
CENTER
100
AcDbLine
 10
126.2142976339196
 20
83.17025841600099
 30
0.0
 11
126.2142976339192
 21
179.1702584160009
 31
0.0
  0
LINE
  5
2BD
330
793
100
AcDbEntity
  8
1
  6
Continuous
100
AcDbLine
 10
168.7142976339196
 20
89.17025841600098
 30
0.0
 11
168.7142976339196
 21
173.170258416001
 31
0.0
  0
LINE
  5
2BE
330
793
100
AcDbEntity
  8
1
  6
Continuous
100
AcDbLine
 10
86.2142976339197
 20
89.17025841600098
 30
0.0
 11
86.21429763391986
 21
173.1702584160009
 31
0.0
  0
LINE
  5
2BF
330
793
100
AcDbEntity
  8
1
  6
Continuous
100
AcDbLine
 10
14.21429763391984
 20
176.170258416001
 30
0.0
 11
14.21429763391984
 21
86.17025841600097
 31
0.0
  0
LINE
  5
2C0
330
793
100
AcDbEntity
  8
1
  6
Continuous
100
AcDbLine
 10
16.71429763391984
 20
176.170258416001
 30
0.0
 11
16.71429763391984
 21
86.17025841600097
 31
0.0
  0
LINE
  5
2C1
330
793
100
AcDbEntity
  8
1
  6
Continuous
100
AcDbLine
 10
142.4142976339194
 20
176.170258416001
 30
0.0
 11
142.4142976339194
 21
86.17025841600097
 31
0.0
  0
TEXT
  5
2C2
330
793
100
AcDbEntity
  8
1
  6
Continuous
100
AcDbText
 10
9.999999064246617
 20
10.00000056761563
 30
0.0
 40
1.399999999999999
  1
LAYER
100
AcDbText
  0
TEXT
  5
2C3
330
793
100
AcDbEntity
  8
7
  6
Continuous
100
AcDbText
 10
9.999999064246617
 20
18.00000056761563
 30
0.0
 40
3.0
  1
TYPE No.TH-125-H
100
AcDbText
  0
TEXT
  5
2C4
330
793
100
AcDbEntity
  8
7
  6
Continuous
100
AcDbText
 10
9.999999064246617
 20
26.00000056761564
 30
0.0
 40
3.0
  1
CODE No.2630
100
AcDbText
  0
TEXT
  5
2C5
330
793
100
AcDbEntity
  8
7
  6
Continuous
100
AcDbText
 10
29.97951006424661
 20
9.999999806846744
 30
0.0
 40
1.399999999999999
  1
7
100
AcDbText
  0
TEXT
  5
2C6
330
793
100
AcDbEntity
  8
6
  6
Continuous
100
AcDbText
 10
27.97951006424661
 20
9.999999806846744
 30
0.0
 40
1.399999999999999
  1
6
100
AcDbText
  0
TEXT
  5
2C7
330
793
100
AcDbEntity
  8
5
  6
PHANTOM
100
AcDbText
 10
25.97951006424661
 20
9.999999806846744
 30
0.0
 40
1.399999999999999
  1
5
100
AcDbText
  0
TEXT
  5
2C8
330
793
100
AcDbEntity
  8
1
  6
Continuous
100
AcDbText
 10
17.97951006424661
 20
9.999999806846744
 30
0.0
 40
1.399999999999999
  1
1
100
AcDbText
  0
TEXT
  5
2C9
330
793
100
AcDbEntity
  8
3
  6
DASHED
100
AcDbText
 10
21.97951006424661
 20
9.999999806846744
 30
0.0
 40
1.399999999999999
  1
3
100
AcDbText
  0
TEXT
  5
2CA
330
793
100
AcDbEntity
  8
2
  6
Continuous
100
AcDbText
 10
19.97951006424661
 20
9.999999806846744
 30
0.0
 40
1.399999999999999
  1
2
100
AcDbText
  0
TEXT
  5
2CB
330
793
100
AcDbEntity
  8
4
  6
CENTER
100
AcDbText
 10
23.9795100642466
 20
9.999999806846744
 30
0.0
 40
1.399999999999999
  1
4
100
AcDbText
  0
LINE
  5
2CC
330
793
100
AcDbEntity
  8
1
  6
Continuous
100
AcDbLine
 10
31.21429763391984
 20
113.170258416001
 30
0.0
 11
31.21429763391984
 21
110.670258416001
 31
0.0
  0
LINE
  5
2CD
330
793
100
AcDbEntity
  8
1
  6
Continuous
100
AcDbLine
 10
14.21429763391984
 20
86.17025841600097
 30
0.0
 11
30.21429763391984
 21
86.17025841600097
 31
0.0
  0
LINE
  5
2CE
330
793
100
AcDbEntity
  8
1
  6
Continuous
100
AcDbLine
 10
30.21429763391995
 20
109.170258416001
 30
0.0
 11
16.71429763391984
 21
109.170258416001
 31
0.0
  0
LINE
  5
2CF
330
793
100
AcDbEntity
  8
1
  6
Continuous
100
AcDbLine
 10
16.71429763391984
 20
108.520258416001
 30
0.0
 11
30.21429763391984
 21
108.520258416001
 31
0.0
  0
LINE
  5
2D0
330
793
100
AcDbEntity
  8
1
  6
Continuous
100
AcDbLine
 10
16.71429763391984
 20
110.670258416001
 30
0.0
 11
31.21429763391984
 21
110.670258416001
 31
0.0
  0
LINE
  5
2D1
330
793
100
AcDbEntity
  8
4
  6
CENTER
100
AcDbLine
 10
19.71429763391984
 20
96.17025841600105
 30
0.0
 11
11.21429763391978
 21
96.17025841600105
 31
0.0
  0
LINE
  5
2D3
330
793
100
AcDbEntity
  8
1
  6
Continuous
100
AcDbLine
 10
19.71429763392
 20
109.170258416001
 30
0.0
 11
19.71429763392
 21
108.520258416001
 31
0.0
  0
LINE
  5
2D4
330
793
100
AcDbEntity
  8
1
  6
Continuous
100
AcDbLine
 10
30.21429763391984
 20
86.17025841600097
 30
0.0
 11
30.21429763391984
 21
108.520258416001
 31
0.0
  0
LINE
  5
2D5
330
793
100
AcDbEntity
  8
1
  6
Continuous
100
AcDbLine
 10
30.21429763391995
 20
109.170258416001
 30
0.0
 11
30.21429763391995
 21
110.670258416001
 31
0.0
  0
LINE
  5
2D6
330
793
100
AcDbEntity
  8
1
  6
Continuous
100
AcDbLine
 10
27.71429763392001
 20
109.170258416001
 30
0.0
 11
27.71429763392001
 21
108.520258416001
 31
0.0
  0
LINE
  5
2D7
330
793
100
AcDbEntity
  8
1
  6
Continuous
100
AcDbLine
 10
20.31429763391764
 20
114.1702584160009
 30
0.0
 11
22.51429763392013
 21
114.170258416001
 31
0.0
  0
LINE
  5
2D8
330
793
100
AcDbEntity
  8
1
  6
Continuous
100
AcDbLine
 10
20.31429763391759
 20
132.170258416001
 30
0.0
 11
22.51429763391989
 21
132.170258416001
 31
0.0
  0
LINE
  5
2D9
330
793
100
AcDbEntity
  8
1
  6
Continuous
100
AcDbLine
 10
20.31429763391759
 20
130.1702584160009
 30
0.0
 11
22.51429763392013
 21
130.170258416001
 31
0.0
  0
LINE
  5
2DA
330
793
100
AcDbEntity
  8
1
  6
Continuous
100
AcDbLine
 10
20.31429763391753
 20
131.170258416001
 30
0.0
 11
29.91429763391982
 21
131.1702584160011
 31
0.0
  0
LINE
  5
2DB
330
793
100
AcDbEntity
  8
4
  6
CENTER
100
AcDbLine
 10
26.81429763391992
 20
122.058856261742
 30
0.0
 11
15.01429763391985
 21
122.0588562617418
 31
0.0
  0
LINE
  5
2DC
330
793
100
AcDbEntity
  8
1
  6
Continuous
100
AcDbLine
 10
16.71429763392007
 20
113.170258416001
 30
0.0
 11
31.21429763391984
 21
113.170258416001
 31
0.0
  0
ARC
  5
2DD
330
793
100
AcDbEntity
  8
1
  6
Continuous
100
AcDbCircle
 10
28.25318652280884
 20
122.170258416001
 30
0.0
 40
9.338888888888872
100
AcDbArc
 50
154.6392330163613
 51
205.3607669836384
  0
ARC
  5
2DE
330
793
100
AcDbEntity
  8
1
  6
Continuous
100
AcDbCircle
 10
28.75318652280879
 20
122.170258416001
 30
0.0
 40
9.338888888888872
100
AcDbArc
 50
154.6392330163613
 51
205.3607669836384
  0
LINE
  5
2DF
330
793
100
AcDbEntity
  8
4
  6
CENTER
100
AcDbLine
 10
19.71429763391984
 20
117.1702584160009
 30
0.0
 11
11.21429763391978
 21
117.1702584160009
 31
0.0
  0
LINE
  5
2E0
330
793
100
AcDbEntity
  8
1
  6
Continuous
100
AcDbLine
 10
20.31429763391997
 20
118.1702584160012
 30
0.0
 11
19.41429763392
 21
114.1702584160012
 31
0.0
  0
LINE
  5
2E1
330
793
100
AcDbEntity
  8
1
  6
Continuous
100
AcDbLine
 10
19.81429763391997
 20
118.1702584160012
 30
0.0
 11
18.91429763391988
 21
114.1702584160011
 31
0.0
  0
LINE
  5
2E2
330
793
100
AcDbEntity
  8
1
  6
Continuous
100
AcDbLine
 10
19.63929763391996
 20
115.1702584160011
 30
0.0
 11
19.13929763391989
 21
115.1702584160011
 31
0.0
  0
LINE
  5
2E3
330
793
100
AcDbEntity
  8
1
  6
Continuous
100
AcDbLine
 10
16.71429763392024
 20
114.170258416001
 30
0.0
 11
19.41429763391994
 21
114.1702584160012
 31
0.0
  0
LINE
  5
2E4
330
793
100
AcDbEntity
  8
1
  6
Continuous
100
AcDbLine
 10
19.7551397525919
 20
119.6702584160009
 30
0.0
 11
20.31429763391759
 21
119.6702584160009
 31
0.0
  0
LINE
  5
2E5
330
793
100
AcDbEntity
  8
1
  6
Continuous
100
AcDbLine
 10
18.91429763391988
 20
119.6702584160009
 30
0.0
 11
19.2551397525919
 21
119.6702584160009
 31
0.0
  0
LINE
  5
2E6
330
793
100
AcDbEntity
  8
1
  6
Continuous
100
AcDbLine
 10
19.75513975259184
 20
124.670258416001
 30
0.0
 11
20.31429763391759
 21
124.670258416001
 31
0.0
  0
LINE
  5
2E7
330
793
100
AcDbEntity
  8
1
  6
Continuous
100
AcDbLine
 10
18.91429763391988
 20
124.670258416001
 30
0.0
 11
19.25513975259184
 21
124.670258416001
 31
0.0
  0
LINE
  5
2E8
330
793
100
AcDbEntity
  8
1
  6
Continuous
100
AcDbLine
 10
19.13929763391989
 20
129.1702584160011
 30
0.0
 11
19.63929763392024
 21
129.1702584160011
 31
0.0
  0
LINE
  5
2E9
330
793
100
AcDbEntity
  8
1
  6
Continuous
100
AcDbLine
 10
19.41429763391863
 20
130.1702584160009
 30
0.0
 11
20.31429763392111
 21
126.1702584160014
 31
0.0
  0
LINE
  5
2EA
330
793
100
AcDbEntity
  8
1
  6
Continuous
100
AcDbLine
 10
18.91429763391988
 20
130.1702584160011
 30
0.0
 11
19.81429763391997
 21
126.1702584160011
 31
0.0
  0
LINE
  5
2EB
330
793
100
AcDbEntity
  8
1
  6
Continuous
100
AcDbLine
 10
16.71429763392024
 20
130.170258416001
 30
0.0
 11
19.41429763391994
 21
130.1702584160011
 31
0.0
  0
LINE
  5
2EC
330
793
100
AcDbEntity
  8
1
  6
Continuous
100
AcDbLine
 10
16.71429763392007
 20
131.170258416001
 30
0.0
 11
18.91429763391994
 21
131.1702584160009
 31
0.0
  0
LINE
  5
2ED
330
793
100
AcDbEntity
  8
1
  6
Continuous
100
AcDbLine
 10
19.63929763391984
 20
133.1702584160008
 30
0.0
 11
19.13929763391984
 21
133.1702584160008
 31
0.0
  0
LINE
  5
2EE
330
793
100
AcDbEntity
  8
1
  6
Continuous
100
AcDbLine
 10
20.3142976339198
 20
136.170258416001
 30
0.0
 11
19.41429763391976
 21
132.170258416001
 31
0.0
  0
LINE
  5
2EF
330
793
100
AcDbEntity
  8
1
  6
Continuous
100
AcDbLine
 10
19.81429763391986
 20
136.170258416001
 30
0.0
 11
18.9142976339197
 21
132.1702584160009
 31
0.0
  0
LINE
  5
2F0
330
793
100
AcDbEntity
  8
1
  6
Continuous
100
AcDbLine
 10
16.71429763392001
 20
132.170258416001
 30
0.0
 11
19.41429763391988
 21
132.1702584160009
 31
0.0
  0
LINE
  5
2F1
330
793
100
AcDbEntity
  8
1
  6
Continuous
100
AcDbLine
 10
19.75513975259173
 20
137.670258416001
 30
0.0
 11
20.31429763391759
 21
137.670258416001
 31
0.0
  0
LINE
  5
2F2
330
793
100
AcDbEntity
  8
1
  6
Continuous
100
AcDbLine
 10
18.91429763391988
 20
137.670258416001
 30
0.0
 11
19.25513975259173
 21
137.670258416001
 31
0.0
  0
LINE
  5
2F3
330
793
100
AcDbEntity
  8
1
  6
Continuous
100
AcDbLine
 10
23.51429763391989
 20
124.670258416001
 30
0.0
 11
25.01429763391991
 21
125.170258416001
 31
0.0
  0
LINE
  5
2F4
330
793
100
AcDbEntity
  8
1
  6
Continuous
100
AcDbLine
 10
25.01429763391991
 20
119.1702584160009
 30
0.0
 11
25.01429763391991
 21
125.1702584160009
 31
0.0
  0
LINE
  5
2F5
330
793
100
AcDbEntity
  8
1
  6
Continuous
100
AcDbLine
 10
23.51429763391989
 20
126.420258416001
 30
0.0
 11
23.51429763391989
 21
117.920258416001
 31
0.0
  0
LINE
  5
2F6
330
793
100
AcDbEntity
  8
1
  6
Continuous
100
AcDbLine
 10
23.51429763391989
 20
117.9202584160009
 30
0.0
 11
22.51429763391996
 21
117.9202584160009
 31
0.0
  0
LINE
  5
2F7
330
793
100
AcDbEntity
  8
1
  6
Continuous
100
AcDbLine
 10
23.51429763391989
 20
119.670258416001
 30
0.0
 11
25.01429763391991
 21
119.1702584160009
 31
0.0
  0
LINE
  5
2F8
330
793
100
AcDbEntity
  8
1
  6
Continuous
100
AcDbLine
 10
23.51429763391989
 20
126.420258416001
 30
0.0
 11
22.51429763391996
 21
126.420258416001
 31
0.0
  0
LINE
  5
2F9
330
793
100
AcDbEntity
  8
1
  6
Continuous
100
AcDbLine
 10
23.51429763391989
 20
135.9202584160008
 30
0.0
 11
22.51429763391996
 21
135.9202584160008
 31
0.0
  0
LINE
  5
2FA
330
793
100
AcDbEntity
  8
1
  6
Continuous
100
AcDbLine
 10
23.51429763391985
 20
137.6702584160011
 30
0.0
 11
25.01429763391991
 21
137.170258416001
 31
0.0
  0
ARC
  5
2FB
330
793
100
AcDbEntity
  8
1
  6
Continuous
100
AcDbCircle
 10
127.2495738143293
 20
50.35376465908233
 30
0.0
 40
2.499999999999999
100
AcDbArc
 50
14.99999999999957
 51
75.00000000000219
  0
ARC
  5
2FC
330
793
100
AcDbEntity
  8
1
  6
Continuous
100
AcDbCircle
 10
126.2142976339192
 20
46.49006135392613
 30
0.0
 40
6.499999999999996
100
AcDbArc
 50
0.0
 51
75.00000000000037
  0
ARC
  5
2FD
330
793
100
AcDbEntity
  8
1
  6
Continuous
100
AcDbCircle
 10
126.2142976339192
 20
46.49006135392603
 30
0.0
 40
6.500000000000026
100
AcDbArc
 50
75.00000000000219
 51
270.0
  0
ARC
  5
2FE
330
793
100
AcDbEntity
  8
1
  6
Continuous
100
AcDbCircle
 10
126.2142976339197
 20
46.49006135392603
 30
0.0
 40
7.5
100
AcDbArc
 50
0.0
 51
180.0
  0
LINE
  5
2FF
330
793
100
AcDbEntity
  8
4
  6
CENTER
100
AcDbLine
 10
126.2142976339197
 20
34.79006135392607
 30
0.0
 11
126.2142976339197
 21
55.99006135392604
 31
0.0
  0
LINE
  5
300
330
793
100
AcDbEntity
  8
1
  6
Continuous
100
AcDbLine
 10
142.4142976339197
 20
36.99006135392604
 30
0.0
 11
168.7142976339193
 21
36.99006135392604
 31
0.0
  0
LINE
  5
301
330
793
100
AcDbEntity
  8
1
  6
Continuous
100
AcDbLine
 10
142.4142976339197
 20
39.49006135392604
 30
0.0
 11
168.7142976339193
 21
39.49006135392604
 31
0.0
  0
LINE
  5
302
330
793
100
AcDbEntity
  8
1
  6
Continuous
100
AcDbLine
 10
118.7142976339194
 20
40.69006135392505
 30
0.0
 11
110.7142976339229
 21
40.69006135392505
 31
0.0
  0
LINE
  5
303
330
793
100
AcDbEntity
  8
1
  6
Continuous
100
AcDbLine
 10
111.7142976339193
 20
42.1900613539263
 30
0.0
 11
118.7142976339193
 21
42.1900613539263
 31
0.0
  0
LINE
  5
304
330
793
100
AcDbEntity
  8
1
  6
Continuous
100
AcDbLine
 10
118.2142976339192
 20
47.79006135392614
 30
0.0
 11
112.2142976339192
 21
47.79006135392614
 31
0.0
  0
LINE
  5
305
330
793
100
AcDbEntity
  8
1
  6
Continuous
100
AcDbLine
 10
118.7142976339194
 20
45.29006135392636
 30
0.0
 11
110.7142976339229
 21
45.29006135392636
 31
0.0
  0
LINE
  5
306
330
793
100
AcDbEntity
  8
1
  6
Continuous
100
AcDbLine
 10
110.7142976339193
 20
43.09006135392388
 30
0.0
 11
118.7142976339194
 21
43.09006135392297
 31
0.0
  0
LINE
  5
307
330
793
100
AcDbEntity
  8
1
  6
Continuous
100
AcDbLine
 10
118.7142976339194
 20
44.09006135392395
 30
0.0
 11
110.7142976339193
 21
44.09006135392395
 31
0.0
  0
LINE
  5
308
330
793
100
AcDbEntity
  8
1
  6
Continuous
100
AcDbLine
 10
118.7142976339194
 20
41.69006135392629
 30
0.0
 11
110.7142976339193
 21
41.69006135392629
 31
0.0
  0
LINE
  5
309
330
793
100
AcDbEntity
  8
1
  6
Continuous
100
AcDbLine
 10
110.9642976339192
 20
46.29006135392613
 30
0.0
 11
118.7142976339194
 21
46.29006135392613
 31
0.0
  0
LINE
  5
30A
330
793
100
AcDbEntity
  8
1
  6
Continuous
100
AcDbLine
 10
86.21429763391962
 20
39.49006135392604
 30
0.0
 11
118.7142976339194
 21
39.49006135392601
 31
0.0
  0
LINE
  5
30B
330
793
100
AcDbEntity
  8
1
  6
Continuous
100
AcDbLine
 10
86.21429763391962
 20
36.99006135392604
 30
0.0
 11
133.7142976339196
 21
36.99006135392604
 31
0.0
  0
LINE
  5
30C
330
793
100
AcDbEntity
  8
1
  6
Continuous
100
AcDbLine
 10
86.21429763391962
 20
39.49006135392604
 30
0.0
 11
86.21429763391962
 21
36.99006135392604
 31
0.0
  0
LINE
  5
30D
330
793
100
AcDbEntity
  8
4
  6
CENTER
100
AcDbLine
 10
106.2142976339194
 20
42.49006135392604
 30
0.0
 11
106.2142976339194
 21
33.99006135392601
 31
0.0
  0
LINE
  5
30E
330
793
100
AcDbEntity
  8
4
  6
CENTER
100
AcDbLine
 10
94.2142976339195
 20
42.49006135392604
 30
0.0
 11
94.2142976339195
 21
33.99006135392601
 31
0.0
  0
LINE
  5
30F
330
793
100
AcDbEntity
  8
1
  6
Continuous
100
AcDbLine
 10
111.7142976339193
 20
39.49006135392601
 30
0.0
 11
111.7142976339193
 21
45.29006135392636
 31
0.0
  0
LINE
  5
310
330
793
100
AcDbEntity
  8
1
  6
Continuous
100
AcDbLine
 10
110.7142976339229
 20
45.29006135392636
 30
0.0
 11
110.7142976339229
 21
39.49006135392601
 31
0.0
  0
LINE
  5
311
330
793
100
AcDbEntity
  8
1
  6
Continuous
100
AcDbLine
 10
110.7142976339193
 20
41.91506135392614
 30
0.0
 11
111.7142976339193
 21
41.69006135392606
 31
0.0
  0
LINE
  5
312
330
793
100
AcDbEntity
  8
1
  6
Continuous
100
AcDbLine
 10
111.7142976339193
 20
42.1900613539263
 30
0.0
 11
110.7142976339192
 21
42.41506135392628
 31
0.0
  0
LINE
  5
313
330
793
100
AcDbEntity
  8
1
  6
Continuous
100
AcDbLine
 10
112.7142976339192
 20
46.29006135392613
 30
0.0
 11
112.2142976339192
 21
47.79006135392614
 31
0.0
  0
LINE
  5
314
330
793
100
AcDbEntity
  8
1
  6
Continuous
100
AcDbLine
 10
110.9642976339192
 20
46.29006135392613
 30
0.0
 11
110.9642976339192
 21
45.29006135392614
 31
0.0
  0
ARC
  5
315
330
793
100
AcDbEntity
  8
1
  6
Continuous
100
AcDbCircle
 10
126.2142976339192
 20
46.49006135392613
 30
0.0
 40
6.499999999999996
100
AcDbArc
 50
322.0201275551467
 51
0.0
  0
LINE
  5
316
330
793
100
AcDbEntity
  8
1
  6
Continuous
100
AcDbLine
 10
126.2142976339192
 20
39.99006135392604
 30
0.0
 11
138.130556356329
 21
39.99006135392604
 31
0.0
  0
LINE
  5
317
330
793
100
AcDbEntity
  8
1
  6
Continuous
100
AcDbLine
 10
138.130556356329
 20
42.49006135392604
 30
0.0
 11
126.2142976339192
 21
42.49006135392604
 31
0.0
  0
LINE
  5
318
330
793
100
AcDbEntity
  8
4
  6
CENTER
100
AcDbLine
 10
135.7142976339197
 20
46.49006135392603
 30
0.0
 11
116.7142976339196
 21
46.49006135392603
 31
0.0
  0
LINE
  5
319
330
793
100
AcDbEntity
  8
1
  6
Continuous
100
AcDbLine
 10
130.7142976339192
 20
36.99006135392604
 30
0.0
 11
130.7142976339192
 21
39.99006135392604
 31
0.0
  0
LINE
  5
31A
330
793
100
AcDbEntity
  8
1
  6
Continuous
100
AcDbLine
 10
113.7142976339196
 20
36.99006135392604
 30
0.0
 11
113.7142976339196
 21
39.49006135392604
 31
0.0
  0
LINE
  5
31B
330
793
100
AcDbEntity
  8
4
  6
CENTER
100
AcDbLine
 10
115.2142976339193
 20
49.29006135392615
 30
0.0
 11
115.2142976339193
 21
33.99006135392601
 31
0.0
  0
LINE
  5
31C
330
793
100
AcDbEntity
  8
1
  6
Continuous
100
AcDbLine
 10
118.7142976339194
 20
36.99006135392601
 30
0.0
 11
118.7142976339194
 21
46.49006135392603
 31
0.0
  0
LINE
  5
31D
330
793
100
AcDbEntity
  8
1
  6
Continuous
100
AcDbLine
 10
121.7142976339197
 20
41.79964559410236
 30
0.0
 11
121.7142976339197
 21
36.99006135392604
 31
0.0
  0
LINE
  5
31E
330
793
100
AcDbEntity
  8
1
  6
Continuous
100
AcDbLine
 10
123.2800174836969
 20
40.69006135392505
 30
0.0
 11
121.7142976339197
 21
40.69006135392505
 31
0.0
  0
LINE
  5
31F
330
793
100
AcDbEntity
  8
1
  6
Continuous
100
AcDbLine
 10
130.7142976339192
 20
39.49006135392628
 30
0.0
 11
121.7142976339197
 21
39.49006135392628
 31
0.0
  0
ARC
  5
320
330
793
100
AcDbEntity
  8
1
  6
Continuous
100
AcDbCircle
 10
126.2142976339192
 20
46.49006135392603
 30
0.0
 40
3.999999999999955
100
AcDbArc
 50
75.00000000000037
 51
270.0
  0
LINE
  5
321
330
793
100
AcDbEntity
  8
1
  6
Continuous
100
AcDbLine
 10
117.7142976339192
 20
46.29006135392613
 30
0.0
 11
118.2142976339192
 21
47.79006135392614
 31
0.0
  0
ARC
  5
322
330
793
100
AcDbEntity
  8
1
  6
Continuous
100
AcDbCircle
 10
126.2142976339196
 20
46.49006135392627
 30
0.0
 40
3.5
100
AcDbArc
 50
104.9999999999958
 51
319.849904579042
  0
LINE
  5
323
330
793
100
AcDbEntity
  8
1
  6
Continuous
100
AcDbLine
 10
131.4575393243882
 20
44.30868184193617
 30
0.0
 11
129.664388380052
 21
51.00081227183856
 31
0.0
  0
LINE
  5
324
330
793
100
AcDbEntity
  8
1
  6
Continuous
100
AcDbLine
 10
127.2495738143293
 20
50.35376465908228
 30
0.0
 11
129.0427247586653
 21
43.66163422917998
 31
0.0
  0
ARC
  5
325
330
793
100
AcDbEntity
  8
1
  6
Continuous
100
AcDbCircle
 10
126.2142976339193
 20
46.49006135392627
 30
0.0
 40
4.0
100
AcDbArc
 50
269.9999999999966
 51
314.9999999999959
  0
LINE
  5
326
330
793
100
AcDbEntity
  8
1
  6
Continuous
100
AcDbLine
 10
129.0427247586651
 20
43.66163422917985
 30
0.0
 11
131.4575393243881
 21
44.30868184193616
 31
0.0
  0
ARC
  5
327
330
793
100
AcDbEntity
  8
1
  6
Continuous
100
AcDbCircle
 10
126.2142976339196
 20
46.49006135392627
 30
0.0
 40
3.5
100
AcDbArc
 50
70.15009542094954
 51
104.9999999999958
  0
LINE
  5
328
330
793
100
AcDbEntity
  8
4
  6
CENTER
100
AcDbLine
 10
148.2142976339192
 20
42.49006135392604
 30
0.0
 11
148.2142976339192
 21
33.99006135392601
 31
0.0
  0
LINE
  5
329
330
793
100
AcDbEntity
  8
1
  6
Continuous
100
AcDbLine
 10
140.7387306536165
 20
37.63467048014289
 30
0.0
 11
138.1305563563288
 21
39.99006135392626
 31
0.0
  0
LINE
  5
32A
330
793
100
AcDbEntity
  8
1
  6
Continuous
100
AcDbLine
 10
133.7142976339196
 20
39.99006135392604
 30
0.0
 11
133.7142976339196
 21
36.99006135392604
 31
0.0
  0
ARC
  5
32B
330
793
100
AcDbEntity
  8
1
  6
Continuous
100
AcDbCircle
 10
142.4142976339197
 20
39.49006135392604
 30
0.0
 40
2.5
100
AcDbArc
 50
227.915428860625
 51
270.0
  0
LINE
  5
32C
330
793
100
AcDbEntity
  8
1
  6
Continuous
100
AcDbLine
 10
142.4142976339197
 20
39.49006135392604
 30
0.0
 11
139.806123336632
 21
41.84545222770934
 31
0.0
  0
LINE
  5
32D
330
793
100
AcDbEntity
  8
1
  6
Continuous
100
AcDbLine
 10
133.7142976339196
 20
46.49006135392603
 30
0.0
 11
133.7142976339196
 21
42.49006135392604
 31
0.0
  0
ARC
  5
32E
330
793
100
AcDbEntity
  8
1
  6
Continuous
100
AcDbCircle
 10
138.130556356329
 20
39.99006135392604
 30
0.0
 40
2.5
100
AcDbArc
 50
47.9154288606269
 51
89.99999999999998
  0
LINE
  5
32F
330
793
100
AcDbEntity
  8
1
  6
Continuous
100
AcDbLine
 10
168.7142976339193
 20
36.99006135392604
 30
0.0
 11
168.7142976339193
 21
39.49006135392604
 31
0.0
  0
LINE
  5
330
330
793
100
AcDbEntity
  8
4
  6
CENTER
100
AcDbLine
 10
160.2142976339193
 20
42.49006135392604
 30
0.0
 11
160.2142976339193
 21
33.99006135392601
 31
0.0
  0
LINE
  5
331
330
793
100
AcDbEntity
  8
1
  6
Continuous
100
AcDbLine
 10
151.219273546225
 20
125.646539447199
 30
0.0
 11
153.719273546225
 21
125.646539447199
 31
0.0
  0
LINE
  5
332
330
793
100
AcDbEntity
  8
1
  6
Continuous
100
AcDbLine
 10
151.219273546225
 20
124.209039447199
 30
0.0
 11
153.719273546225
 21
124.209039447199
 31
0.0
  0
LINE
  5
333
330
793
100
AcDbEntity
  8
1
  6
Continuous
100
AcDbLine
 10
151.219273546225
 20
122.7567995577004
 30
0.0
 11
153.719273546225
 21
122.7567995577004
 31
0.0
  0
LINE
  5
334
330
793
100
AcDbEntity
  8
1
  6
Continuous
100
AcDbLine
 10
151.219273546225
 20
133.4132975647516
 30
0.0
 11
152.469273546225
 21
133.4132975647516
 31
0.0
  0
LINE
  5
335
330
793
100
AcDbEntity
  8
1
  6
Continuous
100
AcDbLine
 10
151.219273546225
 20
129.4028313977445
 30
0.0
 11
151.8733448522428
 21
129.097832938769
 31
0.0
  0
LINE
  5
336
330
793
100
AcDbEntity
  8
1
  6
Continuous
100
AcDbLine
 10
151.219273546225
 20
129.4028313977445
 30
0.0
 11
153.719273546225
 21
129.4028313977445
 31
0.0
  0
ARC
  5
337
330
793
100
AcDbEntity
  8
1
  6
Continuous
100
AcDbCircle
 10
151.844273546225
 20
131.4891935423662
 30
0.0
 40
0.6250000000000006
100
AcDbArc
 50
53.13010235415533
 51
270.0
  0
LINE
  5
338
330
793
100
AcDbEntity
  8
1
  6
Continuous
100
AcDbLine
 10
165.7142976339196
 20
86.17025841600097
 30
0.0
 11
119.7142976339193
 21
86.17025841600097
 31
0.0
  0
LINE
  5
339
330
793
100
AcDbEntity
  8
4
  6
CENTER
100
AcDbLine
 10
152.4642976339197
 20
96.17025841600105
 30
0.0
 11
143.9642976339197
 21
96.17025841600105
 31
0.0
  0
ARC
  5
33A
330
793
100
AcDbEntity
  8
1
  6
Continuous
100
AcDbCircle
 10
112.2142976339199
 20
87.67025841600093
 30
0.0
 40
1.5
100
AcDbArc
 50
270.0
 51
0.0
  0
LINE
  5
33B
330
793
100
AcDbEntity
  8
1
  6
Continuous
100
AcDbLine
 10
133.7142976339197
 20
113.170258416001
 30
0.0
 11
111.7142976339232
 21
113.170258416001
 31
0.0
  0
LINE
  5
33C
330
793
100
AcDbEntity
  8
1
  6
Continuous
100
AcDbLine
 10
132.414297633923
 20
131.170258416001
 30
0.0
 11
111.7142976339232
 21
131.170258416001
 31
0.0
  0
CIRCLE
  5
33D
330
793
100
AcDbEntity
  8
1
  6
Continuous
100
AcDbCircle
 10
115.2142976339197
 20
122.1702584160009
 30
0.0
 40
3.0
  0
CIRCLE
  5
33E
330
793
100
AcDbEntity
  8
1
  6
Continuous
100
AcDbCircle
 10
115.2142976339197
 20
122.1702584160009
 30
0.0
 40
4.25
  0
LINE
  5
33F
330
793
100
AcDbEntity
  8
4
  6
CENTER
100
AcDbLine
 10
121.4642976339197
 20
122.1702584160009
 30
0.0
 11
108.9642976339197
 21
122.1702584160009
 31
0.0
  0
LINE
  5
340
330
793
100
AcDbEntity
  8
1
  6
Continuous
100
AcDbLine
 10
112.2142976339199
 20
86.17025841600097
 30
0.0
 11
89.21429763391985
 21
86.17025841600097
 31
0.0
  0
ARC
  5
341
330
793
100
AcDbEntity
  8
1
  6
Continuous
100
AcDbCircle
 10
89.21429763391985
 20
89.17025841600098
 30
0.0
 40
3.0
100
AcDbArc
 50
180.0
 51
270.0
  0
CIRCLE
  5
342
330
793
100
AcDbEntity
  8
1
  6
Continuous
100
AcDbCircle
 10
106.2142976339198
 20
96.1702584160009
 30
0.0
 40
2.25
  0
LINE
  5
343
330
793
100
AcDbEntity
  8
4
  6
CENTER
100
AcDbLine
 10
106.2142976339198
 20
91.92025841600099
 30
0.0
 11
106.2142976339198
 21
100.420258416001
 31
0.0
  0
LINE
  5
344
330
793
100
AcDbEntity
  8
4
  6
CENTER
100
AcDbLine
 10
110.4642976339198
 20
96.17025841600105
 30
0.0
 11
101.9642976339198
 21
96.17025841600105
 31
0.0
  0
CIRCLE
  5
345
330
793
100
AcDbEntity
  8
1
  6
Continuous
100
AcDbCircle
 10
94.21429763391985
 20
117.1702584160009
 30
0.0
 40
2.25
  0
LINE
  5
346
330
793
100
AcDbEntity
  8
4
  6
CENTER
100
AcDbLine
 10
98.46429763391974
 20
117.170258416001
 30
0.0
 11
89.96429763391986
 21
117.170258416001
 31
0.0
  0
LINE
  5
347
330
793
100
AcDbEntity
  8
1
  6
Continuous
100
AcDbLine
 10
110.7142976339232
 20
130.170258416001
 30
0.0
 11
110.7142976339232
 21
114.170258416001
 31
0.0
  0
LINE
  5
348
330
793
100
AcDbEntity
  8
4
  6
CENTER
100
AcDbLine
 10
94.21429763391985
 20
112.920258416001
 30
0.0
 11
94.21429763391985
 21
121.420258416001
 31
0.0
  0
LINE
  5
349
330
793
100
AcDbEntity
  8
1
  6
Continuous
100
AcDbLine
 10
111.7142976339232
 20
113.170258416001
 30
0.0
 11
110.7142976339232
 21
114.170258416001
 31
0.0
  0
LINE
  5
34A
330
793
100
AcDbEntity
  8
1
  6
Continuous
100
AcDbLine
 10
111.7142976339231
 20
131.1702584160011
 30
0.0
 11
110.7142976339231
 21
132.170258416001
 31
0.0
  0
LINE
  5
34B
330
793
100
AcDbEntity
  8
1
  6
Continuous
100
AcDbLine
 10
110.7142976339232
 20
130.170258416001
 30
0.0
 11
111.7142976339232
 21
131.170258416001
 31
0.0
  0
ARC
  5
34C
330
793
100
AcDbEntity
  8
1
  6
Continuous
100
AcDbCircle
 10
139.4142976339195
 20
111.5202584160009
 30
0.0
 40
3.0
100
AcDbArc
 50
270.0
 51
0.0
  0
LINE
  5
34D
330
793
100
AcDbEntity
  8
1
  6
Continuous
100
AcDbLine
 10
118.7142976339198
 20
113.170258416001
 30
0.0
 11
118.7142976339198
 21
110.670258416001
 31
0.0
  0
LINE
  5
34E
330
793
100
AcDbEntity
  8
1
  6
Continuous
100
AcDbLine
 10
113.7142976339199
 20
111.670258416001
 30
0.0
 11
113.7142976339198
 21
87.67025841600093
 31
0.0
  0
LINE
  5
34F
330
793
100
AcDbEntity
  8
1
  6
Continuous
100
AcDbLine
 10
139.4142976339195
 20
108.520258416001
 30
0.0
 11
119.7142976339194
 21
108.520258416001
 31
0.0
  0
LINE
  5
350
330
793
100
AcDbEntity
  8
1
  6
Continuous
100
AcDbLine
 10
132.7142976339196
 20
109.170258416001
 30
0.0
 11
119.7142976339196
 21
109.1702584160008
 31
0.0
  0
LINE
  5
351
330
793
100
AcDbEntity
  8
1
  6
Continuous
100
AcDbLine
 10
133.7142976339199
 20
110.670258416001
 30
0.0
 11
118.7142976339199
 21
110.670258416001
 31
0.0
  0
LINE
  5
352
330
793
100
AcDbEntity
  8
1
  6
Continuous
100
AcDbLine
 10
131.4575393243882
 20
106.520258416001
 30
0.0
 11
131.4575393243883
 21
88.17025841600097
 31
0.0
  0
LINE
  5
353
330
793
100
AcDbEntity
  8
1
  6
Continuous
100
AcDbLine
 10
129.664388380052
 20
86.17025841600097
 30
0.0
 11
129.6643883800522
 21
108.5202584160009
 31
0.0
  0
LINE
  5
354
330
793
100
AcDbEntity
  8
1
  6
Continuous
100
AcDbLine
 10
119.7142976339193
 20
86.17025841600097
 30
0.0
 11
119.7142976339194
 21
108.5202584160009
 31
0.0
  0
ARC
  5
355
330
793
100
AcDbEntity
  8
1
  6
Continuous
100
AcDbCircle
 10
130.9399012341833
 20
86.47164227429279
 30
0.0
 40
0.3013838582918424
100
AcDbArc
 50
270.0
 51
345.4891813009416
  0
ARC
  5
356
330
793
100
AcDbEntity
  8
1
  6
Continuous
100
AcDbCircle
 10
124.3769524332702
 20
88.17025841600097
 30
0.0
 40
7.080586891117945
100
AcDbArc
 50
345.4891813009366
 51
0.0
  0
LINE
  5
357
330
793
100
AcDbEntity
  8
1
  6
Continuous
100
AcDbLine
 10
119.7142976339194
 20
109.1702584160008
 30
0.0
 11
119.7142976339194
 21
110.670258416001
 31
0.0
  0
LINE
  5
358
330
793
100
AcDbEntity
  8
1
  6
Continuous
100
AcDbLine
 10
122.2142976339197
 20
109.1702584160008
 30
0.0
 11
122.2142976339197
 21
108.520258416001
 31
0.0
  0
LINE
  5
359
330
793
100
AcDbEntity
  8
1
  6
Continuous
100
AcDbLine
 10
127.2495738143301
 20
108.520258416001
 30
0.0
 11
127.2495738143301
 21
109.170258416001
 31
0.0
  0
ARC
  5
35A
330
793
100
AcDbEntity
  8
1
  6
Continuous
100
AcDbCircle
 10
124.3769524332702
 20
106.520258416001
 30
0.0
 40
7.080586891117945
100
AcDbArc
 50
0.0
 51
14.51081869906323
  0
ARC
  5
35B
330
793
100
AcDbEntity
  8
1
  6
Continuous
100
AcDbCircle
 10
130.9399012341833
 20
108.2188745577093
 30
0.0
 40
0.3013838582918424
100
AcDbArc
 50
14.51081869905839
 51
90.00000000000005
  0
LINE
  5
35C
330
793
100
AcDbEntity
  8
1
  6
Continuous
100
AcDbLine
 10
129.0427247586658
 20
109.170258416001
 30
0.0
 11
129.0427247586658
 21
108.520258416001
 31
0.0
  0
CIRCLE
  5
35D
330
793
100
AcDbEntity
  8
1
  6
Continuous
100
AcDbCircle
 10
148.2142976339197
 20
96.1702584160009
 30
0.0
 40
2.25
  0
LINE
  5
35E
330
793
100
AcDbEntity
  8
4
  6
CENTER
100
AcDbLine
 10
148.2142976339197
 20
91.92025841600099
 30
0.0
 11
148.2142976339197
 21
100.420258416001
 31
0.0
  0
LINE
  5
35F
330
793
100
AcDbEntity
  8
1
  6
Continuous
100
AcDbLine
 10
132.7142976339193
 20
109.170258416001
 30
0.0
 11
132.7142976339193
 21
110.670258416001
 31
0.0
  0
LINE
  5
360
330
793
100
AcDbEntity
  8
4
  6
CENTER
100
AcDbLine
 10
115.2142976339197
 20
115.9202584160009
 30
0.0
 11
115.2142976339197
 21
128.4202584160009
 31
0.0
  0
LINE
  5
361
330
793
100
AcDbEntity
  8
1
  6
Continuous
100
AcDbLine
 10
119.0393411880622
 20
120.3178162957416
 30
0.0
 11
119.0393411880622
 21
113.170258416001
 31
0.0
  0
ARC
  5
362
330
793
100
AcDbEntity
  8
1
  6
Continuous
100
AcDbCircle
 10
115.2142976339199
 20
111.6702584160009
 30
0.0
 40
1.5
100
AcDbArc
 50
89.99999999999998
 51
180.0
  0
LINE
  5
363
330
793
100
AcDbEntity
  8
1
  6
Continuous
100
AcDbLine
 10
151.219273546225
 20
123.5067995577003
 30
0.0
 11
151.219273546225
 21
122.0067995577003
 31
0.0
  0
ARC
  5
364
330
793
100
AcDbEntity
  8
1
  6
Continuous
100
AcDbCircle
 10
141.6193771226801
 20
131.1702584160007
 30
0.0
 40
8.599896423544768
100
AcDbArc
 50
324.462322208052
 51
35.53767779194784
  0
ARC
  5
365
330
793
100
AcDbEntity
  8
1
  6
Continuous
100
AcDbCircle
 10
152.8192422324126
 20
131.1702584160007
 30
0.0
 40
8.599896423544768
100
AcDbArc
 50
144.4623222079989
 51
215.537677792001
  0
ARC
  5
366
330
793
100
AcDbEntity
  8
1
  6
Continuous
100
AcDbCircle
 10
147.2193096775519
 20
127.170306591096
 30
0.0
 40
1.718119093483293
100
AcDbArc
 50
215.537677792001
 51
256.5374393917325
  0
LINE
  5
367
330
793
100
AcDbEntity
  8
1
  6
Continuous
100
AcDbLine
 10
145.390857951439
 20
126.8369772723541
 30
0.0
 11
148.2645961785349
 21
126.8369772723541
 31
0.0
  0
LINE
  5
368
330
793
100
AcDbEntity
  8
1
  6
Continuous
100
AcDbLine
 10
148.4492940503093
 20
127.5036359098382
 30
0.0
 11
145.9893253047835
 21
127.5036359098382
 31
0.0
  0
LINE
  5
369
330
793
100
AcDbEntity
  8
1
  6
Continuous
100
AcDbLine
 10
145.5750213707115
 20
128.1702945473224
 30
0.0
 11
148.8635979843814
 21
128.1702945473222
 31
0.0
  0
LINE
  5
36A
330
793
100
AcDbEntity
  8
1
  6
Continuous
100
AcDbLine
 10
145.4872094268921
 20
128.8369531848065
 30
0.0
 11
148.9514099282007
 21
128.8369531848065
 31
0.0
  0
LINE
  5
36B
330
793
100
AcDbEntity
  8
1
  6
Continuous
100
AcDbLine
 10
144.9492812504521
 20
130.1702704597746
 30
0.0
 11
149.4893381046406
 21
130.1702704597746
 31
0.0
  0
LINE
  5
36C
330
793
100
AcDbEntity
  8
1
  6
Continuous
100
AcDbLine
 10
144.8930102565336
 20
130.8369290972587
 30
0.0
 11
149.5456090985592
 21
130.8369290972587
 31
0.0
  0
ARC
  5
36D
330
793
100
AcDbEntity
  8
1
  6
Continuous
100
AcDbCircle
 10
145.9893253047835
 20
127.8369652285804
 30
0.0
 40
0.3333293187420452
100
AcDbArc
 50
206.0143659996367
 51
270.0
  0
ARC
  5
36E
330
793
100
AcDbEntity
  8
1
  6
Continuous
100
AcDbCircle
 10
152.8192422324126
 20
131.1702584160007
 30
0.0
 40
7.933237786060675
100
AcDbArc
 50
202.9439535565376
 51
206.0143659996367
  0
ARC
  5
36F
330
793
100
AcDbEntity
  8
1
  6
Continuous
100
AcDbCircle
 10
145.5750213707115
 20
128.103628683574
 30
0.0
 40
0.066665863748409
100
AcDbArc
 50
89.99999999999998
 51
202.9439535565376
  0
ARC
  5
370
330
793
100
AcDbEntity
  8
1
  6
Continuous
100
AcDbCircle
 10
145.4872094268921
 20
129.1702825035485
 30
0.0
 40
0.3333293187420452
100
AcDbArc
 50
195.2575232904557
 51
270.0
  0
LINE
  5
371
330
793
100
AcDbEntity
  8
1
  6
Continuous
100
AcDbLine
 10
146.4193193125711
 20
129.5036118222903
 30
0.0
 11
145.1460042109691
 21
129.5036118222903
 31
0.0
  0
ARC
  5
372
330
793
100
AcDbEntity
  8
1
  6
Continuous
100
AcDbCircle
 10
145.1460042109689
 20
129.4369459585422
 30
0.0
 40
0.066665863748409
100
AcDbArc
 50
89.99999999999998
 51
192.7289438731228
  0
ARC
  5
373
330
793
100
AcDbEntity
  8
1
  6
Continuous
100
AcDbCircle
 10
152.8192422324126
 20
131.1702584160007
 30
0.0
 40
7.933237786060675
100
AcDbArc
 50
192.7289438731228
 51
193.2681189705562
  0
ARC
  5
374
330
793
100
AcDbEntity
  8
1
  6
Continuous
100
AcDbCircle
 10
152.8192422324126
 20
131.1702584160007
 30
0.0
 40
7.933237786060675
100
AcDbArc
 50
193.2681189705562
 51
195.2575232904557
  0
ARC
  5
375
330
793
100
AcDbEntity
  8
1
  6
Continuous
100
AcDbCircle
 10
147.2193096775519
 20
127.170306591096
 30
0.0
 40
1.718119093483293
100
AcDbArc
 50
270.0
 51
324.462322208052
  0
ARC
  5
376
330
793
100
AcDbEntity
  8
1
  6
Continuous
100
AcDbCircle
 10
148.8635979843814
 20
128.103628683574
 30
0.0
 40
0.066665863748409
100
AcDbArc
 50
337.0560464434622
 51
89.99999999999998
  0
ARC
  5
377
330
793
100
AcDbEntity
  8
1
  6
Continuous
100
AcDbCircle
 10
141.6193771226801
 20
131.1702584160007
 30
0.0
 40
7.933237786060675
100
AcDbArc
 50
333.9856340003631
 51
337.0560464434622
  0
ARC
  5
378
330
793
100
AcDbEntity
  8
1
  6
Continuous
100
AcDbCircle
 10
148.4492940503093
 20
127.8369652285804
 30
0.0
 40
0.3333293187420452
100
AcDbArc
 50
270.0
 51
333.9856340003631
  0
ARC
  5
379
330
793
100
AcDbEntity
  8
1
  6
Continuous
100
AcDbCircle
 10
148.9514099282007
 20
129.1702825035485
 30
0.0
 40
0.3333293187420452
100
AcDbArc
 50
270.0
 51
344.7424767095434
  0
ARC
  5
37A
330
793
100
AcDbEntity
  8
1
  6
Continuous
100
AcDbCircle
 10
141.6193771226801
 20
131.1702584160007
 30
0.0
 40
7.933237786060675
100
AcDbArc
 50
344.7424767095434
 51
344.7937121239421
  0
ARC
  5
37B
330
793
100
AcDbEntity
  8
1
  6
Continuous
100
AcDbCircle
 10
149.2926151441238
 20
129.4369459585422
 30
0.0
 40
0.066665863748409
100
AcDbArc
 50
347.2710561268771
 51
89.99999999999998
  0
LINE
  5
37C
330
793
100
AcDbEntity
  8
1
  6
Continuous
100
AcDbLine
 10
149.2926151441238
 20
129.5036118222903
 30
0.0
 11
148.0193000425326
 21
129.5036118222903
 31
0.0
  0
LINE
  5
37D
330
793
100
AcDbEntity
  8
1
  6
Continuous
100
AcDbLine
 10
147.219309677552
 20
130.8369290972587
 30
0.0
 11
147.219309677552
 21
130.1702704597746
 31
0.0
  0
ARC
  5
37E
330
793
100
AcDbEntity
  8
1
  6
Continuous
100
AcDbCircle
 10
141.6193771226801
 20
131.1702584160007
 30
0.0
 40
7.933237786060675
100
AcDbArc
 50
344.7937121239421
 51
347.2710561268771
  0
LINE
  5
37F
330
793
100
AcDbEntity
  8
1
  6
Continuous
100
AcDbLine
 10
144.8930102565336
 20
131.5035877347427
 30
0.0
 11
149.5456090985592
 21
131.5035877347426
 31
0.0
  0
LINE
  5
380
330
793
100
AcDbEntity
  8
1
  6
Continuous
100
AcDbLine
 10
145.0253213040708
 20
132.1702463722268
 30
0.0
 11
149.413298051022
 21
132.1702463722268
 31
0.0
  0
ARC
  5
381
330
793
100
AcDbEntity
  8
1
  6
Continuous
100
AcDbCircle
 10
147.2193096775519
 20
135.1702102409052
 30
0.0
 40
1.718119093483293
100
AcDbArc
 50
62.24965455462801
 51
144.4623222079989
  0
LINE
  5
382
330
793
100
AcDbEntity
  8
1
  6
Continuous
100
AcDbLine
 10
145.0278877673186
 20
133.5035636471951
 30
0.0
 11
149.2017216458645
 21
133.5035636471951
 31
0.0
  0
LINE
  5
383
330
793
100
AcDbEntity
  8
1
  6
Continuous
100
AcDbLine
 10
145.3419590120402
 20
134.1702222846791
 30
0.0
 11
146.8859803588097
 21
134.1702222846791
 31
0.0
  0
LINE
  5
384
330
793
100
AcDbEntity
  8
1
  6
Continuous
100
AcDbLine
 10
146.8859803588097
 20
134.8368809221633
 30
0.0
 11
145.4617950255389
 21
134.8368809221633
 31
0.0
  0
LINE
  5
385
330
793
100
AcDbEntity
  8
1
  6
Continuous
100
AcDbLine
 10
148.4668386796888
 20
135.1763203220958
 30
0.0
 11
145.656238941284
 21
135.9294182522511
 31
0.0
  0
LINE
  5
386
330
793
100
AcDbEntity
  8
1
  6
Continuous
100
AcDbLine
 10
146.4193193125711
 20
132.8369050097111
 30
0.0
 11
145.3372054939374
 21
132.8369050097111
 31
0.0
  0
ARC
  5
387
330
793
100
AcDbEntity
  8
1
  6
Continuous
100
AcDbCircle
 10
145.3372054939374
 20
132.5035756909691
 30
0.0
 40
0.3333293187420452
100
AcDbArc
 50
89.99999999999998
 51
169.8958172838744
  0
ARC
  5
388
330
793
100
AcDbEntity
  8
1
  6
Continuous
100
AcDbCircle
 10
152.8192422324126
 20
131.1702584160007
 30
0.0
 40
7.933237786060675
100
AcDbArc
 50
169.8958172838744
 51
172.2070756645772
  0
ARC
  5
389
330
793
100
AcDbEntity
  8
1
  6
Continuous
100
AcDbCircle
 10
145.0253213040708
 20
132.2369122359754
 30
0.0
 40
0.066665863748409
100
AcDbArc
 50
172.2070756645772
 51
270.0
  0
LINE
  5
38A
330
793
100
AcDbEntity
  8
1
  6
Continuous
100
AcDbLine
 10
151.219273546225
 20
134.6632975647516
 30
0.0
 11
151.219273546225
 21
133.4132975647516
 31
0.0
  0
ARC
  5
38B
330
793
100
AcDbEntity
  8
1
  6
Continuous
100
AcDbCircle
 10
149.413298051022
 20
132.2369122359754
 30
0.0
 40
0.066665863748409
100
AcDbArc
 50
270.0
 51
7.792924335422744
  0
ARC
  5
38C
330
793
100
AcDbEntity
  8
1
  6
Continuous
100
AcDbCircle
 10
141.6193771226801
 20
131.1702584160007
 30
0.0
 40
7.933237786060675
100
AcDbArc
 50
7.792924335421941
 51
10.10418271612448
  0
ARC
  5
38D
330
793
100
AcDbEntity
  8
1
  6
Continuous
100
AcDbCircle
 10
149.1014138611552
 20
132.5035756909691
 30
0.0
 40
0.3333293187420452
100
AcDbArc
 50
10.10418271612448
 51
89.99999999999998
  0
LINE
  5
38E
330
793
100
AcDbEntity
  8
1
  6
Continuous
100
AcDbLine
 10
149.1014138611552
 20
132.836905009711
 30
0.0
 11
147.2193096775519
 21
132.8369050097111
 31
0.0
  0
LINE
  5
38F
330
793
100
AcDbEntity
  8
1
  6
Continuous
100
AcDbLine
 10
147.219309677552
 20
132.8369050097111
 30
0.0
 11
147.219309677552
 21
132.5035756909689
 31
0.0
  0
ARC
  5
390
330
793
100
AcDbEntity
  8
1
  6
Continuous
100
AcDbCircle
 10
147.2193096775519
 20
135.1702102409052
 30
0.0
 40
1.718119093483293
100
AcDbArc
 50
35.53767779194784
 51
45.69883927961648
  0
ARC
  5
391
330
793
100
AcDbEntity
  8
1
  6
Continuous
100
AcDbCircle
 10
146.8859803588097
 20
134.5035516034211
 30
0.0
 40
0.3333293187420467
100
AcDbArc
 50
270.0
 51
89.99999999999998
  0
LINE
  5
392
330
793
100
AcDbEntity
  8
1
  6
Continuous
100
AcDbLine
 10
147.2193096775519
 20
134.5035516034213
 30
0.0
 11
148.8183644331894
 21
134.5035516034211
 31
0.0
  0
LINE
  5
393
330
793
100
AcDbEntity
  8
1
  6
Continuous
100
AcDbLine
 10
147.219309677552
 20
136.8883293343886
 30
0.0
 11
147.219309677552
 21
135.5105947107542
 31
0.0
  0
ARC
  5
394
330
793
100
AcDbEntity
  8
1
  6
Continuous
100
AcDbCircle
 10
165.7142976339196
 20
89.17025841600098
 30
0.0
 40
3.0
100
AcDbArc
 50
270.0
 51
0.0
  0
LINE
  5
395
330
793
100
AcDbEntity
  8
1
  6
Continuous
100
AcDbLine
 10
152.469273546225
 20
124.209039447199
 30
0.0
 11
152.469273546225
 21
125.646539447199
 31
0.0
  0
CIRCLE
  5
396
330
793
100
AcDbEntity
  8
1
  6
Continuous
100
AcDbCircle
 10
160.2142976339196
 20
117.1702584160009
 30
0.0
 40
2.25
  0
LINE
  5
397
330
793
100
AcDbEntity
  8
4
  6
CENTER
100
AcDbLine
 10
164.4642976339197
 20
117.170258416001
 30
0.0
 11
155.9642976339197
 21
117.170258416001
 31
0.0
  0
LINE
  5
398
330
793
100
AcDbEntity
  8
4
  6
CENTER
100
AcDbLine
 10
160.2142976339196
 20
112.920258416001
 30
0.0
 11
160.2142976339196
 21
121.420258416001
 31
0.0
  0
LINE
  5
399
330
793
100
AcDbEntity
  8
1
  6
Continuous
100
AcDbLine
 10
152.219273546225
 20
131.9891935423661
 30
0.0
 11
153.719273546225
 21
130.8641935423661
 31
0.0
  0
LINE
  5
39A
330
793
100
AcDbEntity
  8
1
  6
Continuous
100
AcDbLine
 10
153.719273546225
 20
132.1141935423661
 30
0.0
 11
153.719273546225
 21
130.8641935423661
 31
0.0
  0
LINE
  5
39B
330
793
100
AcDbEntity
  8
1
  6
Continuous
100
AcDbLine
 10
152.469273546225
 20
127.9255401983852
 30
0.0
 11
152.469273546225
 21
126.7516420178034
 31
0.0
  0
LINE
  5
39C
330
793
100
AcDbEntity
  8
1
  6
Continuous
100
AcDbLine
 10
152.469273546225
 20
137.1057693885071
 30
0.0
 11
152.469273546225
 21
135.9318712079254
 31
0.0
  0
LINE
  5
39D
330
793
100
AcDbEntity
  8
1
  6
Continuous
100
AcDbLine
 10
152.469273546225
 20
134.0382975647516
 30
0.0
 11
152.469273546225
 21
133.4132975647516
 31
0.0
  0
ARC
  5
39E
330
793
100
AcDbEntity
  8
1
  6
Continuous
100
AcDbCircle
 10
153.094273546225
 20
134.0382975647516
 30
0.0
 40
0.625
100
AcDbArc
 50
0.0
 51
180.0
  0
LINE
  5
39F
330
793
100
AcDbEntity
  8
1
  6
Continuous
100
AcDbLine
 10
153.719273546225
 20
134.0382975647516
 30
0.0
 11
153.719273546225
 21
133.4132975647516
 31
0.0
  0
LINE
  5
3A0
330
793
100
AcDbEntity
  8
1
  6
Continuous
100
AcDbLine
 10
221.2142976339189
 20
113.170258416001
 30
0.0
 11
221.2142976339189
 21
110.670258416001
 31
0.0
  0
LINE
  5
3A1
330
793
100
AcDbEntity
  8
1
  6
Continuous
100
AcDbLine
 10
222.2142976339188
 20
86.17025841600097
 30
0.0
 11
222.2142976339188
 21
108.520258416001
 31
0.0
  0
LINE
  5
3A2
330
793
100
AcDbEntity
  8
1
  6
Continuous
100
AcDbLine
 10
222.2142976339188
 20
109.170258416001
 30
0.0
 11
222.2142976339188
 21
110.670258416001
 31
0.0
  0
LINE
  5
3A3
330
793
100
AcDbEntity
  8
1
  6
Continuous
100
AcDbLine
 10
30.21429763391984
 20
153.8202584160009
 30
0.0
 11
30.21429763391989
 21
176.1702584160009
 31
0.0
  0
LINE
  5
3A4
330
793
100
AcDbEntity
  8
1
  6
Continuous
100
AcDbLine
 10
20.31429763391759
 20
148.1702584160009
 30
0.0
 11
22.51429763391989
 21
148.1702584160009
 31
0.0
  0
LINE
  5
3A5
330
793
100
AcDbEntity
  8
4
  6
CENTER
100
AcDbLine
 10
26.81429763391992
 20
140.1702584160008
 30
0.0
 11
15.01429763391985
 21
140.1702584160008
 31
0.0
  0
LINE
  5
3A6
330
793
100
AcDbEntity
  8
1
  6
Continuous
100
AcDbLine
 10
16.71429763391978
 20
149.170258416001
 30
0.0
 11
31.21429763391984
 21
149.170258416001
 31
0.0
  0
LINE
  5
3A7
330
793
100
AcDbEntity
  8
1
  6
Continuous
100
AcDbLine
 10
16.71429763391984
 20
151.670258416001
 30
0.0
 11
31.21429763391984
 21
151.670258416001
 31
0.0
  0
LINE
  5
3A8
330
793
100
AcDbEntity
  8
1
  6
Continuous
100
AcDbLine
 10
16.71429763391984
 20
153.1702584160008
 30
0.0
 11
30.21429763392001
 21
153.1702584160008
 31
0.0
  0
LINE
  5
3A9
330
793
100
AcDbEntity
  8
1
  6
Continuous
100
AcDbLine
 10
16.71429763391984
 20
153.820258416001
 30
0.0
 11
30.21429763391984
 21
153.820258416001
 31
0.0
  0
LINE
  5
3AA
330
793
100
AcDbEntity
  8
4
  6
CENTER
100
AcDbLine
 10
19.71429763391984
 20
145.1702584160009
 30
0.0
 11
11.21429763391984
 21
145.1702584160009
 31
0.0
  0
LINE
  5
3AB
330
793
100
AcDbEntity
  8
1
  6
Continuous
100
AcDbLine
 10
19.41429763391856
 20
148.1702584160006
 30
0.0
 11
20.314297633921
 21
144.1702584160009
 31
0.0
  0
LINE
  5
3AC
330
793
100
AcDbEntity
  8
1
  6
Continuous
100
AcDbLine
 10
18.91429763391981
 20
148.1702584160007
 30
0.0
 11
19.81429763391986
 21
144.1702584160006
 31
0.0
  0
LINE
  5
3AD
330
793
100
AcDbEntity
  8
1
  6
Continuous
100
AcDbLine
 10
19.75513975259178
 20
142.670258416001
 30
0.0
 11
20.31429763391759
 21
142.670258416001
 31
0.0
  0
LINE
  5
3AE
330
793
100
AcDbEntity
  8
1
  6
Continuous
100
AcDbLine
 10
18.91429763391988
 20
142.670258416001
 30
0.0
 11
19.25513975259178
 21
142.670258416001
 31
0.0
  0
LINE
  5
3AF
330
793
100
AcDbEntity
  8
1
  6
Continuous
100
AcDbLine
 10
19.13929763391984
 20
147.1702584160009
 30
0.0
 11
19.63929763392013
 21
147.1702584160009
 31
0.0
  0
LINE
  5
3B0
330
793
100
AcDbEntity
  8
1
  6
Continuous
100
AcDbLine
 10
16.71429763392001
 20
148.170258416001
 30
0.0
 11
19.41429763391988
 21
148.1702584160008
 31
0.0
  0
LINE
  5
3B2
330
793
100
AcDbEntity
  8
1
  6
Continuous
100
AcDbLine
 10
19.71429763391995
 20
153.820258416001
 30
0.0
 11
19.71429763391995
 21
153.1702584160008
 31
0.0
  0
LINE
  5
3B3
330
793
100
AcDbEntity
  8
1
  6
Continuous
100
AcDbLine
 10
31.21429763391984
 20
149.170258416001
 30
0.0
 11
31.21429763391984
 21
151.670258416001
 31
0.0
  0
LINE
  5
3B4
330
793
100
AcDbEntity
  8
1
  6
Continuous
100
AcDbLine
 10
23.51429763391989
 20
142.6702584160009
 30
0.0
 11
25.01429763391991
 21
143.170258416001
 31
0.0
  0
LINE
  5
3B5
330
793
100
AcDbEntity
  8
1
  6
Continuous
100
AcDbLine
 10
23.51429763391989
 20
144.4202584160007
 30
0.0
 11
22.51429763391996
 21
144.4202584160007
 31
0.0
  0
LINE
  5
3B6
330
793
100
AcDbEntity
  8
1
  6
Continuous
100
AcDbLine
 10
30.21429763392001
 20
153.1702584160008
 30
0.0
 11
30.21429763392001
 21
151.6702584160008
 31
0.0
  0
LINE
  5
3B7
330
793
100
AcDbEntity
  8
1
  6
Continuous
100
AcDbLine
 10
27.71429763391995
 20
153.820258416001
 30
0.0
 11
27.71429763391995
 21
153.1702584160008
 31
0.0
  0
LINE
  5
3B8
330
793
100
AcDbEntity
  8
1
  6
Continuous
100
AcDbLine
 10
30.21429763391989
 20
176.170258416001
 30
0.0
 11
14.21429763391984
 21
176.170258416001
 31
0.0
  0
LINE
  5
3B9
330
793
100
AcDbEntity
  8
4
  6
CENTER
100
AcDbLine
 10
19.71429763391984
 20
166.170258416001
 30
0.0
 11
11.21429763391984
 21
166.170258416001
 31
0.0
  0
LINE
  5
3BA
330
793
100
AcDbEntity
  8
1
  6
Continuous
100
AcDbLine
 10
168.7142976339193
 20
225.3504554780761
 30
0.0
 11
168.7142976339193
 21
222.8504554780761
 31
0.0
  0
LINE
  5
3BB
330
793
100
AcDbEntity
  8
4
  6
CENTER
100
AcDbLine
 10
160.2142976339193
 20
219.8504554780762
 30
0.0
 11
160.2142976339193
 21
228.3504554780762
 31
0.0
  0
LINE
  5
3BC
330
793
100
AcDbEntity
  8
4
  6
CENTER
100
AcDbLine
 10
148.2142976339192
 20
219.8504554780762
 30
0.0
 11
148.2142976339192
 21
228.3504554780762
 31
0.0
  0
ARC
  5
3BD
330
793
100
AcDbEntity
  8
1
  6
Continuous
100
AcDbCircle
 10
142.4142976339197
 20
222.8504554780761
 30
0.0
 40
2.5
100
AcDbArc
 50
90.00000000000005
 51
132.0845711393747
  0
LINE
  5
3BE
330
793
100
AcDbEntity
  8
1
  6
Continuous
100
AcDbLine
 10
133.7142976339196
 20
222.3504554780761
 30
0.0
 11
133.7142976339196
 21
225.3504554780761
 31
0.0
  0
LINE
  5
3BF
330
793
100
AcDbEntity
  8
1
  6
Continuous
100
AcDbLine
 10
130.7142976339192
 20
225.3504554780761
 30
0.0
 11
130.7142976339192
 21
222.3504554780761
 31
0.0
  0
LINE
  5
3C0
330
793
100
AcDbEntity
  8
1
  6
Continuous
100
AcDbLine
 10
121.7142976339197
 20
220.5408712378998
 30
0.0
 11
121.7142976339197
 21
225.3504554780761
 31
0.0
  0
LINE
  5
3C1
330
793
100
AcDbEntity
  8
1
  6
Continuous
100
AcDbLine
 10
113.7142976339196
 20
225.3504554780761
 30
0.0
 11
113.7142976339196
 21
222.8504554780761
 31
0.0
  0
LINE
  5
3C2
330
793
100
AcDbEntity
  8
4
  6
CENTER
100
AcDbLine
 10
106.2142976339194
 20
219.8504554780762
 30
0.0
 11
106.2142976339194
 21
228.3504554780762
 31
0.0
  0
LINE
  5
3C3
330
793
100
AcDbEntity
  8
4
  6
CENTER
100
AcDbLine
 10
94.2142976339195
 20
219.8504554780762
 30
0.0
 11
94.2142976339195
 21
228.3504554780762
 31
0.0
  0
LINE
  5
3C4
330
793
100
AcDbEntity
  8
1
  6
Continuous
100
AcDbLine
 10
86.21429763391962
 20
222.8504554780761
 30
0.0
 11
86.21429763391962
 21
225.3504554780761
 31
0.0
  0
LINE
  5
3C5
330
793
100
AcDbEntity
  8
4
  6
CENTER
100
AcDbLine
 10
126.2142976339197
 20
227.5504554780762
 30
0.0
 11
126.2142976339197
 21
206.3504554780761
 31
0.0
  0
LINE
  5
3C6
330
793
100
AcDbEntity
  8
4
  6
CENTER
100
AcDbLine
 10
115.2142976339193
 20
213.0504554780761
 30
0.0
 11
115.2142976339193
 21
228.3504554780762
 31
0.0
  0
LINE
  5
3C7
330
793
100
AcDbEntity
  8
1
  6
Continuous
100
AcDbLine
 10
118.7142976339194
 20
225.3504554780761
 30
0.0
 11
118.7142976339194
 21
215.8504554780761
 31
0.0
  0
LINE
  5
3C8
330
793
100
AcDbEntity
  8
1
  6
Continuous
100
AcDbLine
 10
142.4142976339197
 20
222.8504554780761
 30
0.0
 11
168.7142976339193
 21
222.8504554780761
 31
0.0
  0
LINE
  5
3C9
330
793
100
AcDbEntity
  8
1
  6
Continuous
100
AcDbLine
 10
151.219273546225
 20
139.8135596039089
 30
0.0
 11
153.719273546225
 21
139.8135596039089
 31
0.0
  0
LINE
  5
3CA
330
793
100
AcDbEntity
  8
1
  6
Continuous
100
AcDbLine
 10
151.219273546225
 20
138.3760596039088
 30
0.0
 11
153.719273546225
 21
138.3760596039088
 31
0.0
  0
LINE
  5
3CB
330
793
100
AcDbEntity
  8
4
  6
CENTER
100
AcDbLine
 10
152.4642976339197
 20
166.170258416001
 30
0.0
 11
143.9642976339197
 21
166.170258416001
 31
0.0
  0
LINE
  5
3CC
330
793
100
AcDbEntity
  8
1
  6
Continuous
100
AcDbLine
 10
165.7142976339196
 20
176.1702584160009
 30
0.0
 11
119.7142976339194
 21
176.1702584160011
 31
0.0
  0
LINE
  5
3CD
330
793
100
AcDbEntity
  8
1
  6
Continuous
100
AcDbLine
 10
111.7142976339231
 20
149.170258416001
 30
0.0
 11
133.7142976339197
 21
149.1702584160009
 31
0.0
  0
LINE
  5
3CE
330
793
100
AcDbEntity
  8
4
  6
CENTER
100
AcDbLine
 10
121.4642976339197
 20
140.1702584160008
 30
0.0
 11
108.9642976339197
 21
140.1702584160008
 31
0.0
  0
ARC
  5
3CF
330
793
100
AcDbEntity
  8
1
  6
Continuous
100
AcDbCircle
 10
112.2142976339199
 20
174.6702584160009
 30
0.0
 40
1.5
100
AcDbArc
 50
0.0
 51
89.99999999999998
  0
CIRCLE
  5
3D0
330
793
100
AcDbEntity
  8
1
  6
Continuous
100
AcDbCircle
 10
106.2142976339198
 20
166.1702584160009
 30
0.0
 40
2.25
  0
LINE
  5
3D1
330
793
100
AcDbEntity
  8
4
  6
CENTER
100
AcDbLine
 10
106.2142976339198
 20
161.9202584160009
 30
0.0
 11
106.2142976339198
 21
170.4202584160008
 31
0.0
  0
CIRCLE
  5
3D2
330
793
100
AcDbEntity
  8
1
  6
Continuous
100
AcDbCircle
 10
94.21429763391985
 20
145.170258416001
 30
0.0
 40
2.25
  0
LINE
  5
3D3
330
793
100
AcDbEntity
  8
4
  6
CENTER
100
AcDbLine
 10
98.46429763391995
 20
145.170258416001
 30
0.0
 11
89.96429763391986
 21
145.170258416001
 31
0.0
  0
LINE
  5
3D4
330
793
100
AcDbEntity
  8
4
  6
CENTER
100
AcDbLine
 10
94.21429763391985
 20
140.920258416001
 30
0.0
 11
94.21429763391985
 21
149.420258416001
 31
0.0
  0
LINE
  5
3D5
330
793
100
AcDbEntity
  8
1
  6
Continuous
100
AcDbLine
 10
110.7142976339232
 20
148.170258416001
 30
0.0
 11
111.7142976339231
 21
149.170258416001
 31
0.0
  0
LINE
  5
3D6
330
793
100
AcDbEntity
  8
1
  6
Continuous
100
AcDbLine
 10
89.21429763391994
 20
176.1702584160009
 30
0.0
 11
112.2142976339199
 21
176.1702584160009
 31
0.0
  0
ARC
  5
3D7
330
793
100
AcDbEntity
  8
1
  6
Continuous
100
AcDbCircle
 10
89.21429763391985
 20
173.1702584160009
 30
0.0
 40
3.0
100
AcDbArc
 50
89.99999999999998
 51
180.0
  0
LINE
  5
3D8
330
793
100
AcDbEntity
  8
4
  6
CENTER
100
AcDbLine
 10
110.4642976339198
 20
166.1702584160009
 30
0.0
 11
101.9642976339198
 21
166.1702584160009
 31
0.0
  0
CIRCLE
  5
3D9
330
793
100
AcDbEntity
  8
1
  6
Continuous
100
AcDbCircle
 10
148.2142976339197
 20
166.1702584160009
 30
0.0
 40
2.25
  0
LINE
  5
3DA
330
793
100
AcDbEntity
  8
1
  6
Continuous
100
AcDbLine
 10
129.6643883800522
 20
153.820258416001
 30
0.0
 11
129.6643883800522
 21
176.1702584160009
 31
0.0
  0
LINE
  5
3DB
330
793
100
AcDbEntity
  8
1
  6
Continuous
100
AcDbLine
 10
131.4575393243882
 20
155.8202584160009
 30
0.0
 11
131.4575393243883
 21
174.1702584160009
 31
0.0
  0
LINE
  5
3DC
330
793
100
AcDbEntity
  8
1
  6
Continuous
100
AcDbLine
 10
119.7142976339194
 20
151.670258416001
 30
0.0
 11
119.7142976339194
 21
153.1702584160008
 31
0.0
  0
LINE
  5
3DD
330
793
100
AcDbEntity
  8
1
  6
Continuous
100
AcDbLine
 10
113.7142976339198
 20
174.670258416001
 30
0.0
 11
113.7142976339198
 21
150.670258416001
 31
0.0
  0
LINE
  5
3DE
330
793
100
AcDbEntity
  8
4
  6
CENTER
100
AcDbLine
 10
148.2142976339197
 20
161.920258416001
 30
0.0
 11
148.2142976339197
 21
170.420258416001
 31
0.0
  0
LINE
  5
3DF
330
793
100
AcDbEntity
  8
1
  6
Continuous
100
AcDbLine
 10
119.7142976339194
 20
153.1702584160008
 30
0.0
 11
132.7142976339193
 21
153.1702584160008
 31
0.0
  0
LINE
  5
3E0
330
793
100
AcDbEntity
  8
1
  6
Continuous
100
AcDbLine
 10
118.7142976339198
 20
151.670258416001
 30
0.0
 11
133.7142976339197
 21
151.6702584160008
 31
0.0
  0
LINE
  5
3E1
330
793
100
AcDbEntity
  8
1
  6
Continuous
100
AcDbLine
 10
119.7142976339194
 20
153.8202584160011
 30
0.0
 11
139.4142976339195
 21
153.8202584160009
 31
0.0
  0
LINE
  5
3E2
330
793
100
AcDbEntity
  8
1
  6
Continuous
100
AcDbLine
 10
118.7142976339198
 20
149.170258416001
 30
0.0
 11
118.7142976339198
 21
151.670258416001
 31
0.0
  0
LINE
  5
3E3
330
793
100
AcDbEntity
  8
1
  6
Continuous
100
AcDbLine
 10
119.0393411880621
 20
149.170258416001
 30
0.0
 11
119.0393411880621
 21
142.0227005362606
 31
0.0
  0
ARC
  5
3E4
330
793
100
AcDbEntity
  8
1
  6
Continuous
100
AcDbCircle
 10
115.2142976339199
 20
150.6702584160009
 30
0.0
 40
1.5
100
AcDbArc
 50
179.999999999999
 51
270.0
  0
LINE
  5
3E6
330
793
100
AcDbEntity
  8
1
  6
Continuous
100
AcDbLine
 10
122.2142976339193
 20
153.8202584160011
 30
0.0
 11
122.2142976339199
 21
153.1702584160008
 31
0.0
  0
LINE
  5
3E7
330
793
100
AcDbEntity
  8
1
  6
Continuous
100
AcDbLine
 10
127.2495738143301
 20
153.1702584160007
 30
0.0
 11
127.2495738143301
 21
153.820258416001
 31
0.0
  0
ARC
  5
3E8
330
793
100
AcDbEntity
  8
1
  6
Continuous
100
AcDbCircle
 10
130.9399012341833
 20
154.1216422742926
 30
0.0
 40
0.3013838582918424
100
AcDbArc
 50
270.0
 51
345.4891813009416
  0
ARC
  5
3E9
330
793
100
AcDbEntity
  8
1
  6
Continuous
100
AcDbCircle
 10
124.3769524332702
 20
155.8202584160009
 30
0.0
 40
7.080586891117945
100
AcDbArc
 50
345.4891813009366
 51
0.0
  0
LINE
  5
3EA
330
793
100
AcDbEntity
  8
1
  6
Continuous
100
AcDbLine
 10
129.0427247586657
 20
153.820258416001
 30
0.0
 11
129.0427247586658
 21
153.1702584160008
 31
0.0
  0
ARC
  5
3EB
330
793
100
AcDbEntity
  8
1
  6
Continuous
100
AcDbCircle
 10
139.4142976339195
 20
150.8202584160009
 30
0.0
 40
3.0
100
AcDbArc
 50
0.0
 51
89.99999999999998
  0
LINE
  5
3EC
330
793
100
AcDbEntity
  8
1
  6
Continuous
100
AcDbLine
 10
132.7142976339193
 20
153.1702584160007
 30
0.0
 11
132.7142976339196
 21
151.6702584160008
 31
0.0
  0
ARC
  5
3ED
330
793
100
AcDbEntity
  8
1
  6
Continuous
100
AcDbCircle
 10
124.3769524332702
 20
174.1702584160009
 30
0.0
 40
7.080586891117945
100
AcDbArc
 50
0.0
 51
14.51081869906318
  0
ARC
  5
3EE
330
793
100
AcDbEntity
  8
1
  6
Continuous
100
AcDbCircle
 10
130.9399012341833
 20
175.8688745577092
 30
0.0
 40
0.3013838582918424
100
AcDbArc
 50
14.51081869905839
 51
90.0
  0
LINE
  5
3EF
330
793
100
AcDbEntity
  8
1
  6
Continuous
100
AcDbLine
 10
118.2142976339192
 20
214.5504554780761
 30
0.0
 11
112.2142976339192
 21
214.5504554780761
 31
0.0
  0
LINE
  5
3F0
330
793
100
AcDbEntity
  8
1
  6
Continuous
100
AcDbLine
 10
118.7142976339194
 20
217.0504554780758
 30
0.0
 11
110.7142976339229
 21
217.0504554780758
 31
0.0
  0
LINE
  5
3F1
330
793
100
AcDbEntity
  8
1
  6
Continuous
100
AcDbLine
 10
118.7142976339194
 20
218.2504554780783
 30
0.0
 11
110.7142976339193
 21
218.2504554780783
 31
0.0
  0
LINE
  5
3F2
330
793
100
AcDbEntity
  8
1
  6
Continuous
100
AcDbLine
 10
110.7142976339193
 20
219.2504554780784
 30
0.0
 11
118.7142976339194
 21
219.2504554780792
 31
0.0
  0
LINE
  5
3F3
330
793
100
AcDbEntity
  8
1
  6
Continuous
100
AcDbLine
 10
110.9642976339192
 20
216.0504554780761
 30
0.0
 11
118.7142976339194
 21
216.0504554780761
 31
0.0
  0
LINE
  5
3F4
330
793
100
AcDbEntity
  8
1
  6
Continuous
100
AcDbLine
 10
111.7142976339193
 20
220.150455478076
 30
0.0
 11
118.7142976339193
 21
220.150455478076
 31
0.0
  0
LINE
  5
3F5
330
793
100
AcDbEntity
  8
1
  6
Continuous
100
AcDbLine
 10
118.7142976339194
 20
221.6504554780772
 30
0.0
 11
110.7142976339229
 21
221.6504554780772
 31
0.0
  0
LINE
  5
3F6
330
793
100
AcDbEntity
  8
1
  6
Continuous
100
AcDbLine
 10
118.7142976339194
 20
220.6504554780759
 30
0.0
 11
110.7142976339193
 21
220.6504554780759
 31
0.0
  0
LINE
  5
3F7
330
793
100
AcDbEntity
  8
1
  6
Continuous
100
AcDbLine
 10
86.21429763391962
 20
222.8504554780761
 30
0.0
 11
118.7142976339194
 21
222.8504554780761
 31
0.0
  0
LINE
  5
3F8
330
793
100
AcDbEntity
  8
1
  6
Continuous
100
AcDbLine
 10
111.7142976339193
 20
222.8504554780761
 30
0.0
 11
111.7142976339193
 21
217.0504554780758
 31
0.0
  0
LINE
  5
3F9
330
793
100
AcDbEntity
  8
1
  6
Continuous
100
AcDbLine
 10
110.7142976339229
 20
217.0504554780758
 30
0.0
 11
110.7142976339229
 21
222.8504554780761
 31
0.0
  0
LINE
  5
3FA
330
793
100
AcDbEntity
  8
1
  6
Continuous
100
AcDbLine
 10
110.9642976339192
 20
216.0504554780761
 30
0.0
 11
110.9642976339192
 21
217.0504554780761
 31
0.0
  0
LINE
  5
3FB
330
793
100
AcDbEntity
  8
1
  6
Continuous
100
AcDbLine
 10
112.7142976339192
 20
216.0504554780761
 30
0.0
 11
112.2142976339192
 21
214.5504554780761
 31
0.0
  0
LINE
  5
3FC
330
793
100
AcDbEntity
  8
1
  6
Continuous
100
AcDbLine
 10
111.7142976339193
 20
220.150455478076
 30
0.0
 11
110.7142976339192
 21
219.925455478076
 31
0.0
  0
LINE
  5
3FD
330
793
100
AcDbEntity
  8
1
  6
Continuous
100
AcDbLine
 10
110.7142976339193
 20
220.4254554780761
 30
0.0
 11
111.7142976339193
 21
220.6504554780762
 31
0.0
  0
ARC
  5
3FE
330
793
100
AcDbEntity
  8
1
  6
Continuous
100
AcDbCircle
 10
126.2142976339192
 20
215.8504554780761
 30
0.0
 40
6.499999999999996
100
AcDbArc
 50
284.9999999999996
 51
0.0
  0
ARC
  5
3FF
330
793
100
AcDbEntity
  8
1
  6
Continuous
100
AcDbCircle
 10
126.2142976339197
 20
215.8504554780761
 30
0.0
 40
7.5
100
AcDbArc
 50
180.0
 51
0.0
  0
LINE
  5
400
330
793
100
AcDbEntity
  8
4
  6
CENTER
100
AcDbLine
 10
135.7142976339197
 20
215.8504554780761
 30
0.0
 11
116.7142976339196
 21
215.8504554780761
 31
0.0
  0
ARC
  5
401
330
793
100
AcDbEntity
  8
1
  6
Continuous
100
AcDbCircle
 10
126.2142976339192
 20
215.8504554780761
 30
0.0
 40
6.500000000000026
100
AcDbArc
 50
90.00000000000005
 51
284.9999999999976
  0
ARC
  5
402
330
793
100
AcDbEntity
  8
1
  6
Continuous
100
AcDbCircle
 10
126.2142976339192
 20
215.8504554780761
 30
0.0
 40
6.499999999999996
100
AcDbArc
 50
0.0
 51
37.97987244485329
  0
LINE
  5
403
330
793
100
AcDbEntity
  8
1
  6
Continuous
100
AcDbLine
 10
138.130556356329
 20
219.8504554780762
 30
0.0
 11
126.2142976339192
 21
219.8504554780762
 31
0.0
  0
LINE
  5
404
330
793
100
AcDbEntity
  8
1
  6
Continuous
100
AcDbLine
 10
126.2142976339192
 20
222.3504554780761
 30
0.0
 11
138.130556356329
 21
222.3504554780761
 31
0.0
  0
LINE
  5
405
330
793
100
AcDbEntity
  8
1
  6
Continuous
100
AcDbLine
 10
131.4575393243882
 20
218.0318349900661
 30
0.0
 11
129.664388380052
 21
211.3397045601637
 31
0.0
  0
ARC
  5
406
330
793
100
AcDbEntity
  8
1
  6
Continuous
100
AcDbCircle
 10
127.2495738143293
 20
211.9867521729199
 30
0.0
 40
2.499999999999999
100
AcDbArc
 50
284.9999999999976
 51
345.0000000000004
  0
LINE
  5
407
330
793
100
AcDbEntity
  8
1
  6
Continuous
100
AcDbLine
 10
123.2800174836969
 20
221.6504554780772
 30
0.0
 11
121.7142976339197
 21
221.6504554780772
 31
0.0
  0
LINE
  5
408
330
793
100
AcDbEntity
  8
1
  6
Continuous
100
AcDbLine
 10
130.7142976339192
 20
222.850455478076
 30
0.0
 11
121.7142976339197
 21
222.850455478076
 31
0.0
  0
ARC
  5
409
330
793
100
AcDbEntity
  8
1
  6
Continuous
100
AcDbCircle
 10
126.2142976339192
 20
215.8504554780761
 30
0.0
 40
3.999999999999955
100
AcDbArc
 50
90.00000000000005
 51
284.9999999999996
  0
LINE
  5
40A
330
793
100
AcDbEntity
  8
1
  6
Continuous
100
AcDbLine
 10
117.7142976339192
 20
216.0504554780761
 30
0.0
 11
118.2142976339192
 21
214.5504554780761
 31
0.0
  0
LINE
  5
40B
330
793
100
AcDbEntity
  8
1
  6
Continuous
100
AcDbLine
 10
129.0427247586651
 20
218.6788826028223
 30
0.0
 11
131.4575393243881
 21
218.0318349900661
 31
0.0
  0
LINE
  5
40C
330
793
100
AcDbEntity
  8
1
  6
Continuous
100
AcDbLine
 10
127.2495738143293
 20
211.98675217292
 30
0.0
 11
129.0427247586653
 21
218.6788826028223
 31
0.0
  0
ARC
  5
40D
330
793
100
AcDbEntity
  8
1
  6
Continuous
100
AcDbCircle
 10
126.2142976339196
 20
215.8504554780757
 30
0.0
 40
3.5
100
AcDbArc
 50
40.15009542095795
 51
255.0000000000038
  0
ARC
  5
40E
330
793
100
AcDbEntity
  8
1
  6
Continuous
100
AcDbCircle
 10
126.2142976339196
 20
215.8504554780757
 30
0.0
 40
3.5
100
AcDbArc
 50
255.0000000000038
 51
289.8499045790503
  0
ARC
  5
40F
330
793
100
AcDbEntity
  8
1
  6
Continuous
100
AcDbCircle
 10
126.2142976339193
 20
215.8504554780757
 30
0.0
 40
4.0
100
AcDbArc
 50
45.00000000000404
 51
90.00000000000328
  0
LINE
  5
410
330
793
100
AcDbEntity
  8
1
  6
Continuous
100
AcDbLine
 10
142.4142976339197
 20
222.8504554780761
 30
0.0
 11
139.806123336632
 21
220.4950646042929
 31
0.0
  0
LINE
  5
411
330
793
100
AcDbEntity
  8
1
  6
Continuous
100
AcDbLine
 10
133.7142976339196
 20
215.8504554780761
 30
0.0
 11
133.7142976339196
 21
219.8504554780762
 31
0.0
  0
ARC
  5
412
330
793
100
AcDbEntity
  8
1
  6
Continuous
100
AcDbCircle
 10
138.130556356329
 20
222.3504554780761
 30
0.0
 40
2.5
100
AcDbArc
 50
270.0
 51
312.0845711393731
  0
LINE
  5
413
330
793
100
AcDbEntity
  8
1
  6
Continuous
100
AcDbLine
 10
140.7387306536165
 20
224.7058463518594
 30
0.0
 11
138.1305563563288
 21
222.3504554780759
 31
0.0
  0
CIRCLE
  5
414
330
793
100
AcDbEntity
  8
1
  6
Continuous
100
AcDbCircle
 10
160.2142976339196
 20
145.170258416001
 30
0.0
 40
2.25
  0
LINE
  5
415
330
793
100
AcDbEntity
  8
4
  6
CENTER
100
AcDbLine
 10
164.4642976339197
 20
145.170258416001
 30
0.0
 11
155.9642976339197
 21
145.170258416001
 31
0.0
  0
LINE
  5
416
330
793
100
AcDbEntity
  8
4
  6
CENTER
100
AcDbLine
 10
160.2142976339196
 20
140.920258416001
 30
0.0
 11
160.2142976339196
 21
149.4202584160009
 31
0.0
  0
LINE
  5
417
330
793
100
AcDbEntity
  8
1
  6
Continuous
100
AcDbLine
 10
152.469273546225
 20
138.3760596039088
 30
0.0
 11
152.469273546225
 21
139.8135596039089
 31
0.0
  0
ARC
  5
418
330
793
100
AcDbEntity
  8
1
  6
Continuous
100
AcDbCircle
 10
165.7142976339196
 20
173.1702584160009
 30
0.0
 40
3.0
100
AcDbArc
 50
0.0
 51
89.99999999999998
  0
LINE
  5
419
330
793
100
AcDbEntity
  8
1
  6
Continuous
100
AcDbLine
 10
222.2142976339188
 20
153.8202584160009
 30
0.0
 11
222.2142976339188
 21
176.1702584160009
 31
0.0
  0
LINE
  5
41A
330
793
100
AcDbEntity
  8
1
  6
Continuous
100
AcDbLine
 10
221.2142976339189
 20
149.170258416001
 30
0.0
 11
221.2142976339189
 21
151.670258416001
 31
0.0
  0
LINE
  5
41B
330
793
100
AcDbEntity
  8
1
  6
Continuous
100
AcDbLine
 10
222.2142976339188
 20
153.1702584160008
 30
0.0
 11
222.2142976339188
 21
151.6702584160008
 31
0.0
  0
LINE
  5
41C
330
793
100
AcDbEntity
  8
1
  6
Continuous
100
AcDbLine
 10
142.4142976339197
 20
225.3504554780761
 30
0.0
 11
168.7142976339193
 21
225.3504554780761
 31
0.0
  0
LINE
  5
41D
330
793
100
AcDbEntity
  8
1
  6
Continuous
100
AcDbLine
 10
86.21429763391962
 20
225.3504554780761
 30
0.0
 11
133.7142976339196
 21
225.3504554780761
 31
0.0
  0
LINE
  5
41E
330
793
100
AcDbEntity
  8
4
  6
CENTER
100
AcDbLine
 10
342.2142976339179
 20
133.9202584160008
 30
0.0
 11
342.2142976339179
 21
146.4202584160008
 31
0.0
  0
CIRCLE
  5
41F
330
793
100
AcDbEntity
  8
1
  6
Continuous
100
AcDbCircle
 10
342.2142976339179
 20
140.170258416001
 30
0.0
 40
5.0
  0
LINE
  5
420
330
793
100
AcDbEntity
  8
1
  6
Continuous
100
AcDbLine
 10
323.7142976339176
 20
151.670258416001
 30
0.0
 11
323.7142976339176
 21
110.6702584160009
 31
0.0
  0
LINE
  5
421
330
793
100
AcDbEntity
  8
1
  6
Continuous
100
AcDbLine
 10
315.0142976339179
 20
150.8202584160009
 30
0.0
 11
315.0142976339179
 21
111.5202584160009
 31
0.0
  0
LINE
  5
422
330
793
100
AcDbEntity
  8
1
  6
Continuous
100
AcDbLine
 10
371.2142976339176
 20
89.17025841600098
 30
0.0
 11
371.2142976339176
 21
173.1702584160009
 31
0.0
  0
LINE
  5
423
330
793
100
AcDbEntity
  8
1
  6
Continuous
100
AcDbLine
 10
288.7142976339177
 20
89.17025841600098
 30
0.0
 11
288.7142976339177
 21
173.170258416001
 31
0.0
  0
LINE
  5
424
330
793
100
AcDbEntity
  8
4
  6
CENTER
100
AcDbLine
 10
331.214297633918
 20
83.17025841600099
 30
0.0
 11
331.2142976339182
 21
179.1702584160009
 31
0.0
  0
LINE
  5
425
330
793
100
AcDbEntity
  8
1
  6
Continuous
100
AcDbLine
 10
235.7142976339189
 20
176.170258416001
 30
0.0
 11
235.7142976339189
 21
86.17025841600097
 31
0.0
  0
LINE
  5
426
330
793
100
AcDbEntity
  8
1
  6
Continuous
100
AcDbLine
 10
238.2142976339189
 20
176.170258416001
 30
0.0
 11
238.2142976339189
 21
86.17025841600097
 31
0.0
  0
LINE
  5
427
330
793
100
AcDbEntity
  8
4
  6
CENTER
100
AcDbLine
 10
228.7142976339187
 20
81.17025841600099
 30
0.0
 11
228.7142976339187
 21
181.1702584160008
 31
0.0
  0
LINE
  5
428
330
793
100
AcDbEntity
  8
4
  6
CENTER
100
AcDbLine
 10
292.9642976339177
 20
117.170258416001
 30
0.0
 11
301.4642976339177
 21
117.170258416001
 31
0.0
  0
CIRCLE
  5
429
330
793
100
AcDbEntity
  8
1
  6
Continuous
100
AcDbCircle
 10
297.2142976339177
 20
117.1702584160009
 30
0.0
 40
2.25
  0
LINE
  5
42A
330
793
100
AcDbEntity
  8
1
  6
Continuous
100
AcDbLine
 10
291.7142976339178
 20
86.17025841600097
 30
0.0
 11
337.7142976339182
 21
86.17025841600097
 31
0.0
  0
LINE
  5
42B
330
793
100
AcDbEntity
  8
1
  6
Continuous
100
AcDbLine
 10
230.8956771459088
 20
88.17025841600132
 30
0.0
 11
230.8956771459088
 21
106.5202584160013
 31
0.0
  0
LINE
  5
42C
330
793
100
AcDbEntity
  8
1
  6
Continuous
100
AcDbLine
 10
231.542724758665
 20
88.17025841600132
 30
0.0
 11
231.5427247586651
 21
106.5202584160013
 31
0.0
  0
LINE
  5
42D
330
793
100
AcDbEntity
  8
1
  6
Continuous
100
AcDbLine
 10
232.7142976339189
 20
108.5202584160012
 30
0.0
 11
232.7142976339189
 21
86.17025841600122
 31
0.0
  0
LINE
  5
42E
330
793
100
AcDbEntity
  8
4
  6
CENTER
100
AcDbLine
 10
232.7142976339189
 20
96.17025841600105
 30
0.0
 11
241.2142976339189
 21
96.17025841600105
 31
0.0
  0
ARC
  5
42F
330
793
100
AcDbEntity
  8
1
  6
Continuous
100
AcDbCircle
 10
228.9638254933318
 20
88.05589683086102
 30
0.0
 40
1.885638414859784
100
AcDbArc
 50
270.0
 51
315.9929728043788
  0
ARC
  5
430
330
793
100
AcDbEntity
  8
1
  6
Continuous
100
AcDbCircle
 10
229.610873106088
 20
88.05589683086102
 30
0.0
 40
1.885638414859784
100
AcDbArc
 50
270.0
 51
315.9929728043788
  0
ARC
  5
431
330
793
100
AcDbEntity
  8
1
  6
Continuous
100
AcDbCircle
 10
228.8454296682821
 20
88.17025841600132
 30
0.0
 40
2.050247477626697
100
AcDbArc
 50
315.9929728043788
 51
0.0
  0
ARC
  5
432
330
793
100
AcDbEntity
  8
1
  6
Continuous
100
AcDbCircle
 10
229.4924772810384
 20
88.17025841600132
 30
0.0
 40
2.050247477626697
100
AcDbArc
 50
315.9929728043788
 51
0.0
  0
LINE
  5
433
330
793
100
AcDbEntity
  8
1
  6
Continuous
100
AcDbLine
 10
224.7142976339187
 20
109.170258416001
 30
0.0
 11
224.7142976339187
 21
108.520258416001
 31
0.0
  0
ARC
  5
434
330
793
100
AcDbEntity
  8
1
  6
Continuous
100
AcDbCircle
 10
229.610873106088
 20
106.6346200011415
 30
0.0
 40
1.885638414859784
100
AcDbArc
 50
44.00702719562114
 51
90.00000000000005
  0
ARC
  5
435
330
793
100
AcDbEntity
  8
1
  6
Continuous
100
AcDbCircle
 10
228.9638254933318
 20
106.6346200011415
 30
0.0
 40
1.885638414859784
100
AcDbArc
 50
44.00702719562114
 51
90.00000000000005
  0
ARC
  5
436
330
793
100
AcDbEntity
  8
1
  6
Continuous
100
AcDbCircle
 10
229.4924772810384
 20
106.5202584160013
 30
0.0
 40
2.050247477626697
100
AcDbArc
 50
0.0
 51
44.00702719562111
  0
ARC
  5
437
330
793
100
AcDbEntity
  8
1
  6
Continuous
100
AcDbCircle
 10
228.8454296682821
 20
106.5202584160013
 30
0.0
 40
2.050247477626697
100
AcDbArc
 50
0.0
 51
44.00702719562111
  0
LINE
  5
438
330
793
100
AcDbEntity
  8
1
  6
Continuous
100
AcDbLine
 10
232.7142976339187
 20
109.170258416001
 30
0.0
 11
232.7142976339187
 21
108.520258416001
 31
0.0
  0
LINE
  5
43A
330
793
100
AcDbEntity
  8
4
  6
CENTER
100
AcDbLine
 10
232.7142976339189
 20
117.1702584160009
 30
0.0
 11
241.2142976339189
 21
117.1702584160009
 31
0.0
  0
ARC
  5
43B
330
793
100
AcDbEntity
  8
1
  6
Continuous
100
AcDbCircle
 10
291.7142976339178
 20
89.17025841600098
 30
0.0
 40
3.0
100
AcDbArc
 50
180.0
 51
270.0
  0
LINE
  5
43C
330
793
100
AcDbEntity
  8
1
  6
Continuous
100
AcDbLine
 10
335.7142976339178
 20
113.1702584160013
 30
0.0
 11
326.7142976339182
 21
113.1702584160013
 31
0.0
  0
LINE
  5
43D
330
793
100
AcDbEntity
  8
1
  6
Continuous
100
AcDbLine
 10
323.7142976339176
 20
110.670258416001
 30
0.0
 11
338.7142976339176
 21
110.670258416001
 31
0.0
  0
LINE
  5
43E
330
793
100
AcDbEntity
  8
1
  6
Continuous
100
AcDbLine
 10
324.714297633918
 20
109.170258416001
 30
0.0
 11
337.714297633918
 21
109.1702584160008
 31
0.0
  0
LINE
  5
43F
330
793
100
AcDbEntity
  8
1
  6
Continuous
100
AcDbLine
 10
318.0142976339179
 20
108.520258416001
 30
0.0
 11
337.714297633918
 21
108.520258416001
 31
0.0
  0
LINE
  5
440
330
793
100
AcDbEntity
  8
1
  6
Continuous
100
AcDbLine
 10
326.7142976339182
 20
113.1702584160013
 30
0.0
 11
326.7142976339182
 21
110.6702584160012
 31
0.0
  0
ARC
  5
441
330
793
100
AcDbEntity
  8
1
  6
Continuous
100
AcDbCircle
 10
318.0142976339179
 20
111.5202584160009
 30
0.0
 40
3.0
100
AcDbArc
 50
180.0
 51
270.0
  0
LINE
  5
442
330
793
100
AcDbEntity
  8
4
  6
CENTER
100
AcDbLine
 10
309.2142976339177
 20
91.92025841600099
 30
0.0
 11
309.2142976339177
 21
100.420258416001
 31
0.0
  0
CIRCLE
  5
443
330
793
100
AcDbEntity
  8
1
  6
Continuous
100
AcDbCircle
 10
309.2142976339177
 20
96.1702584160009
 30
0.0
 40
2.25
  0
LINE
  5
444
330
793
100
AcDbEntity
  8
4
  6
CENTER
100
AcDbLine
 10
304.9642976339177
 20
96.17025841600105
 30
0.0
 11
313.4642976339177
 21
96.17025841600105
 31
0.0
  0
LINE
  5
445
330
793
100
AcDbEntity
  8
1
  6
Continuous
100
AcDbLine
 10
319.2980389115084
 20
86.17025841600122
 30
0.0
 11
319.2980389115084
 21
108.5202584160013
 31
0.0
  0
LINE
  5
446
330
793
100
AcDbEntity
  8
1
  6
Continuous
100
AcDbLine
 10
324.714297633918
 20
109.170258416001
 30
0.0
 11
324.714297633918
 21
110.670258416001
 31
0.0
  0
LINE
  5
447
330
793
100
AcDbEntity
  8
1
  6
Continuous
100
AcDbLine
 10
328.3858705091718
 20
109.170258416001
 30
0.0
 11
328.3858705091718
 21
108.520258416001
 31
0.0
  0
LINE
  5
449
330
793
100
AcDbEntity
  8
4
  6
CENTER
100
AcDbLine
 10
297.2142976339177
 20
112.920258416001
 30
0.0
 11
297.2142976339177
 21
121.420258416001
 31
0.0
  0
LINE
  5
44A
330
793
100
AcDbEntity
  8
1
  6
Continuous
100
AcDbLine
 10
335.7142976339176
 20
110.6702584160012
 30
0.0
 11
335.7142976339179
 21
113.1702584160013
 31
0.0
  0
LINE
  5
44B
330
793
100
AcDbEntity
  8
1
  6
Continuous
100
AcDbLine
 10
338.7142976339176
 20
113.170258416001
 30
0.0
 11
338.7142976339176
 21
110.670258416001
 31
0.0
  0
LINE
  5
44C
330
793
100
AcDbEntity
  8
1
  6
Continuous
100
AcDbLine
 10
343.7142976339176
 20
111.670258416001
 30
0.0
 11
343.7142976339176
 21
87.67025841600093
 31
0.0
  0
LINE
  5
44D
330
793
100
AcDbEntity
  8
1
  6
Continuous
100
AcDbLine
 10
345.2142976339176
 20
86.17025841600097
 30
0.0
 11
368.2142976339178
 21
86.17025841600097
 31
0.0
  0
LINE
  5
44E
330
793
100
AcDbEntity
  8
4
  6
CENTER
100
AcDbLine
 10
346.9642976339176
 20
96.17025841600105
 30
0.0
 11
355.4642976339176
 21
96.17025841600105
 31
0.0
  0
LINE
  5
44F
330
793
100
AcDbEntity
  8
4
  6
CENTER
100
AcDbLine
 10
351.2142976339176
 20
91.92025841600099
 30
0.0
 11
351.2142976339176
 21
100.420258416001
 31
0.0
  0
CIRCLE
  5
450
330
793
100
AcDbEntity
  8
1
  6
Continuous
100
AcDbCircle
 10
351.2142976339176
 20
96.1702584160009
 30
0.0
 40
2.25
  0
LINE
  5
451
330
793
100
AcDbEntity
  8
1
  6
Continuous
100
AcDbLine
 10
337.714297633918
 20
86.17025841600097
 30
0.0
 11
337.714297633918
 21
108.520258416001
 31
0.0
  0
ARC
  5
452
330
793
100
AcDbEntity
  8
1
  6
Continuous
100
AcDbCircle
 10
345.2142976339176
 20
87.67025841600093
 30
0.0
 40
1.5
100
AcDbArc
 50
180.0
 51
270.0
  0
LINE
  5
453
330
793
100
AcDbEntity
  8
1
  6
Continuous
100
AcDbLine
 10
335.2142976339177
 20
109.1702584160008
 30
0.0
 11
335.2142976339177
 21
108.520258416001
 31
0.0
  0
LINE
  5
454
330
793
100
AcDbEntity
  8
1
  6
Continuous
100
AcDbLine
 10
337.714297633918
 20
109.1702584160008
 30
0.0
 11
337.714297633918
 21
110.670258416001
 31
0.0
  0
ARC
  5
455
330
793
100
AcDbEntity
  8
1
  6
Continuous
100
AcDbCircle
 10
368.2142976339178
 20
89.17025841600098
 30
0.0
 40
3.0
100
AcDbArc
 50
270.0
 51
0.000000000000007
  0
CIRCLE
  5
456
330
793
100
AcDbEntity
  8
1
  6
Continuous
100
AcDbCircle
 10
342.2142976339179
 20
122.1702584160009
 30
0.0
 40
5.0
  0
LINE
  5
457
330
793
100
AcDbEntity
  8
4
  6
CENTER
100
AcDbLine
 10
342.2142976339179
 20
115.9202584160009
 30
0.0
 11
342.2142976339179
 21
128.4202584160009
 31
0.0
  0
LINE
  5
458
330
793
100
AcDbEntity
  8
4
  6
CENTER
100
AcDbLine
 10
335.9642976339179
 20
122.1702584160009
 30
0.0
 11
348.4642976339179
 21
122.1702584160009
 31
0.0
  0
LINE
  5
459
330
793
100
AcDbEntity
  8
1
  6
Continuous
100
AcDbLine
 10
342.2142976339176
 20
113.1702584160012
 30
0.0
 11
338.7142976339176
 21
113.1702584160012
 31
0.0
  0
ARC
  5
45A
330
793
100
AcDbEntity
  8
1
  6
Continuous
100
AcDbCircle
 10
342.2142976339176
 20
111.6702584160009
 30
0.0
 40
1.5
100
AcDbArc
 50
0.000000000000007
 51
90.00000000000005
  0
LINE
  5
45B
330
793
100
AcDbEntity
  8
4
  6
CENTER
100
AcDbLine
 10
358.9642976339177
 20
117.170258416001
 30
0.0
 11
367.4642976339177
 21
117.170258416001
 31
0.0
  0
CIRCLE
  5
45C
330
793
100
AcDbEntity
  8
1
  6
Continuous
100
AcDbCircle
 10
363.2142976339177
 20
117.1702584160009
 30
0.0
 40
2.25
  0
LINE
  5
45D
330
793
100
AcDbEntity
  8
4
  6
CENTER
100
AcDbLine
 10
363.2142976339177
 20
112.920258416001
 30
0.0
 11
363.2142976339177
 21
121.420258416001
 31
0.0
  0
LINE
  5
45E
330
793
100
AcDbEntity
  8
4
  6
CENTER
100
AcDbLine
 10
292.9642976339177
 20
145.170258416001
 30
0.0
 11
301.4642976339177
 21
145.170258416001
 31
0.0
  0
CIRCLE
  5
45F
330
793
100
AcDbEntity
  8
1
  6
Continuous
100
AcDbCircle
 10
297.2142976339177
 20
145.170258416001
 30
0.0
 40
2.25
  0
LINE
  5
460
330
793
100
AcDbEntity
  8
1
  6
Continuous
100
AcDbLine
 10
291.7142976339178
 20
176.1702584160009
 30
0.0
 11
337.714297633918
 21
176.1702584160011
 31
0.0
  0
LINE
  5
461
330
793
100
AcDbEntity
  8
1
  6
Continuous
100
AcDbLine
 10
230.8956771459088
 20
174.1702584160009
 30
0.0
 11
230.8956771459088
 21
155.8202584160009
 31
0.0
  0
LINE
  5
462
330
793
100
AcDbEntity
  8
1
  6
Continuous
100
AcDbLine
 10
231.542724758665
 20
174.1702584160009
 30
0.0
 11
231.5427247586651
 21
155.8202584160009
 31
0.0
  0
LINE
  5
463
330
793
100
AcDbEntity
  8
1
  6
Continuous
100
AcDbLine
 10
232.7142976339189
 20
153.820258416001
 30
0.0
 11
232.7142976339189
 21
176.170258416001
 31
0.0
  0
LINE
  5
464
330
793
100
AcDbEntity
  8
4
  6
CENTER
100
AcDbLine
 10
232.7142976339189
 20
145.1702584160009
 30
0.0
 11
241.2142976339189
 21
145.1702584160009
 31
0.0
  0
LINE
  5
465
330
793
100
AcDbEntity
  8
1
  6
Continuous
100
AcDbLine
 10
224.7142976339187
 20
153.820258416001
 30
0.0
 11
224.7142976339187
 21
153.1702584160008
 31
0.0
  0
ARC
  5
466
330
793
100
AcDbEntity
  8
1
  6
Continuous
100
AcDbCircle
 10
228.8454296682821
 20
155.8202584160009
 30
0.0
 40
2.050247477626697
100
AcDbArc
 50
315.9929728043788
 51
0.0
  0
ARC
  5
467
330
793
100
AcDbEntity
  8
1
  6
Continuous
100
AcDbCircle
 10
228.9638254933318
 20
155.7058968308606
 30
0.0
 40
1.885638414859784
100
AcDbArc
 50
270.0
 51
315.9929728043788
  0
ARC
  5
468
330
793
100
AcDbEntity
  8
1
  6
Continuous
100
AcDbCircle
 10
229.4924772810384
 20
155.8202584160009
 30
0.0
 40
2.050247477626697
100
AcDbArc
 50
315.9929728043788
 51
0.0
  0
ARC
  5
469
330
793
100
AcDbEntity
  8
1
  6
Continuous
100
AcDbCircle
 10
229.610873106088
 20
155.7058968308606
 30
0.0
 40
1.885638414859784
100
AcDbArc
 50
270.0
 51
315.9929728043788
  0
LINE
  5
46A
330
793
100
AcDbEntity
  8
1
  6
Continuous
100
AcDbLine
 10
232.7142976339188
 20
153.820258416001
 30
0.0
 11
232.7142976339188
 21
153.1702584160008
 31
0.0
  0
LINE
  5
46C
330
793
100
AcDbEntity
  8
4
  6
CENTER
100
AcDbLine
 10
232.7142976339189
 20
166.170258416001
 30
0.0
 11
241.2142976339189
 21
166.170258416001
 31
0.0
  0
ARC
  5
46D
330
793
100
AcDbEntity
  8
1
  6
Continuous
100
AcDbCircle
 10
229.610873106088
 20
174.2846200011411
 30
0.0
 40
1.885638414859784
100
AcDbArc
 50
44.00702719562118
 51
90.0
  0
ARC
  5
46E
330
793
100
AcDbEntity
  8
1
  6
Continuous
100
AcDbCircle
 10
229.4924772810384
 20
174.1702584160009
 30
0.0
 40
2.050247477626697
100
AcDbArc
 50
0.0
 51
44.00702719562107
  0
ARC
  5
46F
330
793
100
AcDbEntity
  8
1
  6
Continuous
100
AcDbCircle
 10
228.8454296682821
 20
174.1702584160009
 30
0.0
 40
2.050247477626697
100
AcDbArc
 50
0.0
 51
44.00702719562107
  0
ARC
  5
470
330
793
100
AcDbEntity
  8
1
  6
Continuous
100
AcDbCircle
 10
228.9638254933318
 20
174.2846200011411
 30
0.0
 40
1.885638414859784
100
AcDbArc
 50
44.00702719562118
 51
90.0
  0
ARC
  5
471
330
793
100
AcDbEntity
  8
1
  6
Continuous
100
AcDbCircle
 10
291.7142976339178
 20
173.1702584160009
 30
0.0
 40
3.0
100
AcDbArc
 50
90.00000000000005
 51
180.0
  0
LINE
  5
472
330
793
100
AcDbEntity
  8
1
  6
Continuous
100
AcDbLine
 10
335.7142976339178
 20
149.1702584160009
 30
0.0
 11
326.7142976339182
 21
149.1702584160009
 31
0.0
  0
LINE
  5
473
330
793
100
AcDbEntity
  8
1
  6
Continuous
100
AcDbLine
 10
338.7142976339176
 20
151.670258416001
 30
0.0
 11
323.7142976339177
 21
151.6702584160008
 31
0.0
  0
LINE
  5
474
330
793
100
AcDbEntity
  8
1
  6
Continuous
100
AcDbLine
 10
337.714297633918
 20
153.1702584160008
 30
0.0
 11
324.714297633918
 21
153.1702584160008
 31
0.0
  0
LINE
  5
475
330
793
100
AcDbEntity
  8
1
  6
Continuous
100
AcDbLine
 10
337.714297633918
 20
153.8202584160011
 30
0.0
 11
318.0142976339179
 21
153.8202584160009
 31
0.0
  0
LINE
  5
476
330
793
100
AcDbEntity
  8
1
  6
Continuous
100
AcDbLine
 10
319.2980389115084
 20
176.1702584160011
 30
0.0
 11
319.2980389115084
 21
153.8202584160009
 31
0.0
  0
LINE
  5
477
330
793
100
AcDbEntity
  8
4
  6
CENTER
100
AcDbLine
 10
309.2142976339177
 20
161.920258416001
 30
0.0
 11
309.2142976339177
 21
170.420258416001
 31
0.0
  0
CIRCLE
  5
478
330
793
100
AcDbEntity
  8
1
  6
Continuous
100
AcDbCircle
 10
309.2142976339177
 20
166.1702584160009
 30
0.0
 40
2.25
  0
ARC
  5
479
330
793
100
AcDbEntity
  8
1
  6
Continuous
100
AcDbCircle
 10
318.0142976339179
 20
150.8202584160009
 30
0.0
 40
3.0
100
AcDbArc
 50
90.00000000000005
 51
180.0
  0
LINE
  5
47A
330
793
100
AcDbEntity
  8
4
  6
CENTER
100
AcDbLine
 10
297.2142976339177
 20
140.920258416001
 30
0.0
 11
297.2142976339177
 21
149.4202584160009
 31
0.0
  0
LINE
  5
47B
330
793
100
AcDbEntity
  8
1
  6
Continuous
100
AcDbLine
 10
326.7142976339182
 20
149.1702584160009
 30
0.0
 11
326.7142976339182
 21
151.670258416001
 31
0.0
  0
LINE
  5
47C
330
793
100
AcDbEntity
  8
1
  6
Continuous
100
AcDbLine
 10
324.714297633918
 20
153.1702584160007
 30
0.0
 11
324.714297633918
 21
151.6702584160008
 31
0.0
  0
LINE
  5
47D
330
793
100
AcDbEntity
  8
1
  6
Continuous
100
AcDbLine
 10
328.3858705091718
 20
153.8202584160009
 30
0.0
 11
328.3858705091718
 21
153.1702584160008
 31
0.0
  0
LINE
  5
47F
330
793
100
AcDbEntity
  8
4
  6
CENTER
100
AcDbLine
 10
304.9642976339177
 20
166.170258416001
 30
0.0
 11
313.4642976339177
 21
166.170258416001
 31
0.0
  0
LINE
  5
480
330
793
100
AcDbEntity
  8
4
  6
CENTER
100
AcDbLine
 10
351.2142976339176
 20
161.9202584160009
 30
0.0
 11
351.2142976339176
 21
170.4202584160008
 31
0.0
  0
LINE
  5
481
330
793
100
AcDbEntity
  8
1
  6
Continuous
100
AcDbLine
 10
337.714297633918
 20
153.8202584160009
 30
0.0
 11
337.714297633918
 21
176.1702584160009
 31
0.0
  0
CIRCLE
  5
482
330
793
100
AcDbEntity
  8
1
  6
Continuous
100
AcDbCircle
 10
351.2142976339176
 20
166.1702584160009
 30
0.0
 40
2.25
  0
LINE
  5
483
330
793
100
AcDbEntity
  8
1
  6
Continuous
100
AcDbLine
 10
343.7142976339176
 20
174.670258416001
 30
0.0
 11
343.7142976339176
 21
150.670258416001
 31
0.0
  0
LINE
  5
484
330
793
100
AcDbEntity
  8
1
  6
Continuous
100
AcDbLine
 10
335.7142976339176
 20
151.670258416001
 30
0.0
 11
335.7142976339179
 21
149.1702584160009
 31
0.0
  0
LINE
  5
485
330
793
100
AcDbEntity
  8
1
  6
Continuous
100
AcDbLine
 10
338.7142976339176
 20
149.170258416001
 30
0.0
 11
338.7142976339176
 21
151.670258416001
 31
0.0
  0
LINE
  5
486
330
793
100
AcDbEntity
  8
4
  6
CENTER
100
AcDbLine
 10
335.9642976339179
 20
140.1702584160008
 30
0.0
 11
348.4642976339179
 21
140.1702584160008
 31
0.0
  0
LINE
  5
487
330
793
100
AcDbEntity
  8
1
  6
Continuous
100
AcDbLine
 10
342.2142976339176
 20
149.170258416001
 30
0.0
 11
338.7142976339176
 21
149.170258416001
 31
0.0
  0
ARC
  5
488
330
793
100
AcDbEntity
  8
1
  6
Continuous
100
AcDbCircle
 10
342.2142976339176
 20
150.6702584160009
 30
0.0
 40
1.5
100
AcDbArc
 50
270.0
 51
0.0000000000008212
  0
LINE
  5
489
330
793
100
AcDbEntity
  8
1
  6
Continuous
100
AcDbLine
 10
335.2142976339177
 20
153.820258416001
 30
0.0
 11
335.2142976339176
 21
153.1702584160008
 31
0.0
  0
LINE
  5
48A
330
793
100
AcDbEntity
  8
1
  6
Continuous
100
AcDbLine
 10
337.714297633918
 20
153.1702584160008
 30
0.0
 11
337.714297633918
 21
151.6702584160008
 31
0.0
  0
CIRCLE
  5
48B
330
793
100
AcDbEntity
  8
1
  6
Continuous
100
AcDbCircle
 10
363.2142976339177
 20
145.170258416001
 30
0.0
 40
2.25
  0
LINE
  5
48C
330
793
100
AcDbEntity
  8
4
  6
CENTER
100
AcDbLine
 10
358.9642976339177
 20
145.170258416001
 30
0.0
 11
367.4642976339177
 21
145.170258416001
 31
0.0
  0
LINE
  5
48D
330
793
100
AcDbEntity
  8
4
  6
CENTER
100
AcDbLine
 10
363.2142976339177
 20
140.920258416001
 30
0.0
 11
363.2142976339177
 21
149.420258416001
 31
0.0
  0
LINE
  5
48E
330
793
100
AcDbEntity
  8
4
  6
CENTER
100
AcDbLine
 10
346.9642976339176
 20
166.1702584160009
 30
0.0
 11
355.4642976339176
 21
166.1702584160009
 31
0.0
  0
LINE
  5
48F
330
793
100
AcDbEntity
  8
1
  6
Continuous
100
AcDbLine
 10
368.2142976339176
 20
176.1702584160009
 30
0.0
 11
345.2142976339176
 21
176.1702584160009
 31
0.0
  0
ARC
  5
490
330
793
100
AcDbEntity
  8
1
  6
Continuous
100
AcDbCircle
 10
345.2142976339176
 20
174.6702584160009
 30
0.0
 40
1.5
100
AcDbArc
 50
90.00000000000005
 51
180.0
  0
ARC
  5
491
330
793
100
AcDbEntity
  8
1
  6
Continuous
100
AcDbCircle
 10
368.2142976339178
 20
173.1702584160009
 30
0.0
 40
3.0
100
AcDbArc
 50
0.000000000000007
 51
90.00000000000005
  0
LINE
  5
515
330
793
100
AcDbEntity
  8
1
  6
Continuous
100
AcDbLine
 10
119.7142976339194
 20
153.8202584160011
 30
0.0
 11
119.7142976339194
 21
176.1702584160009
 31
0.0
  0
LINE
  5
532
330
793
100
AcDbEntity
  8
1
  6
Continuous
100
AcDbLine
 10
229.610873106088
 20
108.520258416001
 30
0.0
 11
222.2142976339188
 21
108.520258416001
 31
0.0
  0
LINE
  5
533
330
793
100
AcDbEntity
  8
1
  6
Continuous
100
AcDbLine
 10
229.610873106088
 20
153.820258416001
 30
0.0
 11
222.2142976339188
 21
153.820258416001
 31
0.0
  0
ENDSEC
  0
SECTION
  2
OBJECTS
  0
DICTIONARY
  5
730
330
0
100
AcDbDictionary
281
     1
  3
ACAD_CIP_PREVIOUS_PRODUCT_INFO
350
7AC
  3
ACAD_COLOR
350
786
  3
ACAD_DETAILVIEWSTYLE
350
78D
  3
ACAD_GROUP
350
731
  3
ACAD_LAYOUT
350
785
  3
ACAD_MATERIAL
350
734
  3
ACAD_MLEADERSTYLE
350
789
  3
ACAD_MLINESTYLE
350
782
  3
ACAD_PLOTSETTINGS
350
784
  3
ACAD_PLOTSTYLENAME
350
732
  3
ACAD_SCALELIST
350
766
  3
ACAD_SECTIONVIEWSTYLE
350
78B
  3
ACAD_TABLESTYLE
350
787
  3
ACAD_VISUALSTYLE
350
74D
  3
ACDB_RECOMPOSE_DATA
350
7CA
  3
AcDbVariableDictionary
350
7BD
  3
DWGPROPS
350
7CB
  0
DICTIONARY
  5
7AD
330
778
100
AcDbDictionary
280
     1
281
     1
  3
ADSK_XREC_LAYER_RECONCILED
360
7AE
  0
DICTIONARY
  5
7AF
330
79B
100
AcDbDictionary
280
     1
281
     1
  3
ADSK_XREC_LAYER_RECONCILED
360
7B0
  0
DICTIONARY
  5
7B1
330
79C
100
AcDbDictionary
280
     1
281
     1
  3
ADSK_XREC_LAYER_RECONCILED
360
7B2
  0
DICTIONARY
  5
7B3
330
79D
100
AcDbDictionary
280
     1
281
     1
  3
ADSK_XREC_LAYER_RECONCILED
360
7B4
  0
DICTIONARY
  5
7B5
330
79E
100
AcDbDictionary
280
     1
281
     1
  3
ADSK_XREC_LAYER_RECONCILED
360
7B6
  0
DICTIONARY
  5
7B7
330
79F
100
AcDbDictionary
280
     1
281
     1
  3
ADSK_XREC_LAYER_RECONCILED
360
7B8
  0
DICTIONARY
  5
7B9
330
7A0
100
AcDbDictionary
280
     1
281
     1
  3
ADSK_XREC_LAYER_RECONCILED
360
7BA
  0
DICTIONARY
  5
7BB
330
7A1
100
AcDbDictionary
280
     1
281
     1
  3
ADSK_XREC_LAYER_RECONCILED
360
7BC
  0
XRECORD
  5
7AC
102
{ACAD_REACTORS
330
730
102
}
330
730
100
AcDbXrecord
280
     1
300
ACDLT
300
2014
300
ACDLT_F_S
  0
DICTIONARY
  5
786
102
{ACAD_REACTORS
330
730
102
}
330
730
100
AcDbDictionary
281
     1
  0
DICTIONARY
  5
78D
102
{ACAD_REACTORS
330
730
102
}
330
730
100
AcDbDictionary
281
     1
  3
Imperial24
350
78E
  0
DICTIONARY
  5
731
102
{ACAD_REACTORS
330
730
102
}
330
730
100
AcDbDictionary
281
     1
  0
DICTIONARY
  5
785
102
{ACAD_REACTORS
330
730
102
}
330
730
100
AcDbDictionary
281
     1
  3
Model
350
796
  3
レイアウト1
350
792
  0
DICTIONARY
  5
734
102
{ACAD_REACTORS
330
730
102
}
330
730
100
AcDbDictionary
281
     1
  3
ByBlock
350
73D
  3
ByLayer
350
735
  3
Global
350
745
  0
DICTIONARY
  5
789
102
{ACAD_REACTORS
330
730
102
}
330
730
100
AcDbDictionary
281
     1
  3
Standard
350
78A
  0
DICTIONARY
  5
782
102
{ACAD_REACTORS
330
730
102
}
330
730
100
AcDbDictionary
281
     1
  3
Standard
350
783
  0
DICTIONARY
  5
784
102
{ACAD_REACTORS
330
730
102
}
330
730
100
AcDbDictionary
281
     1
  0
ACDBDICTIONARYWDFLT
  5
732
102
{ACAD_REACTORS
330
730
102
}
330
730
100
AcDbDictionary
281
     1
  3
Normal
350
733
100
AcDbDictionaryWithDefault
340
733
  0
DICTIONARY
  5
766
102
{ACAD_REACTORS
330
730
102
}
330
730
100
AcDbDictionary
281
     1
  3
A0
350
767
  3
A1
350
768
  3
A2
350
769
  3
A3
350
76A
  3
A4
350
76B
  3
A5
350
76C
  3
A6
350
76D
  3
A7
350
76E
  3
A8
350
76F
  3
A9
350
770
  3
B0
350
771
  3
B1
350
772
  3
B2
350
773
  3
B3
350
774
  3
B4
350
775
  3
B5
350
776
  3
B6
350
777
  0
DICTIONARY
  5
78B
102
{ACAD_REACTORS
330
730
102
}
330
730
100
AcDbDictionary
281
     1
  3
Imperial24
350
78C
  0
DICTIONARY
  5
787
102
{ACAD_REACTORS
330
730
102
}
330
730
100
AcDbDictionary
281
     1
  3
Standard
350
788
  0
DICTIONARY
  5
74D
102
{ACAD_REACTORS
330
730
102
}
330
730
100
AcDbDictionary
281
     1
  3
2dWireframe
350
753
  3
Basic
350
752
  3
Brighten
350
759
  3
ColorChange
350
75D
  3
Conceptual
350
756
  3
Dim
350
758
  3
EdgeColorOff
350
765
  3
Facepattern
350
75C
  3
Flat
350
74E
  3
FlatWithEdges
350
74F
  3
Gouraud
350
750
  3
GouraudWithEdges
350
751
  3
Hidden
350
755
  3
JitterOff
350
763
  3
Linepattern
350
75B
  3
OverhangOff
350
764
  3
Realistic
350
757
  3
Shaded
350
762
  3
Shaded with edges
350
761
  3
Shades of Gray
350
75E
  3
Sketchy
350
75F
  3
Thicken
350
75A
  3
Wireframe
350
754
  3
X-Ray
350
760
  0
XRECORD
  5
7CA
102
{ACAD_REACTORS
330
730
102
}
330
730
100
AcDbXrecord
280
     1
 90
        1
330
788
  0
DICTIONARY
  5
7BD
102
{ACAD_REACTORS
330
730
102
}
330
730
100
AcDbDictionary
281
     1
  3
CANNOSCALE
350
7C2
  3
CMLEADERSTYLE
350
7BF
  3
CTABLESTYLE
350
7BE
  3
CVIEWDETAILSTYLE
350
7C0
  3
CVIEWSECTIONSTYLE
350
7C1
  3
DIMASSOC
350
7C5
  3
INDEXCTL
350
7C4
  3
SORTENTS
350
7C3
  3
XCLIPFRAME
350
7C6
  0
XRECORD
  5
7CB
102
{ACAD_REACTORS
330
730
102
}
330
730
100
AcDbXrecord
280
     1
  1
DWGPROPS COOKIE
  2

  3

  4

  6

  7

  8
Yoshitsune
  9

300
=
301
=
302
=
303
=
304
=
305
=
306
=
307
=
308
=
309
=
 40
0.1040271643518519
 41
2456276.614124468
 42
2457192.616099873
  1

 90
        0
  0
XRECORD
  5
7AE
102
{ACAD_REACTORS
330
7AD
102
}
330
7AD
100
AcDbXrecord
280
     1
290
     1
  0
XRECORD
  5
7B0
102
{ACAD_REACTORS
330
7AF
102
}
330
7AF
100
AcDbXrecord
280
     1
290
     1
  0
XRECORD
  5
7B2
102
{ACAD_REACTORS
330
7B1
102
}
330
7B1
100
AcDbXrecord
280
     1
290
     1
  0
XRECORD
  5
7B4
102
{ACAD_REACTORS
330
7B3
102
}
330
7B3
100
AcDbXrecord
280
     1
290
     1
  0
XRECORD
  5
7B6
102
{ACAD_REACTORS
330
7B5
102
}
330
7B5
100
AcDbXrecord
280
     1
290
     1
  0
XRECORD
  5
7B8
102
{ACAD_REACTORS
330
7B7
102
}
330
7B7
100
AcDbXrecord
280
     1
290
     1
  0
XRECORD
  5
7BA
102
{ACAD_REACTORS
330
7B9
102
}
330
7B9
100
AcDbXrecord
280
     1
290
     1
  0
XRECORD
  5
7BC
102
{ACAD_REACTORS
330
7BB
102
}
330
7BB
100
AcDbXrecord
280
     1
290
     1
  0
ACDBDETAILVIEWSTYLE
  5
78E
102
{ACAD_XDICTIONARY
360
803
102
}
102
{ACAD_REACTORS
330
78D
102
}
330
78D
100
AcDbModelDocViewStyle
 70
     0
  3
Imperial24
290
     0
100
AcDbDetailViewStyle
 70
     0
 71
     0
 90
        3
 71
     1
340
779
 40
0.24
340
0
 40
0.24
300

 40
0.36
280
     3
 71
     2
340
780
 90
       25
 71
     3
340
779
 40
0.24
 90
        1
 40
0.75
 90
        1
300
%<\AcVar ViewType \f "%tc1">% %<\AcVar ViewDetailId>%\PSCALE %<\AcVar ViewScale \f "%sn">%
 71
     4
340
780
 90
       25
340
780
 90
       25
280
     0
  0
LAYOUT
  5
796
102
{ACAD_XDICTIONARY
360
807
102
}
102
{ACAD_REACTORS
330
785
102
}
330
785
100
AcDbPlotSettings
  1

  2
Canon LBP9100C
  4

  6

 40
0.0
 41
0.0
 42
0.0
 43
0.0
 44
0.0
 45
0.0
 46
0.0
 47
0.0
 48
0.0
 49
0.0
140
0.0
141
0.0
142
1.0
143
1.0
 70
  1712
 72
     0
 73
     0
 74
     0
  7

 75
     0
147
1.0
148
0.0
149
0.0
100
AcDbLayout
  1
Model
 70
     1
 71
     0
 10
0.0
 20
0.0
 11
12.0
 21
9.0
 12
0.0
 22
0.0
 32
0.0
 14
0.0
 24
0.0
 34
0.0
 15
0.0
 25
0.0
 35
0.0
146
0.0
 13
0.0
 23
0.0
 33
0.0
 16
1.0
 26
0.0
 36
0.0
 17
0.0
 27
1.0
 37
0.0
 76
     0
330
793
331
797
  0
LAYOUT
  5
792
102
{ACAD_XDICTIONARY
360
805
102
}
102
{ACAD_REACTORS
330
785
102
}
330
785
100
AcDbPlotSettings
  1

  2
Canon LBP9100C
  4

  6

 40
0.0
 41
0.0
 42
0.0
 43
0.0
 44
0.0
 45
0.0
 46
0.0
 47
0.0
 48
0.0
 49
0.0
140
0.0
141
0.0
142
1.0
143
1.0
 70
   688
 72
     0
 73
     0
 74
     5
  7

 75
    16
147
1.0
148
0.0
149
0.0
100
AcDbLayout
  1
レイアウト1
 70
     1
 71
     1
 10
0.0
 20
0.0
 11
420.0
 21
297.0
 12
0.0
 22
0.0
 32
0.0
 14
1.000000000000000E+20
 24
1.000000000000000E+20
 34
1.000000000000000E+20
 15
-1.000000000000000E+20
 25
-1.000000000000000E+20
 35
-1.000000000000000E+20
146
0.0
 13
0.0
 23
0.0
 33
0.0
 16
1.0
 26
0.0
 36
0.0
 17
0.0
 27
1.0
 37
0.0
 76
     0
330
78F
  0
MATERIAL
  5
73D
102
{ACAD_XDICTIONARY
360
73E
102
}
102
{ACAD_REACTORS
330
734
102
}
330
734
100
AcDbMaterial
  1
ByBlock
 72
     0
 43
0.0208333333333333
 43
0.0
 43
0.0
 43
0.0
 43
0.0
 43
0.0208333333333333
 43
0.0
 43
0.0
 43
0.0
 43
0.0
 43
1.0
 43
0.0
 43
0.0
 43
0.0
 43
0.0
 43
1.0
 77
     0
 47
0.0208333333333333
 47
0.0
 47
0.0
 47
0.0
 47
0.0
 47
0.0208333333333333
 47
0.0
 47
0.0
 47
0.0
 47
0.0
 47
1.0
 47
0.0
 47
0.0
 47
0.0
 47
0.0
 47
1.0
171
     0
 49
0.0208333333333333
 49
0.0
 49
0.0
 49
0.0
 49
0.0
 49
0.0208333333333333
 49
0.0
 49
0.0
 49
0.0
 49
0.0
 49
1.0
 49
0.0
 49
0.0
 49
0.0
 49
0.0
 49
1.0
175
     0
142
0.0208333333333333
142
0.0
142
0.0
142
0.0
142
0.0
142
0.0208333333333333
142
0.0
142
0.0
142
0.0
142
0.0
142
1.0
142
0.0
142
0.0
142
0.0
142
0.0
142
1.0
179
     0
144
0.0208333333333333
144
0.0
144
0.0
144
0.0
144
0.0
144
0.0208333333333333
144
0.0
144
0.0
144
0.0
144
0.0
144
1.0
144
0.0
144
0.0
144
0.0
144
0.0
144
1.0
147
0.0208333333333333
147
0.0
147
0.0
147
0.0
147
0.0
147
0.0208333333333333
147
0.0
147
0.0
147
0.0
147
0.0
147
1.0
147
0.0
147
0.0
147
0.0
147
0.0
147
1.0
  0
MATERIAL
  5
735
102
{ACAD_XDICTIONARY
360
736
102
}
102
{ACAD_REACTORS
330
734
102
}
330
734
100
AcDbMaterial
  1
ByLayer
 72
     0
 43
0.0208333333333333
 43
0.0
 43
0.0
 43
0.0
 43
0.0
 43
0.0208333333333333
 43
0.0
 43
0.0
 43
0.0
 43
0.0
 43
1.0
 43
0.0
 43
0.0
 43
0.0
 43
0.0
 43
1.0
 77
     0
 47
0.0208333333333333
 47
0.0
 47
0.0
 47
0.0
 47
0.0
 47
0.0208333333333333
 47
0.0
 47
0.0
 47
0.0
 47
0.0
 47
1.0
 47
0.0
 47
0.0
 47
0.0
 47
0.0
 47
1.0
171
     0
 49
0.0208333333333333
 49
0.0
 49
0.0
 49
0.0
 49
0.0
 49
0.0208333333333333
 49
0.0
 49
0.0
 49
0.0
 49
0.0
 49
1.0
 49
0.0
 49
0.0
 49
0.0
 49
0.0
 49
1.0
175
     0
142
0.0208333333333333
142
0.0
142
0.0
142
0.0
142
0.0
142
0.0208333333333333
142
0.0
142
0.0
142
0.0
142
0.0
142
1.0
142
0.0
142
0.0
142
0.0
142
0.0
142
1.0
179
     0
144
0.0208333333333333
144
0.0
144
0.0
144
0.0
144
0.0
144
0.0208333333333333
144
0.0
144
0.0
144
0.0
144
0.0
144
1.0
144
0.0
144
0.0
144
0.0
144
0.0
144
1.0
147
0.0208333333333333
147
0.0
147
0.0
147
0.0
147
0.0
147
0.0208333333333333
147
0.0
147
0.0
147
0.0
147
0.0
147
1.0
147
0.0
147
0.0
147
0.0
147
0.0
147
1.0
  0
MATERIAL
  5
745
102
{ACAD_XDICTIONARY
360
746
102
}
102
{ACAD_REACTORS
330
734
102
}
330
734
100
AcDbMaterial
  1
Global
 72
     0
 43
0.0208333333333333
 43
0.0
 43
0.0
 43
0.0
 43
0.0
 43
0.0208333333333333
 43
0.0
 43
0.0
 43
0.0
 43
0.0
 43
1.0
 43
0.0
 43
0.0
 43
0.0
 43
0.0
 43
1.0
 77
     0
 47
0.0208333333333333
 47
0.0
 47
0.0
 47
0.0
 47
0.0
 47
0.0208333333333333
 47
0.0
 47
0.0
 47
0.0
 47
0.0
 47
1.0
 47
0.0
 47
0.0
 47
0.0
 47
0.0
 47
1.0
171
     0
 49
0.0208333333333333
 49
0.0
 49
0.0
 49
0.0
 49
0.0
 49
0.0208333333333333
 49
0.0
 49
0.0
 49
0.0
 49
0.0
 49
1.0
 49
0.0
 49
0.0
 49
0.0
 49
0.0
 49
1.0
175
     0
142
0.0208333333333333
142
0.0
142
0.0
142
0.0
142
0.0
142
0.0208333333333333
142
0.0
142
0.0
142
0.0
142
0.0
142
1.0
142
0.0
142
0.0
142
0.0
142
0.0
142
1.0
179
     0
144
0.0208333333333333
144
0.0
144
0.0
144
0.0
144
0.0
144
0.0208333333333333
144
0.0
144
0.0
144
0.0
144
0.0
144
1.0
144
0.0
144
0.0
144
0.0
144
0.0
144
1.0
147
0.0208333333333333
147
0.0
147
0.0
147
0.0
147
0.0
147
0.0208333333333333
147
0.0
147
0.0
147
0.0
147
0.0
147
1.0
147
0.0
147
0.0
147
0.0
147
0.0
147
1.0
  0
MLEADERSTYLE
  5
78A
102
{ACAD_REACTORS
330
789
102
}
330
789
100
AcDbMLeaderStyle
170
     2
171
     1
172
     0
 90
        2
 40
0.0
 41
0.0
173
     1
 91
-1056964608
340
77E
 92
       -2
290
     1
 42
0.09
291
     1
 43
0.36
  3
Standard
 44
0.18
300

342
779
174
     1
178
     6
175
     1
176
     0
 93
-1056964608
 45
0.18
292
     0
297
     0
 46
0.18
 94
-1056964608
 47
1.0
 49
1.0
140
1.0
293
     1
141
0.0
294
     1
177
     0
142
1.0
295
     0
296
     0
143
0.125
1001
ACAD_MLEADERVER
1070
     2
  0
MLINESTYLE
  5
783
102
{ACAD_REACTORS
330
782
102
}
330
782
100
AcDbMlineStyle
  2
STANDARD
 70
     0
  3

 62
   256
 51
90.0
 52
90.0
 71
     2
 49
0.5
 62
   256
  6
BYLAYER
 49
-0.5
 62
   256
  6
BYLAYER
  0
ACDBPLACEHOLDER
  5
733
102
{ACAD_REACTORS
330
732
102
}
330
732
  0
SCALE
  5
767
102
{ACAD_REACTORS
330
766
102
}
330
766
100
AcDbScale
 70
     0
300
1:1
140
1.0
141
1.0
290
     1
  0
SCALE
  5
768
102
{ACAD_REACTORS
330
766
102
}
330
766
100
AcDbScale
 70
     0
300
1/128" = 1'-0"
140
0.0078125
141
12.0
290
     0
  0
SCALE
  5
769
102
{ACAD_REACTORS
330
766
102
}
330
766
100
AcDbScale
 70
     0
300
1/64" = 1'-0"
140
0.015625
141
12.0
290
     0
  0
SCALE
  5
76A
102
{ACAD_REACTORS
330
766
102
}
330
766
100
AcDbScale
 70
     0
300
1/32" = 1'-0"
140
0.03125
141
12.0
290
     0
  0
SCALE
  5
76B
102
{ACAD_REACTORS
330
766
102
}
330
766
100
AcDbScale
 70
     0
300
1/16" = 1'-0"
140
0.0625
141
12.0
290
     0
  0
SCALE
  5
76C
102
{ACAD_REACTORS
330
766
102
}
330
766
100
AcDbScale
 70
     0
300
3/32" = 1'-0"
140
0.09375
141
12.0
290
     0
  0
SCALE
  5
76D
102
{ACAD_REACTORS
330
766
102
}
330
766
100
AcDbScale
 70
     0
300
1/8" = 1'-0"
140
0.125
141
12.0
290
     0
  0
SCALE
  5
76E
102
{ACAD_REACTORS
330
766
102
}
330
766
100
AcDbScale
 70
     0
300
3/16" = 1'-0"
140
0.1875
141
12.0
290
     0
  0
SCALE
  5
76F
102
{ACAD_REACTORS
330
766
102
}
330
766
100
AcDbScale
 70
     0
300
1/4" = 1'-0"
140
0.25
141
12.0
290
     0
  0
SCALE
  5
770
102
{ACAD_REACTORS
330
766
102
}
330
766
100
AcDbScale
 70
     0
300
3/8" = 1'-0"
140
0.375
141
12.0
290
     0
  0
SCALE
  5
771
102
{ACAD_REACTORS
330
766
102
}
330
766
100
AcDbScale
 70
     0
300
1/2" = 1'-0"
140
0.5
141
12.0
290
     0
  0
SCALE
  5
772
102
{ACAD_REACTORS
330
766
102
}
330
766
100
AcDbScale
 70
     0
300
3/4" = 1'-0"
140
0.75
141
12.0
290
     0
  0
SCALE
  5
773
102
{ACAD_REACTORS
330
766
102
}
330
766
100
AcDbScale
 70
     0
300
1" = 1'-0"
140
1.0
141
12.0
290
     0
  0
SCALE
  5
774
102
{ACAD_REACTORS
330
766
102
}
330
766
100
AcDbScale
 70
     0
300
1-1/2" = 1'-0"
140
1.5
141
12.0
290
     0
  0
SCALE
  5
775
102
{ACAD_REACTORS
330
766
102
}
330
766
100
AcDbScale
 70
     0
300
3" = 1'-0"
140
3.0
141
12.0
290
     0
  0
SCALE
  5
776
102
{ACAD_REACTORS
330
766
102
}
330
766
100
AcDbScale
 70
     0
300
6" = 1'-0"
140
6.0
141
12.0
290
     0
  0
SCALE
  5
777
102
{ACAD_REACTORS
330
766
102
}
330
766
100
AcDbScale
 70
     0
300
1'-0" = 1'-0"
140
12.0
141
12.0
290
     0
  0
ACDBSECTIONVIEWSTYLE
  5
78C
102
{ACAD_XDICTIONARY
360
801
102
}
102
{ACAD_REACTORS
330
78B
102
}
330
78B
100
AcDbModelDocViewStyle
 70
     0
  3
Imperial24
290
     0
100
AcDbSectionViewStyle
 70
     0
 71
     0
 90
       78
 71
     1
340
779
 40
0.24
340
0
340
0
 40
0.24
300
I, O, Q, S, X, Z
 40
0.48
 90
        3
 40
0.18
 90
        1
 71
     2
340
780
 90
       25
340
780
 90
       50
 40
0.24
 40
0.0
 40
0.24
 71
     3
340
779
 40
0.24
 90
        1
 40
0.75
 90
        1
300
%<\AcVar ViewType \f "%tc1">% %<\AcVar ViewSectionStartId>%-%<\AcVar ViewSectionEndId>%\PSCALE %<\AcVar ViewScale \f "%sn">%
 71
     4
300
ANSI31
 40
1.0
 90
        0
290
     0
290
     0
 90
        6
 40
0.0
 40
1.570796326794896
 40
0.2617993877991494
 40
1.308996938995747
 40
-0.2617993877991494
 40
1.832595714594046
  0
TABLESTYLE
  5
788
102
{ACAD_XDICTIONARY
360
7C8
102
}
102
{ACAD_REACTORS
330
787
102
}
330
787
100
AcDbTableStyle
  3
Standard
 70
     0
 71
     0
 40
0.06
 41
0.06
280
     0
281
     0
  7
STANDARD
140
0.18
170
     2
 62
     0
 63
     7
283
     0
274
    -2
284
     1
 64
     0
275
    -2
285
     1
 65
     0
276
    -2
286
     1
 66
     0
277
    -2
287
     1
 67
     0
278
    -2
288
     1
 68
     0
279
    -2
289
     1
 69
     0
  7
STANDARD
140
0.25
170
     5
 62
     0
 63
     7
283
     0
274
    -2
284
     1
 64
     0
275
    -2
285
     1
 65
     0
276
    -2
286
     1
 66
     0
277
    -2
287
     1
 67
     0
278
    -2
288
     1
 68
     0
279
    -2
289
     1
 69
     0
  7
STANDARD
140
0.18
170
     5
 62
     0
 63
     7
283
     0
274
    -2
284
     1
 64
     0
275
    -2
285
     1
 65
     0
276
    -2
286
     1
 66
     0
277
    -2
287
     1
 67
     0
278
    -2
288
     1
 68
     0
279
    -2
289
     1
 69
     0
  0
VISUALSTYLE
  5
753
102
{ACAD_XDICTIONARY
360
7D9
102
}
102
{ACAD_REACTORS
330
74D
102
}
330
74D
100
AcDbVisualStyle
  2
2dWireframe
 70
     4
 71
     0
 72
     2
 73
     0
 90
        0
 40
-0.6
 41
-30.0
 62
     5
 63
     7
 74
     1
 91
        4
 64
     7
 65
   257
 75
     1
175
     1
 42
1.0
 92
        0
 66
   257
 43
1.0
 76
     1
 77
     6
 78
     2
 67
     7
 79
     5
170
     0
171
     0
290
     0
174
     0
 93
        1
 44
0.0
173
     0
291
     0
 45
0.0
1001
ACAD
1000
AcDbSavedByObjectVersion
1070
     0
  0
VISUALSTYLE
  5
752
102
{ACAD_XDICTIONARY
360
7D7
102
}
102
{ACAD_REACTORS
330
74D
102
}
330
74D
100
AcDbVisualStyle
  2
Basic
 70
     7
 71
     1
 72
     0
 73
     1
 90
        0
 40
-0.6
 41
-30.0
 62
     5
 63
     7
 74
     0
 91
        4
 64
     7
 65
   257
 75
     1
175
     1
 42
1.0
 92
        8
 66
     7
 43
1.0
 76
     1
 77
     6
 78
     2
 67
     7
 79
     5
170
     0
171
     0
290
     0
174
     0
 93
        1
 44
0.0
173
     0
291
     1
 45
0.0
1001
ACAD
1000
AcDbSavedByObjectVersion
1070
     0
  0
VISUALSTYLE
  5
759
102
{ACAD_XDICTIONARY
360
7E5
102
}
102
{ACAD_REACTORS
330
74D
102
}
330
74D
100
AcDbVisualStyle
  2
Brighten
 70
    12
 71
     2
 72
     2
 73
     0
 90
        0
 40
-0.6
 41
-30.0
 62
     5
 63
     7
 74
     1
 91
        4
 64
     7
 65
   257
 75
     1
175
     1
 42
1.0
 92
        8
 66
     7
 43
1.0
 76
     1
 77
     6
 78
     2
 67
     7
 79
     5
170
     0
171
     0
290
     0
174
     0
 93
        1
 44
50.0
173
     0
291
     1
 45
0.0
1001
ACAD
1000
AcDbSavedByObjectVersion
1070
     0
  0
VISUALSTYLE
  5
75D
102
{ACAD_XDICTIONARY
360
7ED
102
}
102
{ACAD_REACTORS
330
74D
102
}
330
74D
100
AcDbVisualStyle
  2
ColorChange
 70
    16
 71
     2
 72
     2
 73
     3
 90
        0
 40
-0.6
 41
-30.0
 62
     5
 63
     8
 74
     1
 91
        4
 64
     7
 65
   257
 75
     1
175
     1
 42
1.0
 92
        8
 66
     8
 43
1.0
 76
     1
 77
     6
 78
     2
 67
     7
 79
     5
170
     0
171
     0
290
     0
174
     0
 93
        1
 44
0.0
173
     0
291
     1
 45
0.0
1001
ACAD
1000
AcDbSavedByObjectVersion
1070
     0
  0
VISUALSTYLE
  5
756
102
{ACAD_XDICTIONARY
360
7DF
102
}
102
{ACAD_REACTORS
330
74D
102
}
330
74D
100
AcDbVisualStyle
  2
Conceptual
 70
     9
 71
     3
 72
     2
 73
     0
 90
        0
 40
-0.6
 41
-30.0
 62
     5
 63
     7
 74
     2
 91
        2
 64
     7
 65
   257
 75
     1
175
     1
 42
179.0
 92
        8
 66
     7
 43
1.0
 76
     1
 77
     6
 78
     2
 67
     7
 79
     3
170
     0
171
     0
290
     0
174
     0
 93
        1
 44
0.0
173
     0
291
     0
 45
0.0
1001
ACAD
1000
AcDbSavedByObjectVersion
1070
     0
  0
VISUALSTYLE
  5
758
102
{ACAD_XDICTIONARY
360
7E3
102
}
102
{ACAD_REACTORS
330
74D
102
}
330
74D
100
AcDbVisualStyle
  2
Dim
 70
    11
 71
     2
 72
     2
 73
     0
 90
        0
 40
-0.6
 41
-30.0
 62
     5
 63
     7
 74
     1
 91
        4
 64
     7
 65
   257
 75
     1
175
     1
 42
1.0
 92
        8
 66
     7
 43
1.0
 76
     1
 77
     6
 78
     2
 67
     7
 79
     5
170
     0
171
     0
290
     0
174
     0
 93
        1
 44
-50.0
173
     0
291
     1
 45
0.0
1001
ACAD
1000
AcDbSavedByObjectVersion
1070
     0
  0
VISUALSTYLE
  5
765
102
{ACAD_XDICTIONARY
360
7FD
102
}
102
{ACAD_REACTORS
330
74D
102
}
330
74D
100
AcDbVisualStyle
  2
EdgeColorOff
 70
    22
 71
     2
 72
     2
 73
     0
 90
        0
 40
-0.6
 41
-30.0
 62
     5
 63
     7
 74
     1
 91
        4
 64
     7
 65
   257
 75
     1
175
     1
 42
1.0
 92
        8
 66
     7
 43
1.0
 76
     1
 77
     6
 78
     2
 67
     7
 79
     5
170
     0
171
     0
290
     0
174
     0
 93
        1
 44
0.0
173
     0
291
     1
 45
0.0
1001
ACAD
1000
AcDbSavedByObjectVersion
1070
     0
  0
VISUALSTYLE
  5
75C
102
{ACAD_XDICTIONARY
360
7EB
102
}
102
{ACAD_REACTORS
330
74D
102
}
330
74D
100
AcDbVisualStyle
  2
Facepattern
 70
    15
 71
     2
 72
     2
 73
     0
 90
        0
 40
-0.6
 41
-30.0
 62
     5
 63
     7
 74
     1
 91
        4
 64
     7
 65
   257
 75
     1
175
     1
 42
1.0
 92
        8
 66
     7
 43
1.0
 76
     1
 77
     6
 78
     2
 67
     7
 79
     5
170
     0
171
     0
290
     0
174
     0
 93
        1
 44
0.0
173
     0
291
     1
 45
0.0
1001
ACAD
1000
AcDbSavedByObjectVersion
1070
     0
  0
VISUALSTYLE
  5
74E
102
{ACAD_XDICTIONARY
360
7CF
102
}
102
{ACAD_REACTORS
330
74D
102
}
330
74D
100
AcDbVisualStyle
  2
Flat
 70
     0
 71
     2
 72
     1
 73
     1
 90
        2
 40
-0.6
 41
30.0
 62
     5
 63
     7
 74
     0
 91
        0
 64
     7
 65
   257
 75
     1
175
     1
 42
1.0
 92
        8
 66
     7
 43
1.0
 76
     1
 77
     6
 78
     2
 67
     7
 79
     5
170
     0
171
     0
290
     0
174
     0
 93
       13
 44
0.0
173
     0
291
     1
 45
0.0
1001
ACAD
1000
AcDbSavedByObjectVersion
1070
     0
  0
VISUALSTYLE
  5
74F
102
{ACAD_XDICTIONARY
360
7D1
102
}
102
{ACAD_REACTORS
330
74D
102
}
330
74D
100
AcDbVisualStyle
  2
FlatWithEdges
 70
     1
 71
     2
 72
     1
 73
     1
 90
        2
 40
-0.6
 41
30.0
 62
     5
 63
     7
 74
     1
 91
        0
 64
     7
 65
   257
 75
     1
175
     1
 42
1.0
 92
        0
 66
   257
 43
1.0
 76
     1
 77
     6
 78
     2
 67
     7
 79
     5
170
     0
171
     0
290
     0
174
     0
 93
       13
 44
0.0
173
     0
291
     1
 45
0.0
1001
ACAD
1000
AcDbSavedByObjectVersion
1070
     0
  0
VISUALSTYLE
  5
750
102
{ACAD_XDICTIONARY
360
7D3
102
}
102
{ACAD_REACTORS
330
74D
102
}
330
74D
100
AcDbVisualStyle
  2
Gouraud
 70
     2
 71
     2
 72
     2
 73
     1
 90
        2
 40
-0.6
 41
30.0
 62
     5
 63
     7
 74
     0
 91
        0
 64
     7
 65
   257
 75
     1
175
     1
 42
1.0
 92
        0
 66
     7
 43
1.0
 76
     1
 77
     6
 78
     2
 67
     7
 79
     5
170
     0
171
     0
290
     0
174
     0
 93
       13
 44
0.0
173
     0
291
     1
 45
0.0
1001
ACAD
1000
AcDbSavedByObjectVersion
1070
     0
  0
VISUALSTYLE
  5
751
102
{ACAD_XDICTIONARY
360
7D5
102
}
102
{ACAD_REACTORS
330
74D
102
}
330
74D
100
AcDbVisualStyle
  2
GouraudWithEdges
 70
     3
 71
     2
 72
     2
 73
     1
 90
        2
 40
-0.6
 41
30.0
 62
     5
 63
     7
 74
     1
 91
        0
 64
     7
 65
   257
 75
     1
175
     1
 42
1.0
 92
        0
 66
   257
 43
1.0
 76
     1
 77
     6
 78
     2
 67
     7
 79
     5
170
     0
171
     0
290
     0
174
     0
 93
       13
 44
0.0
173
     0
291
     1
 45
0.0
1001
ACAD
1000
AcDbSavedByObjectVersion
1070
     0
  0
VISUALSTYLE
  5
755
102
{ACAD_XDICTIONARY
360
7DD
102
}
102
{ACAD_REACTORS
330
74D
102
}
330
74D
100
AcDbVisualStyle
  2
Hidden
 70
     6
 71
     1
 72
     2
 73
     2
 90
        0
 40
-0.6
 41
-30.0
 62
     5
 63
     7
 74
     2
 91
        2
 64
     7
 65
   257
 75
     2
175
     1
 42
40.0
 92
        0
 66
   257
 43
1.0
 76
     1
 77
     6
 78
     2
 67
     7
 79
     3
170
     0
171
     0
290
     0
174
     0
 93
        1
 44
0.0
173
     0
291
     0
 45
0.0
1001
ACAD
1000
AcDbSavedByObjectVersion
1070
     0
  0
VISUALSTYLE
  5
763
102
{ACAD_XDICTIONARY
360
7F9
102
}
102
{ACAD_REACTORS
330
74D
102
}
330
74D
100
AcDbVisualStyle
  2
JitterOff
 70
    20
 71
     2
 72
     2
 73
     0
 90
        0
 40
-0.6
 41
-30.0
 62
     5
 63
     7
 74
     1
 91
        4
 64
     7
 65
   257
 75
     1
175
     1
 42
1.0
 92
       10
 66
     7
 43
1.0
 76
     1
 77
     6
 78
     2
 67
     7
 79
     5
170
     0
171
     0
290
     0
174
     0
 93
        1
 44
0.0
173
     0
291
     1
 45
0.0
1001
ACAD
1000
AcDbSavedByObjectVersion
1070
     0
  0
VISUALSTYLE
  5
75B
102
{ACAD_XDICTIONARY
360
7E9
102
}
102
{ACAD_REACTORS
330
74D
102
}
330
74D
100
AcDbVisualStyle
  2
Linepattern
 70
    14
 71
     2
 72
     2
 73
     0
 90
        0
 40
-0.6
 41
-30.0
 62
     5
 63
     7
 74
     1
 91
        4
 64
     7
 65
   257
 75
     7
175
     7
 42
1.0
 92
        8
 66
     7
 43
1.0
 76
     1
 77
     6
 78
     2
 67
     7
 79
     5
170
     0
171
     0
290
     0
174
     0
 93
        1
 44
0.0
173
     0
291
     1
 45
0.0
1001
ACAD
1000
AcDbSavedByObjectVersion
1070
     0
  0
VISUALSTYLE
  5
764
102
{ACAD_XDICTIONARY
360
7FB
102
}
102
{ACAD_REACTORS
330
74D
102
}
330
74D
100
AcDbVisualStyle
  2
OverhangOff
 70
    21
 71
     2
 72
     2
 73
     0
 90
        0
 40
-0.6
 41
-30.0
 62
     5
 63
     7
 74
     1
 91
        4
 64
     7
 65
   257
 75
     1
175
     1
 42
1.0
 92
        9
 66
     7
 43
1.0
 76
     1
 77
     6
 78
     2
 67
     7
 79
     5
170
     0
171
     0
290
     0
174
     0
 93
        1
 44
0.0
173
     0
291
     1
 45
0.0
1001
ACAD
1000
AcDbSavedByObjectVersion
1070
     0
  0
VISUALSTYLE
  5
757
102
{ACAD_XDICTIONARY
360
7E1
102
}
102
{ACAD_REACTORS
330
74D
102
}
330
74D
100
AcDbVisualStyle
  2
Realistic
 70
     8
 71
     2
 72
     3
 73
     0
 90
        2
 40
-0.6
 41
30.0
 62
     5
 63
     7
 74
     0
 91
        0
 64
     7
 65
   257
 75
     1
175
     1
 42
1.0
 92
        8
 66
   257
 43
1.0
 76
     1
 77
     6
 78
     2
 67
     7
 79
     3
170
     0
171
     0
290
     0
174
     0
 93
       13
 44
0.0
173
     0
291
     0
 45
0.0
1001
ACAD
1000
AcDbSavedByObjectVersion
1070
     0
  0
VISUALSTYLE
  5
762
102
{ACAD_XDICTIONARY
360
7F7
102
}
102
{ACAD_REACTORS
330
74D
102
}
330
74D
100
AcDbVisualStyle
  2
Shaded
 70
    27
 71
     2
 72
     2
 73
     1
 90
        2
 40
-0.6
 41
30.0
 62
     5
 63
     7
 74
     0
 91
        4
 64
     7
 65
   257
 75
     1
175
     1
 42
1.0
 92
        8
 66
   257
 43
1.0
 76
     1
 77
     6
 78
     2
 67
     8
 79
     3
170
     0
171
     0
290
     0
174
     0
 93
        5
 44
0.0
173
     0
291
     0
 45
0.0
1001
ACAD
1000
AcDbSavedByObjectVersion
1070
     0
  0
VISUALSTYLE
  5
761
102
{ACAD_XDICTIONARY
360
7F5
102
}
102
{ACAD_REACTORS
330
74D
102
}
330
74D
100
AcDbVisualStyle
  2
Shaded with edges
 70
    26
 71
     2
 72
     2
 73
     1
 90
        2
 40
-0.6
 41
30.0
 62
     5
 63
     7
 74
     1
 91
       10
 64
     7
 65
   257
 75
     2
175
     1
 42
1.0
 92
        8
 66
   257
 43
1.0
 76
     1
 77
     6
 78
     2
 67
     7
 79
     3
170
     0
171
     0
290
     0
174
     0
 93
        5
 44
0.0
173
     0
291
     0
 45
0.0
1001
ACAD
1000
AcDbSavedByObjectVersion
1070
     0
  0
VISUALSTYLE
  5
75E
102
{ACAD_XDICTIONARY
360
7EF
102
}
102
{ACAD_REACTORS
330
74D
102
}
330
74D
100
AcDbVisualStyle
  2
Shades of Gray
 70
    23
 71
     2
 72
     2
 73
     3
 90
        0
 40
-0.6
 41
-30.0
 62
     5
 63
     7
 74
     2
 91
        2
 64
     7
 65
     7
 75
     1
175
     1
 42
40.0
 92
        8
 66
     7
 43
1.0
 76
     1
 77
     6
 78
     2
 67
     7
 79
     3
170
     0
171
     0
290
     0
174
     0
 93
        1
 44
0.0
173
     0
291
     0
 45
0.0
1001
ACAD
1000
AcDbSavedByObjectVersion
1070
     0
  0
VISUALSTYLE
  5
75F
102
{ACAD_XDICTIONARY
360
7F1
102
}
102
{ACAD_REACTORS
330
74D
102
}
330
74D
100
AcDbVisualStyle
  2
Sketchy
 70
    24
 71
     1
 72
     2
 73
     2
 90
        0
 40
-0.6
 41
-30.0
 62
     5
 63
     7
 74
     2
 91
        2
 64
     7
 65
     7
 75
     1
175
     1
 42
40.0
 92
       11
 66
     7
 43
1.0
 76
     1
 77
     6
 78
     2
 67
     7
 79
     6
170
     0
171
     0
290
     0
174
     0
 93
        1
 44
0.0
173
     0
291
     0
 45
0.0
1001
ACAD
1000
AcDbSavedByObjectVersion
1070
     0
  0
VISUALSTYLE
  5
75A
102
{ACAD_XDICTIONARY
360
7E7
102
}
102
{ACAD_REACTORS
330
74D
102
}
330
74D
100
AcDbVisualStyle
  2
Thicken
 70
    13
 71
     2
 72
     2
 73
     0
 90
        0
 40
-0.6
 41
-30.0
 62
     5
 63
     7
 74
     1
 91
        4
 64
     7
 65
   257
 75
     1
175
     1
 42
1.0
 92
       12
 66
     7
 43
1.0
 76
     1
 77
     6
 78
     2
 67
     7
 79
     5
170
     0
171
     0
290
     0
174
     0
 93
        1
 44
0.0
173
     0
291
     1
 45
0.0
1001
ACAD
1000
AcDbSavedByObjectVersion
1070
     0
  0
VISUALSTYLE
  5
754
102
{ACAD_XDICTIONARY
360
7DB
102
}
102
{ACAD_REACTORS
330
74D
102
}
330
74D
100
AcDbVisualStyle
  2
Wireframe
 70
     5
 71
     0
 72
     2
 73
     0
 90
        0
 40
-0.6
 41
-30.0
 62
     5
 63
     7
 74
     1
 91
        4
 64
     7
 65
   257
 75
     1
175
     1
 42
1.0
 92
        0
 66
   257
 43
1.0
 76
     1
 77
     6
 78
     2
 67
     7
 79
     3
170
     0
171
     0
290
     0
174
     0
 93
        1
 44
0.0
173
     0
291
     0
 45
0.0
1001
ACAD
1000
AcDbSavedByObjectVersion
1070
     0
  0
VISUALSTYLE
  5
760
102
{ACAD_XDICTIONARY
360
7F3
102
}
102
{ACAD_REACTORS
330
74D
102
}
330
74D
100
AcDbVisualStyle
  2
X-Ray
 70
    25
 71
     2
 72
     2
 73
     1
 90
        1
 40
0.5
 41
-30.0
 62
     5
 63
     7
 74
     1
 91
        0
 64
     7
 65
   257
 75
     1
175
     1
 42
1.0
 92
        8
 66
     7
 43
1.0
 76
     1
 77
     6
 78
     2
 67
     7
 79
     3
170
     0
171
     0
290
     0
174
     0
 93
       13
 44
0.0
173
     0
291
     0
 45
0.0
1001
ACAD
1000
AcDbSavedByObjectVersion
1070
     0
  0
DICTIONARYVAR
  5
7C2
102
{ACAD_REACTORS
330
7BD
102
}
330
7BD
100
DictionaryVariables
280
     0
  1
1:1
  0
DICTIONARYVAR
  5
7BF
102
{ACAD_REACTORS
330
7BD
102
}
330
7BD
100
DictionaryVariables
280
     0
  1
STANDARD
  0
DICTIONARYVAR
  5
7BE
102
{ACAD_REACTORS
330
7BD
102
}
330
7BD
100
DictionaryVariables
280
     0
  1
STANDARD
  0
DICTIONARYVAR
  5
7C0
102
{ACAD_REACTORS
330
7BD
102
}
330
7BD
100
DictionaryVariables
280
     0
  1
Imperial24
  0
DICTIONARYVAR
  5
7C1
102
{ACAD_REACTORS
330
7BD
102
}
330
7BD
100
DictionaryVariables
280
     0
  1
Imperial24
  0
DICTIONARYVAR
  5
7C5
102
{ACAD_REACTORS
330
7BD
102
}
330
7BD
100
DictionaryVariables
280
     0
  1
1
  0
DICTIONARYVAR
  5
7C4
102
{ACAD_REACTORS
330
7BD
102
}
330
7BD
100
DictionaryVariables
280
     0
  1
0
  0
DICTIONARYVAR
  5
7C3
102
{ACAD_REACTORS
330
7BD
102
}
330
7BD
100
DictionaryVariables
280
     0
  1
127
  0
DICTIONARYVAR
  5
7C6
102
{ACAD_REACTORS
330
7BD
102
}
330
7BD
100
DictionaryVariables
280
     0
  1
2
  0
DICTIONARY
  5
803
330
78E
100
AcDbDictionary
280
     1
281
     1
  3
ACAD_XREC_ROUNDTRIP
360
804
  0
DICTIONARY
  5
807
330
796
100
AcDbDictionary
280
     1
281
     1
  3
ACAD_XREC_ROUNDTRIP
360
808
  0
DICTIONARY
  5
805
330
792
100
AcDbDictionary
280
     1
281
     1
  3
ACAD_XREC_ROUNDTRIP
360
806
  0
DICTIONARY
  5
73E
330
73D
100
AcDbDictionary
280
     1
281
     1
  3
ACAD_XREC_ROUNDTRIP
360
7CD
  3
BUMPTILE
360
740
  3
DIFFUSETILE
360
73F
  3
OPACITYTILE
360
743
  3
REFLECTIONTILE
360
742
  3
REFRACTIONTILE
360
744
  3
SPECULARTILE
360
741
  0
DICTIONARY
  5
736
330
735
100
AcDbDictionary
280
     1
281
     1
  3
ACAD_XREC_ROUNDTRIP
360
7CC
  3
BUMPTILE
360
738
  3
DIFFUSETILE
360
737
  3
OPACITYTILE
360
73B
  3
REFLECTIONTILE
360
73A
  3
REFRACTIONTILE
360
73C
  3
SPECULARTILE
360
739
  0
DICTIONARY
  5
746
330
745
100
AcDbDictionary
280
     1
281
     1
  3
ACAD_XREC_ROUNDTRIP
360
7CE
  3
BUMPTILE
360
748
  3
DIFFUSETILE
360
747
  3
OPACITYTILE
360
74B
  3
REFLECTIONTILE
360
74A
  3
REFRACTIONTILE
360
74C
  3
SPECULARTILE
360
749
  0
DICTIONARY
  5
801
330
78C
100
AcDbDictionary
280
     1
281
     1
  3
ACAD_XREC_ROUNDTRIP
360
802
  0
DICTIONARY
  5
7C8
330
788
100
AcDbDictionary
280
     1
281
     1
  3
ACAD_ROUNDTRIP_2008_TABLESTYLE_CELLSTYLEMAP
360
7C9
  3
ACAD_XREC_ROUNDTRIP
360
7FF
  0
DICTIONARY
  5
7D9
330
753
100
AcDbDictionary
280
     1
281
     1
  3
ACAD_XREC_ROUNDTRIP
360
7DA
  0
DICTIONARY
  5
7D7
330
752
100
AcDbDictionary
280
     1
281
     1
  3
ACAD_XREC_ROUNDTRIP
360
7D8
  0
DICTIONARY
  5
7E5
330
759
100
AcDbDictionary
280
     1
281
     1
  3
ACAD_XREC_ROUNDTRIP
360
7E6
  0
DICTIONARY
  5
7ED
330
75D
100
AcDbDictionary
280
     1
281
     1
  3
ACAD_XREC_ROUNDTRIP
360
7EE
  0
DICTIONARY
  5
7DF
330
756
100
AcDbDictionary
280
     1
281
     1
  3
ACAD_XREC_ROUNDTRIP
360
7E0
  0
DICTIONARY
  5
7E3
330
758
100
AcDbDictionary
280
     1
281
     1
  3
ACAD_XREC_ROUNDTRIP
360
7E4
  0
DICTIONARY
  5
7FD
330
765
100
AcDbDictionary
280
     1
281
     1
  3
ACAD_XREC_ROUNDTRIP
360
7FE
  0
DICTIONARY
  5
7EB
330
75C
100
AcDbDictionary
280
     1
281
     1
  3
ACAD_XREC_ROUNDTRIP
360
7EC
  0
DICTIONARY
  5
7CF
330
74E
100
AcDbDictionary
280
     1
281
     1
  3
ACAD_XREC_ROUNDTRIP
360
7D0
  0
DICTIONARY
  5
7D1
330
74F
100
AcDbDictionary
280
     1
281
     1
  3
ACAD_XREC_ROUNDTRIP
360
7D2
  0
DICTIONARY
  5
7D3
330
750
100
AcDbDictionary
280
     1
281
     1
  3
ACAD_XREC_ROUNDTRIP
360
7D4
  0
DICTIONARY
  5
7D5
330
751
100
AcDbDictionary
280
     1
281
     1
  3
ACAD_XREC_ROUNDTRIP
360
7D6
  0
DICTIONARY
  5
7DD
330
755
100
AcDbDictionary
280
     1
281
     1
  3
ACAD_XREC_ROUNDTRIP
360
7DE
  0
DICTIONARY
  5
7F9
330
763
100
AcDbDictionary
280
     1
281
     1
  3
ACAD_XREC_ROUNDTRIP
360
7FA
  0
DICTIONARY
  5
7E9
330
75B
100
AcDbDictionary
280
     1
281
     1
  3
ACAD_XREC_ROUNDTRIP
360
7EA
  0
DICTIONARY
  5
7FB
330
764
100
AcDbDictionary
280
     1
281
     1
  3
ACAD_XREC_ROUNDTRIP
360
7FC
  0
DICTIONARY
  5
7E1
330
757
100
AcDbDictionary
280
     1
281
     1
  3
ACAD_XREC_ROUNDTRIP
360
7E2
  0
DICTIONARY
  5
7F7
330
762
100
AcDbDictionary
280
     1
281
     1
  3
ACAD_XREC_ROUNDTRIP
360
7F8
  0
DICTIONARY
  5
7F5
330
761
100
AcDbDictionary
280
     1
281
     1
  3
ACAD_XREC_ROUNDTRIP
360
7F6
  0
DICTIONARY
  5
7EF
330
75E
100
AcDbDictionary
280
     1
281
     1
  3
ACAD_XREC_ROUNDTRIP
360
7F0
  0
DICTIONARY
  5
7F1
330
75F
100
AcDbDictionary
280
     1
281
     1
  3
ACAD_XREC_ROUNDTRIP
360
7F2
  0
DICTIONARY
  5
7E7
330
75A
100
AcDbDictionary
280
     1
281
     1
  3
ACAD_XREC_ROUNDTRIP
360
7E8
  0
DICTIONARY
  5
7DB
330
754
100
AcDbDictionary
280
     1
281
     1
  3
ACAD_XREC_ROUNDTRIP
360
7DC
  0
DICTIONARY
  5
7F3
330
760
100
AcDbDictionary
280
     1
281
     1
  3
ACAD_XREC_ROUNDTRIP
360
7F4
  0
XRECORD
  5
804
102
{ACAD_REACTORS
330
803
102
}
330
803
100
AcDbXrecord
280
     1
102
DISPLAYNAME
  1
Imperial24
102
FLAGS
 90
        0
  0
XRECORD
  5
808
102
{ACAD_REACTORS
330
807
102
}
330
807
100
AcDbXrecord
280
     1
102
SHADEPLOT
 70
     0
102
SHADEPLOTRESLEVEL
 70
     2
102
SHADEPLOTCUSTOMDPI
 70
   300
  0
XRECORD
  5
806
102
{ACAD_REACTORS
330
805
102
}
330
805
100
AcDbXrecord
280
     1
102
SHADEPLOT
 70
     0
102
SHADEPLOTRESLEVEL
 70
     2
102
SHADEPLOTCUSTOMDPI
 70
   300
  0
XRECORD
  5
7CD
102
{ACAD_REACTORS
330
73E
102
}
330
73E
100
AcDbXrecord
280
     1
102
MATERIAL
148
0.0
149
0.0
149
0.0
 93
        0
 94
      127
282
     0
 72
     0
 77
     0
171
     0
175
     0
179
     0
273
     0
  0
XRECORD
  5
740
102
{ACAD_REACTORS
330
73E
102
}
330
73E
100
AcDbXrecord
280
     1
270
     1
271
     1
  0
XRECORD
  5
73F
102
{ACAD_REACTORS
330
73E
102
}
330
73E
100
AcDbXrecord
280
     1
270
     1
271
     1
  0
XRECORD
  5
743
102
{ACAD_REACTORS
330
73E
102
}
330
73E
100
AcDbXrecord
280
     1
270
     1
271
     1
  0
XRECORD
  5
742
102
{ACAD_REACTORS
330
73E
102
}
330
73E
100
AcDbXrecord
280
     1
270
     1
271
     1
  0
XRECORD
  5
744
102
{ACAD_REACTORS
330
73E
102
}
330
73E
100
AcDbXrecord
280
     1
270
     1
271
     1
  0
XRECORD
  5
741
102
{ACAD_REACTORS
330
73E
102
}
330
73E
100
AcDbXrecord
280
     1
270
     1
271
     1
  0
XRECORD
  5
7CC
102
{ACAD_REACTORS
330
736
102
}
330
736
100
AcDbXrecord
280
     1
102
MATERIAL
148
0.0
149
0.0
149
0.0
 93
        0
 94
      127
282
     0
 72
     0
 77
     0
171
     0
175
     0
179
     0
273
     0
  0
XRECORD
  5
738
102
{ACAD_REACTORS
330
736
102
}
330
736
100
AcDbXrecord
280
     1
270
     1
271
     1
  0
XRECORD
  5
737
102
{ACAD_REACTORS
330
736
102
}
330
736
100
AcDbXrecord
280
     1
270
     1
271
     1
  0
XRECORD
  5
73B
102
{ACAD_REACTORS
330
736
102
}
330
736
100
AcDbXrecord
280
     1
270
     1
271
     1
  0
XRECORD
  5
73A
102
{ACAD_REACTORS
330
736
102
}
330
736
100
AcDbXrecord
280
     1
270
     1
271
     1
  0
XRECORD
  5
73C
102
{ACAD_REACTORS
330
736
102
}
330
736
100
AcDbXrecord
280
     1
270
     1
271
     1
  0
XRECORD
  5
739
102
{ACAD_REACTORS
330
736
102
}
330
736
100
AcDbXrecord
280
     1
270
     1
271
     1
  0
XRECORD
  5
7CE
102
{ACAD_REACTORS
330
746
102
}
330
746
100
AcDbXrecord
280
     1
102
MATERIAL
148
0.0
149
0.0
149
0.0
 93
        0
 94
      127
282
     0
 72
     0
 77
     0
171
     0
175
     0
179
     0
273
     0
  0
XRECORD
  5
748
102
{ACAD_REACTORS
330
746
102
}
330
746
100
AcDbXrecord
280
     1
270
     1
271
     1
  0
XRECORD
  5
747
102
{ACAD_REACTORS
330
746
102
}
330
746
100
AcDbXrecord
280
     1
270
     1
271
     1
  0
XRECORD
  5
74B
102
{ACAD_REACTORS
330
746
102
}
330
746
100
AcDbXrecord
280
     1
270
     1
271
     1
  0
XRECORD
  5
74A
102
{ACAD_REACTORS
330
746
102
}
330
746
100
AcDbXrecord
280
     1
270
     1
271
     1
  0
XRECORD
  5
74C
102
{ACAD_REACTORS
330
746
102
}
330
746
100
AcDbXrecord
280
     1
270
     1
271
     1
  0
XRECORD
  5
749
102
{ACAD_REACTORS
330
746
102
}
330
746
100
AcDbXrecord
280
     1
270
     1
271
     1
  0
XRECORD
  5
802
102
{ACAD_REACTORS
330
801
102
}
330
801
100
AcDbXrecord
280
     1
102
DISPLAYNAME
  1
Imperial24
102
FLAGS
 90
        0
  0
CELLSTYLEMAP
  5
7C9
102
{ACAD_REACTORS
330
7C8
102
}
330
7C8
100
AcDbCellStyleMap
 90
        3
300
CELLSTYLE
  1
TABLEFORMAT_BEGIN
 90
        5
170
     1
 91
        0
 92
    32768
 62
   257
 93
        1
300
CONTENTFORMAT
  1
CONTENTFORMAT_BEGIN
 90
        0
 91
        0
 92
      512
 93
        0
300

 40
0.0
140
1.0
 94
        5
 62
     0
340
779
144
0.25
309
CONTENTFORMAT_END
171
     0
 94
        0
309
TABLEFORMAT_END
  1
CELLSTYLE_BEGIN
 90
        1
 91
        1
300
_TITLE
309
CELLSTYLE_END
300
CELLSTYLE
  1
TABLEFORMAT_BEGIN
 90
        5
170
     1
 91
        0
 92
        0
 62
   257
 93
        1
300
CONTENTFORMAT
  1
CONTENTFORMAT_BEGIN
 90
        0
 91
        0
 92
      512
 93
        0
300

 40
0.0
140
1.0
 94
        5
 62
     0
340
779
144
0.18
309
CONTENTFORMAT_END
171
     0
 94
        0
309
TABLEFORMAT_END
  1
CELLSTYLE_BEGIN
 90
        2
 91
        1
300
_HEADER
309
CELLSTYLE_END
300
CELLSTYLE
  1
TABLEFORMAT_BEGIN
 90
        5
170
     1
 91
        0
 92
        0
 62
   257
 93
        1
300
CONTENTFORMAT
  1
CONTENTFORMAT_BEGIN
 90
        0
 91
        0
 92
      512
 93
        0
300

 40
0.0
140
1.0
 94
        2
 62
     0
340
779
144
0.18
309
CONTENTFORMAT_END
171
     0
 94
        0
309
TABLEFORMAT_END
  1
CELLSTYLE_BEGIN
 90
        3
 91
        2
300
_DATA
309
CELLSTYLE_END
  0
XRECORD
  5
7FF
102
{ACAD_REACTORS
330
7C8
102
}
330
7C8
100
AcDbXrecord
280
     1
102
ACAD_ROUNDTRIP_PRE2007_TABLESTYLE
 90
      512
 91
        0
  1

 92
      512
 93
        0
  2

 94
      512
 95
        0
  3

  0
XRECORD
  5
7DA
102
{ACAD_REACTORS
330
7D9
102
}
330
7D9
100
AcDbXrecord
280
     1
102
RTVSPost2010Prop28
280
     1
102
RTVSPost2010PropOp28
 70
     1
102
RTVSPost2010Prop29
280
     1
102
RTVSPost2010PropOp29
 70
     1
102
RTVSPost2010Prop30
280
     0
102
RTVSPost2010PropOp30
 70
     1
102
RTVSPost2010Prop31
280
     0
102
RTVSPost2010PropOp31
 70
     1
102
RTVSPost2010Prop32
280
     0
102
RTVSPost2010PropOp32
 70
     1
102
RTVSPost2010Prop33
280
     0
102
RTVSPost2010PropOp33
 70
     1
102
RTVSPost2010Prop34
280
     0
102
RTVSPost2010PropOp34
 70
     1
102
RTVSPost2010Prop35
280
     0
102
RTVSPost2010PropOp35
 70
     1
102
RTVSPost2010Prop36
280
     0
102
RTVSPost2010PropOp36
 70
     1
102
RTVSPost2010Prop37
 90
       50
102
RTVSPost2010PropOp37
 70
     1
102
RTVSPost2010Prop38
140
0.0
102
RTVSPost2010PropOp38
 70
     1
102
RTVSPost2010Prop39
140
1.0
102
RTVSPost2010PropOp39
 70
     1
102
RTVSPost2010Prop40
 90
        0
102
RTVSPost2010PropOp40
 70
     1
102
RTVSPost2010Prop41ColorIndex
 90
       18
102
RTVSPost2010Prop41ColorRGB
 90
        0
102
RTVSPost2010PropOp41
 70
     1
102
RTVSPost2010Prop42
 90
       50
102
RTVSPost2010PropOp42
 70
     1
102
RTVSPost2010Prop43
 90
        3
102
RTVSPost2010PropOp43
 70
     1
102
RTVSPost2010Prop44ColorIndex
 90
        5
102
RTVSPost2010Prop44ColorRGB
 90
      255
102
RTVSPost2010PropOp44
 70
     1
102
RTVSPost2010Prop45
280
     0
102
RTVSPost2010PropOp45
 70
     1
102
RTVSPost2010Prop46
 90
       50
102
RTVSPost2010PropOp46
 70
     1
102
RTVSPost2010Prop47
 90
       50
102
RTVSPost2010PropOp47
 70
     1
102
RTVSPost2010Prop48
 90
       50
102
RTVSPost2010PropOp48
 70
     1
102
RTVSPost2010Prop49
280
     0
102
RTVSPost2010PropOp49
 70
     1
102
RTVSPost2010Prop50
 90
       50
102
RTVSPost2010PropOp50
 70
     1
102
RTVSPost2010Prop51ColorIndex
 90
      256
102
RTVSPost2010Prop51ColorRGB
 90
-16777216
102
RTVSPost2010PropOp51
 70
     0
102
RTVSPost2010Prop52
140
1.0
102
RTVSPost2010PropOp52
 70
     0
102
RTVSPost2010Prop53
 90
        2
102
RTVSPost2010PropOp53
 70
     1
102
RTVSPost2010Prop54
  1
strokes_ogs.tif
102
RTVSPost2010PropOp54
 70
     1
102
RTVSPost2010Prop55
280
     0
102
RTVSPost2010PropOp55
 70
     1
102
RTVSPost2010Prop56
140
1.0
102
RTVSPost2010PropOp56
 70
     1
102
RTVSPost2010Prop57
140
1.0
102
RTVSPost2010PropOp57
 70
     1
102
RTVSPropertyOp0
 70
     1
102
RTVSPropertyOp1
 70
     1
102
RTVSPropertyOp2
 70
     1
102
RTVSPropertyOp3
 70
     1
102
RTVSPropertyOp4
 70
     1
102
RTVSPropertyOp5
 70
     1
102
RTVSPropertyOp6
 70
     1
102
RTVSPropertyOp7
 70
     1
102
RTVSPropertyOp8
 70
     1
102
RTVSPropertyOp9
 70
     1
102
RTVSPropertyOp10
 70
     1
102
RTVSPropertyOp11
 70
     1
102
RTVSPropertyOp12
 70
     1
102
RTVSPropertyOp13
 70
     1
102
RTVSPropertyOp14
 70
     1
102
RTVSPropertyOp15
 70
     1
102
RTVSPropertyOp16
 70
     1
102
RTVSPropertyOp17
 70
     1
102
RTVSPropertyOp18
 70
     1
102
RTVSPropertyOp19
 70
     1
102
RTVSPropertyOp20
 70
     1
102
RTVSPropertyOp21
 70
     1
102
RTVSPropertyOp22
 70
     1
102
RTVSPropertyOp23
 70
     1
102
RTVSPropertyOp24
 70
     1
102
RTVSPropertyOp25
 70
     1
102
RTVSPropertyOp26
 70
     1
102
RTVSPropertyOp27
 70
     1
102
RTVSPropertyOp28
 70
     1
102
RTVSPropertyOp29
 70
     1
102
RTVSPropertyOp30
 70
     1
102
RTVSPropertyOp31
 70
     1
102
RTVSPropertyOp32
 70
     1
102
RTVSPropertyOp33
 70
     1
102
RTVSPropertyOp34
 70
     1
102
RTVSPropertyOp35
 70
     1
102
RTVSPropertyOp36
 70
     1
102
RTVSPropertyOp37
 70
     1
102
RTVSPropertyOp38
 70
     1
102
RTVSPropertyOp39
 70
     1
102
RTVSPropertyOp40
 70
     1
102
RTVSPropertyOp41
 70
     1
102
RTVSPropertyOp42
 70
     1
102
RTVSPropertyOp43
 70
     1
102
RTVSPropertyOp44
 70
     1
102
RTVSPropertyOp45
 70
     1
102
RTVSPropertyOp46
 70
     1
102
RTVSPropertyOp47
 70
     1
102
RTVSPropertyOp48
 70
     1
102
RTVSPropertyOp49
 70
     1
102
RTVSPropertyOp50
 70
     1
102
RTVSPropertyOp51
 70
     0
102
RTVSPropertyOp52
 70
     0
102
RTVSPropertyOp53
 70
     1
102
RTVSPropertyOp54
 70
     1
102
RTVSPropertyOp55
 70
     1
102
RTVSPropertyOp56
 70
     1
102
RTVSPropertyOp57
 70
     1
102
RTVSPropertyOp58
 70
     1
102
RTVSPropertyOp59
 70
     1
102
RTVSPropertyOp60
 70
     1
102
RTVSPropertyOp61
 70
     1
102
RTVSPropertyOp62
 70
     1
  0
XRECORD
  5
7D8
102
{ACAD_REACTORS
330
7D7
102
}
330
7D7
100
AcDbXrecord
280
     1
102
RTVSPost2010Prop28
280
     0
102
RTVSPost2010PropOp28
 70
     1
102
RTVSPost2010Prop29
280
     1
102
RTVSPost2010PropOp29
 70
     1
102
RTVSPost2010Prop30
280
     1
102
RTVSPost2010PropOp30
 70
     1
102
RTVSPost2010Prop31
280
     0
102
RTVSPost2010PropOp31
 70
     1
102
RTVSPost2010Prop32
280
     0
102
RTVSPost2010PropOp32
 70
     1
102
RTVSPost2010Prop33
280
     0
102
RTVSPost2010PropOp33
 70
     1
102
RTVSPost2010Prop34
280
     0
102
RTVSPost2010PropOp34
 70
     1
102
RTVSPost2010Prop35
280
     0
102
RTVSPost2010PropOp35
 70
     1
102
RTVSPost2010Prop36
280
     0
102
RTVSPost2010PropOp36
 70
     1
102
RTVSPost2010Prop37
 90
       50
102
RTVSPost2010PropOp37
 70
     1
102
RTVSPost2010Prop38
140
0.0
102
RTVSPost2010PropOp38
 70
     1
102
RTVSPost2010Prop39
140
1.0
102
RTVSPost2010PropOp39
 70
     1
102
RTVSPost2010Prop40
 90
        0
102
RTVSPost2010PropOp40
 70
     1
102
RTVSPost2010Prop41ColorIndex
 90
       18
102
RTVSPost2010Prop41ColorRGB
 90
        0
102
RTVSPost2010PropOp41
 70
     1
102
RTVSPost2010Prop42
 90
       50
102
RTVSPost2010PropOp42
 70
     1
102
RTVSPost2010Prop43
 90
        3
102
RTVSPost2010PropOp43
 70
     1
102
RTVSPost2010Prop44ColorIndex
 90
        5
102
RTVSPost2010Prop44ColorRGB
 90
      255
102
RTVSPost2010PropOp44
 70
     1
102
RTVSPost2010Prop45
280
     0
102
RTVSPost2010PropOp45
 70
     1
102
RTVSPost2010Prop46
 90
       50
102
RTVSPost2010PropOp46
 70
     1
102
RTVSPost2010Prop47
 90
       50
102
RTVSPost2010PropOp47
 70
     1
102
RTVSPost2010Prop48
 90
       50
102
RTVSPost2010PropOp48
 70
     1
102
RTVSPost2010Prop49
280
     0
102
RTVSPost2010PropOp49
 70
     1
102
RTVSPost2010Prop50
 90
       50
102
RTVSPost2010PropOp50
 70
     1
102
RTVSPost2010Prop51ColorIndex
 90
      256
102
RTVSPost2010Prop51ColorRGB
 90
-16777216
102
RTVSPost2010PropOp51
 70
     0
102
RTVSPost2010Prop52
140
1.0
102
RTVSPost2010PropOp52
 70
     0
102
RTVSPost2010Prop53
 90
        2
102
RTVSPost2010PropOp53
 70
     1
102
RTVSPost2010Prop54
  1
strokes_ogs.tif
102
RTVSPost2010PropOp54
 70
     1
102
RTVSPost2010Prop55
280
     0
102
RTVSPost2010PropOp55
 70
     1
102
RTVSPost2010Prop56
140
1.0
102
RTVSPost2010PropOp56
 70
     1
102
RTVSPost2010Prop57
140
1.0
102
RTVSPost2010PropOp57
 70
     1
102
RTVSPropertyOp0
 70
     1
102
RTVSPropertyOp1
 70
     1
102
RTVSPropertyOp2
 70
     1
102
RTVSPropertyOp3
 70
     1
102
RTVSPropertyOp4
 70
     1
102
RTVSPropertyOp5
 70
     1
102
RTVSPropertyOp6
 70
     1
102
RTVSPropertyOp7
 70
     1
102
RTVSPropertyOp8
 70
     1
102
RTVSPropertyOp9
 70
     1
102
RTVSPropertyOp10
 70
     1
102
RTVSPropertyOp11
 70
     1
102
RTVSPropertyOp12
 70
     1
102
RTVSPropertyOp13
 70
     1
102
RTVSPropertyOp14
 70
     1
102
RTVSPropertyOp15
 70
     1
102
RTVSPropertyOp16
 70
     1
102
RTVSPropertyOp17
 70
     1
102
RTVSPropertyOp18
 70
     1
102
RTVSPropertyOp19
 70
     1
102
RTVSPropertyOp20
 70
     1
102
RTVSPropertyOp21
 70
     1
102
RTVSPropertyOp22
 70
     1
102
RTVSPropertyOp23
 70
     1
102
RTVSPropertyOp24
 70
     1
102
RTVSPropertyOp25
 70
     1
102
RTVSPropertyOp26
 70
     1
102
RTVSPropertyOp27
 70
     1
102
RTVSPropertyOp28
 70
     1
102
RTVSPropertyOp29
 70
     1
102
RTVSPropertyOp30
 70
     1
102
RTVSPropertyOp31
 70
     1
102
RTVSPropertyOp32
 70
     1
102
RTVSPropertyOp33
 70
     1
102
RTVSPropertyOp34
 70
     1
102
RTVSPropertyOp35
 70
     1
102
RTVSPropertyOp36
 70
     1
102
RTVSPropertyOp37
 70
     1
102
RTVSPropertyOp38
 70
     1
102
RTVSPropertyOp39
 70
     1
102
RTVSPropertyOp40
 70
     1
102
RTVSPropertyOp41
 70
     1
102
RTVSPropertyOp42
 70
     1
102
RTVSPropertyOp43
 70
     1
102
RTVSPropertyOp44
 70
     1
102
RTVSPropertyOp45
 70
     1
102
RTVSPropertyOp46
 70
     1
102
RTVSPropertyOp47
 70
     1
102
RTVSPropertyOp48
 70
     1
102
RTVSPropertyOp49
 70
     1
102
RTVSPropertyOp50
 70
     1
102
RTVSPropertyOp51
 70
     0
102
RTVSPropertyOp52
 70
     0
102
RTVSPropertyOp53
 70
     1
102
RTVSPropertyOp54
 70
     1
102
RTVSPropertyOp55
 70
     1
102
RTVSPropertyOp56
 70
     1
102
RTVSPropertyOp57
 70
     1
102
RTVSPropertyOp58
 70
     1
102
RTVSPropertyOp59
 70
     1
102
RTVSPropertyOp60
 70
     1
102
RTVSPropertyOp61
 70
     1
102
RTVSPropertyOp62
 70
     1
  0
XRECORD
  5
7E6
102
{ACAD_REACTORS
330
7E5
102
}
330
7E5
100
AcDbXrecord
280
     1
102
RTVSPost2010Prop28
280
     0
102
RTVSPost2010PropOp28
 70
     1
102
RTVSPost2010Prop29
280
     1
102
RTVSPost2010PropOp29
 70
     1
102
RTVSPost2010Prop30
280
     1
102
RTVSPost2010PropOp30
 70
     1
102
RTVSPost2010Prop31
280
     0
102
RTVSPost2010PropOp31
 70
     1
102
RTVSPost2010Prop32
280
     0
102
RTVSPost2010PropOp32
 70
     1
102
RTVSPost2010Prop33
280
     0
102
RTVSPost2010PropOp33
 70
     1
102
RTVSPost2010Prop34
280
     0
102
RTVSPost2010PropOp34
 70
     1
102
RTVSPost2010Prop35
280
     0
102
RTVSPost2010PropOp35
 70
     1
102
RTVSPost2010Prop36
280
     0
102
RTVSPost2010PropOp36
 70
     1
102
RTVSPost2010Prop37
 90
       50
102
RTVSPost2010PropOp37
 70
     1
102
RTVSPost2010Prop38
140
0.0
102
RTVSPost2010PropOp38
 70
     1
102
RTVSPost2010Prop39
140
1.0
102
RTVSPost2010PropOp39
 70
     1
102
RTVSPost2010Prop40
 90
        0
102
RTVSPost2010PropOp40
 70
     1
102
RTVSPost2010Prop41ColorIndex
 90
       18
102
RTVSPost2010Prop41ColorRGB
 90
        0
102
RTVSPost2010PropOp41
 70
     1
102
RTVSPost2010Prop42
 90
       50
102
RTVSPost2010PropOp42
 70
     1
102
RTVSPost2010Prop43
 90
        3
102
RTVSPost2010PropOp43
 70
     1
102
RTVSPost2010Prop44ColorIndex
 90
        5
102
RTVSPost2010Prop44ColorRGB
 90
      255
102
RTVSPost2010PropOp44
 70
     1
102
RTVSPost2010Prop45
280
     0
102
RTVSPost2010PropOp45
 70
     1
102
RTVSPost2010Prop46
 90
       50
102
RTVSPost2010PropOp46
 70
     1
102
RTVSPost2010Prop47
 90
       50
102
RTVSPost2010PropOp47
 70
     1
102
RTVSPost2010Prop48
 90
       50
102
RTVSPost2010PropOp48
 70
     1
102
RTVSPost2010Prop49
280
     0
102
RTVSPost2010PropOp49
 70
     1
102
RTVSPost2010Prop50
 90
       50
102
RTVSPost2010PropOp50
 70
     1
102
RTVSPost2010Prop51ColorIndex
 90
      256
102
RTVSPost2010Prop51ColorRGB
 90
-16777216
102
RTVSPost2010PropOp51
 70
     0
102
RTVSPost2010Prop52
140
1.0
102
RTVSPost2010PropOp52
 70
     0
102
RTVSPost2010Prop53
 90
        2
102
RTVSPost2010PropOp53
 70
     1
102
RTVSPost2010Prop54
  1
strokes_ogs.tif
102
RTVSPost2010PropOp54
 70
     1
102
RTVSPost2010Prop55
280
     0
102
RTVSPost2010PropOp55
 70
     1
102
RTVSPost2010Prop56
140
1.0
102
RTVSPost2010PropOp56
 70
     1
102
RTVSPost2010Prop57
140
1.0
102
RTVSPost2010PropOp57
 70
     1
102
RTVSPropertyOp0
 70
     1
102
RTVSPropertyOp1
 70
     1
102
RTVSPropertyOp2
 70
     1
102
RTVSPropertyOp3
 70
     1
102
RTVSPropertyOp4
 70
     1
102
RTVSPropertyOp5
 70
     1
102
RTVSPropertyOp6
 70
     1
102
RTVSPropertyOp7
 70
     1
102
RTVSPropertyOp8
 70
     1
102
RTVSPropertyOp9
 70
     1
102
RTVSPropertyOp10
 70
     1
102
RTVSPropertyOp11
 70
     1
102
RTVSPropertyOp12
 70
     1
102
RTVSPropertyOp13
 70
     1
102
RTVSPropertyOp14
 70
     1
102
RTVSPropertyOp15
 70
     1
102
RTVSPropertyOp16
 70
     1
102
RTVSPropertyOp17
 70
     1
102
RTVSPropertyOp18
 70
     1
102
RTVSPropertyOp19
 70
     1
102
RTVSPropertyOp20
 70
     1
102
RTVSPropertyOp21
 70
     1
102
RTVSPropertyOp22
 70
     1
102
RTVSPropertyOp23
 70
     1
102
RTVSPropertyOp24
 70
     1
102
RTVSPropertyOp25
 70
     1
102
RTVSPropertyOp26
 70
     1
102
RTVSPropertyOp27
 70
     1
102
RTVSPropertyOp28
 70
     1
102
RTVSPropertyOp29
 70
     1
102
RTVSPropertyOp30
 70
     1
102
RTVSPropertyOp31
 70
     1
102
RTVSPropertyOp32
 70
     1
102
RTVSPropertyOp33
 70
     1
102
RTVSPropertyOp34
 70
     1
102
RTVSPropertyOp35
 70
     1
102
RTVSPropertyOp36
 70
     1
102
RTVSPropertyOp37
 70
     1
102
RTVSPropertyOp38
 70
     1
102
RTVSPropertyOp39
 70
     1
102
RTVSPropertyOp40
 70
     1
102
RTVSPropertyOp41
 70
     1
102
RTVSPropertyOp42
 70
     1
102
RTVSPropertyOp43
 70
     1
102
RTVSPropertyOp44
 70
     1
102
RTVSPropertyOp45
 70
     1
102
RTVSPropertyOp46
 70
     1
102
RTVSPropertyOp47
 70
     1
102
RTVSPropertyOp48
 70
     1
102
RTVSPropertyOp49
 70
     1
102
RTVSPropertyOp50
 70
     1
102
RTVSPropertyOp51
 70
     0
102
RTVSPropertyOp52
 70
     0
102
RTVSPropertyOp53
 70
     1
102
RTVSPropertyOp54
 70
     1
102
RTVSPropertyOp55
 70
     1
102
RTVSPropertyOp56
 70
     1
102
RTVSPropertyOp57
 70
     1
102
RTVSPropertyOp58
 70
     1
102
RTVSPropertyOp59
 70
     1
102
RTVSPropertyOp60
 70
     1
102
RTVSPropertyOp61
 70
     1
102
RTVSPropertyOp62
 70
     1
  0
XRECORD
  5
7EE
102
{ACAD_REACTORS
330
7ED
102
}
330
7ED
100
AcDbXrecord
280
     1
102
RTVSPost2010Prop28
280
     0
102
RTVSPost2010PropOp28
 70
     1
102
RTVSPost2010Prop29
280
     1
102
RTVSPost2010PropOp29
 70
     1
102
RTVSPost2010Prop30
280
     1
102
RTVSPost2010PropOp30
 70
     1
102
RTVSPost2010Prop31
280
     0
102
RTVSPost2010PropOp31
 70
     1
102
RTVSPost2010Prop32
280
     0
102
RTVSPost2010PropOp32
 70
     1
102
RTVSPost2010Prop33
280
     0
102
RTVSPost2010PropOp33
 70
     1
102
RTVSPost2010Prop34
280
     0
102
RTVSPost2010PropOp34
 70
     1
102
RTVSPost2010Prop35
280
     0
102
RTVSPost2010PropOp35
 70
     1
102
RTVSPost2010Prop36
280
     0
102
RTVSPost2010PropOp36
 70
     1
102
RTVSPost2010Prop37
 90
       50
102
RTVSPost2010PropOp37
 70
     1
102
RTVSPost2010Prop38
140
0.0
102
RTVSPost2010PropOp38
 70
     1
102
RTVSPost2010Prop39
140
1.0
102
RTVSPost2010PropOp39
 70
     1
102
RTVSPost2010Prop40
 90
        0
102
RTVSPost2010PropOp40
 70
     1
102
RTVSPost2010Prop41ColorIndex
 90
       18
102
RTVSPost2010Prop41ColorRGB
 90
        0
102
RTVSPost2010PropOp41
 70
     1
102
RTVSPost2010Prop42
 90
       50
102
RTVSPost2010PropOp42
 70
     1
102
RTVSPost2010Prop43
 90
        3
102
RTVSPost2010PropOp43
 70
     1
102
RTVSPost2010Prop44ColorIndex
 90
        5
102
RTVSPost2010Prop44ColorRGB
 90
      255
102
RTVSPost2010PropOp44
 70
     1
102
RTVSPost2010Prop45
280
     0
102
RTVSPost2010PropOp45
 70
     1
102
RTVSPost2010Prop46
 90
       50
102
RTVSPost2010PropOp46
 70
     1
102
RTVSPost2010Prop47
 90
       50
102
RTVSPost2010PropOp47
 70
     1
102
RTVSPost2010Prop48
 90
       50
102
RTVSPost2010PropOp48
 70
     1
102
RTVSPost2010Prop49
280
     0
102
RTVSPost2010PropOp49
 70
     1
102
RTVSPost2010Prop50
 90
       50
102
RTVSPost2010PropOp50
 70
     1
102
RTVSPost2010Prop51ColorIndex
 90
      256
102
RTVSPost2010Prop51ColorRGB
 90
-16777216
102
RTVSPost2010PropOp51
 70
     0
102
RTVSPost2010Prop52
140
1.0
102
RTVSPost2010PropOp52
 70
     0
102
RTVSPost2010Prop53
 90
        2
102
RTVSPost2010PropOp53
 70
     1
102
RTVSPost2010Prop54
  1
strokes_ogs.tif
102
RTVSPost2010PropOp54
 70
     1
102
RTVSPost2010Prop55
280
     0
102
RTVSPost2010PropOp55
 70
     1
102
RTVSPost2010Prop56
140
1.0
102
RTVSPost2010PropOp56
 70
     1
102
RTVSPost2010Prop57
140
1.0
102
RTVSPost2010PropOp57
 70
     1
102
RTVSPropertyOp0
 70
     1
102
RTVSPropertyOp1
 70
     1
102
RTVSPropertyOp2
 70
     1
102
RTVSPropertyOp3
 70
     1
102
RTVSPropertyOp4
 70
     1
102
RTVSPropertyOp5
 70
     1
102
RTVSPropertyOp6
 70
     1
102
RTVSPropertyOp7
 70
     1
102
RTVSPropertyOp8
 70
     1
102
RTVSPropertyOp9
 70
     1
102
RTVSPropertyOp10
 70
     1
102
RTVSPropertyOp11
 70
     1
102
RTVSPropertyOp12
 70
     1
102
RTVSPropertyOp13
 70
     1
102
RTVSPropertyOp14
 70
     1
102
RTVSPropertyOp15
 70
     1
102
RTVSPropertyOp16
 70
     1
102
RTVSPropertyOp17
 70
     1
102
RTVSPropertyOp18
 70
     1
102
RTVSPropertyOp19
 70
     1
102
RTVSPropertyOp20
 70
     1
102
RTVSPropertyOp21
 70
     1
102
RTVSPropertyOp22
 70
     1
102
RTVSPropertyOp23
 70
     1
102
RTVSPropertyOp24
 70
     1
102
RTVSPropertyOp25
 70
     1
102
RTVSPropertyOp26
 70
     1
102
RTVSPropertyOp27
 70
     1
102
RTVSPropertyOp28
 70
     1
102
RTVSPropertyOp29
 70
     1
102
RTVSPropertyOp30
 70
     1
102
RTVSPropertyOp31
 70
     1
102
RTVSPropertyOp32
 70
     1
102
RTVSPropertyOp33
 70
     1
102
RTVSPropertyOp34
 70
     1
102
RTVSPropertyOp35
 70
     1
102
RTVSPropertyOp36
 70
     1
102
RTVSPropertyOp37
 70
     1
102
RTVSPropertyOp38
 70
     1
102
RTVSPropertyOp39
 70
     1
102
RTVSPropertyOp40
 70
     1
102
RTVSPropertyOp41
 70
     1
102
RTVSPropertyOp42
 70
     1
102
RTVSPropertyOp43
 70
     1
102
RTVSPropertyOp44
 70
     1
102
RTVSPropertyOp45
 70
     1
102
RTVSPropertyOp46
 70
     1
102
RTVSPropertyOp47
 70
     1
102
RTVSPropertyOp48
 70
     1
102
RTVSPropertyOp49
 70
     1
102
RTVSPropertyOp50
 70
     1
102
RTVSPropertyOp51
 70
     0
102
RTVSPropertyOp52
 70
     0
102
RTVSPropertyOp53
 70
     1
102
RTVSPropertyOp54
 70
     1
102
RTVSPropertyOp55
 70
     1
102
RTVSPropertyOp56
 70
     1
102
RTVSPropertyOp57
 70
     1
102
RTVSPropertyOp58
 70
     1
102
RTVSPropertyOp59
 70
     1
102
RTVSPropertyOp60
 70
     1
102
RTVSPropertyOp61
 70
     1
102
RTVSPropertyOp62
 70
     1
  0
XRECORD
  5
7E0
102
{ACAD_REACTORS
330
7DF
102
}
330
7DF
100
AcDbXrecord
280
     1
102
RTVSPost2010Prop28
280
     0
102
RTVSPost2010PropOp28
 70
     1
102
RTVSPost2010Prop29
280
     1
102
RTVSPost2010PropOp29
 70
     1
102
RTVSPost2010Prop30
280
     1
102
RTVSPost2010PropOp30
 70
     1
102
RTVSPost2010Prop31
280
     0
102
RTVSPost2010PropOp31
 70
     1
102
RTVSPost2010Prop32
280
     0
102
RTVSPost2010PropOp32
 70
     1
102
RTVSPost2010Prop33
280
     0
102
RTVSPost2010PropOp33
 70
     1
102
RTVSPost2010Prop34
280
     0
102
RTVSPost2010PropOp34
 70
     1
102
RTVSPost2010Prop35
280
     0
102
RTVSPost2010PropOp35
 70
     1
102
RTVSPost2010Prop36
280
     0
102
RTVSPost2010PropOp36
 70
     1
102
RTVSPost2010Prop37
 90
       50
102
RTVSPost2010PropOp37
 70
     1
102
RTVSPost2010Prop38
140
0.0
102
RTVSPost2010PropOp38
 70
     1
102
RTVSPost2010Prop39
140
1.0
102
RTVSPost2010PropOp39
 70
     1
102
RTVSPost2010Prop40
 90
        0
102
RTVSPost2010PropOp40
 70
     1
102
RTVSPost2010Prop41ColorIndex
 90
       18
102
RTVSPost2010Prop41ColorRGB
 90
        0
102
RTVSPost2010PropOp41
 70
     1
102
RTVSPost2010Prop42
 90
       50
102
RTVSPost2010PropOp42
 70
     1
102
RTVSPost2010Prop43
 90
        3
102
RTVSPost2010PropOp43
 70
     1
102
RTVSPost2010Prop44ColorIndex
 90
        5
102
RTVSPost2010Prop44ColorRGB
 90
      255
102
RTVSPost2010PropOp44
 70
     1
102
RTVSPost2010Prop45
280
     0
102
RTVSPost2010PropOp45
 70
     1
102
RTVSPost2010Prop46
 90
       50
102
RTVSPost2010PropOp46
 70
     1
102
RTVSPost2010Prop47
 90
       50
102
RTVSPost2010PropOp47
 70
     1
102
RTVSPost2010Prop48
 90
       50
102
RTVSPost2010PropOp48
 70
     1
102
RTVSPost2010Prop49
280
     0
102
RTVSPost2010PropOp49
 70
     1
102
RTVSPost2010Prop50
 90
       50
102
RTVSPost2010PropOp50
 70
     1
102
RTVSPost2010Prop51ColorIndex
 90
      256
102
RTVSPost2010Prop51ColorRGB
 90
-16777216
102
RTVSPost2010PropOp51
 70
     0
102
RTVSPost2010Prop52
140
1.0
102
RTVSPost2010PropOp52
 70
     0
102
RTVSPost2010Prop53
 90
        2
102
RTVSPost2010PropOp53
 70
     1
102
RTVSPost2010Prop54
  1
strokes_ogs.tif
102
RTVSPost2010PropOp54
 70
     1
102
RTVSPost2010Prop55
280
     0
102
RTVSPost2010PropOp55
 70
     1
102
RTVSPost2010Prop56
140
1.0
102
RTVSPost2010PropOp56
 70
     1
102
RTVSPost2010Prop57
140
1.0
102
RTVSPost2010PropOp57
 70
     1
102
RTVSPropertyOp0
 70
     1
102
RTVSPropertyOp1
 70
     1
102
RTVSPropertyOp2
 70
     1
102
RTVSPropertyOp3
 70
     1
102
RTVSPropertyOp4
 70
     1
102
RTVSPropertyOp5
 70
     1
102
RTVSPropertyOp6
 70
     1
102
RTVSPropertyOp7
 70
     1
102
RTVSPropertyOp8
 70
     1
102
RTVSPropertyOp9
 70
     1
102
RTVSPropertyOp10
 70
     1
102
RTVSPropertyOp11
 70
     1
102
RTVSPropertyOp12
 70
     1
102
RTVSPropertyOp13
 70
     1
102
RTVSPropertyOp14
 70
     1
102
RTVSPropertyOp15
 70
     1
102
RTVSPropertyOp16
 70
     1
102
RTVSPropertyOp17
 70
     1
102
RTVSPropertyOp18
 70
     1
102
RTVSPropertyOp19
 70
     1
102
RTVSPropertyOp20
 70
     1
102
RTVSPropertyOp21
 70
     1
102
RTVSPropertyOp22
 70
     1
102
RTVSPropertyOp23
 70
     1
102
RTVSPropertyOp24
 70
     1
102
RTVSPropertyOp25
 70
     1
102
RTVSPropertyOp26
 70
     1
102
RTVSPropertyOp27
 70
     1
102
RTVSPropertyOp28
 70
     1
102
RTVSPropertyOp29
 70
     1
102
RTVSPropertyOp30
 70
     1
102
RTVSPropertyOp31
 70
     1
102
RTVSPropertyOp32
 70
     1
102
RTVSPropertyOp33
 70
     1
102
RTVSPropertyOp34
 70
     1
102
RTVSPropertyOp35
 70
     1
102
RTVSPropertyOp36
 70
     1
102
RTVSPropertyOp37
 70
     1
102
RTVSPropertyOp38
 70
     1
102
RTVSPropertyOp39
 70
     1
102
RTVSPropertyOp40
 70
     1
102
RTVSPropertyOp41
 70
     1
102
RTVSPropertyOp42
 70
     1
102
RTVSPropertyOp43
 70
     1
102
RTVSPropertyOp44
 70
     1
102
RTVSPropertyOp45
 70
     1
102
RTVSPropertyOp46
 70
     1
102
RTVSPropertyOp47
 70
     1
102
RTVSPropertyOp48
 70
     1
102
RTVSPropertyOp49
 70
     1
102
RTVSPropertyOp50
 70
     1
102
RTVSPropertyOp51
 70
     0
102
RTVSPropertyOp52
 70
     0
102
RTVSPropertyOp53
 70
     1
102
RTVSPropertyOp54
 70
     1
102
RTVSPropertyOp55
 70
     1
102
RTVSPropertyOp56
 70
     1
102
RTVSPropertyOp57
 70
     1
102
RTVSPropertyOp58
 70
     1
102
RTVSPropertyOp59
 70
     1
102
RTVSPropertyOp60
 70
     1
102
RTVSPropertyOp61
 70
     1
102
RTVSPropertyOp62
 70
     1
  0
XRECORD
  5
7E4
102
{ACAD_REACTORS
330
7E3
102
}
330
7E3
100
AcDbXrecord
280
     1
102
RTVSPost2010Prop28
280
     0
102
RTVSPost2010PropOp28
 70
     1
102
RTVSPost2010Prop29
280
     1
102
RTVSPost2010PropOp29
 70
     1
102
RTVSPost2010Prop30
280
     1
102
RTVSPost2010PropOp30
 70
     1
102
RTVSPost2010Prop31
280
     0
102
RTVSPost2010PropOp31
 70
     1
102
RTVSPost2010Prop32
280
     0
102
RTVSPost2010PropOp32
 70
     1
102
RTVSPost2010Prop33
280
     0
102
RTVSPost2010PropOp33
 70
     1
102
RTVSPost2010Prop34
280
     0
102
RTVSPost2010PropOp34
 70
     1
102
RTVSPost2010Prop35
280
     0
102
RTVSPost2010PropOp35
 70
     1
102
RTVSPost2010Prop36
280
     0
102
RTVSPost2010PropOp36
 70
     1
102
RTVSPost2010Prop37
 90
       50
102
RTVSPost2010PropOp37
 70
     1
102
RTVSPost2010Prop38
140
0.0
102
RTVSPost2010PropOp38
 70
     1
102
RTVSPost2010Prop39
140
1.0
102
RTVSPost2010PropOp39
 70
     1
102
RTVSPost2010Prop40
 90
        0
102
RTVSPost2010PropOp40
 70
     1
102
RTVSPost2010Prop41ColorIndex
 90
       18
102
RTVSPost2010Prop41ColorRGB
 90
        0
102
RTVSPost2010PropOp41
 70
     1
102
RTVSPost2010Prop42
 90
       50
102
RTVSPost2010PropOp42
 70
     1
102
RTVSPost2010Prop43
 90
        3
102
RTVSPost2010PropOp43
 70
     1
102
RTVSPost2010Prop44ColorIndex
 90
        5
102
RTVSPost2010Prop44ColorRGB
 90
      255
102
RTVSPost2010PropOp44
 70
     1
102
RTVSPost2010Prop45
280
     0
102
RTVSPost2010PropOp45
 70
     1
102
RTVSPost2010Prop46
 90
       50
102
RTVSPost2010PropOp46
 70
     1
102
RTVSPost2010Prop47
 90
       50
102
RTVSPost2010PropOp47
 70
     1
102
RTVSPost2010Prop48
 90
       50
102
RTVSPost2010PropOp48
 70
     1
102
RTVSPost2010Prop49
280
     0
102
RTVSPost2010PropOp49
 70
     1
102
RTVSPost2010Prop50
 90
       50
102
RTVSPost2010PropOp50
 70
     1
102
RTVSPost2010Prop51ColorIndex
 90
      256
102
RTVSPost2010Prop51ColorRGB
 90
-16777216
102
RTVSPost2010PropOp51
 70
     0
102
RTVSPost2010Prop52
140
1.0
102
RTVSPost2010PropOp52
 70
     0
102
RTVSPost2010Prop53
 90
        2
102
RTVSPost2010PropOp53
 70
     1
102
RTVSPost2010Prop54
  1
strokes_ogs.tif
102
RTVSPost2010PropOp54
 70
     1
102
RTVSPost2010Prop55
280
     0
102
RTVSPost2010PropOp55
 70
     1
102
RTVSPost2010Prop56
140
1.0
102
RTVSPost2010PropOp56
 70
     1
102
RTVSPost2010Prop57
140
1.0
102
RTVSPost2010PropOp57
 70
     1
102
RTVSPropertyOp0
 70
     1
102
RTVSPropertyOp1
 70
     1
102
RTVSPropertyOp2
 70
     1
102
RTVSPropertyOp3
 70
     1
102
RTVSPropertyOp4
 70
     1
102
RTVSPropertyOp5
 70
     1
102
RTVSPropertyOp6
 70
     1
102
RTVSPropertyOp7
 70
     1
102
RTVSPropertyOp8
 70
     1
102
RTVSPropertyOp9
 70
     1
102
RTVSPropertyOp10
 70
     1
102
RTVSPropertyOp11
 70
     1
102
RTVSPropertyOp12
 70
     1
102
RTVSPropertyOp13
 70
     1
102
RTVSPropertyOp14
 70
     1
102
RTVSPropertyOp15
 70
     1
102
RTVSPropertyOp16
 70
     1
102
RTVSPropertyOp17
 70
     1
102
RTVSPropertyOp18
 70
     1
102
RTVSPropertyOp19
 70
     1
102
RTVSPropertyOp20
 70
     1
102
RTVSPropertyOp21
 70
     1
102
RTVSPropertyOp22
 70
     1
102
RTVSPropertyOp23
 70
     1
102
RTVSPropertyOp24
 70
     1
102
RTVSPropertyOp25
 70
     1
102
RTVSPropertyOp26
 70
     1
102
RTVSPropertyOp27
 70
     1
102
RTVSPropertyOp28
 70
     1
102
RTVSPropertyOp29
 70
     1
102
RTVSPropertyOp30
 70
     1
102
RTVSPropertyOp31
 70
     1
102
RTVSPropertyOp32
 70
     1
102
RTVSPropertyOp33
 70
     1
102
RTVSPropertyOp34
 70
     1
102
RTVSPropertyOp35
 70
     1
102
RTVSPropertyOp36
 70
     1
102
RTVSPropertyOp37
 70
     1
102
RTVSPropertyOp38
 70
     1
102
RTVSPropertyOp39
 70
     1
102
RTVSPropertyOp40
 70
     1
102
RTVSPropertyOp41
 70
     1
102
RTVSPropertyOp42
 70
     1
102
RTVSPropertyOp43
 70
     1
102
RTVSPropertyOp44
 70
     1
102
RTVSPropertyOp45
 70
     1
102
RTVSPropertyOp46
 70
     1
102
RTVSPropertyOp47
 70
     1
102
RTVSPropertyOp48
 70
     1
102
RTVSPropertyOp49
 70
     1
102
RTVSPropertyOp50
 70
     1
102
RTVSPropertyOp51
 70
     0
102
RTVSPropertyOp52
 70
     0
102
RTVSPropertyOp53
 70
     1
102
RTVSPropertyOp54
 70
     1
102
RTVSPropertyOp55
 70
     1
102
RTVSPropertyOp56
 70
     1
102
RTVSPropertyOp57
 70
     1
102
RTVSPropertyOp58
 70
     1
102
RTVSPropertyOp59
 70
     1
102
RTVSPropertyOp60
 70
     1
102
RTVSPropertyOp61
 70
     1
102
RTVSPropertyOp62
 70
     1
  0
XRECORD
  5
7FE
102
{ACAD_REACTORS
330
7FD
102
}
330
7FD
100
AcDbXrecord
280
     1
102
RTVSPost2010Prop28
280
     0
102
RTVSPost2010PropOp28
 70
     1
102
RTVSPost2010Prop29
280
     1
102
RTVSPost2010PropOp29
 70
     1
102
RTVSPost2010Prop30
280
     1
102
RTVSPost2010PropOp30
 70
     1
102
RTVSPost2010Prop31
280
     0
102
RTVSPost2010PropOp31
 70
     1
102
RTVSPost2010Prop32
280
     0
102
RTVSPost2010PropOp32
 70
     1
102
RTVSPost2010Prop33
280
     0
102
RTVSPost2010PropOp33
 70
     1
102
RTVSPost2010Prop34
280
     0
102
RTVSPost2010PropOp34
 70
     1
102
RTVSPost2010Prop35
280
     0
102
RTVSPost2010PropOp35
 70
     1
102
RTVSPost2010Prop36
280
     0
102
RTVSPost2010PropOp36
 70
     1
102
RTVSPost2010Prop37
 90
       50
102
RTVSPost2010PropOp37
 70
     0
102
RTVSPost2010Prop38
140
0.0
102
RTVSPost2010PropOp38
 70
     0
102
RTVSPost2010Prop39
140
1.0
102
RTVSPost2010PropOp39
 70
     0
102
RTVSPost2010Prop40
 90
        0
102
RTVSPost2010PropOp40
 70
     0
102
RTVSPost2010Prop41ColorIndex
 90
       18
102
RTVSPost2010Prop41ColorRGB
 90
        0
102
RTVSPost2010PropOp41
 70
     0
102
RTVSPost2010Prop42
 90
       50
102
RTVSPost2010PropOp42
 70
     0
102
RTVSPost2010Prop43
 90
        3
102
RTVSPost2010PropOp43
 70
     0
102
RTVSPost2010Prop44ColorIndex
 90
        5
102
RTVSPost2010Prop44ColorRGB
 90
      255
102
RTVSPost2010PropOp44
 70
     0
102
RTVSPost2010Prop45
280
     0
102
RTVSPost2010PropOp45
 70
     1
102
RTVSPost2010Prop46
 90
       50
102
RTVSPost2010PropOp46
 70
     0
102
RTVSPost2010Prop47
 90
       50
102
RTVSPost2010PropOp47
 70
     0
102
RTVSPost2010Prop48
 90
       50
102
RTVSPost2010PropOp48
 70
     0
102
RTVSPost2010Prop49
280
     0
102
RTVSPost2010PropOp49
 70
     1
102
RTVSPost2010Prop50
 90
       50
102
RTVSPost2010PropOp50
 70
     0
102
RTVSPost2010Prop51ColorIndex
 90
      256
102
RTVSPost2010Prop51ColorRGB
 90
-16777216
102
RTVSPost2010PropOp51
 70
     0
102
RTVSPost2010Prop52
140
1.0
102
RTVSPost2010PropOp52
 70
     0
102
RTVSPost2010Prop53
 90
        2
102
RTVSPost2010PropOp53
 70
     0
102
RTVSPost2010Prop54
  1
strokes_ogs.tif
102
RTVSPost2010PropOp54
 70
     0
102
RTVSPost2010Prop55
280
     0
102
RTVSPost2010PropOp55
 70
     1
102
RTVSPost2010Prop56
140
1.0
102
RTVSPost2010PropOp56
 70
     0
102
RTVSPost2010Prop57
140
1.0
102
RTVSPost2010PropOp57
 70
     0
102
RTVSPropertyOp0
 70
     0
102
RTVSPropertyOp1
 70
     0
102
RTVSPropertyOp2
 70
     0
102
RTVSPropertyOp3
 70
     0
102
RTVSPropertyOp4
 70
     0
102
RTVSPropertyOp5
 70
     0
102
RTVSPropertyOp6
 70
     0
102
RTVSPropertyOp7
 70
     0
102
RTVSPropertyOp8
 70
     0
102
RTVSPropertyOp9
 70
     0
102
RTVSPropertyOp10
 70
     0
102
RTVSPropertyOp11
 70
     0
102
RTVSPropertyOp12
 70
     0
102
RTVSPropertyOp13
 70
     0
102
RTVSPropertyOp14
 70
     2
102
RTVSPropertyOp15
 70
     0
102
RTVSPropertyOp16
 70
     0
102
RTVSPropertyOp17
 70
     0
102
RTVSPropertyOp18
 70
     0
102
RTVSPropertyOp19
 70
     0
102
RTVSPropertyOp20
 70
     0
102
RTVSPropertyOp21
 70
     0
102
RTVSPropertyOp22
 70
     0
102
RTVSPropertyOp23
 70
     0
102
RTVSPropertyOp24
 70
     0
102
RTVSPropertyOp25
 70
     0
102
RTVSPropertyOp26
 70
     0
102
RTVSPropertyOp27
 70
     0
102
RTVSPropertyOp28
 70
     1
102
RTVSPropertyOp29
 70
     1
102
RTVSPropertyOp30
 70
     1
102
RTVSPropertyOp31
 70
     1
102
RTVSPropertyOp32
 70
     1
102
RTVSPropertyOp33
 70
     1
102
RTVSPropertyOp34
 70
     1
102
RTVSPropertyOp35
 70
     1
102
RTVSPropertyOp36
 70
     1
102
RTVSPropertyOp37
 70
     0
102
RTVSPropertyOp38
 70
     0
102
RTVSPropertyOp39
 70
     0
102
RTVSPropertyOp40
 70
     0
102
RTVSPropertyOp41
 70
     0
102
RTVSPropertyOp42
 70
     0
102
RTVSPropertyOp43
 70
     0
102
RTVSPropertyOp44
 70
     0
102
RTVSPropertyOp45
 70
     1
102
RTVSPropertyOp46
 70
     0
102
RTVSPropertyOp47
 70
     0
102
RTVSPropertyOp48
 70
     0
102
RTVSPropertyOp49
 70
     1
102
RTVSPropertyOp50
 70
     0
102
RTVSPropertyOp51
 70
     0
102
RTVSPropertyOp52
 70
     0
102
RTVSPropertyOp53
 70
     0
102
RTVSPropertyOp54
 70
     0
102
RTVSPropertyOp55
 70
     1
102
RTVSPropertyOp56
 70
     0
102
RTVSPropertyOp57
 70
     0
102
RTVSPropertyOp58
 70
     0
102
RTVSPropertyOp59
 70
     0
102
RTVSPropertyOp60
 70
     0
102
RTVSPropertyOp61
 70
     0
102
RTVSPropertyOp62
 70
     0
  0
XRECORD
  5
7EC
102
{ACAD_REACTORS
330
7EB
102
}
330
7EB
100
AcDbXrecord
280
     1
102
RTVSPost2010Prop28
280
     0
102
RTVSPost2010PropOp28
 70
     1
102
RTVSPost2010Prop29
280
     1
102
RTVSPost2010PropOp29
 70
     1
102
RTVSPost2010Prop30
280
     1
102
RTVSPost2010PropOp30
 70
     1
102
RTVSPost2010Prop31
280
     0
102
RTVSPost2010PropOp31
 70
     1
102
RTVSPost2010Prop32
280
     0
102
RTVSPost2010PropOp32
 70
     1
102
RTVSPost2010Prop33
280
     0
102
RTVSPost2010PropOp33
 70
     1
102
RTVSPost2010Prop34
280
     0
102
RTVSPost2010PropOp34
 70
     1
102
RTVSPost2010Prop35
280
     0
102
RTVSPost2010PropOp35
 70
     1
102
RTVSPost2010Prop36
280
     0
102
RTVSPost2010PropOp36
 70
     1
102
RTVSPost2010Prop37
 90
       50
102
RTVSPost2010PropOp37
 70
     1
102
RTVSPost2010Prop38
140
0.0
102
RTVSPost2010PropOp38
 70
     1
102
RTVSPost2010Prop39
140
1.0
102
RTVSPost2010PropOp39
 70
     1
102
RTVSPost2010Prop40
 90
        0
102
RTVSPost2010PropOp40
 70
     1
102
RTVSPost2010Prop41ColorIndex
 90
       18
102
RTVSPost2010Prop41ColorRGB
 90
        0
102
RTVSPost2010PropOp41
 70
     1
102
RTVSPost2010Prop42
 90
       50
102
RTVSPost2010PropOp42
 70
     1
102
RTVSPost2010Prop43
 90
        3
102
RTVSPost2010PropOp43
 70
     1
102
RTVSPost2010Prop44ColorIndex
 90
        5
102
RTVSPost2010Prop44ColorRGB
 90
      255
102
RTVSPost2010PropOp44
 70
     1
102
RTVSPost2010Prop45
280
     0
102
RTVSPost2010PropOp45
 70
     1
102
RTVSPost2010Prop46
 90
       50
102
RTVSPost2010PropOp46
 70
     1
102
RTVSPost2010Prop47
 90
       50
102
RTVSPost2010PropOp47
 70
     1
102
RTVSPost2010Prop48
 90
       50
102
RTVSPost2010PropOp48
 70
     1
102
RTVSPost2010Prop49
280
     0
102
RTVSPost2010PropOp49
 70
     1
102
RTVSPost2010Prop50
 90
       50
102
RTVSPost2010PropOp50
 70
     1
102
RTVSPost2010Prop51ColorIndex
 90
      256
102
RTVSPost2010Prop51ColorRGB
 90
-16777216
102
RTVSPost2010PropOp51
 70
     0
102
RTVSPost2010Prop52
140
1.0
102
RTVSPost2010PropOp52
 70
     0
102
RTVSPost2010Prop53
 90
        2
102
RTVSPost2010PropOp53
 70
     1
102
RTVSPost2010Prop54
  1
strokes_ogs.tif
102
RTVSPost2010PropOp54
 70
     1
102
RTVSPost2010Prop55
280
     0
102
RTVSPost2010PropOp55
 70
     1
102
RTVSPost2010Prop56
140
1.0
102
RTVSPost2010PropOp56
 70
     1
102
RTVSPost2010Prop57
140
1.0
102
RTVSPost2010PropOp57
 70
     1
102
RTVSPropertyOp0
 70
     1
102
RTVSPropertyOp1
 70
     1
102
RTVSPropertyOp2
 70
     1
102
RTVSPropertyOp3
 70
     1
102
RTVSPropertyOp4
 70
     1
102
RTVSPropertyOp5
 70
     1
102
RTVSPropertyOp6
 70
     1
102
RTVSPropertyOp7
 70
     1
102
RTVSPropertyOp8
 70
     1
102
RTVSPropertyOp9
 70
     1
102
RTVSPropertyOp10
 70
     1
102
RTVSPropertyOp11
 70
     1
102
RTVSPropertyOp12
 70
     1
102
RTVSPropertyOp13
 70
     1
102
RTVSPropertyOp14
 70
     1
102
RTVSPropertyOp15
 70
     1
102
RTVSPropertyOp16
 70
     1
102
RTVSPropertyOp17
 70
     1
102
RTVSPropertyOp18
 70
     1
102
RTVSPropertyOp19
 70
     1
102
RTVSPropertyOp20
 70
     1
102
RTVSPropertyOp21
 70
     1
102
RTVSPropertyOp22
 70
     1
102
RTVSPropertyOp23
 70
     1
102
RTVSPropertyOp24
 70
     1
102
RTVSPropertyOp25
 70
     1
102
RTVSPropertyOp26
 70
     1
102
RTVSPropertyOp27
 70
     1
102
RTVSPropertyOp28
 70
     1
102
RTVSPropertyOp29
 70
     1
102
RTVSPropertyOp30
 70
     1
102
RTVSPropertyOp31
 70
     1
102
RTVSPropertyOp32
 70
     1
102
RTVSPropertyOp33
 70
     1
102
RTVSPropertyOp34
 70
     1
102
RTVSPropertyOp35
 70
     1
102
RTVSPropertyOp36
 70
     1
102
RTVSPropertyOp37
 70
     1
102
RTVSPropertyOp38
 70
     1
102
RTVSPropertyOp39
 70
     1
102
RTVSPropertyOp40
 70
     1
102
RTVSPropertyOp41
 70
     1
102
RTVSPropertyOp42
 70
     1
102
RTVSPropertyOp43
 70
     1
102
RTVSPropertyOp44
 70
     1
102
RTVSPropertyOp45
 70
     1
102
RTVSPropertyOp46
 70
     1
102
RTVSPropertyOp47
 70
     1
102
RTVSPropertyOp48
 70
     1
102
RTVSPropertyOp49
 70
     1
102
RTVSPropertyOp50
 70
     1
102
RTVSPropertyOp51
 70
     0
102
RTVSPropertyOp52
 70
     0
102
RTVSPropertyOp53
 70
     1
102
RTVSPropertyOp54
 70
     1
102
RTVSPropertyOp55
 70
     1
102
RTVSPropertyOp56
 70
     1
102
RTVSPropertyOp57
 70
     1
102
RTVSPropertyOp58
 70
     1
102
RTVSPropertyOp59
 70
     1
102
RTVSPropertyOp60
 70
     1
102
RTVSPropertyOp61
 70
     1
102
RTVSPropertyOp62
 70
     1
  0
XRECORD
  5
7D0
102
{ACAD_REACTORS
330
7CF
102
}
330
7CF
100
AcDbXrecord
280
     1
102
RTVSPost2010Prop28
280
     0
102
RTVSPost2010PropOp28
 70
     1
102
RTVSPost2010Prop29
280
     1
102
RTVSPost2010PropOp29
 70
     1
102
RTVSPost2010Prop30
280
     1
102
RTVSPost2010PropOp30
 70
     1
102
RTVSPost2010Prop31
280
     0
102
RTVSPost2010PropOp31
 70
     1
102
RTVSPost2010Prop32
280
     0
102
RTVSPost2010PropOp32
 70
     1
102
RTVSPost2010Prop33
280
     0
102
RTVSPost2010PropOp33
 70
     1
102
RTVSPost2010Prop34
280
     0
102
RTVSPost2010PropOp34
 70
     1
102
RTVSPost2010Prop35
280
     0
102
RTVSPost2010PropOp35
 70
     1
102
RTVSPost2010Prop36
280
     0
102
RTVSPost2010PropOp36
 70
     1
102
RTVSPost2010Prop37
 90
       50
102
RTVSPost2010PropOp37
 70
     1
102
RTVSPost2010Prop38
140
0.0
102
RTVSPost2010PropOp38
 70
     1
102
RTVSPost2010Prop39
140
1.0
102
RTVSPost2010PropOp39
 70
     1
102
RTVSPost2010Prop40
 90
        0
102
RTVSPost2010PropOp40
 70
     1
102
RTVSPost2010Prop41ColorIndex
 90
       18
102
RTVSPost2010Prop41ColorRGB
 90
        0
102
RTVSPost2010PropOp41
 70
     1
102
RTVSPost2010Prop42
 90
       50
102
RTVSPost2010PropOp42
 70
     1
102
RTVSPost2010Prop43
 90
        3
102
RTVSPost2010PropOp43
 70
     1
102
RTVSPost2010Prop44ColorIndex
 90
        5
102
RTVSPost2010Prop44ColorRGB
 90
      255
102
RTVSPost2010PropOp44
 70
     1
102
RTVSPost2010Prop45
280
     0
102
RTVSPost2010PropOp45
 70
     1
102
RTVSPost2010Prop46
 90
       50
102
RTVSPost2010PropOp46
 70
     1
102
RTVSPost2010Prop47
 90
       50
102
RTVSPost2010PropOp47
 70
     1
102
RTVSPost2010Prop48
 90
       50
102
RTVSPost2010PropOp48
 70
     1
102
RTVSPost2010Prop49
280
     0
102
RTVSPost2010PropOp49
 70
     1
102
RTVSPost2010Prop50
 90
       50
102
RTVSPost2010PropOp50
 70
     1
102
RTVSPost2010Prop51ColorIndex
 90
      256
102
RTVSPost2010Prop51ColorRGB
 90
-16777216
102
RTVSPost2010PropOp51
 70
     0
102
RTVSPost2010Prop52
140
1.0
102
RTVSPost2010PropOp52
 70
     0
102
RTVSPost2010Prop53
 90
        2
102
RTVSPost2010PropOp53
 70
     1
102
RTVSPost2010Prop54
  1
strokes_ogs.tif
102
RTVSPost2010PropOp54
 70
     1
102
RTVSPost2010Prop55
280
     0
102
RTVSPost2010PropOp55
 70
     1
102
RTVSPost2010Prop56
140
1.0
102
RTVSPost2010PropOp56
 70
     1
102
RTVSPost2010Prop57
140
1.0
102
RTVSPost2010PropOp57
 70
     1
102
RTVSPropertyOp0
 70
     1
102
RTVSPropertyOp1
 70
     1
102
RTVSPropertyOp2
 70
     1
102
RTVSPropertyOp3
 70
     1
102
RTVSPropertyOp4
 70
     1
102
RTVSPropertyOp5
 70
     1
102
RTVSPropertyOp6
 70
     1
102
RTVSPropertyOp7
 70
     1
102
RTVSPropertyOp8
 70
     1
102
RTVSPropertyOp9
 70
     1
102
RTVSPropertyOp10
 70
     1
102
RTVSPropertyOp11
 70
     1
102
RTVSPropertyOp12
 70
     1
102
RTVSPropertyOp13
 70
     1
102
RTVSPropertyOp14
 70
     1
102
RTVSPropertyOp15
 70
     1
102
RTVSPropertyOp16
 70
     1
102
RTVSPropertyOp17
 70
     1
102
RTVSPropertyOp18
 70
     1
102
RTVSPropertyOp19
 70
     1
102
RTVSPropertyOp20
 70
     1
102
RTVSPropertyOp21
 70
     1
102
RTVSPropertyOp22
 70
     1
102
RTVSPropertyOp23
 70
     1
102
RTVSPropertyOp24
 70
     1
102
RTVSPropertyOp25
 70
     1
102
RTVSPropertyOp26
 70
     1
102
RTVSPropertyOp27
 70
     1
102
RTVSPropertyOp28
 70
     1
102
RTVSPropertyOp29
 70
     1
102
RTVSPropertyOp30
 70
     1
102
RTVSPropertyOp31
 70
     1
102
RTVSPropertyOp32
 70
     1
102
RTVSPropertyOp33
 70
     1
102
RTVSPropertyOp34
 70
     1
102
RTVSPropertyOp35
 70
     1
102
RTVSPropertyOp36
 70
     1
102
RTVSPropertyOp37
 70
     1
102
RTVSPropertyOp38
 70
     1
102
RTVSPropertyOp39
 70
     1
102
RTVSPropertyOp40
 70
     1
102
RTVSPropertyOp41
 70
     1
102
RTVSPropertyOp42
 70
     1
102
RTVSPropertyOp43
 70
     1
102
RTVSPropertyOp44
 70
     1
102
RTVSPropertyOp45
 70
     1
102
RTVSPropertyOp46
 70
     1
102
RTVSPropertyOp47
 70
     1
102
RTVSPropertyOp48
 70
     1
102
RTVSPropertyOp49
 70
     1
102
RTVSPropertyOp50
 70
     1
102
RTVSPropertyOp51
 70
     0
102
RTVSPropertyOp52
 70
     0
102
RTVSPropertyOp53
 70
     1
102
RTVSPropertyOp54
 70
     1
102
RTVSPropertyOp55
 70
     1
102
RTVSPropertyOp56
 70
     1
102
RTVSPropertyOp57
 70
     1
102
RTVSPropertyOp58
 70
     1
102
RTVSPropertyOp59
 70
     1
102
RTVSPropertyOp60
 70
     1
102
RTVSPropertyOp61
 70
     1
102
RTVSPropertyOp62
 70
     1
  0
XRECORD
  5
7D2
102
{ACAD_REACTORS
330
7D1
102
}
330
7D1
100
AcDbXrecord
280
     1
102
RTVSPost2010Prop28
280
     0
102
RTVSPost2010PropOp28
 70
     1
102
RTVSPost2010Prop29
280
     1
102
RTVSPost2010PropOp29
 70
     1
102
RTVSPost2010Prop30
280
     1
102
RTVSPost2010PropOp30
 70
     1
102
RTVSPost2010Prop31
280
     0
102
RTVSPost2010PropOp31
 70
     1
102
RTVSPost2010Prop32
280
     0
102
RTVSPost2010PropOp32
 70
     1
102
RTVSPost2010Prop33
280
     0
102
RTVSPost2010PropOp33
 70
     1
102
RTVSPost2010Prop34
280
     0
102
RTVSPost2010PropOp34
 70
     1
102
RTVSPost2010Prop35
280
     0
102
RTVSPost2010PropOp35
 70
     1
102
RTVSPost2010Prop36
280
     0
102
RTVSPost2010PropOp36
 70
     1
102
RTVSPost2010Prop37
 90
       50
102
RTVSPost2010PropOp37
 70
     1
102
RTVSPost2010Prop38
140
0.0
102
RTVSPost2010PropOp38
 70
     1
102
RTVSPost2010Prop39
140
1.0
102
RTVSPost2010PropOp39
 70
     1
102
RTVSPost2010Prop40
 90
        0
102
RTVSPost2010PropOp40
 70
     1
102
RTVSPost2010Prop41ColorIndex
 90
       18
102
RTVSPost2010Prop41ColorRGB
 90
        0
102
RTVSPost2010PropOp41
 70
     1
102
RTVSPost2010Prop42
 90
       50
102
RTVSPost2010PropOp42
 70
     1
102
RTVSPost2010Prop43
 90
        3
102
RTVSPost2010PropOp43
 70
     1
102
RTVSPost2010Prop44ColorIndex
 90
        5
102
RTVSPost2010Prop44ColorRGB
 90
      255
102
RTVSPost2010PropOp44
 70
     1
102
RTVSPost2010Prop45
280
     0
102
RTVSPost2010PropOp45
 70
     1
102
RTVSPost2010Prop46
 90
       50
102
RTVSPost2010PropOp46
 70
     1
102
RTVSPost2010Prop47
 90
       50
102
RTVSPost2010PropOp47
 70
     1
102
RTVSPost2010Prop48
 90
       50
102
RTVSPost2010PropOp48
 70
     1
102
RTVSPost2010Prop49
280
     0
102
RTVSPost2010PropOp49
 70
     1
102
RTVSPost2010Prop50
 90
       50
102
RTVSPost2010PropOp50
 70
     1
102
RTVSPost2010Prop51ColorIndex
 90
      256
102
RTVSPost2010Prop51ColorRGB
 90
-16777216
102
RTVSPost2010PropOp51
 70
     0
102
RTVSPost2010Prop52
140
1.0
102
RTVSPost2010PropOp52
 70
     0
102
RTVSPost2010Prop53
 90
        2
102
RTVSPost2010PropOp53
 70
     1
102
RTVSPost2010Prop54
  1
strokes_ogs.tif
102
RTVSPost2010PropOp54
 70
     1
102
RTVSPost2010Prop55
280
     0
102
RTVSPost2010PropOp55
 70
     1
102
RTVSPost2010Prop56
140
1.0
102
RTVSPost2010PropOp56
 70
     1
102
RTVSPost2010Prop57
140
1.0
102
RTVSPost2010PropOp57
 70
     1
102
RTVSPropertyOp0
 70
     1
102
RTVSPropertyOp1
 70
     1
102
RTVSPropertyOp2
 70
     1
102
RTVSPropertyOp3
 70
     1
102
RTVSPropertyOp4
 70
     1
102
RTVSPropertyOp5
 70
     1
102
RTVSPropertyOp6
 70
     1
102
RTVSPropertyOp7
 70
     1
102
RTVSPropertyOp8
 70
     1
102
RTVSPropertyOp9
 70
     1
102
RTVSPropertyOp10
 70
     1
102
RTVSPropertyOp11
 70
     1
102
RTVSPropertyOp12
 70
     1
102
RTVSPropertyOp13
 70
     1
102
RTVSPropertyOp14
 70
     1
102
RTVSPropertyOp15
 70
     1
102
RTVSPropertyOp16
 70
     1
102
RTVSPropertyOp17
 70
     1
102
RTVSPropertyOp18
 70
     1
102
RTVSPropertyOp19
 70
     1
102
RTVSPropertyOp20
 70
     1
102
RTVSPropertyOp21
 70
     1
102
RTVSPropertyOp22
 70
     1
102
RTVSPropertyOp23
 70
     1
102
RTVSPropertyOp24
 70
     1
102
RTVSPropertyOp25
 70
     1
102
RTVSPropertyOp26
 70
     1
102
RTVSPropertyOp27
 70
     1
102
RTVSPropertyOp28
 70
     1
102
RTVSPropertyOp29
 70
     1
102
RTVSPropertyOp30
 70
     1
102
RTVSPropertyOp31
 70
     1
102
RTVSPropertyOp32
 70
     1
102
RTVSPropertyOp33
 70
     1
102
RTVSPropertyOp34
 70
     1
102
RTVSPropertyOp35
 70
     1
102
RTVSPropertyOp36
 70
     1
102
RTVSPropertyOp37
 70
     1
102
RTVSPropertyOp38
 70
     1
102
RTVSPropertyOp39
 70
     1
102
RTVSPropertyOp40
 70
     1
102
RTVSPropertyOp41
 70
     1
102
RTVSPropertyOp42
 70
     1
102
RTVSPropertyOp43
 70
     1
102
RTVSPropertyOp44
 70
     1
102
RTVSPropertyOp45
 70
     1
102
RTVSPropertyOp46
 70
     1
102
RTVSPropertyOp47
 70
     1
102
RTVSPropertyOp48
 70
     1
102
RTVSPropertyOp49
 70
     1
102
RTVSPropertyOp50
 70
     1
102
RTVSPropertyOp51
 70
     0
102
RTVSPropertyOp52
 70
     0
102
RTVSPropertyOp53
 70
     1
102
RTVSPropertyOp54
 70
     1
102
RTVSPropertyOp55
 70
     1
102
RTVSPropertyOp56
 70
     1
102
RTVSPropertyOp57
 70
     1
102
RTVSPropertyOp58
 70
     1
102
RTVSPropertyOp59
 70
     1
102
RTVSPropertyOp60
 70
     1
102
RTVSPropertyOp61
 70
     1
102
RTVSPropertyOp62
 70
     1
  0
XRECORD
  5
7D4
102
{ACAD_REACTORS
330
7D3
102
}
330
7D3
100
AcDbXrecord
280
     1
102
RTVSPost2010Prop28
280
     0
102
RTVSPost2010PropOp28
 70
     1
102
RTVSPost2010Prop29
280
     1
102
RTVSPost2010PropOp29
 70
     1
102
RTVSPost2010Prop30
280
     1
102
RTVSPost2010PropOp30
 70
     1
102
RTVSPost2010Prop31
280
     0
102
RTVSPost2010PropOp31
 70
     1
102
RTVSPost2010Prop32
280
     0
102
RTVSPost2010PropOp32
 70
     1
102
RTVSPost2010Prop33
280
     0
102
RTVSPost2010PropOp33
 70
     1
102
RTVSPost2010Prop34
280
     0
102
RTVSPost2010PropOp34
 70
     1
102
RTVSPost2010Prop35
280
     0
102
RTVSPost2010PropOp35
 70
     1
102
RTVSPost2010Prop36
280
     0
102
RTVSPost2010PropOp36
 70
     1
102
RTVSPost2010Prop37
 90
       50
102
RTVSPost2010PropOp37
 70
     1
102
RTVSPost2010Prop38
140
0.0
102
RTVSPost2010PropOp38
 70
     1
102
RTVSPost2010Prop39
140
1.0
102
RTVSPost2010PropOp39
 70
     1
102
RTVSPost2010Prop40
 90
        0
102
RTVSPost2010PropOp40
 70
     1
102
RTVSPost2010Prop41ColorIndex
 90
       18
102
RTVSPost2010Prop41ColorRGB
 90
        0
102
RTVSPost2010PropOp41
 70
     1
102
RTVSPost2010Prop42
 90
       50
102
RTVSPost2010PropOp42
 70
     1
102
RTVSPost2010Prop43
 90
        3
102
RTVSPost2010PropOp43
 70
     1
102
RTVSPost2010Prop44ColorIndex
 90
        5
102
RTVSPost2010Prop44ColorRGB
 90
      255
102
RTVSPost2010PropOp44
 70
     1
102
RTVSPost2010Prop45
280
     0
102
RTVSPost2010PropOp45
 70
     1
102
RTVSPost2010Prop46
 90
       50
102
RTVSPost2010PropOp46
 70
     1
102
RTVSPost2010Prop47
 90
       50
102
RTVSPost2010PropOp47
 70
     1
102
RTVSPost2010Prop48
 90
       50
102
RTVSPost2010PropOp48
 70
     1
102
RTVSPost2010Prop49
280
     0
102
RTVSPost2010PropOp49
 70
     1
102
RTVSPost2010Prop50
 90
       50
102
RTVSPost2010PropOp50
 70
     1
102
RTVSPost2010Prop51ColorIndex
 90
      256
102
RTVSPost2010Prop51ColorRGB
 90
-16777216
102
RTVSPost2010PropOp51
 70
     0
102
RTVSPost2010Prop52
140
1.0
102
RTVSPost2010PropOp52
 70
     0
102
RTVSPost2010Prop53
 90
        2
102
RTVSPost2010PropOp53
 70
     1
102
RTVSPost2010Prop54
  1
strokes_ogs.tif
102
RTVSPost2010PropOp54
 70
     1
102
RTVSPost2010Prop55
280
     0
102
RTVSPost2010PropOp55
 70
     1
102
RTVSPost2010Prop56
140
1.0
102
RTVSPost2010PropOp56
 70
     1
102
RTVSPost2010Prop57
140
1.0
102
RTVSPost2010PropOp57
 70
     1
102
RTVSPropertyOp0
 70
     1
102
RTVSPropertyOp1
 70
     1
102
RTVSPropertyOp2
 70
     1
102
RTVSPropertyOp3
 70
     1
102
RTVSPropertyOp4
 70
     1
102
RTVSPropertyOp5
 70
     1
102
RTVSPropertyOp6
 70
     1
102
RTVSPropertyOp7
 70
     1
102
RTVSPropertyOp8
 70
     1
102
RTVSPropertyOp9
 70
     1
102
RTVSPropertyOp10
 70
     1
102
RTVSPropertyOp11
 70
     1
102
RTVSPropertyOp12
 70
     1
102
RTVSPropertyOp13
 70
     1
102
RTVSPropertyOp14
 70
     1
102
RTVSPropertyOp15
 70
     1
102
RTVSPropertyOp16
 70
     1
102
RTVSPropertyOp17
 70
     1
102
RTVSPropertyOp18
 70
     1
102
RTVSPropertyOp19
 70
     1
102
RTVSPropertyOp20
 70
     1
102
RTVSPropertyOp21
 70
     1
102
RTVSPropertyOp22
 70
     1
102
RTVSPropertyOp23
 70
     1
102
RTVSPropertyOp24
 70
     1
102
RTVSPropertyOp25
 70
     1
102
RTVSPropertyOp26
 70
     1
102
RTVSPropertyOp27
 70
     1
102
RTVSPropertyOp28
 70
     1
102
RTVSPropertyOp29
 70
     1
102
RTVSPropertyOp30
 70
     1
102
RTVSPropertyOp31
 70
     1
102
RTVSPropertyOp32
 70
     1
102
RTVSPropertyOp33
 70
     1
102
RTVSPropertyOp34
 70
     1
102
RTVSPropertyOp35
 70
     1
102
RTVSPropertyOp36
 70
     1
102
RTVSPropertyOp37
 70
     1
102
RTVSPropertyOp38
 70
     1
102
RTVSPropertyOp39
 70
     1
102
RTVSPropertyOp40
 70
     1
102
RTVSPropertyOp41
 70
     1
102
RTVSPropertyOp42
 70
     1
102
RTVSPropertyOp43
 70
     1
102
RTVSPropertyOp44
 70
     1
102
RTVSPropertyOp45
 70
     1
102
RTVSPropertyOp46
 70
     1
102
RTVSPropertyOp47
 70
     1
102
RTVSPropertyOp48
 70
     1
102
RTVSPropertyOp49
 70
     1
102
RTVSPropertyOp50
 70
     1
102
RTVSPropertyOp51
 70
     0
102
RTVSPropertyOp52
 70
     0
102
RTVSPropertyOp53
 70
     1
102
RTVSPropertyOp54
 70
     1
102
RTVSPropertyOp55
 70
     1
102
RTVSPropertyOp56
 70
     1
102
RTVSPropertyOp57
 70
     1
102
RTVSPropertyOp58
 70
     1
102
RTVSPropertyOp59
 70
     1
102
RTVSPropertyOp60
 70
     1
102
RTVSPropertyOp61
 70
     1
102
RTVSPropertyOp62
 70
     1
  0
XRECORD
  5
7D6
102
{ACAD_REACTORS
330
7D5
102
}
330
7D5
100
AcDbXrecord
280
     1
102
RTVSPost2010Prop28
280
     0
102
RTVSPost2010PropOp28
 70
     1
102
RTVSPost2010Prop29
280
     1
102
RTVSPost2010PropOp29
 70
     1
102
RTVSPost2010Prop30
280
     1
102
RTVSPost2010PropOp30
 70
     1
102
RTVSPost2010Prop31
280
     0
102
RTVSPost2010PropOp31
 70
     1
102
RTVSPost2010Prop32
280
     0
102
RTVSPost2010PropOp32
 70
     1
102
RTVSPost2010Prop33
280
     0
102
RTVSPost2010PropOp33
 70
     1
102
RTVSPost2010Prop34
280
     0
102
RTVSPost2010PropOp34
 70
     1
102
RTVSPost2010Prop35
280
     0
102
RTVSPost2010PropOp35
 70
     1
102
RTVSPost2010Prop36
280
     0
102
RTVSPost2010PropOp36
 70
     1
102
RTVSPost2010Prop37
 90
       50
102
RTVSPost2010PropOp37
 70
     1
102
RTVSPost2010Prop38
140
0.0
102
RTVSPost2010PropOp38
 70
     1
102
RTVSPost2010Prop39
140
1.0
102
RTVSPost2010PropOp39
 70
     1
102
RTVSPost2010Prop40
 90
        0
102
RTVSPost2010PropOp40
 70
     1
102
RTVSPost2010Prop41ColorIndex
 90
       18
102
RTVSPost2010Prop41ColorRGB
 90
        0
102
RTVSPost2010PropOp41
 70
     1
102
RTVSPost2010Prop42
 90
       50
102
RTVSPost2010PropOp42
 70
     1
102
RTVSPost2010Prop43
 90
        3
102
RTVSPost2010PropOp43
 70
     1
102
RTVSPost2010Prop44ColorIndex
 90
        5
102
RTVSPost2010Prop44ColorRGB
 90
      255
102
RTVSPost2010PropOp44
 70
     1
102
RTVSPost2010Prop45
280
     0
102
RTVSPost2010PropOp45
 70
     1
102
RTVSPost2010Prop46
 90
       50
102
RTVSPost2010PropOp46
 70
     1
102
RTVSPost2010Prop47
 90
       50
102
RTVSPost2010PropOp47
 70
     1
102
RTVSPost2010Prop48
 90
       50
102
RTVSPost2010PropOp48
 70
     1
102
RTVSPost2010Prop49
280
     0
102
RTVSPost2010PropOp49
 70
     1
102
RTVSPost2010Prop50
 90
       50
102
RTVSPost2010PropOp50
 70
     1
102
RTVSPost2010Prop51ColorIndex
 90
      256
102
RTVSPost2010Prop51ColorRGB
 90
-16777216
102
RTVSPost2010PropOp51
 70
     0
102
RTVSPost2010Prop52
140
1.0
102
RTVSPost2010PropOp52
 70
     0
102
RTVSPost2010Prop53
 90
        2
102
RTVSPost2010PropOp53
 70
     1
102
RTVSPost2010Prop54
  1
strokes_ogs.tif
102
RTVSPost2010PropOp54
 70
     1
102
RTVSPost2010Prop55
280
     0
102
RTVSPost2010PropOp55
 70
     1
102
RTVSPost2010Prop56
140
1.0
102
RTVSPost2010PropOp56
 70
     1
102
RTVSPost2010Prop57
140
1.0
102
RTVSPost2010PropOp57
 70
     1
102
RTVSPropertyOp0
 70
     1
102
RTVSPropertyOp1
 70
     1
102
RTVSPropertyOp2
 70
     1
102
RTVSPropertyOp3
 70
     1
102
RTVSPropertyOp4
 70
     1
102
RTVSPropertyOp5
 70
     1
102
RTVSPropertyOp6
 70
     1
102
RTVSPropertyOp7
 70
     1
102
RTVSPropertyOp8
 70
     1
102
RTVSPropertyOp9
 70
     1
102
RTVSPropertyOp10
 70
     1
102
RTVSPropertyOp11
 70
     1
102
RTVSPropertyOp12
 70
     1
102
RTVSPropertyOp13
 70
     1
102
RTVSPropertyOp14
 70
     1
102
RTVSPropertyOp15
 70
     1
102
RTVSPropertyOp16
 70
     1
102
RTVSPropertyOp17
 70
     1
102
RTVSPropertyOp18
 70
     1
102
RTVSPropertyOp19
 70
     1
102
RTVSPropertyOp20
 70
     1
102
RTVSPropertyOp21
 70
     1
102
RTVSPropertyOp22
 70
     1
102
RTVSPropertyOp23
 70
     1
102
RTVSPropertyOp24
 70
     1
102
RTVSPropertyOp25
 70
     1
102
RTVSPropertyOp26
 70
     1
102
RTVSPropertyOp27
 70
     1
102
RTVSPropertyOp28
 70
     1
102
RTVSPropertyOp29
 70
     1
102
RTVSPropertyOp30
 70
     1
102
RTVSPropertyOp31
 70
     1
102
RTVSPropertyOp32
 70
     1
102
RTVSPropertyOp33
 70
     1
102
RTVSPropertyOp34
 70
     1
102
RTVSPropertyOp35
 70
     1
102
RTVSPropertyOp36
 70
     1
102
RTVSPropertyOp37
 70
     1
102
RTVSPropertyOp38
 70
     1
102
RTVSPropertyOp39
 70
     1
102
RTVSPropertyOp40
 70
     1
102
RTVSPropertyOp41
 70
     1
102
RTVSPropertyOp42
 70
     1
102
RTVSPropertyOp43
 70
     1
102
RTVSPropertyOp44
 70
     1
102
RTVSPropertyOp45
 70
     1
102
RTVSPropertyOp46
 70
     1
102
RTVSPropertyOp47
 70
     1
102
RTVSPropertyOp48
 70
     1
102
RTVSPropertyOp49
 70
     1
102
RTVSPropertyOp50
 70
     1
102
RTVSPropertyOp51
 70
     0
102
RTVSPropertyOp52
 70
     0
102
RTVSPropertyOp53
 70
     1
102
RTVSPropertyOp54
 70
     1
102
RTVSPropertyOp55
 70
     1
102
RTVSPropertyOp56
 70
     1
102
RTVSPropertyOp57
 70
     1
102
RTVSPropertyOp58
 70
     1
102
RTVSPropertyOp59
 70
     1
102
RTVSPropertyOp60
 70
     1
102
RTVSPropertyOp61
 70
     1
102
RTVSPropertyOp62
 70
     1
  0
XRECORD
  5
7DE
102
{ACAD_REACTORS
330
7DD
102
}
330
7DD
100
AcDbXrecord
280
     1
102
RTVSPost2010Prop28
280
     0
102
RTVSPost2010PropOp28
 70
     1
102
RTVSPost2010Prop29
280
     1
102
RTVSPost2010PropOp29
 70
     1
102
RTVSPost2010Prop30
280
     1
102
RTVSPost2010PropOp30
 70
     1
102
RTVSPost2010Prop31
280
     0
102
RTVSPost2010PropOp31
 70
     1
102
RTVSPost2010Prop32
280
     0
102
RTVSPost2010PropOp32
 70
     1
102
RTVSPost2010Prop33
280
     0
102
RTVSPost2010PropOp33
 70
     1
102
RTVSPost2010Prop34
280
     0
102
RTVSPost2010PropOp34
 70
     1
102
RTVSPost2010Prop35
280
     0
102
RTVSPost2010PropOp35
 70
     1
102
RTVSPost2010Prop36
280
     0
102
RTVSPost2010PropOp36
 70
     1
102
RTVSPost2010Prop37
 90
       50
102
RTVSPost2010PropOp37
 70
     1
102
RTVSPost2010Prop38
140
0.0
102
RTVSPost2010PropOp38
 70
     1
102
RTVSPost2010Prop39
140
1.0
102
RTVSPost2010PropOp39
 70
     1
102
RTVSPost2010Prop40
 90
        0
102
RTVSPost2010PropOp40
 70
     1
102
RTVSPost2010Prop41ColorIndex
 90
       18
102
RTVSPost2010Prop41ColorRGB
 90
        0
102
RTVSPost2010PropOp41
 70
     1
102
RTVSPost2010Prop42
 90
       50
102
RTVSPost2010PropOp42
 70
     1
102
RTVSPost2010Prop43
 90
        3
102
RTVSPost2010PropOp43
 70
     1
102
RTVSPost2010Prop44ColorIndex
 90
        5
102
RTVSPost2010Prop44ColorRGB
 90
      255
102
RTVSPost2010PropOp44
 70
     1
102
RTVSPost2010Prop45
280
     0
102
RTVSPost2010PropOp45
 70
     1
102
RTVSPost2010Prop46
 90
       50
102
RTVSPost2010PropOp46
 70
     1
102
RTVSPost2010Prop47
 90
       50
102
RTVSPost2010PropOp47
 70
     1
102
RTVSPost2010Prop48
 90
       50
102
RTVSPost2010PropOp48
 70
     1
102
RTVSPost2010Prop49
280
     0
102
RTVSPost2010PropOp49
 70
     1
102
RTVSPost2010Prop50
 90
       50
102
RTVSPost2010PropOp50
 70
     1
102
RTVSPost2010Prop51ColorIndex
 90
      256
102
RTVSPost2010Prop51ColorRGB
 90
-16777216
102
RTVSPost2010PropOp51
 70
     0
102
RTVSPost2010Prop52
140
1.0
102
RTVSPost2010PropOp52
 70
     0
102
RTVSPost2010Prop53
 90
        2
102
RTVSPost2010PropOp53
 70
     1
102
RTVSPost2010Prop54
  1
strokes_ogs.tif
102
RTVSPost2010PropOp54
 70
     1
102
RTVSPost2010Prop55
280
     0
102
RTVSPost2010PropOp55
 70
     1
102
RTVSPost2010Prop56
140
1.0
102
RTVSPost2010PropOp56
 70
     1
102
RTVSPost2010Prop57
140
1.0
102
RTVSPost2010PropOp57
 70
     1
102
RTVSPropertyOp0
 70
     1
102
RTVSPropertyOp1
 70
     1
102
RTVSPropertyOp2
 70
     1
102
RTVSPropertyOp3
 70
     1
102
RTVSPropertyOp4
 70
     1
102
RTVSPropertyOp5
 70
     1
102
RTVSPropertyOp6
 70
     1
102
RTVSPropertyOp7
 70
     1
102
RTVSPropertyOp8
 70
     1
102
RTVSPropertyOp9
 70
     1
102
RTVSPropertyOp10
 70
     1
102
RTVSPropertyOp11
 70
     1
102
RTVSPropertyOp12
 70
     1
102
RTVSPropertyOp13
 70
     1
102
RTVSPropertyOp14
 70
     1
102
RTVSPropertyOp15
 70
     1
102
RTVSPropertyOp16
 70
     1
102
RTVSPropertyOp17
 70
     1
102
RTVSPropertyOp18
 70
     1
102
RTVSPropertyOp19
 70
     1
102
RTVSPropertyOp20
 70
     1
102
RTVSPropertyOp21
 70
     1
102
RTVSPropertyOp22
 70
     1
102
RTVSPropertyOp23
 70
     1
102
RTVSPropertyOp24
 70
     1
102
RTVSPropertyOp25
 70
     1
102
RTVSPropertyOp26
 70
     1
102
RTVSPropertyOp27
 70
     1
102
RTVSPropertyOp28
 70
     1
102
RTVSPropertyOp29
 70
     1
102
RTVSPropertyOp30
 70
     1
102
RTVSPropertyOp31
 70
     1
102
RTVSPropertyOp32
 70
     1
102
RTVSPropertyOp33
 70
     1
102
RTVSPropertyOp34
 70
     1
102
RTVSPropertyOp35
 70
     1
102
RTVSPropertyOp36
 70
     1
102
RTVSPropertyOp37
 70
     1
102
RTVSPropertyOp38
 70
     1
102
RTVSPropertyOp39
 70
     1
102
RTVSPropertyOp40
 70
     1
102
RTVSPropertyOp41
 70
     1
102
RTVSPropertyOp42
 70
     1
102
RTVSPropertyOp43
 70
     1
102
RTVSPropertyOp44
 70
     1
102
RTVSPropertyOp45
 70
     1
102
RTVSPropertyOp46
 70
     1
102
RTVSPropertyOp47
 70
     1
102
RTVSPropertyOp48
 70
     1
102
RTVSPropertyOp49
 70
     1
102
RTVSPropertyOp50
 70
     1
102
RTVSPropertyOp51
 70
     0
102
RTVSPropertyOp52
 70
     0
102
RTVSPropertyOp53
 70
     1
102
RTVSPropertyOp54
 70
     1
102
RTVSPropertyOp55
 70
     1
102
RTVSPropertyOp56
 70
     1
102
RTVSPropertyOp57
 70
     1
102
RTVSPropertyOp58
 70
     1
102
RTVSPropertyOp59
 70
     1
102
RTVSPropertyOp60
 70
     1
102
RTVSPropertyOp61
 70
     1
102
RTVSPropertyOp62
 70
     1
  0
XRECORD
  5
7FA
102
{ACAD_REACTORS
330
7F9
102
}
330
7F9
100
AcDbXrecord
280
     1
102
RTVSPost2010Prop28
280
     0
102
RTVSPost2010PropOp28
 70
     1
102
RTVSPost2010Prop29
280
     1
102
RTVSPost2010PropOp29
 70
     1
102
RTVSPost2010Prop30
280
     1
102
RTVSPost2010PropOp30
 70
     1
102
RTVSPost2010Prop31
280
     0
102
RTVSPost2010PropOp31
 70
     1
102
RTVSPost2010Prop32
280
     0
102
RTVSPost2010PropOp32
 70
     1
102
RTVSPost2010Prop33
280
     0
102
RTVSPost2010PropOp33
 70
     1
102
RTVSPost2010Prop34
280
     0
102
RTVSPost2010PropOp34
 70
     1
102
RTVSPost2010Prop35
280
     0
102
RTVSPost2010PropOp35
 70
     1
102
RTVSPost2010Prop36
280
     0
102
RTVSPost2010PropOp36
 70
     1
102
RTVSPost2010Prop37
 90
       50
102
RTVSPost2010PropOp37
 70
     0
102
RTVSPost2010Prop38
140
0.0
102
RTVSPost2010PropOp38
 70
     0
102
RTVSPost2010Prop39
140
1.0
102
RTVSPost2010PropOp39
 70
     0
102
RTVSPost2010Prop40
 90
        0
102
RTVSPost2010PropOp40
 70
     0
102
RTVSPost2010Prop41ColorIndex
 90
       18
102
RTVSPost2010Prop41ColorRGB
 90
        0
102
RTVSPost2010PropOp41
 70
     0
102
RTVSPost2010Prop42
 90
       50
102
RTVSPost2010PropOp42
 70
     0
102
RTVSPost2010Prop43
 90
        3
102
RTVSPost2010PropOp43
 70
     0
102
RTVSPost2010Prop44ColorIndex
 90
        5
102
RTVSPost2010Prop44ColorRGB
 90
      255
102
RTVSPost2010PropOp44
 70
     0
102
RTVSPost2010Prop45
280
     0
102
RTVSPost2010PropOp45
 70
     1
102
RTVSPost2010Prop46
 90
       50
102
RTVSPost2010PropOp46
 70
     0
102
RTVSPost2010Prop47
 90
       50
102
RTVSPost2010PropOp47
 70
     0
102
RTVSPost2010Prop48
 90
       50
102
RTVSPost2010PropOp48
 70
     0
102
RTVSPost2010Prop49
280
     0
102
RTVSPost2010PropOp49
 70
     1
102
RTVSPost2010Prop50
 90
       50
102
RTVSPost2010PropOp50
 70
     0
102
RTVSPost2010Prop51ColorIndex
 90
      256
102
RTVSPost2010Prop51ColorRGB
 90
-16777216
102
RTVSPost2010PropOp51
 70
     0
102
RTVSPost2010Prop52
140
1.0
102
RTVSPost2010PropOp52
 70
     0
102
RTVSPost2010Prop53
 90
        2
102
RTVSPost2010PropOp53
 70
     0
102
RTVSPost2010Prop54
  1
strokes_ogs.tif
102
RTVSPost2010PropOp54
 70
     0
102
RTVSPost2010Prop55
280
     0
102
RTVSPost2010PropOp55
 70
     1
102
RTVSPost2010Prop56
140
1.0
102
RTVSPost2010PropOp56
 70
     0
102
RTVSPost2010Prop57
140
1.0
102
RTVSPost2010PropOp57
 70
     0
102
RTVSPropertyOp0
 70
     0
102
RTVSPropertyOp1
 70
     0
102
RTVSPropertyOp2
 70
     0
102
RTVSPropertyOp3
 70
     0
102
RTVSPropertyOp4
 70
     0
102
RTVSPropertyOp5
 70
     0
102
RTVSPropertyOp6
 70
     0
102
RTVSPropertyOp7
 70
     0
102
RTVSPropertyOp8
 70
     0
102
RTVSPropertyOp9
 70
     0
102
RTVSPropertyOp10
 70
     0
102
RTVSPropertyOp11
 70
     0
102
RTVSPropertyOp12
 70
     0
102
RTVSPropertyOp13
 70
     0
102
RTVSPropertyOp14
 70
     2
102
RTVSPropertyOp15
 70
     0
102
RTVSPropertyOp16
 70
     0
102
RTVSPropertyOp17
 70
     0
102
RTVSPropertyOp18
 70
     0
102
RTVSPropertyOp19
 70
     0
102
RTVSPropertyOp20
 70
     0
102
RTVSPropertyOp21
 70
     0
102
RTVSPropertyOp22
 70
     0
102
RTVSPropertyOp23
 70
     0
102
RTVSPropertyOp24
 70
     0
102
RTVSPropertyOp25
 70
     0
102
RTVSPropertyOp26
 70
     0
102
RTVSPropertyOp27
 70
     0
102
RTVSPropertyOp28
 70
     1
102
RTVSPropertyOp29
 70
     1
102
RTVSPropertyOp30
 70
     1
102
RTVSPropertyOp31
 70
     1
102
RTVSPropertyOp32
 70
     1
102
RTVSPropertyOp33
 70
     1
102
RTVSPropertyOp34
 70
     1
102
RTVSPropertyOp35
 70
     1
102
RTVSPropertyOp36
 70
     1
102
RTVSPropertyOp37
 70
     0
102
RTVSPropertyOp38
 70
     0
102
RTVSPropertyOp39
 70
     0
102
RTVSPropertyOp40
 70
     0
102
RTVSPropertyOp41
 70
     0
102
RTVSPropertyOp42
 70
     0
102
RTVSPropertyOp43
 70
     0
102
RTVSPropertyOp44
 70
     0
102
RTVSPropertyOp45
 70
     1
102
RTVSPropertyOp46
 70
     0
102
RTVSPropertyOp47
 70
     0
102
RTVSPropertyOp48
 70
     0
102
RTVSPropertyOp49
 70
     1
102
RTVSPropertyOp50
 70
     0
102
RTVSPropertyOp51
 70
     0
102
RTVSPropertyOp52
 70
     0
102
RTVSPropertyOp53
 70
     0
102
RTVSPropertyOp54
 70
     0
102
RTVSPropertyOp55
 70
     1
102
RTVSPropertyOp56
 70
     0
102
RTVSPropertyOp57
 70
     0
102
RTVSPropertyOp58
 70
     0
102
RTVSPropertyOp59
 70
     0
102
RTVSPropertyOp60
 70
     0
102
RTVSPropertyOp61
 70
     0
102
RTVSPropertyOp62
 70
     0
  0
XRECORD
  5
7EA
102
{ACAD_REACTORS
330
7E9
102
}
330
7E9
100
AcDbXrecord
280
     1
102
RTVSPost2010Prop28
280
     0
102
RTVSPost2010PropOp28
 70
     1
102
RTVSPost2010Prop29
280
     1
102
RTVSPost2010PropOp29
 70
     1
102
RTVSPost2010Prop30
280
     1
102
RTVSPost2010PropOp30
 70
     1
102
RTVSPost2010Prop31
280
     0
102
RTVSPost2010PropOp31
 70
     1
102
RTVSPost2010Prop32
280
     0
102
RTVSPost2010PropOp32
 70
     1
102
RTVSPost2010Prop33
280
     0
102
RTVSPost2010PropOp33
 70
     1
102
RTVSPost2010Prop34
280
     0
102
RTVSPost2010PropOp34
 70
     1
102
RTVSPost2010Prop35
280
     0
102
RTVSPost2010PropOp35
 70
     1
102
RTVSPost2010Prop36
280
     0
102
RTVSPost2010PropOp36
 70
     1
102
RTVSPost2010Prop37
 90
       50
102
RTVSPost2010PropOp37
 70
     1
102
RTVSPost2010Prop38
140
0.0
102
RTVSPost2010PropOp38
 70
     1
102
RTVSPost2010Prop39
140
1.0
102
RTVSPost2010PropOp39
 70
     1
102
RTVSPost2010Prop40
 90
        0
102
RTVSPost2010PropOp40
 70
     1
102
RTVSPost2010Prop41ColorIndex
 90
       18
102
RTVSPost2010Prop41ColorRGB
 90
        0
102
RTVSPost2010PropOp41
 70
     1
102
RTVSPost2010Prop42
 90
       50
102
RTVSPost2010PropOp42
 70
     1
102
RTVSPost2010Prop43
 90
        3
102
RTVSPost2010PropOp43
 70
     1
102
RTVSPost2010Prop44ColorIndex
 90
        5
102
RTVSPost2010Prop44ColorRGB
 90
      255
102
RTVSPost2010PropOp44
 70
     1
102
RTVSPost2010Prop45
280
     0
102
RTVSPost2010PropOp45
 70
     1
102
RTVSPost2010Prop46
 90
       50
102
RTVSPost2010PropOp46
 70
     1
102
RTVSPost2010Prop47
 90
       50
102
RTVSPost2010PropOp47
 70
     1
102
RTVSPost2010Prop48
 90
       50
102
RTVSPost2010PropOp48
 70
     1
102
RTVSPost2010Prop49
280
     0
102
RTVSPost2010PropOp49
 70
     1
102
RTVSPost2010Prop50
 90
       50
102
RTVSPost2010PropOp50
 70
     1
102
RTVSPost2010Prop51ColorIndex
 90
      256
102
RTVSPost2010Prop51ColorRGB
 90
-16777216
102
RTVSPost2010PropOp51
 70
     0
102
RTVSPost2010Prop52
140
1.0
102
RTVSPost2010PropOp52
 70
     0
102
RTVSPost2010Prop53
 90
        2
102
RTVSPost2010PropOp53
 70
     1
102
RTVSPost2010Prop54
  1
strokes_ogs.tif
102
RTVSPost2010PropOp54
 70
     1
102
RTVSPost2010Prop55
280
     0
102
RTVSPost2010PropOp55
 70
     1
102
RTVSPost2010Prop56
140
1.0
102
RTVSPost2010PropOp56
 70
     1
102
RTVSPost2010Prop57
140
1.0
102
RTVSPost2010PropOp57
 70
     1
102
RTVSPropertyOp0
 70
     1
102
RTVSPropertyOp1
 70
     1
102
RTVSPropertyOp2
 70
     1
102
RTVSPropertyOp3
 70
     1
102
RTVSPropertyOp4
 70
     1
102
RTVSPropertyOp5
 70
     1
102
RTVSPropertyOp6
 70
     1
102
RTVSPropertyOp7
 70
     1
102
RTVSPropertyOp8
 70
     1
102
RTVSPropertyOp9
 70
     1
102
RTVSPropertyOp10
 70
     1
102
RTVSPropertyOp11
 70
     1
102
RTVSPropertyOp12
 70
     1
102
RTVSPropertyOp13
 70
     1
102
RTVSPropertyOp14
 70
     1
102
RTVSPropertyOp15
 70
     1
102
RTVSPropertyOp16
 70
     1
102
RTVSPropertyOp17
 70
     1
102
RTVSPropertyOp18
 70
     1
102
RTVSPropertyOp19
 70
     1
102
RTVSPropertyOp20
 70
     1
102
RTVSPropertyOp21
 70
     1
102
RTVSPropertyOp22
 70
     1
102
RTVSPropertyOp23
 70
     1
102
RTVSPropertyOp24
 70
     1
102
RTVSPropertyOp25
 70
     1
102
RTVSPropertyOp26
 70
     1
102
RTVSPropertyOp27
 70
     1
102
RTVSPropertyOp28
 70
     1
102
RTVSPropertyOp29
 70
     1
102
RTVSPropertyOp30
 70
     1
102
RTVSPropertyOp31
 70
     1
102
RTVSPropertyOp32
 70
     1
102
RTVSPropertyOp33
 70
     1
102
RTVSPropertyOp34
 70
     1
102
RTVSPropertyOp35
 70
     1
102
RTVSPropertyOp36
 70
     1
102
RTVSPropertyOp37
 70
     1
102
RTVSPropertyOp38
 70
     1
102
RTVSPropertyOp39
 70
     1
102
RTVSPropertyOp40
 70
     1
102
RTVSPropertyOp41
 70
     1
102
RTVSPropertyOp42
 70
     1
102
RTVSPropertyOp43
 70
     1
102
RTVSPropertyOp44
 70
     1
102
RTVSPropertyOp45
 70
     1
102
RTVSPropertyOp46
 70
     1
102
RTVSPropertyOp47
 70
     1
102
RTVSPropertyOp48
 70
     1
102
RTVSPropertyOp49
 70
     1
102
RTVSPropertyOp50
 70
     1
102
RTVSPropertyOp51
 70
     0
102
RTVSPropertyOp52
 70
     0
102
RTVSPropertyOp53
 70
     1
102
RTVSPropertyOp54
 70
     1
102
RTVSPropertyOp55
 70
     1
102
RTVSPropertyOp56
 70
     1
102
RTVSPropertyOp57
 70
     1
102
RTVSPropertyOp58
 70
     1
102
RTVSPropertyOp59
 70
     1
102
RTVSPropertyOp60
 70
     1
102
RTVSPropertyOp61
 70
     1
102
RTVSPropertyOp62
 70
     1
  0
XRECORD
  5
7FC
102
{ACAD_REACTORS
330
7FB
102
}
330
7FB
100
AcDbXrecord
280
     1
102
RTVSPost2010Prop28
280
     0
102
RTVSPost2010PropOp28
 70
     1
102
RTVSPost2010Prop29
280
     1
102
RTVSPost2010PropOp29
 70
     1
102
RTVSPost2010Prop30
280
     1
102
RTVSPost2010PropOp30
 70
     1
102
RTVSPost2010Prop31
280
     0
102
RTVSPost2010PropOp31
 70
     1
102
RTVSPost2010Prop32
280
     0
102
RTVSPost2010PropOp32
 70
     1
102
RTVSPost2010Prop33
280
     0
102
RTVSPost2010PropOp33
 70
     1
102
RTVSPost2010Prop34
280
     0
102
RTVSPost2010PropOp34
 70
     1
102
RTVSPost2010Prop35
280
     0
102
RTVSPost2010PropOp35
 70
     1
102
RTVSPost2010Prop36
280
     0
102
RTVSPost2010PropOp36
 70
     1
102
RTVSPost2010Prop37
 90
       50
102
RTVSPost2010PropOp37
 70
     0
102
RTVSPost2010Prop38
140
0.0
102
RTVSPost2010PropOp38
 70
     0
102
RTVSPost2010Prop39
140
1.0
102
RTVSPost2010PropOp39
 70
     0
102
RTVSPost2010Prop40
 90
        0
102
RTVSPost2010PropOp40
 70
     0
102
RTVSPost2010Prop41ColorIndex
 90
       18
102
RTVSPost2010Prop41ColorRGB
 90
        0
102
RTVSPost2010PropOp41
 70
     0
102
RTVSPost2010Prop42
 90
       50
102
RTVSPost2010PropOp42
 70
     0
102
RTVSPost2010Prop43
 90
        3
102
RTVSPost2010PropOp43
 70
     0
102
RTVSPost2010Prop44ColorIndex
 90
        5
102
RTVSPost2010Prop44ColorRGB
 90
      255
102
RTVSPost2010PropOp44
 70
     0
102
RTVSPost2010Prop45
280
     0
102
RTVSPost2010PropOp45
 70
     1
102
RTVSPost2010Prop46
 90
       50
102
RTVSPost2010PropOp46
 70
     0
102
RTVSPost2010Prop47
 90
       50
102
RTVSPost2010PropOp47
 70
     0
102
RTVSPost2010Prop48
 90
       50
102
RTVSPost2010PropOp48
 70
     0
102
RTVSPost2010Prop49
280
     0
102
RTVSPost2010PropOp49
 70
     1
102
RTVSPost2010Prop50
 90
       50
102
RTVSPost2010PropOp50
 70
     0
102
RTVSPost2010Prop51ColorIndex
 90
      256
102
RTVSPost2010Prop51ColorRGB
 90
-16777216
102
RTVSPost2010PropOp51
 70
     0
102
RTVSPost2010Prop52
140
1.0
102
RTVSPost2010PropOp52
 70
     0
102
RTVSPost2010Prop53
 90
        2
102
RTVSPost2010PropOp53
 70
     0
102
RTVSPost2010Prop54
  1
strokes_ogs.tif
102
RTVSPost2010PropOp54
 70
     0
102
RTVSPost2010Prop55
280
     0
102
RTVSPost2010PropOp55
 70
     1
102
RTVSPost2010Prop56
140
1.0
102
RTVSPost2010PropOp56
 70
     0
102
RTVSPost2010Prop57
140
1.0
102
RTVSPost2010PropOp57
 70
     0
102
RTVSPropertyOp0
 70
     0
102
RTVSPropertyOp1
 70
     0
102
RTVSPropertyOp2
 70
     0
102
RTVSPropertyOp3
 70
     0
102
RTVSPropertyOp4
 70
     0
102
RTVSPropertyOp5
 70
     0
102
RTVSPropertyOp6
 70
     0
102
RTVSPropertyOp7
 70
     0
102
RTVSPropertyOp8
 70
     0
102
RTVSPropertyOp9
 70
     0
102
RTVSPropertyOp10
 70
     0
102
RTVSPropertyOp11
 70
     0
102
RTVSPropertyOp12
 70
     0
102
RTVSPropertyOp13
 70
     0
102
RTVSPropertyOp14
 70
     2
102
RTVSPropertyOp15
 70
     0
102
RTVSPropertyOp16
 70
     0
102
RTVSPropertyOp17
 70
     0
102
RTVSPropertyOp18
 70
     0
102
RTVSPropertyOp19
 70
     0
102
RTVSPropertyOp20
 70
     0
102
RTVSPropertyOp21
 70
     0
102
RTVSPropertyOp22
 70
     0
102
RTVSPropertyOp23
 70
     0
102
RTVSPropertyOp24
 70
     0
102
RTVSPropertyOp25
 70
     0
102
RTVSPropertyOp26
 70
     0
102
RTVSPropertyOp27
 70
     0
102
RTVSPropertyOp28
 70
     1
102
RTVSPropertyOp29
 70
     1
102
RTVSPropertyOp30
 70
     1
102
RTVSPropertyOp31
 70
     1
102
RTVSPropertyOp32
 70
     1
102
RTVSPropertyOp33
 70
     1
102
RTVSPropertyOp34
 70
     1
102
RTVSPropertyOp35
 70
     1
102
RTVSPropertyOp36
 70
     1
102
RTVSPropertyOp37
 70
     0
102
RTVSPropertyOp38
 70
     0
102
RTVSPropertyOp39
 70
     0
102
RTVSPropertyOp40
 70
     0
102
RTVSPropertyOp41
 70
     0
102
RTVSPropertyOp42
 70
     0
102
RTVSPropertyOp43
 70
     0
102
RTVSPropertyOp44
 70
     0
102
RTVSPropertyOp45
 70
     1
102
RTVSPropertyOp46
 70
     0
102
RTVSPropertyOp47
 70
     0
102
RTVSPropertyOp48
 70
     0
102
RTVSPropertyOp49
 70
     1
102
RTVSPropertyOp50
 70
     0
102
RTVSPropertyOp51
 70
     0
102
RTVSPropertyOp52
 70
     0
102
RTVSPropertyOp53
 70
     0
102
RTVSPropertyOp54
 70
     0
102
RTVSPropertyOp55
 70
     1
102
RTVSPropertyOp56
 70
     0
102
RTVSPropertyOp57
 70
     0
102
RTVSPropertyOp58
 70
     0
102
RTVSPropertyOp59
 70
     0
102
RTVSPropertyOp60
 70
     0
102
RTVSPropertyOp61
 70
     0
102
RTVSPropertyOp62
 70
     0
  0
XRECORD
  5
7E2
102
{ACAD_REACTORS
330
7E1
102
}
330
7E1
100
AcDbXrecord
280
     1
102
RTVSPost2010Prop28
280
     0
102
RTVSPost2010PropOp28
 70
     1
102
RTVSPost2010Prop29
280
     1
102
RTVSPost2010PropOp29
 70
     1
102
RTVSPost2010Prop30
280
     1
102
RTVSPost2010PropOp30
 70
     1
102
RTVSPost2010Prop31
280
     0
102
RTVSPost2010PropOp31
 70
     1
102
RTVSPost2010Prop32
280
     0
102
RTVSPost2010PropOp32
 70
     1
102
RTVSPost2010Prop33
280
     0
102
RTVSPost2010PropOp33
 70
     1
102
RTVSPost2010Prop34
280
     0
102
RTVSPost2010PropOp34
 70
     1
102
RTVSPost2010Prop35
280
     0
102
RTVSPost2010PropOp35
 70
     1
102
RTVSPost2010Prop36
280
     0
102
RTVSPost2010PropOp36
 70
     1
102
RTVSPost2010Prop37
 90
       50
102
RTVSPost2010PropOp37
 70
     1
102
RTVSPost2010Prop38
140
0.0
102
RTVSPost2010PropOp38
 70
     1
102
RTVSPost2010Prop39
140
1.0
102
RTVSPost2010PropOp39
 70
     1
102
RTVSPost2010Prop40
 90
        0
102
RTVSPost2010PropOp40
 70
     1
102
RTVSPost2010Prop41ColorIndex
 90
       18
102
RTVSPost2010Prop41ColorRGB
 90
        0
102
RTVSPost2010PropOp41
 70
     1
102
RTVSPost2010Prop42
 90
       50
102
RTVSPost2010PropOp42
 70
     1
102
RTVSPost2010Prop43
 90
        3
102
RTVSPost2010PropOp43
 70
     1
102
RTVSPost2010Prop44ColorIndex
 90
        5
102
RTVSPost2010Prop44ColorRGB
 90
      255
102
RTVSPost2010PropOp44
 70
     1
102
RTVSPost2010Prop45
280
     0
102
RTVSPost2010PropOp45
 70
     1
102
RTVSPost2010Prop46
 90
       50
102
RTVSPost2010PropOp46
 70
     1
102
RTVSPost2010Prop47
 90
       50
102
RTVSPost2010PropOp47
 70
     1
102
RTVSPost2010Prop48
 90
       50
102
RTVSPost2010PropOp48
 70
     1
102
RTVSPost2010Prop49
280
     0
102
RTVSPost2010PropOp49
 70
     1
102
RTVSPost2010Prop50
 90
       50
102
RTVSPost2010PropOp50
 70
     1
102
RTVSPost2010Prop51ColorIndex
 90
      256
102
RTVSPost2010Prop51ColorRGB
 90
-16777216
102
RTVSPost2010PropOp51
 70
     0
102
RTVSPost2010Prop52
140
1.0
102
RTVSPost2010PropOp52
 70
     0
102
RTVSPost2010Prop53
 90
        2
102
RTVSPost2010PropOp53
 70
     1
102
RTVSPost2010Prop54
  1
strokes_ogs.tif
102
RTVSPost2010PropOp54
 70
     1
102
RTVSPost2010Prop55
280
     0
102
RTVSPost2010PropOp55
 70
     1
102
RTVSPost2010Prop56
140
1.0
102
RTVSPost2010PropOp56
 70
     1
102
RTVSPost2010Prop57
140
1.0
102
RTVSPost2010PropOp57
 70
     1
102
RTVSPropertyOp0
 70
     1
102
RTVSPropertyOp1
 70
     1
102
RTVSPropertyOp2
 70
     1
102
RTVSPropertyOp3
 70
     1
102
RTVSPropertyOp4
 70
     1
102
RTVSPropertyOp5
 70
     1
102
RTVSPropertyOp6
 70
     1
102
RTVSPropertyOp7
 70
     1
102
RTVSPropertyOp8
 70
     1
102
RTVSPropertyOp9
 70
     1
102
RTVSPropertyOp10
 70
     1
102
RTVSPropertyOp11
 70
     1
102
RTVSPropertyOp12
 70
     1
102
RTVSPropertyOp13
 70
     1
102
RTVSPropertyOp14
 70
     1
102
RTVSPropertyOp15
 70
     1
102
RTVSPropertyOp16
 70
     1
102
RTVSPropertyOp17
 70
     1
102
RTVSPropertyOp18
 70
     1
102
RTVSPropertyOp19
 70
     1
102
RTVSPropertyOp20
 70
     1
102
RTVSPropertyOp21
 70
     1
102
RTVSPropertyOp22
 70
     1
102
RTVSPropertyOp23
 70
     1
102
RTVSPropertyOp24
 70
     1
102
RTVSPropertyOp25
 70
     1
102
RTVSPropertyOp26
 70
     1
102
RTVSPropertyOp27
 70
     1
102
RTVSPropertyOp28
 70
     1
102
RTVSPropertyOp29
 70
     1
102
RTVSPropertyOp30
 70
     1
102
RTVSPropertyOp31
 70
     1
102
RTVSPropertyOp32
 70
     1
102
RTVSPropertyOp33
 70
     1
102
RTVSPropertyOp34
 70
     1
102
RTVSPropertyOp35
 70
     1
102
RTVSPropertyOp36
 70
     1
102
RTVSPropertyOp37
 70
     1
102
RTVSPropertyOp38
 70
     1
102
RTVSPropertyOp39
 70
     1
102
RTVSPropertyOp40
 70
     1
102
RTVSPropertyOp41
 70
     1
102
RTVSPropertyOp42
 70
     1
102
RTVSPropertyOp43
 70
     1
102
RTVSPropertyOp44
 70
     1
102
RTVSPropertyOp45
 70
     1
102
RTVSPropertyOp46
 70
     1
102
RTVSPropertyOp47
 70
     1
102
RTVSPropertyOp48
 70
     1
102
RTVSPropertyOp49
 70
     1
102
RTVSPropertyOp50
 70
     1
102
RTVSPropertyOp51
 70
     0
102
RTVSPropertyOp52
 70
     0
102
RTVSPropertyOp53
 70
     1
102
RTVSPropertyOp54
 70
     1
102
RTVSPropertyOp55
 70
     1
102
RTVSPropertyOp56
 70
     1
102
RTVSPropertyOp57
 70
     1
102
RTVSPropertyOp58
 70
     1
102
RTVSPropertyOp59
 70
     1
102
RTVSPropertyOp60
 70
     1
102
RTVSPropertyOp61
 70
     1
102
RTVSPropertyOp62
 70
     1
  0
XRECORD
  5
7F8
102
{ACAD_REACTORS
330
7F7
102
}
330
7F7
100
AcDbXrecord
280
     1
102
RTVSPost2010Prop28
280
     0
102
RTVSPost2010PropOp28
 70
     1
102
RTVSPost2010Prop29
280
     1
102
RTVSPost2010PropOp29
 70
     1
102
RTVSPost2010Prop30
280
     1
102
RTVSPost2010PropOp30
 70
     1
102
RTVSPost2010Prop31
280
     0
102
RTVSPost2010PropOp31
 70
     1
102
RTVSPost2010Prop32
280
     0
102
RTVSPost2010PropOp32
 70
     1
102
RTVSPost2010Prop33
280
     0
102
RTVSPost2010PropOp33
 70
     1
102
RTVSPost2010Prop34
280
     0
102
RTVSPost2010PropOp34
 70
     1
102
RTVSPost2010Prop35
280
     0
102
RTVSPost2010PropOp35
 70
     1
102
RTVSPost2010Prop36
280
     0
102
RTVSPost2010PropOp36
 70
     1
102
RTVSPost2010Prop37
 90
       50
102
RTVSPost2010PropOp37
 70
     1
102
RTVSPost2010Prop38
140
0.0
102
RTVSPost2010PropOp38
 70
     1
102
RTVSPost2010Prop39
140
1.0
102
RTVSPost2010PropOp39
 70
     1
102
RTVSPost2010Prop40
 90
        0
102
RTVSPost2010PropOp40
 70
     1
102
RTVSPost2010Prop41ColorIndex
 90
       18
102
RTVSPost2010Prop41ColorRGB
 90
        0
102
RTVSPost2010PropOp41
 70
     1
102
RTVSPost2010Prop42
 90
       50
102
RTVSPost2010PropOp42
 70
     1
102
RTVSPost2010Prop43
 90
        3
102
RTVSPost2010PropOp43
 70
     1
102
RTVSPost2010Prop44ColorIndex
 90
        5
102
RTVSPost2010Prop44ColorRGB
 90
      255
102
RTVSPost2010PropOp44
 70
     1
102
RTVSPost2010Prop45
280
     0
102
RTVSPost2010PropOp45
 70
     1
102
RTVSPost2010Prop46
 90
       50
102
RTVSPost2010PropOp46
 70
     1
102
RTVSPost2010Prop47
 90
       50
102
RTVSPost2010PropOp47
 70
     1
102
RTVSPost2010Prop48
 90
       50
102
RTVSPost2010PropOp48
 70
     1
102
RTVSPost2010Prop49
280
     0
102
RTVSPost2010PropOp49
 70
     1
102
RTVSPost2010Prop50
 90
       50
102
RTVSPost2010PropOp50
 70
     1
102
RTVSPost2010Prop51ColorIndex
 90
      256
102
RTVSPost2010Prop51ColorRGB
 90
-16777216
102
RTVSPost2010PropOp51
 70
     0
102
RTVSPost2010Prop52
140
1.0
102
RTVSPost2010PropOp52
 70
     0
102
RTVSPost2010Prop53
 90
        2
102
RTVSPost2010PropOp53
 70
     1
102
RTVSPost2010Prop54
  1
strokes_ogs.tif
102
RTVSPost2010PropOp54
 70
     1
102
RTVSPost2010Prop55
280
     0
102
RTVSPost2010PropOp55
 70
     1
102
RTVSPost2010Prop56
140
1.0
102
RTVSPost2010PropOp56
 70
     1
102
RTVSPost2010Prop57
140
1.0
102
RTVSPost2010PropOp57
 70
     1
102
RTVSPropertyOp0
 70
     1
102
RTVSPropertyOp1
 70
     1
102
RTVSPropertyOp2
 70
     1
102
RTVSPropertyOp3
 70
     1
102
RTVSPropertyOp4
 70
     1
102
RTVSPropertyOp5
 70
     1
102
RTVSPropertyOp6
 70
     1
102
RTVSPropertyOp7
 70
     1
102
RTVSPropertyOp8
 70
     1
102
RTVSPropertyOp9
 70
     1
102
RTVSPropertyOp10
 70
     1
102
RTVSPropertyOp11
 70
     1
102
RTVSPropertyOp12
 70
     1
102
RTVSPropertyOp13
 70
     1
102
RTVSPropertyOp14
 70
     1
102
RTVSPropertyOp15
 70
     1
102
RTVSPropertyOp16
 70
     1
102
RTVSPropertyOp17
 70
     1
102
RTVSPropertyOp18
 70
     1
102
RTVSPropertyOp19
 70
     1
102
RTVSPropertyOp20
 70
     1
102
RTVSPropertyOp21
 70
     1
102
RTVSPropertyOp22
 70
     1
102
RTVSPropertyOp23
 70
     1
102
RTVSPropertyOp24
 70
     1
102
RTVSPropertyOp25
 70
     1
102
RTVSPropertyOp26
 70
     1
102
RTVSPropertyOp27
 70
     1
102
RTVSPropertyOp28
 70
     1
102
RTVSPropertyOp29
 70
     1
102
RTVSPropertyOp30
 70
     1
102
RTVSPropertyOp31
 70
     1
102
RTVSPropertyOp32
 70
     1
102
RTVSPropertyOp33
 70
     1
102
RTVSPropertyOp34
 70
     1
102
RTVSPropertyOp35
 70
     1
102
RTVSPropertyOp36
 70
     1
102
RTVSPropertyOp37
 70
     1
102
RTVSPropertyOp38
 70
     1
102
RTVSPropertyOp39
 70
     1
102
RTVSPropertyOp40
 70
     1
102
RTVSPropertyOp41
 70
     1
102
RTVSPropertyOp42
 70
     1
102
RTVSPropertyOp43
 70
     1
102
RTVSPropertyOp44
 70
     1
102
RTVSPropertyOp45
 70
     1
102
RTVSPropertyOp46
 70
     1
102
RTVSPropertyOp47
 70
     1
102
RTVSPropertyOp48
 70
     1
102
RTVSPropertyOp49
 70
     1
102
RTVSPropertyOp50
 70
     1
102
RTVSPropertyOp51
 70
     0
102
RTVSPropertyOp52
 70
     0
102
RTVSPropertyOp53
 70
     1
102
RTVSPropertyOp54
 70
     1
102
RTVSPropertyOp55
 70
     1
102
RTVSPropertyOp56
 70
     1
102
RTVSPropertyOp57
 70
     1
102
RTVSPropertyOp58
 70
     1
102
RTVSPropertyOp59
 70
     1
102
RTVSPropertyOp60
 70
     1
102
RTVSPropertyOp61
 70
     1
102
RTVSPropertyOp62
 70
     1
  0
XRECORD
  5
7F6
102
{ACAD_REACTORS
330
7F5
102
}
330
7F5
100
AcDbXrecord
280
     1
102
RTVSPost2010Prop28
280
     0
102
RTVSPost2010PropOp28
 70
     1
102
RTVSPost2010Prop29
280
     1
102
RTVSPost2010PropOp29
 70
     1
102
RTVSPost2010Prop30
280
     1
102
RTVSPost2010PropOp30
 70
     1
102
RTVSPost2010Prop31
280
     0
102
RTVSPost2010PropOp31
 70
     1
102
RTVSPost2010Prop32
280
     0
102
RTVSPost2010PropOp32
 70
     1
102
RTVSPost2010Prop33
280
     0
102
RTVSPost2010PropOp33
 70
     1
102
RTVSPost2010Prop34
280
     0
102
RTVSPost2010PropOp34
 70
     1
102
RTVSPost2010Prop35
280
     0
102
RTVSPost2010PropOp35
 70
     1
102
RTVSPost2010Prop36
280
     0
102
RTVSPost2010PropOp36
 70
     1
102
RTVSPost2010Prop37
 90
       50
102
RTVSPost2010PropOp37
 70
     1
102
RTVSPost2010Prop38
140
0.0
102
RTVSPost2010PropOp38
 70
     1
102
RTVSPost2010Prop39
140
1.0
102
RTVSPost2010PropOp39
 70
     1
102
RTVSPost2010Prop40
 90
        0
102
RTVSPost2010PropOp40
 70
     1
102
RTVSPost2010Prop41ColorIndex
 90
       18
102
RTVSPost2010Prop41ColorRGB
 90
        0
102
RTVSPost2010PropOp41
 70
     1
102
RTVSPost2010Prop42
 90
       50
102
RTVSPost2010PropOp42
 70
     1
102
RTVSPost2010Prop43
 90
        3
102
RTVSPost2010PropOp43
 70
     1
102
RTVSPost2010Prop44ColorIndex
 90
        5
102
RTVSPost2010Prop44ColorRGB
 90
      255
102
RTVSPost2010PropOp44
 70
     1
102
RTVSPost2010Prop45
280
     0
102
RTVSPost2010PropOp45
 70
     1
102
RTVSPost2010Prop46
 90
       50
102
RTVSPost2010PropOp46
 70
     1
102
RTVSPost2010Prop47
 90
       50
102
RTVSPost2010PropOp47
 70
     1
102
RTVSPost2010Prop48
 90
       50
102
RTVSPost2010PropOp48
 70
     1
102
RTVSPost2010Prop49
280
     0
102
RTVSPost2010PropOp49
 70
     1
102
RTVSPost2010Prop50
 90
       50
102
RTVSPost2010PropOp50
 70
     1
102
RTVSPost2010Prop51ColorIndex
 90
      256
102
RTVSPost2010Prop51ColorRGB
 90
-16777216
102
RTVSPost2010PropOp51
 70
     0
102
RTVSPost2010Prop52
140
1.0
102
RTVSPost2010PropOp52
 70
     0
102
RTVSPost2010Prop53
 90
        2
102
RTVSPost2010PropOp53
 70
     1
102
RTVSPost2010Prop54
  1
strokes_ogs.tif
102
RTVSPost2010PropOp54
 70
     1
102
RTVSPost2010Prop55
280
     0
102
RTVSPost2010PropOp55
 70
     1
102
RTVSPost2010Prop56
140
1.0
102
RTVSPost2010PropOp56
 70
     1
102
RTVSPost2010Prop57
140
1.0
102
RTVSPost2010PropOp57
 70
     1
102
RTVSPropertyOp0
 70
     1
102
RTVSPropertyOp1
 70
     1
102
RTVSPropertyOp2
 70
     1
102
RTVSPropertyOp3
 70
     1
102
RTVSPropertyOp4
 70
     1
102
RTVSPropertyOp5
 70
     1
102
RTVSPropertyOp6
 70
     1
102
RTVSPropertyOp7
 70
     1
102
RTVSPropertyOp8
 70
     1
102
RTVSPropertyOp9
 70
     1
102
RTVSPropertyOp10
 70
     1
102
RTVSPropertyOp11
 70
     1
102
RTVSPropertyOp12
 70
     1
102
RTVSPropertyOp13
 70
     1
102
RTVSPropertyOp14
 70
     1
102
RTVSPropertyOp15
 70
     1
102
RTVSPropertyOp16
 70
     1
102
RTVSPropertyOp17
 70
     1
102
RTVSPropertyOp18
 70
     1
102
RTVSPropertyOp19
 70
     1
102
RTVSPropertyOp20
 70
     1
102
RTVSPropertyOp21
 70
     1
102
RTVSPropertyOp22
 70
     1
102
RTVSPropertyOp23
 70
     1
102
RTVSPropertyOp24
 70
     1
102
RTVSPropertyOp25
 70
     1
102
RTVSPropertyOp26
 70
     1
102
RTVSPropertyOp27
 70
     1
102
RTVSPropertyOp28
 70
     1
102
RTVSPropertyOp29
 70
     1
102
RTVSPropertyOp30
 70
     1
102
RTVSPropertyOp31
 70
     1
102
RTVSPropertyOp32
 70
     1
102
RTVSPropertyOp33
 70
     1
102
RTVSPropertyOp34
 70
     1
102
RTVSPropertyOp35
 70
     1
102
RTVSPropertyOp36
 70
     1
102
RTVSPropertyOp37
 70
     1
102
RTVSPropertyOp38
 70
     1
102
RTVSPropertyOp39
 70
     1
102
RTVSPropertyOp40
 70
     1
102
RTVSPropertyOp41
 70
     1
102
RTVSPropertyOp42
 70
     1
102
RTVSPropertyOp43
 70
     1
102
RTVSPropertyOp44
 70
     1
102
RTVSPropertyOp45
 70
     1
102
RTVSPropertyOp46
 70
     1
102
RTVSPropertyOp47
 70
     1
102
RTVSPropertyOp48
 70
     1
102
RTVSPropertyOp49
 70
     1
102
RTVSPropertyOp50
 70
     1
102
RTVSPropertyOp51
 70
     0
102
RTVSPropertyOp52
 70
     0
102
RTVSPropertyOp53
 70
     1
102
RTVSPropertyOp54
 70
     1
102
RTVSPropertyOp55
 70
     1
102
RTVSPropertyOp56
 70
     1
102
RTVSPropertyOp57
 70
     1
102
RTVSPropertyOp58
 70
     1
102
RTVSPropertyOp59
 70
     1
102
RTVSPropertyOp60
 70
     1
102
RTVSPropertyOp61
 70
     1
102
RTVSPropertyOp62
 70
     1
  0
XRECORD
  5
7F0
102
{ACAD_REACTORS
330
7EF
102
}
330
7EF
100
AcDbXrecord
280
     1
102
RTVSPost2010Prop28
280
     0
102
RTVSPost2010PropOp28
 70
     1
102
RTVSPost2010Prop29
280
     1
102
RTVSPost2010PropOp29
 70
     1
102
RTVSPost2010Prop30
280
     1
102
RTVSPost2010PropOp30
 70
     1
102
RTVSPost2010Prop31
280
     0
102
RTVSPost2010PropOp31
 70
     1
102
RTVSPost2010Prop32
280
     0
102
RTVSPost2010PropOp32
 70
     1
102
RTVSPost2010Prop33
280
     0
102
RTVSPost2010PropOp33
 70
     1
102
RTVSPost2010Prop34
280
     0
102
RTVSPost2010PropOp34
 70
     1
102
RTVSPost2010Prop35
280
     0
102
RTVSPost2010PropOp35
 70
     1
102
RTVSPost2010Prop36
280
     0
102
RTVSPost2010PropOp36
 70
     1
102
RTVSPost2010Prop37
 90
       50
102
RTVSPost2010PropOp37
 70
     1
102
RTVSPost2010Prop38
140
0.0
102
RTVSPost2010PropOp38
 70
     1
102
RTVSPost2010Prop39
140
1.0
102
RTVSPost2010PropOp39
 70
     1
102
RTVSPost2010Prop40
 90
        0
102
RTVSPost2010PropOp40
 70
     1
102
RTVSPost2010Prop41ColorIndex
 90
       18
102
RTVSPost2010Prop41ColorRGB
 90
        0
102
RTVSPost2010PropOp41
 70
     1
102
RTVSPost2010Prop42
 90
       50
102
RTVSPost2010PropOp42
 70
     1
102
RTVSPost2010Prop43
 90
        3
102
RTVSPost2010PropOp43
 70
     1
102
RTVSPost2010Prop44ColorIndex
 90
        5
102
RTVSPost2010Prop44ColorRGB
 90
      255
102
RTVSPost2010PropOp44
 70
     1
102
RTVSPost2010Prop45
280
     0
102
RTVSPost2010PropOp45
 70
     1
102
RTVSPost2010Prop46
 90
       50
102
RTVSPost2010PropOp46
 70
     1
102
RTVSPost2010Prop47
 90
       50
102
RTVSPost2010PropOp47
 70
     1
102
RTVSPost2010Prop48
 90
       50
102
RTVSPost2010PropOp48
 70
     1
102
RTVSPost2010Prop49
280
     0
102
RTVSPost2010PropOp49
 70
     1
102
RTVSPost2010Prop50
 90
       50
102
RTVSPost2010PropOp50
 70
     1
102
RTVSPost2010Prop51ColorIndex
 90
      256
102
RTVSPost2010Prop51ColorRGB
 90
-16777216
102
RTVSPost2010PropOp51
 70
     0
102
RTVSPost2010Prop52
140
1.0
102
RTVSPost2010PropOp52
 70
     0
102
RTVSPost2010Prop53
 90
        2
102
RTVSPost2010PropOp53
 70
     1
102
RTVSPost2010Prop54
  1
strokes_ogs.tif
102
RTVSPost2010PropOp54
 70
     1
102
RTVSPost2010Prop55
280
     0
102
RTVSPost2010PropOp55
 70
     1
102
RTVSPost2010Prop56
140
1.0
102
RTVSPost2010PropOp56
 70
     1
102
RTVSPost2010Prop57
140
1.0
102
RTVSPost2010PropOp57
 70
     1
102
RTVSPropertyOp0
 70
     1
102
RTVSPropertyOp1
 70
     1
102
RTVSPropertyOp2
 70
     1
102
RTVSPropertyOp3
 70
     1
102
RTVSPropertyOp4
 70
     1
102
RTVSPropertyOp5
 70
     1
102
RTVSPropertyOp6
 70
     1
102
RTVSPropertyOp7
 70
     1
102
RTVSPropertyOp8
 70
     1
102
RTVSPropertyOp9
 70
     1
102
RTVSPropertyOp10
 70
     1
102
RTVSPropertyOp11
 70
     1
102
RTVSPropertyOp12
 70
     1
102
RTVSPropertyOp13
 70
     1
102
RTVSPropertyOp14
 70
     1
102
RTVSPropertyOp15
 70
     1
102
RTVSPropertyOp16
 70
     1
102
RTVSPropertyOp17
 70
     1
102
RTVSPropertyOp18
 70
     1
102
RTVSPropertyOp19
 70
     1
102
RTVSPropertyOp20
 70
     1
102
RTVSPropertyOp21
 70
     1
102
RTVSPropertyOp22
 70
     1
102
RTVSPropertyOp23
 70
     1
102
RTVSPropertyOp24
 70
     1
102
RTVSPropertyOp25
 70
     1
102
RTVSPropertyOp26
 70
     1
102
RTVSPropertyOp27
 70
     1
102
RTVSPropertyOp28
 70
     1
102
RTVSPropertyOp29
 70
     1
102
RTVSPropertyOp30
 70
     1
102
RTVSPropertyOp31
 70
     1
102
RTVSPropertyOp32
 70
     1
102
RTVSPropertyOp33
 70
     1
102
RTVSPropertyOp34
 70
     1
102
RTVSPropertyOp35
 70
     1
102
RTVSPropertyOp36
 70
     1
102
RTVSPropertyOp37
 70
     1
102
RTVSPropertyOp38
 70
     1
102
RTVSPropertyOp39
 70
     1
102
RTVSPropertyOp40
 70
     1
102
RTVSPropertyOp41
 70
     1
102
RTVSPropertyOp42
 70
     1
102
RTVSPropertyOp43
 70
     1
102
RTVSPropertyOp44
 70
     1
102
RTVSPropertyOp45
 70
     1
102
RTVSPropertyOp46
 70
     1
102
RTVSPropertyOp47
 70
     1
102
RTVSPropertyOp48
 70
     1
102
RTVSPropertyOp49
 70
     1
102
RTVSPropertyOp50
 70
     1
102
RTVSPropertyOp51
 70
     0
102
RTVSPropertyOp52
 70
     0
102
RTVSPropertyOp53
 70
     1
102
RTVSPropertyOp54
 70
     1
102
RTVSPropertyOp55
 70
     1
102
RTVSPropertyOp56
 70
     1
102
RTVSPropertyOp57
 70
     1
102
RTVSPropertyOp58
 70
     1
102
RTVSPropertyOp59
 70
     1
102
RTVSPropertyOp60
 70
     1
102
RTVSPropertyOp61
 70
     1
102
RTVSPropertyOp62
 70
     1
  0
XRECORD
  5
7F2
102
{ACAD_REACTORS
330
7F1
102
}
330
7F1
100
AcDbXrecord
280
     1
102
RTVSPost2010Prop28
280
     0
102
RTVSPost2010PropOp28
 70
     1
102
RTVSPost2010Prop29
280
     1
102
RTVSPost2010PropOp29
 70
     1
102
RTVSPost2010Prop30
280
     1
102
RTVSPost2010PropOp30
 70
     1
102
RTVSPost2010Prop31
280
     0
102
RTVSPost2010PropOp31
 70
     1
102
RTVSPost2010Prop32
280
     0
102
RTVSPost2010PropOp32
 70
     1
102
RTVSPost2010Prop33
280
     0
102
RTVSPost2010PropOp33
 70
     1
102
RTVSPost2010Prop34
280
     0
102
RTVSPost2010PropOp34
 70
     1
102
RTVSPost2010Prop35
280
     0
102
RTVSPost2010PropOp35
 70
     1
102
RTVSPost2010Prop36
280
     0
102
RTVSPost2010PropOp36
 70
     1
102
RTVSPost2010Prop37
 90
       50
102
RTVSPost2010PropOp37
 70
     1
102
RTVSPost2010Prop38
140
0.0
102
RTVSPost2010PropOp38
 70
     1
102
RTVSPost2010Prop39
140
1.0
102
RTVSPost2010PropOp39
 70
     1
102
RTVSPost2010Prop40
 90
        0
102
RTVSPost2010PropOp40
 70
     1
102
RTVSPost2010Prop41ColorIndex
 90
       18
102
RTVSPost2010Prop41ColorRGB
 90
        0
102
RTVSPost2010PropOp41
 70
     1
102
RTVSPost2010Prop42
 90
       50
102
RTVSPost2010PropOp42
 70
     1
102
RTVSPost2010Prop43
 90
        3
102
RTVSPost2010PropOp43
 70
     1
102
RTVSPost2010Prop44ColorIndex
 90
        5
102
RTVSPost2010Prop44ColorRGB
 90
      255
102
RTVSPost2010PropOp44
 70
     1
102
RTVSPost2010Prop45
280
     0
102
RTVSPost2010PropOp45
 70
     1
102
RTVSPost2010Prop46
 90
       50
102
RTVSPost2010PropOp46
 70
     1
102
RTVSPost2010Prop47
 90
       50
102
RTVSPost2010PropOp47
 70
     1
102
RTVSPost2010Prop48
 90
       50
102
RTVSPost2010PropOp48
 70
     1
102
RTVSPost2010Prop49
280
     0
102
RTVSPost2010PropOp49
 70
     1
102
RTVSPost2010Prop50
 90
       50
102
RTVSPost2010PropOp50
 70
     1
102
RTVSPost2010Prop51ColorIndex
 90
      256
102
RTVSPost2010Prop51ColorRGB
 90
-16777216
102
RTVSPost2010PropOp51
 70
     0
102
RTVSPost2010Prop52
140
1.0
102
RTVSPost2010PropOp52
 70
     0
102
RTVSPost2010Prop53
 90
        2
102
RTVSPost2010PropOp53
 70
     1
102
RTVSPost2010Prop54
  1
strokes_ogs.tif
102
RTVSPost2010PropOp54
 70
     1
102
RTVSPost2010Prop55
280
     0
102
RTVSPost2010PropOp55
 70
     1
102
RTVSPost2010Prop56
140
1.0
102
RTVSPost2010PropOp56
 70
     1
102
RTVSPost2010Prop57
140
1.0
102
RTVSPost2010PropOp57
 70
     1
102
RTVSPropertyOp0
 70
     1
102
RTVSPropertyOp1
 70
     1
102
RTVSPropertyOp2
 70
     1
102
RTVSPropertyOp3
 70
     1
102
RTVSPropertyOp4
 70
     1
102
RTVSPropertyOp5
 70
     1
102
RTVSPropertyOp6
 70
     1
102
RTVSPropertyOp7
 70
     1
102
RTVSPropertyOp8
 70
     1
102
RTVSPropertyOp9
 70
     1
102
RTVSPropertyOp10
 70
     1
102
RTVSPropertyOp11
 70
     1
102
RTVSPropertyOp12
 70
     1
102
RTVSPropertyOp13
 70
     1
102
RTVSPropertyOp14
 70
     1
102
RTVSPropertyOp15
 70
     1
102
RTVSPropertyOp16
 70
     1
102
RTVSPropertyOp17
 70
     1
102
RTVSPropertyOp18
 70
     1
102
RTVSPropertyOp19
 70
     1
102
RTVSPropertyOp20
 70
     1
102
RTVSPropertyOp21
 70
     1
102
RTVSPropertyOp22
 70
     1
102
RTVSPropertyOp23
 70
     1
102
RTVSPropertyOp24
 70
     1
102
RTVSPropertyOp25
 70
     1
102
RTVSPropertyOp26
 70
     1
102
RTVSPropertyOp27
 70
     1
102
RTVSPropertyOp28
 70
     1
102
RTVSPropertyOp29
 70
     1
102
RTVSPropertyOp30
 70
     1
102
RTVSPropertyOp31
 70
     1
102
RTVSPropertyOp32
 70
     1
102
RTVSPropertyOp33
 70
     1
102
RTVSPropertyOp34
 70
     1
102
RTVSPropertyOp35
 70
     1
102
RTVSPropertyOp36
 70
     1
102
RTVSPropertyOp37
 70
     1
102
RTVSPropertyOp38
 70
     1
102
RTVSPropertyOp39
 70
     1
102
RTVSPropertyOp40
 70
     1
102
RTVSPropertyOp41
 70
     1
102
RTVSPropertyOp42
 70
     1
102
RTVSPropertyOp43
 70
     1
102
RTVSPropertyOp44
 70
     1
102
RTVSPropertyOp45
 70
     1
102
RTVSPropertyOp46
 70
     1
102
RTVSPropertyOp47
 70
     1
102
RTVSPropertyOp48
 70
     1
102
RTVSPropertyOp49
 70
     1
102
RTVSPropertyOp50
 70
     1
102
RTVSPropertyOp51
 70
     0
102
RTVSPropertyOp52
 70
     0
102
RTVSPropertyOp53
 70
     1
102
RTVSPropertyOp54
 70
     1
102
RTVSPropertyOp55
 70
     1
102
RTVSPropertyOp56
 70
     1
102
RTVSPropertyOp57
 70
     1
102
RTVSPropertyOp58
 70
     1
102
RTVSPropertyOp59
 70
     1
102
RTVSPropertyOp60
 70
     1
102
RTVSPropertyOp61
 70
     1
102
RTVSPropertyOp62
 70
     1
  0
XRECORD
  5
7E8
102
{ACAD_REACTORS
330
7E7
102
}
330
7E7
100
AcDbXrecord
280
     1
102
RTVSPost2010Prop28
280
     0
102
RTVSPost2010PropOp28
 70
     1
102
RTVSPost2010Prop29
280
     1
102
RTVSPost2010PropOp29
 70
     1
102
RTVSPost2010Prop30
280
     1
102
RTVSPost2010PropOp30
 70
     1
102
RTVSPost2010Prop31
280
     0
102
RTVSPost2010PropOp31
 70
     1
102
RTVSPost2010Prop32
280
     0
102
RTVSPost2010PropOp32
 70
     1
102
RTVSPost2010Prop33
280
     0
102
RTVSPost2010PropOp33
 70
     1
102
RTVSPost2010Prop34
280
     0
102
RTVSPost2010PropOp34
 70
     1
102
RTVSPost2010Prop35
280
     0
102
RTVSPost2010PropOp35
 70
     1
102
RTVSPost2010Prop36
280
     0
102
RTVSPost2010PropOp36
 70
     1
102
RTVSPost2010Prop37
 90
       50
102
RTVSPost2010PropOp37
 70
     1
102
RTVSPost2010Prop38
140
0.0
102
RTVSPost2010PropOp38
 70
     1
102
RTVSPost2010Prop39
140
1.0
102
RTVSPost2010PropOp39
 70
     1
102
RTVSPost2010Prop40
 90
        0
102
RTVSPost2010PropOp40
 70
     1
102
RTVSPost2010Prop41ColorIndex
 90
       18
102
RTVSPost2010Prop41ColorRGB
 90
        0
102
RTVSPost2010PropOp41
 70
     1
102
RTVSPost2010Prop42
 90
       50
102
RTVSPost2010PropOp42
 70
     1
102
RTVSPost2010Prop43
 90
        3
102
RTVSPost2010PropOp43
 70
     1
102
RTVSPost2010Prop44ColorIndex
 90
        5
102
RTVSPost2010Prop44ColorRGB
 90
      255
102
RTVSPost2010PropOp44
 70
     1
102
RTVSPost2010Prop45
280
     0
102
RTVSPost2010PropOp45
 70
     1
102
RTVSPost2010Prop46
 90
       50
102
RTVSPost2010PropOp46
 70
     1
102
RTVSPost2010Prop47
 90
       50
102
RTVSPost2010PropOp47
 70
     1
102
RTVSPost2010Prop48
 90
       50
102
RTVSPost2010PropOp48
 70
     1
102
RTVSPost2010Prop49
280
     0
102
RTVSPost2010PropOp49
 70
     1
102
RTVSPost2010Prop50
 90
       50
102
RTVSPost2010PropOp50
 70
     1
102
RTVSPost2010Prop51ColorIndex
 90
      256
102
RTVSPost2010Prop51ColorRGB
 90
-16777216
102
RTVSPost2010PropOp51
 70
     0
102
RTVSPost2010Prop52
140
1.0
102
RTVSPost2010PropOp52
 70
     0
102
RTVSPost2010Prop53
 90
        2
102
RTVSPost2010PropOp53
 70
     1
102
RTVSPost2010Prop54
  1
strokes_ogs.tif
102
RTVSPost2010PropOp54
 70
     1
102
RTVSPost2010Prop55
280
     0
102
RTVSPost2010PropOp55
 70
     1
102
RTVSPost2010Prop56
140
1.0
102
RTVSPost2010PropOp56
 70
     1
102
RTVSPost2010Prop57
140
1.0
102
RTVSPost2010PropOp57
 70
     1
102
RTVSPropertyOp0
 70
     1
102
RTVSPropertyOp1
 70
     1
102
RTVSPropertyOp2
 70
     1
102
RTVSPropertyOp3
 70
     1
102
RTVSPropertyOp4
 70
     1
102
RTVSPropertyOp5
 70
     1
102
RTVSPropertyOp6
 70
     1
102
RTVSPropertyOp7
 70
     1
102
RTVSPropertyOp8
 70
     1
102
RTVSPropertyOp9
 70
     1
102
RTVSPropertyOp10
 70
     1
102
RTVSPropertyOp11
 70
     1
102
RTVSPropertyOp12
 70
     1
102
RTVSPropertyOp13
 70
     1
102
RTVSPropertyOp14
 70
     1
102
RTVSPropertyOp15
 70
     1
102
RTVSPropertyOp16
 70
     1
102
RTVSPropertyOp17
 70
     1
102
RTVSPropertyOp18
 70
     1
102
RTVSPropertyOp19
 70
     1
102
RTVSPropertyOp20
 70
     1
102
RTVSPropertyOp21
 70
     1
102
RTVSPropertyOp22
 70
     1
102
RTVSPropertyOp23
 70
     1
102
RTVSPropertyOp24
 70
     1
102
RTVSPropertyOp25
 70
     1
102
RTVSPropertyOp26
 70
     1
102
RTVSPropertyOp27
 70
     1
102
RTVSPropertyOp28
 70
     1
102
RTVSPropertyOp29
 70
     1
102
RTVSPropertyOp30
 70
     1
102
RTVSPropertyOp31
 70
     1
102
RTVSPropertyOp32
 70
     1
102
RTVSPropertyOp33
 70
     1
102
RTVSPropertyOp34
 70
     1
102
RTVSPropertyOp35
 70
     1
102
RTVSPropertyOp36
 70
     1
102
RTVSPropertyOp37
 70
     1
102
RTVSPropertyOp38
 70
     1
102
RTVSPropertyOp39
 70
     1
102
RTVSPropertyOp40
 70
     1
102
RTVSPropertyOp41
 70
     1
102
RTVSPropertyOp42
 70
     1
102
RTVSPropertyOp43
 70
     1
102
RTVSPropertyOp44
 70
     1
102
RTVSPropertyOp45
 70
     1
102
RTVSPropertyOp46
 70
     1
102
RTVSPropertyOp47
 70
     1
102
RTVSPropertyOp48
 70
     1
102
RTVSPropertyOp49
 70
     1
102
RTVSPropertyOp50
 70
     1
102
RTVSPropertyOp51
 70
     0
102
RTVSPropertyOp52
 70
     0
102
RTVSPropertyOp53
 70
     1
102
RTVSPropertyOp54
 70
     1
102
RTVSPropertyOp55
 70
     1
102
RTVSPropertyOp56
 70
     1
102
RTVSPropertyOp57
 70
     1
102
RTVSPropertyOp58
 70
     1
102
RTVSPropertyOp59
 70
     1
102
RTVSPropertyOp60
 70
     1
102
RTVSPropertyOp61
 70
     1
102
RTVSPropertyOp62
 70
     1
  0
XRECORD
  5
7DC
102
{ACAD_REACTORS
330
7DB
102
}
330
7DB
100
AcDbXrecord
280
     1
102
RTVSPost2010Prop28
280
     0
102
RTVSPost2010PropOp28
 70
     1
102
RTVSPost2010Prop29
280
     1
102
RTVSPost2010PropOp29
 70
     1
102
RTVSPost2010Prop30
280
     1
102
RTVSPost2010PropOp30
 70
     1
102
RTVSPost2010Prop31
280
     0
102
RTVSPost2010PropOp31
 70
     1
102
RTVSPost2010Prop32
280
     0
102
RTVSPost2010PropOp32
 70
     1
102
RTVSPost2010Prop33
280
     0
102
RTVSPost2010PropOp33
 70
     1
102
RTVSPost2010Prop34
280
     0
102
RTVSPost2010PropOp34
 70
     1
102
RTVSPost2010Prop35
280
     0
102
RTVSPost2010PropOp35
 70
     1
102
RTVSPost2010Prop36
280
     0
102
RTVSPost2010PropOp36
 70
     1
102
RTVSPost2010Prop37
 90
       50
102
RTVSPost2010PropOp37
 70
     1
102
RTVSPost2010Prop38
140
0.0
102
RTVSPost2010PropOp38
 70
     1
102
RTVSPost2010Prop39
140
1.0
102
RTVSPost2010PropOp39
 70
     1
102
RTVSPost2010Prop40
 90
        0
102
RTVSPost2010PropOp40
 70
     1
102
RTVSPost2010Prop41ColorIndex
 90
       18
102
RTVSPost2010Prop41ColorRGB
 90
        0
102
RTVSPost2010PropOp41
 70
     1
102
RTVSPost2010Prop42
 90
       50
102
RTVSPost2010PropOp42
 70
     1
102
RTVSPost2010Prop43
 90
        3
102
RTVSPost2010PropOp43
 70
     1
102
RTVSPost2010Prop44ColorIndex
 90
        5
102
RTVSPost2010Prop44ColorRGB
 90
      255
102
RTVSPost2010PropOp44
 70
     1
102
RTVSPost2010Prop45
280
     0
102
RTVSPost2010PropOp45
 70
     1
102
RTVSPost2010Prop46
 90
       50
102
RTVSPost2010PropOp46
 70
     1
102
RTVSPost2010Prop47
 90
       50
102
RTVSPost2010PropOp47
 70
     1
102
RTVSPost2010Prop48
 90
       50
102
RTVSPost2010PropOp48
 70
     1
102
RTVSPost2010Prop49
280
     0
102
RTVSPost2010PropOp49
 70
     1
102
RTVSPost2010Prop50
 90
       50
102
RTVSPost2010PropOp50
 70
     1
102
RTVSPost2010Prop51ColorIndex
 90
      256
102
RTVSPost2010Prop51ColorRGB
 90
-16777216
102
RTVSPost2010PropOp51
 70
     0
102
RTVSPost2010Prop52
140
1.0
102
RTVSPost2010PropOp52
 70
     0
102
RTVSPost2010Prop53
 90
        2
102
RTVSPost2010PropOp53
 70
     1
102
RTVSPost2010Prop54
  1
strokes_ogs.tif
102
RTVSPost2010PropOp54
 70
     1
102
RTVSPost2010Prop55
280
     0
102
RTVSPost2010PropOp55
 70
     1
102
RTVSPost2010Prop56
140
1.0
102
RTVSPost2010PropOp56
 70
     1
102
RTVSPost2010Prop57
140
1.0
102
RTVSPost2010PropOp57
 70
     1
102
RTVSPropertyOp0
 70
     1
102
RTVSPropertyOp1
 70
     1
102
RTVSPropertyOp2
 70
     1
102
RTVSPropertyOp3
 70
     1
102
RTVSPropertyOp4
 70
     1
102
RTVSPropertyOp5
 70
     1
102
RTVSPropertyOp6
 70
     1
102
RTVSPropertyOp7
 70
     1
102
RTVSPropertyOp8
 70
     1
102
RTVSPropertyOp9
 70
     1
102
RTVSPropertyOp10
 70
     1
102
RTVSPropertyOp11
 70
     1
102
RTVSPropertyOp12
 70
     1
102
RTVSPropertyOp13
 70
     1
102
RTVSPropertyOp14
 70
     1
102
RTVSPropertyOp15
 70
     1
102
RTVSPropertyOp16
 70
     1
102
RTVSPropertyOp17
 70
     1
102
RTVSPropertyOp18
 70
     1
102
RTVSPropertyOp19
 70
     1
102
RTVSPropertyOp20
 70
     1
102
RTVSPropertyOp21
 70
     1
102
RTVSPropertyOp22
 70
     1
102
RTVSPropertyOp23
 70
     1
102
RTVSPropertyOp24
 70
     1
102
RTVSPropertyOp25
 70
     1
102
RTVSPropertyOp26
 70
     1
102
RTVSPropertyOp27
 70
     1
102
RTVSPropertyOp28
 70
     1
102
RTVSPropertyOp29
 70
     1
102
RTVSPropertyOp30
 70
     1
102
RTVSPropertyOp31
 70
     1
102
RTVSPropertyOp32
 70
     1
102
RTVSPropertyOp33
 70
     1
102
RTVSPropertyOp34
 70
     1
102
RTVSPropertyOp35
 70
     1
102
RTVSPropertyOp36
 70
     1
102
RTVSPropertyOp37
 70
     1
102
RTVSPropertyOp38
 70
     1
102
RTVSPropertyOp39
 70
     1
102
RTVSPropertyOp40
 70
     1
102
RTVSPropertyOp41
 70
     1
102
RTVSPropertyOp42
 70
     1
102
RTVSPropertyOp43
 70
     1
102
RTVSPropertyOp44
 70
     1
102
RTVSPropertyOp45
 70
     1
102
RTVSPropertyOp46
 70
     1
102
RTVSPropertyOp47
 70
     1
102
RTVSPropertyOp48
 70
     1
102
RTVSPropertyOp49
 70
     1
102
RTVSPropertyOp50
 70
     1
102
RTVSPropertyOp51
 70
     0
102
RTVSPropertyOp52
 70
     0
102
RTVSPropertyOp53
 70
     1
102
RTVSPropertyOp54
 70
     1
102
RTVSPropertyOp55
 70
     1
102
RTVSPropertyOp56
 70
     1
102
RTVSPropertyOp57
 70
     1
102
RTVSPropertyOp58
 70
     1
102
RTVSPropertyOp59
 70
     1
102
RTVSPropertyOp60
 70
     1
102
RTVSPropertyOp61
 70
     1
102
RTVSPropertyOp62
 70
     1
  0
XRECORD
  5
7F4
102
{ACAD_REACTORS
330
7F3
102
}
330
7F3
100
AcDbXrecord
280
     1
102
RTVSPost2010Prop28
280
     0
102
RTVSPost2010PropOp28
 70
     1
102
RTVSPost2010Prop29
280
     1
102
RTVSPost2010PropOp29
 70
     1
102
RTVSPost2010Prop30
280
     1
102
RTVSPost2010PropOp30
 70
     1
102
RTVSPost2010Prop31
280
     0
102
RTVSPost2010PropOp31
 70
     1
102
RTVSPost2010Prop32
280
     0
102
RTVSPost2010PropOp32
 70
     1
102
RTVSPost2010Prop33
280
     0
102
RTVSPost2010PropOp33
 70
     1
102
RTVSPost2010Prop34
280
     0
102
RTVSPost2010PropOp34
 70
     1
102
RTVSPost2010Prop35
280
     0
102
RTVSPost2010PropOp35
 70
     1
102
RTVSPost2010Prop36
280
     0
102
RTVSPost2010PropOp36
 70
     1
102
RTVSPost2010Prop37
 90
       50
102
RTVSPost2010PropOp37
 70
     1
102
RTVSPost2010Prop38
140
0.0
102
RTVSPost2010PropOp38
 70
     1
102
RTVSPost2010Prop39
140
1.0
102
RTVSPost2010PropOp39
 70
     1
102
RTVSPost2010Prop40
 90
        0
102
RTVSPost2010PropOp40
 70
     1
102
RTVSPost2010Prop41ColorIndex
 90
       18
102
RTVSPost2010Prop41ColorRGB
 90
        0
102
RTVSPost2010PropOp41
 70
     1
102
RTVSPost2010Prop42
 90
       50
102
RTVSPost2010PropOp42
 70
     1
102
RTVSPost2010Prop43
 90
        3
102
RTVSPost2010PropOp43
 70
     1
102
RTVSPost2010Prop44ColorIndex
 90
        5
102
RTVSPost2010Prop44ColorRGB
 90
      255
102
RTVSPost2010PropOp44
 70
     1
102
RTVSPost2010Prop45
280
     0
102
RTVSPost2010PropOp45
 70
     1
102
RTVSPost2010Prop46
 90
       50
102
RTVSPost2010PropOp46
 70
     1
102
RTVSPost2010Prop47
 90
       50
102
RTVSPost2010PropOp47
 70
     1
102
RTVSPost2010Prop48
 90
       50
102
RTVSPost2010PropOp48
 70
     1
102
RTVSPost2010Prop49
280
     0
102
RTVSPost2010PropOp49
 70
     1
102
RTVSPost2010Prop50
 90
       50
102
RTVSPost2010PropOp50
 70
     1
102
RTVSPost2010Prop51ColorIndex
 90
      256
102
RTVSPost2010Prop51ColorRGB
 90
-16777216
102
RTVSPost2010PropOp51
 70
     0
102
RTVSPost2010Prop52
140
1.0
102
RTVSPost2010PropOp52
 70
     0
102
RTVSPost2010Prop53
 90
        2
102
RTVSPost2010PropOp53
 70
     1
102
RTVSPost2010Prop54
  1
strokes_ogs.tif
102
RTVSPost2010PropOp54
 70
     1
102
RTVSPost2010Prop55
280
     0
102
RTVSPost2010PropOp55
 70
     1
102
RTVSPost2010Prop56
140
1.0
102
RTVSPost2010PropOp56
 70
     1
102
RTVSPost2010Prop57
140
1.0
102
RTVSPost2010PropOp57
 70
     1
102
RTVSPropertyOp0
 70
     1
102
RTVSPropertyOp1
 70
     1
102
RTVSPropertyOp2
 70
     1
102
RTVSPropertyOp3
 70
     1
102
RTVSPropertyOp4
 70
     1
102
RTVSPropertyOp5
 70
     1
102
RTVSPropertyOp6
 70
     1
102
RTVSPropertyOp7
 70
     1
102
RTVSPropertyOp8
 70
     1
102
RTVSPropertyOp9
 70
     1
102
RTVSPropertyOp10
 70
     1
102
RTVSPropertyOp11
 70
     1
102
RTVSPropertyOp12
 70
     1
102
RTVSPropertyOp13
 70
     1
102
RTVSPropertyOp14
 70
     1
102
RTVSPropertyOp15
 70
     1
102
RTVSPropertyOp16
 70
     1
102
RTVSPropertyOp17
 70
     1
102
RTVSPropertyOp18
 70
     1
102
RTVSPropertyOp19
 70
     1
102
RTVSPropertyOp20
 70
     1
102
RTVSPropertyOp21
 70
     1
102
RTVSPropertyOp22
 70
     1
102
RTVSPropertyOp23
 70
     1
102
RTVSPropertyOp24
 70
     1
102
RTVSPropertyOp25
 70
     1
102
RTVSPropertyOp26
 70
     1
102
RTVSPropertyOp27
 70
     1
102
RTVSPropertyOp28
 70
     1
102
RTVSPropertyOp29
 70
     1
102
RTVSPropertyOp30
 70
     1
102
RTVSPropertyOp31
 70
     1
102
RTVSPropertyOp32
 70
     1
102
RTVSPropertyOp33
 70
     1
102
RTVSPropertyOp34
 70
     1
102
RTVSPropertyOp35
 70
     1
102
RTVSPropertyOp36
 70
     1
102
RTVSPropertyOp37
 70
     1
102
RTVSPropertyOp38
 70
     1
102
RTVSPropertyOp39
 70
     1
102
RTVSPropertyOp40
 70
     1
102
RTVSPropertyOp41
 70
     1
102
RTVSPropertyOp42
 70
     1
102
RTVSPropertyOp43
 70
     1
102
RTVSPropertyOp44
 70
     1
102
RTVSPropertyOp45
 70
     1
102
RTVSPropertyOp46
 70
     1
102
RTVSPropertyOp47
 70
     1
102
RTVSPropertyOp48
 70
     1
102
RTVSPropertyOp49
 70
     1
102
RTVSPropertyOp50
 70
     1
102
RTVSPropertyOp51
 70
     0
102
RTVSPropertyOp52
 70
     0
102
RTVSPropertyOp53
 70
     1
102
RTVSPropertyOp54
 70
     1
102
RTVSPropertyOp55
 70
     1
102
RTVSPropertyOp56
 70
     1
102
RTVSPropertyOp57
 70
     1
102
RTVSPropertyOp58
 70
     1
102
RTVSPropertyOp59
 70
     1
102
RTVSPropertyOp60
 70
     1
102
RTVSPropertyOp61
 70
     1
102
RTVSPropertyOp62
 70
     1
  0
ENDSEC
  0
EOF
