  0
SECTION
  2
HEADER
  9
$ACADVER
  1
AC1015
  9
$ACADMAINTVER
 70
    20
  9
$DWGCODEPAGE
  3
ANSI_932
  9
$INSBASE
 10
0.0
 20
0.0
 30
0.0
  9
$EXTMIN
 10
9.999999064246592
 20
9.999999806846743
 30
0.0
  9
$EXTMAX
 10
620.1984442656305
 20
421.8736898474253
 30
0.0
  9
$LIMMIN
 10
0.0000015376081137
 20
-0.0000001931532552
  9
$LIMMAX
 10
652.0000015376082
 20
449.4848482916951
  9
$ORTHOMODE
 70
     1
  9
$REGENMODE
 70
     1
  9
$FILLMODE
 70
     1
  9
$QTEXTMODE
 70
     0
  9
$MIRRTEXT
 70
     1
  9
$LTSCALE
 40
1.0
  9
$ATTMODE
 70
     1
  9
$TEXTSIZE
 40
2.5
  9
$TRACEWID
 40
1.0
  9
$TEXTSTYLE
  7
STANDARD
  9
$CLAYER
  8
0
  9
$CELTYPE
  6
BYLAYER
  9
$CECOLOR
 62
   256
  9
$CELTSCALE
 40
1.0
  9
$DISPSILH
 70
     0
  9
$DIMSCALE
 40
1.0
  9
$DIMASZ
 40
3.0
  9
$DIMEXO
 40
1.0
  9
$DIMDLI
 40
10.0
  9
$DIMRND
 40
0.0
  9
$DIMDLE
 40
0.0
  9
$DIMEXE
 40
1.0
  9
$DIMTP
 40
0.0
  9
$DIMTM
 40
0.0
  9
$DIMTXT
 40
3.2
  9
$DIMCEN
 40
0.0
  9
$DIMTSZ
 40
0.0
  9
$DIMTOL
 70
     0
  9
$DIMLIM
 70
     0
  9
$DIMTIH
 70
     0
  9
$DIMTOH
 70
     0
  9
$DIMSE1
 70
     0
  9
$DIMSE2
 70
     0
  9
$DIMTAD
 70
     3
  9
$DIMZIN
 70
     8
  9
$DIMBLK
  1

  9
$DIMASO
 70
     1
  9
$DIMSHO
 70
     1
  9
$DIMPOST
  1

  9
$DIMAPOST
  1

  9
$DIMALT
 70
     0
  9
$DIMALTD
 70
     2
  9
$DIMALTF
 40
25.4
  9
$DIMLFAC
 40
1.0
  9
$DIMTOFL
 70
     1
  9
$DIMTVP
 40
0.0
  9
$DIMTIX
 70
     0
  9
$DIMSOXD
 70
     0
  9
$DIMSAH
 70
     1
  9
$DIMBLK1
  1
OPEN
  9
$DIMBLK2
  1
OPEN
  9
$DIMSTYLE
  2
STANDARD
  9
$DIMCLRD
 70
     0
  9
$DIMCLRE
 70
     0
  9
$DIMCLRT
 70
     0
  9
$DIMTFAC
 40
1.0
  9
$DIMGAP
 40
1.0
  9
$DIMJUST
 70
     0
  9
$DIMSD1
 70
     0
  9
$DIMSD2
 70
     0
  9
$DIMTOLJ
 70
     1
  9
$DIMTZIN
 70
     0
  9
$DIMALTZ
 70
     0
  9
$DIMALTTZ
 70
     0
  9
$DIMUPT
 70
     0
  9
$DIMDEC
 70
     4
  9
$DIMTDEC
 70
     4
  9
$DIMALTU
 70
     2
  9
$DIMALTTD
 70
     2
  9
$DIMTXSTY
  7
STANDARD
  9
$DIMAUNIT
 70
     0
  9
$DIMADEC
 70
     0
  9
$DIMALTRND
 40
0.0
  9
$DIMAZIN
 70
     0
  9
$DIMDSEP
 70
    46
  9
$DIMATFIT
 70
     3
  9
$DIMFRAC
 70
     0
  9
$DIMLDRBLK
  1
OPEN
  9
$DIMLUNIT
 70
     2
  9
$DIMLWD
 70
    -2
  9
$DIMLWE
 70
    -2
  9
$DIMTMOVE
 70
     0
  9
$LUNITS
 70
     2
  9
$LUPREC
 70
     4
  9
$SKETCHINC
 40
1.0
  9
$FILLETRAD
 40
10.0
  9
$AUNITS
 70
     0
  9
$AUPREC
 70
     0
  9
$MENU
  1
.
  9
$ELEVATION
 40
0.0
  9
$PELEVATION
 40
0.0
  9
$THICKNESS
 40
0.0
  9
$LIMCHECK
 70
     0
  9
$CHAMFERA
 40
10.0
  9
$CHAMFERB
 40
10.0
  9
$CHAMFERC
 40
20.0
  9
$CHAMFERD
 40
0.0
  9
$SKPOLY
 70
     0
  9
$TDCREATE
 40
2456443.698264201
  9
$TDUCREATE
 40
2456443.323264201
  9
$TDUPDATE
 40
2457192.617012835
  9
$TDUUPDATE
 40
2457192.242012836
  9
$TDINDWG
 40
0.0124567708
  9
$TDUSRTIMER
 40
0.0124567477
  9
$USRTIMER
 70
     1
  9
$ANGBASE
 50
0.0
  9
$ANGDIR
 70
     0
  9
$PDMODE
 70
     0
  9
$PDSIZE
 40
0.0
  9
$PLINEWID
 40
0.0
  9
$SPLFRAME
 70
     0
  9
$SPLINETYPE
 70
     6
  9
$SPLINESEGS
 70
     8
  9
$HANDSEED
  5
25E2
  9
$SURFTAB1
 70
     6
  9
$SURFTAB2
 70
     6
  9
$SURFTYPE
 70
     6
  9
$SURFU
 70
     6
  9
$SURFV
 70
     6
  9
$UCSBASE
  2

  9
$UCSNAME
  2

  9
$UCSORG
 10
0.0
 20
0.0
 30
0.0
  9
$UCSXDIR
 10
1.0
 20
0.0
 30
0.0
  9
$UCSYDIR
 10
0.0
 20
1.0
 30
0.0
  9
$UCSORTHOREF
  2

  9
$UCSORTHOVIEW
 70
     0
  9
$UCSORGTOP
 10
0.0
 20
0.0
 30
0.0
  9
$UCSORGBOTTOM
 10
0.0
 20
0.0
 30
0.0
  9
$UCSORGLEFT
 10
0.0
 20
0.0
 30
0.0
  9
$UCSORGRIGHT
 10
0.0
 20
0.0
 30
0.0
  9
$UCSORGFRONT
 10
0.0
 20
0.0
 30
0.0
  9
$UCSORGBACK
 10
0.0
 20
0.0
 30
0.0
  9
$PUCSBASE
  2

  9
$PUCSNAME
  2

  9
$PUCSORG
 10
0.0
 20
0.0
 30
0.0
  9
$PUCSXDIR
 10
1.0
 20
0.0
 30
0.0
  9
$PUCSYDIR
 10
0.0
 20
1.0
 30
0.0
  9
$PUCSORTHOREF
  2

  9
$PUCSORTHOVIEW
 70
     0
  9
$PUCSORGTOP
 10
0.0
 20
0.0
 30
0.0
  9
$PUCSORGBOTTOM
 10
0.0
 20
0.0
 30
0.0
  9
$PUCSORGLEFT
 10
0.0
 20
0.0
 30
0.0
  9
$PUCSORGRIGHT
 10
0.0
 20
0.0
 30
0.0
  9
$PUCSORGFRONT
 10
0.0
 20
0.0
 30
0.0
  9
$PUCSORGBACK
 10
0.0
 20
0.0
 30
0.0
  9
$USERI1
 70
     0
  9
$USERI2
 70
     0
  9
$USERI3
 70
     0
  9
$USERI4
 70
     0
  9
$USERI5
 70
     0
  9
$USERR1
 40
0.0
  9
$USERR2
 40
0.0
  9
$USERR3
 40
0.0
  9
$USERR4
 40
0.0
  9
$USERR5
 40
0.0
  9
$WORLDVIEW
 70
     1
  9
$SHADEDGE
 70
     3
  9
$SHADEDIF
 70
    70
  9
$TILEMODE
 70
     1
  9
$MAXACTVP
 70
    48
  9
$PINSBASE
 10
0.0
 20
0.0
 30
0.0
  9
$PLIMCHECK
 70
     0
  9
$PEXTMIN
 10
1.000000000000000E+20
 20
1.000000000000000E+20
 30
1.000000000000000E+20
  9
$PEXTMAX
 10
-1.000000000000000E+20
 20
-1.000000000000000E+20
 30
-1.000000000000000E+20
  9
$PLIMMIN
 10
0.0
 20
0.0
  9
$PLIMMAX
 10
420.0
 20
297.0
  9
$UNITMODE
 70
     0
  9
$VISRETAIN
 70
     1
  9
$PLINEGEN
 70
     0
  9
$PSLTSCALE
 70
     1
  9
$TREEDEPTH
 70
  3020
  9
$CMLSTYLE
  2
STANDARD
  9
$CMLJUST
 70
     0
  9
$CMLSCALE
 40
20.0
  9
$PROXYGRAPHICS
 70
     1
  9
$MEASUREMENT
 70
     0
  9
$CELWEIGHT
370
    -1
  9
$ENDCAPS
280
     0
  9
$JOINSTYLE
280
     0
  9
$LWDISPLAY
290
     0
  9
$INSUNITS
 70
     0
  9
$HYPERLINKBASE
  1

  9
$STYLESHEET
  1

  9
$XEDIT
290
     1
  9
$CEPSNTYPE
380
     0
  9
$PSTYLEMODE
290
     1
  9
$FINGERPRINTGUID
  2
{860F9E3E-DC19-44A6-80F9-2B7044EEACBA}
  9
$VERSIONGUID
  2
{919BDF04-1A34-48DE-B306-457C24794DC6}
  9
$EXTNAMES
290
     1
  9
$PSVPSCALE
 40
0.0
  9
$OLESTARTUP
290
     0
  0
ENDSEC
  0
SECTION
  2
CLASSES
  0
CLASS
  1
ACDBDICTIONARYWDFLT
  2
AcDbDictionaryWithDefault
  3
ObjectDBX Classes
 90
        0
280
     0
281
     0
  0
CLASS
  1
ACDBPLACEHOLDER
  2
AcDbPlaceHolder
  3
ObjectDBX Classes
 90
        0
280
     0
281
     0
  0
CLASS
  1
LAYOUT
  2
AcDbLayout
  3
ObjectDBX Classes
 90
        0
280
     0
281
     0
  0
CLASS
  1
MATERIAL
  2
AcDbMaterial
  3
ObjectDBX Classes
 90
     1153
280
     0
281
     0
  0
CLASS
  1
VISUALSTYLE
  2
AcDbVisualStyle
  3
ObjectDBX Classes
 90
     4095
280
     0
281
     0
  0
CLASS
  1
TABLESTYLE
  2
AcDbTableStyle
  3
ObjectDBX Classes
 90
     4095
280
     0
281
     0
  0
CLASS
  1
SCALE
  2
AcDbScale
  3
ObjectDBX Classes
 90
     1153
280
     0
281
     0
  0
CLASS
  1
MLEADERSTYLE
  2
AcDbMLeaderStyle
  3
ACDB_MLEADERSTYLE_CLASS
 90
     4095
280
     0
281
     0
  0
CLASS
  1
ACDBSECTIONVIEWSTYLE
  2
AcDbSectionViewStyle
  3
ObjectDBX Classes
 90
     1025
280
     0
281
     0
  0
CLASS
  1
ACDBDETAILVIEWSTYLE
  2
AcDbDetailViewStyle
  3
ObjectDBX Classes
 90
     1025
280
     0
281
     0
  0
CLASS
  1
DICTIONARYVAR
  2
AcDbDictionaryVar
  3
ObjectDBX Classes
 90
        0
280
     0
281
     0
  0
CLASS
  1
CELLSTYLEMAP
  2
AcDbCellStyleMap
  3
ObjectDBX Classes
 90
     1152
280
     0
281
     0
  0
ENDSEC
  0
SECTION
  2
TABLES
  0
TABLE
  2
VPORT
  5
8
330
0
100
AcDbSymbolTable
 70
     1
  0
VPORT
  5
252C
330
8
100
AcDbSymbolTableRecord
100
AcDbViewportTableRecord
  2
*ACTIVE
 70
     0
 10
0.0
 20
0.0
 11
1.0
 21
1.0
 12
509.7941313858644
 22
219.1937725006673
 13
0.0
 23
0.0
 14
10.0
 24
10.0
 15
10.0
 25
10.0
 16
0.0
 26
0.0
 36
1.0
 17
0.0
 27
0.0
 37
0.0
 40
460.8096104480425
 41
1.899603698811096
 42
50.0
 43
0.0
 44
0.0
 50
0.0
 51
0.0
 71
     0
 72
   100
 73
     1
 74
     0
 75
     0
 76
     0
 77
     0
 78
     0
281
     0
 65
     1
110
0.0
120
0.0
130
0.0
111
1.0
121
0.0
131
0.0
112
0.0
122
1.0
132
0.0
 79
     0
146
0.0
1001
ACAD_NAV_VCDISPLAY
1070
     3
  0
ENDTAB
  0
TABLE
  2
LTYPE
  5
5
330
0
100
AcDbSymbolTable
 70
     4
  0
LTYPE
  5
12
330
5
100
AcDbSymbolTableRecord
100
AcDbLinetypeTableRecord
  2
BYBLOCK
 70
     0
  3

 72
    65
 73
     0
 40
0.0
  0
LTYPE
  5
13
330
5
100
AcDbSymbolTableRecord
100
AcDbLinetypeTableRecord
  2
BYLAYER
 70
     0
  3

 72
    65
 73
     0
 40
0.0
  0
LTYPE
  5
14
330
5
100
AcDbSymbolTableRecord
100
AcDbLinetypeTableRecord
  2
CONTINUOUS
 70
     0
  3
Solid line
 72
    65
 73
     0
 40
0.0
  0
LTYPE
  5
4B
330
5
100
AcDbSymbolTableRecord
100
AcDbLinetypeTableRecord
  2
DASHED
 70
     0
  3
Dashed __ __ __ __ __ __ __ __ __ __ __ __ __ _
 72
    65
 73
     2
 40
19.04999999999999
 49
12.7
 74
     0
 49
-6.349999999999998
 74
     0
  0
LTYPE
  5
4C
330
5
100
AcDbSymbolTableRecord
100
AcDbLinetypeTableRecord
  2
CENTER
 70
     0
  3
Center ____ _ ____ _ ____ _ ____ _ ____ _ ____
 72
    65
 73
     4
 40
50.8
 49
31.75
 74
     0
 49
-6.349999999999998
 74
     0
 49
6.349999999999998
 74
     0
 49
-6.349999999999998
 74
     0
  0
LTYPE
  5
4D
330
5
100
AcDbSymbolTableRecord
100
AcDbLinetypeTableRecord
  2
PHANTOM
 70
     0
  3
Phantom ______  __  __  ______  __  __  ______
 72
    65
 73
     6
 40
63.5
 49
31.75
 74
     0
 49
-6.349999999999998
 74
     0
 49
6.349999999999998
 74
     0
 49
-6.349999999999998
 74
     0
 49
6.349999999999998
 74
     0
 49
-6.349999999999998
 74
     0
  0
ENDTAB
  0
TABLE
  2
LAYER
  5
2
330
0
100
AcDbSymbolTable
 70
     8
  0
LAYER
  5
E
102
{ACAD_XDICTIONARY
360
2586
102
}
330
2
100
AcDbSymbolTableRecord
100
AcDbLayerTableRecord
  2
0
 70
     0
 62
     7
  6
CONTINUOUS
370
    -3
390
2535
  0
LAYER
  5
4E
102
{ACAD_XDICTIONARY
360
2588
102
}
330
2
100
AcDbSymbolTableRecord
100
AcDbLayerTableRecord
  2
4
 70
     0
 62
     1
  6
CENTER
370
    -3
390
2535
  0
LAYER
  5
4F
102
{ACAD_XDICTIONARY
360
258A
102
}
330
2
100
AcDbSymbolTableRecord
100
AcDbLayerTableRecord
  2
5
 70
     0
 62
     6
  6
PHANTOM
370
    -3
390
2535
  0
LAYER
  5
50
102
{ACAD_XDICTIONARY
360
258C
102
}
330
2
100
AcDbSymbolTableRecord
100
AcDbLayerTableRecord
  2
1
 70
     0
 62
     7
  6
CONTINUOUS
370
    -3
390
2535
  0
LAYER
  5
51
102
{ACAD_XDICTIONARY
360
258E
102
}
330
2
100
AcDbSymbolTableRecord
100
AcDbLayerTableRecord
  2
2
 70
     0
 62
     4
  6
CONTINUOUS
370
    -3
390
2535
  0
LAYER
  5
52
102
{ACAD_XDICTIONARY
360
2590
102
}
330
2
100
AcDbSymbolTableRecord
100
AcDbLayerTableRecord
  2
3
 70
     0
 62
     2
  6
DASHED
370
    -3
390
2535
  0
LAYER
  5
53
102
{ACAD_XDICTIONARY
360
2592
102
}
330
2
100
AcDbSymbolTableRecord
100
AcDbLayerTableRecord
  2
6
 70
     0
 62
     5
  6
CONTINUOUS
370
    -3
390
2535
  0
LAYER
  5
54
102
{ACAD_XDICTIONARY
360
2594
102
}
330
2
100
AcDbSymbolTableRecord
100
AcDbLayerTableRecord
  2
7
 70
     0
 62
     3
  6
CONTINUOUS
370
    -3
390
2535
  0
ENDTAB
  0
TABLE
  2
STYLE
  5
3
330
0
100
AcDbSymbolTable
 70
     1
  0
STYLE
  5
F
330
3
100
AcDbSymbolTableRecord
100
AcDbTextStyleTableRecord
  2
STANDARD
 70
     0
 40
0.0
 41
1.0
 50
0.0
 71
     0
 42
2.5
  3
simplex.shx
  4

  0
ENDTAB
  0
TABLE
  2
VIEW
  5
6
330
0
100
AcDbSymbolTable
 70
     0
  0
ENDTAB
  0
TABLE
  2
UCS
  5
7
330
0
100
AcDbSymbolTable
 70
     0
  0
ENDTAB
  0
TABLE
  2
APPID
  5
9
330
0
100
AcDbSymbolTable
 70
     7
  0
APPID
  5
10
330
9
100
AcDbSymbolTableRecord
100
AcDbRegAppTableRecord
  2
ACAD
 70
     0
  0
APPID
  5
3E
330
9
100
AcDbSymbolTableRecord
100
AcDbRegAppTableRecord
  2
CONTENTTABDATA
 70
     0
  0
APPID
  5
3F
330
9
100
AcDbSymbolTableRecord
100
AcDbRegAppTableRecord
  2
CONTENTCURRENTTAB
 70
     0
  0
APPID
  5
1BF9
330
9
100
AcDbSymbolTableRecord
100
AcDbRegAppTableRecord
  2
CONTENTBLOCKICON
 70
     0
  0
APPID
  5
1BFA
330
9
100
AcDbSymbolTableRecord
100
AcDbRegAppTableRecord
  2
CONTENTBLOCKDESCRIPTION
 70
     0
  0
APPID
  5
25A0
330
9
100
AcDbSymbolTableRecord
100
AcDbRegAppTableRecord
  2
ACAD_NAV_VCDISPLAY
 70
     0
  0
APPID
  5
25D9
330
9
100
AcDbSymbolTableRecord
100
AcDbRegAppTableRecord
  2
ACAD_MLEADERVER
 70
     0
  0
ENDTAB
  0
TABLE
  2
DIMSTYLE
  5
A
330
0
100
AcDbSymbolTable
 70
     1
100
AcDbDimStyleTable
 71
     0
  0
DIMSTYLE
105
1D
330
A
100
AcDbSymbolTableRecord
100
AcDbDimStyleTableRecord
  2
STANDARD
 70
     0
 41
3.0
 42
1.0
 43
10.0
 44
1.0
 73
     0
 74
     0
 77
     3
 78
     8
140
3.2
141
0.0
147
1.0
172
     1
173
     1
340
F
341
2E
343
2E
344
2E
  0
ENDTAB
  0
TABLE
  2
BLOCK_RECORD
  5
1
330
0
100
AcDbSymbolTable
 70
     1
  0
BLOCK_RECORD
  5
18
102
{ACAD_XDICTIONARY
360
252F
102
}
330
1
100
AcDbSymbolTableRecord
100
AcDbBlockTableRecord
  2
*MODEL_SPACE
340
2583
  0
BLOCK_RECORD
  5
15
102
{ACAD_XDICTIONARY
360
252D
102
}
330
1
100
AcDbSymbolTableRecord
100
AcDbBlockTableRecord
  2
*PAPER_SPACE
340
2584
  0
BLOCK_RECORD
  5
2E
330
1
100
AcDbSymbolTableRecord
100
AcDbBlockTableRecord
  2
_OPEN
340
0
  0
ENDTAB
  0
ENDSEC
  0
SECTION
  2
BLOCKS
  0
BLOCK
  5
19
330
18
100
AcDbEntity
  8
0
100
AcDbBlockBegin
  2
*MODEL_SPACE
 70
     0
 10
0.0
 20
0.0
 30
0.0
  3
*MODEL_SPACE
  1

  0
ENDBLK
  5
1A
330
18
100
AcDbEntity
  8
0
100
AcDbBlockEnd
  0
BLOCK
  5
16
330
15
100
AcDbEntity
 67
     1
  8
0
100
AcDbBlockBegin
  2
*PAPER_SPACE
 70
     0
 10
0.0
 20
0.0
 30
0.0
  3
*PAPER_SPACE
  1

  0
ENDBLK
  5
17
330
15
100
AcDbEntity
 67
     1
  8
0
100
AcDbBlockEnd
  0
BLOCK
  5
2F
330
2E
100
AcDbEntity
  8
0
100
AcDbBlockBegin
  2
_OPEN
 70
     0
 10
0.0
 20
0.0
 30
0.0
  3
_OPEN
  1

  0
LINE
  5
30
330
2E
100
AcDbEntity
  8
0
  6
ByBlock
 62
     0
100
AcDbLine
 10
-1.0
 20
0.1666666666666666
 30
0.0
 11
0.0
 21
0.0
 31
0.0
  0
LINE
  5
31
330
2E
100
AcDbEntity
  8
0
  6
ByBlock
 62
     0
100
AcDbLine
 10
0.0
 20
0.0
 30
0.0
 11
-1.0
 21
-0.1666666666666666
 31
0.0
  0
LINE
  5
32
330
2E
100
AcDbEntity
  8
0
  6
ByBlock
 62
     0
100
AcDbLine
 10
0.0
 20
0.0
 30
0.0
 11
-1.0
 21
0.0
 31
0.0
  0
ENDBLK
  5
33
330
2E
100
AcDbEntity
  8
0
100
AcDbBlockEnd
  0
ENDSEC
  0
SECTION
  2
ENTITIES
  0
LINE
  5
9A8
330
18
100
AcDbEntity
  8
1
  6
Continuous
100
AcDbLine
 10
167.6984442656261
 20
366.8736898474258
 30
0.0
 11
167.698444265626
 21
391.8736898474259
 31
0.0
  0
LINE
  5
9A9
330
18
100
AcDbEntity
  8
1
  6
Continuous
100
AcDbLine
 10
165.6984442656259
 20
366.8736898474258
 30
0.0
 11
165.698444265626
 21
391.8736898474259
 31
0.0
  0
LINE
  5
9AC
330
18
100
AcDbEntity
  8
1
  6
Continuous
100
AcDbLine
 10
178.1984442656259
 20
336.8736898474255
 30
0.0
 11
178.1984442656259
 21
421.8736898474253
 31
0.0
  0
LINE
  5
9AD
330
18
100
AcDbEntity
  8
1
  6
Continuous
100
AcDbLine
 10
176.1984442656259
 20
336.8736898474255
 30
0.0
 11
176.1984442656259
 21
421.8736898474253
 31
0.0
  0
LINE
  5
9AE
330
18
100
AcDbEntity
  8
1
  6
Continuous
100
AcDbLine
 10
173.6984442656259
 20
366.8736898474258
 30
0.0
 11
173.698444265626
 21
391.8736898474259
 31
0.0
  0
TEXT
  5
9BB
330
18
100
AcDbEntity
  8
7
  6
Continuous
 48
0.25
100
AcDbText
 10
9.999999064246594
 20
18.00000056761564
 30
0.0
 40
3.0
  1
TYPE No.TH-168-2
100
AcDbText
  0
TEXT
  5
9BC
330
18
100
AcDbEntity
  8
7
  6
Continuous
 48
0.25
100
AcDbText
 10
9.999999064246594
 20
26.00000056761564
 30
0.0
 40
3.0
  1
CODE No.2875
100
AcDbText
  0
TEXT
  5
9BD
330
18
100
AcDbEntity
  8
4
  6
CENTER
 48
0.25
100
AcDbText
 10
23.97951006424665
 20
9.999999806846743
 30
0.0
 40
1.399999999999999
  1
4
100
AcDbText
  0
TEXT
  5
9BE
330
18
100
AcDbEntity
  8
1
  6
Continuous
 48
0.25
100
AcDbText
 10
9.999999064246594
 20
10.00000056761564
 30
0.0
 40
1.399999999999999
  1
LAYER
100
AcDbText
  0
TEXT
  5
9BF
330
18
100
AcDbEntity
  8
1
  6
Continuous
 48
0.25
100
AcDbText
 10
17.97951006424664
 20
9.999999806846743
 30
0.0
 40
1.399999999999999
  1
1
100
AcDbText
  0
TEXT
  5
9C0
330
18
100
AcDbEntity
  8
3
  6
DASHED
 48
0.25
100
AcDbText
 10
21.97951006424665
 20
9.999999806846743
 30
0.0
 40
1.399999999999999
  1
3
100
AcDbText
  0
TEXT
  5
9C1
330
18
100
AcDbEntity
  8
2
  6
Continuous
 48
0.25
100
AcDbText
 10
19.97951006424665
 20
9.999999806846743
 30
0.0
 40
1.399999999999999
  1
2
100
AcDbText
  0
TEXT
  5
9C2
330
18
100
AcDbEntity
  8
7
  6
Continuous
 48
0.25
100
AcDbText
 10
29.97951006424665
 20
9.999999806846743
 30
0.0
 40
1.399999999999999
  1
7
100
AcDbText
  0
TEXT
  5
9C3
330
18
100
AcDbEntity
  8
6
  6
Continuous
 48
0.25
100
AcDbText
 10
27.97951006424665
 20
9.999999806846743
 30
0.0
 40
1.399999999999999
  1
6
100
AcDbText
  0
TEXT
  5
9C4
330
18
100
AcDbEntity
  8
5
  6
PHANTOM
 48
0.25
100
AcDbText
 10
25.97951006424665
 20
9.999999806846743
 30
0.0
 40
1.399999999999999
  1
5
100
AcDbText
  0
ARC
  5
9C8
330
18
100
AcDbEntity
  8
1
  6
Continuous
100
AcDbCircle
 10
26.69844426562594
 20
222.8736898474581
 30
0.0
 40
6.0
100
AcDbArc
 50
180.0
 51
270.0
  0
ARC
  5
9C9
330
18
100
AcDbEntity
  8
1
  6
Continuous
100
AcDbCircle
 10
26.69844426562594
 20
235.8736898474579
 30
0.0
 40
6.0
100
AcDbArc
 50
90.0
 51
180.0
  0
LINE
  5
9CA
330
18
100
AcDbEntity
  8
4
  6
CENTER
 48
0.3
100
AcDbLine
 10
19.19844426562593
 20
229.3736898474579
 30
0.0
 11
107.1984442656259
 21
229.3736898474579
 31
0.0
  0
LINE
  5
9CB
330
18
100
AcDbEntity
  8
1
  6
Continuous
100
AcDbLine
 10
20.69844426562593
 20
222.8736898474581
 30
0.0
 11
20.69844426562593
 21
235.8736898474579
 31
0.0
  0
LINE
  5
9D2
330
18
100
AcDbEntity
  8
1
  6
Continuous
100
AcDbLine
 10
50.69844426562344
 20
192.8736898474578
 30
0.0
 11
50.69844426562344
 21
265.8736898474579
 31
0.0
  0
LINE
  5
9D3
330
18
100
AcDbEntity
  8
1
  6
Continuous
100
AcDbLine
 10
75.69844426562344
 20
192.8736898474578
 30
0.0
 11
75.69844426562344
 21
265.8736898474579
 31
0.0
  0
LINE
  5
9D4
330
18
100
AcDbEntity
  8
4
  6
CENTER
 48
0.3
100
AcDbLine
 10
63.19844426562365
 20
185.3736898474578
 30
0.0
 11
63.19844426562365
 21
273.3736898474579
 31
0.0
  0
LINE
  5
9D7
330
18
100
AcDbEntity
  8
1
  6
Continuous
100
AcDbLine
 10
75.69844426562593
 20
241.8736898474579
 30
0.0
 11
99.69844426562595
 21
241.8736898474579
 31
0.0
  0
LINE
  5
9D8
330
18
100
AcDbEntity
  8
1
  6
Continuous
100
AcDbLine
 10
99.69844426562595
 20
216.8736898474579
 30
0.0
 11
75.69844426562593
 21
216.8736898474579
 31
0.0
  0
CIRCLE
  5
9D9
330
18
100
AcDbEntity
  8
1
  6
Continuous
100
AcDbCircle
 10
87.19844426562593
 20
229.3736898474579
 30
0.0
 40
2.25
  0
ARC
  5
9DE
330
18
100
AcDbEntity
  8
1
  6
Continuous
100
AcDbCircle
 10
63.19844426562344
 20
193.3736898474578
 30
0.0
 40
2.25
100
AcDbArc
 50
180.0
 51
0.0
  0
ARC
  5
9DF
330
18
100
AcDbEntity
  8
1
  6
Continuous
100
AcDbCircle
 10
56.69844426562343
 20
192.8736898474578
 30
0.0
 40
6.0
100
AcDbArc
 50
180.0
 51
270.0
  0
ARC
  5
9E0
330
18
100
AcDbEntity
  8
1
  6
Continuous
100
AcDbCircle
 10
69.69844426562342
 20
192.8736898474578
 30
0.0
 40
6.0
100
AcDbArc
 50
270.0
 51
0.0
  0
LINE
  5
9E1
330
18
100
AcDbEntity
  8
1
  6
Continuous
100
AcDbLine
 10
69.69844426562342
 20
186.8736898474578
 30
0.0
 11
56.69844426562343
 21
186.8736898474578
 31
0.0
  0
LINE
  5
9E2
330
18
100
AcDbEntity
  8
1
  6
Continuous
100
AcDbLine
 10
75.69844426562411
 20
220.3736898474579
 30
0.0
 11
50.69844426562411
 21
220.3736898474579
 31
0.0
  0
LINE
  5
9E3
330
18
100
AcDbEntity
  8
1
  6
Continuous
100
AcDbLine
 10
50.69844426562411
 20
238.3736898474579
 30
0.0
 11
56.69844426562367
 21
238.3736898474579
 31
0.0
  0
LINE
  5
9E5
330
18
100
AcDbEntity
  8
1
  6
Continuous
100
AcDbLine
 10
50.69844426562593
 20
216.8736898474579
 30
0.0
 11
26.69844426562594
 21
216.8736898474579
 31
0.0
  0
LINE
  5
9E6
330
18
100
AcDbEntity
  8
1
  6
Continuous
100
AcDbLine
 10
26.69844426562594
 20
241.8736898474579
 30
0.0
 11
50.69844426562593
 21
241.8736898474579
 31
0.0
  0
CIRCLE
  5
9E7
330
18
100
AcDbEntity
  8
1
  6
Continuous
100
AcDbCircle
 10
39.19844426562594
 20
229.3736898474579
 30
0.0
 40
2.25
  0
CIRCLE
  5
9E8
330
18
100
AcDbEntity
  8
1
  6
Continuous
100
AcDbCircle
 10
28.19844426562593
 20
229.3736898474579
 30
0.0
 40
2.25
  0
LINE
  5
9E9
330
18
100
AcDbEntity
  8
4
  6
CENTER
 48
0.25
100
AcDbLine
 10
28.19844426562593
 20
233.1236898474579
 30
0.0
 11
28.19844426562593
 21
225.6236898474579
 31
0.0
  0
LINE
  5
9EA
330
18
100
AcDbEntity
  8
4
  6
CENTER
 48
0.25
100
AcDbLine
 10
39.19844426562594
 20
233.1236898474579
 30
0.0
 11
39.19844426562594
 21
225.6236898474579
 31
0.0
  0
LINE
  5
9EB
330
18
100
AcDbEntity
  8
1
  6
Continuous
100
AcDbLine
 10
65.44844426562342
 20
206.3736898474578
 30
0.0
 11
65.44844426562342
 21
204.3736898474578
 31
0.0
  0
LINE
  5
9EC
330
18
100
AcDbEntity
  8
1
  6
Continuous
100
AcDbLine
 10
60.94844426562342
 20
204.3736898474578
 30
0.0
 11
60.94844426562342
 21
206.3736898474578
 31
0.0
  0
ARC
  5
9ED
330
18
100
AcDbEntity
  8
1
  6
Continuous
100
AcDbCircle
 10
63.19844426562344
 20
204.3736898474578
 30
0.0
 40
2.25
100
AcDbArc
 50
180.0
 51
0.0
  0
ARC
  5
9EE
330
18
100
AcDbEntity
  8
1
  6
Continuous
100
AcDbCircle
 10
63.19844426562344
 20
195.3736898474578
 30
0.0
 40
2.25
100
AcDbArc
 50
0.0
 51
180.0
  0
LINE
  5
9EF
330
18
100
AcDbEntity
  8
4
  6
CENTER
 48
0.25
100
AcDbLine
 10
59.44844426562241
 20
194.3736898476823
 30
0.0
 11
66.9484442656224
 21
194.3736898476739
 31
0.0
  0
LINE
  5
9F0
330
18
100
AcDbEntity
  8
4
  6
CENTER
 48
0.25
100
AcDbLine
 10
59.44844426562241
 20
205.3736898476823
 30
0.0
 11
66.9484442656224
 21
205.3736898476739
 31
0.0
  0
LINE
  5
9F1
330
18
100
AcDbEntity
  8
1
  6
Continuous
100
AcDbLine
 10
60.94844426562342
 20
193.3736898474578
 30
0.0
 11
60.94844426562342
 21
195.3736898474578
 31
0.0
  0
LINE
  5
9F2
330
18
100
AcDbEntity
  8
1
  6
Continuous
100
AcDbLine
 10
65.44844426562342
 20
195.3736898474578
 30
0.0
 11
65.44844426562342
 21
193.3736898474578
 31
0.0
  0
ARC
  5
9F3
330
18
100
AcDbEntity
  8
1
  6
Continuous
100
AcDbCircle
 10
63.19844426562344
 20
206.3736898474578
 30
0.0
 40
2.25
100
AcDbArc
 50
0.0
 51
180.0
  0
LINE
  5
9F4
330
18
100
AcDbEntity
  8
1
  6
Continuous
100
AcDbLine
 10
69.69844426562365
 20
238.3736898474579
 30
0.0
 11
75.69844426562411
 21
238.3736898474579
 31
0.0
  0
LINE
  5
9F5
330
18
100
AcDbEntity
  8
1
  6
Continuous
100
AcDbLine
 10
57.19844426562366
 20
224.8936898472368
 30
0.0
 11
57.19844426562366
 21
243.6965655027695
 31
0.0
  0
LINE
  5
9F6
330
18
100
AcDbEntity
  8
1
  6
Continuous
100
AcDbLine
 10
69.19844426562367
 20
224.8936898472368
 30
0.0
 11
69.19844426562367
 21
243.6965655027695
 31
0.0
  0
ARC
  5
9F7
330
18
100
AcDbEntity
  8
1
  6
Continuous
100
AcDbCircle
 10
68.69844426562365
 20
235.9510401164271
 30
0.0
 40
1.0
100
AcDbArc
 50
299.9999999999662
 51
0.0
  0
ARC
  5
9F8
330
18
100
AcDbEntity
  8
1
  6
Continuous
100
AcDbCircle
 10
57.69844426562365
 20
235.951040116427
 30
0.0
 40
1.0
100
AcDbArc
 50
180.0
 51
240.0000000000338
  0
CIRCLE
  5
9F9
330
18
100
AcDbEntity
  8
1
  6
Continuous
100
AcDbCircle
 10
63.19844426562365
 20
229.3736898474579
 30
0.0
 40
5.0
  0
CIRCLE
  5
9FA
330
18
100
AcDbEntity
  8
1
  6
Continuous
100
AcDbCircle
 10
63.19844426562365
 20
229.3736898474579
 30
0.0
 40
4.7
  0
LINE
  5
9FB
330
18
100
AcDbEntity
  8
1
  6
Continuous
100
AcDbLine
 10
60.23844426562362
 20
224.8936898472369
 30
0.0
 11
60.23844426562362
 21
225.3440000330925
 31
0.0
  0
ARC
  5
9FC
330
18
100
AcDbEntity
  8
1
  6
Continuous
100
AcDbCircle
 10
58.71844426562365
 20
224.8936898472368
 30
0.0
 40
1.51999999999998
100
AcDbArc
 50
180.0
 51
0.0
  0
LINE
  5
9FD
330
18
100
AcDbEntity
  8
1
  6
Continuous
100
AcDbLine
 10
66.15844426562357
 20
224.8936898472369
 30
0.0
 11
66.15844426562357
 21
225.3440000330925
 31
0.0
  0
ARC
  5
9FE
330
18
100
AcDbEntity
  8
1
  6
Continuous
100
AcDbCircle
 10
67.67844426562368
 20
224.8936898472368
 30
0.0
 40
1.519999999999995
100
AcDbArc
 50
180.0
 51
0.0
  0
LINE
  5
9FF
330
18
100
AcDbEntity
  8
1
  6
Continuous
100
AcDbLine
 10
68.19844426562365
 20
241.8736898472369
 30
0.0
 11
58.19844426562365
 21
241.8736898472369
 31
0.0
  0
LINE
  5
A00
330
18
100
AcDbEntity
  8
1
  6
Continuous
100
AcDbLine
 10
68.19844426562365
 20
238.8736898472366
 30
0.0
 11
58.19844426562365
 21
238.8736898472366
 31
0.0
  0
LINE
  5
A01
330
18
100
AcDbEntity
  8
1
  6
Continuous
100
AcDbLine
 10
58.69844426562366
 20
244.373689847237
 30
0.0
 11
67.69844426562364
 21
244.373689847237
 31
0.0
  0
LINE
  5
A02
330
18
100
AcDbEntity
  8
1
  6
Continuous
100
AcDbLine
 10
56.69844426562367
 20
242.373689847237
 30
0.0
 11
56.69844426562367
 21
235.951040116427
 31
0.0
  0
ARC
  5
A03
330
18
100
AcDbEntity
  8
1
  6
Continuous
100
AcDbCircle
 10
58.69844426562366
 20
242.3736898472371
 30
0.0
 40
2.0
100
AcDbArc
 50
90.0
 51
180.0
  0
LINE
  5
A04
330
18
100
AcDbEntity
  8
1
  6
Continuous
100
AcDbLine
 10
56.69844426562367
 20
241.8736898474579
 30
0.0
 11
57.19844426562366
 21
241.8736898474579
 31
0.0
  0
ARC
  5
A05
330
18
100
AcDbEntity
  8
1
  6
Continuous
100
AcDbCircle
 10
63.19844426562503
 20
229.3736898474582
 30
0.0
 40
9.149999999999492
100
AcDbArc
 50
130.9756103426101
 51
135.1917434095875
  0
LINE
  5
A06
330
18
100
AcDbEntity
  8
1
  6
Continuous
100
AcDbLine
 10
69.69844426562365
 20
242.373689847237
 30
0.0
 11
69.69844426562365
 21
235.951040116427
 31
0.0
  0
ARC
  5
A07
330
18
100
AcDbEntity
  8
1
  6
Continuous
100
AcDbCircle
 10
67.69844426562364
 20
242.3736898472371
 30
0.0
 40
2.0
100
AcDbArc
 50
0.0
 51
90.0
  0
LINE
  5
A08
330
18
100
AcDbEntity
  8
1
  6
Continuous
100
AcDbLine
 10
69.19844426562367
 20
241.8736898474579
 30
0.0
 11
69.69844426562365
 21
241.8736898474579
 31
0.0
  0
ARC
  5
A09
330
18
100
AcDbEntity
  8
1
  6
Continuous
100
AcDbCircle
 10
63.19844426562503
 20
229.3736898474582
 30
0.0
 40
9.149999999999492
100
AcDbArc
 50
44.8082565904321
 51
49.02438965741407
  0
ARC
  5
A0A
330
18
100
AcDbEntity
  8
1
  6
Continuous
100
AcDbCircle
 10
99.69844426562595
 20
222.8736898474579
 30
0.0
 40
6.0
100
AcDbArc
 50
270.0
 51
0.0
  0
ARC
  5
A0B
330
18
100
AcDbEntity
  8
1
  6
Continuous
100
AcDbCircle
 10
99.69844426562595
 20
235.8736898474579
 30
0.0
 40
6.0
100
AcDbArc
 50
0.0
 51
90.0
  0
LINE
  5
A0C
330
18
100
AcDbEntity
  8
4
  6
CENTER
 48
0.25
100
AcDbLine
 10
87.19844426562593
 20
233.1236898474579
 30
0.0
 11
87.19844426562593
 21
225.6236898474579
 31
0.0
  0
CIRCLE
  5
A0D
330
18
100
AcDbEntity
  8
1
  6
Continuous
100
AcDbCircle
 10
98.19844426562594
 20
229.3736898474579
 30
0.0
 40
2.25
  0
LINE
  5
A0E
330
18
100
AcDbEntity
  8
4
  6
CENTER
 48
0.25
100
AcDbLine
 10
98.19844426562594
 20
233.1236898474579
 30
0.0
 11
98.19844426562594
 21
225.6236898474579
 31
0.0
  0
LINE
  5
A0F
330
18
100
AcDbEntity
  8
1
  6
Continuous
100
AcDbLine
 10
105.6984442656261
 20
235.8736898474579
 30
0.0
 11
105.6984442656261
 21
222.8736898474579
 31
0.0
  0
ARC
  5
A11
330
18
100
AcDbEntity
  8
1
  6
Continuous
100
AcDbCircle
 10
56.69844426562343
 20
265.8736898474579
 30
0.0
 40
6.0
100
AcDbArc
 50
90.0
 51
180.0
  0
ARC
  5
A12
330
18
100
AcDbEntity
  8
1
  6
Continuous
100
AcDbCircle
 10
69.69844426562342
 20
265.8736898474579
 30
0.0
 40
6.0
100
AcDbArc
 50
0.0
 51
90.0
  0
LINE
  5
A13
330
18
100
AcDbEntity
  8
1
  6
Continuous
100
AcDbLine
 10
60.94844426562342
 20
263.3736898474579
 30
0.0
 11
60.94844426562342
 21
265.3736898474579
 31
0.0
  0
LINE
  5
A14
330
18
100
AcDbEntity
  8
1
  6
Continuous
100
AcDbLine
 10
65.44844426562342
 20
265.3736898474579
 30
0.0
 11
65.44844426562342
 21
263.3736898474579
 31
0.0
  0
ARC
  5
A15
330
18
100
AcDbEntity
  8
1
  6
Continuous
100
AcDbCircle
 10
63.19844426562344
 20
263.3736898474579
 30
0.0
 40
2.25
100
AcDbArc
 50
180.0
 51
0.0
  0
ARC
  5
A16
330
18
100
AcDbEntity
  8
1
  6
Continuous
100
AcDbCircle
 10
63.19844426562344
 20
252.3736898474579
 30
0.0
 40
2.25
100
AcDbArc
 50
180.0
 51
0.0
  0
ARC
  5
A17
330
18
100
AcDbEntity
  8
1
  6
Continuous
100
AcDbCircle
 10
63.19844426562344
 20
254.3736898474579
 30
0.0
 40
2.25
100
AcDbArc
 50
0.0
 51
180.0
  0
LINE
  5
A18
330
18
100
AcDbEntity
  8
4
  6
CENTER
 48
0.25
100
AcDbLine
 10
59.44844426562241
 20
264.3736898472326
 30
0.0
 11
66.9484442656224
 21
264.3736898472409
 31
0.0
  0
LINE
  5
A19
330
18
100
AcDbEntity
  8
4
  6
CENTER
 48
0.25
100
AcDbLine
 10
59.44844426562241
 20
253.3736898472328
 30
0.0
 11
66.9484442656224
 21
253.3736898472409
 31
0.0
  0
CIRCLE
  5
A1A
330
18
100
AcDbEntity
  8
1
  6
Continuous
100
AcDbCircle
 10
63.19844426562365
 20
253.3736898472369
 30
0.0
 40
2.25
  0
LINE
  5
A1B
330
18
100
AcDbEntity
  8
4
  6
CENTER
 48
0.25
100
AcDbLine
 10
66.19844426562365
 20
253.3736898472369
 30
0.0
 11
60.19844426562365
 21
253.3736898472369
 31
0.0
  0
LINE
  5
A1C
330
18
100
AcDbEntity
  8
1
  6
Continuous
100
AcDbLine
 10
60.94844426562342
 20
252.3736898474579
 30
0.0
 11
60.94844426562342
 21
254.3736898474579
 31
0.0
  0
LINE
  5
A1D
330
18
100
AcDbEntity
  8
1
  6
Continuous
100
AcDbLine
 10
65.44844426562342
 20
254.3736898474579
 30
0.0
 11
65.44844426562342
 21
252.3736898474579
 31
0.0
  0
LINE
  5
A1E
330
18
100
AcDbEntity
  8
1
  6
Continuous
100
AcDbLine
 10
69.69844426562342
 20
271.8736898474579
 30
0.0
 11
56.69844426562343
 21
271.8736898474579
 31
0.0
  0
ARC
  5
A1F
330
18
100
AcDbEntity
  8
1
  6
Continuous
100
AcDbCircle
 10
63.19844426562344
 20
265.3736898474579
 30
0.0
 40
2.25
100
AcDbArc
 50
0.0
 51
180.0
  0
LINE
  5
A27
330
18
100
AcDbEntity
  8
1
  6
Continuous
100
AcDbLine
 10
185.4984442656258
 20
75.29117225608729
 30
0.0
 11
184.6816005883836
 21
71.37368984742579
 31
0.0
  0
LINE
  5
A28
330
18
100
AcDbEntity
  8
1
  6
Continuous
100
AcDbLine
 10
183.1152879428682
 20
87.3736898474258
 30
0.0
 11
183.1152879428682
 21
71.37368984742579
 31
0.0
  0
LINE
  5
A29
330
18
100
AcDbEntity
  8
1
  6
Continuous
100
AcDbLine
 10
183.8984442656259
 20
87.21039203934308
 30
0.0
 11
183.8984442656259
 21
71.5369876555086
 31
0.0
  0
LINE
  5
A2A
330
18
100
AcDbEntity
  8
1
  6
Continuous
100
AcDbLine
 10
184.6816005883836
 20
71.37368984742579
 30
0.0
 11
184.6816005883836
 21
87.3736898474258
 31
0.0
  0
LINE
  5
A2B
330
18
100
AcDbEntity
  8
1
  6
Continuous
100
AcDbLine
 10
190.4984442656258
 20
85.14719253932218
 30
0.0
 11
190.4984442656258
 21
73.60018715552957
 31
0.0
  0
LINE
  5
A2C
330
18
100
AcDbEntity
  8
1
  6
Continuous
100
AcDbLine
 10
185.4984442656258
 20
85.14719253932218
 30
0.0
 11
185.4984442656258
 21
73.60018715552957
 31
0.0
  0
ARC
  5
A2D
330
18
100
AcDbEntity
  8
1
  6
Continuous
100
AcDbCircle
 10
195.051862278241
 20
76.48693850147783
 30
0.0
 40
9.553418012615141
100
AcDbArc
 50
162.4120462260066
 51
197.5879537739946
  0
ARC
  5
A2E
330
18
100
AcDbEntity
  8
1
  6
Continuous
100
AcDbCircle
 10
180.9450262530106
 20
76.48693850147783
 30
0.0
 40
9.553418012615141
100
AcDbArc
 50
342.4120462260053
 51
17.58795377399332
  0
LINE
  5
A2F
330
18
100
AcDbEntity
  8
1
  6
Continuous
100
AcDbLine
 10
182.298444265626
 20
75.2911722560874
 30
0.0
 11
181.4816005883837
 21
71.37368984742569
 31
0.0
  0
LINE
  5
A30
330
18
100
AcDbEntity
  8
1
  6
Continuous
100
AcDbLine
 10
175.1984442656259
 20
70.2236898474257
 30
0.0
 11
175.1984442656259
 21
88.52368984742588
 31
0.0
  0
LINE
  5
A31
330
18
100
AcDbEntity
  8
1
  6
Continuous
100
AcDbLine
 10
179.1984442656259
 20
88.52368984742588
 30
0.0
 11
179.1984442656259
 21
70.2236898474257
 31
0.0
  0
LINE
  5
A32
330
18
100
AcDbEntity
  8
1
  6
Continuous
100
AcDbLine
 10
180.6984442656259
 20
88.52368984742588
 30
0.0
 11
180.6984442656259
 21
70.2236898474257
 31
0.0
  0
LINE
  5
A33
330
18
100
AcDbEntity
  8
1
  6
Continuous
100
AcDbLine
 10
181.4816005883837
 20
71.37368984742579
 30
0.0
 11
181.4816005883837
 21
87.3736898474258
 31
0.0
  0
LINE
  5
A34
330
18
100
AcDbEntity
  8
1
  6
Continuous
100
AcDbLine
 10
167.6984442656261
 20
91.87368984742581
 30
0.0
 11
167.698444265626
 21
66.8736898474258
 31
0.0
  0
LINE
  5
A35
330
18
100
AcDbEntity
  8
1
  6
Continuous
100
AcDbLine
 10
165.6984442656259
 20
91.87368984742581
 30
0.0
 11
165.698444265626
 21
66.8736898474258
 31
0.0
  0
LINE
  5
A36
330
18
100
AcDbEntity
  8
1
  6
Continuous
100
AcDbLine
 10
173.6984442656259
 20
91.87368984742581
 30
0.0
 11
173.698444265626
 21
66.8736898474258
 31
0.0
  0
LINE
  5
A38
330
18
100
AcDbEntity
  8
1
  6
Continuous
100
AcDbLine
 10
182.298444265626
 20
75.29117225608729
 30
0.0
 11
183.1152879428683
 21
71.37368984742569
 31
0.0
  0
LINE
  5
A39
330
18
100
AcDbEntity
  8
1
  6
Continuous
100
AcDbLine
 10
176.1984442656259
 20
121.873689847426
 30
0.0
 11
176.1984442656259
 21
36.87368984742614
 31
0.0
  0
LINE
  5
A3A
330
18
100
AcDbEntity
  8
1
  6
Continuous
100
AcDbLine
 10
178.1984442656259
 20
121.873689847426
 30
0.0
 11
178.1984442656259
 21
36.87368984742614
 31
0.0
  0
LINE
  5
A3C
330
18
100
AcDbEntity
  8
4
  6
CENTER
 48
0.25
100
AcDbLine
 10
180.1984442656259
 20
44.37368984761475
 30
0.0
 11
174.1984442656259
 21
44.37368984761479
 31
0.0
  0
LINE
  5
A3D
330
18
100
AcDbEntity
  8
4
  6
CENTER
 48
0.25
100
AcDbLine
 10
180.1984442656259
 20
55.37368984761474
 30
0.0
 11
174.1984442656259
 21
55.37368984761479
 31
0.0
  0
LINE
  5
A3E
330
18
100
AcDbEntity
  8
1
  6
Continuous
100
AcDbLine
 10
180.6984442656259
 20
70.2236898474257
 30
0.0
 11
179.1984442656259
 21
70.2236898474257
 31
0.0
  0
LINE
  5
A3F
330
18
100
AcDbEntity
  8
1
  6
Continuous
100
AcDbLine
 10
178.1984442656259
 20
36.87368984742614
 30
0.0
 11
176.1984442656259
 21
36.87368984742614
 31
0.0
  0
LINE
  5
A40
330
18
100
AcDbEntity
  8
1
  6
Continuous
100
AcDbLine
 10
165.698444265626
 20
66.8736898474258
 30
0.0
 11
173.698444265626
 21
66.8736898474258
 31
0.0
  0
LINE
  5
A41
330
18
100
AcDbEntity
  8
1
  6
Continuous
100
AcDbLine
 10
179.1984442656259
 20
70.6236898474258
 30
0.0
 11
178.1984442656259
 21
70.6236898474258
 31
0.0
  0
LINE
  5
A42
330
18
100
AcDbEntity
  8
1
  6
Continuous
100
AcDbLine
 10
173.6984442656259
 20
70.2236898474257
 30
0.0
 11
175.1984442656259
 21
70.2236898474257
 31
0.0
  0
LINE
  5
A43
330
18
100
AcDbEntity
  8
1
  6
Continuous
100
AcDbLine
 10
175.1984442656259
 20
70.6236898474258
 30
0.0
 11
176.1984442656259
 21
70.6236898474258
 31
0.0
  0
LINE
  5
A44
330
18
100
AcDbEntity
  8
1
  6
Continuous
100
AcDbLine
 10
190.4984442656258
 20
73.60018715552957
 30
0.0
 11
185.4984442656258
 21
73.60018715552957
 31
0.0
  0
LINE
  5
A45
330
18
100
AcDbEntity
  8
1
  6
Continuous
100
AcDbLine
 10
183.8984442656259
 20
71.5369876555087
 30
0.0
 11
183.1152879428682
 21
71.373689847426
 31
0.0
  0
LINE
  5
A46
330
18
100
AcDbEntity
  8
1
  6
Continuous
100
AcDbLine
 10
183.8984442656259
 20
71.5369876555086
 30
0.0
 11
184.6816005883836
 21
71.373689847426
 31
0.0
  0
LINE
  5
A47
330
18
100
AcDbEntity
  8
1
  6
Continuous
100
AcDbLine
 10
180.6984442656259
 20
71.5369876555086
 30
0.0
 11
181.4816005883835
 21
71.373689847426
 31
0.0
  0
LINE
  5
A48
330
18
100
AcDbEntity
  8
1
  6
Continuous
100
AcDbLine
 10
180.6984442656259
 20
88.52368984742588
 30
0.0
 11
179.1984442656259
 21
88.52368984742588
 31
0.0
  0
LINE
  5
A49
330
18
100
AcDbEntity
  8
4
  6
CENTER
 48
0.3
100
AcDbLine
 10
162.6984442656259
 20
79.3736898474258
 30
0.0
 11
196.6984442656259
 21
79.3736898474258
 31
0.0
  0
LINE
  5
A4A
330
18
100
AcDbEntity
  8
4
  6
CENTER
 48
0.25
100
AcDbLine
 10
180.1984442656259
 20
103.3736898472368
 30
0.0
 11
174.1984442656259
 21
103.3736898472367
 31
0.0
  0
LINE
  5
A4B
330
18
100
AcDbEntity
  8
4
  6
CENTER
 48
0.25
100
AcDbLine
 10
180.1984442656259
 20
114.3736898472368
 30
0.0
 11
174.1984442656259
 21
114.3736898472367
 31
0.0
  0
LINE
  5
A4C
330
18
100
AcDbEntity
  8
1
  6
Continuous
100
AcDbLine
 10
179.1984442656259
 20
88.12368984742581
 30
0.0
 11
178.1984442656259
 21
88.12368984742581
 31
0.0
  0
LINE
  5
A4D
330
18
100
AcDbEntity
  8
1
  6
Continuous
100
AcDbLine
 10
175.1984442656259
 20
88.12368984742567
 30
0.0
 11
176.1984442656259
 21
88.12368984742567
 31
0.0
  0
LINE
  5
A4E
330
18
100
AcDbEntity
  8
1
  6
Continuous
100
AcDbLine
 10
173.6984442656259
 20
88.52368984742588
 30
0.0
 11
175.1984442656259
 21
88.52368984742588
 31
0.0
  0
LINE
  5
A4F
330
18
100
AcDbEntity
  8
1
  6
Continuous
100
AcDbLine
 10
165.6984442656259
 20
91.87368984742581
 30
0.0
 11
173.6984442656259
 21
91.87368984742581
 31
0.0
  0
LINE
  5
A50
330
18
100
AcDbEntity
  8
1
  6
Continuous
100
AcDbLine
 10
176.1984442656259
 20
121.8736898474259
 30
0.0
 11
178.1984442656258
 21
121.8736898474259
 31
0.0
  0
LINE
  5
A51
330
18
100
AcDbEntity
  8
1
  6
Continuous
100
AcDbLine
 10
190.4984442656258
 20
85.14719253932218
 30
0.0
 11
185.4984442656258
 21
85.14719253932218
 31
0.0
  0
LINE
  5
A52
330
18
100
AcDbEntity
  8
1
  6
Continuous
100
AcDbLine
 10
185.945026253011
 20
79.37368984742601
 30
0.0
 11
190.0518622782406
 21
79.37368984742601
 31
0.0
  0
LINE
  5
A53
330
18
100
AcDbEntity
  8
1
  6
Continuous
100
AcDbLine
 10
185.4984442656261
 20
83.4562074387642
 30
0.0
 11
184.6816005883836
 21
87.3736898474258
 31
0.0
  0
LINE
  5
A54
330
18
100
AcDbEntity
  8
1
  6
Continuous
100
AcDbLine
 10
183.8984442656259
 20
87.21039203934322
 30
0.0
 11
183.1152879428681
 21
87.3736898474258
 31
0.0
  0
LINE
  5
A55
330
18
100
AcDbEntity
  8
1
  6
Continuous
100
AcDbLine
 10
183.8984442656259
 20
87.21039203934322
 30
0.0
 11
184.6816005883836
 21
87.37368984742589
 31
0.0
  0
ARC
  5
A56
330
18
100
AcDbEntity
  8
1
  6
Continuous
100
AcDbCircle
 10
195.051862278241
 20
82.26044119337409
 30
0.0
 40
9.553418012615141
100
AcDbArc
 50
162.4120462260053
 51
197.5879537739933
  0
LINE
  5
A57
330
18
100
AcDbEntity
  8
1
  6
Continuous
100
AcDbLine
 10
182.298444265626
 20
83.4562074387642
 30
0.0
 11
181.4816005883839
 21
87.3736898474257
 31
0.0
  0
LINE
  5
A58
330
18
100
AcDbEntity
  8
1
  6
Continuous
100
AcDbLine
 10
180.6984442656259
 20
87.21039203934322
 30
0.0
 11
181.4816005883837
 21
87.37368984742589
 31
0.0
  0
LINE
  5
A59
330
18
100
AcDbEntity
  8
1
  6
Continuous
100
AcDbLine
 10
182.298444265626
 20
75.29117225608729
 30
0.0
 11
182.298444265626
 21
83.4562074387642
 31
0.0
  0
LINE
  5
A5A
330
18
100
AcDbEntity
  8
1
  6
Continuous
100
AcDbLine
 10
182.298444265626
 20
83.45620743876429
 30
0.0
 11
183.1152879428682
 21
87.37368984742589
 31
0.0
  0
LINE
  5
A5B
330
18
100
AcDbEntity
  8
1
  6
Continuous
100
AcDbLine
 10
190.4984442656258
 20
77.38368984742584
 30
0.0
 11
193.6984442656259
 21
77.38368984742584
 31
0.0
  0
ARC
  5
A5C
330
18
100
AcDbEntity
  8
1
  6
Continuous
100
AcDbCircle
 10
180.9450262530106
 20
82.26044119337409
 30
0.0
 40
9.553418012615141
100
AcDbArc
 50
342.4120462260066
 51
17.58795377399471
  0
LINE
  5
A5D
330
18
100
AcDbEntity
  8
1
  6
Continuous
100
AcDbLine
 10
190.4984442656258
 20
81.36368984742579
 30
0.0
 11
193.6984442656259
 21
81.36368984742579
 31
0.0
  0
LINE
  5
A5E
330
18
100
AcDbEntity
  8
1
  6
Continuous
100
AcDbLine
 10
192.6984442656185
 20
81.36368984742579
 30
0.0
 11
192.6984442656185
 21
77.38368984742584
 31
0.0
  0
LINE
  5
A5F
330
18
100
AcDbEntity
  8
1
  6
Continuous
100
AcDbLine
 10
193.6984442656259
 20
81.36368984742579
 30
0.0
 11
193.6984442656259
 21
77.38368984742584
 31
0.0
  0
LINE
  5
A86
330
18
100
AcDbEntity
  8
1
  6
Continuous
100
AcDbLine
 10
167.698444265626
 20
271.8736898474259
 30
0.0
 11
167.698444265626
 21
240.8736898474257
 31
0.0
  0
LINE
  5
A87
330
18
100
AcDbEntity
  8
1
  6
Continuous
100
AcDbLine
 10
165.6984442656259
 20
240.8736898474257
 30
0.0
 11
165.6984442656259
 21
271.8736898474259
 31
0.0
  0
LINE
  5
A88
330
18
100
AcDbEntity
  8
1
  6
Continuous
100
AcDbLine
 10
167.698444265626
 20
242.4950101907862
 30
0.0
 11
167.698444265626
 21
257.3736898472254
 31
0.0
  0
LINE
  5
A89
330
18
100
AcDbEntity
  8
1
  6
Continuous
100
AcDbLine
 10
168.6984442656259
 20
242.4950101907861
 30
0.0
 11
168.6984442656259
 21
257.3736898472254
 31
0.0
  0
LINE
  5
A8C
330
18
100
AcDbEntity
  8
1
  6
Continuous
100
AcDbLine
 10
167.6984442656259
 20
217.8736898474257
 30
0.0
 11
167.6984442656259
 21
186.8736898474257
 31
0.0
  0
LINE
  5
A8D
330
18
100
AcDbEntity
  8
1
  6
Continuous
100
AcDbLine
 10
165.6984442656259
 20
186.8736898474257
 30
0.0
 11
165.6984442656259
 21
217.8736898474257
 31
0.0
  0
LINE
  5
A8E
330
18
100
AcDbEntity
  8
1
  6
Continuous
100
AcDbLine
 10
165.6984442656259
 20
186.8736898474257
 30
0.0
 11
167.6984442656259
 21
186.8736898474257
 31
0.0
  0
LINE
  5
A8F
330
18
100
AcDbEntity
  8
1
  6
Continuous
100
AcDbLine
 10
180.6984442656259
 20
220.2236898474257
 30
0.0
 11
179.1984442656259
 21
220.2236898474257
 31
0.0
  0
LINE
  5
A90
330
18
100
AcDbEntity
  8
1
  6
Continuous
100
AcDbLine
 10
180.6984442656259
 20
238.5236898474258
 30
0.0
 11
179.1984442656259
 21
238.5236898474258
 31
0.0
  0
LINE
  5
A91
330
18
100
AcDbEntity
  8
4
  6
CENTER
 48
0.3
100
AcDbLine
 10
164.1984442656259
 20
229.3736898474258
 30
0.0
 11
196.6984442656259
 21
229.3736898474258
 31
0.0
  0
LINE
  5
A93
330
18
100
AcDbEntity
  8
1
  6
Continuous
100
AcDbLine
 10
175.1984442656259
 20
238.5236898474258
 30
0.0
 11
175.1984442656259
 21
220.2236898474257
 31
0.0
  0
LINE
  5
A94
330
18
100
AcDbEntity
  8
1
  6
Continuous
100
AcDbLine
 10
179.1984442656259
 20
220.2236898474257
 30
0.0
 11
179.1984442656259
 21
238.5236898474258
 31
0.0
  0
LINE
  5
A95
330
18
100
AcDbEntity
  8
1
  6
Continuous
100
AcDbLine
 10
173.6984442656259
 20
220.2236898474257
 30
0.0
 11
173.6984442656259
 21
238.5236898474258
 31
0.0
  0
LINE
  5
A96
330
18
100
AcDbEntity
  8
1
  6
Continuous
100
AcDbLine
 10
176.1984442656259
 20
216.8736898474258
 30
0.0
 11
176.1984442656259
 21
241.8736898474258
 31
0.0
  0
LINE
  5
A97
330
18
100
AcDbEntity
  8
1
  6
Continuous
100
AcDbLine
 10
178.1984442656259
 20
216.8736898474258
 30
0.0
 11
178.1984442656259
 21
241.8736898474258
 31
0.0
  0
ARC
  5
A98
330
18
100
AcDbEntity
  8
1
  6
Continuous
100
AcDbCircle
 10
171.1984442656259
 20
220.8736898474258
 30
0.0
 40
2.500000000000003
100
AcDbArc
 50
270.0
 51
0.0
  0
ARC
  5
A99
330
18
100
AcDbEntity
  8
1
  6
Continuous
100
AcDbCircle
 10
171.1984442656259
 20
220.8736898474258
 30
0.0
 40
0.5000000000000016
100
AcDbArc
 50
270.0
 51
0.0
  0
ARC
  5
A9A
330
18
100
AcDbEntity
  8
1
  6
Continuous
100
AcDbCircle
 10
168.1984442656259
 20
217.8736898474257
 30
0.0
 40
2.500000000000003
100
AcDbArc
 50
90.0
 51
180.0
  0
LINE
  5
A9B
330
18
100
AcDbEntity
  8
4
  6
CENTER
 48
0.25
100
AcDbLine
 10
164.1984442656259
 20
194.3736898476883
 30
0.0
 11
169.1984442656047
 21
194.3736898476909
 31
0.0
  0
LINE
  5
A9C
330
18
100
AcDbEntity
  8
4
  6
CENTER
 48
0.25
100
AcDbLine
 10
164.1984442656259
 20
205.3736898475895
 30
0.0
 11
169.1984442656047
 21
205.3736898475745
 31
0.0
  0
LINE
  5
A9D
330
18
100
AcDbEntity
  8
1
  6
Continuous
100
AcDbLine
 10
168.1984442656259
 20
220.3736898474259
 30
0.0
 11
171.1984442656259
 21
220.3736898474259
 31
0.0
  0
ARC
  5
A9E
330
18
100
AcDbEntity
  8
1
  6
Continuous
100
AcDbCircle
 10
168.1984442656259
 20
217.8736898474257
 30
0.0
 40
0.5000000000000036
100
AcDbArc
 50
90.0
 51
180.0
  0
LINE
  5
A9F
330
18
100
AcDbEntity
  8
1
  6
Continuous
100
AcDbLine
 10
171.1984442656259
 20
218.3736898474257
 30
0.0
 11
168.1984442656259
 21
218.3736898474257
 31
0.0
  0
LINE
  5
AA0
330
18
100
AcDbEntity
  8
1
  6
Continuous
100
AcDbLine
 10
179.1984442656259
 20
220.6236898474258
 30
0.0
 11
178.1984442656259
 21
220.6236898474258
 31
0.0
  0
LINE
  5
AA1
330
18
100
AcDbEntity
  8
1
  6
Continuous
100
AcDbLine
 10
173.6984442656259
 20
220.2236898474257
 30
0.0
 11
175.1984442656259
 21
220.2236898474257
 31
0.0
  0
LINE
  5
AA2
330
18
100
AcDbEntity
  8
1
  6
Continuous
100
AcDbLine
 10
176.1984442656259
 20
216.8736898474258
 30
0.0
 11
178.1984442656259
 21
216.8736898474258
 31
0.0
  0
LINE
  5
AA3
330
18
100
AcDbEntity
  8
1
  6
Continuous
100
AcDbLine
 10
175.1984442656259
 20
220.6236898474259
 30
0.0
 11
176.1984442656259
 21
220.6236898474259
 31
0.0
  0
LINE
  5
AA4
330
18
100
AcDbEntity
  8
1
  6
Continuous
100
AcDbLine
 10
170.698444265626
 20
223.3736898472254
 30
0.0
 11
170.698444265626
 21
238.3736898474257
 31
0.0
  0
LINE
  5
AA5
330
18
100
AcDbEntity
  8
1
  6
Continuous
100
AcDbLine
 10
171.698444265626
 20
220.8736898474258
 30
0.0
 11
171.698444265626
 21
237.8736898474258
 31
0.0
  0
LINE
  5
AA6
330
18
100
AcDbEntity
  8
1
  6
Continuous
100
AcDbLine
 10
170.6984442656259
 20
232.0750783792736
 30
0.0
 11
169.7984442656259
 21
232.0750783792736
 31
0.0
  0
LINE
  5
AA7
330
18
100
AcDbEntity
  8
1
  6
Continuous
100
AcDbLine
 10
170.6984442656259
 20
233.3736898474258
 30
0.0
 11
169.7984442656259
 21
233.3736898474258
 31
0.0
  0
LINE
  5
AA8
330
18
100
AcDbEntity
  8
1
  6
Continuous
100
AcDbLine
 10
169.7984442656259
 20
226.6723013155778
 30
0.0
 11
170.6984442656259
 21
226.6723013155778
 31
0.0
  0
LINE
  5
AA9
330
18
100
AcDbEntity
  8
1
  6
Continuous
100
AcDbLine
 10
169.7984442656259
 20
225.3736898474258
 30
0.0
 11
170.698444265626
 21
225.3736898474258
 31
0.0
  0
LINE
  5
AAA
330
18
100
AcDbEntity
  8
1
  6
Continuous
100
AcDbLine
 10
169.6984442656259
 20
225.2736898474256
 30
0.0
 11
169.7984442656258
 21
225.3736898474256
 31
0.0
  0
LINE
  5
AAB
330
18
100
AcDbEntity
  8
1
  6
Continuous
100
AcDbLine
 10
169.7984442656258
 20
226.6723013155779
 30
0.0
 11
169.6984442656259
 21
226.6337080956619
 31
0.0
  0
LINE
  5
AAC
330
18
100
AcDbEntity
  8
1
  6
Continuous
100
AcDbLine
 10
169.7984442656259
 20
232.0750783792736
 30
0.0
 11
169.6984442656259
 21
232.1136715991897
 31
0.0
  0
LINE
  5
AAD
330
18
100
AcDbEntity
  8
1
  6
Continuous
100
AcDbLine
 10
169.7984442656258
 20
233.3736898474256
 30
0.0
 11
169.6984442656259
 21
233.4736898474256
 31
0.0
  0
LINE
  5
AAE
330
18
100
AcDbEntity
  8
1
  6
Continuous
100
AcDbLine
 10
168.1984442656259
 20
224.6736898474257
 30
0.0
 11
168.4984442656259
 21
224.3736898474259
 31
0.0
  0
LINE
  5
AAF
330
18
100
AcDbEntity
  8
1
  6
Continuous
100
AcDbLine
 10
168.4984442656259
 20
234.3736898474255
 30
0.0
 11
168.1984442656259
 21
234.0736898474255
 31
0.0
  0
LINE
  5
AB0
330
18
100
AcDbEntity
  8
1
  6
Continuous
100
AcDbLine
 10
168.1984442656259
 20
224.6736898474258
 30
0.0
 11
168.1984442656259
 21
234.0736898474255
 31
0.0
  0
LINE
  5
AB1
330
18
100
AcDbEntity
  8
1
  6
Continuous
100
AcDbLine
 10
169.6984442656259
 20
234.0736898474255
 30
0.0
 11
169.3984442656259
 21
234.3736898474255
 31
0.0
  0
LINE
  5
AB2
330
18
100
AcDbEntity
  8
1
  6
Continuous
100
AcDbLine
 10
169.3984442656259
 20
224.3736898474256
 30
0.0
 11
169.6984442656259
 21
224.6736898474257
 31
0.0
  0
LINE
  5
AB3
330
18
100
AcDbEntity
  8
1
  6
Continuous
100
AcDbLine
 10
169.6984442656259
 20
224.6736898474258
 30
0.0
 11
169.6984442656259
 21
234.0736898474255
 31
0.0
  0
LINE
  5
AB4
330
18
100
AcDbEntity
  8
1
  6
Continuous
100
AcDbLine
 10
169.3984442656259
 20
234.3736898474257
 30
0.0
 11
168.4984442656259
 21
234.3736898474257
 31
0.0
  0
LINE
  5
AB5
330
18
100
AcDbEntity
  8
1
  6
Continuous
100
AcDbLine
 10
168.4984442656259
 20
224.3736898474257
 30
0.0
 11
169.3984442656259
 21
224.3736898474257
 31
0.0
  0
LINE
  5
AB6
330
18
100
AcDbEntity
  8
1
  6
Continuous
100
AcDbLine
 10
169.3984442656259
 20
224.3736898474256
 30
0.0
 11
169.3984442656259
 21
234.3736898474257
 31
0.0
  0
LINE
  5
AB7
330
18
100
AcDbEntity
  8
1
  6
Continuous
100
AcDbLine
 10
168.4984442656259
 20
224.3736898474259
 30
0.0
 11
168.4984442656259
 21
234.3736898474257
 31
0.0
  0
LINE
  5
AB8
330
18
100
AcDbEntity
  8
1
  6
Continuous
100
AcDbLine
 10
169.7984442656259
 20
233.3736898474258
 30
0.0
 11
169.7984442656259
 21
225.3736898474258
 31
0.0
  0
LINE
  5
AB9
330
18
100
AcDbEntity
  8
2
  6
Continuous
100
AcDbLine
 10
170.6984442656259
 20
227.951906409616
 30
0.0
 11
169.7984442656226
 21
226.6723013155806
 31
0.0
  0
LINE
  5
ABA
330
18
100
AcDbEntity
  8
2
  6
Continuous
100
AcDbLine
 10
170.6984442656259
 20
230.7954732852352
 30
0.0
 11
169.7984442656227
 21
232.0750783792706
 31
0.0
  0
LINE
  5
ABB
330
18
100
AcDbEntity
  8
1
  6
Continuous
100
AcDbLine
 10
171.698444265626
 20
223.3736898472256
 30
0.0
 11
170.698444265626
 21
223.3736898472256
 31
0.0
  0
LINE
  5
ABC
330
18
100
AcDbEntity
  8
1
  6
Continuous
100
AcDbLine
 10
176.1984442656259
 20
227.513582323652
 30
0.0
 11
175.1984442656259
 21
227.513582323652
 31
0.0
  0
LINE
  5
ABD
330
18
100
AcDbEntity
  8
1
  6
Continuous
100
AcDbLine
 10
175.1984442656259
 20
231.2337973711995
 30
0.0
 11
176.1984442656259
 21
231.2337973711995
 31
0.0
  0
LINE
  5
ABE
330
18
100
AcDbEntity
  8
1
  6
Continuous
100
AcDbLine
 10
178.1984442656259
 20
231.2337973711995
 30
0.0
 11
179.1984442656259
 21
231.2337973711995
 31
0.0
  0
LINE
  5
ABF
330
18
100
AcDbEntity
  8
1
  6
Continuous
100
AcDbLine
 10
179.1984442656259
 20
227.513582323652
 30
0.0
 11
178.1984442656259
 21
227.513582323652
 31
0.0
  0
ARC
  5
AC0
330
18
100
AcDbEntity
  8
1
  6
Continuous
100
AcDbCircle
 10
171.1984442656259
 20
237.8736898474258
 30
0.0
 40
2.500000000000002
100
AcDbArc
 50
0.0
 51
90.0
  0
ARC
  5
AC1
330
18
100
AcDbEntity
  8
1
  6
Continuous
100
AcDbCircle
 10
171.1984442656259
 20
237.8736898474258
 30
0.0
 40
0.5000000000000009
100
AcDbArc
 50
0.0
 51
90.0
  0
ARC
  5
AC2
330
18
100
AcDbEntity
  8
1
  6
Continuous
100
AcDbCircle
 10
168.198444265626
 20
240.8736898474257
 30
0.0
 40
2.500000000000003
100
AcDbArc
 50
180.0
 51
270.0
  0
ARC
  5
AC3
330
18
100
AcDbEntity
  8
1
  6
Continuous
100
AcDbCircle
 10
168.198444265626
 20
240.8736898474257
 30
0.0
 40
0.5000000000000009
100
AcDbArc
 50
180.0
 51
270.0
  0
LINE
  5
AC4
330
18
100
AcDbEntity
  8
1
  6
Continuous
100
AcDbLine
 10
168.1984442656259
 20
240.3736898474257
 30
0.0
 11
171.1984442656259
 21
240.3736898474257
 31
0.0
  0
LINE
  5
AC5
330
18
100
AcDbEntity
  8
1
  6
Continuous
100
AcDbLine
 10
171.1984442656259
 20
238.3736898474257
 30
0.0
 11
168.1984442656259
 21
238.3736898474257
 31
0.0
  0
LINE
  5
AC6
330
18
100
AcDbEntity
  8
1
  6
Continuous
100
AcDbLine
 10
169.1984442654267
 20
240.3736898474259
 30
0.0
 11
168.137784093846
 21
241.4343500190063
 31
0.0
  0
ARC
  5
AC7
330
18
100
AcDbEntity
  8
1
  6
Continuous
100
AcDbCircle
 10
169.198444265626
 20
242.4950101907861
 30
0.0
 40
1.5
100
AcDbArc
 50
180.0
 51
224.9999999999989
  0
LINE
  5
AC8
330
18
100
AcDbEntity
  8
1
  6
Continuous
100
AcDbLine
 10
170.6126578277995
 20
240.3736898474257
 30
0.0
 11
168.8448908750328
 21
242.1414568001929
 31
0.0
  0
ARC
  5
AC9
330
18
100
AcDbEntity
  8
1
  6
Continuous
100
AcDbCircle
 10
169.198444265626
 20
242.4950101907861
 30
0.0
 40
0.5
100
AcDbArc
 50
180.0
 51
224.9999999999989
  0
LINE
  5
ACA
330
18
100
AcDbEntity
  8
1
  6
Continuous
100
AcDbLine
 10
179.1984442656259
 20
238.1236898474258
 30
0.0
 11
178.1984442656259
 21
238.1236898474258
 31
0.0
  0
LINE
  5
ACB
330
18
100
AcDbEntity
  8
1
  6
Continuous
100
AcDbLine
 10
173.6984442656259
 20
238.5236898474258
 30
0.0
 11
175.1984442656259
 21
238.5236898474258
 31
0.0
  0
LINE
  5
ACC
330
18
100
AcDbEntity
  8
1
  6
Continuous
100
AcDbLine
 10
178.1984442656259
 20
241.8736898474258
 30
0.0
 11
176.1984442656259
 21
241.8736898474258
 31
0.0
  0
LINE
  5
ACD
330
18
100
AcDbEntity
  8
1
  6
Continuous
100
AcDbLine
 10
175.1984442656259
 20
238.1236898474258
 30
0.0
 11
176.1984442656259
 21
238.1236898474258
 31
0.0
  0
LINE
  5
ACE
330
18
100
AcDbEntity
  8
1
  6
Continuous
100
AcDbLine
 10
180.6984442656259
 20
220.2236898474257
 30
0.0
 11
180.6984442656259
 21
238.5236898474258
 31
0.0
  0
LINE
  5
ACF
330
18
100
AcDbEntity
  8
1
  6
Continuous
100
AcDbLine
 10
181.4816005883837
 20
237.3736898474258
 30
0.0
 11
181.4816005883837
 21
221.3736898474258
 31
0.0
  0
LINE
  5
AD0
330
18
100
AcDbEntity
  8
1
  6
Continuous
100
AcDbLine
 10
182.298444265626
 20
233.456207438764
 30
0.0
 11
181.4816005883837
 21
237.3736898474259
 31
0.0
  0
LINE
  5
AD1
330
18
100
AcDbEntity
  8
1
  6
Continuous
100
AcDbLine
 10
183.1152879428682
 20
221.3736898474258
 30
0.0
 11
183.1152879428682
 21
237.3736898474258
 31
0.0
  0
LINE
  5
AD2
330
18
100
AcDbEntity
  8
1
  6
Continuous
100
AcDbLine
 10
183.8984442656258
 20
221.5369876555084
 30
0.0
 11
183.8984442656258
 21
237.2103920393429
 31
0.0
  0
LINE
  5
AD3
330
18
100
AcDbEntity
  8
1
  6
Continuous
100
AcDbLine
 10
182.298444265626
 20
233.4562074387643
 30
0.0
 11
183.1152879428683
 21
237.3736898474259
 31
0.0
  0
LINE
  5
AD4
330
18
100
AcDbEntity
  8
1
  6
Continuous
100
AcDbLine
 10
184.6816005883836
 20
237.3736898474258
 30
0.0
 11
184.6816005883836
 21
221.3736898474258
 31
0.0
  0
LINE
  5
AD5
330
18
100
AcDbEntity
  8
1
  6
Continuous
100
AcDbLine
 10
185.498444265626
 20
233.4562074387643
 30
0.0
 11
184.6816005883836
 21
237.3736898474258
 31
0.0
  0
LINE
  5
AD6
330
18
100
AcDbEntity
  8
1
  6
Continuous
100
AcDbLine
 10
190.0518622782407
 20
235.1471925393222
 30
0.0
 11
185.9450262530112
 21
235.1471925393222
 31
0.0
  0
LINE
  5
AD7
330
18
100
AcDbEntity
  8
1
  6
Continuous
100
AcDbLine
 10
190.0518622782407
 20
223.6001871555294
 30
0.0
 11
185.9450262530112
 21
223.6001871555294
 31
0.0
  0
LINE
  5
AD8
330
18
100
AcDbEntity
  8
1
  6
Continuous
100
AcDbLine
 10
190.0518622782407
 20
232.2604411933738
 30
0.0
 11
185.9450262530112
 21
232.2604411933738
 31
0.0
  0
LINE
  5
AD9
330
18
100
AcDbEntity
  8
1
  6
Continuous
100
AcDbLine
 10
190.0518622782407
 20
226.4869385014776
 30
0.0
 11
185.9450262530112
 21
226.4869385014776
 31
0.0
  0
LINE
  5
ADA
330
18
100
AcDbEntity
  8
1
  6
Continuous
100
AcDbLine
 10
182.2984442656259
 20
233.4562074387643
 30
0.0
 11
182.2984442656259
 21
225.2911722560873
 31
0.0
  0
LINE
  5
ADB
330
18
100
AcDbEntity
  8
1
  6
Continuous
100
AcDbLine
 10
182.298444265626
 20
225.2911722560873
 30
0.0
 11
181.4816005883838
 21
221.3736898474258
 31
0.0
  0
LINE
  5
ADC
330
18
100
AcDbEntity
  8
1
  6
Continuous
100
AcDbLine
 10
180.6984442656259
 20
221.5369876555083
 30
0.0
 11
181.4816005883837
 21
221.3736898474256
 31
0.0
  0
LINE
  5
ADD
330
18
100
AcDbEntity
  8
1
  6
Continuous
100
AcDbLine
 10
182.2984442656259
 20
225.2911722560873
 30
0.0
 11
183.1152879428682
 21
221.3736898474256
 31
0.0
  0
LINE
  5
ADE
330
18
100
AcDbEntity
  8
1
  6
Continuous
100
AcDbLine
 10
183.8984442656258
 20
221.5369876555083
 30
0.0
 11
183.1152879428681
 21
221.3736898474258
 31
0.0
  0
LINE
  5
ADF
330
18
100
AcDbEntity
  8
1
  6
Continuous
100
AcDbLine
 10
185.4984442656261
 20
225.2911722560873
 30
0.0
 11
184.6816005883836
 21
221.3736898474258
 31
0.0
  0
LINE
  5
AE0
330
18
100
AcDbEntity
  8
1
  6
Continuous
100
AcDbLine
 10
183.8984442656258
 20
221.5369876555083
 30
0.0
 11
184.6816005883836
 21
221.3736898474256
 31
0.0
  0
LINE
  5
AE1
330
18
100
AcDbEntity
  8
1
  6
Continuous
100
AcDbLine
 10
185.4984442656258
 20
224.3736898474257
 30
0.0
 11
185.945026253011
 21
223.6001871555294
 31
0.0
  0
LINE
  5
AE2
330
18
100
AcDbEntity
  8
1
  6
Continuous
100
AcDbLine
 10
185.4984442656261
 20
234.3736898474257
 30
0.0
 11
185.9450262530112
 21
235.1471925393219
 31
0.0
  0
LINE
  5
AE3
330
18
100
AcDbEntity
  8
1
  6
Continuous
100
AcDbLine
 10
185.498444265626
 20
224.3736898474257
 30
0.0
 11
185.498444265626
 21
234.3736898474257
 31
0.0
  0
ARC
  5
AE4
330
18
100
AcDbEntity
  8
1
  6
Continuous
100
AcDbCircle
 10
188.0283982377241
 20
233.6957907237142
 30
0.0
 40
2.529953972098017
100
AcDbArc
 50
150.0000000000023
 51
214.5650930945263
  0
ARC
  5
AE5
330
18
100
AcDbEntity
  8
1
  6
Continuous
100
AcDbCircle
 10
195.0518622782414
 20
229.3736898474258
 30
0.0
 40
9.553418012615159
100
AcDbArc
 50
162.4120462260069
 51
197.587953773993
  0
ARC
  5
AE6
330
18
100
AcDbEntity
  8
1
  6
Continuous
100
AcDbCircle
 10
188.0283982377244
 20
225.0515889711372
 30
0.0
 40
2.529953972098268
100
AcDbArc
 50
145.4349069054779
 51
209.9999999999976
  0
LINE
  5
AE7
330
18
100
AcDbEntity
  8
1
  6
Continuous
100
AcDbLine
 10
190.498444265626
 20
224.3736898474257
 30
0.0
 11
190.0518622782407
 21
223.6001871555294
 31
0.0
  0
LINE
  5
AE8
330
18
100
AcDbEntity
  8
1
  6
Continuous
100
AcDbLine
 10
190.4984442656258
 20
234.3736898474257
 30
0.0
 11
190.0518622782406
 21
235.147192539322
 31
0.0
  0
LINE
  5
AE9
330
18
100
AcDbEntity
  8
1
  6
Continuous
100
AcDbLine
 10
193.6984442656259
 20
231.3736898474314
 30
0.0
 11
193.6984442656259
 21
227.3736898474203
 31
0.0
  0
LINE
  5
AEA
330
18
100
AcDbEntity
  8
1
  6
Continuous
100
AcDbLine
 10
190.498444265626
 20
224.3736898474257
 30
0.0
 11
190.498444265626
 21
234.3736898474257
 31
0.0
  0
LINE
  5
AEB
330
18
100
AcDbEntity
  8
1
  6
Continuous
100
AcDbLine
 10
192.6984442656259
 20
227.137621869926
 30
0.0
 11
192.6984442656259
 21
226.3736898474257
 31
0.0
  0
LINE
  5
AEC
330
18
100
AcDbEntity
  8
1
  6
Continuous
100
AcDbLine
 10
192.6984442656259
 20
232.3736898474257
 30
0.0
 11
192.6984442656259
 21
231.6097578249255
 31
0.0
  0
ARC
  5
AED
330
18
100
AcDbEntity
  8
1
  6
Continuous
100
AcDbCircle
 10
187.9684902935279
 20
233.6957907237142
 30
0.0
 40
2.529953972098017
100
AcDbArc
 50
325.4349069054736
 51
30.00000000000034
  0
ARC
  5
AEE
330
18
100
AcDbEntity
  8
1
  6
Continuous
100
AcDbCircle
 10
180.9450262530106
 20
229.3736898474258
 30
0.0
 40
9.553418012615159
100
AcDbArc
 50
342.4120462260069
 51
17.58795377399307
  0
ARC
  5
AEF
330
18
100
AcDbEntity
  8
1
  6
Continuous
100
AcDbCircle
 10
187.9684902935277
 20
225.0515889711372
 30
0.0
 40
2.529953972098268
100
AcDbArc
 50
330.0000000000023
 51
34.56509309452208
  0
LINE
  5
AF0
330
18
100
AcDbEntity
  8
1
  6
Continuous
100
AcDbLine
 10
192.6984442656259
 20
226.3736898474257
 30
0.0
 11
193.6984442656259
 21
227.3736898474258
 31
0.0
  0
LINE
  5
AF1
330
18
100
AcDbEntity
  8
1
  6
Continuous
100
AcDbLine
 10
193.6984442656259
 20
231.3736898474258
 30
0.0
 11
192.6984442656259
 21
232.3736898474257
 31
0.0
  0
LINE
  5
AF2
330
18
100
AcDbEntity
  8
1
  6
Continuous
100
AcDbLine
 10
193.6984442656259
 20
231.3736898474258
 30
0.0
 11
193.6984442656259
 21
227.3736898474258
 31
0.0
  0
LINE
  5
AF3
330
18
100
AcDbEntity
  8
1
  6
Continuous
100
AcDbLine
 10
190.498444265626
 20
226.9146898474257
 30
0.0
 11
193.2394442656258
 21
226.9146898474257
 31
0.0
  0
LINE
  5
AF4
330
18
100
AcDbEntity
  8
1
  6
Continuous
100
AcDbLine
 10
190.498444265626
 20
231.8326898474257
 30
0.0
 11
193.2394442656258
 21
231.8326898474257
 31
0.0
  0
ARC
  5
AF5
330
18
100
AcDbEntity
  8
1
  6
Continuous
100
AcDbCircle
 10
190.7285567656398
 20
229.3736898474258
 30
0.0
 40
2.969887499986186
100
AcDbArc
 50
311.5510355611308
 51
48.44896443886902
  0
LINE
  5
AF6
330
18
100
AcDbEntity
  8
1
  6
Continuous
100
AcDbLine
 10
192.6984442656259
 20
231.5962503077896
 30
0.0
 11
190.498444265626
 21
231.5962503077889
 31
0.0
  0
LINE
  5
AF7
330
18
100
AcDbEntity
  8
2
  6
Continuous
100
AcDbLine
 10
192.6984442656259
 20
231.5962503077896
 30
0.0
 11
190.4984442656258
 21
231.0209993651077
 31
0.0
  0
LINE
  5
AF8
330
18
100
AcDbEntity
  8
2
  6
Continuous
100
AcDbLine
 10
192.6984442656259
 20
227.1511293870621
 30
0.0
 11
190.498444265626
 21
227.7263803297439
 31
0.0
  0
LINE
  5
AF9
330
18
100
AcDbEntity
  8
1
  6
Continuous
100
AcDbLine
 10
192.6984442656259
 20
227.1511293870621
 30
0.0
 11
190.498444265626
 21
227.1511293870626
 31
0.0
  0
LINE
  5
AFA
330
18
100
AcDbEntity
  8
1
  6
Continuous
100
AcDbLine
 10
192.6984442656259
 20
232.3736898474257
 30
0.0
 11
190.498444265624
 21
232.3736898474289
 31
0.0
  0
LINE
  5
AFB
330
18
100
AcDbEntity
  8
1
  6
Continuous
100
AcDbLine
 10
192.6984442656259
 20
226.3736898474257
 30
0.0
 11
190.498444265624
 21
226.3736898474289
 31
0.0
  0
LINE
  5
AFC
330
18
100
AcDbEntity
  8
1
  6
Continuous
100
AcDbLine
 10
180.6984442656259
 20
237.2103920393429
 30
0.0
 11
181.4816005883835
 21
237.3736898474255
 31
0.0
  0
LINE
  5
AFD
330
18
100
AcDbEntity
  8
1
  6
Continuous
100
AcDbLine
 10
183.8984442656259
 20
237.2103920393428
 30
0.0
 11
183.1152879428682
 21
237.3736898474255
 31
0.0
  0
LINE
  5
AFE
330
18
100
AcDbEntity
  8
1
  6
Continuous
100
AcDbLine
 10
183.8984442656259
 20
237.2103920393429
 30
0.0
 11
184.6816005883836
 21
237.3736898474255
 31
0.0
  0
LINE
  5
B01
330
18
100
AcDbEntity
  8
4
  6
CENTER
 48
0.25
100
AcDbLine
 10
164.1984442656261
 20
264.3736898472279
 30
0.0
 11
170.1984442656046
 21
264.3736898472251
 31
0.0
  0
LINE
  5
B02
330
18
100
AcDbEntity
  8
1
  6
Continuous
100
AcDbLine
 10
168.698444265626
 20
257.3736898472254
 30
0.0
 11
167.698444265626
 21
257.3736898472254
 31
0.0
  0
LINE
  5
B03
330
18
100
AcDbEntity
  8
4
  6
CENTER
 48
0.25
100
AcDbLine
 10
164.1984442656259
 20
253.3736898472279
 30
0.0
 11
170.1984442656046
 21
253.3736898472251
 31
0.0
  0
LINE
  5
B04
330
18
100
AcDbEntity
  8
1
  6
Continuous
100
AcDbLine
 10
167.698444265626
 20
271.8736898474259
 30
0.0
 11
165.6984442656259
 21
271.8736898474259
 31
0.0
  0
LINE
  5
B05
330
18
100
AcDbEntity
  8
4
  6
CENTER
 48
0.25
100
AcDbLine
 10
180.1984442656259
 20
355.3736898476147
 30
0.0
 11
174.1984442656259
 21
355.3736898476147
 31
0.0
  0
LINE
  5
B06
330
18
100
AcDbEntity
  8
4
  6
CENTER
 48
0.25
100
AcDbLine
 10
180.1984442656259
 20
344.3736898476147
 30
0.0
 11
174.1984442656259
 21
344.3736898476148
 31
0.0
  0
LINE
  5
B08
330
18
100
AcDbEntity
  8
1
  6
Continuous
100
AcDbLine
 10
176.1984442656259
 20
336.8736898474256
 30
0.0
 11
178.1984442656258
 21
336.8736898474256
 31
0.0
  0
LINE
  5
B09
330
18
100
AcDbEntity
  8
1
  6
Continuous
100
AcDbLine
 10
165.6984442656259
 20
366.8736898474258
 30
0.0
 11
173.6984442656259
 21
366.8736898474258
 31
0.0
  0
LINE
  5
B98
330
18
100
AcDbEntity
  8
4
  6
CENTER
 48
0.25
100
AcDbLine
 10
180.1984442656259
 20
403.3736898472367
 30
0.0
 11
174.1984442656259
 21
403.3736898472367
 31
0.0
  0
LINE
  5
B99
330
18
100
AcDbEntity
  8
4
  6
CENTER
 48
0.25
100
AcDbLine
 10
180.1984442656259
 20
414.3736898472368
 30
0.0
 11
174.1984442656259
 21
414.3736898472368
 31
0.0
  0
LINE
  5
B9A
330
18
100
AcDbEntity
  8
1
  6
Continuous
100
AcDbLine
 10
180.6984442656259
 20
388.5236898474258
 30
0.0
 11
179.1984442656259
 21
388.5236898474258
 31
0.0
  0
LINE
  5
B9B
330
18
100
AcDbEntity
  8
1
  6
Continuous
100
AcDbLine
 10
180.6984442656259
 20
370.2236898474257
 30
0.0
 11
179.1984442656259
 21
370.2236898474257
 31
0.0
  0
LINE
  5
B9C
330
18
100
AcDbEntity
  8
4
  6
CENTER
 48
0.3
100
AcDbLine
 10
162.6984442656259
 20
379.3736898474258
 30
0.0
 11
196.6984442656259
 21
379.3736898474258
 31
0.0
  0
LINE
  5
B9D
330
18
100
AcDbEntity
  8
1
  6
Continuous
100
AcDbLine
 10
168.6984442656259
 20
373.3736898474258
 30
0.0
 11
168.6984442656259
 21
385.3736898474259
 31
0.0
  0
LINE
  5
B9E
330
18
100
AcDbEntity
  8
1
  6
Continuous
100
AcDbLine
 10
171.698444265626
 20
372.8736898474259
 30
0.0
 11
171.6984442656261
 21
385.8736898474256
 31
0.0
  0
LINE
  5
B9F
330
18
100
AcDbEntity
  8
1
  6
Continuous
100
AcDbLine
 10
179.1984442656259
 20
370.2236898474257
 30
0.0
 11
179.1984442656259
 21
388.5236898474258
 31
0.0
  0
LINE
  5
BA0
330
18
100
AcDbEntity
  8
1
  6
Continuous
100
AcDbLine
 10
175.1984442656259
 20
388.5236898474258
 30
0.0
 11
175.1984442656259
 21
370.2236898474257
 31
0.0
  0
LINE
  5
BA1
330
18
100
AcDbEntity
  8
1
  6
Continuous
100
AcDbLine
 10
167.698444265626
 20
372.8736898474257
 30
0.0
 11
173.698444265626
 21
372.873689847426
 31
0.0
  0
LINE
  5
BA2
330
18
100
AcDbEntity
  8
1
  6
Continuous
100
AcDbLine
 10
171.6984442656261
 20
376.4136898474257
 30
0.0
 11
173.698444265626
 21
376.4136898474258
 31
0.0
  0
LINE
  5
BA3
330
18
100
AcDbEntity
  8
1
  6
Continuous
100
AcDbLine
 10
167.698444265626
 20
373.3736898474257
 30
0.0
 11
171.6984442656261
 21
373.3736898474258
 31
0.0
  0
LINE
  5
BA4
330
18
100
AcDbEntity
  8
1
  6
Continuous
100
AcDbLine
 10
179.1984442656259
 20
370.6236898474259
 30
0.0
 11
178.1984442656259
 21
370.6236898474259
 31
0.0
  0
LINE
  5
BA5
330
18
100
AcDbEntity
  8
1
  6
Continuous
100
AcDbLine
 10
173.6984442656259
 20
370.2236898474257
 30
0.0
 11
175.1984442656259
 21
370.2236898474257
 31
0.0
  0
LINE
  5
BA6
330
18
100
AcDbEntity
  8
1
  6
Continuous
100
AcDbLine
 10
175.1984442656259
 20
370.6236898474259
 30
0.0
 11
176.1984442656259
 21
370.6236898474259
 31
0.0
  0
LINE
  5
BA7
330
18
100
AcDbEntity
  8
1
  6
Continuous
100
AcDbLine
 10
171.6984442656261
 20
382.3336898474258
 30
0.0
 11
173.698444265626
 21
382.3336898474257
 31
0.0
  0
LINE
  5
BA8
330
18
100
AcDbEntity
  8
1
  6
Continuous
100
AcDbLine
 10
167.698444265626
 20
385.8736898474258
 30
0.0
 11
173.698444265626
 21
385.8736898474255
 31
0.0
  0
LINE
  5
BA9
330
18
100
AcDbEntity
  8
1
  6
Continuous
100
AcDbLine
 10
165.698444265626
 20
391.8736898474259
 30
0.0
 11
173.698444265626
 21
391.8736898474259
 31
0.0
  0
LINE
  5
BAA
330
18
100
AcDbEntity
  8
1
  6
Continuous
100
AcDbLine
 10
167.698444265626
 20
385.3736898474259
 30
0.0
 11
171.6984442656261
 21
385.3736898474256
 31
0.0
  0
LINE
  5
BAB
330
18
100
AcDbEntity
  8
1
  6
Continuous
100
AcDbLine
 10
179.1984442656259
 20
388.1236898474258
 30
0.0
 11
178.1984442656259
 21
388.1236898474258
 31
0.0
  0
LINE
  5
BAC
330
18
100
AcDbEntity
  8
1
  6
Continuous
100
AcDbLine
 10
173.6984442656259
 20
388.5236898474258
 30
0.0
 11
175.1984442656259
 21
388.5236898474258
 31
0.0
  0
LINE
  5
BAD
330
18
100
AcDbEntity
  8
1
  6
Continuous
100
AcDbLine
 10
175.1984442656259
 20
388.1236898474258
 30
0.0
 11
176.1984442656259
 21
388.1236898474258
 31
0.0
  0
LINE
  5
BAE
330
18
100
AcDbEntity
  8
1
  6
Continuous
100
AcDbLine
 10
178.1984442656259
 20
421.8736898474253
 30
0.0
 11
176.1984442656259
 21
421.8736898474253
 31
0.0
  0
LINE
  5
BAF
330
18
100
AcDbEntity
  8
1
  6
Continuous
100
AcDbLine
 10
190.4984442656258
 20
373.6001871555294
 30
0.0
 11
190.4984442656258
 21
385.147192539322
 31
0.0
  0
ARC
  5
BB0
330
18
100
AcDbEntity
  8
1
  6
Continuous
100
AcDbCircle
 10
195.051862278241
 20
382.2604411933737
 30
0.0
 40
9.553418012615141
100
AcDbArc
 50
162.4120462260053
 51
197.5879537739933
  0
ARC
  5
BB1
330
18
100
AcDbEntity
  8
1
  6
Continuous
100
AcDbCircle
 10
180.9450262530106
 20
382.2604411933737
 30
0.0
 40
9.553418012615141
100
AcDbArc
 50
342.4120462260066
 51
17.58795377399468
  0
LINE
  5
BB2
330
18
100
AcDbEntity
  8
1
  6
Continuous
100
AcDbLine
 10
185.4984442656258
 20
373.6001871555294
 30
0.0
 11
185.4984442656258
 21
385.147192539322
 31
0.0
  0
LINE
  5
BB3
330
18
100
AcDbEntity
  8
1
  6
Continuous
100
AcDbLine
 10
184.6816005883836
 20
387.3736898474259
 30
0.0
 11
184.6816005883836
 21
371.3736898474258
 31
0.0
  0
LINE
  5
BB4
330
18
100
AcDbEntity
  8
1
  6
Continuous
100
AcDbLine
 10
183.8984442656259
 20
371.5369876555083
 30
0.0
 11
183.8984442656259
 21
387.2103920393429
 31
0.0
  0
LINE
  5
BB5
330
18
100
AcDbEntity
  8
1
  6
Continuous
100
AcDbLine
 10
183.1152879428682
 20
371.3736898474258
 30
0.0
 11
183.1152879428682
 21
387.3736898474259
 31
0.0
  0
LINE
  5
BB6
330
18
100
AcDbEntity
  8
1
  6
Continuous
100
AcDbLine
 10
181.4816005883837
 20
387.3736898474259
 30
0.0
 11
181.4816005883837
 21
371.3736898474258
 31
0.0
  0
LINE
  5
BB7
330
18
100
AcDbEntity
  8
1
  6
Continuous
100
AcDbLine
 10
182.298444265626
 20
383.4562074387644
 30
0.0
 11
182.298444265626
 21
375.2911722560873
 31
0.0
  0
LINE
  5
BB8
330
18
100
AcDbEntity
  8
1
  6
Continuous
100
AcDbLine
 10
180.6984442656259
 20
370.2236898474257
 30
0.0
 11
180.6984442656259
 21
388.5236898474258
 31
0.0
  0
LINE
  5
BB9
330
18
100
AcDbEntity
  8
1
  6
Continuous
100
AcDbLine
 10
190.4984442656258
 20
373.6001871555294
 30
0.0
 11
185.4984442656258
 21
373.6001871555294
 31
0.0
  0
LINE
  5
BBA
330
18
100
AcDbEntity
  8
1
  6
Continuous
100
AcDbLine
 10
185.945026253011
 20
379.3736898474255
 30
0.0
 11
190.0518622782406
 21
379.3736898474255
 31
0.0
  0
ARC
  5
BBB
330
18
100
AcDbEntity
  8
1
  6
Continuous
100
AcDbCircle
 10
195.051862278241
 20
376.4869385014774
 30
0.0
 40
9.553418012615141
100
AcDbArc
 50
162.4120462260066
 51
197.5879537739946
  0
LINE
  5
BBC
330
18
100
AcDbEntity
  8
1
  6
Continuous
100
AcDbLine
 10
183.8984442656259
 20
371.5369876555083
 30
0.0
 11
184.6816005883836
 21
371.3736898474256
 31
0.0
  0
LINE
  5
BBD
330
18
100
AcDbEntity
  8
1
  6
Continuous
100
AcDbLine
 10
185.4984442656261
 20
375.2911722560873
 30
0.0
 11
184.6816005883836
 21
371.3736898474258
 31
0.0
  0
LINE
  5
BBE
330
18
100
AcDbEntity
  8
1
  6
Continuous
100
AcDbLine
 10
183.8984442656259
 20
371.5369876555083
 30
0.0
 11
183.1152879428681
 21
371.3736898474258
 31
0.0
  0
LINE
  5
BBF
330
18
100
AcDbEntity
  8
1
  6
Continuous
100
AcDbLine
 10
180.6984442656259
 20
371.5369876555083
 30
0.0
 11
181.4816005883837
 21
371.3736898474256
 31
0.0
  0
LINE
  5
BC0
330
18
100
AcDbEntity
  8
1
  6
Continuous
100
AcDbLine
 10
182.298444265626
 20
375.2911722560873
 30
0.0
 11
181.4816005883839
 21
371.3736898474258
 31
0.0
  0
LINE
  5
BC1
330
18
100
AcDbEntity
  8
1
  6
Continuous
100
AcDbLine
 10
182.298444265626
 20
375.2911722560873
 30
0.0
 11
183.1152879428682
 21
371.3736898474256
 31
0.0
  0
LINE
  5
BC2
330
18
100
AcDbEntity
  8
1
  6
Continuous
100
AcDbLine
 10
190.4984442656258
 20
377.3836898474257
 30
0.0
 11
193.6984442656259
 21
377.3836898474257
 31
0.0
  0
LINE
  5
BC3
330
18
100
AcDbEntity
  8
1
  6
Continuous
100
AcDbLine
 10
193.6984442656259
 20
377.3836898474257
 30
0.0
 11
193.6984442656259
 21
381.3636898474257
 31
0.0
  0
LINE
  5
BC4
330
18
100
AcDbEntity
  8
1
  6
Continuous
100
AcDbLine
 10
192.6984442656185
 20
377.3836898474257
 30
0.0
 11
192.6984442656185
 21
381.3636898474257
 31
0.0
  0
LINE
  5
BC5
330
18
100
AcDbEntity
  8
1
  6
Continuous
100
AcDbLine
 10
190.4984442656258
 20
381.3636898474257
 30
0.0
 11
193.6984442656259
 21
381.3636898474257
 31
0.0
  0
ARC
  5
BC6
330
18
100
AcDbEntity
  8
1
  6
Continuous
100
AcDbCircle
 10
180.9450262530106
 20
376.4869385014774
 30
0.0
 40
9.553418012615141
100
AcDbArc
 50
342.4120462260053
 51
17.58795377399331
  0
LINE
  5
BC7
330
18
100
AcDbEntity
  8
1
  6
Continuous
100
AcDbLine
 10
190.4984442656258
 20
385.147192539322
 30
0.0
 11
185.4984442656258
 21
385.147192539322
 31
0.0
  0
LINE
  5
BC8
330
18
100
AcDbEntity
  8
1
  6
Continuous
100
AcDbLine
 10
183.8984442656259
 20
387.2103920393429
 30
0.0
 11
184.6816005883836
 21
387.3736898474255
 31
0.0
  0
LINE
  5
BC9
330
18
100
AcDbEntity
  8
1
  6
Continuous
100
AcDbLine
 10
185.4984442656258
 20
383.4562074387644
 30
0.0
 11
184.6816005883836
 21
387.3736898474259
 31
0.0
  0
LINE
  5
BCA
330
18
100
AcDbEntity
  8
1
  6
Continuous
100
AcDbLine
 10
183.8984442656259
 20
387.2103920393428
 30
0.0
 11
183.1152879428682
 21
387.3736898474255
 31
0.0
  0
LINE
  5
BCB
330
18
100
AcDbEntity
  8
1
  6
Continuous
100
AcDbLine
 10
180.6984442656259
 20
387.2103920393429
 30
0.0
 11
181.4816005883835
 21
387.3736898474255
 31
0.0
  0
LINE
  5
BCC
330
18
100
AcDbEntity
  8
1
  6
Continuous
100
AcDbLine
 10
182.298444265626
 20
383.4562074387641
 30
0.0
 11
181.4816005883837
 21
387.3736898474259
 31
0.0
  0
LINE
  5
BCD
330
18
100
AcDbEntity
  8
1
  6
Continuous
100
AcDbLine
 10
182.298444265626
 20
383.4562074387644
 30
0.0
 11
183.1152879428683
 21
387.3736898474259
 31
0.0
  0
CIRCLE
  5
1B44
330
18
100
AcDbEntity
  8
1
  6
Continuous
100
AcDbCircle
 10
44.15347172701824
 20
220.8736907951384
 30
0.0
 40
0.5
  0
CIRCLE
  5
1B4B
330
18
100
AcDbEntity
  8
1
  6
Continuous
100
AcDbCircle
 10
42.13536218922621
 20
220.8736907951384
 30
0.0
 40
0.5
  0
LINE
  5
1B4F
330
18
100
AcDbEntity
  8
1
  6
Continuous
100
AcDbLine
 10
40.35702024793221
 20
222.3736907951384
 30
0.0
 11
40.35702024793221
 21
220.3736907951384
 31
0.0
  0
LINE
  5
1B59
330
18
100
AcDbEntity
  8
1
  6
Continuous
100
AcDbLine
 10
40.35702024793221
 20
222.3736907951384
 30
0.0
 11
40.11302148075175
 21
221.8504337503242
 31
0.0
  0
LINE
  5
1B60
330
18
100
AcDbEntity
  8
1
  6
Continuous
100
AcDbLine
 10
42.13536218922621
 20
222.3736907951384
 30
0.0
 11
41.66395766843518
 21
221.0403574618051
 31
0.0
  0
CIRCLE
  5
1B63
330
18
100
AcDbEntity
  8
1
  6
Continuous
100
AcDbCircle
 10
44.15347172701824
 20
221.8736907951385
 30
0.0
 40
0.5
  0
LINE
  5
1B81
330
18
100
AcDbEntity
  8
1
  6
Continuous
100
AcDbLine
 10
34.93444426562604
 20
222.3736907951384
 30
0.0
 11
34.93444426562604
 21
220.3736907951384
 31
0.0
  0
LINE
  5
1B82
330
18
100
AcDbEntity
  8
1
  6
Continuous
100
AcDbLine
 10
36.09623617722486
 20
222.3736907951384
 30
0.0
 11
36.09623617722486
 21
220.3736907951384
 31
0.0
  0
LINE
  5
1B83
330
18
100
AcDbEntity
  8
1
  6
Continuous
100
AcDbLine
 10
37.24623617722484
 20
222.3736907951384
 30
0.0
 11
37.24623617722484
 21
220.3736907951384
 31
0.0
  0
LINE
  5
1B86
330
18
100
AcDbEntity
  8
1
  6
Continuous
100
AcDbLine
 10
36.09623617722486
 20
221.3736907951385
 30
0.0
 11
37.24623617722484
 21
221.3736907951385
 31
0.0
  0
LINE
  5
1B87
330
18
100
AcDbEntity
  8
1
  6
Continuous
100
AcDbLine
 10
35.53444426562603
 20
222.3736907951384
 30
0.0
 11
34.33444426562604
 21
222.3736907951384
 31
0.0
  0
LINE
  5
1B88
330
18
100
AcDbEntity
  8
1
  6
Continuous
100
AcDbLine
 10
39.13473516951418
 20
221.3736907951385
 30
0.0
 11
38.19561662504878
 21
221.3736907951385
 31
0.0
  0
ARC
  5
1C7C
330
18
100
AcDbEntity
  8
1
  6
Continuous
100
AcDbCircle
 10
398.6984442656284
 20
265.8736898474579
 30
0.0
 40
6.0
100
AcDbArc
 50
0.000000000000007
 51
90.0
  0
ARC
  5
1C7D
330
18
100
AcDbEntity
  8
1
  6
Continuous
100
AcDbCircle
 10
385.6984442656284
 20
265.8736898474579
 30
0.0
 40
6.0
100
AcDbArc
 50
90.0
 51
180.0
  0
LINE
  5
1C85
330
18
100
AcDbEntity
  8
4
  6
CENTER
 48
0.3
100
AcDbLine
 10
392.1984442656281
 20
185.3736898474578
 30
0.0
 11
392.1984442656281
 21
273.3736898474579
 31
0.0
  0
ARC
  5
1C8D
330
18
100
AcDbEntity
  8
1
  6
Continuous
100
AcDbCircle
 10
428.6984442656258
 20
222.8736898474581
 30
0.0
 40
6.0
100
AcDbArc
 50
270.0
 51
0.000000000000007
  0
ARC
  5
1C8E
330
18
100
AcDbEntity
  8
1
  6
Continuous
100
AcDbCircle
 10
428.6984442656258
 20
235.8736898474579
 30
0.0
 40
6.0
100
AcDbArc
 50
0.000000000000007
 51
90.0
  0
LINE
  5
1C8F
330
18
100
AcDbEntity
  8
4
  6
CENTER
 48
0.3
100
AcDbLine
 10
436.1984442656257
 20
229.3736898474579
 30
0.0
 11
348.1984442656258
 21
229.3736898474579
 31
0.0
  0
LINE
  5
1C90
330
18
100
AcDbEntity
  8
1
  6
Continuous
100
AcDbLine
 10
434.6984442656258
 20
222.8736898474581
 30
0.0
 11
434.6984442656258
 21
235.8736898474579
 31
0.0
  0
ARC
  5
1C96
330
18
100
AcDbEntity
  8
1
  6
Continuous
100
AcDbCircle
 10
398.6984442656284
 20
192.8736898474578
 30
0.0
 40
6.0
100
AcDbArc
 50
270.0
 51
0.000000000000007
  0
ARC
  5
1C97
330
18
100
AcDbEntity
  8
1
  6
Continuous
100
AcDbCircle
 10
385.6984442656284
 20
192.8736898474578
 30
0.0
 40
6.0
100
AcDbArc
 50
180.0
 51
270.0
  0
LINE
  5
1C98
330
18
100
AcDbEntity
  8
1
  6
Continuous
100
AcDbLine
 10
385.6984442656284
 20
186.8736898474578
 30
0.0
 11
398.6984442656284
 21
186.8736898474578
 31
0.0
  0
LINE
  5
1C9D
330
18
100
AcDbEntity
  8
1
  6
Continuous
100
AcDbLine
 10
379.6984442656258
 20
241.8736898474579
 30
0.0
 11
355.6984442656258
 21
241.8736898474579
 31
0.0
  0
LINE
  5
1C9E
330
18
100
AcDbEntity
  8
1
  6
Continuous
100
AcDbLine
 10
355.6984442656258
 20
216.8736898474579
 30
0.0
 11
379.6984442656258
 21
216.8736898474579
 31
0.0
  0
CIRCLE
  5
1C9F
330
18
100
AcDbEntity
  8
1
  6
Continuous
100
AcDbCircle
 10
368.1984442656258
 20
229.3736898474579
 30
0.0
 40
2.25
  0
CIRCLE
  5
1CA0
330
18
100
AcDbEntity
  8
1
  6
Continuous
100
AcDbCircle
 10
392.1984442656281
 20
229.3736898474579
 30
0.0
 40
5.0
  0
CIRCLE
  5
1CA1
330
18
100
AcDbEntity
  8
1
  6
Continuous
100
AcDbCircle
 10
392.1984442656281
 20
229.3736898474579
 30
0.0
 40
4.7
  0
LINE
  5
1CA2
330
18
100
AcDbEntity
  8
1
  6
Continuous
100
AcDbLine
 10
404.6984442656284
 20
192.8736898474578
 30
0.0
 11
404.6984442656284
 21
265.8736898474579
 31
0.0
  0
LINE
  5
1CA3
330
18
100
AcDbEntity
  8
1
  6
Continuous
100
AcDbLine
 10
379.6984442656284
 20
192.8736898474578
 30
0.0
 11
379.6984442656284
 21
265.8736898474579
 31
0.0
  0
CIRCLE
  5
1CA4
330
18
100
AcDbEntity
  8
1
  6
Continuous
100
AcDbCircle
 10
416.1984442656258
 20
229.3736898474579
 30
0.0
 40
2.25
  0
CIRCLE
  5
1CA5
330
18
100
AcDbEntity
  8
1
  6
Continuous
100
AcDbCircle
 10
427.1984442656258
 20
229.3736898474579
 30
0.0
 40
2.25
  0
LINE
  5
1CA6
330
18
100
AcDbEntity
  8
4
  6
CENTER
 48
0.25
100
AcDbLine
 10
427.1984442656258
 20
233.1236898474579
 30
0.0
 11
427.1984442656258
 21
225.6236898474579
 31
0.0
  0
LINE
  5
1CA7
330
18
100
AcDbEntity
  8
4
  6
CENTER
 48
0.25
100
AcDbLine
 10
416.1984442656258
 20
233.1236898474579
 30
0.0
 11
416.1984442656258
 21
225.6236898474579
 31
0.0
  0
LINE
  5
1CA8
330
18
100
AcDbEntity
  8
1
  6
Continuous
100
AcDbLine
 10
398.1984442656282
 20
224.8936898472368
 30
0.0
 11
398.1984442656282
 21
243.6965655027695
 31
0.0
  0
LINE
  5
1CA9
330
18
100
AcDbEntity
  8
1
  6
Continuous
100
AcDbLine
 10
386.1984442656282
 20
224.8936898472368
 30
0.0
 11
386.1984442656282
 21
243.6965655027695
 31
0.0
  0
LINE
  5
1CAA
330
18
100
AcDbEntity
  8
1
  6
Continuous
100
AcDbLine
 10
379.6984442656277
 20
220.3736898474579
 30
0.0
 11
404.6984442656276
 21
220.3736898474579
 31
0.0
  0
LINE
  5
1CAB
330
18
100
AcDbEntity
  8
1
  6
Continuous
100
AcDbLine
 10
368.8992089547382
 20
222.3736907951384
 30
0.0
 11
368.6552101875577
 21
221.8504337503242
 31
0.0
  0
LINE
  5
1CAC
330
18
100
AcDbEntity
  8
1
  6
Continuous
100
AcDbLine
 10
404.6984442656258
 20
216.8736898474579
 30
0.0
 11
428.6984442656258
 21
216.8736898474579
 31
0.0
  0
LINE
  5
1CAD
330
18
100
AcDbEntity
  8
1
  6
Continuous
100
AcDbLine
 10
363.476632972432
 20
222.3736907951384
 30
0.0
 11
363.476632972432
 21
220.3736907951384
 31
0.0
  0
LINE
  5
1CAE
330
18
100
AcDbEntity
  8
1
  6
Continuous
100
AcDbLine
 10
364.6384248840308
 20
222.3736907951384
 30
0.0
 11
364.6384248840308
 21
220.3736907951384
 31
0.0
  0
LINE
  5
1CAF
330
18
100
AcDbEntity
  8
1
  6
Continuous
100
AcDbLine
 10
365.7884248840308
 20
222.3736907951384
 30
0.0
 11
365.7884248840308
 21
220.3736907951384
 31
0.0
  0
LINE
  5
1CB0
330
18
100
AcDbEntity
  8
1
  6
Continuous
100
AcDbLine
 10
364.6384248840308
 20
221.3736907951385
 30
0.0
 11
365.7884248840308
 21
221.3736907951385
 31
0.0
  0
LINE
  5
1CB1
330
18
100
AcDbEntity
  8
1
  6
Continuous
100
AcDbLine
 10
364.076632972432
 20
222.3736907951384
 30
0.0
 11
362.876632972432
 21
222.3736907951384
 31
0.0
  0
LINE
  5
1CB2
330
18
100
AcDbEntity
  8
1
  6
Continuous
100
AcDbLine
 10
367.6769238763201
 20
221.3736907951385
 30
0.0
 11
366.7378053318547
 21
221.3736907951385
 31
0.0
  0
CIRCLE
  5
1CB3
330
18
100
AcDbEntity
  8
1
  6
Continuous
100
AcDbCircle
 10
372.6956604338242
 20
220.8736907951384
 30
0.0
 40
0.5
  0
CIRCLE
  5
1CB4
330
18
100
AcDbEntity
  8
1
  6
Continuous
100
AcDbCircle
 10
372.6956604338242
 20
221.8736907951385
 30
0.0
 40
0.5
  0
LINE
  5
1CB5
330
18
100
AcDbEntity
  8
1
  6
Continuous
100
AcDbLine
 10
370.6775508960321
 20
222.3736907951384
 30
0.0
 11
370.2061463752411
 21
221.0403574618051
 31
0.0
  0
CIRCLE
  5
1CB6
330
18
100
AcDbEntity
  8
1
  6
Continuous
100
AcDbCircle
 10
370.6775508960321
 20
220.8736907951384
 30
0.0
 40
0.5
  0
LINE
  5
1CB7
330
18
100
AcDbEntity
  8
1
  6
Continuous
100
AcDbLine
 10
368.8992089547382
 20
222.3736907951384
 30
0.0
 11
368.8992089547382
 21
220.3736907951384
 31
0.0
  0
ARC
  5
1CB8
330
18
100
AcDbEntity
  8
1
  6
Continuous
100
AcDbCircle
 10
392.1984442656284
 20
193.3736898474578
 30
0.0
 40
2.25
100
AcDbArc
 50
180.0
 51
0.000000000000007
  0
ARC
  5
1CB9
330
18
100
AcDbEntity
  8
1
  6
Continuous
100
AcDbCircle
 10
392.1984442656284
 20
195.3736898474578
 30
0.0
 40
2.25
100
AcDbArc
 50
0.000000000000007
 51
180.0
  0
LINE
  5
1CBA
330
18
100
AcDbEntity
  8
4
  6
CENTER
 48
0.25
100
AcDbLine
 10
395.9484442656293
 20
194.3736898476823
 30
0.0
 11
388.4484442656293
 21
194.3736898476739
 31
0.0
  0
LINE
  5
1CBB
330
18
100
AcDbEntity
  8
1
  6
Continuous
100
AcDbLine
 10
394.4484442656284
 20
193.3736898474578
 30
0.0
 11
394.4484442656284
 21
195.3736898474578
 31
0.0
  0
LINE
  5
1CBC
330
18
100
AcDbEntity
  8
1
  6
Continuous
100
AcDbLine
 10
389.9484442656284
 20
195.3736898474578
 30
0.0
 11
389.9484442656284
 21
193.3736898474578
 31
0.0
  0
ARC
  5
1CBD
330
18
100
AcDbEntity
  8
1
  6
Continuous
100
AcDbCircle
 10
392.1984442656284
 20
204.3736898474578
 30
0.0
 40
2.25
100
AcDbArc
 50
180.0
 51
0.000000000000007
  0
LINE
  5
1CBE
330
18
100
AcDbEntity
  8
4
  6
CENTER
 48
0.25
100
AcDbLine
 10
395.9484442656293
 20
205.3736898476823
 30
0.0
 11
388.4484442656293
 21
205.3736898476739
 31
0.0
  0
ARC
  5
1CBF
330
18
100
AcDbEntity
  8
1
  6
Continuous
100
AcDbCircle
 10
392.1984442656284
 20
206.3736898474578
 30
0.0
 40
2.25
100
AcDbArc
 50
0.000000000000007
 51
180.0
  0
LINE
  5
1CC0
330
18
100
AcDbEntity
  8
1
  6
Continuous
100
AcDbLine
 10
394.4484442656284
 20
204.3736898474578
 30
0.0
 11
394.4484442656284
 21
206.3736898474578
 31
0.0
  0
LINE
  5
1CC1
330
18
100
AcDbEntity
  8
1
  6
Continuous
100
AcDbLine
 10
389.9484442656284
 20
206.3736898474578
 30
0.0
 11
389.9484442656284
 21
204.3736898474578
 31
0.0
  0
LINE
  5
1CC2
330
18
100
AcDbEntity
  8
1
  6
Continuous
100
AcDbLine
 10
395.1584442656282
 20
224.8936898472369
 30
0.0
 11
395.1584442656282
 21
225.3440000330925
 31
0.0
  0
ARC
  5
1CC3
330
18
100
AcDbEntity
  8
1
  6
Continuous
100
AcDbCircle
 10
396.6784442656282
 20
224.8936898472368
 30
0.0
 40
1.51999999999998
100
AcDbArc
 50
180.0
 51
0.000000000000007
  0
LINE
  5
1CC4
330
18
100
AcDbEntity
  8
1
  6
Continuous
100
AcDbLine
 10
389.2384442656283
 20
224.8936898472369
 30
0.0
 11
389.2384442656283
 21
225.3440000330925
 31
0.0
  0
ARC
  5
1CC5
330
18
100
AcDbEntity
  8
1
  6
Continuous
100
AcDbCircle
 10
387.7184442656282
 20
224.8936898472368
 30
0.0
 40
1.519999999999995
100
AcDbArc
 50
180.0
 51
0.000000000000007
  0
LINE
  5
1CC6
330
18
100
AcDbEntity
  8
1
  6
Continuous
100
AcDbLine
 10
404.6984442656276
 20
238.3736898474579
 30
0.0
 11
398.6984442656282
 21
238.3736898474579
 31
0.0
  0
LINE
  5
1CC7
330
18
100
AcDbEntity
  8
1
  6
Continuous
100
AcDbLine
 10
428.6984442656258
 20
241.8736898474579
 30
0.0
 11
404.6984442656258
 21
241.8736898474579
 31
0.0
  0
ARC
  5
1CC8
330
18
100
AcDbEntity
  8
1
  6
Continuous
100
AcDbCircle
 10
392.1984442656284
 20
252.3736898474579
 30
0.0
 40
2.25
100
AcDbArc
 50
180.0
 51
0.000000000000007
  0
CIRCLE
  5
1CC9
330
18
100
AcDbEntity
  8
1
  6
Continuous
100
AcDbCircle
 10
392.1984442656281
 20
253.3736898472369
 30
0.0
 40
2.25
  0
LINE
  5
1CCA
330
18
100
AcDbEntity
  8
1
  6
Continuous
100
AcDbLine
 10
385.6984442656282
 20
238.3736898474579
 30
0.0
 11
379.6984442656277
 21
238.3736898474579
 31
0.0
  0
LINE
  5
1CCB
330
18
100
AcDbEntity
  8
1
  6
Continuous
100
AcDbLine
 10
398.6984442656282
 20
242.373689847237
 30
0.0
 11
398.6984442656282
 21
235.951040116427
 31
0.0
  0
LINE
  5
1CCC
330
18
100
AcDbEntity
  8
1
  6
Continuous
100
AcDbLine
 10
385.6984442656282
 20
242.373689847237
 30
0.0
 11
385.6984442656282
 21
235.951040116427
 31
0.0
  0
LINE
  5
1CCD
330
18
100
AcDbEntity
  8
1
  6
Continuous
100
AcDbLine
 10
387.1984442656282
 20
238.8736898472366
 30
0.0
 11
397.1984442656282
 21
238.8736898472366
 31
0.0
  0
ARC
  5
1CCE
330
18
100
AcDbEntity
  8
1
  6
Continuous
100
AcDbCircle
 10
397.6984442656282
 20
235.951040116427
 30
0.0
 40
1.0
100
AcDbArc
 50
299.9999999999662
 51
0.000000000000007
  0
ARC
  5
1CCF
330
18
100
AcDbEntity
  8
1
  6
Continuous
100
AcDbCircle
 10
392.1984442656269
 20
229.3736898474582
 30
0.0
 40
9.149999999999492
100
AcDbArc
 50
44.80825659041249
 51
49.0243896573899
  0
ARC
  5
1CD0
330
18
100
AcDbEntity
  8
1
  6
Continuous
100
AcDbCircle
 10
392.1984442656269
 20
229.3736898474582
 30
0.0
 40
9.149999999999492
100
AcDbArc
 50
130.9756103425858
 51
135.1917434095678
  0
ARC
  5
1CD1
330
18
100
AcDbEntity
  8
1
  6
Continuous
100
AcDbCircle
 10
386.6984442656282
 20
235.9510401164271
 30
0.0
 40
1.0
100
AcDbArc
 50
180.0
 51
240.0000000000338
  0
LINE
  5
1CD2
330
18
100
AcDbEntity
  8
1
  6
Continuous
100
AcDbLine
 10
387.1984442656282
 20
241.8736898472369
 30
0.0
 11
397.1984442656282
 21
241.8736898472369
 31
0.0
  0
LINE
  5
1CD3
330
18
100
AcDbEntity
  8
1
  6
Continuous
100
AcDbLine
 10
396.6984442656282
 20
244.373689847237
 30
0.0
 11
387.6984442656281
 21
244.373689847237
 31
0.0
  0
ARC
  5
1CD4
330
18
100
AcDbEntity
  8
1
  6
Continuous
100
AcDbCircle
 10
396.6984442656282
 20
242.3736898472371
 30
0.0
 40
2.0
100
AcDbArc
 50
0.000000000000007
 51
90.0
  0
LINE
  5
1CD5
330
18
100
AcDbEntity
  8
1
  6
Continuous
100
AcDbLine
 10
398.6984442656282
 20
241.8736898474579
 30
0.0
 11
398.1984442656282
 21
241.8736898474579
 31
0.0
  0
ARC
  5
1CD6
330
18
100
AcDbEntity
  8
1
  6
Continuous
100
AcDbCircle
 10
387.6984442656281
 20
242.3736898472371
 30
0.0
 40
2.0
100
AcDbArc
 50
90.0
 51
180.0
  0
LINE
  5
1CD7
330
18
100
AcDbEntity
  8
1
  6
Continuous
100
AcDbLine
 10
386.1984442656282
 20
241.8736898474579
 30
0.0
 11
385.6984442656282
 21
241.8736898474579
 31
0.0
  0
ARC
  5
1CD8
330
18
100
AcDbEntity
  8
1
  6
Continuous
100
AcDbCircle
 10
392.1984442656284
 20
263.3736898474579
 30
0.0
 40
2.25
100
AcDbArc
 50
180.0
 51
0.000000000000007
  0
ARC
  5
1CD9
330
18
100
AcDbEntity
  8
1
  6
Continuous
100
AcDbCircle
 10
392.1984442656284
 20
254.3736898474579
 30
0.0
 40
2.25
100
AcDbArc
 50
0.000000000000007
 51
180.0
  0
LINE
  5
1CDA
330
18
100
AcDbEntity
  8
4
  6
CENTER
 48
0.25
100
AcDbLine
 10
395.9484442656293
 20
253.3736898472328
 30
0.0
 11
388.4484442656293
 21
253.3736898472409
 31
0.0
  0
LINE
  5
1CDB
330
18
100
AcDbEntity
  8
4
  6
CENTER
 48
0.25
100
AcDbLine
 10
389.1984442656282
 20
253.3736898472369
 30
0.0
 11
395.1984442656282
 21
253.3736898472369
 31
0.0
  0
LINE
  5
1CDC
330
18
100
AcDbEntity
  8
1
  6
Continuous
100
AcDbLine
 10
394.4484442656284
 20
252.3736898474579
 30
0.0
 11
394.4484442656284
 21
254.3736898474579
 31
0.0
  0
LINE
  5
1CDD
330
18
100
AcDbEntity
  8
1
  6
Continuous
100
AcDbLine
 10
389.9484442656284
 20
254.3736898474579
 30
0.0
 11
389.9484442656284
 21
252.3736898474579
 31
0.0
  0
LINE
  5
1CDE
330
18
100
AcDbEntity
  8
4
  6
CENTER
 48
0.25
100
AcDbLine
 10
395.9484442656293
 20
264.3736898472326
 30
0.0
 11
388.4484442656293
 21
264.3736898472409
 31
0.0
  0
LINE
  5
1CDF
330
18
100
AcDbEntity
  8
1
  6
Continuous
100
AcDbLine
 10
385.6984442656284
 20
271.8736898474579
 30
0.0
 11
398.6984442656284
 21
271.8736898474579
 31
0.0
  0
ARC
  5
1CE0
330
18
100
AcDbEntity
  8
1
  6
Continuous
100
AcDbCircle
 10
392.1984442656284
 20
265.3736898474579
 30
0.0
 40
2.25
100
AcDbArc
 50
0.000000000000007
 51
180.0
  0
LINE
  5
1CE1
330
18
100
AcDbEntity
  8
1
  6
Continuous
100
AcDbLine
 10
394.4484442656284
 20
263.3736898474579
 30
0.0
 11
394.4484442656284
 21
265.3736898474579
 31
0.0
  0
LINE
  5
1CE2
330
18
100
AcDbEntity
  8
1
  6
Continuous
100
AcDbLine
 10
389.9484442656284
 20
265.3736898474579
 30
0.0
 11
389.9484442656284
 21
263.3736898474579
 31
0.0
  0
LINE
  5
1CE3
330
18
100
AcDbEntity
  8
4
  6
CENTER
 48
0.25
100
AcDbLine
 10
368.1984442656258
 20
233.1236898474579
 30
0.0
 11
368.1984442656258
 21
225.6236898474579
 31
0.0
  0
CIRCLE
  5
1CE4
330
18
100
AcDbEntity
  8
1
  6
Continuous
100
AcDbCircle
 10
357.1984442656258
 20
229.3736898474579
 30
0.0
 40
2.25
  0
LINE
  5
1CE5
330
18
100
AcDbEntity
  8
4
  6
CENTER
 48
0.25
100
AcDbLine
 10
357.1984442656258
 20
233.1236898474579
 30
0.0
 11
357.1984442656258
 21
225.6236898474579
 31
0.0
  0
LINE
  5
1CE6
330
18
100
AcDbEntity
  8
1
  6
Continuous
100
AcDbLine
 10
349.6984442656257
 20
235.8736898474579
 30
0.0
 11
349.6984442656257
 21
222.8736898474579
 31
0.0
  0
ARC
  5
1CE7
330
18
100
AcDbEntity
  8
1
  6
Continuous
100
AcDbCircle
 10
355.6984442656258
 20
222.8736898474579
 30
0.0
 40
6.0
100
AcDbArc
 50
180.0
 51
270.0
  0
ARC
  5
1CE8
330
18
100
AcDbEntity
  8
1
  6
Continuous
100
AcDbCircle
 10
355.6984442656258
 20
235.8736898474579
 30
0.0
 40
6.0
100
AcDbArc
 50
90.0
 51
180.0
  0
LINE
  5
1CEB
330
18
100
AcDbEntity
  8
1
  6
Continuous
100
AcDbLine
 10
287.6984442656259
 20
217.8736898474257
 30
0.0
 11
287.6984442656259
 21
186.8736898474257
 31
0.0
  0
LINE
  5
1CEC
330
18
100
AcDbEntity
  8
1
  6
Continuous
100
AcDbLine
 10
289.6984442656259
 20
186.8736898474257
 30
0.0
 11
289.6984442656259
 21
217.8736898474257
 31
0.0
  0
LINE
  5
1CED
330
18
100
AcDbEntity
  8
1
  6
Continuous
100
AcDbLine
 10
289.6984442656259
 20
186.8736898474257
 30
0.0
 11
287.6984442656259
 21
186.8736898474257
 31
0.0
  0
LINE
  5
1CEF
330
18
100
AcDbEntity
  8
1
  6
Continuous
100
AcDbLine
 10
280.1984442656259
 20
238.5236898474258
 30
0.0
 11
280.1984442656259
 21
220.2236898474257
 31
0.0
  0
LINE
  5
1CF0
330
18
100
AcDbEntity
  8
1
  6
Continuous
100
AcDbLine
 10
276.198444265626
 20
220.2236898474257
 30
0.0
 11
276.198444265626
 21
238.5236898474258
 31
0.0
  0
LINE
  5
1CF1
330
18
100
AcDbEntity
  8
1
  6
Continuous
100
AcDbLine
 10
281.6984442656259
 20
220.2236898474257
 30
0.0
 11
281.6984442656259
 21
238.5236898474258
 31
0.0
  0
LINE
  5
1CF2
330
18
100
AcDbEntity
  8
1
  6
Continuous
100
AcDbLine
 10
279.1984442656259
 20
216.8736898474258
 30
0.0
 11
279.1984442656259
 21
241.8736898474258
 31
0.0
  0
LINE
  5
1CF3
330
18
100
AcDbEntity
  8
1
  6
Continuous
100
AcDbLine
 10
277.1984442656259
 20
216.8736898474258
 30
0.0
 11
277.1984442656259
 21
241.8736898474258
 31
0.0
  0
LINE
  5
1CF4
330
18
100
AcDbEntity
  8
1
  6
Continuous
100
AcDbLine
 10
284.6984442656258
 20
223.3736898472254
 30
0.0
 11
284.6984442656258
 21
238.3736898474257
 31
0.0
  0
LINE
  5
1CF5
330
18
100
AcDbEntity
  8
1
  6
Continuous
100
AcDbLine
 10
283.6984442656259
 20
220.8736898474258
 30
0.0
 11
283.6984442656259
 21
237.8736898474258
 31
0.0
  0
LINE
  5
1CF6
330
18
100
AcDbEntity
  8
1
  6
Continuous
100
AcDbLine
 10
287.1984442656259
 20
224.6736898474258
 30
0.0
 11
287.1984442656259
 21
234.0736898474255
 31
0.0
  0
LINE
  5
1CF7
330
18
100
AcDbEntity
  8
1
  6
Continuous
100
AcDbLine
 10
285.6984442656259
 20
224.6736898474258
 30
0.0
 11
285.6984442656259
 21
234.0736898474255
 31
0.0
  0
LINE
  5
1CF8
330
18
100
AcDbEntity
  8
1
  6
Continuous
100
AcDbLine
 10
285.9984442656259
 20
224.3736898474256
 30
0.0
 11
285.9984442656259
 21
234.3736898474257
 31
0.0
  0
LINE
  5
1CF9
330
18
100
AcDbEntity
  8
1
  6
Continuous
100
AcDbLine
 10
286.8984442656259
 20
224.3736898474259
 30
0.0
 11
286.8984442656259
 21
234.3736898474257
 31
0.0
  0
LINE
  5
1CFA
330
18
100
AcDbEntity
  8
1
  6
Continuous
100
AcDbLine
 10
285.5984442656259
 20
233.3736898474258
 30
0.0
 11
285.5984442656259
 21
225.3736898474258
 31
0.0
  0
LINE
  5
1CFB
330
18
100
AcDbEntity
  8
1
  6
Continuous
100
AcDbLine
 10
274.6984442656259
 20
220.2236898474257
 30
0.0
 11
274.6984442656259
 21
238.5236898474258
 31
0.0
  0
LINE
  5
1CFC
330
18
100
AcDbEntity
  8
1
  6
Continuous
100
AcDbLine
 10
273.9152879428681
 20
237.3736898474258
 30
0.0
 11
273.9152879428681
 21
221.3736898474258
 31
0.0
  0
LINE
  5
1CFD
330
18
100
AcDbEntity
  8
1
  6
Continuous
100
AcDbLine
 10
272.2816005883835
 20
221.3736898474258
 30
0.0
 11
272.2816005883835
 21
237.3736898474258
 31
0.0
  0
LINE
  5
1CFE
330
18
100
AcDbEntity
  8
1
  6
Continuous
100
AcDbLine
 10
271.4984442656259
 20
221.5369876555084
 30
0.0
 11
271.4984442656259
 21
237.2103920393429
 31
0.0
  0
LINE
  5
1CFF
330
18
100
AcDbEntity
  8
1
  6
Continuous
100
AcDbLine
 10
270.7152879428682
 20
237.3736898474258
 30
0.0
 11
270.7152879428682
 21
221.3736898474258
 31
0.0
  0
LINE
  5
1D00
330
18
100
AcDbEntity
  8
1
  6
Continuous
100
AcDbLine
 10
273.0984442656259
 20
233.4562074387643
 30
0.0
 11
273.0984442656259
 21
225.2911722560873
 31
0.0
  0
LINE
  5
1D01
330
18
100
AcDbEntity
  8
1
  6
Continuous
100
AcDbLine
 10
269.8984442656258
 20
224.3736898474257
 30
0.0
 11
269.8984442656258
 21
234.3736898474257
 31
0.0
  0
ARC
  5
1D02
330
18
100
AcDbEntity
  8
1
  6
Continuous
100
AcDbCircle
 10
260.3450262530104
 20
229.3736898474258
 30
0.0
 40
9.553418012615159
100
AcDbArc
 50
342.4120462260069
 51
17.5879537739931
  0
LINE
  5
1D03
330
18
100
AcDbEntity
  8
1
  6
Continuous
100
AcDbLine
 10
261.698444265626
 20
231.3736898474314
 30
0.0
 11
261.698444265626
 21
227.3736898474203
 31
0.0
  0
LINE
  5
1D04
330
18
100
AcDbEntity
  8
1
  6
Continuous
100
AcDbLine
 10
264.8984442656258
 20
224.3736898474257
 30
0.0
 11
264.8984442656258
 21
234.3736898474257
 31
0.0
  0
ARC
  5
1D05
330
18
100
AcDbEntity
  8
1
  6
Continuous
100
AcDbCircle
 10
274.4518622782411
 20
229.3736898474258
 30
0.0
 40
9.553418012615159
100
AcDbArc
 50
162.4120462260069
 51
197.5879537739931
  0
LINE
  5
1D06
330
18
100
AcDbEntity
  8
1
  6
Continuous
100
AcDbLine
 10
261.698444265626
 20
231.3736898474258
 30
0.0
 11
261.698444265626
 21
227.3736898474258
 31
0.0
  0
ARC
  5
1D07
330
18
100
AcDbEntity
  8
1
  6
Continuous
100
AcDbCircle
 10
264.6683317656119
 20
229.3736898474258
 30
0.0
 40
2.969887499986186
100
AcDbArc
 50
131.5510355611309
 51
228.448964438869
  0
LINE
  5
1D08
330
18
100
AcDbEntity
  8
1
  6
Continuous
100
AcDbLine
 10
274.6984442656259
 20
220.2236898474257
 30
0.0
 11
276.198444265626
 21
220.2236898474257
 31
0.0
  0
LINE
  5
1D09
330
18
100
AcDbEntity
  8
4
  6
CENTER
 48
0.3
100
AcDbLine
 10
291.1984442656259
 20
229.3736898474258
 30
0.0
 11
258.6984442656259
 21
229.3736898474258
 31
0.0
  0
LINE
  5
1D0A
330
18
100
AcDbEntity
  8
4
  6
CENTER
 48
0.25
100
AcDbLine
 10
291.1984442656259
 20
194.3736898476883
 30
0.0
 11
286.198444265647
 21
194.3736898476909
 31
0.0
  0
LINE
  5
1D0B
330
18
100
AcDbEntity
  8
4
  6
CENTER
 48
0.25
100
AcDbLine
 10
291.1984442656259
 20
205.3736898475895
 30
0.0
 11
286.198444265647
 21
205.3736898475745
 31
0.0
  0
ARC
  5
1D0C
330
18
100
AcDbEntity
  8
1
  6
Continuous
100
AcDbCircle
 10
284.1984442656259
 20
220.8736898474258
 30
0.0
 40
2.500000000000003
100
AcDbArc
 50
180.0
 51
270.0
  0
ARC
  5
1D0D
330
18
100
AcDbEntity
  8
1
  6
Continuous
100
AcDbCircle
 10
287.1984442656259
 20
217.8736898474257
 30
0.0
 40
2.500000000000003
100
AcDbArc
 50
0.000000000000007
 51
90.0
  0
ARC
  5
1D0E
330
18
100
AcDbEntity
  8
1
  6
Continuous
100
AcDbCircle
 10
287.1984442656259
 20
217.8736898474257
 30
0.0
 40
0.5000000000000036
100
AcDbArc
 50
0.000000000000007
 51
90.0
  0
LINE
  5
1D0F
330
18
100
AcDbEntity
  8
1
  6
Continuous
100
AcDbLine
 10
284.1984442656259
 20
218.3736898474257
 30
0.0
 11
287.1984442656259
 21
218.3736898474257
 31
0.0
  0
LINE
  5
1D10
330
18
100
AcDbEntity
  8
1
  6
Continuous
100
AcDbLine
 10
279.1984442656259
 20
216.8736898474258
 30
0.0
 11
277.1984442656259
 21
216.8736898474258
 31
0.0
  0
LINE
  5
1D11
330
18
100
AcDbEntity
  8
1
  6
Continuous
100
AcDbLine
 10
283.6984442656259
 20
223.3736898472256
 30
0.0
 11
284.6984442656258
 21
223.3736898472256
 31
0.0
  0
ARC
  5
1D12
330
18
100
AcDbEntity
  8
1
  6
Continuous
100
AcDbCircle
 10
284.1984442656259
 20
220.8736898474258
 30
0.0
 40
0.5000000000000016
100
AcDbArc
 50
180.0
 51
270.0
  0
LINE
  5
1D13
330
18
100
AcDbEntity
  8
1
  6
Continuous
100
AcDbLine
 10
287.1984442656259
 20
220.3736898474259
 30
0.0
 11
284.1984442656259
 21
220.3736898474259
 31
0.0
  0
LINE
  5
1D14
330
18
100
AcDbEntity
  8
1
  6
Continuous
100
AcDbLine
 10
285.5984442656259
 20
226.6723013155778
 30
0.0
 11
284.6984442656259
 21
226.6723013155778
 31
0.0
  0
LINE
  5
1D15
330
18
100
AcDbEntity
  8
1
  6
Continuous
100
AcDbLine
 10
285.5984442656259
 20
225.3736898474258
 30
0.0
 11
284.6984442656258
 21
225.3736898474258
 31
0.0
  0
LINE
  5
1D16
330
18
100
AcDbEntity
  8
1
  6
Continuous
100
AcDbLine
 10
285.6984442656259
 20
225.2736898474256
 30
0.0
 11
285.598444265626
 21
225.3736898474256
 31
0.0
  0
LINE
  5
1D17
330
18
100
AcDbEntity
  8
1
  6
Continuous
100
AcDbLine
 10
285.598444265626
 20
226.6723013155779
 30
0.0
 11
285.6984442656259
 21
226.6337080956619
 31
0.0
  0
LINE
  5
1D18
330
18
100
AcDbEntity
  8
1
  6
Continuous
100
AcDbLine
 10
287.1984442656259
 20
224.6736898474257
 30
0.0
 11
286.8984442656259
 21
224.3736898474259
 31
0.0
  0
LINE
  5
1D19
330
18
100
AcDbEntity
  8
1
  6
Continuous
100
AcDbLine
 10
285.9984442656259
 20
224.3736898474256
 30
0.0
 11
285.6984442656259
 21
224.6736898474257
 31
0.0
  0
LINE
  5
1D1A
330
18
100
AcDbEntity
  8
1
  6
Continuous
100
AcDbLine
 10
286.8984442656259
 20
224.3736898474257
 30
0.0
 11
285.9984442656259
 21
224.3736898474257
 31
0.0
  0
LINE
  5
1D1B
330
18
100
AcDbEntity
  8
2
  6
Continuous
100
AcDbLine
 10
284.6984442656259
 20
227.951906409616
 30
0.0
 11
285.5984442656292
 21
226.6723013155806
 31
0.0
  0
LINE
  5
1D1C
330
18
100
AcDbEntity
  8
1
  6
Continuous
100
AcDbLine
 10
276.198444265626
 20
220.6236898474258
 30
0.0
 11
277.1984442656259
 21
220.6236898474258
 31
0.0
  0
LINE
  5
1D1D
330
18
100
AcDbEntity
  8
1
  6
Continuous
100
AcDbLine
 10
281.6984442656259
 20
220.2236898474257
 30
0.0
 11
280.1984442656259
 21
220.2236898474257
 31
0.0
  0
LINE
  5
1D1E
330
18
100
AcDbEntity
  8
1
  6
Continuous
100
AcDbLine
 10
280.1984442656259
 20
220.6236898474259
 30
0.0
 11
279.1984442656259
 21
220.6236898474259
 31
0.0
  0
LINE
  5
1D1F
330
18
100
AcDbEntity
  8
1
  6
Continuous
100
AcDbLine
 10
279.1984442656259
 20
227.513582323652
 30
0.0
 11
280.1984442656259
 21
227.513582323652
 31
0.0
  0
LINE
  5
1D20
330
18
100
AcDbEntity
  8
1
  6
Continuous
100
AcDbLine
 10
276.198444265626
 20
227.513582323652
 30
0.0
 11
277.1984442656259
 21
227.513582323652
 31
0.0
  0
LINE
  5
1D21
330
18
100
AcDbEntity
  8
1
  6
Continuous
100
AcDbLine
 10
265.345026253011
 20
223.6001871555294
 30
0.0
 11
269.4518622782406
 21
223.6001871555294
 31
0.0
  0
LINE
  5
1D22
330
18
100
AcDbEntity
  8
1
  6
Continuous
100
AcDbLine
 10
265.345026253011
 20
226.4869385014776
 30
0.0
 11
269.4518622782406
 21
226.4869385014776
 31
0.0
  0
LINE
  5
1D23
330
18
100
AcDbEntity
  8
1
  6
Continuous
100
AcDbLine
 10
273.0984442656258
 20
225.2911722560873
 30
0.0
 11
273.915287942868
 21
221.3736898474258
 31
0.0
  0
LINE
  5
1D24
330
18
100
AcDbEntity
  8
1
  6
Continuous
100
AcDbLine
 10
274.6984442656259
 20
221.5369876555083
 30
0.0
 11
273.9152879428681
 21
221.3736898474256
 31
0.0
  0
LINE
  5
1D25
330
18
100
AcDbEntity
  8
1
  6
Continuous
100
AcDbLine
 10
273.0984442656259
 20
225.2911722560873
 30
0.0
 11
272.2816005883835
 21
221.3736898474256
 31
0.0
  0
LINE
  5
1D26
330
18
100
AcDbEntity
  8
1
  6
Continuous
100
AcDbLine
 10
271.4984442656259
 20
221.5369876555083
 30
0.0
 11
272.2816005883836
 21
221.3736898474258
 31
0.0
  0
LINE
  5
1D27
330
18
100
AcDbEntity
  8
1
  6
Continuous
100
AcDbLine
 10
269.8984442656257
 20
225.2911722560873
 30
0.0
 11
270.715287942868
 21
221.3736898474258
 31
0.0
  0
LINE
  5
1D28
330
18
100
AcDbEntity
  8
1
  6
Continuous
100
AcDbLine
 10
271.4984442656259
 20
221.5369876555083
 30
0.0
 11
270.7152879428682
 21
221.3736898474256
 31
0.0
  0
LINE
  5
1D29
330
18
100
AcDbEntity
  8
1
  6
Continuous
100
AcDbLine
 10
269.8984442656259
 20
224.3736898474257
 30
0.0
 11
269.4518622782408
 21
223.6001871555294
 31
0.0
  0
ARC
  5
1D2A
330
18
100
AcDbEntity
  8
1
  6
Continuous
100
AcDbCircle
 10
267.3684902935273
 20
225.0515889711372
 30
0.0
 40
2.529953972098268
100
AcDbArc
 50
330.0000000000023
 51
34.5650930945221
  0
LINE
  5
1D2B
330
18
100
AcDbEntity
  8
1
  6
Continuous
100
AcDbLine
 10
264.8984442656258
 20
224.3736898474257
 30
0.0
 11
265.345026253011
 21
223.6001871555294
 31
0.0
  0
LINE
  5
1D2C
330
18
100
AcDbEntity
  8
1
  6
Continuous
100
AcDbLine
 10
262.6984442656259
 20
227.137621869926
 30
0.0
 11
262.6984442656259
 21
226.3736898474257
 31
0.0
  0
ARC
  5
1D2D
330
18
100
AcDbEntity
  8
1
  6
Continuous
100
AcDbCircle
 10
267.4283982377241
 20
225.0515889711372
 30
0.0
 40
2.529953972098268
100
AcDbArc
 50
145.4349069054779
 51
209.9999999999976
  0
LINE
  5
1D2E
330
18
100
AcDbEntity
  8
1
  6
Continuous
100
AcDbLine
 10
262.6984442656259
 20
226.3736898474257
 30
0.0
 11
261.698444265626
 21
227.3736898474258
 31
0.0
  0
LINE
  5
1D2F
330
18
100
AcDbEntity
  8
1
  6
Continuous
100
AcDbLine
 10
264.8984442656258
 20
226.9146898474257
 30
0.0
 11
262.1574442656259
 21
226.9146898474257
 31
0.0
  0
LINE
  5
1D30
330
18
100
AcDbEntity
  8
2
  6
Continuous
100
AcDbLine
 10
262.6984442656259
 20
227.1511293870621
 30
0.0
 11
264.8984442656258
 21
227.7263803297439
 31
0.0
  0
LINE
  5
1D31
330
18
100
AcDbEntity
  8
1
  6
Continuous
100
AcDbLine
 10
262.6984442656259
 20
227.1511293870621
 30
0.0
 11
264.8984442656258
 21
227.1511293870626
 31
0.0
  0
LINE
  5
1D32
330
18
100
AcDbEntity
  8
1
  6
Continuous
100
AcDbLine
 10
262.6984442656259
 20
226.3736898474257
 30
0.0
 11
264.8984442656277
 21
226.3736898474289
 31
0.0
  0
LINE
  5
1D34
330
18
100
AcDbEntity
  8
1
  6
Continuous
100
AcDbLine
 10
274.6984442656259
 20
238.5236898474258
 30
0.0
 11
276.198444265626
 21
238.5236898474258
 31
0.0
  0
LINE
  5
1D35
330
18
100
AcDbEntity
  8
1
  6
Continuous
100
AcDbLine
 10
287.6984442656258
 20
271.8736898474259
 30
0.0
 11
287.6984442656258
 21
240.8736898474257
 31
0.0
  0
LINE
  5
1D36
330
18
100
AcDbEntity
  8
1
  6
Continuous
100
AcDbLine
 10
289.6984442656259
 20
240.8736898474257
 30
0.0
 11
289.6984442656259
 21
271.8736898474259
 31
0.0
  0
LINE
  5
1D37
330
18
100
AcDbEntity
  8
1
  6
Continuous
100
AcDbLine
 10
287.6984442656258
 20
242.4950101907862
 30
0.0
 11
287.6984442656258
 21
257.3736898472254
 31
0.0
  0
LINE
  5
1D38
330
18
100
AcDbEntity
  8
1
  6
Continuous
100
AcDbLine
 10
286.6984442656259
 20
242.4950101907861
 30
0.0
 11
286.6984442656259
 21
257.3736898472254
 31
0.0
  0
LINE
  5
1D39
330
18
100
AcDbEntity
  8
1
  6
Continuous
100
AcDbLine
 10
286.1984442658251
 20
240.3736898474259
 30
0.0
 11
287.2591044374057
 21
241.4343500190063
 31
0.0
  0
LINE
  5
1D3A
330
18
100
AcDbEntity
  8
1
  6
Continuous
100
AcDbLine
 10
284.7842307034522
 20
240.3736898474257
 30
0.0
 11
286.551997656219
 21
242.1414568001929
 31
0.0
  0
ARC
  5
1D3B
330
18
100
AcDbEntity
  8
1
  6
Continuous
100
AcDbCircle
 10
284.1984442656259
 20
237.8736898474258
 30
0.0
 40
2.500000000000002
100
AcDbArc
 50
90.0
 51
180.0
  0
ARC
  5
1D3C
330
18
100
AcDbEntity
  8
1
  6
Continuous
100
AcDbCircle
 10
284.1984442656259
 20
237.8736898474258
 30
0.0
 40
0.5000000000000009
100
AcDbArc
 50
90.0
 51
180.0
  0
LINE
  5
1D3D
330
18
100
AcDbEntity
  8
1
  6
Continuous
100
AcDbLine
 10
284.6984442656259
 20
232.0750783792736
 30
0.0
 11
285.5984442656259
 21
232.0750783792736
 31
0.0
  0
LINE
  5
1D3E
330
18
100
AcDbEntity
  8
1
  6
Continuous
100
AcDbLine
 10
284.6984442656259
 20
233.3736898474258
 30
0.0
 11
285.5984442656259
 21
233.3736898474258
 31
0.0
  0
LINE
  5
1D3F
330
18
100
AcDbEntity
  8
1
  6
Continuous
100
AcDbLine
 10
285.5984442656259
 20
232.0750783792736
 30
0.0
 11
285.6984442656259
 21
232.1136715991897
 31
0.0
  0
LINE
  5
1D40
330
18
100
AcDbEntity
  8
1
  6
Continuous
100
AcDbLine
 10
285.598444265626
 20
233.3736898474256
 30
0.0
 11
285.6984442656259
 21
233.4736898474256
 31
0.0
  0
LINE
  5
1D41
330
18
100
AcDbEntity
  8
1
  6
Continuous
100
AcDbLine
 10
286.8984442656259
 20
234.3736898474255
 30
0.0
 11
287.1984442656259
 21
234.0736898474255
 31
0.0
  0
LINE
  5
1D42
330
18
100
AcDbEntity
  8
1
  6
Continuous
100
AcDbLine
 10
285.6984442656259
 20
234.0736898474255
 30
0.0
 11
285.9984442656259
 21
234.3736898474255
 31
0.0
  0
LINE
  5
1D43
330
18
100
AcDbEntity
  8
1
  6
Continuous
100
AcDbLine
 10
285.9984442656259
 20
234.3736898474257
 30
0.0
 11
286.8984442656259
 21
234.3736898474257
 31
0.0
  0
LINE
  5
1D44
330
18
100
AcDbEntity
  8
2
  6
Continuous
100
AcDbLine
 10
284.6984442656259
 20
230.7954732852352
 30
0.0
 11
285.5984442656291
 21
232.0750783792706
 31
0.0
  0
ARC
  5
1D45
330
18
100
AcDbEntity
  8
1
  6
Continuous
100
AcDbCircle
 10
287.1984442656258
 20
240.8736898474257
 30
0.0
 40
2.500000000000003
100
AcDbArc
 50
270.0
 51
0.000000000000007
  0
ARC
  5
1D46
330
18
100
AcDbEntity
  8
1
  6
Continuous
100
AcDbCircle
 10
287.1984442656258
 20
240.8736898474257
 30
0.0
 40
0.5000000000000009
100
AcDbArc
 50
270.0
 51
0.000000000000007
  0
LINE
  5
1D47
330
18
100
AcDbEntity
  8
1
  6
Continuous
100
AcDbLine
 10
287.1984442656259
 20
240.3736898474257
 30
0.0
 11
284.1984442656259
 21
240.3736898474257
 31
0.0
  0
LINE
  5
1D48
330
18
100
AcDbEntity
  8
1
  6
Continuous
100
AcDbLine
 10
284.1984442656259
 20
238.3736898474257
 30
0.0
 11
287.1984442656259
 21
238.3736898474257
 31
0.0
  0
LINE
  5
1D49
330
18
100
AcDbEntity
  8
1
  6
Continuous
100
AcDbLine
 10
280.1984442656259
 20
231.2337973711995
 30
0.0
 11
279.1984442656259
 21
231.2337973711995
 31
0.0
  0
LINE
  5
1D4A
330
18
100
AcDbEntity
  8
1
  6
Continuous
100
AcDbLine
 10
277.1984442656259
 20
231.2337973711995
 30
0.0
 11
276.198444265626
 21
231.2337973711995
 31
0.0
  0
LINE
  5
1D4B
330
18
100
AcDbEntity
  8
1
  6
Continuous
100
AcDbLine
 10
276.198444265626
 20
238.1236898474258
 30
0.0
 11
277.1984442656259
 21
238.1236898474258
 31
0.0
  0
LINE
  5
1D4C
330
18
100
AcDbEntity
  8
1
  6
Continuous
100
AcDbLine
 10
281.6984442656259
 20
238.5236898474258
 30
0.0
 11
280.1984442656259
 21
238.5236898474258
 31
0.0
  0
LINE
  5
1D4D
330
18
100
AcDbEntity
  8
1
  6
Continuous
100
AcDbLine
 10
280.1984442656259
 20
238.1236898474258
 30
0.0
 11
279.1984442656259
 21
238.1236898474258
 31
0.0
  0
ARC
  5
1D4E
330
18
100
AcDbEntity
  8
1
  6
Continuous
100
AcDbCircle
 10
286.1984442656258
 20
242.4950101907861
 30
0.0
 40
1.5
100
AcDbArc
 50
315.0000000000011
 51
0.000000000000007
  0
ARC
  5
1D4F
330
18
100
AcDbEntity
  8
1
  6
Continuous
100
AcDbCircle
 10
286.1984442656258
 20
242.4950101907861
 30
0.0
 40
0.5
100
AcDbArc
 50
315.0000000000011
 51
0.000000000000007
  0
LINE
  5
1D50
330
18
100
AcDbEntity
  8
1
  6
Continuous
100
AcDbLine
 10
277.1984442656259
 20
241.8736898474258
 30
0.0
 11
279.1984442656259
 21
241.8736898474258
 31
0.0
  0
LINE
  5
1D51
330
18
100
AcDbEntity
  8
1
  6
Continuous
100
AcDbLine
 10
286.6984442656258
 20
257.3736898472254
 30
0.0
 11
287.6984442656258
 21
257.3736898472254
 31
0.0
  0
LINE
  5
1D52
330
18
100
AcDbEntity
  8
4
  6
CENTER
 48
0.25
100
AcDbLine
 10
291.1984442656259
 20
253.3736898472279
 30
0.0
 11
285.1984442656472
 21
253.3736898472251
 31
0.0
  0
LINE
  5
1D53
330
18
100
AcDbEntity
  8
4
  6
CENTER
 48
0.25
100
AcDbLine
 10
291.1984442656257
 20
264.3736898472279
 30
0.0
 11
285.1984442656472
 21
264.3736898472251
 31
0.0
  0
LINE
  5
1D54
330
18
100
AcDbEntity
  8
1
  6
Continuous
100
AcDbLine
 10
287.6984442656258
 20
271.8736898474259
 30
0.0
 11
289.6984442656259
 21
271.8736898474259
 31
0.0
  0
LINE
  5
1D55
330
18
100
AcDbEntity
  8
1
  6
Continuous
100
AcDbLine
 10
265.345026253011
 20
235.1471925393222
 30
0.0
 11
269.4518622782406
 21
235.1471925393222
 31
0.0
  0
LINE
  5
1D56
330
18
100
AcDbEntity
  8
1
  6
Continuous
100
AcDbLine
 10
265.345026253011
 20
232.2604411933738
 30
0.0
 11
269.4518622782406
 21
232.2604411933738
 31
0.0
  0
LINE
  5
1D57
330
18
100
AcDbEntity
  8
1
  6
Continuous
100
AcDbLine
 10
273.0984442656258
 20
233.456207438764
 30
0.0
 11
273.9152879428681
 21
237.3736898474259
 31
0.0
  0
LINE
  5
1D58
330
18
100
AcDbEntity
  8
1
  6
Continuous
100
AcDbLine
 10
273.0984442656258
 20
233.4562074387643
 30
0.0
 11
272.2816005883834
 21
237.3736898474259
 31
0.0
  0
LINE
  5
1D59
330
18
100
AcDbEntity
  8
1
  6
Continuous
100
AcDbLine
 10
269.8984442656258
 20
233.4562074387643
 30
0.0
 11
270.7152879428682
 21
237.3736898474258
 31
0.0
  0
LINE
  5
1D5A
330
18
100
AcDbEntity
  8
1
  6
Continuous
100
AcDbLine
 10
269.8984442656257
 20
234.3736898474257
 30
0.0
 11
269.4518622782406
 21
235.1471925393219
 31
0.0
  0
ARC
  5
1D5B
330
18
100
AcDbEntity
  8
1
  6
Continuous
100
AcDbCircle
 10
267.3684902935276
 20
233.6957907237142
 30
0.0
 40
2.529953972098017
100
AcDbArc
 50
325.4349069054736
 51
29.99999999999765
  0
LINE
  5
1D5C
330
18
100
AcDbEntity
  8
1
  6
Continuous
100
AcDbLine
 10
274.6984442656259
 20
237.2103920393429
 30
0.0
 11
273.9152879428683
 21
237.3736898474255
 31
0.0
  0
LINE
  5
1D5D
330
18
100
AcDbEntity
  8
1
  6
Continuous
100
AcDbLine
 10
271.4984442656259
 20
237.2103920393428
 30
0.0
 11
272.2816005883835
 21
237.3736898474255
 31
0.0
  0
LINE
  5
1D5E
330
18
100
AcDbEntity
  8
1
  6
Continuous
100
AcDbLine
 10
271.4984442656259
 20
237.2103920393429
 30
0.0
 11
270.7152879428682
 21
237.3736898474255
 31
0.0
  0
LINE
  5
1D5F
330
18
100
AcDbEntity
  8
1
  6
Continuous
100
AcDbLine
 10
264.898444265626
 20
234.3736898474257
 30
0.0
 11
265.3450262530112
 21
235.147192539322
 31
0.0
  0
LINE
  5
1D60
330
18
100
AcDbEntity
  8
1
  6
Continuous
100
AcDbLine
 10
262.6984442656259
 20
232.3736898474257
 30
0.0
 11
262.6984442656259
 21
231.6097578249255
 31
0.0
  0
ARC
  5
1D61
330
18
100
AcDbEntity
  8
1
  6
Continuous
100
AcDbCircle
 10
267.4283982377239
 20
233.6957907237142
 30
0.0
 40
2.529953972098017
100
AcDbArc
 50
149.9999999999996
 51
214.5650930945264
  0
LINE
  5
1D62
330
18
100
AcDbEntity
  8
1
  6
Continuous
100
AcDbLine
 10
261.698444265626
 20
231.3736898474258
 30
0.0
 11
262.6984442656259
 21
232.3736898474257
 31
0.0
  0
LINE
  5
1D63
330
18
100
AcDbEntity
  8
1
  6
Continuous
100
AcDbLine
 10
264.8984442656258
 20
231.8326898474257
 30
0.0
 11
262.1574442656259
 21
231.8326898474257
 31
0.0
  0
LINE
  5
1D64
330
18
100
AcDbEntity
  8
1
  6
Continuous
100
AcDbLine
 10
262.6984442656259
 20
231.5962503077896
 30
0.0
 11
264.8984442656258
 21
231.5962503077889
 31
0.0
  0
LINE
  5
1D65
330
18
100
AcDbEntity
  8
2
  6
Continuous
100
AcDbLine
 10
262.6984442656259
 20
231.5962503077896
 30
0.0
 11
264.898444265626
 21
231.0209993651077
 31
0.0
  0
LINE
  5
1D66
330
18
100
AcDbEntity
  8
1
  6
Continuous
100
AcDbLine
 10
262.6984442656259
 20
232.3736898474257
 30
0.0
 11
264.8984442656277
 21
232.3736898474289
 31
0.0
  0
LINE
  5
1D6E
330
18
100
AcDbEntity
  8
1
  6
Continuous
100
AcDbLine
 10
277.1984442656259
 20
336.8736898474255
 30
0.0
 11
277.1984442656259
 21
421.8736898474253
 31
0.0
  0
LINE
  5
1D6F
330
18
100
AcDbEntity
  8
1
  6
Continuous
100
AcDbLine
 10
279.1984442656259
 20
336.8736898474255
 30
0.0
 11
279.1984442656259
 21
421.8736898474253
 31
0.0
  0
LINE
  5
1D70
330
18
100
AcDbEntity
  8
4
  6
CENTER
 48
0.25
100
AcDbLine
 10
275.1984442656259
 20
355.3736898476147
 30
0.0
 11
281.1984442656259
 21
355.3736898476147
 31
0.0
  0
LINE
  5
1D71
330
18
100
AcDbEntity
  8
4
  6
CENTER
 48
0.25
100
AcDbLine
 10
275.1984442656259
 20
344.3736898476147
 30
0.0
 11
281.1984442656259
 21
344.3736898476148
 31
0.0
  0
LINE
  5
1D72
330
18
100
AcDbEntity
  8
1
  6
Continuous
100
AcDbLine
 10
279.1984442656259
 20
336.8736898474256
 30
0.0
 11
277.198444265626
 21
336.8736898474256
 31
0.0
  0
LINE
  5
1D73
330
18
100
AcDbEntity
  8
1
  6
Continuous
100
AcDbLine
 10
274.6984442656259
 20
388.5236898474258
 30
0.0
 11
276.198444265626
 21
388.5236898474258
 31
0.0
  0
LINE
  5
1D74
330
18
100
AcDbEntity
  8
1
  6
Continuous
100
AcDbLine
 10
274.6984442656259
 20
370.2236898474257
 30
0.0
 11
276.198444265626
 21
370.2236898474257
 31
0.0
  0
LINE
  5
1D75
330
18
100
AcDbEntity
  8
4
  6
CENTER
 48
0.3
100
AcDbLine
 10
292.6984442656259
 20
379.3736898474258
 30
0.0
 11
258.6984442656259
 21
379.3736898474258
 31
0.0
  0
LINE
  5
1D76
330
18
100
AcDbEntity
  8
1
  6
Continuous
100
AcDbLine
 10
286.6984442656259
 20
373.3736898474258
 30
0.0
 11
286.6984442656259
 21
385.3736898474259
 31
0.0
  0
LINE
  5
1D77
330
18
100
AcDbEntity
  8
1
  6
Continuous
100
AcDbLine
 10
283.6984442656259
 20
372.8736898474259
 30
0.0
 11
283.6984442656257
 21
385.8736898474256
 31
0.0
  0
LINE
  5
1D78
330
18
100
AcDbEntity
  8
1
  6
Continuous
100
AcDbLine
 10
276.198444265626
 20
370.2236898474257
 30
0.0
 11
276.198444265626
 21
388.5236898474258
 31
0.0
  0
LINE
  5
1D79
330
18
100
AcDbEntity
  8
1
  6
Continuous
100
AcDbLine
 10
280.1984442656259
 20
388.5236898474258
 30
0.0
 11
280.1984442656259
 21
370.2236898474257
 31
0.0
  0
LINE
  5
1D7B
330
18
100
AcDbEntity
  8
1
  6
Continuous
100
AcDbLine
 10
287.6984442656257
 20
366.8736898474258
 30
0.0
 11
287.6984442656258
 21
391.8736898474259
 31
0.0
  0
LINE
  5
1D7C
330
18
100
AcDbEntity
  8
1
  6
Continuous
100
AcDbLine
 10
289.6984442656259
 20
366.8736898474258
 30
0.0
 11
289.6984442656258
 21
391.8736898474259
 31
0.0
  0
LINE
  5
1D7D
330
18
100
AcDbEntity
  8
1
  6
Continuous
100
AcDbLine
 10
281.6984442656259
 20
366.8736898474258
 30
0.0
 11
281.6984442656258
 21
391.8736898474259
 31
0.0
  0
LINE
  5
1D7E
330
18
100
AcDbEntity
  8
1
  6
Continuous
100
AcDbLine
 10
289.6984442656259
 20
366.8736898474258
 30
0.0
 11
281.6984442656259
 21
366.8736898474258
 31
0.0
  0
LINE
  5
1D7F
330
18
100
AcDbEntity
  8
1
  6
Continuous
100
AcDbLine
 10
287.6984442656258
 20
373.3736898474257
 30
0.0
 11
283.6984442656257
 21
373.3736898474258
 31
0.0
  0
LINE
  5
1D80
330
18
100
AcDbEntity
  8
1
  6
Continuous
100
AcDbLine
 10
287.6984442656258
 20
372.8736898474257
 30
0.0
 11
281.6984442656258
 21
372.873689847426
 31
0.0
  0
LINE
  5
1D81
330
18
100
AcDbEntity
  8
1
  6
Continuous
100
AcDbLine
 10
276.198444265626
 20
370.6236898474259
 30
0.0
 11
277.1984442656259
 21
370.6236898474259
 31
0.0
  0
LINE
  5
1D82
330
18
100
AcDbEntity
  8
1
  6
Continuous
100
AcDbLine
 10
281.6984442656259
 20
370.2236898474257
 30
0.0
 11
280.1984442656259
 21
370.2236898474257
 31
0.0
  0
LINE
  5
1D83
330
18
100
AcDbEntity
  8
1
  6
Continuous
100
AcDbLine
 10
280.1984442656259
 20
370.6236898474259
 30
0.0
 11
279.1984442656259
 21
370.6236898474259
 31
0.0
  0
LINE
  5
1D84
330
18
100
AcDbEntity
  8
1
  6
Continuous
100
AcDbLine
 10
283.6984442656257
 20
376.4136898474257
 30
0.0
 11
281.6984442656258
 21
376.4136898474258
 31
0.0
  0
LINE
  5
1D87
330
18
100
AcDbEntity
  8
1
  6
Continuous
100
AcDbLine
 10
287.6984442656258
 20
385.3736898474259
 30
0.0
 11
283.6984442656257
 21
385.3736898474256
 31
0.0
  0
LINE
  5
1D88
330
18
100
AcDbEntity
  8
1
  6
Continuous
100
AcDbLine
 10
287.6984442656258
 20
385.8736898474258
 30
0.0
 11
281.6984442656258
 21
385.8736898474255
 31
0.0
  0
LINE
  5
1D89
330
18
100
AcDbEntity
  8
1
  6
Continuous
100
AcDbLine
 10
276.198444265626
 20
388.1236898474258
 30
0.0
 11
277.1984442656259
 21
388.1236898474258
 31
0.0
  0
LINE
  5
1D8A
330
18
100
AcDbEntity
  8
1
  6
Continuous
100
AcDbLine
 10
281.6984442656259
 20
388.5236898474258
 30
0.0
 11
280.1984442656259
 21
388.5236898474258
 31
0.0
  0
LINE
  5
1D8B
330
18
100
AcDbEntity
  8
1
  6
Continuous
100
AcDbLine
 10
280.1984442656259
 20
388.1236898474258
 30
0.0
 11
279.1984442656259
 21
388.1236898474258
 31
0.0
  0
LINE
  5
1D8C
330
18
100
AcDbEntity
  8
1
  6
Continuous
100
AcDbLine
 10
283.6984442656257
 20
382.3336898474258
 30
0.0
 11
281.6984442656258
 21
382.3336898474257
 31
0.0
  0
LINE
  5
1D8D
330
18
100
AcDbEntity
  8
1
  6
Continuous
100
AcDbLine
 10
289.6984442656258
 20
391.8736898474259
 30
0.0
 11
281.6984442656258
 21
391.8736898474259
 31
0.0
  0
LINE
  5
1D8E
330
18
100
AcDbEntity
  8
1
  6
Continuous
100
AcDbLine
 10
264.898444265626
 20
373.6001871555294
 30
0.0
 11
264.898444265626
 21
385.147192539322
 31
0.0
  0
ARC
  5
1D8F
330
18
100
AcDbEntity
  8
1
  6
Continuous
100
AcDbCircle
 10
260.3450262530108
 20
382.2604411933737
 30
0.0
 40
9.553418012615141
100
AcDbArc
 50
342.4120462260067
 51
17.5879537739947
  0
ARC
  5
1D90
330
18
100
AcDbEntity
  8
1
  6
Continuous
100
AcDbCircle
 10
274.4518622782411
 20
382.2604411933737
 30
0.0
 40
9.553418012615141
100
AcDbArc
 50
162.4120462260053
 51
197.5879537739933
  0
LINE
  5
1D91
330
18
100
AcDbEntity
  8
1
  6
Continuous
100
AcDbLine
 10
269.8984442656259
 20
373.6001871555294
 30
0.0
 11
269.8984442656259
 21
385.147192539322
 31
0.0
  0
LINE
  5
1D92
330
18
100
AcDbEntity
  8
1
  6
Continuous
100
AcDbLine
 10
270.715287942868
 20
387.3736898474259
 30
0.0
 11
270.715287942868
 21
371.3736898474258
 31
0.0
  0
LINE
  5
1D93
330
18
100
AcDbEntity
  8
1
  6
Continuous
100
AcDbLine
 10
271.4984442656259
 20
371.5369876555083
 30
0.0
 11
271.4984442656259
 21
387.2103920393429
 31
0.0
  0
LINE
  5
1D94
330
18
100
AcDbEntity
  8
1
  6
Continuous
100
AcDbLine
 10
272.2816005883835
 20
371.3736898474258
 30
0.0
 11
272.2816005883835
 21
387.3736898474259
 31
0.0
  0
LINE
  5
1D95
330
18
100
AcDbEntity
  8
1
  6
Continuous
100
AcDbLine
 10
273.9152879428681
 20
387.3736898474259
 30
0.0
 11
273.9152879428681
 21
371.3736898474258
 31
0.0
  0
LINE
  5
1D96
330
18
100
AcDbEntity
  8
1
  6
Continuous
100
AcDbLine
 10
273.0984442656258
 20
383.4562074387644
 30
0.0
 11
273.0984442656258
 21
375.2911722560873
 31
0.0
  0
LINE
  5
1D97
330
18
100
AcDbEntity
  8
1
  6
Continuous
100
AcDbLine
 10
274.6984442656259
 20
370.2236898474257
 30
0.0
 11
274.6984442656259
 21
388.5236898474258
 31
0.0
  0
LINE
  5
1D98
330
18
100
AcDbEntity
  8
1
  6
Continuous
100
AcDbLine
 10
261.698444265626
 20
377.3836898474257
 30
0.0
 11
261.698444265626
 21
381.3636898474257
 31
0.0
  0
LINE
  5
1D99
330
18
100
AcDbEntity
  8
1
  6
Continuous
100
AcDbLine
 10
262.6984442656333
 20
377.3836898474257
 30
0.0
 11
262.6984442656333
 21
381.3636898474257
 31
0.0
  0
LINE
  5
1D9A
330
18
100
AcDbEntity
  8
1
  6
Continuous
100
AcDbLine
 10
264.898444265626
 20
373.6001871555294
 30
0.0
 11
269.8984442656259
 21
373.6001871555294
 31
0.0
  0
LINE
  5
1D9B
330
18
100
AcDbEntity
  8
1
  6
Continuous
100
AcDbLine
 10
269.4518622782408
 20
379.3736898474255
 30
0.0
 11
265.3450262530112
 21
379.3736898474255
 31
0.0
  0
ARC
  5
1D9C
330
18
100
AcDbEntity
  8
1
  6
Continuous
100
AcDbCircle
 10
260.3450262530108
 20
376.4869385014774
 30
0.0
 40
9.553418012615141
100
AcDbArc
 50
342.4120462260053
 51
17.58795377399333
  0
LINE
  5
1D9D
330
18
100
AcDbEntity
  8
1
  6
Continuous
100
AcDbLine
 10
271.4984442656259
 20
371.5369876555083
 30
0.0
 11
270.715287942868
 21
371.3736898474256
 31
0.0
  0
LINE
  5
1D9E
330
18
100
AcDbEntity
  8
1
  6
Continuous
100
AcDbLine
 10
269.8984442656257
 20
375.2911722560873
 30
0.0
 11
270.715287942868
 21
371.3736898474258
 31
0.0
  0
LINE
  5
1D9F
330
18
100
AcDbEntity
  8
1
  6
Continuous
100
AcDbLine
 10
271.4984442656259
 20
371.5369876555083
 30
0.0
 11
272.2816005883836
 21
371.3736898474258
 31
0.0
  0
LINE
  5
1DA0
330
18
100
AcDbEntity
  8
1
  6
Continuous
100
AcDbLine
 10
274.6984442656259
 20
371.5369876555083
 30
0.0
 11
273.9152879428681
 21
371.3736898474256
 31
0.0
  0
LINE
  5
1DA1
330
18
100
AcDbEntity
  8
1
  6
Continuous
100
AcDbLine
 10
273.0984442656258
 20
375.2911722560873
 30
0.0
 11
273.9152879428679
 21
371.3736898474258
 31
0.0
  0
LINE
  5
1DA2
330
18
100
AcDbEntity
  8
1
  6
Continuous
100
AcDbLine
 10
273.0984442656258
 20
375.2911722560873
 30
0.0
 11
272.2816005883835
 21
371.3736898474256
 31
0.0
  0
LINE
  5
1DA3
330
18
100
AcDbEntity
  8
1
  6
Continuous
100
AcDbLine
 10
264.898444265626
 20
377.3836898474257
 30
0.0
 11
261.698444265626
 21
377.3836898474257
 31
0.0
  0
ARC
  5
1DA4
330
18
100
AcDbEntity
  8
1
  6
Continuous
100
AcDbCircle
 10
274.4518622782411
 20
376.4869385014774
 30
0.0
 40
9.553418012615141
100
AcDbArc
 50
162.4120462260067
 51
197.5879537739947
  0
LINE
  5
1DA5
330
18
100
AcDbEntity
  8
1
  6
Continuous
100
AcDbLine
 10
264.898444265626
 20
385.147192539322
 30
0.0
 11
269.8984442656259
 21
385.147192539322
 31
0.0
  0
LINE
  5
1DA6
330
18
100
AcDbEntity
  8
1
  6
Continuous
100
AcDbLine
 10
271.4984442656259
 20
387.2103920393429
 30
0.0
 11
270.715287942868
 21
387.3736898474255
 31
0.0
  0
LINE
  5
1DA7
330
18
100
AcDbEntity
  8
1
  6
Continuous
100
AcDbLine
 10
269.8984442656259
 20
383.4562074387644
 30
0.0
 11
270.715287942868
 21
387.3736898474259
 31
0.0
  0
LINE
  5
1DA8
330
18
100
AcDbEntity
  8
1
  6
Continuous
100
AcDbLine
 10
271.4984442656259
 20
387.2103920393428
 30
0.0
 11
272.2816005883835
 21
387.3736898474255
 31
0.0
  0
LINE
  5
1DA9
330
18
100
AcDbEntity
  8
1
  6
Continuous
100
AcDbLine
 10
274.6984442656259
 20
387.2103920393429
 30
0.0
 11
273.9152879428683
 21
387.3736898474255
 31
0.0
  0
LINE
  5
1DAA
330
18
100
AcDbEntity
  8
1
  6
Continuous
100
AcDbLine
 10
273.0984442656258
 20
383.4562074387641
 30
0.0
 11
273.9152879428681
 21
387.3736898474259
 31
0.0
  0
LINE
  5
1DAB
330
18
100
AcDbEntity
  8
1
  6
Continuous
100
AcDbLine
 10
273.0984442656258
 20
383.4562074387644
 30
0.0
 11
272.2816005883834
 21
387.3736898474259
 31
0.0
  0
LINE
  5
1DAC
330
18
100
AcDbEntity
  8
1
  6
Continuous
100
AcDbLine
 10
264.898444265626
 20
381.3636898474257
 30
0.0
 11
261.698444265626
 21
381.3636898474257
 31
0.0
  0
LINE
  5
1DAE
330
18
100
AcDbEntity
  8
4
  6
CENTER
 48
0.25
100
AcDbLine
 10
275.1984442656259
 20
403.3736898472367
 30
0.0
 11
281.1984442656259
 21
403.3736898472367
 31
0.0
  0
LINE
  5
1DAF
330
18
100
AcDbEntity
  8
4
  6
CENTER
 48
0.25
100
AcDbLine
 10
275.1984442656259
 20
414.3736898472368
 30
0.0
 11
281.1984442656259
 21
414.3736898472368
 31
0.0
  0
LINE
  5
1DB0
330
18
100
AcDbEntity
  8
1
  6
Continuous
100
AcDbLine
 10
277.1984442656259
 20
421.8736898474253
 30
0.0
 11
279.1984442656259
 21
421.8736898474253
 31
0.0
  0
LINE
  5
1DB8
330
18
100
AcDbEntity
  8
1
  6
Continuous
100
AcDbLine
 10
279.1984442656259
 20
121.873689847426
 30
0.0
 11
279.1984442656259
 21
36.87368984742614
 31
0.0
  0
LINE
  5
1DB9
330
18
100
AcDbEntity
  8
1
  6
Continuous
100
AcDbLine
 10
277.1984442656259
 20
121.873689847426
 30
0.0
 11
277.1984442656259
 21
36.87368984742614
 31
0.0
  0
LINE
  5
1DBC
330
18
100
AcDbEntity
  8
4
  6
CENTER
 48
0.25
100
AcDbLine
 10
275.1984442656259
 20
44.37368984761475
 30
0.0
 11
281.1984442656259
 21
44.37368984761479
 31
0.0
  0
LINE
  5
1DBD
330
18
100
AcDbEntity
  8
4
  6
CENTER
 48
0.25
100
AcDbLine
 10
275.1984442656259
 20
55.37368984761474
 30
0.0
 11
281.1984442656259
 21
55.37368984761479
 31
0.0
  0
LINE
  5
1DBE
330
18
100
AcDbEntity
  8
1
  6
Continuous
100
AcDbLine
 10
277.1984442656259
 20
36.87368984742614
 30
0.0
 11
279.1984442656259
 21
36.87368984742614
 31
0.0
  0
LINE
  5
1DBF
330
18
100
AcDbEntity
  8
1
  6
Continuous
100
AcDbLine
 10
274.6984442656259
 20
70.2236898474257
 30
0.0
 11
276.198444265626
 21
70.2236898474257
 31
0.0
  0
LINE
  5
1DC0
330
18
100
AcDbEntity
  8
1
  6
Continuous
100
AcDbLine
 10
274.6984442656259
 20
88.52368984742588
 30
0.0
 11
276.198444265626
 21
88.52368984742588
 31
0.0
  0
LINE
  5
1DC1
330
18
100
AcDbEntity
  8
4
  6
CENTER
 48
0.3
100
AcDbLine
 10
292.6984442656259
 20
79.3736898474258
 30
0.0
 11
258.6984442656259
 21
79.3736898474258
 31
0.0
  0
LINE
  5
1DC2
330
18
100
AcDbEntity
  8
1
  6
Continuous
100
AcDbLine
 10
280.1984442656259
 20
70.2236898474257
 30
0.0
 11
280.1984442656259
 21
88.52368984742588
 31
0.0
  0
LINE
  5
1DC3
330
18
100
AcDbEntity
  8
1
  6
Continuous
100
AcDbLine
 10
276.198444265626
 20
88.52368984742588
 30
0.0
 11
276.198444265626
 21
70.2236898474257
 31
0.0
  0
LINE
  5
1DC4
330
18
100
AcDbEntity
  8
1
  6
Continuous
100
AcDbLine
 10
287.6984442656257
 20
91.87368984742581
 30
0.0
 11
287.6984442656258
 21
66.8736898474258
 31
0.0
  0
LINE
  5
1DC5
330
18
100
AcDbEntity
  8
1
  6
Continuous
100
AcDbLine
 10
289.6984442656259
 20
91.87368984742581
 30
0.0
 11
289.6984442656258
 21
66.8736898474258
 31
0.0
  0
LINE
  5
1DC6
330
18
100
AcDbEntity
  8
1
  6
Continuous
100
AcDbLine
 10
281.6984442656259
 20
91.87368984742581
 30
0.0
 11
281.6984442656258
 21
66.8736898474258
 31
0.0
  0
LINE
  5
1DC8
330
18
100
AcDbEntity
  8
1
  6
Continuous
100
AcDbLine
 10
289.6984442656258
 20
66.8736898474258
 30
0.0
 11
281.6984442656258
 21
66.8736898474258
 31
0.0
  0
LINE
  5
1DC9
330
18
100
AcDbEntity
  8
1
  6
Continuous
100
AcDbLine
 10
281.6984442656259
 20
70.2236898474257
 30
0.0
 11
280.1984442656259
 21
70.2236898474257
 31
0.0
  0
LINE
  5
1DCA
330
18
100
AcDbEntity
  8
1
  6
Continuous
100
AcDbLine
 10
276.198444265626
 20
70.6236898474258
 30
0.0
 11
277.1984442656259
 21
70.6236898474258
 31
0.0
  0
LINE
  5
1DCB
330
18
100
AcDbEntity
  8
1
  6
Continuous
100
AcDbLine
 10
280.1984442656259
 20
70.6236898474258
 30
0.0
 11
279.1984442656259
 21
70.6236898474258
 31
0.0
  0
LINE
  5
1DCC
330
18
100
AcDbEntity
  8
1
  6
Continuous
100
AcDbLine
 10
276.198444265626
 20
88.12368984742581
 30
0.0
 11
277.1984442656259
 21
88.12368984742581
 31
0.0
  0
LINE
  5
1DCD
330
18
100
AcDbEntity
  8
1
  6
Continuous
100
AcDbLine
 10
280.1984442656259
 20
88.12368984742567
 30
0.0
 11
279.1984442656259
 21
88.12368984742567
 31
0.0
  0
LINE
  5
1DCE
330
18
100
AcDbEntity
  8
1
  6
Continuous
100
AcDbLine
 10
281.6984442656259
 20
88.52368984742588
 30
0.0
 11
280.1984442656259
 21
88.52368984742588
 31
0.0
  0
LINE
  5
1DCF
330
18
100
AcDbEntity
  8
1
  6
Continuous
100
AcDbLine
 10
289.6984442656259
 20
91.87368984742581
 30
0.0
 11
281.6984442656259
 21
91.87368984742581
 31
0.0
  0
LINE
  5
1DD0
330
18
100
AcDbEntity
  8
1
  6
Continuous
100
AcDbLine
 10
264.898444265626
 20
85.14719253932218
 30
0.0
 11
264.898444265626
 21
73.60018715552957
 31
0.0
  0
LINE
  5
1DD1
330
18
100
AcDbEntity
  8
1
  6
Continuous
100
AcDbLine
 10
272.2816005883835
 20
87.3736898474258
 30
0.0
 11
272.2816005883835
 21
71.37368984742579
 31
0.0
  0
LINE
  5
1DD2
330
18
100
AcDbEntity
  8
1
  6
Continuous
100
AcDbLine
 10
271.4984442656259
 20
87.21039203934308
 30
0.0
 11
271.4984442656259
 21
71.5369876555086
 31
0.0
  0
LINE
  5
1DD3
330
18
100
AcDbEntity
  8
1
  6
Continuous
100
AcDbLine
 10
270.715287942868
 20
71.37368984742579
 30
0.0
 11
270.715287942868
 21
87.3736898474258
 31
0.0
  0
LINE
  5
1DD4
330
18
100
AcDbEntity
  8
1
  6
Continuous
100
AcDbLine
 10
269.8984442656259
 20
85.14719253932218
 30
0.0
 11
269.8984442656259
 21
73.60018715552957
 31
0.0
  0
LINE
  5
1DD5
330
18
100
AcDbEntity
  8
1
  6
Continuous
100
AcDbLine
 10
274.6984442656259
 20
88.52368984742588
 30
0.0
 11
274.6984442656259
 21
70.2236898474257
 31
0.0
  0
LINE
  5
1DD6
330
18
100
AcDbEntity
  8
1
  6
Continuous
100
AcDbLine
 10
273.9152879428681
 20
71.37368984742579
 30
0.0
 11
273.9152879428681
 21
87.3736898474258
 31
0.0
  0
ARC
  5
1DD7
330
18
100
AcDbEntity
  8
1
  6
Continuous
100
AcDbCircle
 10
260.3450262530108
 20
82.26044119337409
 30
0.0
 40
9.553418012615141
100
AcDbArc
 50
342.4120462260067
 51
17.5879537739947
  0
LINE
  5
1DD8
330
18
100
AcDbEntity
  8
1
  6
Continuous
100
AcDbLine
 10
273.0984442656258
 20
75.29117225608729
 30
0.0
 11
273.0984442656258
 21
83.4562074387642
 31
0.0
  0
ARC
  5
1DD9
330
18
100
AcDbEntity
  8
1
  6
Continuous
100
AcDbCircle
 10
274.4518622782411
 20
82.26044119337409
 30
0.0
 40
9.553418012615141
100
AcDbArc
 50
162.4120462260052
 51
197.5879537739933
  0
LINE
  5
1DDA
330
18
100
AcDbEntity
  8
1
  6
Continuous
100
AcDbLine
 10
262.6984442656333
 20
81.36368984742579
 30
0.0
 11
262.6984442656333
 21
77.38368984742584
 31
0.0
  0
LINE
  5
1DDB
330
18
100
AcDbEntity
  8
1
  6
Continuous
100
AcDbLine
 10
261.698444265626
 20
81.36368984742579
 30
0.0
 11
261.698444265626
 21
77.38368984742584
 31
0.0
  0
LINE
  5
1DDC
330
18
100
AcDbEntity
  8
1
  6
Continuous
100
AcDbLine
 10
264.898444265626
 20
73.60018715552957
 30
0.0
 11
269.8984442656259
 21
73.60018715552957
 31
0.0
  0
LINE
  5
1DDD
330
18
100
AcDbEntity
  8
1
  6
Continuous
100
AcDbLine
 10
269.4518622782408
 20
79.37368984742601
 30
0.0
 11
265.3450262530112
 21
79.37368984742601
 31
0.0
  0
LINE
  5
1DDE
330
18
100
AcDbEntity
  8
1
  6
Continuous
100
AcDbLine
 10
269.8984442656259
 20
75.29117225608729
 30
0.0
 11
270.715287942868
 21
71.37368984742579
 31
0.0
  0
ARC
  5
1DDF
330
18
100
AcDbEntity
  8
1
  6
Continuous
100
AcDbCircle
 10
260.3450262530108
 20
76.48693850147783
 30
0.0
 40
9.553418012615141
100
AcDbArc
 50
342.4120462260053
 51
17.58795377399333
  0
LINE
  5
1DE0
330
18
100
AcDbEntity
  8
1
  6
Continuous
100
AcDbLine
 10
273.0984442656258
 20
75.2911722560874
 30
0.0
 11
273.9152879428681
 21
71.37368984742569
 31
0.0
  0
LINE
  5
1DE1
330
18
100
AcDbEntity
  8
1
  6
Continuous
100
AcDbLine
 10
273.0984442656258
 20
75.29117225608729
 30
0.0
 11
272.2816005883834
 21
71.37368984742569
 31
0.0
  0
LINE
  5
1DE2
330
18
100
AcDbEntity
  8
1
  6
Continuous
100
AcDbLine
 10
271.4984442656259
 20
71.5369876555087
 30
0.0
 11
272.2816005883835
 21
71.373689847426
 31
0.0
  0
LINE
  5
1DE3
330
18
100
AcDbEntity
  8
1
  6
Continuous
100
AcDbLine
 10
271.4984442656259
 20
71.5369876555086
 30
0.0
 11
270.715287942868
 21
71.373689847426
 31
0.0
  0
LINE
  5
1DE4
330
18
100
AcDbEntity
  8
1
  6
Continuous
100
AcDbLine
 10
274.6984442656259
 20
71.5369876555086
 30
0.0
 11
273.9152879428683
 21
71.373689847426
 31
0.0
  0
ARC
  5
1DE5
330
18
100
AcDbEntity
  8
1
  6
Continuous
100
AcDbCircle
 10
274.4518622782411
 20
76.48693850147783
 30
0.0
 40
9.553418012615141
100
AcDbArc
 50
162.4120462260066
 51
197.5879537739947
  0
LINE
  5
1DE6
330
18
100
AcDbEntity
  8
1
  6
Continuous
100
AcDbLine
 10
264.898444265626
 20
77.38368984742584
 30
0.0
 11
261.698444265626
 21
77.38368984742584
 31
0.0
  0
LINE
  5
1DE7
330
18
100
AcDbEntity
  8
1
  6
Continuous
100
AcDbLine
 10
264.898444265626
 20
85.14719253932218
 30
0.0
 11
269.8984442656259
 21
85.14719253932218
 31
0.0
  0
LINE
  5
1DE8
330
18
100
AcDbEntity
  8
1
  6
Continuous
100
AcDbLine
 10
269.8984442656257
 20
83.4562074387642
 30
0.0
 11
270.715287942868
 21
87.3736898474258
 31
0.0
  0
LINE
  5
1DE9
330
18
100
AcDbEntity
  8
1
  6
Continuous
100
AcDbLine
 10
271.4984442656259
 20
87.21039203934322
 30
0.0
 11
272.2816005883836
 21
87.3736898474258
 31
0.0
  0
LINE
  5
1DEA
330
18
100
AcDbEntity
  8
1
  6
Continuous
100
AcDbLine
 10
271.4984442656259
 20
87.21039203934322
 30
0.0
 11
270.715287942868
 21
87.37368984742589
 31
0.0
  0
LINE
  5
1DEB
330
18
100
AcDbEntity
  8
1
  6
Continuous
100
AcDbLine
 10
273.0984442656258
 20
83.4562074387642
 30
0.0
 11
273.9152879428679
 21
87.3736898474257
 31
0.0
  0
LINE
  5
1DEC
330
18
100
AcDbEntity
  8
1
  6
Continuous
100
AcDbLine
 10
274.6984442656259
 20
87.21039203934322
 30
0.0
 11
273.9152879428681
 21
87.37368984742589
 31
0.0
  0
LINE
  5
1DED
330
18
100
AcDbEntity
  8
1
  6
Continuous
100
AcDbLine
 10
273.0984442656258
 20
83.45620743876429
 30
0.0
 11
272.2816005883835
 21
87.37368984742589
 31
0.0
  0
LINE
  5
1DEE
330
18
100
AcDbEntity
  8
1
  6
Continuous
100
AcDbLine
 10
264.898444265626
 20
81.36368984742579
 30
0.0
 11
261.698444265626
 21
81.36368984742579
 31
0.0
  0
LINE
  5
1DEF
330
18
100
AcDbEntity
  8
4
  6
CENTER
 48
0.25
100
AcDbLine
 10
275.1984442656259
 20
103.3736898472368
 30
0.0
 11
281.1984442656259
 21
103.3736898472367
 31
0.0
  0
LINE
  5
1DF0
330
18
100
AcDbEntity
  8
4
  6
CENTER
 48
0.25
100
AcDbLine
 10
275.1984442656259
 20
114.3736898472368
 30
0.0
 11
281.1984442656259
 21
114.3736898472367
 31
0.0
  0
LINE
  5
1DF1
330
18
100
AcDbEntity
  8
1
  6
Continuous
100
AcDbLine
 10
279.1984442656259
 20
121.8736898474259
 30
0.0
 11
277.198444265626
 21
121.8736898474259
 31
0.0
  0
LINE
  5
2226
330
18
100
AcDbEntity
  8
4
  6
CENTER
 48
0.3
100
AcDbLine
 10
493.1984442656305
 20
229.3736898474258
 30
0.0
 11
525.6984442656305
 21
229.3736898474258
 31
0.0
  0
LINE
  5
2228
330
18
100
AcDbEntity
  8
1
  6
Continuous
100
AcDbLine
 10
512.8984442656307
 20
237.2103920393428
 30
0.0
 11
512.1152879428726
 21
237.3736898474255
 31
0.0
  0
LINE
  5
222A
330
18
100
AcDbEntity
  8
1
  6
Continuous
100
AcDbLine
 10
512.8984442656303
 20
221.5369876555083
 30
0.0
 11
512.1152879428726
 21
221.3736898474258
 31
0.0
  0
LINE
  5
222E
330
18
100
AcDbEntity
  8
1
  6
Continuous
100
AcDbLine
 10
616.6984442656305
 20
217.8736898474257
 30
0.0
 11
616.6984442656305
 21
186.8736898474257
 31
0.0
  0
LINE
  5
222F
330
18
100
AcDbEntity
  8
1
  6
Continuous
100
AcDbLine
 10
618.6984442656305
 20
186.8736898474257
 30
0.0
 11
618.6984442656305
 21
217.8736898474257
 31
0.0
  0
LINE
  5
2230
330
18
100
AcDbEntity
  8
1
  6
Continuous
100
AcDbLine
 10
618.6984442656305
 20
186.8736898474257
 30
0.0
 11
616.6984442656305
 21
186.8736898474257
 31
0.0
  0
LINE
  5
2232
330
18
100
AcDbEntity
  8
1
  6
Continuous
100
AcDbLine
 10
609.1984442656305
 20
238.5236898474258
 30
0.0
 11
609.1984442656305
 21
220.2236898474257
 31
0.0
  0
LINE
  5
2233
330
18
100
AcDbEntity
  8
1
  6
Continuous
100
AcDbLine
 10
605.1984442656305
 20
220.2236898474257
 30
0.0
 11
605.1984442656305
 21
238.5236898474258
 31
0.0
  0
LINE
  5
2234
330
18
100
AcDbEntity
  8
1
  6
Continuous
100
AcDbLine
 10
610.6984442656305
 20
220.2236898474257
 30
0.0
 11
610.6984442656305
 21
238.5236898474258
 31
0.0
  0
LINE
  5
2235
330
18
100
AcDbEntity
  8
1
  6
Continuous
100
AcDbLine
 10
608.1984442656305
 20
216.8736898474258
 30
0.0
 11
608.1984442656305
 21
241.8736898474258
 31
0.0
  0
LINE
  5
2236
330
18
100
AcDbEntity
  8
1
  6
Continuous
100
AcDbLine
 10
606.1984442656305
 20
216.8736898474258
 30
0.0
 11
606.1984442656305
 21
241.8736898474258
 31
0.0
  0
LINE
  5
2237
330
18
100
AcDbEntity
  8
1
  6
Continuous
100
AcDbLine
 10
613.6984442656303
 20
223.3736898472254
 30
0.0
 11
613.6984442656303
 21
238.3736898474257
 31
0.0
  0
LINE
  5
2238
330
18
100
AcDbEntity
  8
1
  6
Continuous
100
AcDbLine
 10
612.6984442656302
 20
220.8736898474258
 30
0.0
 11
612.6984442656302
 21
237.8736898474258
 31
0.0
  0
LINE
  5
2239
330
18
100
AcDbEntity
  8
1
  6
Continuous
100
AcDbLine
 10
616.1984442656305
 20
224.6736898474258
 30
0.0
 11
616.1984442656305
 21
234.0736898474255
 31
0.0
  0
LINE
  5
223A
330
18
100
AcDbEntity
  8
1
  6
Continuous
100
AcDbLine
 10
614.6984442656305
 20
224.6736898474258
 30
0.0
 11
614.6984442656305
 21
234.0736898474255
 31
0.0
  0
LINE
  5
223B
330
18
100
AcDbEntity
  8
1
  6
Continuous
100
AcDbLine
 10
614.9984442656305
 20
224.3736898474256
 30
0.0
 11
614.9984442656305
 21
234.3736898474257
 31
0.0
  0
LINE
  5
223C
330
18
100
AcDbEntity
  8
1
  6
Continuous
100
AcDbLine
 10
615.8984442656304
 20
224.3736898474259
 30
0.0
 11
615.8984442656304
 21
234.3736898474257
 31
0.0
  0
LINE
  5
223D
330
18
100
AcDbEntity
  8
1
  6
Continuous
100
AcDbLine
 10
614.5984442656303
 20
233.3736898474258
 30
0.0
 11
614.5984442656303
 21
225.3736898474258
 31
0.0
  0
LINE
  5
223E
330
18
100
AcDbEntity
  8
1
  6
Continuous
100
AcDbLine
 10
603.6984442656305
 20
220.2236898474257
 30
0.0
 11
603.6984442656305
 21
238.5236898474258
 31
0.0
  0
LINE
  5
223F
330
18
100
AcDbEntity
  8
1
  6
Continuous
100
AcDbLine
 10
602.9152879428727
 20
237.3736898474258
 30
0.0
 11
602.9152879428727
 21
221.3736898474258
 31
0.0
  0
LINE
  5
2240
330
18
100
AcDbEntity
  8
1
  6
Continuous
100
AcDbLine
 10
601.2816005883879
 20
221.3736898474258
 30
0.0
 11
601.2816005883879
 21
237.3736898474258
 31
0.0
  0
LINE
  5
2241
330
18
100
AcDbEntity
  8
1
  6
Continuous
100
AcDbLine
 10
600.4984442656303
 20
221.5369876555084
 30
0.0
 11
600.4984442656303
 21
237.2103920393429
 31
0.0
  0
LINE
  5
2242
330
18
100
AcDbEntity
  8
1
  6
Continuous
100
AcDbLine
 10
599.7152879428726
 20
237.3736898474258
 30
0.0
 11
599.7152879428726
 21
221.3736898474258
 31
0.0
  0
LINE
  5
2243
330
18
100
AcDbEntity
  8
1
  6
Continuous
100
AcDbLine
 10
602.0984442656303
 20
233.4562074387643
 30
0.0
 11
602.0984442656303
 21
225.2911722560873
 31
0.0
  0
LINE
  5
2244
330
18
100
AcDbEntity
  8
1
  6
Continuous
100
AcDbLine
 10
598.8984442656303
 20
224.3736898474257
 30
0.0
 11
598.8984442656303
 21
234.3736898474257
 31
0.0
  0
ARC
  5
2245
330
18
100
AcDbEntity
  8
1
  6
Continuous
100
AcDbCircle
 10
589.345026253015
 20
229.3736898474258
 30
0.0
 40
9.553418012615159
100
AcDbArc
 50
342.4120462260069
 51
17.5879537739931
  0
LINE
  5
2246
330
18
100
AcDbEntity
  8
1
  6
Continuous
100
AcDbLine
 10
590.6984442656305
 20
231.3736898474314
 30
0.0
 11
590.6984442656305
 21
227.3736898474203
 31
0.0
  0
LINE
  5
2247
330
18
100
AcDbEntity
  8
1
  6
Continuous
100
AcDbLine
 10
593.8984442656304
 20
224.3736898474257
 30
0.0
 11
593.8984442656304
 21
234.3736898474257
 31
0.0
  0
ARC
  5
2248
330
18
100
AcDbEntity
  8
1
  6
Continuous
100
AcDbCircle
 10
603.4518622782456
 20
229.3736898474258
 30
0.0
 40
9.553418012615159
100
AcDbArc
 50
162.4120462260069
 51
197.5879537739931
  0
LINE
  5
2249
330
18
100
AcDbEntity
  8
1
  6
Continuous
100
AcDbLine
 10
590.6984442656305
 20
231.3736898474258
 30
0.0
 11
590.6984442656305
 21
227.3736898474258
 31
0.0
  0
ARC
  5
224A
330
18
100
AcDbEntity
  8
1
  6
Continuous
100
AcDbCircle
 10
593.6683317656165
 20
229.3736898474258
 30
0.0
 40
2.969887499986186
100
AcDbArc
 50
131.5510355611309
 51
228.448964438869
  0
LINE
  5
224B
330
18
100
AcDbEntity
  8
4
  6
CENTER
 48
0.3
100
AcDbLine
 10
620.1984442656305
 20
229.3736898474258
 30
0.0
 11
587.6984442656305
 21
229.3736898474258
 31
0.0
  0
LINE
  5
224C
330
18
100
AcDbEntity
  8
1
  6
Continuous
100
AcDbLine
 10
603.6984442656305
 20
220.2236898474257
 30
0.0
 11
605.1984442656305
 21
220.2236898474257
 31
0.0
  0
LINE
  5
224D
330
18
100
AcDbEntity
  8
4
  6
CENTER
 48
0.25
100
AcDbLine
 10
620.1984442656305
 20
194.3736898476883
 30
0.0
 11
615.1984442656518
 21
194.3736898476909
 31
0.0
  0
LINE
  5
224E
330
18
100
AcDbEntity
  8
4
  6
CENTER
 48
0.25
100
AcDbLine
 10
620.1984442656305
 20
205.3736898475895
 30
0.0
 11
615.1984442656518
 21
205.3736898475745
 31
0.0
  0
ARC
  5
224F
330
18
100
AcDbEntity
  8
1
  6
Continuous
100
AcDbCircle
 10
613.1984442656305
 20
220.8736898474258
 30
0.0
 40
2.500000000000003
100
AcDbArc
 50
180.0
 51
270.0
  0
ARC
  5
2250
330
18
100
AcDbEntity
  8
1
  6
Continuous
100
AcDbCircle
 10
616.1984442656305
 20
217.8736898474257
 30
0.0
 40
2.500000000000003
100
AcDbArc
 50
0.000000000000007
 51
90.0
  0
ARC
  5
2251
330
18
100
AcDbEntity
  8
1
  6
Continuous
100
AcDbCircle
 10
616.1984442656305
 20
217.8736898474257
 30
0.0
 40
0.5000000000000036
100
AcDbArc
 50
0.000000000000007
 51
90.0
  0
LINE
  5
2252
330
18
100
AcDbEntity
  8
1
  6
Continuous
100
AcDbLine
 10
613.1984442656305
 20
218.3736898474257
 30
0.0
 11
616.1984442656305
 21
218.3736898474257
 31
0.0
  0
LINE
  5
2253
330
18
100
AcDbEntity
  8
1
  6
Continuous
100
AcDbLine
 10
608.1984442656305
 20
216.8736898474258
 30
0.0
 11
606.1984442656305
 21
216.8736898474258
 31
0.0
  0
LINE
  5
2254
330
18
100
AcDbEntity
  8
1
  6
Continuous
100
AcDbLine
 10
612.6984442656302
 20
223.3736898472256
 30
0.0
 11
613.6984442656303
 21
223.3736898472256
 31
0.0
  0
ARC
  5
2255
330
18
100
AcDbEntity
  8
1
  6
Continuous
100
AcDbCircle
 10
613.1984442656305
 20
220.8736898474258
 30
0.0
 40
0.5000000000000016
100
AcDbArc
 50
180.0
 51
270.0
  0
LINE
  5
2256
330
18
100
AcDbEntity
  8
1
  6
Continuous
100
AcDbLine
 10
616.1984442656305
 20
220.3736898474259
 30
0.0
 11
613.1984442656305
 21
220.3736898474259
 31
0.0
  0
LINE
  5
2257
330
18
100
AcDbEntity
  8
1
  6
Continuous
100
AcDbLine
 10
614.5984442656303
 20
226.6723013155778
 30
0.0
 11
613.6984442656305
 21
226.6723013155778
 31
0.0
  0
LINE
  5
2258
330
18
100
AcDbEntity
  8
1
  6
Continuous
100
AcDbLine
 10
614.5984442656303
 20
225.3736898474258
 30
0.0
 11
613.6984442656303
 21
225.3736898474258
 31
0.0
  0
LINE
  5
2259
330
18
100
AcDbEntity
  8
1
  6
Continuous
100
AcDbLine
 10
614.6984442656305
 20
225.2736898474256
 30
0.0
 11
614.5984442656306
 21
225.3736898474256
 31
0.0
  0
LINE
  5
225A
330
18
100
AcDbEntity
  8
1
  6
Continuous
100
AcDbLine
 10
614.5984442656306
 20
226.6723013155779
 30
0.0
 11
614.6984442656305
 21
226.6337080956619
 31
0.0
  0
LINE
  5
225B
330
18
100
AcDbEntity
  8
1
  6
Continuous
100
AcDbLine
 10
616.1984442656305
 20
224.6736898474257
 30
0.0
 11
615.8984442656304
 21
224.3736898474259
 31
0.0
  0
LINE
  5
225C
330
18
100
AcDbEntity
  8
1
  6
Continuous
100
AcDbLine
 10
614.9984442656305
 20
224.3736898474256
 30
0.0
 11
614.6984442656305
 21
224.6736898474257
 31
0.0
  0
LINE
  5
225D
330
18
100
AcDbEntity
  8
1
  6
Continuous
100
AcDbLine
 10
615.8984442656304
 20
224.3736898474257
 30
0.0
 11
614.9984442656305
 21
224.3736898474257
 31
0.0
  0
LINE
  5
225E
330
18
100
AcDbEntity
  8
2
  6
Continuous
100
AcDbLine
 10
613.6984442656305
 20
227.951906409616
 30
0.0
 11
614.5984442656338
 21
226.6723013155806
 31
0.0
  0
LINE
  5
225F
330
18
100
AcDbEntity
  8
1
  6
Continuous
100
AcDbLine
 10
605.1984442656305
 20
220.6236898474258
 30
0.0
 11
606.1984442656305
 21
220.6236898474258
 31
0.0
  0
LINE
  5
2260
330
18
100
AcDbEntity
  8
1
  6
Continuous
100
AcDbLine
 10
610.6984442656305
 20
220.2236898474257
 30
0.0
 11
609.1984442656305
 21
220.2236898474257
 31
0.0
  0
LINE
  5
2261
330
18
100
AcDbEntity
  8
1
  6
Continuous
100
AcDbLine
 10
609.1984442656305
 20
220.6236898474259
 30
0.0
 11
608.1984442656305
 21
220.6236898474259
 31
0.0
  0
LINE
  5
2264
330
18
100
AcDbEntity
  8
1
  6
Continuous
100
AcDbLine
 10
594.3450262530157
 20
223.6001871555294
 30
0.0
 11
598.4518622782452
 21
223.6001871555294
 31
0.0
  0
LINE
  5
2265
330
18
100
AcDbEntity
  8
1
  6
Continuous
100
AcDbLine
 10
594.3450262530157
 20
226.4869385014776
 30
0.0
 11
598.4518622782452
 21
226.4869385014776
 31
0.0
  0
LINE
  5
2266
330
18
100
AcDbEntity
  8
1
  6
Continuous
100
AcDbLine
 10
602.0984442656303
 20
225.2911722560873
 30
0.0
 11
602.9152879428725
 21
221.3736898474258
 31
0.0
  0
LINE
  5
2267
330
18
100
AcDbEntity
  8
1
  6
Continuous
100
AcDbLine
 10
603.6984442656305
 20
221.5369876555083
 30
0.0
 11
602.9152879428727
 21
221.3736898474256
 31
0.0
  0
LINE
  5
2268
330
18
100
AcDbEntity
  8
1
  6
Continuous
100
AcDbLine
 10
602.0984442656303
 20
225.2911722560873
 30
0.0
 11
601.2816005883879
 21
221.3736898474256
 31
0.0
  0
LINE
  5
2269
330
18
100
AcDbEntity
  8
1
  6
Continuous
100
AcDbLine
 10
600.4984442656303
 20
221.5369876555083
 30
0.0
 11
601.2816005883881
 21
221.3736898474258
 31
0.0
  0
LINE
  5
226A
330
18
100
AcDbEntity
  8
1
  6
Continuous
100
AcDbLine
 10
598.8984442656303
 20
225.2911722560873
 30
0.0
 11
599.7152879428726
 21
221.3736898474258
 31
0.0
  0
LINE
  5
226B
330
18
100
AcDbEntity
  8
1
  6
Continuous
100
AcDbLine
 10
600.4984442656303
 20
221.5369876555083
 30
0.0
 11
599.7152879428726
 21
221.3736898474256
 31
0.0
  0
LINE
  5
226C
330
18
100
AcDbEntity
  8
1
  6
Continuous
100
AcDbLine
 10
598.8984442656304
 20
224.3736898474257
 30
0.0
 11
598.4518622782453
 21
223.6001871555294
 31
0.0
  0
ARC
  5
226D
330
18
100
AcDbEntity
  8
1
  6
Continuous
100
AcDbCircle
 10
596.368490293532
 20
225.0515889711372
 30
0.0
 40
2.529953972098268
100
AcDbArc
 50
330.0000000000023
 51
34.5650930945221
  0
LINE
  5
226E
330
18
100
AcDbEntity
  8
1
  6
Continuous
100
AcDbLine
 10
593.8984442656304
 20
224.3736898474257
 30
0.0
 11
594.3450262530157
 21
223.6001871555294
 31
0.0
  0
LINE
  5
226F
330
18
100
AcDbEntity
  8
1
  6
Continuous
100
AcDbLine
 10
591.6984442656305
 20
227.137621869926
 30
0.0
 11
591.6984442656305
 21
226.3736898474257
 31
0.0
  0
ARC
  5
2270
330
18
100
AcDbEntity
  8
1
  6
Continuous
100
AcDbCircle
 10
596.4283982377287
 20
225.0515889711372
 30
0.0
 40
2.529953972098268
100
AcDbArc
 50
145.4349069054779
 51
209.9999999999976
  0
LINE
  5
2271
330
18
100
AcDbEntity
  8
1
  6
Continuous
100
AcDbLine
 10
591.6984442656305
 20
226.3736898474257
 30
0.0
 11
590.6984442656305
 21
227.3736898474258
 31
0.0
  0
LINE
  5
2272
330
18
100
AcDbEntity
  8
1
  6
Continuous
100
AcDbLine
 10
593.8984442656304
 20
226.9146898474257
 30
0.0
 11
591.1574442656306
 21
226.9146898474257
 31
0.0
  0
LINE
  5
2273
330
18
100
AcDbEntity
  8
2
  6
Continuous
100
AcDbLine
 10
591.6984442656305
 20
227.1511293870621
 30
0.0
 11
593.8984442656304
 21
227.7263803297439
 31
0.0
  0
LINE
  5
2274
330
18
100
AcDbEntity
  8
1
  6
Continuous
100
AcDbLine
 10
591.6984442656305
 20
227.1511293870621
 30
0.0
 11
593.8984442656304
 21
227.1511293870626
 31
0.0
  0
LINE
  5
2275
330
18
100
AcDbEntity
  8
1
  6
Continuous
100
AcDbLine
 10
591.6984442656305
 20
226.3736898474257
 30
0.0
 11
593.8984442656324
 21
226.3736898474289
 31
0.0
  0
LINE
  5
2277
330
18
100
AcDbEntity
  8
1
  6
Continuous
100
AcDbLine
 10
603.6984442656305
 20
238.5236898474258
 30
0.0
 11
605.1984442656305
 21
238.5236898474258
 31
0.0
  0
LINE
  5
2278
330
18
100
AcDbEntity
  8
1
  6
Continuous
100
AcDbLine
 10
616.6984442656302
 20
271.8736898474259
 30
0.0
 11
616.6984442656302
 21
240.8736898474257
 31
0.0
  0
LINE
  5
2279
330
18
100
AcDbEntity
  8
1
  6
Continuous
100
AcDbLine
 10
618.6984442656305
 20
240.8736898474257
 30
0.0
 11
618.6984442656305
 21
271.8736898474259
 31
0.0
  0
LINE
  5
227A
330
18
100
AcDbEntity
  8
1
  6
Continuous
100
AcDbLine
 10
616.6984442656302
 20
242.4950101907862
 30
0.0
 11
616.6984442656302
 21
257.3736898472254
 31
0.0
  0
LINE
  5
227B
330
18
100
AcDbEntity
  8
1
  6
Continuous
100
AcDbLine
 10
615.6984442656305
 20
242.4950101907861
 30
0.0
 11
615.6984442656305
 21
257.3736898472254
 31
0.0
  0
LINE
  5
227C
330
18
100
AcDbEntity
  8
1
  6
Continuous
100
AcDbLine
 10
615.1984442658297
 20
240.3736898474259
 30
0.0
 11
616.2591044374103
 21
241.4343500190063
 31
0.0
  0
LINE
  5
227D
330
18
100
AcDbEntity
  8
1
  6
Continuous
100
AcDbLine
 10
613.7842307034567
 20
240.3736898474257
 30
0.0
 11
615.5519976562236
 21
242.1414568001929
 31
0.0
  0
ARC
  5
227E
330
18
100
AcDbEntity
  8
1
  6
Continuous
100
AcDbCircle
 10
613.1984442656305
 20
237.8736898474258
 30
0.0
 40
2.500000000000002
100
AcDbArc
 50
90.0
 51
180.0
  0
ARC
  5
227F
330
18
100
AcDbEntity
  8
1
  6
Continuous
100
AcDbCircle
 10
613.1984442656305
 20
237.8736898474258
 30
0.0
 40
0.5000000000000009
100
AcDbArc
 50
90.0
 51
180.0
  0
LINE
  5
2280
330
18
100
AcDbEntity
  8
1
  6
Continuous
100
AcDbLine
 10
613.6984442656305
 20
232.0750783792736
 30
0.0
 11
614.5984442656303
 21
232.0750783792736
 31
0.0
  0
LINE
  5
2281
330
18
100
AcDbEntity
  8
1
  6
Continuous
100
AcDbLine
 10
613.6984442656305
 20
233.3736898474258
 30
0.0
 11
614.5984442656303
 21
233.3736898474258
 31
0.0
  0
LINE
  5
2282
330
18
100
AcDbEntity
  8
1
  6
Continuous
100
AcDbLine
 10
614.5984442656303
 20
232.0750783792736
 30
0.0
 11
614.6984442656305
 21
232.1136715991897
 31
0.0
  0
LINE
  5
2283
330
18
100
AcDbEntity
  8
1
  6
Continuous
100
AcDbLine
 10
614.5984442656306
 20
233.3736898474256
 30
0.0
 11
614.6984442656305
 21
233.4736898474256
 31
0.0
  0
LINE
  5
2284
330
18
100
AcDbEntity
  8
1
  6
Continuous
100
AcDbLine
 10
615.8984442656304
 20
234.3736898474255
 30
0.0
 11
616.1984442656305
 21
234.0736898474255
 31
0.0
  0
LINE
  5
2285
330
18
100
AcDbEntity
  8
1
  6
Continuous
100
AcDbLine
 10
614.6984442656305
 20
234.0736898474255
 30
0.0
 11
614.9984442656305
 21
234.3736898474255
 31
0.0
  0
LINE
  5
2286
330
18
100
AcDbEntity
  8
1
  6
Continuous
100
AcDbLine
 10
614.9984442656305
 20
234.3736898474257
 30
0.0
 11
615.8984442656304
 21
234.3736898474257
 31
0.0
  0
LINE
  5
2287
330
18
100
AcDbEntity
  8
2
  6
Continuous
100
AcDbLine
 10
613.6984442656305
 20
230.7954732852352
 30
0.0
 11
614.5984442656335
 21
232.0750783792706
 31
0.0
  0
ARC
  5
2288
330
18
100
AcDbEntity
  8
1
  6
Continuous
100
AcDbCircle
 10
616.1984442656303
 20
240.8736898474257
 30
0.0
 40
2.500000000000003
100
AcDbArc
 50
270.0
 51
0.000000000000007
  0
ARC
  5
2289
330
18
100
AcDbEntity
  8
1
  6
Continuous
100
AcDbCircle
 10
616.1984442656303
 20
240.8736898474257
 30
0.0
 40
0.5000000000000009
100
AcDbArc
 50
270.0
 51
0.000000000000007
  0
LINE
  5
228A
330
18
100
AcDbEntity
  8
1
  6
Continuous
100
AcDbLine
 10
616.1984442656305
 20
240.3736898474257
 30
0.0
 11
613.1984442656305
 21
240.3736898474257
 31
0.0
  0
LINE
  5
228B
330
18
100
AcDbEntity
  8
1
  6
Continuous
100
AcDbLine
 10
613.1984442656305
 20
238.3736898474257
 30
0.0
 11
616.1984442656305
 21
238.3736898474257
 31
0.0
  0
LINE
  5
228E
330
18
100
AcDbEntity
  8
1
  6
Continuous
100
AcDbLine
 10
605.1984442656305
 20
238.1236898474258
 30
0.0
 11
606.1984442656305
 21
238.1236898474258
 31
0.0
  0
LINE
  5
228F
330
18
100
AcDbEntity
  8
1
  6
Continuous
100
AcDbLine
 10
610.6984442656305
 20
238.5236898474258
 30
0.0
 11
609.1984442656305
 21
238.5236898474258
 31
0.0
  0
LINE
  5
2290
330
18
100
AcDbEntity
  8
1
  6
Continuous
100
AcDbLine
 10
609.1984442656305
 20
238.1236898474258
 30
0.0
 11
608.1984442656305
 21
238.1236898474258
 31
0.0
  0
ARC
  5
2291
330
18
100
AcDbEntity
  8
1
  6
Continuous
100
AcDbCircle
 10
615.1984442656303
 20
242.4950101907861
 30
0.0
 40
1.5
100
AcDbArc
 50
315.0000000000011
 51
0.000000000000007
  0
ARC
  5
2292
330
18
100
AcDbEntity
  8
1
  6
Continuous
100
AcDbCircle
 10
615.1984442656303
 20
242.4950101907861
 30
0.0
 40
0.5
100
AcDbArc
 50
315.0000000000011
 51
0.000000000000007
  0
LINE
  5
2293
330
18
100
AcDbEntity
  8
1
  6
Continuous
100
AcDbLine
 10
606.1984442656305
 20
241.8736898474258
 30
0.0
 11
608.1984442656305
 21
241.8736898474258
 31
0.0
  0
LINE
  5
2294
330
18
100
AcDbEntity
  8
1
  6
Continuous
100
AcDbLine
 10
615.6984442656303
 20
257.3736898472254
 30
0.0
 11
616.6984442656302
 21
257.3736898472254
 31
0.0
  0
LINE
  5
2295
330
18
100
AcDbEntity
  8
4
  6
CENTER
 48
0.25
100
AcDbLine
 10
620.1984442656305
 20
253.3736898472279
 30
0.0
 11
614.1984442656515
 21
253.3736898472251
 31
0.0
  0
LINE
  5
2296
330
18
100
AcDbEntity
  8
4
  6
CENTER
 48
0.25
100
AcDbLine
 10
620.1984442656303
 20
264.3736898472279
 30
0.0
 11
614.1984442656515
 21
264.3736898472251
 31
0.0
  0
LINE
  5
2297
330
18
100
AcDbEntity
  8
1
  6
Continuous
100
AcDbLine
 10
616.6984442656302
 20
271.8736898474259
 30
0.0
 11
618.6984442656305
 21
271.8736898474259
 31
0.0
  0
LINE
  5
2298
330
18
100
AcDbEntity
  8
1
  6
Continuous
100
AcDbLine
 10
594.3450262530157
 20
235.1471925393222
 30
0.0
 11
598.4518622782452
 21
235.1471925393222
 31
0.0
  0
LINE
  5
2299
330
18
100
AcDbEntity
  8
1
  6
Continuous
100
AcDbLine
 10
594.3450262530157
 20
232.2604411933738
 30
0.0
 11
598.4518622782452
 21
232.2604411933738
 31
0.0
  0
LINE
  5
229A
330
18
100
AcDbEntity
  8
1
  6
Continuous
100
AcDbLine
 10
602.0984442656303
 20
233.456207438764
 30
0.0
 11
602.9152879428727
 21
237.3736898474259
 31
0.0
  0
LINE
  5
229B
330
18
100
AcDbEntity
  8
1
  6
Continuous
100
AcDbLine
 10
602.0984442656303
 20
233.4562074387643
 30
0.0
 11
601.2816005883879
 21
237.3736898474259
 31
0.0
  0
LINE
  5
229C
330
18
100
AcDbEntity
  8
1
  6
Continuous
100
AcDbLine
 10
598.8984442656303
 20
233.4562074387643
 30
0.0
 11
599.7152879428726
 21
237.3736898474258
 31
0.0
  0
LINE
  5
229D
330
18
100
AcDbEntity
  8
1
  6
Continuous
100
AcDbLine
 10
598.8984442656303
 20
234.3736898474257
 30
0.0
 11
598.4518622782452
 21
235.1471925393219
 31
0.0
  0
ARC
  5
229E
330
18
100
AcDbEntity
  8
1
  6
Continuous
100
AcDbCircle
 10
596.368490293532
 20
233.6957907237142
 30
0.0
 40
2.529953972098017
100
AcDbArc
 50
325.4349069054736
 51
29.99999999999765
  0
LINE
  5
229F
330
18
100
AcDbEntity
  8
1
  6
Continuous
100
AcDbLine
 10
603.6984442656305
 20
237.2103920393429
 30
0.0
 11
602.9152879428728
 21
237.3736898474255
 31
0.0
  0
LINE
  5
22A0
330
18
100
AcDbEntity
  8
1
  6
Continuous
100
AcDbLine
 10
600.4984442656303
 20
237.2103920393428
 30
0.0
 11
601.2816005883879
 21
237.3736898474255
 31
0.0
  0
LINE
  5
22A1
330
18
100
AcDbEntity
  8
1
  6
Continuous
100
AcDbLine
 10
600.4984442656303
 20
237.2103920393429
 30
0.0
 11
599.7152879428726
 21
237.3736898474255
 31
0.0
  0
LINE
  5
22A2
330
18
100
AcDbEntity
  8
1
  6
Continuous
100
AcDbLine
 10
593.8984442656304
 20
234.3736898474257
 30
0.0
 11
594.3450262530157
 21
235.147192539322
 31
0.0
  0
LINE
  5
22A3
330
18
100
AcDbEntity
  8
1
  6
Continuous
100
AcDbLine
 10
591.6984442656305
 20
232.3736898474257
 30
0.0
 11
591.6984442656305
 21
231.6097578249255
 31
0.0
  0
ARC
  5
22A4
330
18
100
AcDbEntity
  8
1
  6
Continuous
100
AcDbCircle
 10
596.4283982377285
 20
233.6957907237142
 30
0.0
 40
2.529953972098017
100
AcDbArc
 50
149.9999999999996
 51
214.5650930945264
  0
LINE
  5
22A5
330
18
100
AcDbEntity
  8
1
  6
Continuous
100
AcDbLine
 10
590.6984442656305
 20
231.3736898474258
 30
0.0
 11
591.6984442656305
 21
232.3736898474257
 31
0.0
  0
LINE
  5
22A6
330
18
100
AcDbEntity
  8
1
  6
Continuous
100
AcDbLine
 10
593.8984442656304
 20
231.8326898474257
 30
0.0
 11
591.1574442656306
 21
231.8326898474257
 31
0.0
  0
LINE
  5
22A7
330
18
100
AcDbEntity
  8
1
  6
Continuous
100
AcDbLine
 10
591.6984442656305
 20
231.5962503077896
 30
0.0
 11
593.8984442656304
 21
231.5962503077889
 31
0.0
  0
LINE
  5
22A8
330
18
100
AcDbEntity
  8
2
  6
Continuous
100
AcDbLine
 10
591.6984442656305
 20
231.5962503077896
 30
0.0
 11
593.8984442656304
 21
231.0209993651077
 31
0.0
  0
LINE
  5
22A9
330
18
100
AcDbEntity
  8
1
  6
Continuous
100
AcDbLine
 10
591.6984442656305
 20
232.3736898474257
 30
0.0
 11
593.8984442656324
 21
232.3736898474289
 31
0.0
  0
ARC
  5
22AA
330
18
100
AcDbEntity
  8
1
  6
Continuous
100
AcDbCircle
 10
519.7285567656445
 20
229.3736898474258
 30
0.0
 40
2.969887499986186
100
AcDbArc
 50
311.5510355611308
 51
48.44896443886904
  0
LINE
  5
22AB
330
18
100
AcDbEntity
  8
1
  6
Continuous
100
AcDbLine
 10
522.6984442656305
 20
231.3736898474258
 30
0.0
 11
522.6984442656305
 21
227.3736898474258
 31
0.0
  0
ARC
  5
22AC
330
18
100
AcDbEntity
  8
1
  6
Continuous
100
AcDbCircle
 10
509.9450262530153
 20
229.3736898474258
 30
0.0
 40
9.553418012615159
100
AcDbArc
 50
342.4120462260069
 51
17.58795377399307
  0
LINE
  5
22AD
330
18
100
AcDbEntity
  8
1
  6
Continuous
100
AcDbLine
 10
519.4984442656305
 20
224.3736898474257
 30
0.0
 11
519.4984442656305
 21
234.3736898474257
 31
0.0
  0
LINE
  5
22AE
330
18
100
AcDbEntity
  8
1
  6
Continuous
100
AcDbLine
 10
522.6984442656305
 20
231.3736898474314
 30
0.0
 11
522.6984442656305
 21
227.3736898474203
 31
0.0
  0
ARC
  5
22AF
330
18
100
AcDbEntity
  8
1
  6
Continuous
100
AcDbCircle
 10
524.0518622782459
 20
229.3736898474258
 30
0.0
 40
9.553418012615159
100
AcDbArc
 50
162.4120462260069
 51
197.587953773993
  0
LINE
  5
22B0
330
18
100
AcDbEntity
  8
1
  6
Continuous
100
AcDbLine
 10
514.4984442656305
 20
224.3736898474257
 30
0.0
 11
514.4984442656305
 21
234.3736898474257
 31
0.0
  0
LINE
  5
22B1
330
18
100
AcDbEntity
  8
1
  6
Continuous
100
AcDbLine
 10
513.6816005883881
 20
237.3736898474258
 30
0.0
 11
513.6816005883881
 21
221.3736898474258
 31
0.0
  0
LINE
  5
22B2
330
18
100
AcDbEntity
  8
1
  6
Continuous
100
AcDbLine
 10
512.8984442656303
 20
221.5369876555084
 30
0.0
 11
512.8984442656303
 21
237.2103920393429
 31
0.0
  0
LINE
  5
22B3
330
18
100
AcDbEntity
  8
1
  6
Continuous
100
AcDbLine
 10
521.6984442656305
 20
226.3736898474257
 30
0.0
 11
519.4984442656286
 21
226.3736898474289
 31
0.0
  0
LINE
  5
22B4
330
18
100
AcDbEntity
  8
1
  6
Continuous
100
AcDbLine
 10
521.6984442656305
 20
227.1511293870621
 30
0.0
 11
519.4984442656305
 21
227.1511293870626
 31
0.0
  0
LINE
  5
22B5
330
18
100
AcDbEntity
  8
2
  6
Continuous
100
AcDbLine
 10
521.6984442656305
 20
227.1511293870621
 30
0.0
 11
519.4984442656305
 21
227.7263803297439
 31
0.0
  0
LINE
  5
22B6
330
18
100
AcDbEntity
  8
1
  6
Continuous
100
AcDbLine
 10
519.4984442656305
 20
226.9146898474257
 30
0.0
 11
522.2394442656304
 21
226.9146898474257
 31
0.0
  0
LINE
  5
22B7
330
18
100
AcDbEntity
  8
1
  6
Continuous
100
AcDbLine
 10
521.6984442656305
 20
226.3736898474257
 30
0.0
 11
522.6984442656305
 21
227.3736898474258
 31
0.0
  0
LINE
  5
22B8
330
18
100
AcDbEntity
  8
1
  6
Continuous
100
AcDbLine
 10
521.6984442656305
 20
227.137621869926
 30
0.0
 11
521.6984442656305
 21
226.3736898474257
 31
0.0
  0
ARC
  5
22B9
330
18
100
AcDbEntity
  8
1
  6
Continuous
100
AcDbCircle
 10
516.9684902935323
 20
225.0515889711372
 30
0.0
 40
2.529953972098268
100
AcDbArc
 50
330.0000000000023
 51
34.5650930945221
  0
LINE
  5
22BA
330
18
100
AcDbEntity
  8
1
  6
Continuous
100
AcDbLine
 10
519.4984442656305
 20
224.3736898474257
 30
0.0
 11
519.0518622782454
 21
223.6001871555294
 31
0.0
  0
ARC
  5
22BB
330
18
100
AcDbEntity
  8
1
  6
Continuous
100
AcDbCircle
 10
517.0283982377291
 20
225.0515889711372
 30
0.0
 40
2.529953972098268
100
AcDbArc
 50
145.4349069054779
 51
209.9999999999976
  0
LINE
  5
22BC
330
18
100
AcDbEntity
  8
1
  6
Continuous
100
AcDbLine
 10
514.4984442656305
 20
224.3736898474257
 30
0.0
 11
514.9450262530156
 21
223.6001871555294
 31
0.0
  0
LINE
  5
22BD
330
18
100
AcDbEntity
  8
1
  6
Continuous
100
AcDbLine
 10
512.8984442656303
 20
221.5369876555083
 30
0.0
 11
513.6816005883881
 21
221.3736898474256
 31
0.0
  0
LINE
  5
22BE
330
18
100
AcDbEntity
  8
1
  6
Continuous
100
AcDbLine
 10
514.4984442656307
 20
225.2911722560873
 30
0.0
 11
513.6816005883884
 21
221.3736898474258
 31
0.0
  0
LINE
  5
22BF
330
18
100
AcDbEntity
  8
1
  6
Continuous
100
AcDbLine
 10
519.0518622782454
 20
226.4869385014776
 30
0.0
 11
514.9450262530158
 21
226.4869385014776
 31
0.0
  0
LINE
  5
22C0
330
18
100
AcDbEntity
  8
1
  6
Continuous
100
AcDbLine
 10
519.0518622782454
 20
223.6001871555294
 30
0.0
 11
514.9450262530158
 21
223.6001871555294
 31
0.0
  0
LINE
  5
22C1
330
18
100
AcDbEntity
  8
1
  6
Continuous
100
AcDbLine
 10
521.6984442656305
 20
232.3736898474257
 30
0.0
 11
519.4984442656286
 21
232.3736898474289
 31
0.0
  0
LINE
  5
22C2
330
18
100
AcDbEntity
  8
2
  6
Continuous
100
AcDbLine
 10
521.6984442656305
 20
231.5962503077896
 30
0.0
 11
519.4984442656305
 21
231.0209993651077
 31
0.0
  0
LINE
  5
22C3
330
18
100
AcDbEntity
  8
1
  6
Continuous
100
AcDbLine
 10
521.6984442656305
 20
231.5962503077896
 30
0.0
 11
519.4984442656305
 21
231.5962503077889
 31
0.0
  0
LINE
  5
22C4
330
18
100
AcDbEntity
  8
1
  6
Continuous
100
AcDbLine
 10
519.4984442656305
 20
231.8326898474257
 30
0.0
 11
522.2394442656304
 21
231.8326898474257
 31
0.0
  0
LINE
  5
22C5
330
18
100
AcDbEntity
  8
1
  6
Continuous
100
AcDbLine
 10
522.6984442656305
 20
231.3736898474258
 30
0.0
 11
521.6984442656305
 21
232.3736898474257
 31
0.0
  0
LINE
  5
22C6
330
18
100
AcDbEntity
  8
1
  6
Continuous
100
AcDbLine
 10
521.6984442656305
 20
232.3736898474257
 30
0.0
 11
521.6984442656305
 21
231.6097578249255
 31
0.0
  0
ARC
  5
22C7
330
18
100
AcDbEntity
  8
1
  6
Continuous
100
AcDbCircle
 10
516.9684902935324
 20
233.6957907237142
 30
0.0
 40
2.529953972098017
100
AcDbArc
 50
325.4349069054736
 51
30.00000000000035
  0
LINE
  5
22C8
330
18
100
AcDbEntity
  8
1
  6
Continuous
100
AcDbLine
 10
519.4984442656305
 20
234.3736898474257
 30
0.0
 11
519.0518622782451
 21
235.147192539322
 31
0.0
  0
LINE
  5
22C9
330
18
100
AcDbEntity
  8
1
  6
Continuous
100
AcDbLine
 10
512.8984442656307
 20
237.2103920393429
 30
0.0
 11
513.6816005883881
 21
237.3736898474255
 31
0.0
  0
ARC
  5
22CA
330
18
100
AcDbEntity
  8
1
  6
Continuous
100
AcDbCircle
 10
517.0283982377286
 20
233.6957907237142
 30
0.0
 40
2.529953972098017
100
AcDbArc
 50
150.0000000000023
 51
214.5650930945263
  0
LINE
  5
22CB
330
18
100
AcDbEntity
  8
1
  6
Continuous
100
AcDbLine
 10
514.4984442656307
 20
234.3736898474257
 30
0.0
 11
514.9450262530158
 21
235.1471925393219
 31
0.0
  0
LINE
  5
22CC
330
18
100
AcDbEntity
  8
1
  6
Continuous
100
AcDbLine
 10
514.4984442656305
 20
233.4562074387643
 30
0.0
 11
513.6816005883881
 21
237.3736898474258
 31
0.0
  0
LINE
  5
22CD
330
18
100
AcDbEntity
  8
1
  6
Continuous
100
AcDbLine
 10
519.0518622782454
 20
232.2604411933738
 30
0.0
 11
514.9450262530158
 21
232.2604411933738
 31
0.0
  0
LINE
  5
22CE
330
18
100
AcDbEntity
  8
1
  6
Continuous
100
AcDbLine
 10
519.0518622782454
 20
235.1471925393222
 30
0.0
 11
514.9450262530158
 21
235.1471925393222
 31
0.0
  0
LINE
  5
22CF
330
18
100
AcDbEntity
  8
1
  6
Continuous
100
AcDbLine
 10
494.6984442656303
 20
186.8736898474257
 30
0.0
 11
494.6984442656303
 21
217.8736898474257
 31
0.0
  0
LINE
  5
22D0
330
18
100
AcDbEntity
  8
1
  6
Continuous
100
AcDbLine
 10
496.6984442656303
 20
217.8736898474257
 30
0.0
 11
496.6984442656303
 21
186.8736898474257
 31
0.0
  0
LINE
  5
22D3
330
18
100
AcDbEntity
  8
1
  6
Continuous
100
AcDbLine
 10
494.6984442656303
 20
186.8736898474257
 30
0.0
 11
496.6984442656303
 21
186.8736898474257
 31
0.0
  0
LINE
  5
22D4
330
18
100
AcDbEntity
  8
1
  6
Continuous
100
AcDbLine
 10
511.2984442656305
 20
233.4562074387643
 30
0.0
 11
511.2984442656305
 21
225.2911722560873
 31
0.0
  0
LINE
  5
22D5
330
18
100
AcDbEntity
  8
1
  6
Continuous
100
AcDbLine
 10
512.1152879428726
 20
221.3736898474258
 30
0.0
 11
512.1152879428726
 21
237.3736898474258
 31
0.0
  0
LINE
  5
22D6
330
18
100
AcDbEntity
  8
1
  6
Continuous
100
AcDbLine
 10
510.4816005883883
 20
237.3736898474258
 30
0.0
 11
510.4816005883883
 21
221.3736898474258
 31
0.0
  0
LINE
  5
22D7
330
18
100
AcDbEntity
  8
1
  6
Continuous
100
AcDbLine
 10
509.6984442656305
 20
220.2236898474257
 30
0.0
 11
509.6984442656305
 21
238.5236898474258
 31
0.0
  0
LINE
  5
22D8
330
18
100
AcDbEntity
  8
1
  6
Continuous
100
AcDbLine
 10
498.7984442656305
 20
233.3736898474258
 30
0.0
 11
498.7984442656305
 21
225.3736898474258
 31
0.0
  0
LINE
  5
22D9
330
18
100
AcDbEntity
  8
1
  6
Continuous
100
AcDbLine
 10
497.4984442656303
 20
224.3736898474259
 30
0.0
 11
497.4984442656303
 21
234.3736898474257
 31
0.0
  0
LINE
  5
22DA
330
18
100
AcDbEntity
  8
1
  6
Continuous
100
AcDbLine
 10
498.3984442656304
 20
224.3736898474256
 30
0.0
 11
498.3984442656304
 21
234.3736898474257
 31
0.0
  0
LINE
  5
22DB
330
18
100
AcDbEntity
  8
1
  6
Continuous
100
AcDbLine
 10
498.6984442656305
 20
224.6736898474258
 30
0.0
 11
498.6984442656305
 21
234.0736898474255
 31
0.0
  0
LINE
  5
22DC
330
18
100
AcDbEntity
  8
1
  6
Continuous
100
AcDbLine
 10
497.1984442656305
 20
224.6736898474258
 30
0.0
 11
497.1984442656305
 21
234.0736898474255
 31
0.0
  0
LINE
  5
22DD
330
18
100
AcDbEntity
  8
1
  6
Continuous
100
AcDbLine
 10
500.6984442656306
 20
220.8736898474258
 30
0.0
 11
500.6984442656306
 21
237.8736898474258
 31
0.0
  0
LINE
  5
22DE
330
18
100
AcDbEntity
  8
1
  6
Continuous
100
AcDbLine
 10
499.6984442656304
 20
223.3736898472254
 30
0.0
 11
499.6984442656304
 21
238.3736898474257
 31
0.0
  0
LINE
  5
22DF
330
18
100
AcDbEntity
  8
1
  6
Continuous
100
AcDbLine
 10
507.1984442656303
 20
216.8736898474258
 30
0.0
 11
507.1984442656303
 21
241.8736898474258
 31
0.0
  0
LINE
  5
22E0
330
18
100
AcDbEntity
  8
1
  6
Continuous
100
AcDbLine
 10
505.1984442656303
 20
216.8736898474258
 30
0.0
 11
505.1984442656303
 21
241.8736898474258
 31
0.0
  0
LINE
  5
22E1
330
18
100
AcDbEntity
  8
1
  6
Continuous
100
AcDbLine
 10
502.6984442656305
 20
220.2236898474257
 30
0.0
 11
502.6984442656305
 21
238.5236898474258
 31
0.0
  0
LINE
  5
22E2
330
18
100
AcDbEntity
  8
1
  6
Continuous
100
AcDbLine
 10
508.1984442656303
 20
220.2236898474257
 30
0.0
 11
508.1984442656303
 21
238.5236898474258
 31
0.0
  0
LINE
  5
22E3
330
18
100
AcDbEntity
  8
1
  6
Continuous
100
AcDbLine
 10
504.1984442656302
 20
238.5236898474258
 30
0.0
 11
504.1984442656302
 21
220.2236898474257
 31
0.0
  0
LINE
  5
22E8
330
18
100
AcDbEntity
  8
4
  6
CENTER
 48
0.25
100
AcDbLine
 10
493.1984442656305
 20
205.3736898475895
 30
0.0
 11
498.1984442656092
 21
205.3736898475745
 31
0.0
  0
LINE
  5
22E9
330
18
100
AcDbEntity
  8
4
  6
CENTER
 48
0.25
100
AcDbLine
 10
493.1984442656305
 20
194.3736898476883
 30
0.0
 11
498.1984442656092
 21
194.3736898476909
 31
0.0
  0
ARC
  5
22EA
330
18
100
AcDbEntity
  8
1
  6
Continuous
100
AcDbCircle
 10
497.1984442656305
 20
217.8736898474257
 30
0.0
 40
0.5000000000000036
100
AcDbArc
 50
90.0
 51
180.0
  0
ARC
  5
22EB
330
18
100
AcDbEntity
  8
1
  6
Continuous
100
AcDbCircle
 10
497.1984442656305
 20
217.8736898474257
 30
0.0
 40
2.500000000000003
100
AcDbArc
 50
90.0
 51
180.0
  0
ARC
  5
22EC
330
18
100
AcDbEntity
  8
1
  6
Continuous
100
AcDbCircle
 10
500.1984442656302
 20
220.8736898474258
 30
0.0
 40
2.500000000000003
100
AcDbArc
 50
270.0
 51
0.000000000000007
  0
LINE
  5
22ED
330
18
100
AcDbEntity
  8
1
  6
Continuous
100
AcDbLine
 10
505.1984442656303
 20
216.8736898474258
 30
0.0
 11
507.1984442656303
 21
216.8736898474258
 31
0.0
  0
LINE
  5
22EE
330
18
100
AcDbEntity
  8
1
  6
Continuous
100
AcDbLine
 10
500.1984442656302
 20
218.3736898474257
 30
0.0
 11
497.1984442656305
 21
218.3736898474257
 31
0.0
  0
LINE
  5
22F0
330
18
100
AcDbEntity
  8
1
  6
Continuous
100
AcDbLine
 10
504.1984442656302
 20
220.6236898474259
 30
0.0
 11
505.1984442656303
 21
220.6236898474259
 31
0.0
  0
LINE
  5
22F1
330
18
100
AcDbEntity
  8
1
  6
Continuous
100
AcDbLine
 10
511.2984442656305
 20
225.2911722560873
 30
0.0
 11
512.1152879428726
 21
221.3736898474256
 31
0.0
  0
LINE
  5
22F2
330
18
100
AcDbEntity
  8
1
  6
Continuous
100
AcDbLine
 10
509.6984442656305
 20
221.5369876555083
 30
0.0
 11
510.4816005883883
 21
221.3736898474256
 31
0.0
  0
LINE
  5
22F3
330
18
100
AcDbEntity
  8
1
  6
Continuous
100
AcDbLine
 10
511.2984442656306
 20
225.2911722560873
 30
0.0
 11
510.4816005883883
 21
221.3736898474258
 31
0.0
  0
LINE
  5
22F5
330
18
100
AcDbEntity
  8
1
  6
Continuous
100
AcDbLine
 10
508.1984442656303
 20
220.6236898474258
 30
0.0
 11
507.1984442656303
 21
220.6236898474258
 31
0.0
  0
LINE
  5
22F6
330
18
100
AcDbEntity
  8
1
  6
Continuous
100
AcDbLine
 10
509.6984442656305
 20
220.2236898474257
 30
0.0
 11
508.1984442656303
 21
220.2236898474257
 31
0.0
  0
LINE
  5
22F7
330
18
100
AcDbEntity
  8
1
  6
Continuous
100
AcDbLine
 10
502.6984442656305
 20
220.2236898474257
 30
0.0
 11
504.1984442656302
 21
220.2236898474257
 31
0.0
  0
LINE
  5
22F8
330
18
100
AcDbEntity
  8
2
  6
Continuous
100
AcDbLine
 10
499.6984442656303
 20
227.951906409616
 30
0.0
 11
498.7984442656272
 21
226.6723013155806
 31
0.0
  0
LINE
  5
22F9
330
18
100
AcDbEntity
  8
1
  6
Continuous
100
AcDbLine
 10
497.4984442656303
 20
224.3736898474257
 30
0.0
 11
498.3984442656304
 21
224.3736898474257
 31
0.0
  0
LINE
  5
22FA
330
18
100
AcDbEntity
  8
1
  6
Continuous
100
AcDbLine
 10
498.3984442656304
 20
224.3736898474256
 30
0.0
 11
498.6984442656305
 21
224.6736898474257
 31
0.0
  0
LINE
  5
22FB
330
18
100
AcDbEntity
  8
1
  6
Continuous
100
AcDbLine
 10
497.1984442656305
 20
224.6736898474257
 30
0.0
 11
497.4984442656303
 21
224.3736898474259
 31
0.0
  0
LINE
  5
22FC
330
18
100
AcDbEntity
  8
1
  6
Continuous
100
AcDbLine
 10
498.7984442656303
 20
226.6723013155779
 30
0.0
 11
498.6984442656305
 21
226.6337080956619
 31
0.0
  0
LINE
  5
22FD
330
18
100
AcDbEntity
  8
1
  6
Continuous
100
AcDbLine
 10
498.6984442656305
 20
225.2736898474256
 30
0.0
 11
498.7984442656303
 21
225.3736898474256
 31
0.0
  0
LINE
  5
22FE
330
18
100
AcDbEntity
  8
1
  6
Continuous
100
AcDbLine
 10
498.7984442656305
 20
225.3736898474258
 30
0.0
 11
499.6984442656304
 21
225.3736898474258
 31
0.0
  0
LINE
  5
22FF
330
18
100
AcDbEntity
  8
1
  6
Continuous
100
AcDbLine
 10
498.7984442656305
 20
226.6723013155778
 30
0.0
 11
499.6984442656303
 21
226.6723013155778
 31
0.0
  0
LINE
  5
2300
330
18
100
AcDbEntity
  8
1
  6
Continuous
100
AcDbLine
 10
497.1984442656305
 20
220.3736898474259
 30
0.0
 11
500.1984442656302
 21
220.3736898474259
 31
0.0
  0
ARC
  5
2301
330
18
100
AcDbEntity
  8
1
  6
Continuous
100
AcDbCircle
 10
500.1984442656302
 20
220.8736898474258
 30
0.0
 40
0.5000000000000016
100
AcDbArc
 50
270.0
 51
0.000000000000007
  0
LINE
  5
2302
330
18
100
AcDbEntity
  8
1
  6
Continuous
100
AcDbLine
 10
500.6984442656306
 20
223.3736898472256
 30
0.0
 11
499.6984442656304
 21
223.3736898472256
 31
0.0
  0
LINE
  5
2304
330
18
100
AcDbEntity
  8
1
  6
Continuous
100
AcDbLine
 10
497.6984442656305
 20
242.4950101907861
 30
0.0
 11
497.6984442656305
 21
257.3736898472254
 31
0.0
  0
LINE
  5
2305
330
18
100
AcDbEntity
  8
1
  6
Continuous
100
AcDbLine
 10
496.6984442656306
 20
242.4950101907862
 30
0.0
 11
496.6984442656306
 21
257.3736898472254
 31
0.0
  0
LINE
  5
2306
330
18
100
AcDbEntity
  8
1
  6
Continuous
100
AcDbLine
 10
494.6984442656303
 20
240.8736898474257
 30
0.0
 11
494.6984442656303
 21
271.8736898474259
 31
0.0
  0
LINE
  5
2307
330
18
100
AcDbEntity
  8
1
  6
Continuous
100
AcDbLine
 10
496.6984442656306
 20
271.8736898474259
 30
0.0
 11
496.6984442656306
 21
240.8736898474257
 31
0.0
  0
ARC
  5
2308
330
18
100
AcDbEntity
  8
1
  6
Continuous
100
AcDbCircle
 10
498.1984442656306
 20
242.4950101907861
 30
0.0
 40
1.5
100
AcDbArc
 50
180.0
 51
224.9999999999989
  0
ARC
  5
2309
330
18
100
AcDbEntity
  8
1
  6
Continuous
100
AcDbCircle
 10
497.1984442656306
 20
240.8736898474257
 30
0.0
 40
0.5000000000000009
100
AcDbArc
 50
180.0
 51
270.0
  0
ARC
  5
230A
330
18
100
AcDbEntity
  8
1
  6
Continuous
100
AcDbCircle
 10
497.1984442656306
 20
240.8736898474257
 30
0.0
 40
2.500000000000003
100
AcDbArc
 50
180.0
 51
270.0
  0
LINE
  5
230B
330
18
100
AcDbEntity
  8
1
  6
Continuous
100
AcDbLine
 10
499.6126578278041
 20
240.3736898474257
 30
0.0
 11
497.8448908750372
 21
242.1414568001929
 31
0.0
  0
LINE
  5
230C
330
18
100
AcDbEntity
  8
1
  6
Continuous
100
AcDbLine
 10
498.1984442654312
 20
240.3736898474259
 30
0.0
 11
497.1377840938507
 21
241.4343500190063
 31
0.0
  0
LINE
  5
230D
330
18
100
AcDbEntity
  8
1
  6
Continuous
100
AcDbLine
 10
504.1984442656302
 20
238.1236898474258
 30
0.0
 11
505.1984442656303
 21
238.1236898474258
 31
0.0
  0
LINE
  5
230F
330
18
100
AcDbEntity
  8
1
  6
Continuous
100
AcDbLine
 10
509.6984442656305
 20
237.2103920393429
 30
0.0
 11
510.481600588388
 21
237.3736898474255
 31
0.0
  0
LINE
  5
2310
330
18
100
AcDbEntity
  8
1
  6
Continuous
100
AcDbLine
 10
511.2984442656306
 20
233.4562074387643
 30
0.0
 11
512.115287942873
 21
237.3736898474259
 31
0.0
  0
LINE
  5
2311
330
18
100
AcDbEntity
  8
1
  6
Continuous
100
AcDbLine
 10
511.2984442656306
 20
233.456207438764
 30
0.0
 11
510.4816005883883
 21
237.3736898474259
 31
0.0
  0
LINE
  5
2312
330
18
100
AcDbEntity
  8
1
  6
Continuous
100
AcDbLine
 10
508.1984442656303
 20
238.1236898474258
 30
0.0
 11
507.1984442656303
 21
238.1236898474258
 31
0.0
  0
LINE
  5
2314
330
18
100
AcDbEntity
  8
1
  6
Continuous
100
AcDbLine
 10
509.6984442656305
 20
238.5236898474258
 30
0.0
 11
508.1984442656303
 21
238.5236898474258
 31
0.0
  0
LINE
  5
2315
330
18
100
AcDbEntity
  8
1
  6
Continuous
100
AcDbLine
 10
502.6984442656305
 20
238.5236898474258
 30
0.0
 11
504.1984442656302
 21
238.5236898474258
 31
0.0
  0
LINE
  5
2316
330
18
100
AcDbEntity
  8
1
  6
Continuous
100
AcDbLine
 10
500.1984442656302
 20
238.3736898474257
 30
0.0
 11
497.1984442656305
 21
238.3736898474257
 31
0.0
  0
LINE
  5
2317
330
18
100
AcDbEntity
  8
1
  6
Continuous
100
AcDbLine
 10
497.1984442656305
 20
240.3736898474257
 30
0.0
 11
500.1984442656302
 21
240.3736898474257
 31
0.0
  0
LINE
  5
2318
330
18
100
AcDbEntity
  8
2
  6
Continuous
100
AcDbLine
 10
499.6984442656303
 20
230.7954732852352
 30
0.0
 11
498.7984442656272
 21
232.0750783792706
 31
0.0
  0
LINE
  5
2319
330
18
100
AcDbEntity
  8
1
  6
Continuous
100
AcDbLine
 10
498.3984442656304
 20
234.3736898474257
 30
0.0
 11
497.4984442656303
 21
234.3736898474257
 31
0.0
  0
LINE
  5
231A
330
18
100
AcDbEntity
  8
1
  6
Continuous
100
AcDbLine
 10
498.6984442656305
 20
234.0736898474255
 30
0.0
 11
498.3984442656304
 21
234.3736898474255
 31
0.0
  0
LINE
  5
231B
330
18
100
AcDbEntity
  8
1
  6
Continuous
100
AcDbLine
 10
497.4984442656303
 20
234.3736898474255
 30
0.0
 11
497.1984442656305
 21
234.0736898474255
 31
0.0
  0
LINE
  5
231C
330
18
100
AcDbEntity
  8
1
  6
Continuous
100
AcDbLine
 10
498.7984442656303
 20
233.3736898474256
 30
0.0
 11
498.6984442656305
 21
233.4736898474256
 31
0.0
  0
LINE
  5
231D
330
18
100
AcDbEntity
  8
1
  6
Continuous
100
AcDbLine
 10
498.7984442656305
 20
232.0750783792736
 30
0.0
 11
498.6984442656305
 21
232.1136715991897
 31
0.0
  0
LINE
  5
231E
330
18
100
AcDbEntity
  8
1
  6
Continuous
100
AcDbLine
 10
499.6984442656303
 20
233.3736898474258
 30
0.0
 11
498.7984442656305
 21
233.3736898474258
 31
0.0
  0
LINE
  5
231F
330
18
100
AcDbEntity
  8
1
  6
Continuous
100
AcDbLine
 10
499.6984442656303
 20
232.0750783792736
 30
0.0
 11
498.7984442656305
 21
232.0750783792736
 31
0.0
  0
ARC
  5
2320
330
18
100
AcDbEntity
  8
1
  6
Continuous
100
AcDbCircle
 10
500.1984442656302
 20
237.8736898474258
 30
0.0
 40
0.5000000000000009
100
AcDbArc
 50
0.000000000000007
 51
90.0
  0
ARC
  5
2321
330
18
100
AcDbEntity
  8
1
  6
Continuous
100
AcDbCircle
 10
500.1984442656302
 20
237.8736898474258
 30
0.0
 40
2.500000000000002
100
AcDbArc
 50
0.000000000000007
 51
90.0
  0
LINE
  5
2322
330
18
100
AcDbEntity
  8
1
  6
Continuous
100
AcDbLine
 10
507.1984442656303
 20
241.8736898474258
 30
0.0
 11
505.1984442656303
 21
241.8736898474258
 31
0.0
  0
ARC
  5
2323
330
18
100
AcDbEntity
  8
1
  6
Continuous
100
AcDbCircle
 10
498.1984442656306
 20
242.4950101907861
 30
0.0
 40
0.5
100
AcDbArc
 50
180.0
 51
224.9999999999989
  0
LINE
  5
2324
330
18
100
AcDbEntity
  8
1
  6
Continuous
100
AcDbLine
 10
496.6984442656306
 20
271.8736898474259
 30
0.0
 11
494.6984442656303
 21
271.8736898474259
 31
0.0
  0
LINE
  5
2325
330
18
100
AcDbEntity
  8
4
  6
CENTER
 48
0.25
100
AcDbLine
 10
493.1984442656307
 20
264.3736898472279
 30
0.0
 11
499.1984442656092
 21
264.3736898472251
 31
0.0
  0
LINE
  5
2326
330
18
100
AcDbEntity
  8
4
  6
CENTER
 48
0.25
100
AcDbLine
 10
493.1984442656305
 20
253.3736898472279
 30
0.0
 11
499.1984442656092
 21
253.3736898472251
 31
0.0
  0
LINE
  5
2327
330
18
100
AcDbEntity
  8
1
  6
Continuous
100
AcDbLine
 10
497.6984442656307
 20
257.3736898472254
 30
0.0
 11
496.6984442656306
 21
257.3736898472254
 31
0.0
  0
ENDSEC
  0
SECTION
  2
OBJECTS
  0
DICTIONARY
  5
C
330
0
100
AcDbDictionary
281
     1
  3
ACAD_CIP_PREVIOUS_PRODUCT_INFO
350
2585
  3
ACAD_COLOR
350
2568
  3
ACAD_DETAILVIEWSTYLE
350
2581
  3
ACAD_GROUP
350
D
  3
ACAD_LAYOUT
350
94
  3
ACAD_MATERIAL
350
2536
  3
ACAD_MLEADERSTYLE
350
257D
  3
ACAD_MLINESTYLE
350
1B
  3
ACAD_PLOTSETTINGS
350
95
  3
ACAD_PLOTSTYLENAME
350
2534
  3
ACAD_SCALELIST
350
256B
  3
ACAD_SECTIONVIEWSTYLE
350
257F
  3
ACAD_TABLESTYLE
350
2569
  3
ACAD_VISUALSTYLE
350
254F
  3
ACDB_RECOMPOSE_DATA
350
25A3
  3
AcDbVariableDictionary
350
2596
  3
CONTENTDICTIONARY
350
3D
  3
DWGPROPS
350
25A4
  0
DICTIONARY
  5
2586
330
E
100
AcDbDictionary
280
     1
281
     1
  3
ADSK_XREC_LAYER_RECONCILED
360
2587
  0
DICTIONARY
  5
2588
330
4E
100
AcDbDictionary
280
     1
281
     1
  3
ADSK_XREC_LAYER_RECONCILED
360
2589
  0
DICTIONARY
  5
258A
330
4F
100
AcDbDictionary
280
     1
281
     1
  3
ADSK_XREC_LAYER_RECONCILED
360
258B
  0
DICTIONARY
  5
258C
330
50
100
AcDbDictionary
280
     1
281
     1
  3
ADSK_XREC_LAYER_RECONCILED
360
258D
  0
DICTIONARY
  5
258E
330
51
100
AcDbDictionary
280
     1
281
     1
  3
ADSK_XREC_LAYER_RECONCILED
360
258F
  0
DICTIONARY
  5
2590
330
52
100
AcDbDictionary
280
     1
281
     1
  3
ADSK_XREC_LAYER_RECONCILED
360
2591
  0
DICTIONARY
  5
2592
330
53
100
AcDbDictionary
280
     1
281
     1
  3
ADSK_XREC_LAYER_RECONCILED
360
2593
  0
DICTIONARY
  5
2594
330
54
100
AcDbDictionary
280
     1
281
     1
  3
ADSK_XREC_LAYER_RECONCILED
360
2595
  0
DICTIONARY
  5
252F
330
18
100
AcDbDictionary
281
     1
  3
ACAD_LAYOUTSELFREF
350
2530
  0
DICTIONARY
  5
252D
330
15
100
AcDbDictionary
281
     1
  3
ACAD_LAYOUTSELFREF
350
252E
  0
XRECORD
  5
2585
102
{ACAD_REACTORS
330
C
102
}
330
C
100
AcDbXrecord
280
     1
300
ACDLT
300
2014
300
ACDLT_F_S
  0
DICTIONARY
  5
2568
102
{ACAD_REACTORS
330
C
102
}
330
C
100
AcDbDictionary
281
     1
  0
DICTIONARY
  5
2581
102
{ACAD_REACTORS
330
C
102
}
330
C
100
AcDbDictionary
281
     1
  3
Imperial24
350
2582
  0
DICTIONARY
  5
D
102
{ACAD_REACTORS
330
C
102
}
330
C
100
AcDbDictionary
281
     1
  0
DICTIONARY
  5
94
102
{ACAD_REACTORS
330
C
102
}
330
C
100
AcDbDictionary
281
     1
  3
Model
350
2583
  3
レイアウト1
350
2584
  0
DICTIONARY
  5
2536
102
{ACAD_REACTORS
330
C
102
}
330
C
100
AcDbDictionary
281
     1
  3
ByBlock
350
253F
  3
ByLayer
350
2537
  3
Global
350
2547
  0
DICTIONARY
  5
257D
102
{ACAD_REACTORS
330
C
102
}
330
C
100
AcDbDictionary
281
     1
  3
Standard
350
257E
  0
DICTIONARY
  5
1B
102
{ACAD_REACTORS
330
C
102
}
330
C
100
AcDbDictionary
281
     1
  3
STANDARD
350
1C
  0
DICTIONARY
  5
95
102
{ACAD_REACTORS
330
C
102
}
330
C
100
AcDbDictionary
281
     1
  0
ACDBDICTIONARYWDFLT
  5
2534
102
{ACAD_REACTORS
330
C
102
}
330
C
100
AcDbDictionary
281
     1
  3
Normal
350
2535
100
AcDbDictionaryWithDefault
340
2535
  0
DICTIONARY
  5
256B
102
{ACAD_REACTORS
330
C
102
}
330
C
100
AcDbDictionary
281
     1
  3
A0
350
256C
  3
A1
350
256D
  3
A2
350
256E
  3
A3
350
256F
  3
A4
350
2570
  3
A5
350
2571
  3
A6
350
2572
  3
A7
350
2573
  3
A8
350
2574
  3
A9
350
2575
  3
B0
350
2576
  3
B1
350
2577
  3
B2
350
2578
  3
B3
350
2579
  3
B4
350
257A
  3
B5
350
257B
  3
B6
350
257C
  0
DICTIONARY
  5
257F
102
{ACAD_REACTORS
330
C
102
}
330
C
100
AcDbDictionary
281
     1
  3
Imperial24
350
2580
  0
DICTIONARY
  5
2569
102
{ACAD_REACTORS
330
C
102
}
330
C
100
AcDbDictionary
281
     1
  3
Standard
350
256A
  0
DICTIONARY
  5
254F
102
{ACAD_REACTORS
330
C
102
}
330
C
100
AcDbDictionary
281
     1
  3
2dWireframe
350
2555
  3
Basic
350
2554
  3
Brighten
350
255B
  3
ColorChange
350
255F
  3
Conceptual
350
2558
  3
Dim
350
255A
  3
EdgeColorOff
350
2567
  3
Facepattern
350
255E
  3
Flat
350
2550
  3
FlatWithEdges
350
2551
  3
Gouraud
350
2552
  3
GouraudWithEdges
350
2553
  3
Hidden
350
2557
  3
JitterOff
350
2565
  3
Linepattern
350
255D
  3
OverhangOff
350
2566
  3
Realistic
350
2559
  3
Shaded
350
2564
  3
Shaded with edges
350
2563
  3
Shades of Gray
350
2560
  3
Sketchy
350
2561
  3
Thicken
350
255C
  3
Wireframe
350
2556
  3
X-Ray
350
2562
  0
XRECORD
  5
25A3
102
{ACAD_REACTORS
330
C
102
}
330
C
100
AcDbXrecord
280
     1
 90
        1
330
256A
  0
DICTIONARY
  5
2596
102
{ACAD_REACTORS
330
C
102
}
330
C
100
AcDbDictionary
281
     1
  3
CANNOSCALE
350
259B
  3
CMLEADERSTYLE
350
2598
  3
CTABLESTYLE
350
2597
  3
CVIEWDETAILSTYLE
350
2599
  3
CVIEWSECTIONSTYLE
350
259A
  3
DIMASSOC
350
259E
  3
INDEXCTL
350
259D
  3
SORTENTS
350
259C
  3
XCLIPFRAME
350
259F
  0
DICTIONARY
  5
3D
102
{ACAD_REACTORS
330
C
102
}
330
C
100
AcDbDictionary
281
     1
  0
XRECORD
  5
25A4
102
{ACAD_REACTORS
330
C
102
}
330
C
100
AcDbXrecord
280
     1
  1
DWGPROPS COOKIE
  2

  3

  4

  6

  7

  8
Yoshitsune
  9

300
=
301
=
302
=
303
=
304
=
305
=
306
=
307
=
308
=
309
=
 40
0.0124561111111111
 41
2456443.698264201
 42
2457192.617012835
  1

 90
        0
  0
XRECORD
  5
2587
102
{ACAD_REACTORS
330
2586
102
}
330
2586
100
AcDbXrecord
280
     1
290
     1
  0
XRECORD
  5
2589
102
{ACAD_REACTORS
330
2588
102
}
330
2588
100
AcDbXrecord
280
     1
290
     1
  0
XRECORD
  5
258B
102
{ACAD_REACTORS
330
258A
102
}
330
258A
100
AcDbXrecord
280
     1
290
     1
  0
XRECORD
  5
258D
102
{ACAD_REACTORS
330
258C
102
}
330
258C
100
AcDbXrecord
280
     1
290
     1
  0
XRECORD
  5
258F
102
{ACAD_REACTORS
330
258E
102
}
330
258E
100
AcDbXrecord
280
     1
290
     1
  0
XRECORD
  5
2591
102
{ACAD_REACTORS
330
2590
102
}
330
2590
100
AcDbXrecord
280
     1
290
     1
  0
XRECORD
  5
2593
102
{ACAD_REACTORS
330
2592
102
}
330
2592
100
AcDbXrecord
280
     1
290
     1
  0
XRECORD
  5
2595
102
{ACAD_REACTORS
330
2594
102
}
330
2594
100
AcDbXrecord
280
     1
290
     1
  0
XRECORD
  5
2530
102
{ACAD_REACTORS
330
252F
102
}
330
252F
100
AcDbXrecord
280
     1
340
18
  0
XRECORD
  5
252E
102
{ACAD_REACTORS
330
252D
102
}
330
252D
100
AcDbXrecord
280
     1
340
15
  0
ACDBDETAILVIEWSTYLE
  5
2582
102
{ACAD_XDICTIONARY
360
25DC
102
}
102
{ACAD_REACTORS
330
2581
102
}
330
2581
100
AcDbModelDocViewStyle
 70
     0
  3
Imperial24
290
     0
100
AcDbDetailViewStyle
 70
     0
 71
     0
 90
        3
 71
     1
340
F
 40
0.24
340
0
 40
0.24
300

 40
0.36
280
     3
 71
     2
340
14
 90
       25
 71
     3
340
F
 40
0.24
 90
        1
 40
0.75
 90
        1
300
%<\AcVar ViewType \f "%tc1">% %<\AcVar ViewDetailId>%\PSCALE %<\AcVar ViewScale \f "%sn">%
 71
     4
340
14
 90
       25
340
14
 90
       25
280
     0
  0
LAYOUT
  5
2583
102
{ACAD_XDICTIONARY
360
25DE
102
}
102
{ACAD_REACTORS
330
94
102
}
330
94
100
AcDbPlotSettings
  1

  2
Canon LBP9100C
  4

  6

 40
0.0
 41
0.0
 42
0.0
 43
0.0
 44
0.0
 45
0.0
 46
0.0
 47
0.0
 48
0.0
 49
0.0
140
0.0
141
0.0
142
1.0
143
1.0
 70
  1712
 72
     0
 73
     0
 74
     0
  7

 75
     0
147
1.0
148
0.0
149
0.0
100
AcDbLayout
  1
Model
 70
     1
 71
     0
 10
0.0
 20
0.0
 11
12.0
 21
9.0
 12
0.0
 22
0.0
 32
0.0
 14
0.0
 24
0.0
 34
0.0
 15
0.0
 25
0.0
 35
0.0
146
0.0
 13
0.0
 23
0.0
 33
0.0
 16
1.0
 26
0.0
 36
0.0
 17
0.0
 27
1.0
 37
0.0
 76
     0
330
18
331
252C
  0
LAYOUT
  5
2584
102
{ACAD_XDICTIONARY
360
25E0
102
}
102
{ACAD_REACTORS
330
94
102
}
330
94
100
AcDbPlotSettings
  1

  2
Canon LBP9100C
  4

  6

 40
0.0
 41
0.0
 42
0.0
 43
0.0
 44
0.0
 45
0.0
 46
0.0
 47
0.0
 48
0.0
 49
0.0
140
0.0
141
0.0
142
1.0
143
1.0
 70
   688
 72
     0
 73
     0
 74
     5
  7

 75
    16
147
1.0
148
0.0
149
0.0
100
AcDbLayout
  1
レイアウト1
 70
     1
 71
     1
 10
0.0
 20
0.0
 11
420.0
 21
297.0
 12
0.0
 22
0.0
 32
0.0
 14
1.000000000000000E+20
 24
1.000000000000000E+20
 34
1.000000000000000E+20
 15
-1.000000000000000E+20
 25
-1.000000000000000E+20
 35
-1.000000000000000E+20
146
0.0
 13
0.0
 23
0.0
 33
0.0
 16
1.0
 26
0.0
 36
0.0
 17
0.0
 27
1.0
 37
0.0
 76
     0
330
15
  0
MATERIAL
  5
253F
102
{ACAD_XDICTIONARY
360
2540
102
}
102
{ACAD_REACTORS
330
2536
102
}
330
2536
100
AcDbMaterial
  1
ByBlock
 72
     0
 43
0.0208333333333333
 43
0.0
 43
0.0
 43
0.0
 43
0.0
 43
0.0208333333333333
 43
0.0
 43
0.0
 43
0.0
 43
0.0
 43
1.0
 43
0.0
 43
0.0
 43
0.0
 43
0.0
 43
1.0
 77
     0
 47
0.0208333333333333
 47
0.0
 47
0.0
 47
0.0
 47
0.0
 47
0.0208333333333333
 47
0.0
 47
0.0
 47
0.0
 47
0.0
 47
1.0
 47
0.0
 47
0.0
 47
0.0
 47
0.0
 47
1.0
171
     0
 49
0.0208333333333333
 49
0.0
 49
0.0
 49
0.0
 49
0.0
 49
0.0208333333333333
 49
0.0
 49
0.0
 49
0.0
 49
0.0
 49
1.0
 49
0.0
 49
0.0
 49
0.0
 49
0.0
 49
1.0
175
     0
142
0.0208333333333333
142
0.0
142
0.0
142
0.0
142
0.0
142
0.0208333333333333
142
0.0
142
0.0
142
0.0
142
0.0
142
1.0
142
0.0
142
0.0
142
0.0
142
0.0
142
1.0
179
     0
144
0.0208333333333333
144
0.0
144
0.0
144
0.0
144
0.0
144
0.0208333333333333
144
0.0
144
0.0
144
0.0
144
0.0
144
1.0
144
0.0
144
0.0
144
0.0
144
0.0
144
1.0
147
0.0208333333333333
147
0.0
147
0.0
147
0.0
147
0.0
147
0.0208333333333333
147
0.0
147
0.0
147
0.0
147
0.0
147
1.0
147
0.0
147
0.0
147
0.0
147
0.0
147
1.0
  0
MATERIAL
  5
2537
102
{ACAD_XDICTIONARY
360
2538
102
}
102
{ACAD_REACTORS
330
2536
102
}
330
2536
100
AcDbMaterial
  1
ByLayer
 72
     0
 43
0.0208333333333333
 43
0.0
 43
0.0
 43
0.0
 43
0.0
 43
0.0208333333333333
 43
0.0
 43
0.0
 43
0.0
 43
0.0
 43
1.0
 43
0.0
 43
0.0
 43
0.0
 43
0.0
 43
1.0
 77
     0
 47
0.0208333333333333
 47
0.0
 47
0.0
 47
0.0
 47
0.0
 47
0.0208333333333333
 47
0.0
 47
0.0
 47
0.0
 47
0.0
 47
1.0
 47
0.0
 47
0.0
 47
0.0
 47
0.0
 47
1.0
171
     0
 49
0.0208333333333333
 49
0.0
 49
0.0
 49
0.0
 49
0.0
 49
0.0208333333333333
 49
0.0
 49
0.0
 49
0.0
 49
0.0
 49
1.0
 49
0.0
 49
0.0
 49
0.0
 49
0.0
 49
1.0
175
     0
142
0.0208333333333333
142
0.0
142
0.0
142
0.0
142
0.0
142
0.0208333333333333
142
0.0
142
0.0
142
0.0
142
0.0
142
1.0
142
0.0
142
0.0
142
0.0
142
0.0
142
1.0
179
     0
144
0.0208333333333333
144
0.0
144
0.0
144
0.0
144
0.0
144
0.0208333333333333
144
0.0
144
0.0
144
0.0
144
0.0
144
1.0
144
0.0
144
0.0
144
0.0
144
0.0
144
1.0
147
0.0208333333333333
147
0.0
147
0.0
147
0.0
147
0.0
147
0.0208333333333333
147
0.0
147
0.0
147
0.0
147
0.0
147
1.0
147
0.0
147
0.0
147
0.0
147
0.0
147
1.0
  0
MATERIAL
  5
2547
102
{ACAD_XDICTIONARY
360
2548
102
}
102
{ACAD_REACTORS
330
2536
102
}
330
2536
100
AcDbMaterial
  1
Global
 72
     0
 43
0.0208333333333333
 43
0.0
 43
0.0
 43
0.0
 43
0.0
 43
0.0208333333333333
 43
0.0
 43
0.0
 43
0.0
 43
0.0
 43
1.0
 43
0.0
 43
0.0
 43
0.0
 43
0.0
 43
1.0
 77
     0
 47
0.0208333333333333
 47
0.0
 47
0.0
 47
0.0
 47
0.0
 47
0.0208333333333333
 47
0.0
 47
0.0
 47
0.0
 47
0.0
 47
1.0
 47
0.0
 47
0.0
 47
0.0
 47
0.0
 47
1.0
171
     0
 49
0.0208333333333333
 49
0.0
 49
0.0
 49
0.0
 49
0.0
 49
0.0208333333333333
 49
0.0
 49
0.0
 49
0.0
 49
0.0
 49
1.0
 49
0.0
 49
0.0
 49
0.0
 49
0.0
 49
1.0
175
     0
142
0.0208333333333333
142
0.0
142
0.0
142
0.0
142
0.0
142
0.0208333333333333
142
0.0
142
0.0
142
0.0
142
0.0
142
1.0
142
0.0
142
0.0
142
0.0
142
0.0
142
1.0
179
     0
144
0.0208333333333333
144
0.0
144
0.0
144
0.0
144
0.0
144
0.0208333333333333
144
0.0
144
0.0
144
0.0
144
0.0
144
1.0
144
0.0
144
0.0
144
0.0
144
0.0
144
1.0
147
0.0208333333333333
147
0.0
147
0.0
147
0.0
147
0.0
147
0.0208333333333333
147
0.0
147
0.0
147
0.0
147
0.0
147
1.0
147
0.0
147
0.0
147
0.0
147
0.0
147
1.0
  0
MLEADERSTYLE
  5
257E
102
{ACAD_REACTORS
330
257D
102
}
330
257D
100
AcDbMLeaderStyle
170
     2
171
     1
172
     0
 90
        2
 40
0.0
 41
0.0
173
     1
 91
-1056964608
340
12
 92
       -2
290
     1
 42
0.09
291
     1
 43
0.36
  3
Standard
 44
0.18
300

342
F
174
     1
178
     6
175
     1
176
     0
 93
-1056964608
 45
0.18
292
     0
297
     0
 46
0.18
 94
-1056964608
 47
1.0
 49
1.0
140
1.0
293
     1
141
0.0
294
     1
177
     0
142
1.0
295
     0
296
     0
143
0.125
1001
ACAD_MLEADERVER
1070
     2
  0
MLINESTYLE
  5
1C
102
{ACAD_REACTORS
330
1B
102
}
330
1B
100
AcDbMlineStyle
  2
STANDARD
 70
     0
  3

 62
   256
 51
90.0
 52
90.0
 71
     2
 49
0.5
 62
   256
  6
BYLAYER
 49
-0.5
 62
   256
  6
BYLAYER
  0
ACDBPLACEHOLDER
  5
2535
102
{ACAD_REACTORS
330
2534
102
}
330
2534
  0
SCALE
  5
256C
102
{ACAD_REACTORS
330
256B
102
}
330
256B
100
AcDbScale
 70
     0
300
1:1
140
1.0
141
1.0
290
     1
  0
SCALE
  5
256D
102
{ACAD_REACTORS
330
256B
102
}
330
256B
100
AcDbScale
 70
     0
300
1/128" = 1'-0"
140
0.0078125
141
12.0
290
     0
  0
SCALE
  5
256E
102
{ACAD_REACTORS
330
256B
102
}
330
256B
100
AcDbScale
 70
     0
300
1/64" = 1'-0"
140
0.015625
141
12.0
290
     0
  0
SCALE
  5
256F
102
{ACAD_REACTORS
330
256B
102
}
330
256B
100
AcDbScale
 70
     0
300
1/32" = 1'-0"
140
0.03125
141
12.0
290
     0
  0
SCALE
  5
2570
102
{ACAD_REACTORS
330
256B
102
}
330
256B
100
AcDbScale
 70
     0
300
1/16" = 1'-0"
140
0.0625
141
12.0
290
     0
  0
SCALE
  5
2571
102
{ACAD_REACTORS
330
256B
102
}
330
256B
100
AcDbScale
 70
     0
300
3/32" = 1'-0"
140
0.09375
141
12.0
290
     0
  0
SCALE
  5
2572
102
{ACAD_REACTORS
330
256B
102
}
330
256B
100
AcDbScale
 70
     0
300
1/8" = 1'-0"
140
0.125
141
12.0
290
     0
  0
SCALE
  5
2573
102
{ACAD_REACTORS
330
256B
102
}
330
256B
100
AcDbScale
 70
     0
300
3/16" = 1'-0"
140
0.1875
141
12.0
290
     0
  0
SCALE
  5
2574
102
{ACAD_REACTORS
330
256B
102
}
330
256B
100
AcDbScale
 70
     0
300
1/4" = 1'-0"
140
0.25
141
12.0
290
     0
  0
SCALE
  5
2575
102
{ACAD_REACTORS
330
256B
102
}
330
256B
100
AcDbScale
 70
     0
300
3/8" = 1'-0"
140
0.375
141
12.0
290
     0
  0
SCALE
  5
2576
102
{ACAD_REACTORS
330
256B
102
}
330
256B
100
AcDbScale
 70
     0
300
1/2" = 1'-0"
140
0.5
141
12.0
290
     0
  0
SCALE
  5
2577
102
{ACAD_REACTORS
330
256B
102
}
330
256B
100
AcDbScale
 70
     0
300
3/4" = 1'-0"
140
0.75
141
12.0
290
     0
  0
SCALE
  5
2578
102
{ACAD_REACTORS
330
256B
102
}
330
256B
100
AcDbScale
 70
     0
300
1" = 1'-0"
140
1.0
141
12.0
290
     0
  0
SCALE
  5
2579
102
{ACAD_REACTORS
330
256B
102
}
330
256B
100
AcDbScale
 70
     0
300
1-1/2" = 1'-0"
140
1.5
141
12.0
290
     0
  0
SCALE
  5
257A
102
{ACAD_REACTORS
330
256B
102
}
330
256B
100
AcDbScale
 70
     0
300
3" = 1'-0"
140
3.0
141
12.0
290
     0
  0
SCALE
  5
257B
102
{ACAD_REACTORS
330
256B
102
}
330
256B
100
AcDbScale
 70
     0
300
6" = 1'-0"
140
6.0
141
12.0
290
     0
  0
SCALE
  5
257C
102
{ACAD_REACTORS
330
256B
102
}
330
256B
100
AcDbScale
 70
     0
300
1'-0" = 1'-0"
140
12.0
141
12.0
290
     0
  0
ACDBSECTIONVIEWSTYLE
  5
2580
102
{ACAD_XDICTIONARY
360
25DA
102
}
102
{ACAD_REACTORS
330
257F
102
}
330
257F
100
AcDbModelDocViewStyle
 70
     0
  3
Imperial24
290
     0
100
AcDbSectionViewStyle
 70
     0
 71
     0
 90
       78
 71
     1
340
F
 40
0.24
340
0
340
0
 40
0.24
300
I, O, Q, S, X, Z
 40
0.48
 90
        3
 40
0.18
 90
        1
 71
     2
340
14
 90
       25
340
14
 90
       50
 40
0.24
 40
0.0
 40
0.24
 71
     3
340
F
 40
0.24
 90
        1
 40
0.75
 90
        1
300
%<\AcVar ViewType \f "%tc1">% %<\AcVar ViewSectionStartId>%-%<\AcVar ViewSectionEndId>%\PSCALE %<\AcVar ViewScale \f "%sn">%
 71
     4
300
ANSI31
 40
1.0
 90
        0
290
     0
290
     0
 90
        6
 40
0.0
 40
1.570796326794896
 40
0.2617993877991494
 40
1.308996938995747
 40
-0.2617993877991494
 40
1.832595714594046
  0
TABLESTYLE
  5
256A
102
{ACAD_XDICTIONARY
360
25A1
102
}
102
{ACAD_REACTORS
330
2569
102
}
330
2569
100
AcDbTableStyle
  3
Standard
 70
     0
 71
     0
 40
0.06
 41
0.06
280
     0
281
     0
  7
STANDARD
140
0.18
170
     2
 62
     0
 63
     7
283
     0
274
    -2
284
     1
 64
     0
275
    -2
285
     1
 65
     0
276
    -2
286
     1
 66
     0
277
    -2
287
     1
 67
     0
278
    -2
288
     1
 68
     0
279
    -2
289
     1
 69
     0
  7
STANDARD
140
0.25
170
     5
 62
     0
 63
     7
283
     0
274
    -2
284
     1
 64
     0
275
    -2
285
     1
 65
     0
276
    -2
286
     1
 66
     0
277
    -2
287
     1
 67
     0
278
    -2
288
     1
 68
     0
279
    -2
289
     1
 69
     0
  7
STANDARD
140
0.18
170
     5
 62
     0
 63
     7
283
     0
274
    -2
284
     1
 64
     0
275
    -2
285
     1
 65
     0
276
    -2
286
     1
 66
     0
277
    -2
287
     1
 67
     0
278
    -2
288
     1
 68
     0
279
    -2
289
     1
 69
     0
  0
VISUALSTYLE
  5
2555
102
{ACAD_XDICTIONARY
360
25B2
102
}
102
{ACAD_REACTORS
330
254F
102
}
330
254F
100
AcDbVisualStyle
  2
2dWireframe
 70
     4
 71
     0
 72
     2
 73
     0
 90
        0
 40
-0.6
 41
-30.0
 62
     5
 63
     7
 74
     1
 91
        4
 64
     7
 65
   257
 75
     1
175
     1
 42
1.0
 92
        0
 66
   257
 43
1.0
 76
     1
 77
     6
 78
     2
 67
     7
 79
     5
170
     0
171
     0
290
     0
174
     0
 93
        1
 44
0.0
173
     0
291
     0
 45
0.0
1001
ACAD
1000
AcDbSavedByObjectVersion
1070
     0
  0
VISUALSTYLE
  5
2554
102
{ACAD_XDICTIONARY
360
25B0
102
}
102
{ACAD_REACTORS
330
254F
102
}
330
254F
100
AcDbVisualStyle
  2
Basic
 70
     7
 71
     1
 72
     0
 73
     1
 90
        0
 40
-0.6
 41
-30.0
 62
     5
 63
     7
 74
     0
 91
        4
 64
     7
 65
   257
 75
     1
175
     1
 42
1.0
 92
        8
 66
     7
 43
1.0
 76
     1
 77
     6
 78
     2
 67
     7
 79
     5
170
     0
171
     0
290
     0
174
     0
 93
        1
 44
0.0
173
     0
291
     1
 45
0.0
1001
ACAD
1000
AcDbSavedByObjectVersion
1070
     0
  0
VISUALSTYLE
  5
255B
102
{ACAD_XDICTIONARY
360
25BE
102
}
102
{ACAD_REACTORS
330
254F
102
}
330
254F
100
AcDbVisualStyle
  2
Brighten
 70
    12
 71
     2
 72
     2
 73
     0
 90
        0
 40
-0.6
 41
-30.0
 62
     5
 63
     7
 74
     1
 91
        4
 64
     7
 65
   257
 75
     1
175
     1
 42
1.0
 92
        8
 66
     7
 43
1.0
 76
     1
 77
     6
 78
     2
 67
     7
 79
     5
170
     0
171
     0
290
     0
174
     0
 93
        1
 44
50.0
173
     0
291
     1
 45
0.0
1001
ACAD
1000
AcDbSavedByObjectVersion
1070
     0
  0
VISUALSTYLE
  5
255F
102
{ACAD_XDICTIONARY
360
25C6
102
}
102
{ACAD_REACTORS
330
254F
102
}
330
254F
100
AcDbVisualStyle
  2
ColorChange
 70
    16
 71
     2
 72
     2
 73
     3
 90
        0
 40
-0.6
 41
-30.0
 62
     5
 63
     8
 74
     1
 91
        4
 64
     7
 65
   257
 75
     1
175
     1
 42
1.0
 92
        8
 66
     8
 43
1.0
 76
     1
 77
     6
 78
     2
 67
     7
 79
     5
170
     0
171
     0
290
     0
174
     0
 93
        1
 44
0.0
173
     0
291
     1
 45
0.0
1001
ACAD
1000
AcDbSavedByObjectVersion
1070
     0
  0
VISUALSTYLE
  5
2558
102
{ACAD_XDICTIONARY
360
25B8
102
}
102
{ACAD_REACTORS
330
254F
102
}
330
254F
100
AcDbVisualStyle
  2
Conceptual
 70
     9
 71
     3
 72
     2
 73
     0
 90
        0
 40
-0.6
 41
-30.0
 62
     5
 63
     7
 74
     2
 91
        2
 64
     7
 65
   257
 75
     1
175
     1
 42
179.0
 92
        8
 66
     7
 43
1.0
 76
     1
 77
     6
 78
     2
 67
     7
 79
     3
170
     0
171
     0
290
     0
174
     0
 93
        1
 44
0.0
173
     0
291
     0
 45
0.0
1001
ACAD
1000
AcDbSavedByObjectVersion
1070
     0
  0
VISUALSTYLE
  5
255A
102
{ACAD_XDICTIONARY
360
25BC
102
}
102
{ACAD_REACTORS
330
254F
102
}
330
254F
100
AcDbVisualStyle
  2
Dim
 70
    11
 71
     2
 72
     2
 73
     0
 90
        0
 40
-0.6
 41
-30.0
 62
     5
 63
     7
 74
     1
 91
        4
 64
     7
 65
   257
 75
     1
175
     1
 42
1.0
 92
        8
 66
     7
 43
1.0
 76
     1
 77
     6
 78
     2
 67
     7
 79
     5
170
     0
171
     0
290
     0
174
     0
 93
        1
 44
-50.0
173
     0
291
     1
 45
0.0
1001
ACAD
1000
AcDbSavedByObjectVersion
1070
     0
  0
VISUALSTYLE
  5
2567
102
{ACAD_XDICTIONARY
360
25D6
102
}
102
{ACAD_REACTORS
330
254F
102
}
330
254F
100
AcDbVisualStyle
  2
EdgeColorOff
 70
    22
 71
     2
 72
     2
 73
     0
 90
        0
 40
-0.6
 41
-30.0
 62
     5
 63
     7
 74
     1
 91
        4
 64
     7
 65
   257
 75
     1
175
     1
 42
1.0
 92
        8
 66
     7
 43
1.0
 76
     1
 77
     6
 78
     2
 67
     7
 79
     5
170
     0
171
     0
290
     0
174
     0
 93
        1
 44
0.0
173
     0
291
     1
 45
0.0
1001
ACAD
1000
AcDbSavedByObjectVersion
1070
     0
  0
VISUALSTYLE
  5
255E
102
{ACAD_XDICTIONARY
360
25C4
102
}
102
{ACAD_REACTORS
330
254F
102
}
330
254F
100
AcDbVisualStyle
  2
Facepattern
 70
    15
 71
     2
 72
     2
 73
     0
 90
        0
 40
-0.6
 41
-30.0
 62
     5
 63
     7
 74
     1
 91
        4
 64
     7
 65
   257
 75
     1
175
     1
 42
1.0
 92
        8
 66
     7
 43
1.0
 76
     1
 77
     6
 78
     2
 67
     7
 79
     5
170
     0
171
     0
290
     0
174
     0
 93
        1
 44
0.0
173
     0
291
     1
 45
0.0
1001
ACAD
1000
AcDbSavedByObjectVersion
1070
     0
  0
VISUALSTYLE
  5
2550
102
{ACAD_XDICTIONARY
360
25A8
102
}
102
{ACAD_REACTORS
330
254F
102
}
330
254F
100
AcDbVisualStyle
  2
Flat
 70
     0
 71
     2
 72
     1
 73
     1
 90
        2
 40
-0.6
 41
30.0
 62
     5
 63
     7
 74
     0
 91
        0
 64
     7
 65
   257
 75
     1
175
     1
 42
1.0
 92
        8
 66
     7
 43
1.0
 76
     1
 77
     6
 78
     2
 67
     7
 79
     5
170
     0
171
     0
290
     0
174
     0
 93
       13
 44
0.0
173
     0
291
     1
 45
0.0
1001
ACAD
1000
AcDbSavedByObjectVersion
1070
     0
  0
VISUALSTYLE
  5
2551
102
{ACAD_XDICTIONARY
360
25AA
102
}
102
{ACAD_REACTORS
330
254F
102
}
330
254F
100
AcDbVisualStyle
  2
FlatWithEdges
 70
     1
 71
     2
 72
     1
 73
     1
 90
        2
 40
-0.6
 41
30.0
 62
     5
 63
     7
 74
     1
 91
        0
 64
     7
 65
   257
 75
     1
175
     1
 42
1.0
 92
        0
 66
   257
 43
1.0
 76
     1
 77
     6
 78
     2
 67
     7
 79
     5
170
     0
171
     0
290
     0
174
     0
 93
       13
 44
0.0
173
     0
291
     1
 45
0.0
1001
ACAD
1000
AcDbSavedByObjectVersion
1070
     0
  0
VISUALSTYLE
  5
2552
102
{ACAD_XDICTIONARY
360
25AC
102
}
102
{ACAD_REACTORS
330
254F
102
}
330
254F
100
AcDbVisualStyle
  2
Gouraud
 70
     2
 71
     2
 72
     2
 73
     1
 90
        2
 40
-0.6
 41
30.0
 62
     5
 63
     7
 74
     0
 91
        0
 64
     7
 65
   257
 75
     1
175
     1
 42
1.0
 92
        0
 66
     7
 43
1.0
 76
     1
 77
     6
 78
     2
 67
     7
 79
     5
170
     0
171
     0
290
     0
174
     0
 93
       13
 44
0.0
173
     0
291
     1
 45
0.0
1001
ACAD
1000
AcDbSavedByObjectVersion
1070
     0
  0
VISUALSTYLE
  5
2553
102
{ACAD_XDICTIONARY
360
25AE
102
}
102
{ACAD_REACTORS
330
254F
102
}
330
254F
100
AcDbVisualStyle
  2
GouraudWithEdges
 70
     3
 71
     2
 72
     2
 73
     1
 90
        2
 40
-0.6
 41
30.0
 62
     5
 63
     7
 74
     1
 91
        0
 64
     7
 65
   257
 75
     1
175
     1
 42
1.0
 92
        0
 66
   257
 43
1.0
 76
     1
 77
     6
 78
     2
 67
     7
 79
     5
170
     0
171
     0
290
     0
174
     0
 93
       13
 44
0.0
173
     0
291
     1
 45
0.0
1001
ACAD
1000
AcDbSavedByObjectVersion
1070
     0
  0
VISUALSTYLE
  5
2557
102
{ACAD_XDICTIONARY
360
25B6
102
}
102
{ACAD_REACTORS
330
254F
102
}
330
254F
100
AcDbVisualStyle
  2
Hidden
 70
     6
 71
     1
 72
     2
 73
     2
 90
        0
 40
-0.6
 41
-30.0
 62
     5
 63
     7
 74
     2
 91
        2
 64
     7
 65
   257
 75
     2
175
     1
 42
40.0
 92
        0
 66
   257
 43
1.0
 76
     1
 77
     6
 78
     2
 67
     7
 79
     3
170
     0
171
     0
290
     0
174
     0
 93
        1
 44
0.0
173
     0
291
     0
 45
0.0
1001
ACAD
1000
AcDbSavedByObjectVersion
1070
     0
  0
VISUALSTYLE
  5
2565
102
{ACAD_XDICTIONARY
360
25D2
102
}
102
{ACAD_REACTORS
330
254F
102
}
330
254F
100
AcDbVisualStyle
  2
JitterOff
 70
    20
 71
     2
 72
     2
 73
     0
 90
        0
 40
-0.6
 41
-30.0
 62
     5
 63
     7
 74
     1
 91
        4
 64
     7
 65
   257
 75
     1
175
     1
 42
1.0
 92
       10
 66
     7
 43
1.0
 76
     1
 77
     6
 78
     2
 67
     7
 79
     5
170
     0
171
     0
290
     0
174
     0
 93
        1
 44
0.0
173
     0
291
     1
 45
0.0
1001
ACAD
1000
AcDbSavedByObjectVersion
1070
     0
  0
VISUALSTYLE
  5
255D
102
{ACAD_XDICTIONARY
360
25C2
102
}
102
{ACAD_REACTORS
330
254F
102
}
330
254F
100
AcDbVisualStyle
  2
Linepattern
 70
    14
 71
     2
 72
     2
 73
     0
 90
        0
 40
-0.6
 41
-30.0
 62
     5
 63
     7
 74
     1
 91
        4
 64
     7
 65
   257
 75
     7
175
     7
 42
1.0
 92
        8
 66
     7
 43
1.0
 76
     1
 77
     6
 78
     2
 67
     7
 79
     5
170
     0
171
     0
290
     0
174
     0
 93
        1
 44
0.0
173
     0
291
     1
 45
0.0
1001
ACAD
1000
AcDbSavedByObjectVersion
1070
     0
  0
VISUALSTYLE
  5
2566
102
{ACAD_XDICTIONARY
360
25D4
102
}
102
{ACAD_REACTORS
330
254F
102
}
330
254F
100
AcDbVisualStyle
  2
OverhangOff
 70
    21
 71
     2
 72
     2
 73
     0
 90
        0
 40
-0.6
 41
-30.0
 62
     5
 63
     7
 74
     1
 91
        4
 64
     7
 65
   257
 75
     1
175
     1
 42
1.0
 92
        9
 66
     7
 43
1.0
 76
     1
 77
     6
 78
     2
 67
     7
 79
     5
170
     0
171
     0
290
     0
174
     0
 93
        1
 44
0.0
173
     0
291
     1
 45
0.0
1001
ACAD
1000
AcDbSavedByObjectVersion
1070
     0
  0
VISUALSTYLE
  5
2559
102
{ACAD_XDICTIONARY
360
25BA
102
}
102
{ACAD_REACTORS
330
254F
102
}
330
254F
100
AcDbVisualStyle
  2
Realistic
 70
     8
 71
     2
 72
     3
 73
     0
 90
        2
 40
-0.6
 41
30.0
 62
     5
 63
     7
 74
     0
 91
        0
 64
     7
 65
   257
 75
     1
175
     1
 42
1.0
 92
        8
 66
   257
 43
1.0
 76
     1
 77
     6
 78
     2
 67
     7
 79
     3
170
     0
171
     0
290
     0
174
     0
 93
       13
 44
0.0
173
     0
291
     0
 45
0.0
1001
ACAD
1000
AcDbSavedByObjectVersion
1070
     0
  0
VISUALSTYLE
  5
2564
102
{ACAD_XDICTIONARY
360
25D0
102
}
102
{ACAD_REACTORS
330
254F
102
}
330
254F
100
AcDbVisualStyle
  2
Shaded
 70
    27
 71
     2
 72
     2
 73
     1
 90
        2
 40
-0.6
 41
30.0
 62
     5
 63
     7
 74
     0
 91
        4
 64
     7
 65
   257
 75
     1
175
     1
 42
1.0
 92
        8
 66
   257
 43
1.0
 76
     1
 77
     6
 78
     2
 67
     8
 79
     3
170
     0
171
     0
290
     0
174
     0
 93
        5
 44
0.0
173
     0
291
     0
 45
0.0
1001
ACAD
1000
AcDbSavedByObjectVersion
1070
     0
  0
VISUALSTYLE
  5
2563
102
{ACAD_XDICTIONARY
360
25CE
102
}
102
{ACAD_REACTORS
330
254F
102
}
330
254F
100
AcDbVisualStyle
  2
Shaded with edges
 70
    26
 71
     2
 72
     2
 73
     1
 90
        2
 40
-0.6
 41
30.0
 62
     5
 63
     7
 74
     1
 91
       10
 64
     7
 65
   257
 75
     2
175
     1
 42
1.0
 92
        8
 66
   257
 43
1.0
 76
     1
 77
     6
 78
     2
 67
     7
 79
     3
170
     0
171
     0
290
     0
174
     0
 93
        5
 44
0.0
173
     0
291
     0
 45
0.0
1001
ACAD
1000
AcDbSavedByObjectVersion
1070
     0
  0
VISUALSTYLE
  5
2560
102
{ACAD_XDICTIONARY
360
25C8
102
}
102
{ACAD_REACTORS
330
254F
102
}
330
254F
100
AcDbVisualStyle
  2
Shades of Gray
 70
    23
 71
     2
 72
     2
 73
     3
 90
        0
 40
-0.6
 41
-30.0
 62
     5
 63
     7
 74
     2
 91
        2
 64
     7
 65
     7
 75
     1
175
     1
 42
40.0
 92
        8
 66
     7
 43
1.0
 76
     1
 77
     6
 78
     2
 67
     7
 79
     3
170
     0
171
     0
290
     0
174
     0
 93
        1
 44
0.0
173
     0
291
     0
 45
0.0
1001
ACAD
1000
AcDbSavedByObjectVersion
1070
     0
  0
VISUALSTYLE
  5
2561
102
{ACAD_XDICTIONARY
360
25CA
102
}
102
{ACAD_REACTORS
330
254F
102
}
330
254F
100
AcDbVisualStyle
  2
Sketchy
 70
    24
 71
     1
 72
     2
 73
     2
 90
        0
 40
-0.6
 41
-30.0
 62
     5
 63
     7
 74
     2
 91
        2
 64
     7
 65
     7
 75
     1
175
     1
 42
40.0
 92
       11
 66
     7
 43
1.0
 76
     1
 77
     6
 78
     2
 67
     7
 79
     6
170
     0
171
     0
290
     0
174
     0
 93
        1
 44
0.0
173
     0
291
     0
 45
0.0
1001
ACAD
1000
AcDbSavedByObjectVersion
1070
     0
  0
VISUALSTYLE
  5
255C
102
{ACAD_XDICTIONARY
360
25C0
102
}
102
{ACAD_REACTORS
330
254F
102
}
330
254F
100
AcDbVisualStyle
  2
Thicken
 70
    13
 71
     2
 72
     2
 73
     0
 90
        0
 40
-0.6
 41
-30.0
 62
     5
 63
     7
 74
     1
 91
        4
 64
     7
 65
   257
 75
     1
175
     1
 42
1.0
 92
       12
 66
     7
 43
1.0
 76
     1
 77
     6
 78
     2
 67
     7
 79
     5
170
     0
171
     0
290
     0
174
     0
 93
        1
 44
0.0
173
     0
291
     1
 45
0.0
1001
ACAD
1000
AcDbSavedByObjectVersion
1070
     0
  0
VISUALSTYLE
  5
2556
102
{ACAD_XDICTIONARY
360
25B4
102
}
102
{ACAD_REACTORS
330
254F
102
}
330
254F
100
AcDbVisualStyle
  2
Wireframe
 70
     5
 71
     0
 72
     2
 73
     0
 90
        0
 40
-0.6
 41
-30.0
 62
     5
 63
     7
 74
     1
 91
        4
 64
     7
 65
   257
 75
     1
175
     1
 42
1.0
 92
        0
 66
   257
 43
1.0
 76
     1
 77
     6
 78
     2
 67
     7
 79
     3
170
     0
171
     0
290
     0
174
     0
 93
        1
 44
0.0
173
     0
291
     0
 45
0.0
1001
ACAD
1000
AcDbSavedByObjectVersion
1070
     0
  0
VISUALSTYLE
  5
2562
102
{ACAD_XDICTIONARY
360
25CC
102
}
102
{ACAD_REACTORS
330
254F
102
}
330
254F
100
AcDbVisualStyle
  2
X-Ray
 70
    25
 71
     2
 72
     2
 73
     1
 90
        1
 40
0.5
 41
-30.0
 62
     5
 63
     7
 74
     1
 91
        0
 64
     7
 65
   257
 75
     1
175
     1
 42
1.0
 92
        8
 66
     7
 43
1.0
 76
     1
 77
     6
 78
     2
 67
     7
 79
     3
170
     0
171
     0
290
     0
174
     0
 93
       13
 44
0.0
173
     0
291
     0
 45
0.0
1001
ACAD
1000
AcDbSavedByObjectVersion
1070
     0
  0
DICTIONARYVAR
  5
259B
102
{ACAD_REACTORS
330
2596
102
}
330
2596
100
DictionaryVariables
280
     0
  1
1:1
  0
DICTIONARYVAR
  5
2598
102
{ACAD_REACTORS
330
2596
102
}
330
2596
100
DictionaryVariables
280
     0
  1
STANDARD
  0
DICTIONARYVAR
  5
2597
102
{ACAD_REACTORS
330
2596
102
}
330
2596
100
DictionaryVariables
280
     0
  1
STANDARD
  0
DICTIONARYVAR
  5
2599
102
{ACAD_REACTORS
330
2596
102
}
330
2596
100
DictionaryVariables
280
     0
  1
Imperial24
  0
DICTIONARYVAR
  5
259A
102
{ACAD_REACTORS
330
2596
102
}
330
2596
100
DictionaryVariables
280
     0
  1
Imperial24
  0
DICTIONARYVAR
  5
259E
102
{ACAD_REACTORS
330
2596
102
}
330
2596
100
DictionaryVariables
280
     0
  1
1
  0
DICTIONARYVAR
  5
259D
102
{ACAD_REACTORS
330
2596
102
}
330
2596
100
DictionaryVariables
280
     0
  1
0
  0
DICTIONARYVAR
  5
259C
102
{ACAD_REACTORS
330
2596
102
}
330
2596
100
DictionaryVariables
280
     0
  1
127
  0
DICTIONARYVAR
  5
259F
102
{ACAD_REACTORS
330
2596
102
}
330
2596
100
DictionaryVariables
280
     0
  1
2
  0
DICTIONARY
  5
25DC
330
2582
100
AcDbDictionary
280
     1
281
     1
  3
ACAD_XREC_ROUNDTRIP
360
25DD
  0
DICTIONARY
  5
25DE
330
2583
100
AcDbDictionary
280
     1
281
     1
  3
ACAD_XREC_ROUNDTRIP
360
25DF
  0
DICTIONARY
  5
25E0
330
2584
100
AcDbDictionary
280
     1
281
     1
  3
ACAD_XREC_ROUNDTRIP
360
25E1
  0
DICTIONARY
  5
2540
330
253F
100
AcDbDictionary
280
     1
281
     1
  3
ACAD_XREC_ROUNDTRIP
360
25A6
  3
BUMPTILE
360
2542
  3
DIFFUSETILE
360
2541
  3
OPACITYTILE
360
2545
  3
REFLECTIONTILE
360
2544
  3
REFRACTIONTILE
360
2546
  3
SPECULARTILE
360
2543
  0
DICTIONARY
  5
2538
330
2537
100
AcDbDictionary
280
     1
281
     1
  3
ACAD_XREC_ROUNDTRIP
360
25A5
  3
BUMPTILE
360
253A
  3
DIFFUSETILE
360
2539
  3
OPACITYTILE
360
253D
  3
REFLECTIONTILE
360
253C
  3
REFRACTIONTILE
360
253E
  3
SPECULARTILE
360
253B
  0
DICTIONARY
  5
2548
330
2547
100
AcDbDictionary
280
     1
281
     1
  3
ACAD_XREC_ROUNDTRIP
360
25A7
  3
BUMPTILE
360
254A
  3
DIFFUSETILE
360
2549
  3
OPACITYTILE
360
254D
  3
REFLECTIONTILE
360
254C
  3
REFRACTIONTILE
360
254E
  3
SPECULARTILE
360
254B
  0
DICTIONARY
  5
25DA
330
2580
100
AcDbDictionary
280
     1
281
     1
  3
ACAD_XREC_ROUNDTRIP
360
25DB
  0
DICTIONARY
  5
25A1
330
256A
100
AcDbDictionary
280
     1
281
     1
  3
ACAD_ROUNDTRIP_2008_TABLESTYLE_CELLSTYLEMAP
360
25A2
  3
ACAD_XREC_ROUNDTRIP
360
25D8
  0
DICTIONARY
  5
25B2
330
2555
100
AcDbDictionary
280
     1
281
     1
  3
ACAD_XREC_ROUNDTRIP
360
25B3
  0
DICTIONARY
  5
25B0
330
2554
100
AcDbDictionary
280
     1
281
     1
  3
ACAD_XREC_ROUNDTRIP
360
25B1
  0
DICTIONARY
  5
25BE
330
255B
100
AcDbDictionary
280
     1
281
     1
  3
ACAD_XREC_ROUNDTRIP
360
25BF
  0
DICTIONARY
  5
25C6
330
255F
100
AcDbDictionary
280
     1
281
     1
  3
ACAD_XREC_ROUNDTRIP
360
25C7
  0
DICTIONARY
  5
25B8
330
2558
100
AcDbDictionary
280
     1
281
     1
  3
ACAD_XREC_ROUNDTRIP
360
25B9
  0
DICTIONARY
  5
25BC
330
255A
100
AcDbDictionary
280
     1
281
     1
  3
ACAD_XREC_ROUNDTRIP
360
25BD
  0
DICTIONARY
  5
25D6
330
2567
100
AcDbDictionary
280
     1
281
     1
  3
ACAD_XREC_ROUNDTRIP
360
25D7
  0
DICTIONARY
  5
25C4
330
255E
100
AcDbDictionary
280
     1
281
     1
  3
ACAD_XREC_ROUNDTRIP
360
25C5
  0
DICTIONARY
  5
25A8
330
2550
100
AcDbDictionary
280
     1
281
     1
  3
ACAD_XREC_ROUNDTRIP
360
25A9
  0
DICTIONARY
  5
25AA
330
2551
100
AcDbDictionary
280
     1
281
     1
  3
ACAD_XREC_ROUNDTRIP
360
25AB
  0
DICTIONARY
  5
25AC
330
2552
100
AcDbDictionary
280
     1
281
     1
  3
ACAD_XREC_ROUNDTRIP
360
25AD
  0
DICTIONARY
  5
25AE
330
2553
100
AcDbDictionary
280
     1
281
     1
  3
ACAD_XREC_ROUNDTRIP
360
25AF
  0
DICTIONARY
  5
25B6
330
2557
100
AcDbDictionary
280
     1
281
     1
  3
ACAD_XREC_ROUNDTRIP
360
25B7
  0
DICTIONARY
  5
25D2
330
2565
100
AcDbDictionary
280
     1
281
     1
  3
ACAD_XREC_ROUNDTRIP
360
25D3
  0
DICTIONARY
  5
25C2
330
255D
100
AcDbDictionary
280
     1
281
     1
  3
ACAD_XREC_ROUNDTRIP
360
25C3
  0
DICTIONARY
  5
25D4
330
2566
100
AcDbDictionary
280
     1
281
     1
  3
ACAD_XREC_ROUNDTRIP
360
25D5
  0
DICTIONARY
  5
25BA
330
2559
100
AcDbDictionary
280
     1
281
     1
  3
ACAD_XREC_ROUNDTRIP
360
25BB
  0
DICTIONARY
  5
25D0
330
2564
100
AcDbDictionary
280
     1
281
     1
  3
ACAD_XREC_ROUNDTRIP
360
25D1
  0
DICTIONARY
  5
25CE
330
2563
100
AcDbDictionary
280
     1
281
     1
  3
ACAD_XREC_ROUNDTRIP
360
25CF
  0
DICTIONARY
  5
25C8
330
2560
100
AcDbDictionary
280
     1
281
     1
  3
ACAD_XREC_ROUNDTRIP
360
25C9
  0
DICTIONARY
  5
25CA
330
2561
100
AcDbDictionary
280
     1
281
     1
  3
ACAD_XREC_ROUNDTRIP
360
25CB
  0
DICTIONARY
  5
25C0
330
255C
100
AcDbDictionary
280
     1
281
     1
  3
ACAD_XREC_ROUNDTRIP
360
25C1
  0
DICTIONARY
  5
25B4
330
2556
100
AcDbDictionary
280
     1
281
     1
  3
ACAD_XREC_ROUNDTRIP
360
25B5
  0
DICTIONARY
  5
25CC
330
2562
100
AcDbDictionary
280
     1
281
     1
  3
ACAD_XREC_ROUNDTRIP
360
25CD
  0
XRECORD
  5
25DD
102
{ACAD_REACTORS
330
25DC
102
}
330
25DC
100
AcDbXrecord
280
     1
102
DISPLAYNAME
  1
Imperial24
102
FLAGS
 90
        0
  0
XRECORD
  5
25DF
102
{ACAD_REACTORS
330
25DE
102
}
330
25DE
100
AcDbXrecord
280
     1
102
SHADEPLOT
 70
     0
102
SHADEPLOTRESLEVEL
 70
     2
102
SHADEPLOTCUSTOMDPI
 70
   300
  0
XRECORD
  5
25E1
102
{ACAD_REACTORS
330
25E0
102
}
330
25E0
100
AcDbXrecord
280
     1
102
SHADEPLOT
 70
     0
102
SHADEPLOTRESLEVEL
 70
     2
102
SHADEPLOTCUSTOMDPI
 70
   300
  0
XRECORD
  5
25A6
102
{ACAD_REACTORS
330
2540
102
}
330
2540
100
AcDbXrecord
280
     1
102
MATERIAL
148
0.0
149
0.0
149
0.0
 93
        0
 94
      127
282
     0
 72
     0
 77
     0
171
     0
175
     0
179
     0
273
     0
  0
XRECORD
  5
2542
102
{ACAD_REACTORS
330
2540
102
}
330
2540
100
AcDbXrecord
280
     1
270
     1
271
     1
  0
XRECORD
  5
2541
102
{ACAD_REACTORS
330
2540
102
}
330
2540
100
AcDbXrecord
280
     1
270
     1
271
     1
  0
XRECORD
  5
2545
102
{ACAD_REACTORS
330
2540
102
}
330
2540
100
AcDbXrecord
280
     1
270
     1
271
     1
  0
XRECORD
  5
2544
102
{ACAD_REACTORS
330
2540
102
}
330
2540
100
AcDbXrecord
280
     1
270
     1
271
     1
  0
XRECORD
  5
2546
102
{ACAD_REACTORS
330
2540
102
}
330
2540
100
AcDbXrecord
280
     1
270
     1
271
     1
  0
XRECORD
  5
2543
102
{ACAD_REACTORS
330
2540
102
}
330
2540
100
AcDbXrecord
280
     1
270
     1
271
     1
  0
XRECORD
  5
25A5
102
{ACAD_REACTORS
330
2538
102
}
330
2538
100
AcDbXrecord
280
     1
102
MATERIAL
148
0.0
149
0.0
149
0.0
 93
        0
 94
      127
282
     0
 72
     0
 77
     0
171
     0
175
     0
179
     0
273
     0
  0
XRECORD
  5
253A
102
{ACAD_REACTORS
330
2538
102
}
330
2538
100
AcDbXrecord
280
     1
270
     1
271
     1
  0
XRECORD
  5
2539
102
{ACAD_REACTORS
330
2538
102
}
330
2538
100
AcDbXrecord
280
     1
270
     1
271
     1
  0
XRECORD
  5
253D
102
{ACAD_REACTORS
330
2538
102
}
330
2538
100
AcDbXrecord
280
     1
270
     1
271
     1
  0
XRECORD
  5
253C
102
{ACAD_REACTORS
330
2538
102
}
330
2538
100
AcDbXrecord
280
     1
270
     1
271
     1
  0
XRECORD
  5
253E
102
{ACAD_REACTORS
330
2538
102
}
330
2538
100
AcDbXrecord
280
     1
270
     1
271
     1
  0
XRECORD
  5
253B
102
{ACAD_REACTORS
330
2538
102
}
330
2538
100
AcDbXrecord
280
     1
270
     1
271
     1
  0
XRECORD
  5
25A7
102
{ACAD_REACTORS
330
2548
102
}
330
2548
100
AcDbXrecord
280
     1
102
MATERIAL
148
0.0
149
0.0
149
0.0
 93
        0
 94
      127
282
     0
 72
     0
 77
     0
171
     0
175
     0
179
     0
273
     0
  0
XRECORD
  5
254A
102
{ACAD_REACTORS
330
2548
102
}
330
2548
100
AcDbXrecord
280
     1
270
     1
271
     1
  0
XRECORD
  5
2549
102
{ACAD_REACTORS
330
2548
102
}
330
2548
100
AcDbXrecord
280
     1
270
     1
271
     1
  0
XRECORD
  5
254D
102
{ACAD_REACTORS
330
2548
102
}
330
2548
100
AcDbXrecord
280
     1
270
     1
271
     1
  0
XRECORD
  5
254C
102
{ACAD_REACTORS
330
2548
102
}
330
2548
100
AcDbXrecord
280
     1
270
     1
271
     1
  0
XRECORD
  5
254E
102
{ACAD_REACTORS
330
2548
102
}
330
2548
100
AcDbXrecord
280
     1
270
     1
271
     1
  0
XRECORD
  5
254B
102
{ACAD_REACTORS
330
2548
102
}
330
2548
100
AcDbXrecord
280
     1
270
     1
271
     1
  0
XRECORD
  5
25DB
102
{ACAD_REACTORS
330
25DA
102
}
330
25DA
100
AcDbXrecord
280
     1
102
DISPLAYNAME
  1
Imperial24
102
FLAGS
 90
        0
  0
CELLSTYLEMAP
  5
25A2
102
{ACAD_REACTORS
330
25A1
102
}
330
25A1
100
AcDbCellStyleMap
 90
        3
300
CELLSTYLE
  1
TABLEFORMAT_BEGIN
 90
        5
170
     1
 91
        0
 92
    32768
 62
   257
 93
        1
300
CONTENTFORMAT
  1
CONTENTFORMAT_BEGIN
 90
        0
 91
        0
 92
      512
 93
        0
300

 40
0.0
140
1.0
 94
        5
 62
     0
340
F
144
0.25
309
CONTENTFORMAT_END
171
     0
 94
        0
309
TABLEFORMAT_END
  1
CELLSTYLE_BEGIN
 90
        1
 91
        1
300
_TITLE
309
CELLSTYLE_END
300
CELLSTYLE
  1
TABLEFORMAT_BEGIN
 90
        5
170
     1
 91
        0
 92
        0
 62
   257
 93
        1
300
CONTENTFORMAT
  1
CONTENTFORMAT_BEGIN
 90
        0
 91
        0
 92
      512
 93
        0
300

 40
0.0
140
1.0
 94
        5
 62
     0
340
F
144
0.18
309
CONTENTFORMAT_END
171
     0
 94
        0
309
TABLEFORMAT_END
  1
CELLSTYLE_BEGIN
 90
        2
 91
        1
300
_HEADER
309
CELLSTYLE_END
300
CELLSTYLE
  1
TABLEFORMAT_BEGIN
 90
        5
170
     1
 91
        0
 92
        0
 62
   257
 93
        1
300
CONTENTFORMAT
  1
CONTENTFORMAT_BEGIN
 90
        0
 91
        0
 92
      512
 93
        0
300

 40
0.0
140
1.0
 94
        2
 62
     0
340
F
144
0.18
309
CONTENTFORMAT_END
171
     0
 94
        0
309
TABLEFORMAT_END
  1
CELLSTYLE_BEGIN
 90
        3
 91
        2
300
_DATA
309
CELLSTYLE_END
  0
XRECORD
  5
25D8
102
{ACAD_REACTORS
330
25A1
102
}
330
25A1
100
AcDbXrecord
280
     1
102
ACAD_ROUNDTRIP_PRE2007_TABLESTYLE
 90
      512
 91
        0
  1

 92
      512
 93
        0
  2

 94
      512
 95
        0
  3

  0
XRECORD
  5
25B3
102
{ACAD_REACTORS
330
25B2
102
}
330
25B2
100
AcDbXrecord
280
     1
102
RTVSPost2010Prop28
280
     1
102
RTVSPost2010PropOp28
 70
     1
102
RTVSPost2010Prop29
280
     1
102
RTVSPost2010PropOp29
 70
     1
102
RTVSPost2010Prop30
280
     0
102
RTVSPost2010PropOp30
 70
     1
102
RTVSPost2010Prop31
280
     0
102
RTVSPost2010PropOp31
 70
     1
102
RTVSPost2010Prop32
280
     0
102
RTVSPost2010PropOp32
 70
     1
102
RTVSPost2010Prop33
280
     0
102
RTVSPost2010PropOp33
 70
     1
102
RTVSPost2010Prop34
280
     0
102
RTVSPost2010PropOp34
 70
     1
102
RTVSPost2010Prop35
280
     0
102
RTVSPost2010PropOp35
 70
     1
102
RTVSPost2010Prop36
280
     0
102
RTVSPost2010PropOp36
 70
     1
102
RTVSPost2010Prop37
 90
       50
102
RTVSPost2010PropOp37
 70
     1
102
RTVSPost2010Prop38
140
0.0
102
RTVSPost2010PropOp38
 70
     1
102
RTVSPost2010Prop39
140
1.0
102
RTVSPost2010PropOp39
 70
     1
102
RTVSPost2010Prop40
 90
        0
102
RTVSPost2010PropOp40
 70
     1
102
RTVSPost2010Prop41ColorIndex
 90
       18
102
RTVSPost2010Prop41ColorRGB
 90
        0
102
RTVSPost2010PropOp41
 70
     1
102
RTVSPost2010Prop42
 90
       50
102
RTVSPost2010PropOp42
 70
     1
102
RTVSPost2010Prop43
 90
        3
102
RTVSPost2010PropOp43
 70
     1
102
RTVSPost2010Prop44ColorIndex
 90
        5
102
RTVSPost2010Prop44ColorRGB
 90
      255
102
RTVSPost2010PropOp44
 70
     1
102
RTVSPost2010Prop45
280
     0
102
RTVSPost2010PropOp45
 70
     1
102
RTVSPost2010Prop46
 90
       50
102
RTVSPost2010PropOp46
 70
     1
102
RTVSPost2010Prop47
 90
       50
102
RTVSPost2010PropOp47
 70
     1
102
RTVSPost2010Prop48
 90
       50
102
RTVSPost2010PropOp48
 70
     1
102
RTVSPost2010Prop49
280
     0
102
RTVSPost2010PropOp49
 70
     1
102
RTVSPost2010Prop50
 90
       50
102
RTVSPost2010PropOp50
 70
     1
102
RTVSPost2010Prop51ColorIndex
 90
      256
102
RTVSPost2010Prop51ColorRGB
 90
-16777216
102
RTVSPost2010PropOp51
 70
     0
102
RTVSPost2010Prop52
140
1.0
102
RTVSPost2010PropOp52
 70
     0
102
RTVSPost2010Prop53
 90
        2
102
RTVSPost2010PropOp53
 70
     1
102
RTVSPost2010Prop54
  1
strokes_ogs.tif
102
RTVSPost2010PropOp54
 70
     1
102
RTVSPost2010Prop55
280
     0
102
RTVSPost2010PropOp55
 70
     1
102
RTVSPost2010Prop56
140
1.0
102
RTVSPost2010PropOp56
 70
     1
102
RTVSPost2010Prop57
140
1.0
102
RTVSPost2010PropOp57
 70
     1
102
RTVSPropertyOp0
 70
     1
102
RTVSPropertyOp1
 70
     1
102
RTVSPropertyOp2
 70
     1
102
RTVSPropertyOp3
 70
     1
102
RTVSPropertyOp4
 70
     1
102
RTVSPropertyOp5
 70
     1
102
RTVSPropertyOp6
 70
     1
102
RTVSPropertyOp7
 70
     1
102
RTVSPropertyOp8
 70
     1
102
RTVSPropertyOp9
 70
     1
102
RTVSPropertyOp10
 70
     1
102
RTVSPropertyOp11
 70
     1
102
RTVSPropertyOp12
 70
     1
102
RTVSPropertyOp13
 70
     1
102
RTVSPropertyOp14
 70
     1
102
RTVSPropertyOp15
 70
     1
102
RTVSPropertyOp16
 70
     1
102
RTVSPropertyOp17
 70
     1
102
RTVSPropertyOp18
 70
     1
102
RTVSPropertyOp19
 70
     1
102
RTVSPropertyOp20
 70
     1
102
RTVSPropertyOp21
 70
     1
102
RTVSPropertyOp22
 70
     1
102
RTVSPropertyOp23
 70
     1
102
RTVSPropertyOp24
 70
     1
102
RTVSPropertyOp25
 70
     1
102
RTVSPropertyOp26
 70
     1
102
RTVSPropertyOp27
 70
     1
102
RTVSPropertyOp28
 70
     1
102
RTVSPropertyOp29
 70
     1
102
RTVSPropertyOp30
 70
     1
102
RTVSPropertyOp31
 70
     1
102
RTVSPropertyOp32
 70
     1
102
RTVSPropertyOp33
 70
     1
102
RTVSPropertyOp34
 70
     1
102
RTVSPropertyOp35
 70
     1
102
RTVSPropertyOp36
 70
     1
102
RTVSPropertyOp37
 70
     1
102
RTVSPropertyOp38
 70
     1
102
RTVSPropertyOp39
 70
     1
102
RTVSPropertyOp40
 70
     1
102
RTVSPropertyOp41
 70
     1
102
RTVSPropertyOp42
 70
     1
102
RTVSPropertyOp43
 70
     1
102
RTVSPropertyOp44
 70
     1
102
RTVSPropertyOp45
 70
     1
102
RTVSPropertyOp46
 70
     1
102
RTVSPropertyOp47
 70
     1
102
RTVSPropertyOp48
 70
     1
102
RTVSPropertyOp49
 70
     1
102
RTVSPropertyOp50
 70
     1
102
RTVSPropertyOp51
 70
     0
102
RTVSPropertyOp52
 70
     0
102
RTVSPropertyOp53
 70
     1
102
RTVSPropertyOp54
 70
     1
102
RTVSPropertyOp55
 70
     1
102
RTVSPropertyOp56
 70
     1
102
RTVSPropertyOp57
 70
     1
102
RTVSPropertyOp58
 70
     1
102
RTVSPropertyOp59
 70
     1
102
RTVSPropertyOp60
 70
     1
102
RTVSPropertyOp61
 70
     1
102
RTVSPropertyOp62
 70
     1
  0
XRECORD
  5
25B1
102
{ACAD_REACTORS
330
25B0
102
}
330
25B0
100
AcDbXrecord
280
     1
102
RTVSPost2010Prop28
280
     0
102
RTVSPost2010PropOp28
 70
     1
102
RTVSPost2010Prop29
280
     1
102
RTVSPost2010PropOp29
 70
     1
102
RTVSPost2010Prop30
280
     1
102
RTVSPost2010PropOp30
 70
     1
102
RTVSPost2010Prop31
280
     0
102
RTVSPost2010PropOp31
 70
     1
102
RTVSPost2010Prop32
280
     0
102
RTVSPost2010PropOp32
 70
     1
102
RTVSPost2010Prop33
280
     0
102
RTVSPost2010PropOp33
 70
     1
102
RTVSPost2010Prop34
280
     0
102
RTVSPost2010PropOp34
 70
     1
102
RTVSPost2010Prop35
280
     0
102
RTVSPost2010PropOp35
 70
     1
102
RTVSPost2010Prop36
280
     0
102
RTVSPost2010PropOp36
 70
     1
102
RTVSPost2010Prop37
 90
       50
102
RTVSPost2010PropOp37
 70
     1
102
RTVSPost2010Prop38
140
0.0
102
RTVSPost2010PropOp38
 70
     1
102
RTVSPost2010Prop39
140
1.0
102
RTVSPost2010PropOp39
 70
     1
102
RTVSPost2010Prop40
 90
        0
102
RTVSPost2010PropOp40
 70
     1
102
RTVSPost2010Prop41ColorIndex
 90
       18
102
RTVSPost2010Prop41ColorRGB
 90
        0
102
RTVSPost2010PropOp41
 70
     1
102
RTVSPost2010Prop42
 90
       50
102
RTVSPost2010PropOp42
 70
     1
102
RTVSPost2010Prop43
 90
        3
102
RTVSPost2010PropOp43
 70
     1
102
RTVSPost2010Prop44ColorIndex
 90
        5
102
RTVSPost2010Prop44ColorRGB
 90
      255
102
RTVSPost2010PropOp44
 70
     1
102
RTVSPost2010Prop45
280
     0
102
RTVSPost2010PropOp45
 70
     1
102
RTVSPost2010Prop46
 90
       50
102
RTVSPost2010PropOp46
 70
     1
102
RTVSPost2010Prop47
 90
       50
102
RTVSPost2010PropOp47
 70
     1
102
RTVSPost2010Prop48
 90
       50
102
RTVSPost2010PropOp48
 70
     1
102
RTVSPost2010Prop49
280
     0
102
RTVSPost2010PropOp49
 70
     1
102
RTVSPost2010Prop50
 90
       50
102
RTVSPost2010PropOp50
 70
     1
102
RTVSPost2010Prop51ColorIndex
 90
      256
102
RTVSPost2010Prop51ColorRGB
 90
-16777216
102
RTVSPost2010PropOp51
 70
     0
102
RTVSPost2010Prop52
140
1.0
102
RTVSPost2010PropOp52
 70
     0
102
RTVSPost2010Prop53
 90
        2
102
RTVSPost2010PropOp53
 70
     1
102
RTVSPost2010Prop54
  1
strokes_ogs.tif
102
RTVSPost2010PropOp54
 70
     1
102
RTVSPost2010Prop55
280
     0
102
RTVSPost2010PropOp55
 70
     1
102
RTVSPost2010Prop56
140
1.0
102
RTVSPost2010PropOp56
 70
     1
102
RTVSPost2010Prop57
140
1.0
102
RTVSPost2010PropOp57
 70
     1
102
RTVSPropertyOp0
 70
     1
102
RTVSPropertyOp1
 70
     1
102
RTVSPropertyOp2
 70
     1
102
RTVSPropertyOp3
 70
     1
102
RTVSPropertyOp4
 70
     1
102
RTVSPropertyOp5
 70
     1
102
RTVSPropertyOp6
 70
     1
102
RTVSPropertyOp7
 70
     1
102
RTVSPropertyOp8
 70
     1
102
RTVSPropertyOp9
 70
     1
102
RTVSPropertyOp10
 70
     1
102
RTVSPropertyOp11
 70
     1
102
RTVSPropertyOp12
 70
     1
102
RTVSPropertyOp13
 70
     1
102
RTVSPropertyOp14
 70
     1
102
RTVSPropertyOp15
 70
     1
102
RTVSPropertyOp16
 70
     1
102
RTVSPropertyOp17
 70
     1
102
RTVSPropertyOp18
 70
     1
102
RTVSPropertyOp19
 70
     1
102
RTVSPropertyOp20
 70
     1
102
RTVSPropertyOp21
 70
     1
102
RTVSPropertyOp22
 70
     1
102
RTVSPropertyOp23
 70
     1
102
RTVSPropertyOp24
 70
     1
102
RTVSPropertyOp25
 70
     1
102
RTVSPropertyOp26
 70
     1
102
RTVSPropertyOp27
 70
     1
102
RTVSPropertyOp28
 70
     1
102
RTVSPropertyOp29
 70
     1
102
RTVSPropertyOp30
 70
     1
102
RTVSPropertyOp31
 70
     1
102
RTVSPropertyOp32
 70
     1
102
RTVSPropertyOp33
 70
     1
102
RTVSPropertyOp34
 70
     1
102
RTVSPropertyOp35
 70
     1
102
RTVSPropertyOp36
 70
     1
102
RTVSPropertyOp37
 70
     1
102
RTVSPropertyOp38
 70
     1
102
RTVSPropertyOp39
 70
     1
102
RTVSPropertyOp40
 70
     1
102
RTVSPropertyOp41
 70
     1
102
RTVSPropertyOp42
 70
     1
102
RTVSPropertyOp43
 70
     1
102
RTVSPropertyOp44
 70
     1
102
RTVSPropertyOp45
 70
     1
102
RTVSPropertyOp46
 70
     1
102
RTVSPropertyOp47
 70
     1
102
RTVSPropertyOp48
 70
     1
102
RTVSPropertyOp49
 70
     1
102
RTVSPropertyOp50
 70
     1
102
RTVSPropertyOp51
 70
     0
102
RTVSPropertyOp52
 70
     0
102
RTVSPropertyOp53
 70
     1
102
RTVSPropertyOp54
 70
     1
102
RTVSPropertyOp55
 70
     1
102
RTVSPropertyOp56
 70
     1
102
RTVSPropertyOp57
 70
     1
102
RTVSPropertyOp58
 70
     1
102
RTVSPropertyOp59
 70
     1
102
RTVSPropertyOp60
 70
     1
102
RTVSPropertyOp61
 70
     1
102
RTVSPropertyOp62
 70
     1
  0
XRECORD
  5
25BF
102
{ACAD_REACTORS
330
25BE
102
}
330
25BE
100
AcDbXrecord
280
     1
102
RTVSPost2010Prop28
280
     0
102
RTVSPost2010PropOp28
 70
     1
102
RTVSPost2010Prop29
280
     1
102
RTVSPost2010PropOp29
 70
     1
102
RTVSPost2010Prop30
280
     1
102
RTVSPost2010PropOp30
 70
     1
102
RTVSPost2010Prop31
280
     0
102
RTVSPost2010PropOp31
 70
     1
102
RTVSPost2010Prop32
280
     0
102
RTVSPost2010PropOp32
 70
     1
102
RTVSPost2010Prop33
280
     0
102
RTVSPost2010PropOp33
 70
     1
102
RTVSPost2010Prop34
280
     0
102
RTVSPost2010PropOp34
 70
     1
102
RTVSPost2010Prop35
280
     0
102
RTVSPost2010PropOp35
 70
     1
102
RTVSPost2010Prop36
280
     0
102
RTVSPost2010PropOp36
 70
     1
102
RTVSPost2010Prop37
 90
       50
102
RTVSPost2010PropOp37
 70
     1
102
RTVSPost2010Prop38
140
0.0
102
RTVSPost2010PropOp38
 70
     1
102
RTVSPost2010Prop39
140
1.0
102
RTVSPost2010PropOp39
 70
     1
102
RTVSPost2010Prop40
 90
        0
102
RTVSPost2010PropOp40
 70
     1
102
RTVSPost2010Prop41ColorIndex
 90
       18
102
RTVSPost2010Prop41ColorRGB
 90
        0
102
RTVSPost2010PropOp41
 70
     1
102
RTVSPost2010Prop42
 90
       50
102
RTVSPost2010PropOp42
 70
     1
102
RTVSPost2010Prop43
 90
        3
102
RTVSPost2010PropOp43
 70
     1
102
RTVSPost2010Prop44ColorIndex
 90
        5
102
RTVSPost2010Prop44ColorRGB
 90
      255
102
RTVSPost2010PropOp44
 70
     1
102
RTVSPost2010Prop45
280
     0
102
RTVSPost2010PropOp45
 70
     1
102
RTVSPost2010Prop46
 90
       50
102
RTVSPost2010PropOp46
 70
     1
102
RTVSPost2010Prop47
 90
       50
102
RTVSPost2010PropOp47
 70
     1
102
RTVSPost2010Prop48
 90
       50
102
RTVSPost2010PropOp48
 70
     1
102
RTVSPost2010Prop49
280
     0
102
RTVSPost2010PropOp49
 70
     1
102
RTVSPost2010Prop50
 90
       50
102
RTVSPost2010PropOp50
 70
     1
102
RTVSPost2010Prop51ColorIndex
 90
      256
102
RTVSPost2010Prop51ColorRGB
 90
-16777216
102
RTVSPost2010PropOp51
 70
     0
102
RTVSPost2010Prop52
140
1.0
102
RTVSPost2010PropOp52
 70
     0
102
RTVSPost2010Prop53
 90
        2
102
RTVSPost2010PropOp53
 70
     1
102
RTVSPost2010Prop54
  1
strokes_ogs.tif
102
RTVSPost2010PropOp54
 70
     1
102
RTVSPost2010Prop55
280
     0
102
RTVSPost2010PropOp55
 70
     1
102
RTVSPost2010Prop56
140
1.0
102
RTVSPost2010PropOp56
 70
     1
102
RTVSPost2010Prop57
140
1.0
102
RTVSPost2010PropOp57
 70
     1
102
RTVSPropertyOp0
 70
     1
102
RTVSPropertyOp1
 70
     1
102
RTVSPropertyOp2
 70
     1
102
RTVSPropertyOp3
 70
     1
102
RTVSPropertyOp4
 70
     1
102
RTVSPropertyOp5
 70
     1
102
RTVSPropertyOp6
 70
     1
102
RTVSPropertyOp7
 70
     1
102
RTVSPropertyOp8
 70
     1
102
RTVSPropertyOp9
 70
     1
102
RTVSPropertyOp10
 70
     1
102
RTVSPropertyOp11
 70
     1
102
RTVSPropertyOp12
 70
     1
102
RTVSPropertyOp13
 70
     1
102
RTVSPropertyOp14
 70
     1
102
RTVSPropertyOp15
 70
     1
102
RTVSPropertyOp16
 70
     1
102
RTVSPropertyOp17
 70
     1
102
RTVSPropertyOp18
 70
     1
102
RTVSPropertyOp19
 70
     1
102
RTVSPropertyOp20
 70
     1
102
RTVSPropertyOp21
 70
     1
102
RTVSPropertyOp22
 70
     1
102
RTVSPropertyOp23
 70
     1
102
RTVSPropertyOp24
 70
     1
102
RTVSPropertyOp25
 70
     1
102
RTVSPropertyOp26
 70
     1
102
RTVSPropertyOp27
 70
     1
102
RTVSPropertyOp28
 70
     1
102
RTVSPropertyOp29
 70
     1
102
RTVSPropertyOp30
 70
     1
102
RTVSPropertyOp31
 70
     1
102
RTVSPropertyOp32
 70
     1
102
RTVSPropertyOp33
 70
     1
102
RTVSPropertyOp34
 70
     1
102
RTVSPropertyOp35
 70
     1
102
RTVSPropertyOp36
 70
     1
102
RTVSPropertyOp37
 70
     1
102
RTVSPropertyOp38
 70
     1
102
RTVSPropertyOp39
 70
     1
102
RTVSPropertyOp40
 70
     1
102
RTVSPropertyOp41
 70
     1
102
RTVSPropertyOp42
 70
     1
102
RTVSPropertyOp43
 70
     1
102
RTVSPropertyOp44
 70
     1
102
RTVSPropertyOp45
 70
     1
102
RTVSPropertyOp46
 70
     1
102
RTVSPropertyOp47
 70
     1
102
RTVSPropertyOp48
 70
     1
102
RTVSPropertyOp49
 70
     1
102
RTVSPropertyOp50
 70
     1
102
RTVSPropertyOp51
 70
     0
102
RTVSPropertyOp52
 70
     0
102
RTVSPropertyOp53
 70
     1
102
RTVSPropertyOp54
 70
     1
102
RTVSPropertyOp55
 70
     1
102
RTVSPropertyOp56
 70
     1
102
RTVSPropertyOp57
 70
     1
102
RTVSPropertyOp58
 70
     1
102
RTVSPropertyOp59
 70
     1
102
RTVSPropertyOp60
 70
     1
102
RTVSPropertyOp61
 70
     1
102
RTVSPropertyOp62
 70
     1
  0
XRECORD
  5
25C7
102
{ACAD_REACTORS
330
25C6
102
}
330
25C6
100
AcDbXrecord
280
     1
102
RTVSPost2010Prop28
280
     0
102
RTVSPost2010PropOp28
 70
     1
102
RTVSPost2010Prop29
280
     1
102
RTVSPost2010PropOp29
 70
     1
102
RTVSPost2010Prop30
280
     1
102
RTVSPost2010PropOp30
 70
     1
102
RTVSPost2010Prop31
280
     0
102
RTVSPost2010PropOp31
 70
     1
102
RTVSPost2010Prop32
280
     0
102
RTVSPost2010PropOp32
 70
     1
102
RTVSPost2010Prop33
280
     0
102
RTVSPost2010PropOp33
 70
     1
102
RTVSPost2010Prop34
280
     0
102
RTVSPost2010PropOp34
 70
     1
102
RTVSPost2010Prop35
280
     0
102
RTVSPost2010PropOp35
 70
     1
102
RTVSPost2010Prop36
280
     0
102
RTVSPost2010PropOp36
 70
     1
102
RTVSPost2010Prop37
 90
       50
102
RTVSPost2010PropOp37
 70
     1
102
RTVSPost2010Prop38
140
0.0
102
RTVSPost2010PropOp38
 70
     1
102
RTVSPost2010Prop39
140
1.0
102
RTVSPost2010PropOp39
 70
     1
102
RTVSPost2010Prop40
 90
        0
102
RTVSPost2010PropOp40
 70
     1
102
RTVSPost2010Prop41ColorIndex
 90
       18
102
RTVSPost2010Prop41ColorRGB
 90
        0
102
RTVSPost2010PropOp41
 70
     1
102
RTVSPost2010Prop42
 90
       50
102
RTVSPost2010PropOp42
 70
     1
102
RTVSPost2010Prop43
 90
        3
102
RTVSPost2010PropOp43
 70
     1
102
RTVSPost2010Prop44ColorIndex
 90
        5
102
RTVSPost2010Prop44ColorRGB
 90
      255
102
RTVSPost2010PropOp44
 70
     1
102
RTVSPost2010Prop45
280
     0
102
RTVSPost2010PropOp45
 70
     1
102
RTVSPost2010Prop46
 90
       50
102
RTVSPost2010PropOp46
 70
     1
102
RTVSPost2010Prop47
 90
       50
102
RTVSPost2010PropOp47
 70
     1
102
RTVSPost2010Prop48
 90
       50
102
RTVSPost2010PropOp48
 70
     1
102
RTVSPost2010Prop49
280
     0
102
RTVSPost2010PropOp49
 70
     1
102
RTVSPost2010Prop50
 90
       50
102
RTVSPost2010PropOp50
 70
     1
102
RTVSPost2010Prop51ColorIndex
 90
      256
102
RTVSPost2010Prop51ColorRGB
 90
-16777216
102
RTVSPost2010PropOp51
 70
     0
102
RTVSPost2010Prop52
140
1.0
102
RTVSPost2010PropOp52
 70
     0
102
RTVSPost2010Prop53
 90
        2
102
RTVSPost2010PropOp53
 70
     1
102
RTVSPost2010Prop54
  1
strokes_ogs.tif
102
RTVSPost2010PropOp54
 70
     1
102
RTVSPost2010Prop55
280
     0
102
RTVSPost2010PropOp55
 70
     1
102
RTVSPost2010Prop56
140
1.0
102
RTVSPost2010PropOp56
 70
     1
102
RTVSPost2010Prop57
140
1.0
102
RTVSPost2010PropOp57
 70
     1
102
RTVSPropertyOp0
 70
     1
102
RTVSPropertyOp1
 70
     1
102
RTVSPropertyOp2
 70
     1
102
RTVSPropertyOp3
 70
     1
102
RTVSPropertyOp4
 70
     1
102
RTVSPropertyOp5
 70
     1
102
RTVSPropertyOp6
 70
     1
102
RTVSPropertyOp7
 70
     1
102
RTVSPropertyOp8
 70
     1
102
RTVSPropertyOp9
 70
     1
102
RTVSPropertyOp10
 70
     1
102
RTVSPropertyOp11
 70
     1
102
RTVSPropertyOp12
 70
     1
102
RTVSPropertyOp13
 70
     1
102
RTVSPropertyOp14
 70
     1
102
RTVSPropertyOp15
 70
     1
102
RTVSPropertyOp16
 70
     1
102
RTVSPropertyOp17
 70
     1
102
RTVSPropertyOp18
 70
     1
102
RTVSPropertyOp19
 70
     1
102
RTVSPropertyOp20
 70
     1
102
RTVSPropertyOp21
 70
     1
102
RTVSPropertyOp22
 70
     1
102
RTVSPropertyOp23
 70
     1
102
RTVSPropertyOp24
 70
     1
102
RTVSPropertyOp25
 70
     1
102
RTVSPropertyOp26
 70
     1
102
RTVSPropertyOp27
 70
     1
102
RTVSPropertyOp28
 70
     1
102
RTVSPropertyOp29
 70
     1
102
RTVSPropertyOp30
 70
     1
102
RTVSPropertyOp31
 70
     1
102
RTVSPropertyOp32
 70
     1
102
RTVSPropertyOp33
 70
     1
102
RTVSPropertyOp34
 70
     1
102
RTVSPropertyOp35
 70
     1
102
RTVSPropertyOp36
 70
     1
102
RTVSPropertyOp37
 70
     1
102
RTVSPropertyOp38
 70
     1
102
RTVSPropertyOp39
 70
     1
102
RTVSPropertyOp40
 70
     1
102
RTVSPropertyOp41
 70
     1
102
RTVSPropertyOp42
 70
     1
102
RTVSPropertyOp43
 70
     1
102
RTVSPropertyOp44
 70
     1
102
RTVSPropertyOp45
 70
     1
102
RTVSPropertyOp46
 70
     1
102
RTVSPropertyOp47
 70
     1
102
RTVSPropertyOp48
 70
     1
102
RTVSPropertyOp49
 70
     1
102
RTVSPropertyOp50
 70
     1
102
RTVSPropertyOp51
 70
     0
102
RTVSPropertyOp52
 70
     0
102
RTVSPropertyOp53
 70
     1
102
RTVSPropertyOp54
 70
     1
102
RTVSPropertyOp55
 70
     1
102
RTVSPropertyOp56
 70
     1
102
RTVSPropertyOp57
 70
     1
102
RTVSPropertyOp58
 70
     1
102
RTVSPropertyOp59
 70
     1
102
RTVSPropertyOp60
 70
     1
102
RTVSPropertyOp61
 70
     1
102
RTVSPropertyOp62
 70
     1
  0
XRECORD
  5
25B9
102
{ACAD_REACTORS
330
25B8
102
}
330
25B8
100
AcDbXrecord
280
     1
102
RTVSPost2010Prop28
280
     0
102
RTVSPost2010PropOp28
 70
     1
102
RTVSPost2010Prop29
280
     1
102
RTVSPost2010PropOp29
 70
     1
102
RTVSPost2010Prop30
280
     1
102
RTVSPost2010PropOp30
 70
     1
102
RTVSPost2010Prop31
280
     0
102
RTVSPost2010PropOp31
 70
     1
102
RTVSPost2010Prop32
280
     0
102
RTVSPost2010PropOp32
 70
     1
102
RTVSPost2010Prop33
280
     0
102
RTVSPost2010PropOp33
 70
     1
102
RTVSPost2010Prop34
280
     0
102
RTVSPost2010PropOp34
 70
     1
102
RTVSPost2010Prop35
280
     0
102
RTVSPost2010PropOp35
 70
     1
102
RTVSPost2010Prop36
280
     0
102
RTVSPost2010PropOp36
 70
     1
102
RTVSPost2010Prop37
 90
       50
102
RTVSPost2010PropOp37
 70
     1
102
RTVSPost2010Prop38
140
0.0
102
RTVSPost2010PropOp38
 70
     1
102
RTVSPost2010Prop39
140
1.0
102
RTVSPost2010PropOp39
 70
     1
102
RTVSPost2010Prop40
 90
        0
102
RTVSPost2010PropOp40
 70
     1
102
RTVSPost2010Prop41ColorIndex
 90
       18
102
RTVSPost2010Prop41ColorRGB
 90
        0
102
RTVSPost2010PropOp41
 70
     1
102
RTVSPost2010Prop42
 90
       50
102
RTVSPost2010PropOp42
 70
     1
102
RTVSPost2010Prop43
 90
        3
102
RTVSPost2010PropOp43
 70
     1
102
RTVSPost2010Prop44ColorIndex
 90
        5
102
RTVSPost2010Prop44ColorRGB
 90
      255
102
RTVSPost2010PropOp44
 70
     1
102
RTVSPost2010Prop45
280
     0
102
RTVSPost2010PropOp45
 70
     1
102
RTVSPost2010Prop46
 90
       50
102
RTVSPost2010PropOp46
 70
     1
102
RTVSPost2010Prop47
 90
       50
102
RTVSPost2010PropOp47
 70
     1
102
RTVSPost2010Prop48
 90
       50
102
RTVSPost2010PropOp48
 70
     1
102
RTVSPost2010Prop49
280
     0
102
RTVSPost2010PropOp49
 70
     1
102
RTVSPost2010Prop50
 90
       50
102
RTVSPost2010PropOp50
 70
     1
102
RTVSPost2010Prop51ColorIndex
 90
      256
102
RTVSPost2010Prop51ColorRGB
 90
-16777216
102
RTVSPost2010PropOp51
 70
     0
102
RTVSPost2010Prop52
140
1.0
102
RTVSPost2010PropOp52
 70
     0
102
RTVSPost2010Prop53
 90
        2
102
RTVSPost2010PropOp53
 70
     1
102
RTVSPost2010Prop54
  1
strokes_ogs.tif
102
RTVSPost2010PropOp54
 70
     1
102
RTVSPost2010Prop55
280
     0
102
RTVSPost2010PropOp55
 70
     1
102
RTVSPost2010Prop56
140
1.0
102
RTVSPost2010PropOp56
 70
     1
102
RTVSPost2010Prop57
140
1.0
102
RTVSPost2010PropOp57
 70
     1
102
RTVSPropertyOp0
 70
     1
102
RTVSPropertyOp1
 70
     1
102
RTVSPropertyOp2
 70
     1
102
RTVSPropertyOp3
 70
     1
102
RTVSPropertyOp4
 70
     1
102
RTVSPropertyOp5
 70
     1
102
RTVSPropertyOp6
 70
     1
102
RTVSPropertyOp7
 70
     1
102
RTVSPropertyOp8
 70
     1
102
RTVSPropertyOp9
 70
     1
102
RTVSPropertyOp10
 70
     1
102
RTVSPropertyOp11
 70
     1
102
RTVSPropertyOp12
 70
     1
102
RTVSPropertyOp13
 70
     1
102
RTVSPropertyOp14
 70
     1
102
RTVSPropertyOp15
 70
     1
102
RTVSPropertyOp16
 70
     1
102
RTVSPropertyOp17
 70
     1
102
RTVSPropertyOp18
 70
     1
102
RTVSPropertyOp19
 70
     1
102
RTVSPropertyOp20
 70
     1
102
RTVSPropertyOp21
 70
     1
102
RTVSPropertyOp22
 70
     1
102
RTVSPropertyOp23
 70
     1
102
RTVSPropertyOp24
 70
     1
102
RTVSPropertyOp25
 70
     1
102
RTVSPropertyOp26
 70
     1
102
RTVSPropertyOp27
 70
     1
102
RTVSPropertyOp28
 70
     1
102
RTVSPropertyOp29
 70
     1
102
RTVSPropertyOp30
 70
     1
102
RTVSPropertyOp31
 70
     1
102
RTVSPropertyOp32
 70
     1
102
RTVSPropertyOp33
 70
     1
102
RTVSPropertyOp34
 70
     1
102
RTVSPropertyOp35
 70
     1
102
RTVSPropertyOp36
 70
     1
102
RTVSPropertyOp37
 70
     1
102
RTVSPropertyOp38
 70
     1
102
RTVSPropertyOp39
 70
     1
102
RTVSPropertyOp40
 70
     1
102
RTVSPropertyOp41
 70
     1
102
RTVSPropertyOp42
 70
     1
102
RTVSPropertyOp43
 70
     1
102
RTVSPropertyOp44
 70
     1
102
RTVSPropertyOp45
 70
     1
102
RTVSPropertyOp46
 70
     1
102
RTVSPropertyOp47
 70
     1
102
RTVSPropertyOp48
 70
     1
102
RTVSPropertyOp49
 70
     1
102
RTVSPropertyOp50
 70
     1
102
RTVSPropertyOp51
 70
     0
102
RTVSPropertyOp52
 70
     0
102
RTVSPropertyOp53
 70
     1
102
RTVSPropertyOp54
 70
     1
102
RTVSPropertyOp55
 70
     1
102
RTVSPropertyOp56
 70
     1
102
RTVSPropertyOp57
 70
     1
102
RTVSPropertyOp58
 70
     1
102
RTVSPropertyOp59
 70
     1
102
RTVSPropertyOp60
 70
     1
102
RTVSPropertyOp61
 70
     1
102
RTVSPropertyOp62
 70
     1
  0
XRECORD
  5
25BD
102
{ACAD_REACTORS
330
25BC
102
}
330
25BC
100
AcDbXrecord
280
     1
102
RTVSPost2010Prop28
280
     0
102
RTVSPost2010PropOp28
 70
     1
102
RTVSPost2010Prop29
280
     1
102
RTVSPost2010PropOp29
 70
     1
102
RTVSPost2010Prop30
280
     1
102
RTVSPost2010PropOp30
 70
     1
102
RTVSPost2010Prop31
280
     0
102
RTVSPost2010PropOp31
 70
     1
102
RTVSPost2010Prop32
280
     0
102
RTVSPost2010PropOp32
 70
     1
102
RTVSPost2010Prop33
280
     0
102
RTVSPost2010PropOp33
 70
     1
102
RTVSPost2010Prop34
280
     0
102
RTVSPost2010PropOp34
 70
     1
102
RTVSPost2010Prop35
280
     0
102
RTVSPost2010PropOp35
 70
     1
102
RTVSPost2010Prop36
280
     0
102
RTVSPost2010PropOp36
 70
     1
102
RTVSPost2010Prop37
 90
       50
102
RTVSPost2010PropOp37
 70
     1
102
RTVSPost2010Prop38
140
0.0
102
RTVSPost2010PropOp38
 70
     1
102
RTVSPost2010Prop39
140
1.0
102
RTVSPost2010PropOp39
 70
     1
102
RTVSPost2010Prop40
 90
        0
102
RTVSPost2010PropOp40
 70
     1
102
RTVSPost2010Prop41ColorIndex
 90
       18
102
RTVSPost2010Prop41ColorRGB
 90
        0
102
RTVSPost2010PropOp41
 70
     1
102
RTVSPost2010Prop42
 90
       50
102
RTVSPost2010PropOp42
 70
     1
102
RTVSPost2010Prop43
 90
        3
102
RTVSPost2010PropOp43
 70
     1
102
RTVSPost2010Prop44ColorIndex
 90
        5
102
RTVSPost2010Prop44ColorRGB
 90
      255
102
RTVSPost2010PropOp44
 70
     1
102
RTVSPost2010Prop45
280
     0
102
RTVSPost2010PropOp45
 70
     1
102
RTVSPost2010Prop46
 90
       50
102
RTVSPost2010PropOp46
 70
     1
102
RTVSPost2010Prop47
 90
       50
102
RTVSPost2010PropOp47
 70
     1
102
RTVSPost2010Prop48
 90
       50
102
RTVSPost2010PropOp48
 70
     1
102
RTVSPost2010Prop49
280
     0
102
RTVSPost2010PropOp49
 70
     1
102
RTVSPost2010Prop50
 90
       50
102
RTVSPost2010PropOp50
 70
     1
102
RTVSPost2010Prop51ColorIndex
 90
      256
102
RTVSPost2010Prop51ColorRGB
 90
-16777216
102
RTVSPost2010PropOp51
 70
     0
102
RTVSPost2010Prop52
140
1.0
102
RTVSPost2010PropOp52
 70
     0
102
RTVSPost2010Prop53
 90
        2
102
RTVSPost2010PropOp53
 70
     1
102
RTVSPost2010Prop54
  1
strokes_ogs.tif
102
RTVSPost2010PropOp54
 70
     1
102
RTVSPost2010Prop55
280
     0
102
RTVSPost2010PropOp55
 70
     1
102
RTVSPost2010Prop56
140
1.0
102
RTVSPost2010PropOp56
 70
     1
102
RTVSPost2010Prop57
140
1.0
102
RTVSPost2010PropOp57
 70
     1
102
RTVSPropertyOp0
 70
     1
102
RTVSPropertyOp1
 70
     1
102
RTVSPropertyOp2
 70
     1
102
RTVSPropertyOp3
 70
     1
102
RTVSPropertyOp4
 70
     1
102
RTVSPropertyOp5
 70
     1
102
RTVSPropertyOp6
 70
     1
102
RTVSPropertyOp7
 70
     1
102
RTVSPropertyOp8
 70
     1
102
RTVSPropertyOp9
 70
     1
102
RTVSPropertyOp10
 70
     1
102
RTVSPropertyOp11
 70
     1
102
RTVSPropertyOp12
 70
     1
102
RTVSPropertyOp13
 70
     1
102
RTVSPropertyOp14
 70
     1
102
RTVSPropertyOp15
 70
     1
102
RTVSPropertyOp16
 70
     1
102
RTVSPropertyOp17
 70
     1
102
RTVSPropertyOp18
 70
     1
102
RTVSPropertyOp19
 70
     1
102
RTVSPropertyOp20
 70
     1
102
RTVSPropertyOp21
 70
     1
102
RTVSPropertyOp22
 70
     1
102
RTVSPropertyOp23
 70
     1
102
RTVSPropertyOp24
 70
     1
102
RTVSPropertyOp25
 70
     1
102
RTVSPropertyOp26
 70
     1
102
RTVSPropertyOp27
 70
     1
102
RTVSPropertyOp28
 70
     1
102
RTVSPropertyOp29
 70
     1
102
RTVSPropertyOp30
 70
     1
102
RTVSPropertyOp31
 70
     1
102
RTVSPropertyOp32
 70
     1
102
RTVSPropertyOp33
 70
     1
102
RTVSPropertyOp34
 70
     1
102
RTVSPropertyOp35
 70
     1
102
RTVSPropertyOp36
 70
     1
102
RTVSPropertyOp37
 70
     1
102
RTVSPropertyOp38
 70
     1
102
RTVSPropertyOp39
 70
     1
102
RTVSPropertyOp40
 70
     1
102
RTVSPropertyOp41
 70
     1
102
RTVSPropertyOp42
 70
     1
102
RTVSPropertyOp43
 70
     1
102
RTVSPropertyOp44
 70
     1
102
RTVSPropertyOp45
 70
     1
102
RTVSPropertyOp46
 70
     1
102
RTVSPropertyOp47
 70
     1
102
RTVSPropertyOp48
 70
     1
102
RTVSPropertyOp49
 70
     1
102
RTVSPropertyOp50
 70
     1
102
RTVSPropertyOp51
 70
     0
102
RTVSPropertyOp52
 70
     0
102
RTVSPropertyOp53
 70
     1
102
RTVSPropertyOp54
 70
     1
102
RTVSPropertyOp55
 70
     1
102
RTVSPropertyOp56
 70
     1
102
RTVSPropertyOp57
 70
     1
102
RTVSPropertyOp58
 70
     1
102
RTVSPropertyOp59
 70
     1
102
RTVSPropertyOp60
 70
     1
102
RTVSPropertyOp61
 70
     1
102
RTVSPropertyOp62
 70
     1
  0
XRECORD
  5
25D7
102
{ACAD_REACTORS
330
25D6
102
}
330
25D6
100
AcDbXrecord
280
     1
102
RTVSPost2010Prop28
280
     0
102
RTVSPost2010PropOp28
 70
     1
102
RTVSPost2010Prop29
280
     1
102
RTVSPost2010PropOp29
 70
     1
102
RTVSPost2010Prop30
280
     1
102
RTVSPost2010PropOp30
 70
     1
102
RTVSPost2010Prop31
280
     0
102
RTVSPost2010PropOp31
 70
     1
102
RTVSPost2010Prop32
280
     0
102
RTVSPost2010PropOp32
 70
     1
102
RTVSPost2010Prop33
280
     0
102
RTVSPost2010PropOp33
 70
     1
102
RTVSPost2010Prop34
280
     0
102
RTVSPost2010PropOp34
 70
     1
102
RTVSPost2010Prop35
280
     0
102
RTVSPost2010PropOp35
 70
     1
102
RTVSPost2010Prop36
280
     0
102
RTVSPost2010PropOp36
 70
     1
102
RTVSPost2010Prop37
 90
       50
102
RTVSPost2010PropOp37
 70
     0
102
RTVSPost2010Prop38
140
0.0
102
RTVSPost2010PropOp38
 70
     0
102
RTVSPost2010Prop39
140
1.0
102
RTVSPost2010PropOp39
 70
     0
102
RTVSPost2010Prop40
 90
        0
102
RTVSPost2010PropOp40
 70
     0
102
RTVSPost2010Prop41ColorIndex
 90
       18
102
RTVSPost2010Prop41ColorRGB
 90
        0
102
RTVSPost2010PropOp41
 70
     0
102
RTVSPost2010Prop42
 90
       50
102
RTVSPost2010PropOp42
 70
     0
102
RTVSPost2010Prop43
 90
        3
102
RTVSPost2010PropOp43
 70
     0
102
RTVSPost2010Prop44ColorIndex
 90
        5
102
RTVSPost2010Prop44ColorRGB
 90
      255
102
RTVSPost2010PropOp44
 70
     0
102
RTVSPost2010Prop45
280
     0
102
RTVSPost2010PropOp45
 70
     1
102
RTVSPost2010Prop46
 90
       50
102
RTVSPost2010PropOp46
 70
     0
102
RTVSPost2010Prop47
 90
       50
102
RTVSPost2010PropOp47
 70
     0
102
RTVSPost2010Prop48
 90
       50
102
RTVSPost2010PropOp48
 70
     0
102
RTVSPost2010Prop49
280
     0
102
RTVSPost2010PropOp49
 70
     1
102
RTVSPost2010Prop50
 90
       50
102
RTVSPost2010PropOp50
 70
     0
102
RTVSPost2010Prop51ColorIndex
 90
      256
102
RTVSPost2010Prop51ColorRGB
 90
-16777216
102
RTVSPost2010PropOp51
 70
     0
102
RTVSPost2010Prop52
140
1.0
102
RTVSPost2010PropOp52
 70
     0
102
RTVSPost2010Prop53
 90
        2
102
RTVSPost2010PropOp53
 70
     0
102
RTVSPost2010Prop54
  1
strokes_ogs.tif
102
RTVSPost2010PropOp54
 70
     0
102
RTVSPost2010Prop55
280
     0
102
RTVSPost2010PropOp55
 70
     1
102
RTVSPost2010Prop56
140
1.0
102
RTVSPost2010PropOp56
 70
     0
102
RTVSPost2010Prop57
140
1.0
102
RTVSPost2010PropOp57
 70
     0
102
RTVSPropertyOp0
 70
     0
102
RTVSPropertyOp1
 70
     0
102
RTVSPropertyOp2
 70
     0
102
RTVSPropertyOp3
 70
     0
102
RTVSPropertyOp4
 70
     0
102
RTVSPropertyOp5
 70
     0
102
RTVSPropertyOp6
 70
     0
102
RTVSPropertyOp7
 70
     0
102
RTVSPropertyOp8
 70
     0
102
RTVSPropertyOp9
 70
     0
102
RTVSPropertyOp10
 70
     0
102
RTVSPropertyOp11
 70
     0
102
RTVSPropertyOp12
 70
     0
102
RTVSPropertyOp13
 70
     0
102
RTVSPropertyOp14
 70
     2
102
RTVSPropertyOp15
 70
     0
102
RTVSPropertyOp16
 70
     0
102
RTVSPropertyOp17
 70
     0
102
RTVSPropertyOp18
 70
     0
102
RTVSPropertyOp19
 70
     0
102
RTVSPropertyOp20
 70
     0
102
RTVSPropertyOp21
 70
     0
102
RTVSPropertyOp22
 70
     0
102
RTVSPropertyOp23
 70
     0
102
RTVSPropertyOp24
 70
     0
102
RTVSPropertyOp25
 70
     0
102
RTVSPropertyOp26
 70
     0
102
RTVSPropertyOp27
 70
     0
102
RTVSPropertyOp28
 70
     1
102
RTVSPropertyOp29
 70
     1
102
RTVSPropertyOp30
 70
     1
102
RTVSPropertyOp31
 70
     1
102
RTVSPropertyOp32
 70
     1
102
RTVSPropertyOp33
 70
     1
102
RTVSPropertyOp34
 70
     1
102
RTVSPropertyOp35
 70
     1
102
RTVSPropertyOp36
 70
     1
102
RTVSPropertyOp37
 70
     0
102
RTVSPropertyOp38
 70
     0
102
RTVSPropertyOp39
 70
     0
102
RTVSPropertyOp40
 70
     0
102
RTVSPropertyOp41
 70
     0
102
RTVSPropertyOp42
 70
     0
102
RTVSPropertyOp43
 70
     0
102
RTVSPropertyOp44
 70
     0
102
RTVSPropertyOp45
 70
     1
102
RTVSPropertyOp46
 70
     0
102
RTVSPropertyOp47
 70
     0
102
RTVSPropertyOp48
 70
     0
102
RTVSPropertyOp49
 70
     1
102
RTVSPropertyOp50
 70
     0
102
RTVSPropertyOp51
 70
     0
102
RTVSPropertyOp52
 70
     0
102
RTVSPropertyOp53
 70
     0
102
RTVSPropertyOp54
 70
     0
102
RTVSPropertyOp55
 70
     1
102
RTVSPropertyOp56
 70
     0
102
RTVSPropertyOp57
 70
     0
102
RTVSPropertyOp58
 70
     0
102
RTVSPropertyOp59
 70
     0
102
RTVSPropertyOp60
 70
     0
102
RTVSPropertyOp61
 70
     0
102
RTVSPropertyOp62
 70
     0
  0
XRECORD
  5
25C5
102
{ACAD_REACTORS
330
25C4
102
}
330
25C4
100
AcDbXrecord
280
     1
102
RTVSPost2010Prop28
280
     0
102
RTVSPost2010PropOp28
 70
     1
102
RTVSPost2010Prop29
280
     1
102
RTVSPost2010PropOp29
 70
     1
102
RTVSPost2010Prop30
280
     1
102
RTVSPost2010PropOp30
 70
     1
102
RTVSPost2010Prop31
280
     0
102
RTVSPost2010PropOp31
 70
     1
102
RTVSPost2010Prop32
280
     0
102
RTVSPost2010PropOp32
 70
     1
102
RTVSPost2010Prop33
280
     0
102
RTVSPost2010PropOp33
 70
     1
102
RTVSPost2010Prop34
280
     0
102
RTVSPost2010PropOp34
 70
     1
102
RTVSPost2010Prop35
280
     0
102
RTVSPost2010PropOp35
 70
     1
102
RTVSPost2010Prop36
280
     0
102
RTVSPost2010PropOp36
 70
     1
102
RTVSPost2010Prop37
 90
       50
102
RTVSPost2010PropOp37
 70
     1
102
RTVSPost2010Prop38
140
0.0
102
RTVSPost2010PropOp38
 70
     1
102
RTVSPost2010Prop39
140
1.0
102
RTVSPost2010PropOp39
 70
     1
102
RTVSPost2010Prop40
 90
        0
102
RTVSPost2010PropOp40
 70
     1
102
RTVSPost2010Prop41ColorIndex
 90
       18
102
RTVSPost2010Prop41ColorRGB
 90
        0
102
RTVSPost2010PropOp41
 70
     1
102
RTVSPost2010Prop42
 90
       50
102
RTVSPost2010PropOp42
 70
     1
102
RTVSPost2010Prop43
 90
        3
102
RTVSPost2010PropOp43
 70
     1
102
RTVSPost2010Prop44ColorIndex
 90
        5
102
RTVSPost2010Prop44ColorRGB
 90
      255
102
RTVSPost2010PropOp44
 70
     1
102
RTVSPost2010Prop45
280
     0
102
RTVSPost2010PropOp45
 70
     1
102
RTVSPost2010Prop46
 90
       50
102
RTVSPost2010PropOp46
 70
     1
102
RTVSPost2010Prop47
 90
       50
102
RTVSPost2010PropOp47
 70
     1
102
RTVSPost2010Prop48
 90
       50
102
RTVSPost2010PropOp48
 70
     1
102
RTVSPost2010Prop49
280
     0
102
RTVSPost2010PropOp49
 70
     1
102
RTVSPost2010Prop50
 90
       50
102
RTVSPost2010PropOp50
 70
     1
102
RTVSPost2010Prop51ColorIndex
 90
      256
102
RTVSPost2010Prop51ColorRGB
 90
-16777216
102
RTVSPost2010PropOp51
 70
     0
102
RTVSPost2010Prop52
140
1.0
102
RTVSPost2010PropOp52
 70
     0
102
RTVSPost2010Prop53
 90
        2
102
RTVSPost2010PropOp53
 70
     1
102
RTVSPost2010Prop54
  1
strokes_ogs.tif
102
RTVSPost2010PropOp54
 70
     1
102
RTVSPost2010Prop55
280
     0
102
RTVSPost2010PropOp55
 70
     1
102
RTVSPost2010Prop56
140
1.0
102
RTVSPost2010PropOp56
 70
     1
102
RTVSPost2010Prop57
140
1.0
102
RTVSPost2010PropOp57
 70
     1
102
RTVSPropertyOp0
 70
     1
102
RTVSPropertyOp1
 70
     1
102
RTVSPropertyOp2
 70
     1
102
RTVSPropertyOp3
 70
     1
102
RTVSPropertyOp4
 70
     1
102
RTVSPropertyOp5
 70
     1
102
RTVSPropertyOp6
 70
     1
102
RTVSPropertyOp7
 70
     1
102
RTVSPropertyOp8
 70
     1
102
RTVSPropertyOp9
 70
     1
102
RTVSPropertyOp10
 70
     1
102
RTVSPropertyOp11
 70
     1
102
RTVSPropertyOp12
 70
     1
102
RTVSPropertyOp13
 70
     1
102
RTVSPropertyOp14
 70
     1
102
RTVSPropertyOp15
 70
     1
102
RTVSPropertyOp16
 70
     1
102
RTVSPropertyOp17
 70
     1
102
RTVSPropertyOp18
 70
     1
102
RTVSPropertyOp19
 70
     1
102
RTVSPropertyOp20
 70
     1
102
RTVSPropertyOp21
 70
     1
102
RTVSPropertyOp22
 70
     1
102
RTVSPropertyOp23
 70
     1
102
RTVSPropertyOp24
 70
     1
102
RTVSPropertyOp25
 70
     1
102
RTVSPropertyOp26
 70
     1
102
RTVSPropertyOp27
 70
     1
102
RTVSPropertyOp28
 70
     1
102
RTVSPropertyOp29
 70
     1
102
RTVSPropertyOp30
 70
     1
102
RTVSPropertyOp31
 70
     1
102
RTVSPropertyOp32
 70
     1
102
RTVSPropertyOp33
 70
     1
102
RTVSPropertyOp34
 70
     1
102
RTVSPropertyOp35
 70
     1
102
RTVSPropertyOp36
 70
     1
102
RTVSPropertyOp37
 70
     1
102
RTVSPropertyOp38
 70
     1
102
RTVSPropertyOp39
 70
     1
102
RTVSPropertyOp40
 70
     1
102
RTVSPropertyOp41
 70
     1
102
RTVSPropertyOp42
 70
     1
102
RTVSPropertyOp43
 70
     1
102
RTVSPropertyOp44
 70
     1
102
RTVSPropertyOp45
 70
     1
102
RTVSPropertyOp46
 70
     1
102
RTVSPropertyOp47
 70
     1
102
RTVSPropertyOp48
 70
     1
102
RTVSPropertyOp49
 70
     1
102
RTVSPropertyOp50
 70
     1
102
RTVSPropertyOp51
 70
     0
102
RTVSPropertyOp52
 70
     0
102
RTVSPropertyOp53
 70
     1
102
RTVSPropertyOp54
 70
     1
102
RTVSPropertyOp55
 70
     1
102
RTVSPropertyOp56
 70
     1
102
RTVSPropertyOp57
 70
     1
102
RTVSPropertyOp58
 70
     1
102
RTVSPropertyOp59
 70
     1
102
RTVSPropertyOp60
 70
     1
102
RTVSPropertyOp61
 70
     1
102
RTVSPropertyOp62
 70
     1
  0
XRECORD
  5
25A9
102
{ACAD_REACTORS
330
25A8
102
}
330
25A8
100
AcDbXrecord
280
     1
102
RTVSPost2010Prop28
280
     0
102
RTVSPost2010PropOp28
 70
     1
102
RTVSPost2010Prop29
280
     1
102
RTVSPost2010PropOp29
 70
     1
102
RTVSPost2010Prop30
280
     1
102
RTVSPost2010PropOp30
 70
     1
102
RTVSPost2010Prop31
280
     0
102
RTVSPost2010PropOp31
 70
     1
102
RTVSPost2010Prop32
280
     0
102
RTVSPost2010PropOp32
 70
     1
102
RTVSPost2010Prop33
280
     0
102
RTVSPost2010PropOp33
 70
     1
102
RTVSPost2010Prop34
280
     0
102
RTVSPost2010PropOp34
 70
     1
102
RTVSPost2010Prop35
280
     0
102
RTVSPost2010PropOp35
 70
     1
102
RTVSPost2010Prop36
280
     0
102
RTVSPost2010PropOp36
 70
     1
102
RTVSPost2010Prop37
 90
       50
102
RTVSPost2010PropOp37
 70
     1
102
RTVSPost2010Prop38
140
0.0
102
RTVSPost2010PropOp38
 70
     1
102
RTVSPost2010Prop39
140
1.0
102
RTVSPost2010PropOp39
 70
     1
102
RTVSPost2010Prop40
 90
        0
102
RTVSPost2010PropOp40
 70
     1
102
RTVSPost2010Prop41ColorIndex
 90
       18
102
RTVSPost2010Prop41ColorRGB
 90
        0
102
RTVSPost2010PropOp41
 70
     1
102
RTVSPost2010Prop42
 90
       50
102
RTVSPost2010PropOp42
 70
     1
102
RTVSPost2010Prop43
 90
        3
102
RTVSPost2010PropOp43
 70
     1
102
RTVSPost2010Prop44ColorIndex
 90
        5
102
RTVSPost2010Prop44ColorRGB
 90
      255
102
RTVSPost2010PropOp44
 70
     1
102
RTVSPost2010Prop45
280
     0
102
RTVSPost2010PropOp45
 70
     1
102
RTVSPost2010Prop46
 90
       50
102
RTVSPost2010PropOp46
 70
     1
102
RTVSPost2010Prop47
 90
       50
102
RTVSPost2010PropOp47
 70
     1
102
RTVSPost2010Prop48
 90
       50
102
RTVSPost2010PropOp48
 70
     1
102
RTVSPost2010Prop49
280
     0
102
RTVSPost2010PropOp49
 70
     1
102
RTVSPost2010Prop50
 90
       50
102
RTVSPost2010PropOp50
 70
     1
102
RTVSPost2010Prop51ColorIndex
 90
      256
102
RTVSPost2010Prop51ColorRGB
 90
-16777216
102
RTVSPost2010PropOp51
 70
     0
102
RTVSPost2010Prop52
140
1.0
102
RTVSPost2010PropOp52
 70
     0
102
RTVSPost2010Prop53
 90
        2
102
RTVSPost2010PropOp53
 70
     1
102
RTVSPost2010Prop54
  1
strokes_ogs.tif
102
RTVSPost2010PropOp54
 70
     1
102
RTVSPost2010Prop55
280
     0
102
RTVSPost2010PropOp55
 70
     1
102
RTVSPost2010Prop56
140
1.0
102
RTVSPost2010PropOp56
 70
     1
102
RTVSPost2010Prop57
140
1.0
102
RTVSPost2010PropOp57
 70
     1
102
RTVSPropertyOp0
 70
     1
102
RTVSPropertyOp1
 70
     1
102
RTVSPropertyOp2
 70
     1
102
RTVSPropertyOp3
 70
     1
102
RTVSPropertyOp4
 70
     1
102
RTVSPropertyOp5
 70
     1
102
RTVSPropertyOp6
 70
     1
102
RTVSPropertyOp7
 70
     1
102
RTVSPropertyOp8
 70
     1
102
RTVSPropertyOp9
 70
     1
102
RTVSPropertyOp10
 70
     1
102
RTVSPropertyOp11
 70
     1
102
RTVSPropertyOp12
 70
     1
102
RTVSPropertyOp13
 70
     1
102
RTVSPropertyOp14
 70
     1
102
RTVSPropertyOp15
 70
     1
102
RTVSPropertyOp16
 70
     1
102
RTVSPropertyOp17
 70
     1
102
RTVSPropertyOp18
 70
     1
102
RTVSPropertyOp19
 70
     1
102
RTVSPropertyOp20
 70
     1
102
RTVSPropertyOp21
 70
     1
102
RTVSPropertyOp22
 70
     1
102
RTVSPropertyOp23
 70
     1
102
RTVSPropertyOp24
 70
     1
102
RTVSPropertyOp25
 70
     1
102
RTVSPropertyOp26
 70
     1
102
RTVSPropertyOp27
 70
     1
102
RTVSPropertyOp28
 70
     1
102
RTVSPropertyOp29
 70
     1
102
RTVSPropertyOp30
 70
     1
102
RTVSPropertyOp31
 70
     1
102
RTVSPropertyOp32
 70
     1
102
RTVSPropertyOp33
 70
     1
102
RTVSPropertyOp34
 70
     1
102
RTVSPropertyOp35
 70
     1
102
RTVSPropertyOp36
 70
     1
102
RTVSPropertyOp37
 70
     1
102
RTVSPropertyOp38
 70
     1
102
RTVSPropertyOp39
 70
     1
102
RTVSPropertyOp40
 70
     1
102
RTVSPropertyOp41
 70
     1
102
RTVSPropertyOp42
 70
     1
102
RTVSPropertyOp43
 70
     1
102
RTVSPropertyOp44
 70
     1
102
RTVSPropertyOp45
 70
     1
102
RTVSPropertyOp46
 70
     1
102
RTVSPropertyOp47
 70
     1
102
RTVSPropertyOp48
 70
     1
102
RTVSPropertyOp49
 70
     1
102
RTVSPropertyOp50
 70
     1
102
RTVSPropertyOp51
 70
     0
102
RTVSPropertyOp52
 70
     0
102
RTVSPropertyOp53
 70
     1
102
RTVSPropertyOp54
 70
     1
102
RTVSPropertyOp55
 70
     1
102
RTVSPropertyOp56
 70
     1
102
RTVSPropertyOp57
 70
     1
102
RTVSPropertyOp58
 70
     1
102
RTVSPropertyOp59
 70
     1
102
RTVSPropertyOp60
 70
     1
102
RTVSPropertyOp61
 70
     1
102
RTVSPropertyOp62
 70
     1
  0
XRECORD
  5
25AB
102
{ACAD_REACTORS
330
25AA
102
}
330
25AA
100
AcDbXrecord
280
     1
102
RTVSPost2010Prop28
280
     0
102
RTVSPost2010PropOp28
 70
     1
102
RTVSPost2010Prop29
280
     1
102
RTVSPost2010PropOp29
 70
     1
102
RTVSPost2010Prop30
280
     1
102
RTVSPost2010PropOp30
 70
     1
102
RTVSPost2010Prop31
280
     0
102
RTVSPost2010PropOp31
 70
     1
102
RTVSPost2010Prop32
280
     0
102
RTVSPost2010PropOp32
 70
     1
102
RTVSPost2010Prop33
280
     0
102
RTVSPost2010PropOp33
 70
     1
102
RTVSPost2010Prop34
280
     0
102
RTVSPost2010PropOp34
 70
     1
102
RTVSPost2010Prop35
280
     0
102
RTVSPost2010PropOp35
 70
     1
102
RTVSPost2010Prop36
280
     0
102
RTVSPost2010PropOp36
 70
     1
102
RTVSPost2010Prop37
 90
       50
102
RTVSPost2010PropOp37
 70
     1
102
RTVSPost2010Prop38
140
0.0
102
RTVSPost2010PropOp38
 70
     1
102
RTVSPost2010Prop39
140
1.0
102
RTVSPost2010PropOp39
 70
     1
102
RTVSPost2010Prop40
 90
        0
102
RTVSPost2010PropOp40
 70
     1
102
RTVSPost2010Prop41ColorIndex
 90
       18
102
RTVSPost2010Prop41ColorRGB
 90
        0
102
RTVSPost2010PropOp41
 70
     1
102
RTVSPost2010Prop42
 90
       50
102
RTVSPost2010PropOp42
 70
     1
102
RTVSPost2010Prop43
 90
        3
102
RTVSPost2010PropOp43
 70
     1
102
RTVSPost2010Prop44ColorIndex
 90
        5
102
RTVSPost2010Prop44ColorRGB
 90
      255
102
RTVSPost2010PropOp44
 70
     1
102
RTVSPost2010Prop45
280
     0
102
RTVSPost2010PropOp45
 70
     1
102
RTVSPost2010Prop46
 90
       50
102
RTVSPost2010PropOp46
 70
     1
102
RTVSPost2010Prop47
 90
       50
102
RTVSPost2010PropOp47
 70
     1
102
RTVSPost2010Prop48
 90
       50
102
RTVSPost2010PropOp48
 70
     1
102
RTVSPost2010Prop49
280
     0
102
RTVSPost2010PropOp49
 70
     1
102
RTVSPost2010Prop50
 90
       50
102
RTVSPost2010PropOp50
 70
     1
102
RTVSPost2010Prop51ColorIndex
 90
      256
102
RTVSPost2010Prop51ColorRGB
 90
-16777216
102
RTVSPost2010PropOp51
 70
     0
102
RTVSPost2010Prop52
140
1.0
102
RTVSPost2010PropOp52
 70
     0
102
RTVSPost2010Prop53
 90
        2
102
RTVSPost2010PropOp53
 70
     1
102
RTVSPost2010Prop54
  1
strokes_ogs.tif
102
RTVSPost2010PropOp54
 70
     1
102
RTVSPost2010Prop55
280
     0
102
RTVSPost2010PropOp55
 70
     1
102
RTVSPost2010Prop56
140
1.0
102
RTVSPost2010PropOp56
 70
     1
102
RTVSPost2010Prop57
140
1.0
102
RTVSPost2010PropOp57
 70
     1
102
RTVSPropertyOp0
 70
     1
102
RTVSPropertyOp1
 70
     1
102
RTVSPropertyOp2
 70
     1
102
RTVSPropertyOp3
 70
     1
102
RTVSPropertyOp4
 70
     1
102
RTVSPropertyOp5
 70
     1
102
RTVSPropertyOp6
 70
     1
102
RTVSPropertyOp7
 70
     1
102
RTVSPropertyOp8
 70
     1
102
RTVSPropertyOp9
 70
     1
102
RTVSPropertyOp10
 70
     1
102
RTVSPropertyOp11
 70
     1
102
RTVSPropertyOp12
 70
     1
102
RTVSPropertyOp13
 70
     1
102
RTVSPropertyOp14
 70
     1
102
RTVSPropertyOp15
 70
     1
102
RTVSPropertyOp16
 70
     1
102
RTVSPropertyOp17
 70
     1
102
RTVSPropertyOp18
 70
     1
102
RTVSPropertyOp19
 70
     1
102
RTVSPropertyOp20
 70
     1
102
RTVSPropertyOp21
 70
     1
102
RTVSPropertyOp22
 70
     1
102
RTVSPropertyOp23
 70
     1
102
RTVSPropertyOp24
 70
     1
102
RTVSPropertyOp25
 70
     1
102
RTVSPropertyOp26
 70
     1
102
RTVSPropertyOp27
 70
     1
102
RTVSPropertyOp28
 70
     1
102
RTVSPropertyOp29
 70
     1
102
RTVSPropertyOp30
 70
     1
102
RTVSPropertyOp31
 70
     1
102
RTVSPropertyOp32
 70
     1
102
RTVSPropertyOp33
 70
     1
102
RTVSPropertyOp34
 70
     1
102
RTVSPropertyOp35
 70
     1
102
RTVSPropertyOp36
 70
     1
102
RTVSPropertyOp37
 70
     1
102
RTVSPropertyOp38
 70
     1
102
RTVSPropertyOp39
 70
     1
102
RTVSPropertyOp40
 70
     1
102
RTVSPropertyOp41
 70
     1
102
RTVSPropertyOp42
 70
     1
102
RTVSPropertyOp43
 70
     1
102
RTVSPropertyOp44
 70
     1
102
RTVSPropertyOp45
 70
     1
102
RTVSPropertyOp46
 70
     1
102
RTVSPropertyOp47
 70
     1
102
RTVSPropertyOp48
 70
     1
102
RTVSPropertyOp49
 70
     1
102
RTVSPropertyOp50
 70
     1
102
RTVSPropertyOp51
 70
     0
102
RTVSPropertyOp52
 70
     0
102
RTVSPropertyOp53
 70
     1
102
RTVSPropertyOp54
 70
     1
102
RTVSPropertyOp55
 70
     1
102
RTVSPropertyOp56
 70
     1
102
RTVSPropertyOp57
 70
     1
102
RTVSPropertyOp58
 70
     1
102
RTVSPropertyOp59
 70
     1
102
RTVSPropertyOp60
 70
     1
102
RTVSPropertyOp61
 70
     1
102
RTVSPropertyOp62
 70
     1
  0
XRECORD
  5
25AD
102
{ACAD_REACTORS
330
25AC
102
}
330
25AC
100
AcDbXrecord
280
     1
102
RTVSPost2010Prop28
280
     0
102
RTVSPost2010PropOp28
 70
     1
102
RTVSPost2010Prop29
280
     1
102
RTVSPost2010PropOp29
 70
     1
102
RTVSPost2010Prop30
280
     1
102
RTVSPost2010PropOp30
 70
     1
102
RTVSPost2010Prop31
280
     0
102
RTVSPost2010PropOp31
 70
     1
102
RTVSPost2010Prop32
280
     0
102
RTVSPost2010PropOp32
 70
     1
102
RTVSPost2010Prop33
280
     0
102
RTVSPost2010PropOp33
 70
     1
102
RTVSPost2010Prop34
280
     0
102
RTVSPost2010PropOp34
 70
     1
102
RTVSPost2010Prop35
280
     0
102
RTVSPost2010PropOp35
 70
     1
102
RTVSPost2010Prop36
280
     0
102
RTVSPost2010PropOp36
 70
     1
102
RTVSPost2010Prop37
 90
       50
102
RTVSPost2010PropOp37
 70
     1
102
RTVSPost2010Prop38
140
0.0
102
RTVSPost2010PropOp38
 70
     1
102
RTVSPost2010Prop39
140
1.0
102
RTVSPost2010PropOp39
 70
     1
102
RTVSPost2010Prop40
 90
        0
102
RTVSPost2010PropOp40
 70
     1
102
RTVSPost2010Prop41ColorIndex
 90
       18
102
RTVSPost2010Prop41ColorRGB
 90
        0
102
RTVSPost2010PropOp41
 70
     1
102
RTVSPost2010Prop42
 90
       50
102
RTVSPost2010PropOp42
 70
     1
102
RTVSPost2010Prop43
 90
        3
102
RTVSPost2010PropOp43
 70
     1
102
RTVSPost2010Prop44ColorIndex
 90
        5
102
RTVSPost2010Prop44ColorRGB
 90
      255
102
RTVSPost2010PropOp44
 70
     1
102
RTVSPost2010Prop45
280
     0
102
RTVSPost2010PropOp45
 70
     1
102
RTVSPost2010Prop46
 90
       50
102
RTVSPost2010PropOp46
 70
     1
102
RTVSPost2010Prop47
 90
       50
102
RTVSPost2010PropOp47
 70
     1
102
RTVSPost2010Prop48
 90
       50
102
RTVSPost2010PropOp48
 70
     1
102
RTVSPost2010Prop49
280
     0
102
RTVSPost2010PropOp49
 70
     1
102
RTVSPost2010Prop50
 90
       50
102
RTVSPost2010PropOp50
 70
     1
102
RTVSPost2010Prop51ColorIndex
 90
      256
102
RTVSPost2010Prop51ColorRGB
 90
-16777216
102
RTVSPost2010PropOp51
 70
     0
102
RTVSPost2010Prop52
140
1.0
102
RTVSPost2010PropOp52
 70
     0
102
RTVSPost2010Prop53
 90
        2
102
RTVSPost2010PropOp53
 70
     1
102
RTVSPost2010Prop54
  1
strokes_ogs.tif
102
RTVSPost2010PropOp54
 70
     1
102
RTVSPost2010Prop55
280
     0
102
RTVSPost2010PropOp55
 70
     1
102
RTVSPost2010Prop56
140
1.0
102
RTVSPost2010PropOp56
 70
     1
102
RTVSPost2010Prop57
140
1.0
102
RTVSPost2010PropOp57
 70
     1
102
RTVSPropertyOp0
 70
     1
102
RTVSPropertyOp1
 70
     1
102
RTVSPropertyOp2
 70
     1
102
RTVSPropertyOp3
 70
     1
102
RTVSPropertyOp4
 70
     1
102
RTVSPropertyOp5
 70
     1
102
RTVSPropertyOp6
 70
     1
102
RTVSPropertyOp7
 70
     1
102
RTVSPropertyOp8
 70
     1
102
RTVSPropertyOp9
 70
     1
102
RTVSPropertyOp10
 70
     1
102
RTVSPropertyOp11
 70
     1
102
RTVSPropertyOp12
 70
     1
102
RTVSPropertyOp13
 70
     1
102
RTVSPropertyOp14
 70
     1
102
RTVSPropertyOp15
 70
     1
102
RTVSPropertyOp16
 70
     1
102
RTVSPropertyOp17
 70
     1
102
RTVSPropertyOp18
 70
     1
102
RTVSPropertyOp19
 70
     1
102
RTVSPropertyOp20
 70
     1
102
RTVSPropertyOp21
 70
     1
102
RTVSPropertyOp22
 70
     1
102
RTVSPropertyOp23
 70
     1
102
RTVSPropertyOp24
 70
     1
102
RTVSPropertyOp25
 70
     1
102
RTVSPropertyOp26
 70
     1
102
RTVSPropertyOp27
 70
     1
102
RTVSPropertyOp28
 70
     1
102
RTVSPropertyOp29
 70
     1
102
RTVSPropertyOp30
 70
     1
102
RTVSPropertyOp31
 70
     1
102
RTVSPropertyOp32
 70
     1
102
RTVSPropertyOp33
 70
     1
102
RTVSPropertyOp34
 70
     1
102
RTVSPropertyOp35
 70
     1
102
RTVSPropertyOp36
 70
     1
102
RTVSPropertyOp37
 70
     1
102
RTVSPropertyOp38
 70
     1
102
RTVSPropertyOp39
 70
     1
102
RTVSPropertyOp40
 70
     1
102
RTVSPropertyOp41
 70
     1
102
RTVSPropertyOp42
 70
     1
102
RTVSPropertyOp43
 70
     1
102
RTVSPropertyOp44
 70
     1
102
RTVSPropertyOp45
 70
     1
102
RTVSPropertyOp46
 70
     1
102
RTVSPropertyOp47
 70
     1
102
RTVSPropertyOp48
 70
     1
102
RTVSPropertyOp49
 70
     1
102
RTVSPropertyOp50
 70
     1
102
RTVSPropertyOp51
 70
     0
102
RTVSPropertyOp52
 70
     0
102
RTVSPropertyOp53
 70
     1
102
RTVSPropertyOp54
 70
     1
102
RTVSPropertyOp55
 70
     1
102
RTVSPropertyOp56
 70
     1
102
RTVSPropertyOp57
 70
     1
102
RTVSPropertyOp58
 70
     1
102
RTVSPropertyOp59
 70
     1
102
RTVSPropertyOp60
 70
     1
102
RTVSPropertyOp61
 70
     1
102
RTVSPropertyOp62
 70
     1
  0
XRECORD
  5
25AF
102
{ACAD_REACTORS
330
25AE
102
}
330
25AE
100
AcDbXrecord
280
     1
102
RTVSPost2010Prop28
280
     0
102
RTVSPost2010PropOp28
 70
     1
102
RTVSPost2010Prop29
280
     1
102
RTVSPost2010PropOp29
 70
     1
102
RTVSPost2010Prop30
280
     1
102
RTVSPost2010PropOp30
 70
     1
102
RTVSPost2010Prop31
280
     0
102
RTVSPost2010PropOp31
 70
     1
102
RTVSPost2010Prop32
280
     0
102
RTVSPost2010PropOp32
 70
     1
102
RTVSPost2010Prop33
280
     0
102
RTVSPost2010PropOp33
 70
     1
102
RTVSPost2010Prop34
280
     0
102
RTVSPost2010PropOp34
 70
     1
102
RTVSPost2010Prop35
280
     0
102
RTVSPost2010PropOp35
 70
     1
102
RTVSPost2010Prop36
280
     0
102
RTVSPost2010PropOp36
 70
     1
102
RTVSPost2010Prop37
 90
       50
102
RTVSPost2010PropOp37
 70
     1
102
RTVSPost2010Prop38
140
0.0
102
RTVSPost2010PropOp38
 70
     1
102
RTVSPost2010Prop39
140
1.0
102
RTVSPost2010PropOp39
 70
     1
102
RTVSPost2010Prop40
 90
        0
102
RTVSPost2010PropOp40
 70
     1
102
RTVSPost2010Prop41ColorIndex
 90
       18
102
RTVSPost2010Prop41ColorRGB
 90
        0
102
RTVSPost2010PropOp41
 70
     1
102
RTVSPost2010Prop42
 90
       50
102
RTVSPost2010PropOp42
 70
     1
102
RTVSPost2010Prop43
 90
        3
102
RTVSPost2010PropOp43
 70
     1
102
RTVSPost2010Prop44ColorIndex
 90
        5
102
RTVSPost2010Prop44ColorRGB
 90
      255
102
RTVSPost2010PropOp44
 70
     1
102
RTVSPost2010Prop45
280
     0
102
RTVSPost2010PropOp45
 70
     1
102
RTVSPost2010Prop46
 90
       50
102
RTVSPost2010PropOp46
 70
     1
102
RTVSPost2010Prop47
 90
       50
102
RTVSPost2010PropOp47
 70
     1
102
RTVSPost2010Prop48
 90
       50
102
RTVSPost2010PropOp48
 70
     1
102
RTVSPost2010Prop49
280
     0
102
RTVSPost2010PropOp49
 70
     1
102
RTVSPost2010Prop50
 90
       50
102
RTVSPost2010PropOp50
 70
     1
102
RTVSPost2010Prop51ColorIndex
 90
      256
102
RTVSPost2010Prop51ColorRGB
 90
-16777216
102
RTVSPost2010PropOp51
 70
     0
102
RTVSPost2010Prop52
140
1.0
102
RTVSPost2010PropOp52
 70
     0
102
RTVSPost2010Prop53
 90
        2
102
RTVSPost2010PropOp53
 70
     1
102
RTVSPost2010Prop54
  1
strokes_ogs.tif
102
RTVSPost2010PropOp54
 70
     1
102
RTVSPost2010Prop55
280
     0
102
RTVSPost2010PropOp55
 70
     1
102
RTVSPost2010Prop56
140
1.0
102
RTVSPost2010PropOp56
 70
     1
102
RTVSPost2010Prop57
140
1.0
102
RTVSPost2010PropOp57
 70
     1
102
RTVSPropertyOp0
 70
     1
102
RTVSPropertyOp1
 70
     1
102
RTVSPropertyOp2
 70
     1
102
RTVSPropertyOp3
 70
     1
102
RTVSPropertyOp4
 70
     1
102
RTVSPropertyOp5
 70
     1
102
RTVSPropertyOp6
 70
     1
102
RTVSPropertyOp7
 70
     1
102
RTVSPropertyOp8
 70
     1
102
RTVSPropertyOp9
 70
     1
102
RTVSPropertyOp10
 70
     1
102
RTVSPropertyOp11
 70
     1
102
RTVSPropertyOp12
 70
     1
102
RTVSPropertyOp13
 70
     1
102
RTVSPropertyOp14
 70
     1
102
RTVSPropertyOp15
 70
     1
102
RTVSPropertyOp16
 70
     1
102
RTVSPropertyOp17
 70
     1
102
RTVSPropertyOp18
 70
     1
102
RTVSPropertyOp19
 70
     1
102
RTVSPropertyOp20
 70
     1
102
RTVSPropertyOp21
 70
     1
102
RTVSPropertyOp22
 70
     1
102
RTVSPropertyOp23
 70
     1
102
RTVSPropertyOp24
 70
     1
102
RTVSPropertyOp25
 70
     1
102
RTVSPropertyOp26
 70
     1
102
RTVSPropertyOp27
 70
     1
102
RTVSPropertyOp28
 70
     1
102
RTVSPropertyOp29
 70
     1
102
RTVSPropertyOp30
 70
     1
102
RTVSPropertyOp31
 70
     1
102
RTVSPropertyOp32
 70
     1
102
RTVSPropertyOp33
 70
     1
102
RTVSPropertyOp34
 70
     1
102
RTVSPropertyOp35
 70
     1
102
RTVSPropertyOp36
 70
     1
102
RTVSPropertyOp37
 70
     1
102
RTVSPropertyOp38
 70
     1
102
RTVSPropertyOp39
 70
     1
102
RTVSPropertyOp40
 70
     1
102
RTVSPropertyOp41
 70
     1
102
RTVSPropertyOp42
 70
     1
102
RTVSPropertyOp43
 70
     1
102
RTVSPropertyOp44
 70
     1
102
RTVSPropertyOp45
 70
     1
102
RTVSPropertyOp46
 70
     1
102
RTVSPropertyOp47
 70
     1
102
RTVSPropertyOp48
 70
     1
102
RTVSPropertyOp49
 70
     1
102
RTVSPropertyOp50
 70
     1
102
RTVSPropertyOp51
 70
     0
102
RTVSPropertyOp52
 70
     0
102
RTVSPropertyOp53
 70
     1
102
RTVSPropertyOp54
 70
     1
102
RTVSPropertyOp55
 70
     1
102
RTVSPropertyOp56
 70
     1
102
RTVSPropertyOp57
 70
     1
102
RTVSPropertyOp58
 70
     1
102
RTVSPropertyOp59
 70
     1
102
RTVSPropertyOp60
 70
     1
102
RTVSPropertyOp61
 70
     1
102
RTVSPropertyOp62
 70
     1
  0
XRECORD
  5
25B7
102
{ACAD_REACTORS
330
25B6
102
}
330
25B6
100
AcDbXrecord
280
     1
102
RTVSPost2010Prop28
280
     0
102
RTVSPost2010PropOp28
 70
     1
102
RTVSPost2010Prop29
280
     1
102
RTVSPost2010PropOp29
 70
     1
102
RTVSPost2010Prop30
280
     1
102
RTVSPost2010PropOp30
 70
     1
102
RTVSPost2010Prop31
280
     0
102
RTVSPost2010PropOp31
 70
     1
102
RTVSPost2010Prop32
280
     0
102
RTVSPost2010PropOp32
 70
     1
102
RTVSPost2010Prop33
280
     0
102
RTVSPost2010PropOp33
 70
     1
102
RTVSPost2010Prop34
280
     0
102
RTVSPost2010PropOp34
 70
     1
102
RTVSPost2010Prop35
280
     0
102
RTVSPost2010PropOp35
 70
     1
102
RTVSPost2010Prop36
280
     0
102
RTVSPost2010PropOp36
 70
     1
102
RTVSPost2010Prop37
 90
       50
102
RTVSPost2010PropOp37
 70
     1
102
RTVSPost2010Prop38
140
0.0
102
RTVSPost2010PropOp38
 70
     1
102
RTVSPost2010Prop39
140
1.0
102
RTVSPost2010PropOp39
 70
     1
102
RTVSPost2010Prop40
 90
        0
102
RTVSPost2010PropOp40
 70
     1
102
RTVSPost2010Prop41ColorIndex
 90
       18
102
RTVSPost2010Prop41ColorRGB
 90
        0
102
RTVSPost2010PropOp41
 70
     1
102
RTVSPost2010Prop42
 90
       50
102
RTVSPost2010PropOp42
 70
     1
102
RTVSPost2010Prop43
 90
        3
102
RTVSPost2010PropOp43
 70
     1
102
RTVSPost2010Prop44ColorIndex
 90
        5
102
RTVSPost2010Prop44ColorRGB
 90
      255
102
RTVSPost2010PropOp44
 70
     1
102
RTVSPost2010Prop45
280
     0
102
RTVSPost2010PropOp45
 70
     1
102
RTVSPost2010Prop46
 90
       50
102
RTVSPost2010PropOp46
 70
     1
102
RTVSPost2010Prop47
 90
       50
102
RTVSPost2010PropOp47
 70
     1
102
RTVSPost2010Prop48
 90
       50
102
RTVSPost2010PropOp48
 70
     1
102
RTVSPost2010Prop49
280
     0
102
RTVSPost2010PropOp49
 70
     1
102
RTVSPost2010Prop50
 90
       50
102
RTVSPost2010PropOp50
 70
     1
102
RTVSPost2010Prop51ColorIndex
 90
      256
102
RTVSPost2010Prop51ColorRGB
 90
-16777216
102
RTVSPost2010PropOp51
 70
     0
102
RTVSPost2010Prop52
140
1.0
102
RTVSPost2010PropOp52
 70
     0
102
RTVSPost2010Prop53
 90
        2
102
RTVSPost2010PropOp53
 70
     1
102
RTVSPost2010Prop54
  1
strokes_ogs.tif
102
RTVSPost2010PropOp54
 70
     1
102
RTVSPost2010Prop55
280
     0
102
RTVSPost2010PropOp55
 70
     1
102
RTVSPost2010Prop56
140
1.0
102
RTVSPost2010PropOp56
 70
     1
102
RTVSPost2010Prop57
140
1.0
102
RTVSPost2010PropOp57
 70
     1
102
RTVSPropertyOp0
 70
     1
102
RTVSPropertyOp1
 70
     1
102
RTVSPropertyOp2
 70
     1
102
RTVSPropertyOp3
 70
     1
102
RTVSPropertyOp4
 70
     1
102
RTVSPropertyOp5
 70
     1
102
RTVSPropertyOp6
 70
     1
102
RTVSPropertyOp7
 70
     1
102
RTVSPropertyOp8
 70
     1
102
RTVSPropertyOp9
 70
     1
102
RTVSPropertyOp10
 70
     1
102
RTVSPropertyOp11
 70
     1
102
RTVSPropertyOp12
 70
     1
102
RTVSPropertyOp13
 70
     1
102
RTVSPropertyOp14
 70
     1
102
RTVSPropertyOp15
 70
     1
102
RTVSPropertyOp16
 70
     1
102
RTVSPropertyOp17
 70
     1
102
RTVSPropertyOp18
 70
     1
102
RTVSPropertyOp19
 70
     1
102
RTVSPropertyOp20
 70
     1
102
RTVSPropertyOp21
 70
     1
102
RTVSPropertyOp22
 70
     1
102
RTVSPropertyOp23
 70
     1
102
RTVSPropertyOp24
 70
     1
102
RTVSPropertyOp25
 70
     1
102
RTVSPropertyOp26
 70
     1
102
RTVSPropertyOp27
 70
     1
102
RTVSPropertyOp28
 70
     1
102
RTVSPropertyOp29
 70
     1
102
RTVSPropertyOp30
 70
     1
102
RTVSPropertyOp31
 70
     1
102
RTVSPropertyOp32
 70
     1
102
RTVSPropertyOp33
 70
     1
102
RTVSPropertyOp34
 70
     1
102
RTVSPropertyOp35
 70
     1
102
RTVSPropertyOp36
 70
     1
102
RTVSPropertyOp37
 70
     1
102
RTVSPropertyOp38
 70
     1
102
RTVSPropertyOp39
 70
     1
102
RTVSPropertyOp40
 70
     1
102
RTVSPropertyOp41
 70
     1
102
RTVSPropertyOp42
 70
     1
102
RTVSPropertyOp43
 70
     1
102
RTVSPropertyOp44
 70
     1
102
RTVSPropertyOp45
 70
     1
102
RTVSPropertyOp46
 70
     1
102
RTVSPropertyOp47
 70
     1
102
RTVSPropertyOp48
 70
     1
102
RTVSPropertyOp49
 70
     1
102
RTVSPropertyOp50
 70
     1
102
RTVSPropertyOp51
 70
     0
102
RTVSPropertyOp52
 70
     0
102
RTVSPropertyOp53
 70
     1
102
RTVSPropertyOp54
 70
     1
102
RTVSPropertyOp55
 70
     1
102
RTVSPropertyOp56
 70
     1
102
RTVSPropertyOp57
 70
     1
102
RTVSPropertyOp58
 70
     1
102
RTVSPropertyOp59
 70
     1
102
RTVSPropertyOp60
 70
     1
102
RTVSPropertyOp61
 70
     1
102
RTVSPropertyOp62
 70
     1
  0
XRECORD
  5
25D3
102
{ACAD_REACTORS
330
25D2
102
}
330
25D2
100
AcDbXrecord
280
     1
102
RTVSPost2010Prop28
280
     0
102
RTVSPost2010PropOp28
 70
     1
102
RTVSPost2010Prop29
280
     1
102
RTVSPost2010PropOp29
 70
     1
102
RTVSPost2010Prop30
280
     1
102
RTVSPost2010PropOp30
 70
     1
102
RTVSPost2010Prop31
280
     0
102
RTVSPost2010PropOp31
 70
     1
102
RTVSPost2010Prop32
280
     0
102
RTVSPost2010PropOp32
 70
     1
102
RTVSPost2010Prop33
280
     0
102
RTVSPost2010PropOp33
 70
     1
102
RTVSPost2010Prop34
280
     0
102
RTVSPost2010PropOp34
 70
     1
102
RTVSPost2010Prop35
280
     0
102
RTVSPost2010PropOp35
 70
     1
102
RTVSPost2010Prop36
280
     0
102
RTVSPost2010PropOp36
 70
     1
102
RTVSPost2010Prop37
 90
       50
102
RTVSPost2010PropOp37
 70
     0
102
RTVSPost2010Prop38
140
0.0
102
RTVSPost2010PropOp38
 70
     0
102
RTVSPost2010Prop39
140
1.0
102
RTVSPost2010PropOp39
 70
     0
102
RTVSPost2010Prop40
 90
        0
102
RTVSPost2010PropOp40
 70
     0
102
RTVSPost2010Prop41ColorIndex
 90
       18
102
RTVSPost2010Prop41ColorRGB
 90
        0
102
RTVSPost2010PropOp41
 70
     0
102
RTVSPost2010Prop42
 90
       50
102
RTVSPost2010PropOp42
 70
     0
102
RTVSPost2010Prop43
 90
        3
102
RTVSPost2010PropOp43
 70
     0
102
RTVSPost2010Prop44ColorIndex
 90
        5
102
RTVSPost2010Prop44ColorRGB
 90
      255
102
RTVSPost2010PropOp44
 70
     0
102
RTVSPost2010Prop45
280
     0
102
RTVSPost2010PropOp45
 70
     1
102
RTVSPost2010Prop46
 90
       50
102
RTVSPost2010PropOp46
 70
     0
102
RTVSPost2010Prop47
 90
       50
102
RTVSPost2010PropOp47
 70
     0
102
RTVSPost2010Prop48
 90
       50
102
RTVSPost2010PropOp48
 70
     0
102
RTVSPost2010Prop49
280
     0
102
RTVSPost2010PropOp49
 70
     1
102
RTVSPost2010Prop50
 90
       50
102
RTVSPost2010PropOp50
 70
     0
102
RTVSPost2010Prop51ColorIndex
 90
      256
102
RTVSPost2010Prop51ColorRGB
 90
-16777216
102
RTVSPost2010PropOp51
 70
     0
102
RTVSPost2010Prop52
140
1.0
102
RTVSPost2010PropOp52
 70
     0
102
RTVSPost2010Prop53
 90
        2
102
RTVSPost2010PropOp53
 70
     0
102
RTVSPost2010Prop54
  1
strokes_ogs.tif
102
RTVSPost2010PropOp54
 70
     0
102
RTVSPost2010Prop55
280
     0
102
RTVSPost2010PropOp55
 70
     1
102
RTVSPost2010Prop56
140
1.0
102
RTVSPost2010PropOp56
 70
     0
102
RTVSPost2010Prop57
140
1.0
102
RTVSPost2010PropOp57
 70
     0
102
RTVSPropertyOp0
 70
     0
102
RTVSPropertyOp1
 70
     0
102
RTVSPropertyOp2
 70
     0
102
RTVSPropertyOp3
 70
     0
102
RTVSPropertyOp4
 70
     0
102
RTVSPropertyOp5
 70
     0
102
RTVSPropertyOp6
 70
     0
102
RTVSPropertyOp7
 70
     0
102
RTVSPropertyOp8
 70
     0
102
RTVSPropertyOp9
 70
     0
102
RTVSPropertyOp10
 70
     0
102
RTVSPropertyOp11
 70
     0
102
RTVSPropertyOp12
 70
     0
102
RTVSPropertyOp13
 70
     0
102
RTVSPropertyOp14
 70
     2
102
RTVSPropertyOp15
 70
     0
102
RTVSPropertyOp16
 70
     0
102
RTVSPropertyOp17
 70
     0
102
RTVSPropertyOp18
 70
     0
102
RTVSPropertyOp19
 70
     0
102
RTVSPropertyOp20
 70
     0
102
RTVSPropertyOp21
 70
     0
102
RTVSPropertyOp22
 70
     0
102
RTVSPropertyOp23
 70
     0
102
RTVSPropertyOp24
 70
     0
102
RTVSPropertyOp25
 70
     0
102
RTVSPropertyOp26
 70
     0
102
RTVSPropertyOp27
 70
     0
102
RTVSPropertyOp28
 70
     1
102
RTVSPropertyOp29
 70
     1
102
RTVSPropertyOp30
 70
     1
102
RTVSPropertyOp31
 70
     1
102
RTVSPropertyOp32
 70
     1
102
RTVSPropertyOp33
 70
     1
102
RTVSPropertyOp34
 70
     1
102
RTVSPropertyOp35
 70
     1
102
RTVSPropertyOp36
 70
     1
102
RTVSPropertyOp37
 70
     0
102
RTVSPropertyOp38
 70
     0
102
RTVSPropertyOp39
 70
     0
102
RTVSPropertyOp40
 70
     0
102
RTVSPropertyOp41
 70
     0
102
RTVSPropertyOp42
 70
     0
102
RTVSPropertyOp43
 70
     0
102
RTVSPropertyOp44
 70
     0
102
RTVSPropertyOp45
 70
     1
102
RTVSPropertyOp46
 70
     0
102
RTVSPropertyOp47
 70
     0
102
RTVSPropertyOp48
 70
     0
102
RTVSPropertyOp49
 70
     1
102
RTVSPropertyOp50
 70
     0
102
RTVSPropertyOp51
 70
     0
102
RTVSPropertyOp52
 70
     0
102
RTVSPropertyOp53
 70
     0
102
RTVSPropertyOp54
 70
     0
102
RTVSPropertyOp55
 70
     1
102
RTVSPropertyOp56
 70
     0
102
RTVSPropertyOp57
 70
     0
102
RTVSPropertyOp58
 70
     0
102
RTVSPropertyOp59
 70
     0
102
RTVSPropertyOp60
 70
     0
102
RTVSPropertyOp61
 70
     0
102
RTVSPropertyOp62
 70
     0
  0
XRECORD
  5
25C3
102
{ACAD_REACTORS
330
25C2
102
}
330
25C2
100
AcDbXrecord
280
     1
102
RTVSPost2010Prop28
280
     0
102
RTVSPost2010PropOp28
 70
     1
102
RTVSPost2010Prop29
280
     1
102
RTVSPost2010PropOp29
 70
     1
102
RTVSPost2010Prop30
280
     1
102
RTVSPost2010PropOp30
 70
     1
102
RTVSPost2010Prop31
280
     0
102
RTVSPost2010PropOp31
 70
     1
102
RTVSPost2010Prop32
280
     0
102
RTVSPost2010PropOp32
 70
     1
102
RTVSPost2010Prop33
280
     0
102
RTVSPost2010PropOp33
 70
     1
102
RTVSPost2010Prop34
280
     0
102
RTVSPost2010PropOp34
 70
     1
102
RTVSPost2010Prop35
280
     0
102
RTVSPost2010PropOp35
 70
     1
102
RTVSPost2010Prop36
280
     0
102
RTVSPost2010PropOp36
 70
     1
102
RTVSPost2010Prop37
 90
       50
102
RTVSPost2010PropOp37
 70
     1
102
RTVSPost2010Prop38
140
0.0
102
RTVSPost2010PropOp38
 70
     1
102
RTVSPost2010Prop39
140
1.0
102
RTVSPost2010PropOp39
 70
     1
102
RTVSPost2010Prop40
 90
        0
102
RTVSPost2010PropOp40
 70
     1
102
RTVSPost2010Prop41ColorIndex
 90
       18
102
RTVSPost2010Prop41ColorRGB
 90
        0
102
RTVSPost2010PropOp41
 70
     1
102
RTVSPost2010Prop42
 90
       50
102
RTVSPost2010PropOp42
 70
     1
102
RTVSPost2010Prop43
 90
        3
102
RTVSPost2010PropOp43
 70
     1
102
RTVSPost2010Prop44ColorIndex
 90
        5
102
RTVSPost2010Prop44ColorRGB
 90
      255
102
RTVSPost2010PropOp44
 70
     1
102
RTVSPost2010Prop45
280
     0
102
RTVSPost2010PropOp45
 70
     1
102
RTVSPost2010Prop46
 90
       50
102
RTVSPost2010PropOp46
 70
     1
102
RTVSPost2010Prop47
 90
       50
102
RTVSPost2010PropOp47
 70
     1
102
RTVSPost2010Prop48
 90
       50
102
RTVSPost2010PropOp48
 70
     1
102
RTVSPost2010Prop49
280
     0
102
RTVSPost2010PropOp49
 70
     1
102
RTVSPost2010Prop50
 90
       50
102
RTVSPost2010PropOp50
 70
     1
102
RTVSPost2010Prop51ColorIndex
 90
      256
102
RTVSPost2010Prop51ColorRGB
 90
-16777216
102
RTVSPost2010PropOp51
 70
     0
102
RTVSPost2010Prop52
140
1.0
102
RTVSPost2010PropOp52
 70
     0
102
RTVSPost2010Prop53
 90
        2
102
RTVSPost2010PropOp53
 70
     1
102
RTVSPost2010Prop54
  1
strokes_ogs.tif
102
RTVSPost2010PropOp54
 70
     1
102
RTVSPost2010Prop55
280
     0
102
RTVSPost2010PropOp55
 70
     1
102
RTVSPost2010Prop56
140
1.0
102
RTVSPost2010PropOp56
 70
     1
102
RTVSPost2010Prop57
140
1.0
102
RTVSPost2010PropOp57
 70
     1
102
RTVSPropertyOp0
 70
     1
102
RTVSPropertyOp1
 70
     1
102
RTVSPropertyOp2
 70
     1
102
RTVSPropertyOp3
 70
     1
102
RTVSPropertyOp4
 70
     1
102
RTVSPropertyOp5
 70
     1
102
RTVSPropertyOp6
 70
     1
102
RTVSPropertyOp7
 70
     1
102
RTVSPropertyOp8
 70
     1
102
RTVSPropertyOp9
 70
     1
102
RTVSPropertyOp10
 70
     1
102
RTVSPropertyOp11
 70
     1
102
RTVSPropertyOp12
 70
     1
102
RTVSPropertyOp13
 70
     1
102
RTVSPropertyOp14
 70
     1
102
RTVSPropertyOp15
 70
     1
102
RTVSPropertyOp16
 70
     1
102
RTVSPropertyOp17
 70
     1
102
RTVSPropertyOp18
 70
     1
102
RTVSPropertyOp19
 70
     1
102
RTVSPropertyOp20
 70
     1
102
RTVSPropertyOp21
 70
     1
102
RTVSPropertyOp22
 70
     1
102
RTVSPropertyOp23
 70
     1
102
RTVSPropertyOp24
 70
     1
102
RTVSPropertyOp25
 70
     1
102
RTVSPropertyOp26
 70
     1
102
RTVSPropertyOp27
 70
     1
102
RTVSPropertyOp28
 70
     1
102
RTVSPropertyOp29
 70
     1
102
RTVSPropertyOp30
 70
     1
102
RTVSPropertyOp31
 70
     1
102
RTVSPropertyOp32
 70
     1
102
RTVSPropertyOp33
 70
     1
102
RTVSPropertyOp34
 70
     1
102
RTVSPropertyOp35
 70
     1
102
RTVSPropertyOp36
 70
     1
102
RTVSPropertyOp37
 70
     1
102
RTVSPropertyOp38
 70
     1
102
RTVSPropertyOp39
 70
     1
102
RTVSPropertyOp40
 70
     1
102
RTVSPropertyOp41
 70
     1
102
RTVSPropertyOp42
 70
     1
102
RTVSPropertyOp43
 70
     1
102
RTVSPropertyOp44
 70
     1
102
RTVSPropertyOp45
 70
     1
102
RTVSPropertyOp46
 70
     1
102
RTVSPropertyOp47
 70
     1
102
RTVSPropertyOp48
 70
     1
102
RTVSPropertyOp49
 70
     1
102
RTVSPropertyOp50
 70
     1
102
RTVSPropertyOp51
 70
     0
102
RTVSPropertyOp52
 70
     0
102
RTVSPropertyOp53
 70
     1
102
RTVSPropertyOp54
 70
     1
102
RTVSPropertyOp55
 70
     1
102
RTVSPropertyOp56
 70
     1
102
RTVSPropertyOp57
 70
     1
102
RTVSPropertyOp58
 70
     1
102
RTVSPropertyOp59
 70
     1
102
RTVSPropertyOp60
 70
     1
102
RTVSPropertyOp61
 70
     1
102
RTVSPropertyOp62
 70
     1
  0
XRECORD
  5
25D5
102
{ACAD_REACTORS
330
25D4
102
}
330
25D4
100
AcDbXrecord
280
     1
102
RTVSPost2010Prop28
280
     0
102
RTVSPost2010PropOp28
 70
     1
102
RTVSPost2010Prop29
280
     1
102
RTVSPost2010PropOp29
 70
     1
102
RTVSPost2010Prop30
280
     1
102
RTVSPost2010PropOp30
 70
     1
102
RTVSPost2010Prop31
280
     0
102
RTVSPost2010PropOp31
 70
     1
102
RTVSPost2010Prop32
280
     0
102
RTVSPost2010PropOp32
 70
     1
102
RTVSPost2010Prop33
280
     0
102
RTVSPost2010PropOp33
 70
     1
102
RTVSPost2010Prop34
280
     0
102
RTVSPost2010PropOp34
 70
     1
102
RTVSPost2010Prop35
280
     0
102
RTVSPost2010PropOp35
 70
     1
102
RTVSPost2010Prop36
280
     0
102
RTVSPost2010PropOp36
 70
     1
102
RTVSPost2010Prop37
 90
       50
102
RTVSPost2010PropOp37
 70
     0
102
RTVSPost2010Prop38
140
0.0
102
RTVSPost2010PropOp38
 70
     0
102
RTVSPost2010Prop39
140
1.0
102
RTVSPost2010PropOp39
 70
     0
102
RTVSPost2010Prop40
 90
        0
102
RTVSPost2010PropOp40
 70
     0
102
RTVSPost2010Prop41ColorIndex
 90
       18
102
RTVSPost2010Prop41ColorRGB
 90
        0
102
RTVSPost2010PropOp41
 70
     0
102
RTVSPost2010Prop42
 90
       50
102
RTVSPost2010PropOp42
 70
     0
102
RTVSPost2010Prop43
 90
        3
102
RTVSPost2010PropOp43
 70
     0
102
RTVSPost2010Prop44ColorIndex
 90
        5
102
RTVSPost2010Prop44ColorRGB
 90
      255
102
RTVSPost2010PropOp44
 70
     0
102
RTVSPost2010Prop45
280
     0
102
RTVSPost2010PropOp45
 70
     1
102
RTVSPost2010Prop46
 90
       50
102
RTVSPost2010PropOp46
 70
     0
102
RTVSPost2010Prop47
 90
       50
102
RTVSPost2010PropOp47
 70
     0
102
RTVSPost2010Prop48
 90
       50
102
RTVSPost2010PropOp48
 70
     0
102
RTVSPost2010Prop49
280
     0
102
RTVSPost2010PropOp49
 70
     1
102
RTVSPost2010Prop50
 90
       50
102
RTVSPost2010PropOp50
 70
     0
102
RTVSPost2010Prop51ColorIndex
 90
      256
102
RTVSPost2010Prop51ColorRGB
 90
-16777216
102
RTVSPost2010PropOp51
 70
     0
102
RTVSPost2010Prop52
140
1.0
102
RTVSPost2010PropOp52
 70
     0
102
RTVSPost2010Prop53
 90
        2
102
RTVSPost2010PropOp53
 70
     0
102
RTVSPost2010Prop54
  1
strokes_ogs.tif
102
RTVSPost2010PropOp54
 70
     0
102
RTVSPost2010Prop55
280
     0
102
RTVSPost2010PropOp55
 70
     1
102
RTVSPost2010Prop56
140
1.0
102
RTVSPost2010PropOp56
 70
     0
102
RTVSPost2010Prop57
140
1.0
102
RTVSPost2010PropOp57
 70
     0
102
RTVSPropertyOp0
 70
     0
102
RTVSPropertyOp1
 70
     0
102
RTVSPropertyOp2
 70
     0
102
RTVSPropertyOp3
 70
     0
102
RTVSPropertyOp4
 70
     0
102
RTVSPropertyOp5
 70
     0
102
RTVSPropertyOp6
 70
     0
102
RTVSPropertyOp7
 70
     0
102
RTVSPropertyOp8
 70
     0
102
RTVSPropertyOp9
 70
     0
102
RTVSPropertyOp10
 70
     0
102
RTVSPropertyOp11
 70
     0
102
RTVSPropertyOp12
 70
     0
102
RTVSPropertyOp13
 70
     0
102
RTVSPropertyOp14
 70
     2
102
RTVSPropertyOp15
 70
     0
102
RTVSPropertyOp16
 70
     0
102
RTVSPropertyOp17
 70
     0
102
RTVSPropertyOp18
 70
     0
102
RTVSPropertyOp19
 70
     0
102
RTVSPropertyOp20
 70
     0
102
RTVSPropertyOp21
 70
     0
102
RTVSPropertyOp22
 70
     0
102
RTVSPropertyOp23
 70
     0
102
RTVSPropertyOp24
 70
     0
102
RTVSPropertyOp25
 70
     0
102
RTVSPropertyOp26
 70
     0
102
RTVSPropertyOp27
 70
     0
102
RTVSPropertyOp28
 70
     1
102
RTVSPropertyOp29
 70
     1
102
RTVSPropertyOp30
 70
     1
102
RTVSPropertyOp31
 70
     1
102
RTVSPropertyOp32
 70
     1
102
RTVSPropertyOp33
 70
     1
102
RTVSPropertyOp34
 70
     1
102
RTVSPropertyOp35
 70
     1
102
RTVSPropertyOp36
 70
     1
102
RTVSPropertyOp37
 70
     0
102
RTVSPropertyOp38
 70
     0
102
RTVSPropertyOp39
 70
     0
102
RTVSPropertyOp40
 70
     0
102
RTVSPropertyOp41
 70
     0
102
RTVSPropertyOp42
 70
     0
102
RTVSPropertyOp43
 70
     0
102
RTVSPropertyOp44
 70
     0
102
RTVSPropertyOp45
 70
     1
102
RTVSPropertyOp46
 70
     0
102
RTVSPropertyOp47
 70
     0
102
RTVSPropertyOp48
 70
     0
102
RTVSPropertyOp49
 70
     1
102
RTVSPropertyOp50
 70
     0
102
RTVSPropertyOp51
 70
     0
102
RTVSPropertyOp52
 70
     0
102
RTVSPropertyOp53
 70
     0
102
RTVSPropertyOp54
 70
     0
102
RTVSPropertyOp55
 70
     1
102
RTVSPropertyOp56
 70
     0
102
RTVSPropertyOp57
 70
     0
102
RTVSPropertyOp58
 70
     0
102
RTVSPropertyOp59
 70
     0
102
RTVSPropertyOp60
 70
     0
102
RTVSPropertyOp61
 70
     0
102
RTVSPropertyOp62
 70
     0
  0
XRECORD
  5
25BB
102
{ACAD_REACTORS
330
25BA
102
}
330
25BA
100
AcDbXrecord
280
     1
102
RTVSPost2010Prop28
280
     0
102
RTVSPost2010PropOp28
 70
     1
102
RTVSPost2010Prop29
280
     1
102
RTVSPost2010PropOp29
 70
     1
102
RTVSPost2010Prop30
280
     1
102
RTVSPost2010PropOp30
 70
     1
102
RTVSPost2010Prop31
280
     0
102
RTVSPost2010PropOp31
 70
     1
102
RTVSPost2010Prop32
280
     0
102
RTVSPost2010PropOp32
 70
     1
102
RTVSPost2010Prop33
280
     0
102
RTVSPost2010PropOp33
 70
     1
102
RTVSPost2010Prop34
280
     0
102
RTVSPost2010PropOp34
 70
     1
102
RTVSPost2010Prop35
280
     0
102
RTVSPost2010PropOp35
 70
     1
102
RTVSPost2010Prop36
280
     0
102
RTVSPost2010PropOp36
 70
     1
102
RTVSPost2010Prop37
 90
       50
102
RTVSPost2010PropOp37
 70
     1
102
RTVSPost2010Prop38
140
0.0
102
RTVSPost2010PropOp38
 70
     1
102
RTVSPost2010Prop39
140
1.0
102
RTVSPost2010PropOp39
 70
     1
102
RTVSPost2010Prop40
 90
        0
102
RTVSPost2010PropOp40
 70
     1
102
RTVSPost2010Prop41ColorIndex
 90
       18
102
RTVSPost2010Prop41ColorRGB
 90
        0
102
RTVSPost2010PropOp41
 70
     1
102
RTVSPost2010Prop42
 90
       50
102
RTVSPost2010PropOp42
 70
     1
102
RTVSPost2010Prop43
 90
        3
102
RTVSPost2010PropOp43
 70
     1
102
RTVSPost2010Prop44ColorIndex
 90
        5
102
RTVSPost2010Prop44ColorRGB
 90
      255
102
RTVSPost2010PropOp44
 70
     1
102
RTVSPost2010Prop45
280
     0
102
RTVSPost2010PropOp45
 70
     1
102
RTVSPost2010Prop46
 90
       50
102
RTVSPost2010PropOp46
 70
     1
102
RTVSPost2010Prop47
 90
       50
102
RTVSPost2010PropOp47
 70
     1
102
RTVSPost2010Prop48
 90
       50
102
RTVSPost2010PropOp48
 70
     1
102
RTVSPost2010Prop49
280
     0
102
RTVSPost2010PropOp49
 70
     1
102
RTVSPost2010Prop50
 90
       50
102
RTVSPost2010PropOp50
 70
     1
102
RTVSPost2010Prop51ColorIndex
 90
      256
102
RTVSPost2010Prop51ColorRGB
 90
-16777216
102
RTVSPost2010PropOp51
 70
     0
102
RTVSPost2010Prop52
140
1.0
102
RTVSPost2010PropOp52
 70
     0
102
RTVSPost2010Prop53
 90
        2
102
RTVSPost2010PropOp53
 70
     1
102
RTVSPost2010Prop54
  1
strokes_ogs.tif
102
RTVSPost2010PropOp54
 70
     1
102
RTVSPost2010Prop55
280
     0
102
RTVSPost2010PropOp55
 70
     1
102
RTVSPost2010Prop56
140
1.0
102
RTVSPost2010PropOp56
 70
     1
102
RTVSPost2010Prop57
140
1.0
102
RTVSPost2010PropOp57
 70
     1
102
RTVSPropertyOp0
 70
     1
102
RTVSPropertyOp1
 70
     1
102
RTVSPropertyOp2
 70
     1
102
RTVSPropertyOp3
 70
     1
102
RTVSPropertyOp4
 70
     1
102
RTVSPropertyOp5
 70
     1
102
RTVSPropertyOp6
 70
     1
102
RTVSPropertyOp7
 70
     1
102
RTVSPropertyOp8
 70
     1
102
RTVSPropertyOp9
 70
     1
102
RTVSPropertyOp10
 70
     1
102
RTVSPropertyOp11
 70
     1
102
RTVSPropertyOp12
 70
     1
102
RTVSPropertyOp13
 70
     1
102
RTVSPropertyOp14
 70
     1
102
RTVSPropertyOp15
 70
     1
102
RTVSPropertyOp16
 70
     1
102
RTVSPropertyOp17
 70
     1
102
RTVSPropertyOp18
 70
     1
102
RTVSPropertyOp19
 70
     1
102
RTVSPropertyOp20
 70
     1
102
RTVSPropertyOp21
 70
     1
102
RTVSPropertyOp22
 70
     1
102
RTVSPropertyOp23
 70
     1
102
RTVSPropertyOp24
 70
     1
102
RTVSPropertyOp25
 70
     1
102
RTVSPropertyOp26
 70
     1
102
RTVSPropertyOp27
 70
     1
102
RTVSPropertyOp28
 70
     1
102
RTVSPropertyOp29
 70
     1
102
RTVSPropertyOp30
 70
     1
102
RTVSPropertyOp31
 70
     1
102
RTVSPropertyOp32
 70
     1
102
RTVSPropertyOp33
 70
     1
102
RTVSPropertyOp34
 70
     1
102
RTVSPropertyOp35
 70
     1
102
RTVSPropertyOp36
 70
     1
102
RTVSPropertyOp37
 70
     1
102
RTVSPropertyOp38
 70
     1
102
RTVSPropertyOp39
 70
     1
102
RTVSPropertyOp40
 70
     1
102
RTVSPropertyOp41
 70
     1
102
RTVSPropertyOp42
 70
     1
102
RTVSPropertyOp43
 70
     1
102
RTVSPropertyOp44
 70
     1
102
RTVSPropertyOp45
 70
     1
102
RTVSPropertyOp46
 70
     1
102
RTVSPropertyOp47
 70
     1
102
RTVSPropertyOp48
 70
     1
102
RTVSPropertyOp49
 70
     1
102
RTVSPropertyOp50
 70
     1
102
RTVSPropertyOp51
 70
     0
102
RTVSPropertyOp52
 70
     0
102
RTVSPropertyOp53
 70
     1
102
RTVSPropertyOp54
 70
     1
102
RTVSPropertyOp55
 70
     1
102
RTVSPropertyOp56
 70
     1
102
RTVSPropertyOp57
 70
     1
102
RTVSPropertyOp58
 70
     1
102
RTVSPropertyOp59
 70
     1
102
RTVSPropertyOp60
 70
     1
102
RTVSPropertyOp61
 70
     1
102
RTVSPropertyOp62
 70
     1
  0
XRECORD
  5
25D1
102
{ACAD_REACTORS
330
25D0
102
}
330
25D0
100
AcDbXrecord
280
     1
102
RTVSPost2010Prop28
280
     0
102
RTVSPost2010PropOp28
 70
     1
102
RTVSPost2010Prop29
280
     1
102
RTVSPost2010PropOp29
 70
     1
102
RTVSPost2010Prop30
280
     1
102
RTVSPost2010PropOp30
 70
     1
102
RTVSPost2010Prop31
280
     0
102
RTVSPost2010PropOp31
 70
     1
102
RTVSPost2010Prop32
280
     0
102
RTVSPost2010PropOp32
 70
     1
102
RTVSPost2010Prop33
280
     0
102
RTVSPost2010PropOp33
 70
     1
102
RTVSPost2010Prop34
280
     0
102
RTVSPost2010PropOp34
 70
     1
102
RTVSPost2010Prop35
280
     0
102
RTVSPost2010PropOp35
 70
     1
102
RTVSPost2010Prop36
280
     0
102
RTVSPost2010PropOp36
 70
     1
102
RTVSPost2010Prop37
 90
       50
102
RTVSPost2010PropOp37
 70
     1
102
RTVSPost2010Prop38
140
0.0
102
RTVSPost2010PropOp38
 70
     1
102
RTVSPost2010Prop39
140
1.0
102
RTVSPost2010PropOp39
 70
     1
102
RTVSPost2010Prop40
 90
        0
102
RTVSPost2010PropOp40
 70
     1
102
RTVSPost2010Prop41ColorIndex
 90
       18
102
RTVSPost2010Prop41ColorRGB
 90
        0
102
RTVSPost2010PropOp41
 70
     1
102
RTVSPost2010Prop42
 90
       50
102
RTVSPost2010PropOp42
 70
     1
102
RTVSPost2010Prop43
 90
        3
102
RTVSPost2010PropOp43
 70
     1
102
RTVSPost2010Prop44ColorIndex
 90
        5
102
RTVSPost2010Prop44ColorRGB
 90
      255
102
RTVSPost2010PropOp44
 70
     1
102
RTVSPost2010Prop45
280
     0
102
RTVSPost2010PropOp45
 70
     1
102
RTVSPost2010Prop46
 90
       50
102
RTVSPost2010PropOp46
 70
     1
102
RTVSPost2010Prop47
 90
       50
102
RTVSPost2010PropOp47
 70
     1
102
RTVSPost2010Prop48
 90
       50
102
RTVSPost2010PropOp48
 70
     1
102
RTVSPost2010Prop49
280
     0
102
RTVSPost2010PropOp49
 70
     1
102
RTVSPost2010Prop50
 90
       50
102
RTVSPost2010PropOp50
 70
     1
102
RTVSPost2010Prop51ColorIndex
 90
      256
102
RTVSPost2010Prop51ColorRGB
 90
-16777216
102
RTVSPost2010PropOp51
 70
     0
102
RTVSPost2010Prop52
140
1.0
102
RTVSPost2010PropOp52
 70
     0
102
RTVSPost2010Prop53
 90
        2
102
RTVSPost2010PropOp53
 70
     1
102
RTVSPost2010Prop54
  1
strokes_ogs.tif
102
RTVSPost2010PropOp54
 70
     1
102
RTVSPost2010Prop55
280
     0
102
RTVSPost2010PropOp55
 70
     1
102
RTVSPost2010Prop56
140
1.0
102
RTVSPost2010PropOp56
 70
     1
102
RTVSPost2010Prop57
140
1.0
102
RTVSPost2010PropOp57
 70
     1
102
RTVSPropertyOp0
 70
     1
102
RTVSPropertyOp1
 70
     1
102
RTVSPropertyOp2
 70
     1
102
RTVSPropertyOp3
 70
     1
102
RTVSPropertyOp4
 70
     1
102
RTVSPropertyOp5
 70
     1
102
RTVSPropertyOp6
 70
     1
102
RTVSPropertyOp7
 70
     1
102
RTVSPropertyOp8
 70
     1
102
RTVSPropertyOp9
 70
     1
102
RTVSPropertyOp10
 70
     1
102
RTVSPropertyOp11
 70
     1
102
RTVSPropertyOp12
 70
     1
102
RTVSPropertyOp13
 70
     1
102
RTVSPropertyOp14
 70
     1
102
RTVSPropertyOp15
 70
     1
102
RTVSPropertyOp16
 70
     1
102
RTVSPropertyOp17
 70
     1
102
RTVSPropertyOp18
 70
     1
102
RTVSPropertyOp19
 70
     1
102
RTVSPropertyOp20
 70
     1
102
RTVSPropertyOp21
 70
     1
102
RTVSPropertyOp22
 70
     1
102
RTVSPropertyOp23
 70
     1
102
RTVSPropertyOp24
 70
     1
102
RTVSPropertyOp25
 70
     1
102
RTVSPropertyOp26
 70
     1
102
RTVSPropertyOp27
 70
     1
102
RTVSPropertyOp28
 70
     1
102
RTVSPropertyOp29
 70
     1
102
RTVSPropertyOp30
 70
     1
102
RTVSPropertyOp31
 70
     1
102
RTVSPropertyOp32
 70
     1
102
RTVSPropertyOp33
 70
     1
102
RTVSPropertyOp34
 70
     1
102
RTVSPropertyOp35
 70
     1
102
RTVSPropertyOp36
 70
     1
102
RTVSPropertyOp37
 70
     1
102
RTVSPropertyOp38
 70
     1
102
RTVSPropertyOp39
 70
     1
102
RTVSPropertyOp40
 70
     1
102
RTVSPropertyOp41
 70
     1
102
RTVSPropertyOp42
 70
     1
102
RTVSPropertyOp43
 70
     1
102
RTVSPropertyOp44
 70
     1
102
RTVSPropertyOp45
 70
     1
102
RTVSPropertyOp46
 70
     1
102
RTVSPropertyOp47
 70
     1
102
RTVSPropertyOp48
 70
     1
102
RTVSPropertyOp49
 70
     1
102
RTVSPropertyOp50
 70
     1
102
RTVSPropertyOp51
 70
     0
102
RTVSPropertyOp52
 70
     0
102
RTVSPropertyOp53
 70
     1
102
RTVSPropertyOp54
 70
     1
102
RTVSPropertyOp55
 70
     1
102
RTVSPropertyOp56
 70
     1
102
RTVSPropertyOp57
 70
     1
102
RTVSPropertyOp58
 70
     1
102
RTVSPropertyOp59
 70
     1
102
RTVSPropertyOp60
 70
     1
102
RTVSPropertyOp61
 70
     1
102
RTVSPropertyOp62
 70
     1
  0
XRECORD
  5
25CF
102
{ACAD_REACTORS
330
25CE
102
}
330
25CE
100
AcDbXrecord
280
     1
102
RTVSPost2010Prop28
280
     0
102
RTVSPost2010PropOp28
 70
     1
102
RTVSPost2010Prop29
280
     1
102
RTVSPost2010PropOp29
 70
     1
102
RTVSPost2010Prop30
280
     1
102
RTVSPost2010PropOp30
 70
     1
102
RTVSPost2010Prop31
280
     0
102
RTVSPost2010PropOp31
 70
     1
102
RTVSPost2010Prop32
280
     0
102
RTVSPost2010PropOp32
 70
     1
102
RTVSPost2010Prop33
280
     0
102
RTVSPost2010PropOp33
 70
     1
102
RTVSPost2010Prop34
280
     0
102
RTVSPost2010PropOp34
 70
     1
102
RTVSPost2010Prop35
280
     0
102
RTVSPost2010PropOp35
 70
     1
102
RTVSPost2010Prop36
280
     0
102
RTVSPost2010PropOp36
 70
     1
102
RTVSPost2010Prop37
 90
       50
102
RTVSPost2010PropOp37
 70
     1
102
RTVSPost2010Prop38
140
0.0
102
RTVSPost2010PropOp38
 70
     1
102
RTVSPost2010Prop39
140
1.0
102
RTVSPost2010PropOp39
 70
     1
102
RTVSPost2010Prop40
 90
        0
102
RTVSPost2010PropOp40
 70
     1
102
RTVSPost2010Prop41ColorIndex
 90
       18
102
RTVSPost2010Prop41ColorRGB
 90
        0
102
RTVSPost2010PropOp41
 70
     1
102
RTVSPost2010Prop42
 90
       50
102
RTVSPost2010PropOp42
 70
     1
102
RTVSPost2010Prop43
 90
        3
102
RTVSPost2010PropOp43
 70
     1
102
RTVSPost2010Prop44ColorIndex
 90
        5
102
RTVSPost2010Prop44ColorRGB
 90
      255
102
RTVSPost2010PropOp44
 70
     1
102
RTVSPost2010Prop45
280
     0
102
RTVSPost2010PropOp45
 70
     1
102
RTVSPost2010Prop46
 90
       50
102
RTVSPost2010PropOp46
 70
     1
102
RTVSPost2010Prop47
 90
       50
102
RTVSPost2010PropOp47
 70
     1
102
RTVSPost2010Prop48
 90
       50
102
RTVSPost2010PropOp48
 70
     1
102
RTVSPost2010Prop49
280
     0
102
RTVSPost2010PropOp49
 70
     1
102
RTVSPost2010Prop50
 90
       50
102
RTVSPost2010PropOp50
 70
     1
102
RTVSPost2010Prop51ColorIndex
 90
      256
102
RTVSPost2010Prop51ColorRGB
 90
-16777216
102
RTVSPost2010PropOp51
 70
     0
102
RTVSPost2010Prop52
140
1.0
102
RTVSPost2010PropOp52
 70
     0
102
RTVSPost2010Prop53
 90
        2
102
RTVSPost2010PropOp53
 70
     1
102
RTVSPost2010Prop54
  1
strokes_ogs.tif
102
RTVSPost2010PropOp54
 70
     1
102
RTVSPost2010Prop55
280
     0
102
RTVSPost2010PropOp55
 70
     1
102
RTVSPost2010Prop56
140
1.0
102
RTVSPost2010PropOp56
 70
     1
102
RTVSPost2010Prop57
140
1.0
102
RTVSPost2010PropOp57
 70
     1
102
RTVSPropertyOp0
 70
     1
102
RTVSPropertyOp1
 70
     1
102
RTVSPropertyOp2
 70
     1
102
RTVSPropertyOp3
 70
     1
102
RTVSPropertyOp4
 70
     1
102
RTVSPropertyOp5
 70
     1
102
RTVSPropertyOp6
 70
     1
102
RTVSPropertyOp7
 70
     1
102
RTVSPropertyOp8
 70
     1
102
RTVSPropertyOp9
 70
     1
102
RTVSPropertyOp10
 70
     1
102
RTVSPropertyOp11
 70
     1
102
RTVSPropertyOp12
 70
     1
102
RTVSPropertyOp13
 70
     1
102
RTVSPropertyOp14
 70
     1
102
RTVSPropertyOp15
 70
     1
102
RTVSPropertyOp16
 70
     1
102
RTVSPropertyOp17
 70
     1
102
RTVSPropertyOp18
 70
     1
102
RTVSPropertyOp19
 70
     1
102
RTVSPropertyOp20
 70
     1
102
RTVSPropertyOp21
 70
     1
102
RTVSPropertyOp22
 70
     1
102
RTVSPropertyOp23
 70
     1
102
RTVSPropertyOp24
 70
     1
102
RTVSPropertyOp25
 70
     1
102
RTVSPropertyOp26
 70
     1
102
RTVSPropertyOp27
 70
     1
102
RTVSPropertyOp28
 70
     1
102
RTVSPropertyOp29
 70
     1
102
RTVSPropertyOp30
 70
     1
102
RTVSPropertyOp31
 70
     1
102
RTVSPropertyOp32
 70
     1
102
RTVSPropertyOp33
 70
     1
102
RTVSPropertyOp34
 70
     1
102
RTVSPropertyOp35
 70
     1
102
RTVSPropertyOp36
 70
     1
102
RTVSPropertyOp37
 70
     1
102
RTVSPropertyOp38
 70
     1
102
RTVSPropertyOp39
 70
     1
102
RTVSPropertyOp40
 70
     1
102
RTVSPropertyOp41
 70
     1
102
RTVSPropertyOp42
 70
     1
102
RTVSPropertyOp43
 70
     1
102
RTVSPropertyOp44
 70
     1
102
RTVSPropertyOp45
 70
     1
102
RTVSPropertyOp46
 70
     1
102
RTVSPropertyOp47
 70
     1
102
RTVSPropertyOp48
 70
     1
102
RTVSPropertyOp49
 70
     1
102
RTVSPropertyOp50
 70
     1
102
RTVSPropertyOp51
 70
     0
102
RTVSPropertyOp52
 70
     0
102
RTVSPropertyOp53
 70
     1
102
RTVSPropertyOp54
 70
     1
102
RTVSPropertyOp55
 70
     1
102
RTVSPropertyOp56
 70
     1
102
RTVSPropertyOp57
 70
     1
102
RTVSPropertyOp58
 70
     1
102
RTVSPropertyOp59
 70
     1
102
RTVSPropertyOp60
 70
     1
102
RTVSPropertyOp61
 70
     1
102
RTVSPropertyOp62
 70
     1
  0
XRECORD
  5
25C9
102
{ACAD_REACTORS
330
25C8
102
}
330
25C8
100
AcDbXrecord
280
     1
102
RTVSPost2010Prop28
280
     0
102
RTVSPost2010PropOp28
 70
     1
102
RTVSPost2010Prop29
280
     1
102
RTVSPost2010PropOp29
 70
     1
102
RTVSPost2010Prop30
280
     1
102
RTVSPost2010PropOp30
 70
     1
102
RTVSPost2010Prop31
280
     0
102
RTVSPost2010PropOp31
 70
     1
102
RTVSPost2010Prop32
280
     0
102
RTVSPost2010PropOp32
 70
     1
102
RTVSPost2010Prop33
280
     0
102
RTVSPost2010PropOp33
 70
     1
102
RTVSPost2010Prop34
280
     0
102
RTVSPost2010PropOp34
 70
     1
102
RTVSPost2010Prop35
280
     0
102
RTVSPost2010PropOp35
 70
     1
102
RTVSPost2010Prop36
280
     0
102
RTVSPost2010PropOp36
 70
     1
102
RTVSPost2010Prop37
 90
       50
102
RTVSPost2010PropOp37
 70
     1
102
RTVSPost2010Prop38
140
0.0
102
RTVSPost2010PropOp38
 70
     1
102
RTVSPost2010Prop39
140
1.0
102
RTVSPost2010PropOp39
 70
     1
102
RTVSPost2010Prop40
 90
        0
102
RTVSPost2010PropOp40
 70
     1
102
RTVSPost2010Prop41ColorIndex
 90
       18
102
RTVSPost2010Prop41ColorRGB
 90
        0
102
RTVSPost2010PropOp41
 70
     1
102
RTVSPost2010Prop42
 90
       50
102
RTVSPost2010PropOp42
 70
     1
102
RTVSPost2010Prop43
 90
        3
102
RTVSPost2010PropOp43
 70
     1
102
RTVSPost2010Prop44ColorIndex
 90
        5
102
RTVSPost2010Prop44ColorRGB
 90
      255
102
RTVSPost2010PropOp44
 70
     1
102
RTVSPost2010Prop45
280
     0
102
RTVSPost2010PropOp45
 70
     1
102
RTVSPost2010Prop46
 90
       50
102
RTVSPost2010PropOp46
 70
     1
102
RTVSPost2010Prop47
 90
       50
102
RTVSPost2010PropOp47
 70
     1
102
RTVSPost2010Prop48
 90
       50
102
RTVSPost2010PropOp48
 70
     1
102
RTVSPost2010Prop49
280
     0
102
RTVSPost2010PropOp49
 70
     1
102
RTVSPost2010Prop50
 90
       50
102
RTVSPost2010PropOp50
 70
     1
102
RTVSPost2010Prop51ColorIndex
 90
      256
102
RTVSPost2010Prop51ColorRGB
 90
-16777216
102
RTVSPost2010PropOp51
 70
     0
102
RTVSPost2010Prop52
140
1.0
102
RTVSPost2010PropOp52
 70
     0
102
RTVSPost2010Prop53
 90
        2
102
RTVSPost2010PropOp53
 70
     1
102
RTVSPost2010Prop54
  1
strokes_ogs.tif
102
RTVSPost2010PropOp54
 70
     1
102
RTVSPost2010Prop55
280
     0
102
RTVSPost2010PropOp55
 70
     1
102
RTVSPost2010Prop56
140
1.0
102
RTVSPost2010PropOp56
 70
     1
102
RTVSPost2010Prop57
140
1.0
102
RTVSPost2010PropOp57
 70
     1
102
RTVSPropertyOp0
 70
     1
102
RTVSPropertyOp1
 70
     1
102
RTVSPropertyOp2
 70
     1
102
RTVSPropertyOp3
 70
     1
102
RTVSPropertyOp4
 70
     1
102
RTVSPropertyOp5
 70
     1
102
RTVSPropertyOp6
 70
     1
102
RTVSPropertyOp7
 70
     1
102
RTVSPropertyOp8
 70
     1
102
RTVSPropertyOp9
 70
     1
102
RTVSPropertyOp10
 70
     1
102
RTVSPropertyOp11
 70
     1
102
RTVSPropertyOp12
 70
     1
102
RTVSPropertyOp13
 70
     1
102
RTVSPropertyOp14
 70
     1
102
RTVSPropertyOp15
 70
     1
102
RTVSPropertyOp16
 70
     1
102
RTVSPropertyOp17
 70
     1
102
RTVSPropertyOp18
 70
     1
102
RTVSPropertyOp19
 70
     1
102
RTVSPropertyOp20
 70
     1
102
RTVSPropertyOp21
 70
     1
102
RTVSPropertyOp22
 70
     1
102
RTVSPropertyOp23
 70
     1
102
RTVSPropertyOp24
 70
     1
102
RTVSPropertyOp25
 70
     1
102
RTVSPropertyOp26
 70
     1
102
RTVSPropertyOp27
 70
     1
102
RTVSPropertyOp28
 70
     1
102
RTVSPropertyOp29
 70
     1
102
RTVSPropertyOp30
 70
     1
102
RTVSPropertyOp31
 70
     1
102
RTVSPropertyOp32
 70
     1
102
RTVSPropertyOp33
 70
     1
102
RTVSPropertyOp34
 70
     1
102
RTVSPropertyOp35
 70
     1
102
RTVSPropertyOp36
 70
     1
102
RTVSPropertyOp37
 70
     1
102
RTVSPropertyOp38
 70
     1
102
RTVSPropertyOp39
 70
     1
102
RTVSPropertyOp40
 70
     1
102
RTVSPropertyOp41
 70
     1
102
RTVSPropertyOp42
 70
     1
102
RTVSPropertyOp43
 70
     1
102
RTVSPropertyOp44
 70
     1
102
RTVSPropertyOp45
 70
     1
102
RTVSPropertyOp46
 70
     1
102
RTVSPropertyOp47
 70
     1
102
RTVSPropertyOp48
 70
     1
102
RTVSPropertyOp49
 70
     1
102
RTVSPropertyOp50
 70
     1
102
RTVSPropertyOp51
 70
     0
102
RTVSPropertyOp52
 70
     0
102
RTVSPropertyOp53
 70
     1
102
RTVSPropertyOp54
 70
     1
102
RTVSPropertyOp55
 70
     1
102
RTVSPropertyOp56
 70
     1
102
RTVSPropertyOp57
 70
     1
102
RTVSPropertyOp58
 70
     1
102
RTVSPropertyOp59
 70
     1
102
RTVSPropertyOp60
 70
     1
102
RTVSPropertyOp61
 70
     1
102
RTVSPropertyOp62
 70
     1
  0
XRECORD
  5
25CB
102
{ACAD_REACTORS
330
25CA
102
}
330
25CA
100
AcDbXrecord
280
     1
102
RTVSPost2010Prop28
280
     0
102
RTVSPost2010PropOp28
 70
     1
102
RTVSPost2010Prop29
280
     1
102
RTVSPost2010PropOp29
 70
     1
102
RTVSPost2010Prop30
280
     1
102
RTVSPost2010PropOp30
 70
     1
102
RTVSPost2010Prop31
280
     0
102
RTVSPost2010PropOp31
 70
     1
102
RTVSPost2010Prop32
280
     0
102
RTVSPost2010PropOp32
 70
     1
102
RTVSPost2010Prop33
280
     0
102
RTVSPost2010PropOp33
 70
     1
102
RTVSPost2010Prop34
280
     0
102
RTVSPost2010PropOp34
 70
     1
102
RTVSPost2010Prop35
280
     0
102
RTVSPost2010PropOp35
 70
     1
102
RTVSPost2010Prop36
280
     0
102
RTVSPost2010PropOp36
 70
     1
102
RTVSPost2010Prop37
 90
       50
102
RTVSPost2010PropOp37
 70
     1
102
RTVSPost2010Prop38
140
0.0
102
RTVSPost2010PropOp38
 70
     1
102
RTVSPost2010Prop39
140
1.0
102
RTVSPost2010PropOp39
 70
     1
102
RTVSPost2010Prop40
 90
        0
102
RTVSPost2010PropOp40
 70
     1
102
RTVSPost2010Prop41ColorIndex
 90
       18
102
RTVSPost2010Prop41ColorRGB
 90
        0
102
RTVSPost2010PropOp41
 70
     1
102
RTVSPost2010Prop42
 90
       50
102
RTVSPost2010PropOp42
 70
     1
102
RTVSPost2010Prop43
 90
        3
102
RTVSPost2010PropOp43
 70
     1
102
RTVSPost2010Prop44ColorIndex
 90
        5
102
RTVSPost2010Prop44ColorRGB
 90
      255
102
RTVSPost2010PropOp44
 70
     1
102
RTVSPost2010Prop45
280
     0
102
RTVSPost2010PropOp45
 70
     1
102
RTVSPost2010Prop46
 90
       50
102
RTVSPost2010PropOp46
 70
     1
102
RTVSPost2010Prop47
 90
       50
102
RTVSPost2010PropOp47
 70
     1
102
RTVSPost2010Prop48
 90
       50
102
RTVSPost2010PropOp48
 70
     1
102
RTVSPost2010Prop49
280
     0
102
RTVSPost2010PropOp49
 70
     1
102
RTVSPost2010Prop50
 90
       50
102
RTVSPost2010PropOp50
 70
     1
102
RTVSPost2010Prop51ColorIndex
 90
      256
102
RTVSPost2010Prop51ColorRGB
 90
-16777216
102
RTVSPost2010PropOp51
 70
     0
102
RTVSPost2010Prop52
140
1.0
102
RTVSPost2010PropOp52
 70
     0
102
RTVSPost2010Prop53
 90
        2
102
RTVSPost2010PropOp53
 70
     1
102
RTVSPost2010Prop54
  1
strokes_ogs.tif
102
RTVSPost2010PropOp54
 70
     1
102
RTVSPost2010Prop55
280
     0
102
RTVSPost2010PropOp55
 70
     1
102
RTVSPost2010Prop56
140
1.0
102
RTVSPost2010PropOp56
 70
     1
102
RTVSPost2010Prop57
140
1.0
102
RTVSPost2010PropOp57
 70
     1
102
RTVSPropertyOp0
 70
     1
102
RTVSPropertyOp1
 70
     1
102
RTVSPropertyOp2
 70
     1
102
RTVSPropertyOp3
 70
     1
102
RTVSPropertyOp4
 70
     1
102
RTVSPropertyOp5
 70
     1
102
RTVSPropertyOp6
 70
     1
102
RTVSPropertyOp7
 70
     1
102
RTVSPropertyOp8
 70
     1
102
RTVSPropertyOp9
 70
     1
102
RTVSPropertyOp10
 70
     1
102
RTVSPropertyOp11
 70
     1
102
RTVSPropertyOp12
 70
     1
102
RTVSPropertyOp13
 70
     1
102
RTVSPropertyOp14
 70
     1
102
RTVSPropertyOp15
 70
     1
102
RTVSPropertyOp16
 70
     1
102
RTVSPropertyOp17
 70
     1
102
RTVSPropertyOp18
 70
     1
102
RTVSPropertyOp19
 70
     1
102
RTVSPropertyOp20
 70
     1
102
RTVSPropertyOp21
 70
     1
102
RTVSPropertyOp22
 70
     1
102
RTVSPropertyOp23
 70
     1
102
RTVSPropertyOp24
 70
     1
102
RTVSPropertyOp25
 70
     1
102
RTVSPropertyOp26
 70
     1
102
RTVSPropertyOp27
 70
     1
102
RTVSPropertyOp28
 70
     1
102
RTVSPropertyOp29
 70
     1
102
RTVSPropertyOp30
 70
     1
102
RTVSPropertyOp31
 70
     1
102
RTVSPropertyOp32
 70
     1
102
RTVSPropertyOp33
 70
     1
102
RTVSPropertyOp34
 70
     1
102
RTVSPropertyOp35
 70
     1
102
RTVSPropertyOp36
 70
     1
102
RTVSPropertyOp37
 70
     1
102
RTVSPropertyOp38
 70
     1
102
RTVSPropertyOp39
 70
     1
102
RTVSPropertyOp40
 70
     1
102
RTVSPropertyOp41
 70
     1
102
RTVSPropertyOp42
 70
     1
102
RTVSPropertyOp43
 70
     1
102
RTVSPropertyOp44
 70
     1
102
RTVSPropertyOp45
 70
     1
102
RTVSPropertyOp46
 70
     1
102
RTVSPropertyOp47
 70
     1
102
RTVSPropertyOp48
 70
     1
102
RTVSPropertyOp49
 70
     1
102
RTVSPropertyOp50
 70
     1
102
RTVSPropertyOp51
 70
     0
102
RTVSPropertyOp52
 70
     0
102
RTVSPropertyOp53
 70
     1
102
RTVSPropertyOp54
 70
     1
102
RTVSPropertyOp55
 70
     1
102
RTVSPropertyOp56
 70
     1
102
RTVSPropertyOp57
 70
     1
102
RTVSPropertyOp58
 70
     1
102
RTVSPropertyOp59
 70
     1
102
RTVSPropertyOp60
 70
     1
102
RTVSPropertyOp61
 70
     1
102
RTVSPropertyOp62
 70
     1
  0
XRECORD
  5
25C1
102
{ACAD_REACTORS
330
25C0
102
}
330
25C0
100
AcDbXrecord
280
     1
102
RTVSPost2010Prop28
280
     0
102
RTVSPost2010PropOp28
 70
     1
102
RTVSPost2010Prop29
280
     1
102
RTVSPost2010PropOp29
 70
     1
102
RTVSPost2010Prop30
280
     1
102
RTVSPost2010PropOp30
 70
     1
102
RTVSPost2010Prop31
280
     0
102
RTVSPost2010PropOp31
 70
     1
102
RTVSPost2010Prop32
280
     0
102
RTVSPost2010PropOp32
 70
     1
102
RTVSPost2010Prop33
280
     0
102
RTVSPost2010PropOp33
 70
     1
102
RTVSPost2010Prop34
280
     0
102
RTVSPost2010PropOp34
 70
     1
102
RTVSPost2010Prop35
280
     0
102
RTVSPost2010PropOp35
 70
     1
102
RTVSPost2010Prop36
280
     0
102
RTVSPost2010PropOp36
 70
     1
102
RTVSPost2010Prop37
 90
       50
102
RTVSPost2010PropOp37
 70
     1
102
RTVSPost2010Prop38
140
0.0
102
RTVSPost2010PropOp38
 70
     1
102
RTVSPost2010Prop39
140
1.0
102
RTVSPost2010PropOp39
 70
     1
102
RTVSPost2010Prop40
 90
        0
102
RTVSPost2010PropOp40
 70
     1
102
RTVSPost2010Prop41ColorIndex
 90
       18
102
RTVSPost2010Prop41ColorRGB
 90
        0
102
RTVSPost2010PropOp41
 70
     1
102
RTVSPost2010Prop42
 90
       50
102
RTVSPost2010PropOp42
 70
     1
102
RTVSPost2010Prop43
 90
        3
102
RTVSPost2010PropOp43
 70
     1
102
RTVSPost2010Prop44ColorIndex
 90
        5
102
RTVSPost2010Prop44ColorRGB
 90
      255
102
RTVSPost2010PropOp44
 70
     1
102
RTVSPost2010Prop45
280
     0
102
RTVSPost2010PropOp45
 70
     1
102
RTVSPost2010Prop46
 90
       50
102
RTVSPost2010PropOp46
 70
     1
102
RTVSPost2010Prop47
 90
       50
102
RTVSPost2010PropOp47
 70
     1
102
RTVSPost2010Prop48
 90
       50
102
RTVSPost2010PropOp48
 70
     1
102
RTVSPost2010Prop49
280
     0
102
RTVSPost2010PropOp49
 70
     1
102
RTVSPost2010Prop50
 90
       50
102
RTVSPost2010PropOp50
 70
     1
102
RTVSPost2010Prop51ColorIndex
 90
      256
102
RTVSPost2010Prop51ColorRGB
 90
-16777216
102
RTVSPost2010PropOp51
 70
     0
102
RTVSPost2010Prop52
140
1.0
102
RTVSPost2010PropOp52
 70
     0
102
RTVSPost2010Prop53
 90
        2
102
RTVSPost2010PropOp53
 70
     1
102
RTVSPost2010Prop54
  1
strokes_ogs.tif
102
RTVSPost2010PropOp54
 70
     1
102
RTVSPost2010Prop55
280
     0
102
RTVSPost2010PropOp55
 70
     1
102
RTVSPost2010Prop56
140
1.0
102
RTVSPost2010PropOp56
 70
     1
102
RTVSPost2010Prop57
140
1.0
102
RTVSPost2010PropOp57
 70
     1
102
RTVSPropertyOp0
 70
     1
102
RTVSPropertyOp1
 70
     1
102
RTVSPropertyOp2
 70
     1
102
RTVSPropertyOp3
 70
     1
102
RTVSPropertyOp4
 70
     1
102
RTVSPropertyOp5
 70
     1
102
RTVSPropertyOp6
 70
     1
102
RTVSPropertyOp7
 70
     1
102
RTVSPropertyOp8
 70
     1
102
RTVSPropertyOp9
 70
     1
102
RTVSPropertyOp10
 70
     1
102
RTVSPropertyOp11
 70
     1
102
RTVSPropertyOp12
 70
     1
102
RTVSPropertyOp13
 70
     1
102
RTVSPropertyOp14
 70
     1
102
RTVSPropertyOp15
 70
     1
102
RTVSPropertyOp16
 70
     1
102
RTVSPropertyOp17
 70
     1
102
RTVSPropertyOp18
 70
     1
102
RTVSPropertyOp19
 70
     1
102
RTVSPropertyOp20
 70
     1
102
RTVSPropertyOp21
 70
     1
102
RTVSPropertyOp22
 70
     1
102
RTVSPropertyOp23
 70
     1
102
RTVSPropertyOp24
 70
     1
102
RTVSPropertyOp25
 70
     1
102
RTVSPropertyOp26
 70
     1
102
RTVSPropertyOp27
 70
     1
102
RTVSPropertyOp28
 70
     1
102
RTVSPropertyOp29
 70
     1
102
RTVSPropertyOp30
 70
     1
102
RTVSPropertyOp31
 70
     1
102
RTVSPropertyOp32
 70
     1
102
RTVSPropertyOp33
 70
     1
102
RTVSPropertyOp34
 70
     1
102
RTVSPropertyOp35
 70
     1
102
RTVSPropertyOp36
 70
     1
102
RTVSPropertyOp37
 70
     1
102
RTVSPropertyOp38
 70
     1
102
RTVSPropertyOp39
 70
     1
102
RTVSPropertyOp40
 70
     1
102
RTVSPropertyOp41
 70
     1
102
RTVSPropertyOp42
 70
     1
102
RTVSPropertyOp43
 70
     1
102
RTVSPropertyOp44
 70
     1
102
RTVSPropertyOp45
 70
     1
102
RTVSPropertyOp46
 70
     1
102
RTVSPropertyOp47
 70
     1
102
RTVSPropertyOp48
 70
     1
102
RTVSPropertyOp49
 70
     1
102
RTVSPropertyOp50
 70
     1
102
RTVSPropertyOp51
 70
     0
102
RTVSPropertyOp52
 70
     0
102
RTVSPropertyOp53
 70
     1
102
RTVSPropertyOp54
 70
     1
102
RTVSPropertyOp55
 70
     1
102
RTVSPropertyOp56
 70
     1
102
RTVSPropertyOp57
 70
     1
102
RTVSPropertyOp58
 70
     1
102
RTVSPropertyOp59
 70
     1
102
RTVSPropertyOp60
 70
     1
102
RTVSPropertyOp61
 70
     1
102
RTVSPropertyOp62
 70
     1
  0
XRECORD
  5
25B5
102
{ACAD_REACTORS
330
25B4
102
}
330
25B4
100
AcDbXrecord
280
     1
102
RTVSPost2010Prop28
280
     0
102
RTVSPost2010PropOp28
 70
     1
102
RTVSPost2010Prop29
280
     1
102
RTVSPost2010PropOp29
 70
     1
102
RTVSPost2010Prop30
280
     1
102
RTVSPost2010PropOp30
 70
     1
102
RTVSPost2010Prop31
280
     0
102
RTVSPost2010PropOp31
 70
     1
102
RTVSPost2010Prop32
280
     0
102
RTVSPost2010PropOp32
 70
     1
102
RTVSPost2010Prop33
280
     0
102
RTVSPost2010PropOp33
 70
     1
102
RTVSPost2010Prop34
280
     0
102
RTVSPost2010PropOp34
 70
     1
102
RTVSPost2010Prop35
280
     0
102
RTVSPost2010PropOp35
 70
     1
102
RTVSPost2010Prop36
280
     0
102
RTVSPost2010PropOp36
 70
     1
102
RTVSPost2010Prop37
 90
       50
102
RTVSPost2010PropOp37
 70
     1
102
RTVSPost2010Prop38
140
0.0
102
RTVSPost2010PropOp38
 70
     1
102
RTVSPost2010Prop39
140
1.0
102
RTVSPost2010PropOp39
 70
     1
102
RTVSPost2010Prop40
 90
        0
102
RTVSPost2010PropOp40
 70
     1
102
RTVSPost2010Prop41ColorIndex
 90
       18
102
RTVSPost2010Prop41ColorRGB
 90
        0
102
RTVSPost2010PropOp41
 70
     1
102
RTVSPost2010Prop42
 90
       50
102
RTVSPost2010PropOp42
 70
     1
102
RTVSPost2010Prop43
 90
        3
102
RTVSPost2010PropOp43
 70
     1
102
RTVSPost2010Prop44ColorIndex
 90
        5
102
RTVSPost2010Prop44ColorRGB
 90
      255
102
RTVSPost2010PropOp44
 70
     1
102
RTVSPost2010Prop45
280
     0
102
RTVSPost2010PropOp45
 70
     1
102
RTVSPost2010Prop46
 90
       50
102
RTVSPost2010PropOp46
 70
     1
102
RTVSPost2010Prop47
 90
       50
102
RTVSPost2010PropOp47
 70
     1
102
RTVSPost2010Prop48
 90
       50
102
RTVSPost2010PropOp48
 70
     1
102
RTVSPost2010Prop49
280
     0
102
RTVSPost2010PropOp49
 70
     1
102
RTVSPost2010Prop50
 90
       50
102
RTVSPost2010PropOp50
 70
     1
102
RTVSPost2010Prop51ColorIndex
 90
      256
102
RTVSPost2010Prop51ColorRGB
 90
-16777216
102
RTVSPost2010PropOp51
 70
     0
102
RTVSPost2010Prop52
140
1.0
102
RTVSPost2010PropOp52
 70
     0
102
RTVSPost2010Prop53
 90
        2
102
RTVSPost2010PropOp53
 70
     1
102
RTVSPost2010Prop54
  1
strokes_ogs.tif
102
RTVSPost2010PropOp54
 70
     1
102
RTVSPost2010Prop55
280
     0
102
RTVSPost2010PropOp55
 70
     1
102
RTVSPost2010Prop56
140
1.0
102
RTVSPost2010PropOp56
 70
     1
102
RTVSPost2010Prop57
140
1.0
102
RTVSPost2010PropOp57
 70
     1
102
RTVSPropertyOp0
 70
     1
102
RTVSPropertyOp1
 70
     1
102
RTVSPropertyOp2
 70
     1
102
RTVSPropertyOp3
 70
     1
102
RTVSPropertyOp4
 70
     1
102
RTVSPropertyOp5
 70
     1
102
RTVSPropertyOp6
 70
     1
102
RTVSPropertyOp7
 70
     1
102
RTVSPropertyOp8
 70
     1
102
RTVSPropertyOp9
 70
     1
102
RTVSPropertyOp10
 70
     1
102
RTVSPropertyOp11
 70
     1
102
RTVSPropertyOp12
 70
     1
102
RTVSPropertyOp13
 70
     1
102
RTVSPropertyOp14
 70
     1
102
RTVSPropertyOp15
 70
     1
102
RTVSPropertyOp16
 70
     1
102
RTVSPropertyOp17
 70
     1
102
RTVSPropertyOp18
 70
     1
102
RTVSPropertyOp19
 70
     1
102
RTVSPropertyOp20
 70
     1
102
RTVSPropertyOp21
 70
     1
102
RTVSPropertyOp22
 70
     1
102
RTVSPropertyOp23
 70
     1
102
RTVSPropertyOp24
 70
     1
102
RTVSPropertyOp25
 70
     1
102
RTVSPropertyOp26
 70
     1
102
RTVSPropertyOp27
 70
     1
102
RTVSPropertyOp28
 70
     1
102
RTVSPropertyOp29
 70
     1
102
RTVSPropertyOp30
 70
     1
102
RTVSPropertyOp31
 70
     1
102
RTVSPropertyOp32
 70
     1
102
RTVSPropertyOp33
 70
     1
102
RTVSPropertyOp34
 70
     1
102
RTVSPropertyOp35
 70
     1
102
RTVSPropertyOp36
 70
     1
102
RTVSPropertyOp37
 70
     1
102
RTVSPropertyOp38
 70
     1
102
RTVSPropertyOp39
 70
     1
102
RTVSPropertyOp40
 70
     1
102
RTVSPropertyOp41
 70
     1
102
RTVSPropertyOp42
 70
     1
102
RTVSPropertyOp43
 70
     1
102
RTVSPropertyOp44
 70
     1
102
RTVSPropertyOp45
 70
     1
102
RTVSPropertyOp46
 70
     1
102
RTVSPropertyOp47
 70
     1
102
RTVSPropertyOp48
 70
     1
102
RTVSPropertyOp49
 70
     1
102
RTVSPropertyOp50
 70
     1
102
RTVSPropertyOp51
 70
     0
102
RTVSPropertyOp52
 70
     0
102
RTVSPropertyOp53
 70
     1
102
RTVSPropertyOp54
 70
     1
102
RTVSPropertyOp55
 70
     1
102
RTVSPropertyOp56
 70
     1
102
RTVSPropertyOp57
 70
     1
102
RTVSPropertyOp58
 70
     1
102
RTVSPropertyOp59
 70
     1
102
RTVSPropertyOp60
 70
     1
102
RTVSPropertyOp61
 70
     1
102
RTVSPropertyOp62
 70
     1
  0
XRECORD
  5
25CD
102
{ACAD_REACTORS
330
25CC
102
}
330
25CC
100
AcDbXrecord
280
     1
102
RTVSPost2010Prop28
280
     0
102
RTVSPost2010PropOp28
 70
     1
102
RTVSPost2010Prop29
280
     1
102
RTVSPost2010PropOp29
 70
     1
102
RTVSPost2010Prop30
280
     1
102
RTVSPost2010PropOp30
 70
     1
102
RTVSPost2010Prop31
280
     0
102
RTVSPost2010PropOp31
 70
     1
102
RTVSPost2010Prop32
280
     0
102
RTVSPost2010PropOp32
 70
     1
102
RTVSPost2010Prop33
280
     0
102
RTVSPost2010PropOp33
 70
     1
102
RTVSPost2010Prop34
280
     0
102
RTVSPost2010PropOp34
 70
     1
102
RTVSPost2010Prop35
280
     0
102
RTVSPost2010PropOp35
 70
     1
102
RTVSPost2010Prop36
280
     0
102
RTVSPost2010PropOp36
 70
     1
102
RTVSPost2010Prop37
 90
       50
102
RTVSPost2010PropOp37
 70
     1
102
RTVSPost2010Prop38
140
0.0
102
RTVSPost2010PropOp38
 70
     1
102
RTVSPost2010Prop39
140
1.0
102
RTVSPost2010PropOp39
 70
     1
102
RTVSPost2010Prop40
 90
        0
102
RTVSPost2010PropOp40
 70
     1
102
RTVSPost2010Prop41ColorIndex
 90
       18
102
RTVSPost2010Prop41ColorRGB
 90
        0
102
RTVSPost2010PropOp41
 70
     1
102
RTVSPost2010Prop42
 90
       50
102
RTVSPost2010PropOp42
 70
     1
102
RTVSPost2010Prop43
 90
        3
102
RTVSPost2010PropOp43
 70
     1
102
RTVSPost2010Prop44ColorIndex
 90
        5
102
RTVSPost2010Prop44ColorRGB
 90
      255
102
RTVSPost2010PropOp44
 70
     1
102
RTVSPost2010Prop45
280
     0
102
RTVSPost2010PropOp45
 70
     1
102
RTVSPost2010Prop46
 90
       50
102
RTVSPost2010PropOp46
 70
     1
102
RTVSPost2010Prop47
 90
       50
102
RTVSPost2010PropOp47
 70
     1
102
RTVSPost2010Prop48
 90
       50
102
RTVSPost2010PropOp48
 70
     1
102
RTVSPost2010Prop49
280
     0
102
RTVSPost2010PropOp49
 70
     1
102
RTVSPost2010Prop50
 90
       50
102
RTVSPost2010PropOp50
 70
     1
102
RTVSPost2010Prop51ColorIndex
 90
      256
102
RTVSPost2010Prop51ColorRGB
 90
-16777216
102
RTVSPost2010PropOp51
 70
     0
102
RTVSPost2010Prop52
140
1.0
102
RTVSPost2010PropOp52
 70
     0
102
RTVSPost2010Prop53
 90
        2
102
RTVSPost2010PropOp53
 70
     1
102
RTVSPost2010Prop54
  1
strokes_ogs.tif
102
RTVSPost2010PropOp54
 70
     1
102
RTVSPost2010Prop55
280
     0
102
RTVSPost2010PropOp55
 70
     1
102
RTVSPost2010Prop56
140
1.0
102
RTVSPost2010PropOp56
 70
     1
102
RTVSPost2010Prop57
140
1.0
102
RTVSPost2010PropOp57
 70
     1
102
RTVSPropertyOp0
 70
     1
102
RTVSPropertyOp1
 70
     1
102
RTVSPropertyOp2
 70
     1
102
RTVSPropertyOp3
 70
     1
102
RTVSPropertyOp4
 70
     1
102
RTVSPropertyOp5
 70
     1
102
RTVSPropertyOp6
 70
     1
102
RTVSPropertyOp7
 70
     1
102
RTVSPropertyOp8
 70
     1
102
RTVSPropertyOp9
 70
     1
102
RTVSPropertyOp10
 70
     1
102
RTVSPropertyOp11
 70
     1
102
RTVSPropertyOp12
 70
     1
102
RTVSPropertyOp13
 70
     1
102
RTVSPropertyOp14
 70
     1
102
RTVSPropertyOp15
 70
     1
102
RTVSPropertyOp16
 70
     1
102
RTVSPropertyOp17
 70
     1
102
RTVSPropertyOp18
 70
     1
102
RTVSPropertyOp19
 70
     1
102
RTVSPropertyOp20
 70
     1
102
RTVSPropertyOp21
 70
     1
102
RTVSPropertyOp22
 70
     1
102
RTVSPropertyOp23
 70
     1
102
RTVSPropertyOp24
 70
     1
102
RTVSPropertyOp25
 70
     1
102
RTVSPropertyOp26
 70
     1
102
RTVSPropertyOp27
 70
     1
102
RTVSPropertyOp28
 70
     1
102
RTVSPropertyOp29
 70
     1
102
RTVSPropertyOp30
 70
     1
102
RTVSPropertyOp31
 70
     1
102
RTVSPropertyOp32
 70
     1
102
RTVSPropertyOp33
 70
     1
102
RTVSPropertyOp34
 70
     1
102
RTVSPropertyOp35
 70
     1
102
RTVSPropertyOp36
 70
     1
102
RTVSPropertyOp37
 70
     1
102
RTVSPropertyOp38
 70
     1
102
RTVSPropertyOp39
 70
     1
102
RTVSPropertyOp40
 70
     1
102
RTVSPropertyOp41
 70
     1
102
RTVSPropertyOp42
 70
     1
102
RTVSPropertyOp43
 70
     1
102
RTVSPropertyOp44
 70
     1
102
RTVSPropertyOp45
 70
     1
102
RTVSPropertyOp46
 70
     1
102
RTVSPropertyOp47
 70
     1
102
RTVSPropertyOp48
 70
     1
102
RTVSPropertyOp49
 70
     1
102
RTVSPropertyOp50
 70
     1
102
RTVSPropertyOp51
 70
     0
102
RTVSPropertyOp52
 70
     0
102
RTVSPropertyOp53
 70
     1
102
RTVSPropertyOp54
 70
     1
102
RTVSPropertyOp55
 70
     1
102
RTVSPropertyOp56
 70
     1
102
RTVSPropertyOp57
 70
     1
102
RTVSPropertyOp58
 70
     1
102
RTVSPropertyOp59
 70
     1
102
RTVSPropertyOp60
 70
     1
102
RTVSPropertyOp61
 70
     1
102
RTVSPropertyOp62
 70
     1
  0
ENDSEC
  0
EOF
