  0
SECTION
  2
HEADER
  9
$ACADVER
  1
AC1015
  9
$ACADMAINTVER
 70
    20
  9
$DWGCODEPAGE
  3
ANSI_932
  9
$INSBASE
 10
0.0
 20
0.0
 30
0.0
  9
$EXTMIN
 10
9.988222686089102
 20
9.989227749025189
 30
-0.0000000000000058
  9
$EXTMAX
 10
267.8208641268036
 20
225.7490390837561
 30
0.0000000000000104
  9
$LIMMIN
 10
0.0000015376081137
 20
-0.0000001931532552
  9
$LIMMAX
 10
396.0000015376081
 20
272.9999998068468
  9
$ORTHOMODE
 70
     1
  9
$REGENMODE
 70
     1
  9
$FILLMODE
 70
     1
  9
$QTEXTMODE
 70
     0
  9
$MIRRTEXT
 70
     1
  9
$LTSCALE
 40
1.0
  9
$ATTMODE
 70
     1
  9
$TEXTSIZE
 40
2.5
  9
$TRACEWID
 40
1.0
  9
$TEXTSTYLE
  7
STANDARD
  9
$CLAYER
  8
0
  9
$CELTYPE
  6
CONTINUOUS
  9
$CECOLOR
 62
   256
  9
$CELTSCALE
 40
1.0
  9
$DISPSILH
 70
     0
  9
$DIMSCALE
 40
1.0
  9
$DIMASZ
 40
3.0
  9
$DIMEXO
 40
1.0
  9
$DIMDLI
 40
10.0
  9
$DIMRND
 40
0.0
  9
$DIMDLE
 40
0.0
  9
$DIMEXE
 40
1.0
  9
$DIMTP
 40
0.0
  9
$DIMTM
 40
0.0
  9
$DIMTXT
 40
3.2
  9
$DIMCEN
 40
0.0
  9
$DIMTSZ
 40
0.0
  9
$DIMTOL
 70
     0
  9
$DIMLIM
 70
     0
  9
$DIMTIH
 70
     0
  9
$DIMTOH
 70
     0
  9
$DIMSE1
 70
     0
  9
$DIMSE2
 70
     0
  9
$DIMTAD
 70
     3
  9
$DIMZIN
 70
     8
  9
$DIMBLK
  1

  9
$DIMASO
 70
     1
  9
$DIMSHO
 70
     1
  9
$DIMPOST
  1

  9
$DIMAPOST
  1

  9
$DIMALT
 70
     0
  9
$DIMALTD
 70
     2
  9
$DIMALTF
 40
25.4
  9
$DIMLFAC
 40
1.0
  9
$DIMTOFL
 70
     1
  9
$DIMTVP
 40
0.0
  9
$DIMTIX
 70
     0
  9
$DIMSOXD
 70
     0
  9
$DIMSAH
 70
     1
  9
$DIMBLK1
  1
OPEN
  9
$DIMBLK2
  1
OPEN
  9
$DIMSTYLE
  2
STANDARD
  9
$DIMCLRD
 70
     0
  9
$DIMCLRE
 70
     0
  9
$DIMCLRT
 70
     0
  9
$DIMTFAC
 40
1.0
  9
$DIMGAP
 40
1.0
  9
$DIMJUST
 70
     0
  9
$DIMSD1
 70
     0
  9
$DIMSD2
 70
     0
  9
$DIMTOLJ
 70
     1
  9
$DIMTZIN
 70
     0
  9
$DIMALTZ
 70
     0
  9
$DIMALTTZ
 70
     0
  9
$DIMUPT
 70
     0
  9
$DIMDEC
 70
     4
  9
$DIMTDEC
 70
     4
  9
$DIMALTU
 70
     2
  9
$DIMALTTD
 70
     2
  9
$DIMTXSTY
  7
STANDARD
  9
$DIMAUNIT
 70
     0
  9
$DIMADEC
 70
     0
  9
$DIMALTRND
 40
0.0
  9
$DIMAZIN
 70
     0
  9
$DIMDSEP
 70
    46
  9
$DIMATFIT
 70
     3
  9
$DIMFRAC
 70
     0
  9
$DIMLDRBLK
  1

  9
$DIMLUNIT
 70
     2
  9
$DIMLWD
 70
    -2
  9
$DIMLWE
 70
    -2
  9
$DIMTMOVE
 70
     0
  9
$LUNITS
 70
     2
  9
$LUPREC
 70
     4
  9
$SKETCHINC
 40
1.0
  9
$FILLETRAD
 40
10.0
  9
$AUNITS
 70
     0
  9
$AUPREC
 70
     0
  9
$MENU
  1
acad
  9
$ELEVATION
 40
0.0
  9
$PELEVATION
 40
0.0
  9
$THICKNESS
 40
0.0
  9
$LIMCHECK
 70
     0
  9
$CHAMFERA
 40
10.0
  9
$CHAMFERB
 40
10.0
  9
$CHAMFERC
 40
20.0
  9
$CHAMFERD
 40
0.0
  9
$SKPOLY
 70
     0
  9
$TDCREATE
 40
2458352.392874780
  9
$TDUCREATE
 40
2458352.017874780
  9
$TDUPDATE
 40
2458352.409997778
  9
$TDUUPDATE
 40
2458352.034997778
  9
$TDINDWG
 40
0.0020728704
  9
$TDUSRTIMER
 40
0.0020728588
  9
$USRTIMER
 70
     1
  9
$ANGBASE
 50
0.0
  9
$ANGDIR
 70
     0
  9
$PDMODE
 70
     0
  9
$PDSIZE
 40
0.0
  9
$PLINEWID
 40
0.0
  9
$SPLFRAME
 70
     0
  9
$SPLINETYPE
 70
     6
  9
$SPLINESEGS
 70
     8
  9
$HANDSEED
  5
57B
  9
$SURFTAB1
 70
     6
  9
$SURFTAB2
 70
     6
  9
$SURFTYPE
 70
     6
  9
$SURFU
 70
     6
  9
$SURFV
 70
     6
  9
$UCSBASE
  2

  9
$UCSNAME
  2

  9
$UCSORG
 10
0.0
 20
0.0
 30
0.0
  9
$UCSXDIR
 10
1.0
 20
0.0
 30
0.0
  9
$UCSYDIR
 10
0.0
 20
1.0
 30
0.0
  9
$UCSORTHOREF
  2

  9
$UCSORTHOVIEW
 70
     0
  9
$UCSORGTOP
 10
0.0
 20
0.0
 30
0.0
  9
$UCSORGBOTTOM
 10
0.0
 20
0.0
 30
0.0
  9
$UCSORGLEFT
 10
0.0
 20
0.0
 30
0.0
  9
$UCSORGRIGHT
 10
0.0
 20
0.0
 30
0.0
  9
$UCSORGFRONT
 10
0.0
 20
0.0
 30
0.0
  9
$UCSORGBACK
 10
0.0
 20
0.0
 30
0.0
  9
$PUCSBASE
  2

  9
$PUCSNAME
  2

  9
$PUCSORG
 10
0.0
 20
0.0
 30
0.0
  9
$PUCSXDIR
 10
1.0
 20
0.0
 30
0.0
  9
$PUCSYDIR
 10
0.0
 20
1.0
 30
0.0
  9
$PUCSORTHOREF
  2

  9
$PUCSORTHOVIEW
 70
     0
  9
$PUCSORGTOP
 10
0.0
 20
0.0
 30
0.0
  9
$PUCSORGBOTTOM
 10
0.0
 20
0.0
 30
0.0
  9
$PUCSORGLEFT
 10
0.0
 20
0.0
 30
0.0
  9
$PUCSORGRIGHT
 10
0.0
 20
0.0
 30
0.0
  9
$PUCSORGFRONT
 10
0.0
 20
0.0
 30
0.0
  9
$PUCSORGBACK
 10
0.0
 20
0.0
 30
0.0
  9
$USERI1
 70
     0
  9
$USERI2
 70
     0
  9
$USERI3
 70
     0
  9
$USERI4
 70
     0
  9
$USERI5
 70
     0
  9
$USERR1
 40
0.0
  9
$USERR2
 40
0.0
  9
$USERR3
 40
0.0
  9
$USERR4
 40
0.0
  9
$USERR5
 40
0.0
  9
$WORLDVIEW
 70
     1
  9
$SHADEDGE
 70
     3
  9
$SHADEDIF
 70
    70
  9
$TILEMODE
 70
     1
  9
$MAXACTVP
 70
    48
  9
$PINSBASE
 10
0.0
 20
0.0
 30
0.0
  9
$PLIMCHECK
 70
     0
  9
$PEXTMIN
 10
1.000000000000000E+20
 20
1.000000000000000E+20
 30
1.000000000000000E+20
  9
$PEXTMAX
 10
-1.000000000000000E+20
 20
-1.000000000000000E+20
 30
-1.000000000000000E+20
  9
$PLIMMIN
 10
0.0
 20
0.0
  9
$PLIMMAX
 10
420.0
 20
297.0
  9
$UNITMODE
 70
     0
  9
$VISRETAIN
 70
     1
  9
$PLINEGEN
 70
     0
  9
$PSLTSCALE
 70
     1
  9
$TREEDEPTH
 70
  3020
  9
$CMLSTYLE
  2
STANDARD
  9
$CMLJUST
 70
     0
  9
$CMLSCALE
 40
20.0
  9
$PROXYGRAPHICS
 70
     1
  9
$MEASUREMENT
 70
     1
  9
$CELWEIGHT
370
    -1
  9
$ENDCAPS
280
     0
  9
$JOINSTYLE
280
     0
  9
$LWDISPLAY
290
     0
  9
$INSUNITS
 70
     0
  9
$HYPERLINKBASE
  1

  9
$STYLESHEET
  1
std_栃木屋様.ctb
  9
$XEDIT
290
     1
  9
$CEPSNTYPE
380
     0
  9
$PSTYLEMODE
290
     1
  9
$FINGERPRINTGUID
  2
{E659162F-500C-4659-A670-EE80A59C5295}
  9
$VERSIONGUID
  2
{68526311-9185-42A8-A6B0-E3163E9E368D}
  9
$EXTNAMES
290
     1
  9
$PSVPSCALE
 40
0.0
  9
$OLESTARTUP
290
     0
  0
ENDSEC
  0
SECTION
  2
CLASSES
  0
CLASS
  1
ACDBDICTIONARYWDFLT
  2
AcDbDictionaryWithDefault
  3
ObjectDBX Classes
 90
        0
280
     0
281
     0
  0
CLASS
  1
MATERIAL
  2
AcDbMaterial
  3
ObjectDBX Classes
 90
     1153
280
     0
281
     0
  0
CLASS
  1
VISUALSTYLE
  2
AcDbVisualStyle
  3
ObjectDBX Classes
 90
     4095
280
     0
281
     0
  0
CLASS
  1
TABLESTYLE
  2
AcDbTableStyle
  3
ObjectDBX Classes
 90
     4095
280
     0
281
     0
  0
CLASS
  1
SCALE
  2
AcDbScale
  3
ObjectDBX Classes
 90
     1153
280
     0
281
     0
  0
CLASS
  1
MLEADERSTYLE
  2
AcDbMLeaderStyle
  3
ACDB_MLEADERSTYLE_CLASS
 90
     4095
280
     0
281
     0
  0
CLASS
  1
ACDBSECTIONVIEWSTYLE
  2
AcDbSectionViewStyle
  3
ObjectDBX Classes
 90
     1025
280
     0
281
     0
  0
CLASS
  1
ACDBDETAILVIEWSTYLE
  2
AcDbDetailViewStyle
  3
ObjectDBX Classes
 90
     1025
280
     0
281
     0
  0
CLASS
  1
EXACXREFPANELOBJECT
  2
ExAcXREFPanelObject
  3
EXAC_ESW
 90
    33793
280
     0
281
     0
  0
CLASS
  1
NPOCOLLECTION
  2
AcDbImpNonPersistentObjectsCollection
  3
ObjectDBX Classes
 90
    33921
280
     0
281
     0
  0
CLASS
  1
DICTIONARYVAR
  2
AcDbDictionaryVar
  3
ObjectDBX Classes
 90
        0
280
     0
281
     0
  0
CLASS
  1
CELLSTYLEMAP
  2
AcDbCellStyleMap
  3
ObjectDBX Classes
 90
     1152
280
     0
281
     0
  0
CLASS
  1
ACDBPLACEHOLDER
  2
AcDbPlaceHolder
  3
ObjectDBX Classes
 90
        0
280
     0
281
     0
  0
CLASS
  1
LAYOUT
  2
AcDbLayout
  3
ObjectDBX Classes
 90
        0
280
     0
281
     0
  0
ENDSEC
  0
SECTION
  2
TABLES
  0
TABLE
  2
VPORT
  5
8
102
{ACAD_XDICTIONARY
360
4B1
102
}
330
0
100
AcDbSymbolTable
 70
     1
  0
VPORT
  5
90
330
8
100
AcDbSymbolTableRecord
100
AcDbViewportTableRecord
  2
*ACTIVE
 70
     0
 10
0.0
 20
0.0
 11
1.0
 21
1.0
 12
198.0000015376081
 22
136.4999998068467
 13
0.0
 23
0.0
 14
10.0
 24
10.0
 15
10.0
 25
10.0
 16
0.0
 26
0.0
 36
1.0
 17
0.0
 27
0.0
 37
0.0
 40
275.3037974683544
 41
2.130985915492957
 42
50.0
 43
0.0
 44
0.0
 50
0.0
 51
0.0
 71
     0
 72
   100
 73
     1
 74
     0
 75
     1
 76
     0
 77
     0
 78
     0
281
     0
 65
     1
110
0.0
120
0.0
130
0.0
111
1.0
121
0.0
131
0.0
112
0.0
122
1.0
132
0.0
 79
     0
146
0.0
1001
ACAD_NAV_VCDISPLAY
1070
     3
  0
ENDTAB
  0
TABLE
  2
LTYPE
  5
5
330
0
100
AcDbSymbolTable
 70
     4
  0
LTYPE
  5
12
330
5
100
AcDbSymbolTableRecord
100
AcDbLinetypeTableRecord
  2
BYBLOCK
 70
     0
  3

 72
    65
 73
     0
 40
0.0
  0
LTYPE
  5
13
330
5
100
AcDbSymbolTableRecord
100
AcDbLinetypeTableRecord
  2
BYLAYER
 70
     0
  3

 72
    65
 73
     0
 40
0.0
  0
LTYPE
  5
14
330
5
100
AcDbSymbolTableRecord
100
AcDbLinetypeTableRecord
  2
CONTINUOUS
 70
     0
  3
Solid line
 72
    65
 73
     0
 40
0.0
  0
LTYPE
  5
4B
330
5
100
AcDbSymbolTableRecord
100
AcDbLinetypeTableRecord
  2
DASHED
 70
     0
  3
Dashed __ __ __ __ __ __ __ __ __ __ __ __ __ _
 72
    65
 73
     2
 40
19.05
 49
12.7
 74
     0
 49
-6.349999999999999
 74
     0
  0
LTYPE
  5
4C
330
5
100
AcDbSymbolTableRecord
100
AcDbLinetypeTableRecord
  2
CENTER
 70
     0
  3
Center ____ _ ____ _ ____ _ ____ _ ____ _ ____
 72
    65
 73
     4
 40
50.8
 49
31.75
 74
     0
 49
-6.349999999999999
 74
     0
 49
6.349999999999999
 74
     0
 49
-6.349999999999999
 74
     0
  0
LTYPE
  5
4D
330
5
100
AcDbSymbolTableRecord
100
AcDbLinetypeTableRecord
  2
PHANTOM
 70
     0
  3
Phantom ______  __  __  ______  __  __  ______
 72
    65
 73
     6
 40
63.5
 49
31.75
 74
     0
 49
-6.349999999999999
 74
     0
 49
6.349999999999999
 74
     0
 49
-6.349999999999999
 74
     0
 49
6.349999999999999
 74
     0
 49
-6.349999999999999
 74
     0
  0
ENDTAB
  0
TABLE
  2
LAYER
  5
2
330
0
100
AcDbSymbolTable
 70
     8
  0
LAYER
  5
E
102
{ACAD_XDICTIONARY
360
49D
102
}
330
2
100
AcDbSymbolTableRecord
100
AcDbLayerTableRecord
  2
0
 70
     0
 62
     7
  6
CONTINUOUS
370
    -3
390
93
  0
LAYER
  5
4E
102
{ACAD_XDICTIONARY
360
49F
102
}
330
2
100
AcDbSymbolTableRecord
100
AcDbLayerTableRecord
  2
4
 70
     0
 62
     1
  6
CENTER
370
    -3
390
93
  0
LAYER
  5
4F
102
{ACAD_XDICTIONARY
360
4A1
102
}
330
2
100
AcDbSymbolTableRecord
100
AcDbLayerTableRecord
  2
5
 70
     0
 62
     6
  6
PHANTOM
370
    -3
390
93
  0
LAYER
  5
50
102
{ACAD_XDICTIONARY
360
4A3
102
}
330
2
100
AcDbSymbolTableRecord
100
AcDbLayerTableRecord
  2
1
 70
     0
 62
     7
  6
CONTINUOUS
370
    -3
390
93
  0
LAYER
  5
51
102
{ACAD_XDICTIONARY
360
4A5
102
}
330
2
100
AcDbSymbolTableRecord
100
AcDbLayerTableRecord
  2
2
 70
     0
 62
     4
  6
CONTINUOUS
370
    -3
390
93
  0
LAYER
  5
52
102
{ACAD_XDICTIONARY
360
4A7
102
}
330
2
100
AcDbSymbolTableRecord
100
AcDbLayerTableRecord
  2
3
 70
     0
 62
     2
  6
DASHED
370
    -3
390
93
  0
LAYER
  5
53
102
{ACAD_XDICTIONARY
360
4A9
102
}
330
2
100
AcDbSymbolTableRecord
100
AcDbLayerTableRecord
  2
6
 70
     0
 62
     5
  6
CONTINUOUS
370
    -3
390
93
  0
LAYER
  5
54
102
{ACAD_XDICTIONARY
360
4AB
102
}
330
2
100
AcDbSymbolTableRecord
100
AcDbLayerTableRecord
  2
7
 70
     0
 62
     3
  6
CONTINUOUS
370
    -3
390
93
  0
ENDTAB
  0
TABLE
  2
STYLE
  5
3
330
0
100
AcDbSymbolTable
 70
     1
  0
STYLE
  5
F
330
3
100
AcDbSymbolTableRecord
100
AcDbTextStyleTableRecord
  2
STANDARD
 70
     0
 40
0.0
 41
1.0
 50
0.0
 71
     0
 42
2.5
  3
simplex.shx
  4

  0
ENDTAB
  0
TABLE
  2
VIEW
  5
6
330
0
100
AcDbSymbolTable
 70
     0
  0
ENDTAB
  0
TABLE
  2
UCS
  5
7
330
0
100
AcDbSymbolTable
 70
     0
  0
ENDTAB
  0
TABLE
  2
APPID
  5
9
330
0
100
AcDbSymbolTable
 70
     6
  0
APPID
  5
10
330
9
100
AcDbSymbolTableRecord
100
AcDbRegAppTableRecord
  2
ACAD
 70
     0
  0
APPID
  5
3E
330
9
100
AcDbSymbolTableRecord
100
AcDbRegAppTableRecord
  2
CONTENTTABDATA
 70
     0
  0
APPID
  5
3F
330
9
100
AcDbSymbolTableRecord
100
AcDbRegAppTableRecord
  2
CONTENTCURRENTTAB
 70
     0
  0
APPID
  5
EA
330
9
100
AcDbSymbolTableRecord
100
AcDbRegAppTableRecord
  2
ACAD_NAV_VCDISPLAY
 70
     0
  0
APPID
  5
100
330
9
100
AcDbSymbolTableRecord
100
AcDbRegAppTableRecord
  2
ACAD_PSEXT
 70
     0
  0
APPID
  5
4E7
330
9
100
AcDbSymbolTableRecord
100
AcDbRegAppTableRecord
  2
ACAD_MLEADERVER
 70
     0
  0
ENDTAB
  0
TABLE
  2
DIMSTYLE
  5
A
330
0
100
AcDbSymbolTable
 70
     1
100
AcDbDimStyleTable
 71
     1
340
1D
  0
DIMSTYLE
105
1D
330
A
100
AcDbSymbolTableRecord
100
AcDbDimStyleTableRecord
  2
STANDARD
 70
     0
 41
3.0
 42
1.0
 43
10.0
 44
1.0
 73
     0
 74
     0
 77
     3
 78
     8
140
3.2
141
0.0
147
1.0
172
     1
173
     1
340
F
341
2E
343
2E
344
2E
  0
ENDTAB
  0
TABLE
  2
BLOCK_RECORD
  5
1
330
0
100
AcDbSymbolTable
 70
     1
  0
BLOCK_RECORD
  5
18
330
1
100
AcDbSymbolTableRecord
100
AcDbBlockTableRecord
  2
*MODEL_SPACE
340
E3
  0
BLOCK_RECORD
  5
15
330
1
100
AcDbSymbolTableRecord
100
AcDbBlockTableRecord
  2
*PAPER_SPACE
340
E4
  0
BLOCK_RECORD
  5
2E
330
1
100
AcDbSymbolTableRecord
100
AcDbBlockTableRecord
  2
_OPEN
340
0
  0
ENDTAB
  0
ENDSEC
  0
SECTION
  2
BLOCKS
  0
BLOCK
  5
19
330
18
100
AcDbEntity
  8
0
100
AcDbBlockBegin
  2
*MODEL_SPACE
 70
     0
 10
0.0
 20
0.0
 30
0.0
  3
*MODEL_SPACE
  1

  0
ENDBLK
  5
1A
330
18
100
AcDbEntity
  8
0
100
AcDbBlockEnd
  0
BLOCK
  5
16
330
15
100
AcDbEntity
 67
     1
  8
0
100
AcDbBlockBegin
  2
*PAPER_SPACE
 70
     0
 10
0.0
 20
0.0
 30
0.0
  3
*PAPER_SPACE
  1

  0
ENDBLK
  5
17
330
15
100
AcDbEntity
 67
     1
  8
0
100
AcDbBlockEnd
  0
BLOCK
  5
2F
330
2E
100
AcDbEntity
  8
0
100
AcDbBlockBegin
  2
_OPEN
 70
     0
 10
0.0
 20
0.0
 30
0.0
  3
_OPEN
  1

  0
LINE
  5
30
330
2E
100
AcDbEntity
  8
0
  6
ByBlock
 62
     0
100
AcDbLine
 10
-1.0
 20
0.1666666666666666
 30
0.0
 11
0.0
 21
0.0
 31
0.0
  0
LINE
  5
31
330
2E
100
AcDbEntity
  8
0
  6
ByBlock
 62
     0
100
AcDbLine
 10
0.0
 20
0.0
 30
0.0
 11
-1.0
 21
-0.1666666666666666
 31
0.0
  0
LINE
  5
32
330
2E
100
AcDbEntity
  8
0
  6
ByBlock
 62
     0
100
AcDbLine
 10
0.0
 20
0.0
 30
0.0
 11
-1.0
 21
0.0
 31
0.0
  0
ENDBLK
  5
33
330
2E
100
AcDbEntity
  8
0
100
AcDbBlockEnd
  0
ENDSEC
  0
SECTION
  2
ENTITIES
  0
TEXT
  5
2EA
330
18
100
AcDbEntity
  8
4
  6
CENTER
 48
0.25
100
AcDbText
 10
23.97951006424662
 20
9.999999806846744
 30
0.0
 40
1.399999999999999
  1
4
100
AcDbText
  0
TEXT
  5
2EB
330
18
100
AcDbEntity
  8
7
  6
Continuous
 48
0.25
100
AcDbText
 10
9.999999064246615
 20
26.00000056761564
 30
0.0
 40
3.0
  1
CODE No.2880
100
AcDbText
  0
TEXT
  5
2EC
330
18
100
AcDbEntity
  8
7
  6
Continuous
 48
0.25
100
AcDbText
 10
9.999999064246615
 20
18.00000056761564
 30
0.0
 40
3.0
  1
TYPE No.TH-170-2
100
AcDbText
  0
TEXT
  5
2ED
330
18
100
AcDbEntity
  8
1
  6
Continuous
 48
0.25
100
AcDbText
 10
9.999999064246615
 20
10.00000056761564
 30
0.0
 40
1.399999999999999
  1
LAYER
100
AcDbText
  0
TEXT
  5
2EE
330
18
100
AcDbEntity
  8
2
  6
Continuous
 48
0.25
100
AcDbText
 10
19.97951006424661
 20
9.999999806846744
 30
0.0
 40
1.399999999999999
  1
2
100
AcDbText
  0
TEXT
  5
2EF
330
18
100
AcDbEntity
  8
3
  6
DASHED
 48
0.25
100
AcDbText
 10
21.97951006424661
 20
9.999999806846744
 30
0.0
 40
1.399999999999999
  1
3
100
AcDbText
  0
TEXT
  5
2F0
330
18
100
AcDbEntity
  8
1
  6
Continuous
 48
0.25
100
AcDbText
 10
17.97951006424661
 20
9.999999806846744
 30
0.0
 40
1.399999999999999
  1
1
100
AcDbText
  0
TEXT
  5
2F1
330
18
100
AcDbEntity
  8
5
  6
PHANTOM
 48
0.25
100
AcDbText
 10
25.97951006424662
 20
9.999999806846744
 30
0.0
 40
1.399999999999999
  1
5
100
AcDbText
  0
TEXT
  5
2F2
330
18
100
AcDbEntity
  8
6
  6
Continuous
 48
0.25
100
AcDbText
 10
27.97951006424661
 20
9.999999806846744
 30
0.0
 40
1.399999999999999
  1
6
100
AcDbText
  0
TEXT
  5
2F3
330
18
100
AcDbEntity
  8
7
  6
Continuous
 48
0.25
100
AcDbText
 10
29.97951006424662
 20
9.999999806846744
 30
0.0
 40
1.399999999999999
  1
7
100
AcDbText
  0
LINE
  5
2F4
330
18
100
AcDbEntity
  8
1
  6
Continuous
 48
0.25
100
AcDbLine
 10
249.3108978383229
 20
145.0945779092403
 30
0.0
 11
251.3108978383229
 21
145.0945779092403
 31
0.0
  0
LINE
  5
2F5
330
18
100
AcDbEntity
  8
1
  6
Continuous
 48
0.25
100
AcDbLine
 10
249.3108978383229
 20
145.0945779092403
 30
0.0
 11
249.3108978383229
 21
155.0945779092403
 31
0.0
  0
LINE
  5
2F6
330
18
100
AcDbEntity
  8
1
  6
Continuous
 48
0.25
100
AcDbLine
 10
251.3108978383229
 20
155.0945779092403
 30
0.0
 11
249.3108978383229
 21
155.0945779092403
 31
0.0
  0
LINE
  5
2F7
330
18
100
AcDbEntity
  8
1
  6
Continuous
 48
0.25
100
AcDbLine
 10
251.3108978383229
 20
121.0945779092403
 30
0.0
 11
249.3108978383229
 21
121.0945779092403
 31
0.0
  0
LINE
  5
2F8
330
18
100
AcDbEntity
  8
1
  6
Continuous
 48
0.25
100
AcDbLine
 10
249.3108978383229
 20
111.0945779092403
 30
0.0
 11
249.3108978383229
 21
121.0945779092403
 31
0.0
  0
LINE
  5
2F9
330
18
100
AcDbEntity
  8
1
  6
Continuous
 48
0.25
100
AcDbLine
 10
249.3108978383229
 20
111.0945779092403
 30
0.0
 11
251.3108978383229
 21
111.0945779092403
 31
0.0
  0
ARC
  5
2FA
330
18
100
AcDbEntity
  8
1
  6
Continuous
 48
0.25
100
AcDbCircle
 10
250.8108978383229
 20
103.5945779092403
 30
0.0
 40
0.4999999999999983
100
AcDbArc
 50
270.0
 51
0.0
  0
ARC
  5
2FB
330
18
100
AcDbEntity
  8
1
  6
Continuous
 48
0.25
100
AcDbCircle
 10
237.8108978383229
 20
103.5945779092403
 30
0.0
 40
0.4999999999999983
100
AcDbArc
 50
180.0
 51
270.0
  0
ARC
  5
2FC
330
18
100
AcDbEntity
  8
1
  6
Continuous
 48
0.25
100
AcDbCircle
 10
250.8108978383229
 20
162.5945779092403
 30
0.0
 40
0.4999999999999983
100
AcDbArc
 50
0.0
 51
90.0
  0
ARC
  5
2FD
330
18
100
AcDbEntity
  8
1
  6
Continuous
 48
0.25
100
AcDbCircle
 10
237.8108978383229
 20
162.5945779092403
 30
0.0
 40
0.4999999999999983
100
AcDbArc
 50
90.0
 51
180.0
  0
LINE
  5
2FE
330
18
100
AcDbEntity
  8
1
  6
Continuous
 48
0.25
100
AcDbLine
 10
237.3108978383229
 20
162.5945779092403
 30
0.0
 11
237.3108978383229
 21
103.5945779092403
 31
0.0
  0
LINE
  5
2FF
330
18
100
AcDbEntity
  8
1
  6
Continuous
 48
0.25
100
AcDbLine
 10
250.8108978383229
 20
163.0945779092403
 30
0.0
 11
237.8108978383229
 21
163.0945779092403
 31
0.0
  0
LINE
  5
300
330
18
100
AcDbEntity
  8
1
  6
Continuous
 48
0.25
100
AcDbLine
 10
237.8108978383229
 20
103.0945779092403
 30
0.0
 11
250.8108978383229
 21
103.0945779092403
 31
0.0
  0
CIRCLE
  5
301
330
18
100
AcDbEntity
  8
1
  6
Continuous
 48
0.25
100
AcDbCircle
 10
244.3108978383229
 20
108.0945779092403
 30
0.0
 40
3.649999999999999
  0
CIRCLE
  5
302
330
18
100
AcDbEntity
  8
1
  6
Continuous
 48
0.25
100
AcDbCircle
 10
244.3108978383229
 20
158.0945779092403
 30
0.0
 40
3.649999999999999
  0
CIRCLE
  5
303
330
18
100
AcDbEntity
  8
1
  6
Continuous
 48
0.25
100
AcDbCircle
 10
244.3108978383229
 20
158.0945779092403
 30
0.0
 40
3.0
  0
CIRCLE
  5
304
330
18
100
AcDbEntity
  8
1
  6
Continuous
 48
0.25
100
AcDbCircle
 10
244.3108978383229
 20
108.0945779092403
 30
0.0
 40
3.0
  0
ARC
  5
305
330
18
100
AcDbEntity
  8
1
  6
Continuous
 48
0.25
100
AcDbCircle
 10
239.8108978383229
 20
127.5945779092403
 30
0.0
 40
0.5000000000000016
100
AcDbArc
 50
0.0000000000008142
 51
90.0
  0
ARC
  5
306
330
18
100
AcDbEntity
  8
1
  6
Continuous
 48
0.25
100
AcDbCircle
 10
238.8108978383229
 20
128.5945779092403
 30
0.0
 40
0.4999999999999983
100
AcDbArc
 50
180.0
 51
270.0
  0
ARC
  5
307
330
18
100
AcDbEntity
  8
1
  6
Continuous
 48
0.25
100
AcDbCircle
 10
238.8108978383229
 20
137.5945779092403
 30
0.0
 40
0.500000000000002
100
AcDbArc
 50
90.0
 51
180.0
  0
ARC
  5
308
330
18
100
AcDbEntity
  8
1
  6
Continuous
 48
0.25
100
AcDbCircle
 10
239.8108978383229
 20
138.5945779092403
 30
0.0
 40
0.5000000000000016
100
AcDbArc
 50
270.0
 51
0.0
  0
LINE
  5
309
330
18
100
AcDbEntity
  8
1
  6
Continuous
 48
0.25
100
AcDbLine
 10
239.8108978383229
 20
128.0945779092403
 30
0.0
 11
238.8108978383229
 21
128.0945779092403
 31
0.0
  0
LINE
  5
30A
330
18
100
AcDbEntity
  8
1
  6
Continuous
 48
0.25
100
AcDbLine
 10
238.3108978383229
 20
128.5945779092403
 30
0.0
 11
238.3108978383229
 21
137.5945779092403
 31
0.0
  0
LINE
  5
30B
330
18
100
AcDbEntity
  8
1
  6
Continuous
 48
0.25
100
AcDbLine
 10
238.8108978383229
 20
138.0945779092403
 30
0.0
 11
239.8108978383229
 21
138.0945779092403
 31
0.0
  0
LINE
  5
30C
330
18
100
AcDbEntity
  8
1
  6
Continuous
 48
0.25
100
AcDbLine
 10
240.3108978383229
 20
138.5945779092403
 30
0.0
 11
240.3108978383229
 21
152.8984254865336
 31
0.0
  0
LINE
  5
30D
330
18
100
AcDbEntity
  8
1
  6
Continuous
 48
0.25
100
AcDbLine
 10
248.3108978383229
 20
152.8984254865336
 30
0.0
 11
248.3108978383229
 21
113.2907303319469
 31
0.0
  0
LINE
  5
30E
330
18
100
AcDbEntity
  8
1
  6
Continuous
 48
0.25
100
AcDbLine
 10
240.3108978383229
 20
113.2907303319469
 30
0.0
 11
240.3108978383229
 21
127.5945779092403
 31
0.0
  0
CIRCLE
  5
30F
330
18
100
AcDbEntity
  8
1
  6
Continuous
 48
0.25
100
AcDbCircle
 10
244.3108978383229
 20
158.0945779092403
 30
0.0
 40
1.620999999999999
  0
CIRCLE
  5
310
330
18
100
AcDbEntity
  8
1
  6
Continuous
 48
0.25
100
AcDbCircle
 10
244.3108978383229
 20
158.0945779092403
 30
0.0
 40
2.120999999999999
  0
CIRCLE
  5
311
330
18
100
AcDbEntity
  8
1
  6
Continuous
 48
0.25
100
AcDbCircle
 10
244.3108978383229
 20
158.0945779092403
 30
0.0
 40
3.0
  0
CIRCLE
  5
312
330
18
100
AcDbEntity
  8
1
  6
Continuous
 48
0.25
100
AcDbCircle
 10
244.3108978383229
 20
108.0945779092403
 30
0.0
 40
1.620999999999999
  0
CIRCLE
  5
313
330
18
100
AcDbEntity
  8
1
  6
Continuous
 48
0.25
100
AcDbCircle
 10
244.3108978383229
 20
108.0945779092403
 30
0.0
 40
2.120999999999999
  0
CIRCLE
  5
314
330
18
100
AcDbEntity
  8
1
  6
Continuous
 48
0.25
100
AcDbCircle
 10
244.3108978383229
 20
108.0945779092403
 30
0.0
 40
3.0
  0
LINE
  5
315
330
18
100
AcDbEntity
  8
1
  6
Continuous
 48
0.25
100
AcDbLine
 10
251.3108978383229
 20
103.5945779092402
 30
0.0
 11
251.310897838323
 21
162.5945779092402
 31
0.0
  0
LINE
  5
316
330
18
100
AcDbEntity
  8
4
  6
CENTER
 48
0.25
100
AcDbLine
 10
239.1608978383228
 20
158.0945779092403
 30
0.0
 11
249.4608978383229
 21
158.0945779092403
 31
0.0
  0
LINE
  5
317
330
18
100
AcDbEntity
  8
4
  6
CENTER
 48
0.25
100
AcDbLine
 10
239.1608978383228
 20
108.0945779092403
 30
0.0
 11
249.4608978383229
 21
108.0945779092403
 31
0.0
  0
ARC
  5
318
330
18
100
AcDbEntity
  8
1
  6
Continuous
 48
0.25
100
AcDbCircle
 10
243.3108737507788
 20
121.9279433593039
 30
0.0
 40
1.145412728988863
100
AcDbArc
 50
215.5376777920011
 51
256.5374393917333
  0
ARC
  5
319
330
18
100
AcDbEntity
  8
1
  6
Continuous
 48
0.25
100
AcDbCircle
 10
247.044162120686
 20
124.5945779092402
 30
0.0
 40
5.733264282363177
100
AcDbArc
 50
144.4623222079988
 51
215.5376777920011
  0
ARC
  5
31A
330
18
100
AcDbEntity
  8
1
  6
Continuous
 48
0.25
100
AcDbCircle
 10
243.3108737507788
 20
127.2612124591766
 30
0.0
 40
1.145412728988864
100
AcDbArc
 50
62.24965455462824
 51
144.4623222079988
  0
ARC
  5
31B
330
18
100
AcDbEntity
  8
1
  6
Continuous
 48
0.25
100
AcDbCircle
 10
243.3108737507788
 20
121.9279433593039
 30
0.0
 40
1.145412728988863
100
AcDbArc
 50
270.0
 51
324.462322208052
  0
ARC
  5
31C
330
18
100
AcDbEntity
  8
1
  6
Continuous
 48
0.25
100
AcDbCircle
 10
239.5775853808643
 20
124.5945779092402
 30
0.0
 40
5.733264282363177
100
AcDbArc
 50
324.462322208052
 51
35.53767779194791
  0
ARC
  5
31D
330
18
100
AcDbEntity
  8
1
  6
Continuous
 48
0.25
100
AcDbCircle
 10
243.3108737507788
 20
127.2612124591766
 30
0.0
 40
1.145412728988864
100
AcDbArc
 50
35.53767779194791
 51
45.69883927961742
  0
LINE
  5
31E
330
18
100
AcDbEntity
  8
1
  6
Continuous
 48
0.25
100
AcDbLine
 10
242.0919059333703
 20
121.7057238134758
 30
0.0
 11
244.007731418101
 21
121.7057238134758
 31
0.0
  0
LINE
  5
31F
330
18
100
AcDbEntity
  8
1
  6
Continuous
 48
0.25
100
AcDbLine
 10
244.1308633326171
 20
122.1501629051319
 30
0.0
 11
242.4908841689332
 21
122.1501629051319
 31
0.0
  0
ARC
  5
320
330
18
100
AcDbEntity
  8
1
  6
Continuous
 48
0.25
100
AcDbCircle
 10
242.4908841689332
 20
122.3723824509599
 30
0.0
 40
0.2222195458280301
100
AcDbArc
 50
206.0143659996364
 51
270.0
  0
ARC
  5
321
330
18
100
AcDbEntity
  8
1
  6
Continuous
 48
0.25
100
AcDbCircle
 10
247.044162120686
 20
124.5945779092402
 30
0.0
 40
5.288825190707117
100
AcDbArc
 50
202.9439535565378
 51
206.0143659996364
  0
ARC
  5
322
330
18
100
AcDbEntity
  8
1
  6
Continuous
 48
0.25
100
AcDbCircle
 10
242.2146815462186
 20
122.5501580876223
 30
0.0
 40
0.044443909165606
100
AcDbArc
 50
90.0
 51
202.9439535565378
  0
LINE
  5
323
330
18
100
AcDbEntity
  8
1
  6
Continuous
 48
0.25
100
AcDbLine
 10
242.2146815462186
 20
122.594601996788
 30
0.0
 11
244.4070659553319
 21
122.594601996788
 31
0.0
  0
ARC
  5
324
330
18
100
AcDbEntity
  8
1
  6
Continuous
 48
0.25
100
AcDbCircle
 10
244.4070659553319
 20
122.5501580876223
 30
0.0
 40
0.044443909165606
100
AcDbArc
 50
337.0560464434622
 51
90.0
  0
ARC
  5
325
330
18
100
AcDbEntity
  8
1
  6
Continuous
 48
0.25
100
AcDbCircle
 10
239.5775853808643
 20
124.5945779092402
 30
0.0
 40
5.288825190707117
100
AcDbArc
 50
333.9856340003635
 51
337.0560464434622
  0
ARC
  5
326
330
18
100
AcDbEntity
  8
1
  6
Continuous
 48
0.25
100
AcDbCircle
 10
244.1308633326171
 20
122.3723824509599
 30
0.0
 40
0.2222195458280301
100
AcDbArc
 50
270.0
 51
333.9856340003635
  0
LINE
  5
327
330
18
100
AcDbEntity
  8
1
  6
Continuous
 48
0.25
100
AcDbLine
 10
242.7775468407916
 20
123.4834801801001
 30
0.0
 11
241.9286701063902
 21
123.4834801801001
 31
0.0
  0
ARC
  5
328
330
18
100
AcDbEntity
  8
1
  6
Continuous
 48
0.25
100
AcDbCircle
 10
241.9286701063902
 20
123.4390362709345
 30
0.0
 40
0.044443909165606
100
AcDbArc
 50
90.0
 51
192.7289438731229
  0
ARC
  5
329
330
18
100
AcDbEntity
  8
1
  6
Continuous
 48
0.25
100
AcDbCircle
 10
247.044162120686
 20
124.5945779092402
 30
0.0
 40
5.288825190707117
100
AcDbArc
 50
192.7289438731229
 51
193.2681189705562
  0
ARC
  5
32A
330
18
100
AcDbEntity
  8
1
  6
Continuous
 48
0.25
100
AcDbCircle
 10
247.044162120686
 20
124.5945779092402
 30
0.0
 40
5.288825190707117
100
AcDbArc
 50
193.2681189705562
 51
195.2575232904559
  0
ARC
  5
32B
330
18
100
AcDbEntity
  8
1
  6
Continuous
 48
0.25
100
AcDbCircle
 10
242.156140250339
 20
123.261260634272
 30
0.0
 40
0.2222195458280301
100
AcDbArc
 50
195.2575232904559
 51
270.0
  0
LINE
  5
32C
330
18
100
AcDbEntity
  8
1
  6
Continuous
 48
0.25
100
AcDbLine
 10
242.156140250339
 20
123.039041088444
 30
0.0
 11
244.4656072512115
 21
123.039041088444
 31
0.0
  0
ARC
  5
32D
330
18
100
AcDbEntity
  8
1
  6
Continuous
 48
0.25
100
AcDbCircle
 10
244.4656072512115
 20
123.261260634272
 30
0.0
 40
0.2222195458280301
100
AcDbArc
 50
270.0
 51
344.7424767095441
  0
ARC
  5
32E
330
18
100
AcDbEntity
  8
1
  6
Continuous
 48
0.25
100
AcDbCircle
 10
239.5775853808643
 20
124.5945779092402
 30
0.0
 40
5.288825190707117
100
AcDbArc
 50
344.7424767095441
 51
344.7937121239422
  0
ARC
  5
32F
330
18
100
AcDbEntity
  8
1
  6
Continuous
 48
0.25
100
AcDbCircle
 10
239.5775853808643
 20
124.5945779092402
 30
0.0
 40
5.288825190707117
100
AcDbArc
 50
344.7937121239422
 51
347.2710561268771
  0
ARC
  5
330
330
18
100
AcDbEntity
  8
1
  6
Continuous
 48
0.25
100
AcDbCircle
 10
244.6930773951602
 20
123.4390362709345
 30
0.0
 40
0.044443909165606
100
AcDbArc
 50
347.2710561268771
 51
90.0
  0
LINE
  5
331
330
18
100
AcDbEntity
  8
1
  6
Continuous
 48
0.25
100
AcDbLine
 10
244.6930773951602
 20
123.4834801801001
 30
0.0
 11
243.8442006607661
 21
123.4834801801001
 31
0.0
  0
LINE
  5
332
330
18
100
AcDbEntity
  8
1
  6
Continuous
 48
0.25
100
AcDbLine
 10
241.7975214660456
 20
123.9279192717561
 30
0.0
 11
244.8242260355048
 21
123.9279192717561
 31
0.0
  0
LINE
  5
333
330
18
100
AcDbEntity
  8
1
  6
Continuous
 48
0.25
100
AcDbLine
 10
241.7600074701
 20
124.3723583634122
 30
0.0
 11
244.8617400314503
 21
124.3723583634122
 31
0.0
  0
LINE
  5
334
330
18
100
AcDbEntity
  8
1
  6
Continuous
 48
0.25
100
AcDbLine
 10
243.3108737507788
 20
124.3723583634122
 30
0.0
 11
243.3108737507788
 21
123.9279192717561
 31
0.0
  0
LINE
  5
335
330
18
100
AcDbEntity
  8
1
  6
Continuous
 48
0.25
100
AcDbLine
 10
241.7600074701
 20
124.8167974550683
 30
0.0
 11
244.8617400314503
 21
124.8167974550683
 31
0.0
  0
LINE
  5
336
330
18
100
AcDbEntity
  8
1
  6
Continuous
 48
0.25
100
AcDbLine
 10
242.7775468407916
 20
125.7056756383804
 30
0.0
 11
242.0561376283692
 21
125.7056756383804
 31
0.0
  0
ARC
  5
337
330
18
100
AcDbEntity
  8
1
  6
Continuous
 48
0.25
100
AcDbCircle
 10
242.0561376283692
 20
125.4834560925524
 30
0.0
 40
0.2222195458280301
100
AcDbArc
 50
90.0
 51
169.8958172838747
  0
ARC
  5
338
330
18
100
AcDbEntity
  8
1
  6
Continuous
 48
0.25
100
AcDbCircle
 10
247.044162120686
 20
124.5945779092402
 30
0.0
 40
5.288825190707117
100
AcDbArc
 50
169.8958172838747
 51
172.2070756645772
  0
ARC
  5
339
330
18
100
AcDbEntity
  8
1
  6
Continuous
 48
0.25
100
AcDbCircle
 10
241.8482148351248
 20
125.3056804558899
 30
0.0
 40
0.044443909165606
100
AcDbArc
 50
172.2070756645772
 51
270.0
  0
LINE
  5
33A
330
18
100
AcDbEntity
  8
1
  6
Continuous
 48
0.25
100
AcDbLine
 10
241.8482148351248
 20
125.2612365467243
 30
0.0
 11
244.7735326664254
 21
125.2612365467243
 31
0.0
  0
ARC
  5
33B
330
18
100
AcDbEntity
  8
1
  6
Continuous
 48
0.25
100
AcDbCircle
 10
244.7735326664254
 20
125.3056804558899
 30
0.0
 40
0.044443909165606
100
AcDbArc
 50
270.0
 51
7.792924335422759
  0
ARC
  5
33C
330
18
100
AcDbEntity
  8
1
  6
Continuous
 48
0.25
100
AcDbCircle
 10
239.5775853808643
 20
124.5945779092402
 30
0.0
 40
5.288825190707117
100
AcDbArc
 50
7.792924335422759
 51
10.10418271612524
  0
ARC
  5
33D
330
18
100
AcDbEntity
  8
1
  6
Continuous
 48
0.25
100
AcDbCircle
 10
244.5656098731811
 20
125.4834560925524
 30
0.0
 40
0.2222195458280301
100
AcDbArc
 50
10.10418271612524
 51
90.0
  0
LINE
  5
33E
330
18
100
AcDbEntity
  8
1
  6
Continuous
 48
0.25
100
AcDbLine
 10
244.5656098731811
 20
125.7056756383804
 30
0.0
 11
243.3108737507788
 21
125.7056756383804
 31
0.0
  0
LINE
  5
33F
330
18
100
AcDbEntity
  8
1
  6
Continuous
 48
0.25
100
AcDbLine
 10
243.3108737507788
 20
125.7056756383804
 30
0.0
 11
243.3108737507788
 21
125.4834560925524
 31
0.0
  0
LINE
  5
340
330
18
100
AcDbEntity
  8
1
  6
Continuous
 48
0.25
100
AcDbLine
 10
241.8499258106233
 20
126.1501147300365
 30
0.0
 11
244.6324817296538
 21
126.1501147300365
 31
0.0
  0
LINE
  5
341
330
18
100
AcDbEntity
  8
1
  6
Continuous
 48
0.25
100
AcDbLine
 10
242.0593066404377
 20
126.5945538216925
 30
0.0
 11
243.0886542049508
 21
126.5945538216925
 31
0.0
  0
ARC
  5
342
330
18
100
AcDbEntity
  8
1
  6
Continuous
 48
0.25
100
AcDbCircle
 10
243.0886542049508
 20
126.8167733675205
 30
0.0
 40
0.2222195458280311
100
AcDbArc
 50
270.0
 51
90.0
  0
LINE
  5
343
330
18
100
AcDbEntity
  8
1
  6
Continuous
 48
0.25
100
AcDbLine
 10
243.0886542049508
 20
127.0389929133486
 30
0.0
 11
242.1391973161035
 21
127.0389929133486
 31
0.0
  0
LINE
  5
344
330
18
100
AcDbEntity
  8
1
  6
Continuous
 48
0.25
100
AcDbLine
 10
243.3108737507788
 20
126.8167733675205
 30
0.0
 11
244.3769102545373
 21
126.8167733675205
 31
0.0
  0
LINE
  5
345
330
18
100
AcDbEntity
  8
1
  6
Continuous
 48
0.25
100
AcDbLine
 10
244.1425597522035
 20
127.265285846637
 30
0.0
 11
242.268826593267
 21
127.7673511334071
 31
0.0
  0
LINE
  5
346
330
18
100
AcDbEntity
  8
1
  6
Continuous
 48
0.25
100
AcDbLine
 10
243.3108737507788
 20
128.4066251881655
 30
0.0
 11
243.3108737507788
 21
127.4881354390758
 31
0.0
  0
CIRCLE
  5
347
330
18
100
AcDbEntity
  8
2
  6
Continuous
 48
0.25
100
AcDbCircle
 10
244.3108978383229
 20
158.0945779092403
 30
0.0
 40
1.999999999999971
  0
CIRCLE
  5
348
330
18
100
AcDbEntity
  8
2
  6
Continuous
 48
0.25
100
AcDbCircle
 10
244.3108978383229
 20
108.0945779092403
 30
0.0
 40
1.999999999999971
  0
ARC
  5
349
330
18
100
AcDbEntity
  8
1
  6
Continuous
 48
0.25
100
AcDbCircle
 10
244.3108978383229
 20
108.0945779092403
 30
0.0
 40
5.0
100
AcDbArc
 50
60.0
 51
120.0
  0
ARC
  5
34A
330
18
100
AcDbEntity
  8
1
  6
Continuous
 48
0.25
100
AcDbCircle
 10
241.3108978383229
 20
113.2907303319469
 30
0.0
 40
1.0
100
AcDbArc
 50
180.0
 51
300.0
  0
ARC
  5
34B
330
18
100
AcDbEntity
  8
1
  6
Continuous
 48
0.25
100
AcDbCircle
 10
247.3108978383229
 20
113.2907303319469
 30
0.0
 40
1.0
100
AcDbArc
 50
240.0
 51
0.0
  0
ARC
  5
34C
330
18
100
AcDbEntity
  8
1
  6
Continuous
 48
0.25
100
AcDbCircle
 10
244.3108978383229
 20
158.0945779092403
 30
0.0
 40
5.0
100
AcDbArc
 50
240.0
 51
300.0
  0
ARC
  5
34D
330
18
100
AcDbEntity
  8
1
  6
Continuous
 48
0.25
100
AcDbCircle
 10
247.3108978383229
 20
152.8984254865336
 30
0.0
 40
1.0
100
AcDbArc
 50
0.0
 51
120.0
  0
ARC
  5
34E
330
18
100
AcDbEntity
  8
1
  6
Continuous
 48
0.25
100
AcDbCircle
 10
241.3108978383229
 20
152.8984254865336
 30
0.0
 40
1.0
100
AcDbArc
 50
60.0
 51
180.0
  0
CIRCLE
  5
34F
330
18
100
AcDbEntity
  8
1
  6
Continuous
 48
0.25
100
AcDbCircle
 10
246.3108978383229
 20
116.0945779092402
 30
0.0
 40
1.0
  0
ARC
  5
350
330
18
100
AcDbEntity
  8
1
  6
Continuous
 48
0.25
100
AcDbCircle
 10
258.416470647323
 20
138.8945779092402
 30
0.0
 40
0.2000000000000098
100
AcDbArc
 50
41.81031489577788
 51
90.0
  0
ARC
  5
351
330
18
100
AcDbEntity
  8
1
  6
Continuous
 48
0.25
100
AcDbCircle
 10
260.2053250293228
 20
125.6945779092403
 30
0.0
 40
0.2000000000000024
100
AcDbArc
 50
90.0
 51
138.1896851042221
  0
ARC
  5
352
330
18
100
AcDbEntity
  8
1
  6
Continuous
 48
0.25
100
AcDbCircle
 10
258.416470647323
 20
125.6945779092403
 30
0.0
 40
0.2000000000000028
100
AcDbArc
 50
41.81031489577788
 51
90.0
  0
ARC
  5
353
330
18
100
AcDbEntity
  8
1
  6
Continuous
 48
0.25
100
AcDbCircle
 10
260.2053250293228
 20
127.2945779092403
 30
0.0
 40
0.2000000000000028
100
AcDbArc
 50
221.8103148957779
 51
270.0
  0
ARC
  5
354
330
18
100
AcDbEntity
  8
1
  6
Continuous
 48
0.25
100
AcDbCircle
 10
258.416470647323
 20
127.2945779092403
 30
0.0
 40
0.2000000000000024
100
AcDbArc
 50
270.0
 51
318.1896851042221
  0
ARC
  5
355
330
18
100
AcDbEntity
  8
1
  6
Continuous
 48
0.25
100
AcDbCircle
 10
258.416470647323
 20
140.4945779092403
 30
0.0
 40
0.2000000000000102
100
AcDbArc
 50
270.0
 51
318.1896851042184
  0
ARC
  5
356
330
18
100
AcDbEntity
  8
1
  6
Continuous
 48
0.25
100
AcDbCircle
 10
260.2053250293228
 20
140.4945779092403
 30
0.0
 40
0.2000000000000098
100
AcDbArc
 50
221.8103148957779
 51
270.0
  0
ARC
  5
357
330
18
100
AcDbEntity
  8
1
  6
Continuous
 48
0.25
100
AcDbCircle
 10
260.2053250293228
 20
138.8945779092402
 30
0.0
 40
0.2000000000000102
100
AcDbArc
 50
90.0
 51
138.1896851042184
  0
ARC
  5
358
330
18
100
AcDbEntity
  8
1
  6
Continuous
 48
0.25
100
AcDbCircle
 10
259.3108978383229
 20
139.6945779092403
 30
0.0
 40
0.9999999999999994
100
AcDbArc
 50
221.8103148957802
 51
318.1896851042209
  0
ARC
  5
359
330
18
100
AcDbEntity
  8
1
  6
Continuous
 48
0.25
100
AcDbCircle
 10
259.3108978383229
 20
126.4945779092402
 30
0.0
 40
0.999999999999998
100
AcDbArc
 50
221.810314895779
 51
318.1896851042209
  0
ARC
  5
35A
330
18
100
AcDbEntity
  8
1
  6
Continuous
 48
0.25
100
AcDbCircle
 10
259.3108978383229
 20
126.4945779092402
 30
0.0
 40
0.999999999999998
100
AcDbArc
 50
41.81031489577907
 51
138.1896851042209
  0
ARC
  5
35B
330
18
100
AcDbEntity
  8
1
  6
Continuous
 48
0.25
100
AcDbCircle
 10
259.3108978383229
 20
139.6945779092403
 30
0.0
 40
0.9999999999999994
100
AcDbArc
 50
41.81031489578017
 51
138.1896851042209
  0
LINE
  5
35C
330
18
100
AcDbEntity
  8
1
  6
Continuous
 48
0.25
100
AcDbLine
 10
258.416470647323
 20
127.0945779092403
 30
0.0
 11
255.3108978383229
 21
127.0945779092403
 31
0.0
  0
LINE
  5
35D
330
18
100
AcDbEntity
  8
1
  6
Continuous
 48
0.25
100
AcDbLine
 10
258.416470647323
 20
140.2945779092403
 30
0.0
 11
255.3108978383229
 21
140.2945779092403
 31
0.0
  0
LINE
  5
35E
330
18
100
AcDbEntity
  8
1
  6
Continuous
 48
0.25
100
AcDbLine
 10
263.3108978383229
 20
140.2945779092403
 30
0.0
 11
260.2053250293228
 21
140.2945779092403
 31
0.0
  0
LINE
  5
35F
330
18
100
AcDbEntity
  8
1
  6
Continuous
 48
0.25
100
AcDbLine
 10
260.2053250293228
 20
125.8945779092403
 30
0.0
 11
263.3108978383229
 21
125.8945779092403
 31
0.0
  0
LINE
  5
360
330
18
100
AcDbEntity
  8
1
  6
Continuous
 48
0.25
100
AcDbLine
 10
263.3108978383229
 20
127.0945779092403
 30
0.0
 11
260.2053250293228
 21
127.0945779092403
 31
0.0
  0
LINE
  5
361
330
18
100
AcDbEntity
  8
1
  6
Continuous
 48
0.25
100
AcDbLine
 10
255.3108978383229
 20
125.8945779092403
 30
0.0
 11
258.416470647323
 21
125.8945779092403
 31
0.0
  0
LINE
  5
362
330
18
100
AcDbEntity
  8
1
  6
Continuous
 48
0.25
100
AcDbLine
 10
255.3108978383229
 20
139.0945779092403
 30
0.0
 11
258.416470647323
 21
139.0945779092403
 31
0.0
  0
LINE
  5
363
330
18
100
AcDbEntity
  8
1
  6
Continuous
 48
0.25
100
AcDbLine
 10
260.2053250293228
 20
139.0945779092403
 30
0.0
 11
263.3108978383229
 21
139.0945779092403
 31
0.0
  0
ARC
  5
364
330
18
100
AcDbEntity
  8
1
  6
Continuous
 48
0.25
100
AcDbCircle
 10
262.8108978383229
 20
105.2387551233617
 30
0.0
 40
0.4999999999999983
100
AcDbArc
 50
270.0
 51
0.0
  0
ARC
  5
365
330
18
100
AcDbEntity
  8
1
  6
Continuous
 48
0.25
100
AcDbCircle
 10
262.3108978383229
 20
106.7700225889035
 30
0.0
 40
1.000000000000002
100
AcDbArc
 50
0.0
 51
115.3769335251515
  0
LINE
  5
366
330
18
100
AcDbEntity
  8
1
  6
Continuous
 48
0.25
100
AcDbLine
 10
262.8108978383229
 20
104.7387551233617
 30
0.0
 11
255.8108978383229
 21
104.7387551233617
 31
0.0
  0
ARC
  5
367
330
18
100
AcDbEntity
  8
1
  6
Continuous
 48
0.25
100
AcDbCircle
 10
259.3108978383229
 20
113.0945779092402
 30
0.0
 40
5.999999999999995
100
AcDbArc
 50
244.6230664748476
 51
295.3769335251524
  0
ARC
  5
368
330
18
100
AcDbEntity
  8
1
  6
Continuous
 48
0.25
100
AcDbCircle
 10
255.8108978383229
 20
105.2387551233617
 30
0.0
 40
0.5000000000000046
100
AcDbArc
 50
180.0
 51
270.0
  0
ARC
  5
369
330
18
100
AcDbEntity
  8
1
  6
Continuous
 48
0.25
100
AcDbCircle
 10
256.3108978383229
 20
106.7700225889035
 30
0.0
 40
1.000000000000003
100
AcDbArc
 50
64.62306647484756
 51
179.9999999999992
  0
LINE
  5
36A
330
18
100
AcDbEntity
  8
1
  6
Continuous
 48
0.25
100
AcDbLine
 10
255.3108978383229
 20
105.2387551233617
 30
0.0
 11
255.3108978383229
 21
106.7700225889035
 31
0.0
  0
LINE
  5
36B
330
18
100
AcDbEntity
  8
1
  6
Continuous
 48
0.25
100
AcDbLine
 10
263.3108978383229
 20
106.7700225889035
 30
0.0
 11
263.3108978383229
 21
105.2387551233617
 31
0.0
  0
ARC
  5
36C
330
18
100
AcDbEntity
  8
1
  6
Continuous
 48
0.25
100
AcDbCircle
 10
262.3108978383229
 20
159.4191332295771
 30
0.0
 40
1.000000000000003
100
AcDbArc
 50
244.6230664748476
 51
359.9999999999992
  0
ARC
  5
36D
330
18
100
AcDbEntity
  8
1
  6
Continuous
 48
0.25
100
AcDbCircle
 10
262.8108978383229
 20
160.9504006951189
 30
0.0
 40
0.499999999999996
100
AcDbArc
 50
0.0
 51
90.0
  0
ARC
  5
36E
330
18
100
AcDbEntity
  8
1
  6
Continuous
 48
0.25
100
AcDbCircle
 10
256.3108978383229
 20
159.4191332295771
 30
0.0
 40
1.000000000000002
100
AcDbArc
 50
180.0
 51
295.3769335251515
  0
ARC
  5
36F
330
18
100
AcDbEntity
  8
1
  6
Continuous
 48
0.25
100
AcDbCircle
 10
255.8108978383229
 20
160.9504006951189
 30
0.0
 40
0.5000000000000026
100
AcDbArc
 50
90.0
 51
179.9999999999984
  0
ARC
  5
370
330
18
100
AcDbEntity
  8
1
  6
Continuous
 48
0.25
100
AcDbCircle
 10
259.3108978383229
 20
153.0945779092403
 30
0.0
 40
6.0
100
AcDbArc
 50
64.62306647484756
 51
115.3769335251524
  0
LINE
  5
371
330
18
100
AcDbEntity
  8
1
  6
Continuous
 48
0.25
100
AcDbLine
 10
255.8108978383229
 20
161.4504006951188
 30
0.0
 11
262.8108978383229
 21
161.4504006951188
 31
0.0
  0
LINE
  5
372
330
18
100
AcDbEntity
  8
1
  6
Continuous
 48
0.25
100
AcDbLine
 10
255.3108978383229
 20
159.4191332295771
 30
0.0
 11
255.3108978383229
 21
160.9504006951189
 31
0.0
  0
LINE
  5
373
330
18
100
AcDbEntity
  8
1
  6
Continuous
 48
0.25
100
AcDbLine
 10
263.3108978383229
 20
160.9504006951189
 30
0.0
 11
263.3108978383229
 21
159.4191332295771
 31
0.0
  0
ARC
  5
374
330
18
100
AcDbEntity
  8
1
  6
Continuous
 48
0.25
100
AcDbCircle
 10
263.8108978383229
 20
127.5945779092403
 30
0.0
 40
0.5
100
AcDbArc
 50
90.0
 51
180.0
  0
ARC
  5
375
330
18
100
AcDbEntity
  8
1
  6
Continuous
 48
0.25
100
AcDbCircle
 10
264.3108978383229
 20
128.5945779092403
 30
0.0
 40
0.5
100
AcDbArc
 50
270.0
 51
0.0
  0
ARC
  5
376
330
18
100
AcDbEntity
  8
1
  6
Continuous
 48
0.25
100
AcDbCircle
 10
264.3108978383229
 20
137.5945779092403
 30
0.0
 40
0.4999999999999983
100
AcDbArc
 50
0.0
 51
90.0
  0
ARC
  5
377
330
18
100
AcDbEntity
  8
1
  6
Continuous
 48
0.25
100
AcDbCircle
 10
263.8108978383229
 20
138.5945779092403
 30
0.0
 40
0.5000000000000046
100
AcDbArc
 50
180.0000000000016
 51
270.0
  0
ARC
  5
378
330
18
100
AcDbEntity
  8
1
  6
Continuous
 48
0.25
100
AcDbCircle
 10
257.3108978383229
 20
120.8405446016551
 30
0.0
 40
1.999999999999996
100
AcDbArc
 50
180.0
 51
284.4775121859299
  0
ARC
  5
379
330
18
100
AcDbEntity
  8
1
  6
Continuous
 48
0.25
100
AcDbCircle
 10
257.3108978383229
 20
145.3486112168254
 30
0.0
 40
1.999999999999998
100
AcDbArc
 50
75.52248781407008
 51
180.0
  0
ARC
  5
37A
330
18
100
AcDbEntity
  8
1
  6
Continuous
 48
0.25
100
AcDbCircle
 10
261.3108978383229
 20
145.3486112168254
 30
0.0
 40
2.0
100
AcDbArc
 50
0.0
 51
104.4775121859299
  0
ARC
  5
37B
330
18
100
AcDbEntity
  8
1
  6
Continuous
 48
0.25
100
AcDbCircle
 10
261.3108978383229
 20
120.8405446016551
 30
0.0
 40
1.999999999999998
100
AcDbArc
 50
255.5224878140701
 51
0.0
  0
LINE
  5
37C
330
18
100
AcDbEntity
  8
1
  6
Continuous
 48
0.25
100
AcDbLine
 10
264.3108978383229
 20
128.0945779092403
 30
0.0
 11
263.8108978383229
 21
128.0945779092403
 31
0.0
  0
LINE
  5
37D
330
18
100
AcDbEntity
  8
1
  6
Continuous
 48
0.25
100
AcDbLine
 10
263.8108978383229
 20
138.0945779092403
 30
0.0
 11
264.3108978383229
 21
138.0945779092403
 31
0.0
  0
LINE
  5
37E
330
18
100
AcDbEntity
  8
1
  6
Continuous
 48
0.25
100
AcDbLine
 10
264.8108978383231
 20
137.5945779092403
 30
0.0
 11
264.8108978383229
 21
128.5945779092403
 31
0.0
  0
LINE
  5
37F
330
18
100
AcDbEntity
  8
1
  6
Continuous
 48
0.25
100
AcDbLine
 10
255.3108978383229
 20
120.8405446016551
 30
0.0
 11
255.3108978383229
 21
145.3486112168254
 31
0.0
  0
ARC
  5
380
330
18
100
AcDbEntity
  8
1
  6
Continuous
 48
0.25
100
AcDbCircle
 10
259.3108978383229
 20
113.0945779092402
 30
0.0
 40
6.000000000000018
100
AcDbArc
 50
75.52248781407008
 51
104.4775121859299
  0
ARC
  5
381
330
18
100
AcDbEntity
  8
1
  6
Continuous
 48
0.25
100
AcDbCircle
 10
259.3108978383229
 20
153.0945779092403
 30
0.0
 40
6.000000000000018
100
AcDbArc
 50
255.5224878140701
 51
284.4775121859299
  0
CIRCLE
  5
382
330
18
100
AcDbEntity
  8
1
  6
Continuous
 48
0.25
100
AcDbCircle
 10
259.3108978383229
 20
153.0945779092403
 30
0.0
 40
3.5
  0
CIRCLE
  5
383
330
18
100
AcDbEntity
  8
1
  6
Continuous
 48
0.25
100
AcDbCircle
 10
259.3108978383229
 20
113.0945779092402
 30
0.0
 40
3.5
  0
CIRCLE
  5
384
330
18
100
AcDbEntity
  8
1
  6
Continuous
 48
0.25
100
AcDbCircle
 10
259.3108978383229
 20
153.0945779092403
 30
0.0
 40
4.15
  0
CIRCLE
  5
385
330
18
100
AcDbEntity
  8
1
  6
Continuous
 48
0.25
100
AcDbCircle
 10
259.3108978383229
 20
113.0945779092402
 30
0.0
 40
4.15
  0
ARC
  5
386
330
18
100
AcDbEntity
  8
1
  6
Continuous
 48
0.25
100
AcDbCircle
 10
265.8108978383229
 20
162.5945779092403
 30
0.0
 40
0.4999999999999983
100
AcDbArc
 50
0.0
 51
90.0
  0
ARC
  5
387
330
18
100
AcDbEntity
  8
1
  6
Continuous
 48
0.25
100
AcDbCircle
 10
265.8108978383229
 20
103.5945779092402
 30
0.0
 40
0.4999999999999983
100
AcDbArc
 50
270.0
 51
0.0
  0
LINE
  5
388
330
18
100
AcDbEntity
  8
1
  6
Continuous
 48
0.25
100
AcDbLine
 10
266.3108978383229
 20
103.5945779092403
 30
0.0
 11
266.3108978383229
 21
162.5945779092403
 31
0.0
  0
ARC
  5
389
330
18
100
AcDbEntity
  8
1
  6
Continuous
 48
0.25
100
AcDbCircle
 10
252.8108978383229
 20
162.5945779092403
 30
0.0
 40
0.4999999999999983
100
AcDbArc
 50
90.0
 51
180.0
  0
ARC
  5
38A
330
18
100
AcDbEntity
  8
1
  6
Continuous
 48
0.25
100
AcDbCircle
 10
250.8108978383229
 20
152.5445779092402
 30
0.0
 40
1.499999999999999
100
AcDbArc
 50
289.4712206344922
 51
0.0
  0
ARC
  5
38B
330
18
100
AcDbEntity
  8
1
  6
Continuous
 48
0.25
100
AcDbCircle
 10
252.8108978383229
 20
103.5945779092402
 30
0.0
 40
0.4999999999999983
100
AcDbArc
 50
180.0
 51
270.0
  0
LINE
  5
38C
330
18
100
AcDbEntity
  8
1
  6
Continuous
 48
0.25
100
AcDbLine
 10
252.3108978383229
 20
162.5945779092403
 30
0.0
 11
252.3108978383229
 21
103.5945779092403
 31
0.0
  0
ARC
  5
38D
330
18
100
AcDbEntity
  8
1
  6
Continuous
 48
0.25
100
AcDbCircle
 10
250.8108978383229
 20
113.6445779092402
 30
0.0
 40
1.499999999999999
100
AcDbArc
 50
0.0
 51
70.52877936550959
  0
LINE
  5
38E
330
18
100
AcDbEntity
  8
1
  6
Continuous
 48
0.25
100
AcDbLine
 10
252.8108978383229
 20
103.0945779092403
 30
0.0
 11
265.8108978383229
 21
103.0945779092403
 31
0.0
  0
LINE
  5
38F
330
18
100
AcDbEntity
  8
1
  6
Continuous
 48
0.25
100
AcDbLine
 10
265.8108978383229
 20
163.0945779092403
 30
0.0
 11
252.8108978383229
 21
163.0945779092403
 31
0.0
  0
CIRCLE
  5
390
330
18
100
AcDbEntity
  8
1
  6
Continuous
 48
0.25
100
AcDbCircle
 10
259.3108978383229
 20
153.0945779092403
 30
0.0
 40
3.5
  0
CIRCLE
  5
391
330
18
100
AcDbEntity
  8
1
  6
Continuous
 48
0.25
100
AcDbCircle
 10
259.3108978383229
 20
153.0945779092403
 30
0.0
 40
2.067
  0
CIRCLE
  5
392
330
18
100
AcDbEntity
  8
1
  6
Continuous
 48
0.25
100
AcDbCircle
 10
259.3108978383229
 20
153.0945779092403
 30
0.0
 40
2.567
  0
CIRCLE
  5
393
330
18
100
AcDbEntity
  8
1
  6
Continuous
 48
0.25
100
AcDbCircle
 10
259.3108978383229
 20
113.0945779092402
 30
0.0
 40
3.5
  0
CIRCLE
  5
394
330
18
100
AcDbEntity
  8
1
  6
Continuous
 48
0.25
100
AcDbCircle
 10
259.3108978383229
 20
113.0945779092402
 30
0.0
 40
2.067
  0
CIRCLE
  5
395
330
18
100
AcDbEntity
  8
1
  6
Continuous
 48
0.25
100
AcDbCircle
 10
259.3108978383229
 20
113.0945779092402
 30
0.0
 40
2.567
  0
LINE
  5
396
330
18
100
AcDbEntity
  8
4
  6
CENTER
 48
0.25
100
AcDbLine
 10
253.6608978383228
 20
153.0945779092403
 30
0.0
 11
264.9608978383229
 21
153.0945779092403
 31
0.0
  0
LINE
  5
397
330
18
100
AcDbEntity
  8
1
  6
Continuous
 48
0.25
100
AcDbLine
 10
263.3108978383229
 20
120.8405446016551
 30
0.0
 11
263.3108978383229
 21
145.3486112168254
 31
0.0
  0
CIRCLE
  5
398
330
18
100
AcDbEntity
  8
2
  6
Continuous
 48
0.25
100
AcDbCircle
 10
259.3108978383229
 20
113.0945779092402
 30
0.0
 40
2.5
  0
LINE
  5
399
330
18
100
AcDbEntity
  8
4
  6
CENTER
 48
0.25
100
AcDbLine
 10
253.6608978383228
 20
113.0945779092403
 30
0.0
 11
264.9608978383229
 21
113.0945779092403
 31
0.0
  0
CIRCLE
  5
39A
330
18
100
AcDbEntity
  8
2
  6
Continuous
 48
0.25
100
AcDbCircle
 10
259.3108978383229
 20
153.0945779092403
 30
0.0
 40
2.5
  0
LINE
  5
39B
330
18
100
AcDbEntity
  8
4
  6
CENTER
 48
0.25
100
AcDbLine
 10
259.3108978383229
 20
101.5945779092403
 30
0.0
 11
259.3108978383229
 21
164.5945779092403
 31
0.0
  0
ARC
  5
39C
330
18
100
AcDbEntity
  8
1
  6
Continuous
 48
0.25
100
AcDbCircle
 10
85.28672861255021
 20
49.01456374862416
 30
0.0
 40
2.000000000000003
100
AcDbArc
 50
129.805571092265
 51
180.0
  0
ARC
  5
39D
330
18
100
AcDbEntity
  8
1
  6
Continuous
 48
0.25
100
AcDbCircle
 10
83.78672861255012
 20
42.45131364059294
 30
0.0
 40
0.499999999999996
100
AcDbArc
 50
180.0
 51
270.0
  0
ARC
  5
39E
330
18
100
AcDbEntity
  8
1
  6
Continuous
 48
0.25
100
AcDbCircle
 10
96.78672861255012
 20
59.45131364059294
 30
0.0
 40
0.5
100
AcDbArc
 50
0.0
 51
90.0
  0
ARC
  5
39F
330
18
100
AcDbEntity
  8
1
  6
Continuous
 48
0.25
100
AcDbCircle
 10
96.01082848291278
 20
57.95131364059294
 30
0.0
 40
1.999999999999992
100
AcDbArc
 50
90.0
 51
129.805571092265
  0
ARC
  5
3A0
330
18
100
AcDbEntity
  8
1
  6
Continuous
 48
0.25
100
AcDbCircle
 10
96.78672861255021
 20
42.45131364059294
 30
0.0
 40
0.5000000000000036
100
AcDbArc
 50
270.0
 51
0.0
  0
ARC
  5
3A1
330
18
100
AcDbEntity
  8
1
  6
Continuous
 48
0.25
100
AcDbCircle
 10
99.28672861255021
 20
43.95131364058943
 30
0.0
 40
2.0
100
AcDbArc
 50
119.999999999999
 51
180.0
  0
LINE
  5
3A2
330
18
100
AcDbEntity
  8
1
  6
Continuous
 48
0.25
100
AcDbLine
 10
96.78672861255021
 20
41.95131364059297
 30
0.0
 11
83.7867286125502
 21
41.95131364059297
 31
0.0
  0
LINE
  5
3A3
330
18
100
AcDbEntity
  8
1
  6
Continuous
 48
0.25
100
AcDbLine
 10
97.2867286125502
 20
59.45131364059294
 30
0.0
 11
97.2867286125502
 21
42.45131364059297
 31
0.0
  0
LINE
  5
3A4
330
18
100
AcDbEntity
  8
1
  6
Continuous
 48
0.25
100
AcDbLine
 10
84.00635981322123
 20
50.5510063078189
 30
0.0
 11
94.73045968358395
 21
59.48775619978771
 31
0.0
  0
LINE
  5
3A5
330
18
100
AcDbEntity
  8
1
  6
Continuous
 48
0.25
100
AcDbLine
 10
83.2867286125502
 20
42.45131364059297
 30
0.0
 11
83.2867286125502
 21
49.01456374862416
 31
0.0
  0
LINE
  5
3A6
330
18
100
AcDbEntity
  8
4
  6
CENTER
 48
0.25
100
AcDbLine
 10
90.28672861255021
 20
40.45131364059296
 30
0.0
 11
90.28672861255021
 21
53.45131364059295
 31
0.0
  0
LINE
  5
3A7
330
18
100
AcDbEntity
  8
1
  6
Continuous
 48
0.25
100
AcDbLine
 10
96.01082848291293
 20
59.95131364059294
 30
0.0
 11
105.2867286125502
 21
59.9513136405894
 31
0.0
  0
LINE
  5
3A8
330
18
100
AcDbEntity
  8
4
  6
CENTER
 48
0.25
100
AcDbLine
 10
244.3108978383229
 20
164.5945779092402
 30
0.0
 11
244.3108978383229
 21
101.5945779092402
 31
0.0
  0
LINE
  5
3A9
330
18
100
AcDbEntity
  8
4
  6
CENTER
 48
0.25
100
AcDbLine
 10
235.8108978383229
 20
133.0945779092403
 30
0.0
 11
267.8108978383229
 21
133.0945779092403
 31
0.0
  0
LINE
  5
3AA
330
18
100
AcDbEntity
  8
4
  6
CENTER
 48
0.25
100
AcDbLine
 10
36.28672861254643
 20
101.5945779092401
 30
0.0
 11
36.28672861254646
 21
164.5945779092404
 31
0.0
  0
ARC
  5
3AB
330
18
100
AcDbEntity
  8
1
  6
Continuous
 48
0.25
100
AcDbCircle
 10
25.7867286125501
 20
162.5945779092403
 30
0.0
 40
0.5
100
AcDbArc
 50
90.0
 51
180.0
  0
ARC
  5
3AC
330
18
100
AcDbEntity
  8
1
  6
Continuous
 48
0.25
100
AcDbCircle
 10
25.78672861255006
 20
103.5945779092402
 30
0.0
 40
0.5
100
AcDbArc
 50
180.0000000000057
 51
270.0
  0
ARC
  5
3AD
330
18
100
AcDbEntity
  8
1
  6
Continuous
 48
0.25
100
AcDbCircle
 10
42.78672861254645
 20
103.5945779092401
 30
0.0
 40
0.5
100
AcDbArc
 50
270.0
 51
0.0
  0
ARC
  5
3AE
330
18
100
AcDbEntity
  8
1
  6
Continuous
 48
0.25
100
AcDbCircle
 10
42.78672861254652
 20
162.5945779092403
 30
0.0
 40
0.5
100
AcDbArc
 50
0.0
 51
90.0
  0
LINE
  5
3AF
330
18
100
AcDbEntity
  8
1
  6
Continuous
 48
0.25
100
AcDbLine
 10
25.28672861255009
 20
103.5945779092401
 30
0.0
 11
25.28672861255009
 21
162.5945779092403
 31
0.0
  0
LINE
  5
3B0
330
18
100
AcDbEntity
  8
1
  6
Continuous
 48
0.25
100
AcDbLine
 10
25.7867286125501
 20
163.0945779092403
 30
0.0
 11
42.78672861254652
 21
163.0945779092403
 31
0.0
  0
LINE
  5
3B1
330
18
100
AcDbEntity
  8
1
  6
Continuous
 48
0.25
100
AcDbLine
 10
42.78672861254652
 20
103.0945779092401
 30
0.0
 11
25.7867286125501
 21
103.0945779092401
 31
0.0
  0
LINE
  5
3B2
330
18
100
AcDbEntity
  8
1
  6
Continuous
 48
0.25
100
AcDbLine
 10
43.28672861254652
 20
162.5945779092403
 30
0.0
 11
43.28672861254647
 21
103.5945779092401
 31
0.0
  0
LINE
  5
3B3
330
18
100
AcDbEntity
  8
4
  6
CENTER
 48
0.25
100
AcDbLine
 10
23.78672861255011
 20
113.0945779092402
 30
0.0
 11
36.78672861255011
 21
113.0945779092402
 31
0.0
  0
LINE
  5
3B4
330
18
100
AcDbEntity
  8
4
  6
CENTER
 48
0.25
100
AcDbLine
 10
23.78672861255011
 20
133.0945779092402
 30
0.0
 11
44.78672861254652
 21
133.0945779092402
 31
0.0
  0
LINE
  5
3B5
330
18
100
AcDbEntity
  8
4
  6
CENTER
 48
0.25
100
AcDbLine
 10
23.78672861255011
 20
153.0945779092405
 30
0.0
 11
36.78672861255011
 21
153.0945779092405
 31
0.0
  0
ARC
  5
3B6
330
18
100
AcDbEntity
  8
1
  6
Continuous
 48
0.25
100
AcDbCircle
 10
98.78672861255012
 20
162.5945779092403
 30
0.0
 40
0.4999999999999983
100
AcDbArc
 50
90.0
 51
180.0
  0
ARC
  5
3B7
330
18
100
AcDbEntity
  8
1
  6
Continuous
 48
0.25
100
AcDbCircle
 10
111.7867286125501
 20
162.5945779092403
 30
0.0
 40
0.4999999999999983
100
AcDbArc
 50
0.0
 51
90.0
  0
ARC
  5
3B8
330
18
100
AcDbEntity
  8
1
  6
Continuous
 48
0.25
100
AcDbCircle
 10
98.78672861255012
 20
103.5945779092403
 30
0.0
 40
0.4999999999999983
100
AcDbArc
 50
180.0
 51
270.0
  0
ARC
  5
3B9
330
18
100
AcDbEntity
  8
1
  6
Continuous
 48
0.25
100
AcDbCircle
 10
111.7867286125501
 20
103.5945779092403
 30
0.0
 40
0.4999999999999983
100
AcDbArc
 50
270.0
 51
0.0
  0
LINE
  5
3BA
330
18
100
AcDbEntity
  8
1
  6
Continuous
 48
0.25
100
AcDbLine
 10
98.78672861255012
 20
103.0945779092403
 30
0.0
 11
111.7867286125501
 21
103.0945779092403
 31
0.0
  0
LINE
  5
3BB
330
18
100
AcDbEntity
  8
1
  6
Continuous
 48
0.25
100
AcDbLine
 10
111.7867286125501
 20
163.0945779092403
 30
0.0
 11
98.78672861255012
 21
163.0945779092403
 31
0.0
  0
LINE
  5
3BC
330
18
100
AcDbEntity
  8
1
  6
Continuous
 48
0.25
100
AcDbLine
 10
98.7867286125502
 20
153.2445779092432
 30
0.0
 11
111.7867286125502
 21
153.2445779092447
 31
0.0
  0
LINE
  5
3BD
330
18
100
AcDbEntity
  8
1
  6
Continuous
 48
0.25
100
AcDbLine
 10
98.78672861254962
 20
112.9445779092617
 30
0.0
 11
111.7867286125496
 21
112.9445779092734
 31
0.0
  0
ARC
  5
3BE
330
18
100
AcDbEntity
  8
1
  6
Continuous
 48
0.25
100
AcDbCircle
 10
111.7867286125501
 20
112.4445779092734
 30
0.0
 40
0.5
100
AcDbArc
 50
0.0
 51
90.0
  0
ARC
  5
3BF
330
18
100
AcDbEntity
  8
1
  6
Continuous
 48
0.25
100
AcDbCircle
 10
98.78672861255012
 20
112.4445779092617
 30
0.0
 40
0.5
100
AcDbArc
 50
90.0
 51
180.0
  0
ARC
  5
3C0
330
18
100
AcDbEntity
  8
1
  6
Continuous
 48
0.25
100
AcDbCircle
 10
98.78672861255012
 20
153.7445779092431
 30
0.0
 40
0.5
100
AcDbArc
 50
180.0
 51
270.0
  0
ARC
  5
3C1
330
18
100
AcDbEntity
  8
1
  6
Continuous
 48
0.25
100
AcDbCircle
 10
111.7867286125501
 20
153.7445779092447
 30
0.0
 40
0.5
100
AcDbArc
 50
270.0
 51
0.0
  0
LINE
  5
3C2
330
18
100
AcDbEntity
  8
1
  6
Continuous
 48
0.25
100
AcDbLine
 10
111.98672861255
 20
125.0945779092402
 30
0.0
 11
111.98672861255
 21
141.0945779092403
 31
0.0
  0
ARC
  5
3C3
330
18
100
AcDbEntity
  8
1
  6
Continuous
 48
0.25
100
AcDbCircle
 10
83.78672861255001
 20
103.5945779092402
 30
0.0
 40
0.4999999999999983
100
AcDbArc
 50
180.0
 51
270.0
  0
ARC
  5
3C4
330
18
100
AcDbEntity
  8
1
  6
Continuous
 48
0.25
100
AcDbCircle
 10
83.78672861255001
 20
162.5945779092403
 30
0.0
 40
0.4999999999999983
100
AcDbArc
 50
90.0
 51
180.0
  0
LINE
  5
3C5
330
18
100
AcDbEntity
  8
1
  6
Continuous
 48
0.25
100
AcDbLine
 10
83.28672861255013
 20
162.5945779092403
 30
0.0
 11
83.28672861255013
 21
103.5945779092402
 31
0.0
  0
ARC
  5
3C6
330
18
100
AcDbEntity
  8
1
  6
Continuous
 48
0.25
100
AcDbCircle
 10
96.78672861255012
 20
103.5945779092402
 30
0.0
 40
0.4999999999999983
100
AcDbArc
 50
270.0
 51
0.0
  0
ARC
  5
3C7
330
18
100
AcDbEntity
  8
1
  6
Continuous
 48
0.25
100
AcDbCircle
 10
96.78672861255012
 20
162.5945779092403
 30
0.0
 40
0.4999999999999983
100
AcDbArc
 50
0.0
 51
90.0
  0
LINE
  5
3C8
330
18
100
AcDbEntity
  8
1
  6
Continuous
 48
0.25
100
AcDbLine
 10
96.78672861255012
 20
163.0945779092403
 30
0.0
 11
83.78672861255001
 21
163.0945779092403
 31
0.0
  0
LINE
  5
3C9
330
18
100
AcDbEntity
  8
1
  6
Continuous
 48
0.25
100
AcDbLine
 10
83.78672861255001
 20
103.0945779092402
 30
0.0
 11
96.78672861255012
 21
103.0945779092402
 31
0.0
  0
ARC
  5
3CA
330
18
100
AcDbEntity
  8
1
  6
Continuous
 48
0.25
100
AcDbCircle
 10
111.7867286125501
 20
150.5445779092402
 30
0.0
 40
0.5
100
AcDbArc
 50
0.0
 51
90.0
  0
ARC
  5
3CB
330
18
100
AcDbEntity
  8
1
  6
Continuous
 48
0.25
100
AcDbCircle
 10
111.7867286125501
 20
115.6445779092402
 30
0.0
 40
0.5
100
AcDbArc
 50
270.0
 51
0.0
  0
LINE
  5
3CC
330
18
100
AcDbEntity
  8
1
  6
Continuous
 48
0.25
100
AcDbLine
 10
111.98672861255
 20
125.0945779092402
 30
0.0
 11
112.2867286125501
 21
125.0945779092402
 31
0.0
  0
LINE
  5
3CD
330
18
100
AcDbEntity
  8
1
  6
Continuous
 48
0.25
100
AcDbLine
 10
111.98672861255
 20
141.0945779092403
 30
0.0
 11
112.2867286125501
 21
141.0945779092403
 31
0.0
  0
LINE
  5
3CE
330
18
100
AcDbEntity
  8
1
  6
Continuous
 48
0.25
100
AcDbLine
 10
98.28672861255013
 20
115.1445779092402
 30
0.0
 11
112.2867286125501
 21
115.1445779092402
 31
0.0
  0
LINE
  5
3CF
330
18
100
AcDbEntity
  8
1
  6
Continuous
 48
0.25
100
AcDbLine
 10
98.28672861255013
 20
151.0445779092402
 30
0.0
 11
112.2867286125501
 21
151.0445779092402
 31
0.0
  0
LINE
  5
3D0
330
18
100
AcDbEntity
  8
1
  6
Continuous
 48
0.25
100
AcDbLine
 10
97.28672861255013
 20
152.0445779092402
 30
0.0
 11
97.28672861255013
 21
162.5945779092403
 31
0.0
  0
LINE
  5
3D1
330
18
100
AcDbEntity
  8
1
  6
Continuous
 48
0.25
100
AcDbLine
 10
97.28672861255013
 20
103.5945779092402
 30
0.0
 11
97.28672861255013
 21
114.1445779092402
 31
0.0
  0
LINE
  5
3D2
330
18
100
AcDbEntity
  8
1
  6
Continuous
 48
0.25
100
AcDbLine
 10
98.28672861255013
 20
162.5945779092403
 30
0.0
 11
98.28672861255013
 21
151.0445779092402
 31
0.0
  0
LINE
  5
3D3
330
18
100
AcDbEntity
  8
1
  6
Continuous
 48
0.25
100
AcDbLine
 10
98.28672861255013
 20
115.1445779092402
 30
0.0
 11
98.28672861255013
 21
103.5945779092403
 31
0.0
  0
LINE
  5
3D4
330
18
100
AcDbEntity
  8
4
  6
CENTER
 48
0.25
100
AcDbLine
 10
81.78672861255012
 20
133.0945779092402
 30
0.0
 11
113.7867286125501
 21
133.0945779092403
 31
0.0
  0
LINE
  5
3D5
330
18
100
AcDbEntity
  8
4
  6
CENTER
 48
0.25
100
AcDbLine
 10
105.2867286125501
 20
164.5945779092402
 30
0.0
 11
105.2867286125501
 21
101.5945779092403
 31
0.0
  0
ARC
  5
3D6
330
18
100
AcDbEntity
  8
1
  6
Continuous
 48
0.25
100
AcDbCircle
 10
98.28672861255013
 20
152.0445779092402
 30
0.0
 40
1.0
100
AcDbArc
 50
180.0
 51
270.0
  0
ARC
  5
3D7
330
18
100
AcDbEntity
  8
1
  6
Continuous
 48
0.25
100
AcDbCircle
 10
98.28672861255013
 20
114.1445779092402
 30
0.0
 40
1.0
100
AcDbArc
 50
90.0
 51
180.0
  0
LINE
  5
3D8
330
18
100
AcDbEntity
  8
1
  6
Continuous
 48
0.25
100
AcDbLine
 10
98.28672861255013
 20
153.0445779092402
 30
0.0
 11
112.2867286125501
 21
153.0445779092402
 31
0.0
  0
LINE
  5
3D9
330
18
100
AcDbEntity
  8
1
  6
Continuous
 48
0.25
100
AcDbLine
 10
98.28672861255013
 20
113.1445779092402
 30
0.0
 11
112.2867286125501
 21
113.1445779092402
 31
0.0
  0
ARC
  5
3DA
330
18
100
AcDbEntity
  8
1
  6
Continuous
 48
0.25
100
AcDbCircle
 10
98.7867286125502
 20
42.45131364058937
 30
0.0
 40
0.5000000000000036
100
AcDbArc
 50
180.0
 51
270.0
  0
ARC
  5
3DB
330
18
100
AcDbEntity
  8
1
  6
Continuous
 48
0.25
100
AcDbCircle
 10
105.2867286125502
 20
52.95131364058938
 30
0.0
 40
6.999999999999992
100
AcDbArc
 50
0.0
 51
180.0
  0
ARC
  5
3DC
330
18
100
AcDbEntity
  8
1
  6
Continuous
 48
0.25
100
AcDbCircle
 10
111.7867286125502
 20
42.45131364058937
 30
0.0
 40
0.5000000000000027
100
AcDbArc
 50
270.0
 51
0.0
  0
LINE
  5
3DD
330
18
100
AcDbEntity
  8
1
  6
Continuous
 48
0.25
100
AcDbLine
 10
98.28672861255022
 20
42.45131364058941
 30
0.0
 11
98.28672861255022
 21
52.9513136405894
 31
0.0
  0
LINE
  5
3DE
330
18
100
AcDbEntity
  8
1
  6
Continuous
 48
0.25
100
AcDbLine
 10
111.7867286125502
 20
41.95131364058942
 30
0.0
 11
98.7867286125502
 21
41.95131364058942
 31
0.0
  0
LINE
  5
3DF
330
18
100
AcDbEntity
  8
1
  6
Continuous
 48
0.25
100
AcDbLine
 10
112.2867286125503
 20
52.95131364058933
 30
0.0
 11
112.2867286125502
 21
42.45131364058934
 31
0.0
  0
LINE
  5
3E0
330
18
100
AcDbEntity
  8
4
  6
CENTER
 48
0.25
100
AcDbLine
 10
96.78672861255021
 20
52.9513136405894
 30
0.0
 11
113.7867286125502
 21
52.9513136405894
 31
0.0
  0
LINE
  5
3E1
330
18
100
AcDbEntity
  8
4
  6
CENTER
 48
0.25
100
AcDbLine
 10
105.2867286125502
 20
40.45131364058943
 30
0.0
 11
105.2867286125502
 21
61.45131364058944
 31
0.0
  0
CIRCLE
  5
3E2
330
18
100
AcDbEntity
  8
1
  6
Continuous
 48
0.25
100
AcDbCircle
 10
105.2867286125501
 20
52.95131364058933
 30
0.0
 40
4.499999999999972
  0
ARC
  5
3E3
330
18
100
AcDbEntity
  8
1
  6
Continuous
 48
0.25
100
AcDbCircle
 10
105.2867286125501
 20
52.9513136405894
 30
0.0
 40
4.025
100
AcDbArc
 50
118.1169389093156
 51
121.8830610906859
  0
ARC
  5
3E4
330
18
100
AcDbEntity
  8
1
  6
Continuous
 48
0.25
100
AcDbCircle
 10
105.2867286125501
 20
52.9513136405894
 30
0.0
 40
4.025
100
AcDbArc
 50
178.1169389093126
 51
181.8830610906841
  0
ARC
  5
3E5
330
18
100
AcDbEntity
  8
1
  6
Continuous
 48
0.25
100
AcDbCircle
 10
105.2867286125501
 20
52.9513136405894
 30
0.0
 40
4.025
100
AcDbArc
 50
238.116938909316
 51
241.8830610906871
  0
ARC
  5
3E6
330
18
100
AcDbEntity
  8
1
  6
Continuous
 48
0.25
100
AcDbCircle
 10
105.2867286125501
 20
52.9513136405894
 30
0.0
 40
4.025
100
AcDbArc
 50
298.1169389093129
 51
301.8830610906879
  0
ARC
  5
3E7
330
18
100
AcDbEntity
  8
1
  6
Continuous
 48
0.25
100
AcDbCircle
 10
105.2867286125501
 20
52.9513136405894
 30
0.0
 40
4.025
100
AcDbArc
 50
358.1169389093118
 51
1.883061090686567
  0
ARC
  5
3E8
330
18
100
AcDbEntity
  8
1
  6
Continuous
 48
0.25
100
AcDbCircle
 10
105.2867286125501
 20
52.9513136405894
 30
0.0
 40
4.025
100
AcDbArc
 50
58.11693890931309
 51
61.88306109068435
  0
LINE
  5
3E9
330
18
100
AcDbEntity
  8
1
  6
Continuous
 48
0.25
100
AcDbLine
 10
103.6504217953548
 20
49.30131364058938
 30
0.0
 11
106.9230354297455
 21
49.30131364058938
 31
0.0
  0
LINE
  5
3EA
330
18
100
AcDbEntity
  8
1
  6
Continuous
 48
0.25
100
AcDbLine
 10
103.6504217953548
 20
56.60131364058941
 30
0.0
 11
106.9230354297455
 21
56.60131364058941
 31
0.0
  0
LINE
  5
3EB
330
18
100
AcDbEntity
  8
1
  6
Continuous
 48
0.25
100
AcDbLine
 10
102.9438892973347
 20
49.70923036851258
 30
0.0
 11
101.3075824801392
 21
52.54339691266634
 31
0.0
  0
LINE
  5
3EC
330
18
100
AcDbEntity
  8
1
  6
Continuous
 48
0.25
100
AcDbLine
 10
109.265874744961
 20
53.35923036851254
 30
0.0
 11
107.6295679277657
 21
56.19339691266613
 31
0.0
  0
LINE
  5
3ED
330
18
100
AcDbEntity
  8
1
  6
Continuous
 48
0.25
100
AcDbLine
 10
109.2658747449611
 20
52.54339691266622
 30
0.0
 11
107.6295679277657
 21
49.7092303685125
 31
0.0
  0
LINE
  5
3EE
330
18
100
AcDbEntity
  8
1
  6
Continuous
 48
0.25
100
AcDbLine
 10
102.9438892973346
 20
56.19339691266619
 30
0.0
 11
101.3075824801392
 21
53.35923036851252
 31
0.0
  0
ARC
  5
3EF
330
18
100
AcDbEntity
  8
1
  6
Continuous
 48
0.25
100
AcDbCircle
 10
105.2867286125502
 20
52.95131364058933
 30
0.0
 40
4.0
100
AcDbArc
 50
114.1468479965024
 51
125.8531520034979
  0
ARC
  5
3F0
330
18
100
AcDbEntity
  8
1
  6
Continuous
 48
0.25
100
AcDbCircle
 10
105.2867286125502
 20
52.95131364058933
 30
0.0
 40
4.0
100
AcDbArc
 50
54.14684799650104
 51
65.85315200349755
  0
ARC
  5
3F1
330
18
100
AcDbEntity
  8
1
  6
Continuous
 48
0.25
100
AcDbCircle
 10
105.2867286125502
 20
52.95131364058933
 30
0.0
 40
4.0
100
AcDbArc
 50
354.1468479965045
 51
5.853152003499499
  0
ARC
  5
3F2
330
18
100
AcDbEntity
  8
1
  6
Continuous
 48
0.25
100
AcDbCircle
 10
105.2867286125502
 20
52.95131364058933
 30
0.0
 40
4.0
100
AcDbArc
 50
294.1468479965024
 51
305.8531520034949
  0
ARC
  5
3F3
330
18
100
AcDbEntity
  8
1
  6
Continuous
 48
0.25
100
AcDbCircle
 10
105.2867286125502
 20
52.95131364058933
 30
0.0
 40
4.0
100
AcDbArc
 50
174.1468479965013
 51
185.853152003497
  0
ARC
  5
3F4
330
18
100
AcDbEntity
  8
1
  6
Continuous
 48
0.25
100
AcDbCircle
 10
105.2867286125502
 20
52.95131364058933
 30
0.0
 40
4.0
100
AcDbArc
 50
234.146847996503
 51
245.8531520034974
  0
CIRCLE
  5
3F5
330
18
100
AcDbEntity
  8
1
  6
Continuous
 48
0.25
100
AcDbCircle
 10
105.2867286125502
 20
52.95131364058933
 30
0.0
 40
3.149999999999999
  0
LINE
  5
3F6
330
18
100
AcDbEntity
  8
1
  6
Continuous
 48
0.25
100
AcDbLine
 10
103.3898561866869
 20
56.5013136405894
 30
0.0
 11
103.4434977534336
 21
56.5013136405894
 31
0.0
  0
LINE
  5
3F7
330
18
100
AcDbEntity
  8
1
  6
Continuous
 48
0.25
100
AcDbLine
 10
107.1299594716668
 20
56.5013136405894
 30
0.0
 11
107.1836010384134
 21
56.5013136405894
 31
0.0
  0
LINE
  5
3F8
330
18
100
AcDbEntity
  8
1
  6
Continuous
 48
0.25
100
AcDbLine
 10
107.4395033664268
 20
56.32259838962368
 30
0.0
 11
107.4126825830535
 21
56.36905334912508
 31
0.0
  0
LINE
  5
3F9
330
18
100
AcDbEntity
  8
1
  6
Continuous
 48
0.25
100
AcDbLine
 10
109.3095550089166
 20
53.08357393205383
 30
0.0
 11
109.2827342255433
 21
53.13002889155517
 31
0.0
  0
LINE
  5
3FA
330
18
100
AcDbEntity
  8
1
  6
Continuous
 48
0.25
100
AcDbLine
 10
107.4395033664265
 20
49.58002889155487
 30
0.0
 11
107.4126825830533
 21
49.53357393205365
 31
0.0
  0
LINE
  5
3FB
330
18
100
AcDbEntity
  8
1
  6
Continuous
 48
0.25
100
AcDbLine
 10
109.3095550089165
 20
52.81905334912505
 30
0.0
 11
109.2827342255433
 21
52.77259838962391
 31
0.0
  0
LINE
  5
3FC
330
18
100
AcDbEntity
  8
1
  6
Continuous
 48
0.25
100
AcDbLine
 10
103.3898561866871
 20
49.40131364058939
 30
0.0
 11
103.4434977534335
 21
49.40131364058939
 31
0.0
  0
LINE
  5
3FD
330
18
100
AcDbEntity
  8
1
  6
Continuous
 48
0.25
100
AcDbLine
 10
107.1299594716669
 20
49.40131364058939
 30
0.0
 11
107.1836010384132
 21
49.40131364058939
 31
0.0
  0
LINE
  5
3FE
330
18
100
AcDbEntity
  8
1
  6
Continuous
 48
0.25
100
AcDbLine
 10
101.2907229995571
 20
52.77259838962381
 30
0.0
 11
101.2639022161838
 21
52.81905334912515
 31
0.0
  0
LINE
  5
3FF
330
18
100
AcDbEntity
  8
1
  6
Continuous
 48
0.25
100
AcDbLine
 10
103.160774642047
 20
49.53357393205369
 30
0.0
 11
103.1339538586737
 21
49.58002889155491
 31
0.0
  0
LINE
  5
400
330
18
100
AcDbEntity
  8
1
  6
Continuous
 48
0.25
100
AcDbLine
 10
101.290722999557
 20
53.13002889155498
 30
0.0
 11
101.2639022161837
 21
53.08357393205375
 31
0.0
  0
LINE
  5
401
330
18
100
AcDbEntity
  8
1
  6
Continuous
 48
0.25
100
AcDbLine
 10
103.160774642047
 20
56.36905334912523
 30
0.0
 11
103.1339538586736
 21
56.32259838962379
 31
0.0
  0
ARC
  5
402
330
18
100
AcDbEntity
  8
1
  6
Continuous
 48
0.25
100
AcDbCircle
 10
85.28672861255001
 20
217.1745920698564
 30
0.0
 40
2.000000000000003
100
AcDbArc
 50
180.0
 51
230.194428907735
  0
ARC
  5
403
330
18
100
AcDbEntity
  8
1
  6
Continuous
 48
0.25
100
AcDbCircle
 10
83.78672861255001
 20
223.7378421778876
 30
0.0
 40
0.499999999999996
100
AcDbArc
 50
90.0
 51
180.0
  0
ARC
  5
404
330
18
100
AcDbEntity
  8
1
  6
Continuous
 48
0.25
100
AcDbCircle
 10
96.78672861255002
 20
206.7378421778876
 30
0.0
 40
0.5
100
AcDbArc
 50
270.0
 51
0.0
  0
ARC
  5
405
330
18
100
AcDbEntity
  8
1
  6
Continuous
 48
0.25
100
AcDbCircle
 10
96.0108284829127
 20
208.2378421778876
 30
0.0
 40
1.999999999999992
100
AcDbArc
 50
230.194428907735
 51
270.0
  0
ARC
  5
406
330
18
100
AcDbEntity
  8
1
  6
Continuous
 48
0.25
100
AcDbCircle
 10
96.78672861255002
 20
223.7378421778876
 30
0.0
 40
0.5000000000000036
100
AcDbArc
 50
0.0
 51
90.0
  0
ARC
  5
407
330
18
100
AcDbEntity
  8
1
  6
Continuous
 48
0.25
100
AcDbCircle
 10
99.28672861255002
 20
222.2378421778911
 30
0.0
 40
2.0
100
AcDbArc
 50
180.0
 51
240.0000000000009
  0
LINE
  5
408
330
18
100
AcDbEntity
  8
1
  6
Continuous
 48
0.25
100
AcDbLine
 10
96.78672861255002
 20
224.2378421778876
 30
0.0
 11
83.78672861255001
 21
224.2378421778876
 31
0.0
  0
LINE
  5
409
330
18
100
AcDbEntity
  8
1
  6
Continuous
 48
0.25
100
AcDbLine
 10
97.28672861255001
 20
206.7378421778876
 30
0.0
 11
97.28672861255001
 21
223.7378421778876
 31
0.0
  0
LINE
  5
40A
330
18
100
AcDbEntity
  8
1
  6
Continuous
 48
0.25
100
AcDbLine
 10
84.00635981322102
 20
215.6381495106618
 30
0.0
 11
94.7304596835838
 21
206.701399618693
 31
0.0
  0
LINE
  5
40B
330
18
100
AcDbEntity
  8
1
  6
Continuous
 48
0.25
100
AcDbLine
 10
83.28672861255
 20
223.7378421778876
 30
0.0
 11
83.28672861255
 21
217.1745920698564
 31
0.0
  0
LINE
  5
40C
330
18
100
AcDbEntity
  8
4
  6
CENTER
 48
0.25
100
AcDbLine
 10
90.28672861255001
 20
225.7378421778876
 30
0.0
 11
90.28672861255001
 21
212.7378421778876
 31
0.0
  0
LINE
  5
40D
330
18
100
AcDbEntity
  8
1
  6
Continuous
 48
0.25
100
AcDbLine
 10
96.01082848291278
 20
206.2378421778876
 30
0.0
 11
105.2867286125501
 21
206.2378421778912
 31
0.0
  0
ARC
  5
40E
330
18
100
AcDbEntity
  8
1
  6
Continuous
 48
0.25
100
AcDbCircle
 10
98.78672861255001
 20
223.7378421778912
 30
0.0
 40
0.5000000000000036
100
AcDbArc
 50
90.0
 51
180.0
  0
ARC
  5
40F
330
18
100
AcDbEntity
  8
1
  6
Continuous
 48
0.25
100
AcDbCircle
 10
105.2867286125501
 20
213.2378421778913
 30
0.0
 40
6.999999999999992
100
AcDbArc
 50
180.0
 51
0.0
  0
ARC
  5
410
330
18
100
AcDbEntity
  8
1
  6
Continuous
 48
0.25
100
AcDbCircle
 10
111.7867286125501
 20
223.7378421778912
 30
0.0
 40
0.5000000000000027
100
AcDbArc
 50
0.0
 51
90.0
  0
LINE
  5
411
330
18
100
AcDbEntity
  8
1
  6
Continuous
 48
0.25
100
AcDbLine
 10
98.28672861255
 20
223.7378421778913
 30
0.0
 11
98.28672861255013
 21
213.2378421778912
 31
0.0
  0
LINE
  5
412
330
18
100
AcDbEntity
  8
1
  6
Continuous
 48
0.25
100
AcDbLine
 10
111.78672861255
 20
224.2378421778912
 30
0.0
 11
98.78672861255001
 21
224.2378421778912
 31
0.0
  0
LINE
  5
413
330
18
100
AcDbEntity
  8
1
  6
Continuous
 48
0.25
100
AcDbLine
 10
112.2867286125502
 20
213.2378421778913
 30
0.0
 11
112.2867286125501
 21
223.7378421778912
 31
0.0
  0
LINE
  5
414
330
18
100
AcDbEntity
  8
4
  6
CENTER
 48
0.25
100
AcDbLine
 10
96.78672861255002
 20
213.2378421778912
 30
0.0
 11
113.7867286125501
 21
213.2378421778912
 31
0.0
  0
LINE
  5
415
330
18
100
AcDbEntity
  8
4
  6
CENTER
 48
0.25
100
AcDbLine
 10
105.2867286125501
 20
225.7378421778912
 30
0.0
 11
105.2867286125501
 21
204.7378421778912
 31
0.0
  0
CIRCLE
  5
416
330
18
100
AcDbEntity
  8
1
  6
Continuous
 48
0.25
100
AcDbCircle
 10
105.28672861255
 20
213.2378421778913
 30
0.0
 40
4.499999999999972
  0
ARC
  5
417
330
18
100
AcDbEntity
  8
1
  6
Continuous
 48
0.25
100
AcDbCircle
 10
105.28672861255
 20
213.2378421778912
 30
0.0
 40
4.025
100
AcDbArc
 50
238.1169389093139
 51
241.8830610906844
  0
ARC
  5
418
330
18
100
AcDbEntity
  8
1
  6
Continuous
 48
0.25
100
AcDbCircle
 10
105.28672861255
 20
213.2378421778912
 30
0.0
 40
4.025
100
AcDbArc
 50
178.1169389093166
 51
181.8830610906874
  0
ARC
  5
419
330
18
100
AcDbEntity
  8
1
  6
Continuous
 48
0.25
100
AcDbCircle
 10
105.28672861255
 20
213.2378421778912
 30
0.0
 40
4.025
100
AcDbArc
 50
118.1169389093128
 51
121.883061090684
  0
ARC
  5
41A
330
18
100
AcDbEntity
  8
1
  6
Continuous
 48
0.25
100
AcDbCircle
 10
105.28672861255
 20
213.2378421778912
 30
0.0
 40
4.025
100
AcDbArc
 50
58.11693890931213
 51
61.88306109068803
  0
ARC
  5
41B
330
18
100
AcDbEntity
  8
1
  6
Continuous
 48
0.25
100
AcDbCircle
 10
105.28672861255
 20
213.2378421778912
 30
0.0
 40
4.025
100
AcDbArc
 50
358.1169389093134
 51
1.883061090688197
  0
ARC
  5
41C
330
18
100
AcDbEntity
  8
1
  6
Continuous
 48
0.25
100
AcDbCircle
 10
105.28672861255
 20
213.2378421778912
 30
0.0
 40
4.025
100
AcDbArc
 50
298.1169389093166
 51
301.8830610906868
  0
LINE
  5
41D
330
18
100
AcDbEntity
  8
1
  6
Continuous
 48
0.25
100
AcDbLine
 10
103.6504217953547
 20
216.8878421778912
 30
0.0
 11
106.9230354297454
 21
216.8878421778912
 31
0.0
  0
LINE
  5
41E
330
18
100
AcDbEntity
  8
1
  6
Continuous
 48
0.25
100
AcDbLine
 10
103.6504217953547
 20
209.5878421778912
 30
0.0
 11
106.9230354297454
 21
209.5878421778912
 31
0.0
  0
LINE
  5
41F
330
18
100
AcDbEntity
  8
1
  6
Continuous
 48
0.25
100
AcDbLine
 10
102.9438892973345
 20
216.479925449968
 30
0.0
 11
101.307582480139
 21
213.6457589058142
 31
0.0
  0
LINE
  5
420
330
18
100
AcDbEntity
  8
1
  6
Continuous
 48
0.25
100
AcDbLine
 10
109.2658747449609
 20
212.8299254499681
 30
0.0
 11
107.6295679277656
 21
209.9957589058145
 31
0.0
  0
LINE
  5
421
330
18
100
AcDbEntity
  8
1
  6
Continuous
 48
0.25
100
AcDbLine
 10
109.265874744961
 20
213.6457589058144
 30
0.0
 11
107.6295679277657
 21
216.4799254499681
 31
0.0
  0
LINE
  5
422
330
18
100
AcDbEntity
  8
1
  6
Continuous
 48
0.25
100
AcDbLine
 10
102.9438892973345
 20
209.9957589058145
 30
0.0
 11
101.3075824801391
 21
212.8299254499681
 31
0.0
  0
ARC
  5
423
330
18
100
AcDbEntity
  8
1
  6
Continuous
 48
0.25
100
AcDbCircle
 10
105.2867286125501
 20
213.2378421778913
 30
0.0
 40
4.0
100
AcDbArc
 50
234.146847996502
 51
245.8531520034974
  0
ARC
  5
424
330
18
100
AcDbEntity
  8
1
  6
Continuous
 48
0.25
100
AcDbCircle
 10
105.2867286125501
 20
213.2378421778913
 30
0.0
 40
4.0
100
AcDbArc
 50
294.1468479965024
 51
305.8531520034989
  0
ARC
  5
425
330
18
100
AcDbEntity
  8
1
  6
Continuous
 48
0.25
100
AcDbCircle
 10
105.2867286125501
 20
213.2378421778913
 30
0.0
 40
4.0
100
AcDbArc
 50
354.1468479965005
 51
5.853152003495409
  0
ARC
  5
426
330
18
100
AcDbEntity
  8
1
  6
Continuous
 48
0.25
100
AcDbCircle
 10
105.2867286125501
 20
213.2378421778913
 30
0.0
 40
4.0
100
AcDbArc
 50
54.14684799650503
 51
65.85315200349755
  0
ARC
  5
427
330
18
100
AcDbEntity
  8
1
  6
Continuous
 48
0.25
100
AcDbCircle
 10
105.2867286125501
 20
213.2378421778913
 30
0.0
 40
4.0
100
AcDbArc
 50
174.1468479965029
 51
185.8531520034987
  0
ARC
  5
428
330
18
100
AcDbEntity
  8
1
  6
Continuous
 48
0.25
100
AcDbCircle
 10
105.2867286125501
 20
213.2378421778913
 30
0.0
 40
4.0
100
AcDbArc
 50
114.1468479965024
 51
125.8531520034979
  0
CIRCLE
  5
429
330
18
100
AcDbEntity
  8
1
  6
Continuous
 48
0.25
100
AcDbCircle
 10
105.2867286125501
 20
213.2378421778913
 30
0.0
 40
3.149999999999999
  0
LINE
  5
42A
330
18
100
AcDbEntity
  8
1
  6
Continuous
 48
0.25
100
AcDbLine
 10
103.3898561866868
 20
209.6878421778912
 30
0.0
 11
103.4434977534335
 21
209.6878421778912
 31
0.0
  0
LINE
  5
42B
330
18
100
AcDbEntity
  8
1
  6
Continuous
 48
0.25
100
AcDbLine
 10
107.1299594716667
 20
209.6878421778912
 30
0.0
 11
107.1836010384133
 21
209.6878421778912
 31
0.0
  0
LINE
  5
42C
330
18
100
AcDbEntity
  8
1
  6
Continuous
 48
0.25
100
AcDbLine
 10
107.4395033664267
 20
209.866557428857
 30
0.0
 11
107.4126825830534
 21
209.8201024693556
 31
0.0
  0
LINE
  5
42D
330
18
100
AcDbEntity
  8
1
  6
Continuous
 48
0.25
100
AcDbLine
 10
109.3095550089164
 20
213.1055818864268
 30
0.0
 11
109.2827342255431
 21
213.0591269269255
 31
0.0
  0
LINE
  5
42E
330
18
100
AcDbEntity
  8
1
  6
Continuous
 48
0.25
100
AcDbLine
 10
107.4395033664264
 20
216.6091269269257
 30
0.0
 11
107.4126825830532
 21
216.6555818864269
 31
0.0
  0
LINE
  5
42F
330
18
100
AcDbEntity
  8
1
  6
Continuous
 48
0.25
100
AcDbLine
 10
109.3095550089163
 20
213.3701024693555
 30
0.0
 11
109.2827342255431
 21
213.4165574288566
 31
0.0
  0
LINE
  5
430
330
18
100
AcDbEntity
  8
1
  6
Continuous
 48
0.25
100
AcDbLine
 10
103.389856186687
 20
216.7878421778912
 30
0.0
 11
103.4434977534333
 21
216.7878421778912
 31
0.0
  0
LINE
  5
431
330
18
100
AcDbEntity
  8
1
  6
Continuous
 48
0.25
100
AcDbLine
 10
107.1299594716668
 20
216.7878421778912
 30
0.0
 11
107.1836010384131
 21
216.7878421778912
 31
0.0
  0
LINE
  5
432
330
18
100
AcDbEntity
  8
1
  6
Continuous
 48
0.25
100
AcDbLine
 10
101.2907229995569
 20
213.4165574288569
 30
0.0
 11
101.2639022161836
 21
213.3701024693555
 31
0.0
  0
LINE
  5
433
330
18
100
AcDbEntity
  8
1
  6
Continuous
 48
0.25
100
AcDbLine
 10
103.1607746420469
 20
216.6555818864271
 30
0.0
 11
103.1339538586736
 21
216.6091269269258
 31
0.0
  0
LINE
  5
434
330
18
100
AcDbEntity
  8
1
  6
Continuous
 48
0.25
100
AcDbLine
 10
101.2907229995569
 20
213.0591269269257
 30
0.0
 11
101.2639022161836
 21
213.1055818864268
 31
0.0
  0
LINE
  5
435
330
18
100
AcDbEntity
  8
1
  6
Continuous
 48
0.25
100
AcDbLine
 10
103.1607746420468
 20
209.8201024693553
 30
0.0
 11
103.1339538586734
 21
209.8665574288567
 31
0.0
  0
LINE
  5
436
330
18
100
AcDbEntity
  8
5
  6
PHANTOM
 48
0.25
100
AcDbLine
 10
105.2867286125502
 20
59.95131364058948
 30
0.0
 11
111.2867286125502
 21
59.95131364058948
 31
0.0
  0
LINE
  5
437
330
18
100
AcDbEntity
  8
5
  6
PHANTOM
 48
0.25
100
AcDbLine
 10
113.2867286125502
 20
46.45131364058586
 30
0.0
 11
113.2867286125502
 21
63.45131364058582
 31
0.0
  0
ARC
  5
438
330
18
100
AcDbEntity
  8
5
  6
PHANTOM
 48
0.25
100
AcDbCircle
 10
111.2867286125502
 20
61.95131364058934
 30
0.0
 40
2.0
100
AcDbArc
 50
270.0
 51
0.0
  0
LINE
  5
439
330
18
100
AcDbEntity
  8
5
  6
PHANTOM
 48
0.25
100
AcDbLine
 10
113.7867286125502
 20
63.95131364058582
 30
0.0
 11
126.7867286125502
 21
63.95131364058582
 31
0.0
  0
ARC
  5
43A
330
18
100
AcDbEntity
  8
5
  6
PHANTOM
 48
0.25
100
AcDbCircle
 10
113.7867286125502
 20
63.45131364058584
 30
0.0
 40
0.5000000000000036
100
AcDbArc
 50
90.0
 51
180.0
  0
LINE
  5
43B
330
18
100
AcDbEntity
  8
5
  6
PHANTOM
 48
0.25
100
AcDbLine
 10
114.5626287421875
 20
45.95131364058582
 30
0.0
 11
112.2867286125503
 21
45.95131364058666
 31
0.0
  0
ARC
  5
43C
330
18
100
AcDbEntity
  8
5
  6
PHANTOM
 48
0.25
100
AcDbCircle
 10
113.7867286125502
 20
46.45131364058582
 30
0.0
 40
0.5
100
AcDbArc
 50
180.0
 51
270.0
  0
LINE
  5
43D
330
18
100
AcDbEntity
  8
5
  6
PHANTOM
 48
0.25
100
AcDbLine
 10
126.5670974118793
 20
55.35162097336
 30
0.0
 11
115.8429975415166
 21
46.41487108139119
 31
0.0
  0
ARC
  5
43E
330
18
100
AcDbEntity
  8
5
  6
PHANTOM
 48
0.25
100
AcDbCircle
 10
114.5626287421875
 20
47.95131364058582
 30
0.0
 40
1.999999999999992
100
AcDbArc
 50
270.0
 51
309.8055710922641
  0
ARC
  5
43F
330
18
100
AcDbEntity
  8
5
  6
PHANTOM
 48
0.25
100
AcDbCircle
 10
125.2867286125502
 20
56.88806353255462
 30
0.0
 40
2.000000000000003
100
AcDbArc
 50
309.8055710922641
 51
0.0
  0
LINE
  5
440
330
18
100
AcDbEntity
  8
5
  6
PHANTOM
 48
0.25
100
AcDbLine
 10
127.2867286125502
 20
63.45131364058582
 30
0.0
 11
127.2867286125502
 21
56.88806353255462
 31
0.0
  0
ARC
  5
441
330
18
100
AcDbEntity
  8
5
  6
PHANTOM
 48
0.25
100
AcDbCircle
 10
126.7867286125502
 20
63.45131364058584
 30
0.0
 40
0.499999999999996
100
AcDbArc
 50
0.0
 51
90.0
  0
LINE
  5
442
330
18
100
AcDbEntity
  8
5
  6
PHANTOM
 48
0.25
100
AcDbLine
 10
105.2867286125502
 20
206.2378421778912
 30
0.0
 11
111.2867286125502
 21
206.2378421778912
 31
0.0
  0
LINE
  5
443
330
18
100
AcDbEntity
  8
5
  6
PHANTOM
 48
0.25
100
AcDbLine
 10
113.2867286125502
 20
219.7378421778948
 30
0.0
 11
113.2867286125502
 21
202.7378421778948
 31
0.0
  0
ARC
  5
444
330
18
100
AcDbEntity
  8
5
  6
PHANTOM
 48
0.25
100
AcDbCircle
 10
111.2867286125502
 20
204.2378421778913
 30
0.0
 40
2.0
100
AcDbArc
 50
0.0
 51
90.0
  0
LINE
  5
445
330
18
100
AcDbEntity
  8
5
  6
PHANTOM
 48
0.25
100
AcDbLine
 10
113.7867286125502
 20
202.2378421778948
 30
0.0
 11
126.7867286125502
 21
202.2378421778949
 31
0.0
  0
ARC
  5
446
330
18
100
AcDbEntity
  8
5
  6
PHANTOM
 48
0.25
100
AcDbCircle
 10
113.7867286125502
 20
202.7378421778948
 30
0.0
 40
0.5000000000000036
100
AcDbArc
 50
180.0
 51
270.0
  0
LINE
  5
447
330
18
100
AcDbEntity
  8
5
  6
PHANTOM
 48
0.25
100
AcDbLine
 10
114.5626287421873
 20
220.2378421778949
 30
0.0
 11
112.2867286125502
 21
220.2378421778941
 31
0.0
  0
ARC
  5
448
330
18
100
AcDbEntity
  8
5
  6
PHANTOM
 48
0.25
100
AcDbCircle
 10
113.7867286125502
 20
219.7378421778948
 30
0.0
 40
0.5
100
AcDbArc
 50
90.0
 51
180.0
  0
LINE
  5
449
330
18
100
AcDbEntity
  8
5
  6
PHANTOM
 48
0.25
100
AcDbLine
 10
126.5670974118791
 20
210.8375348451207
 30
0.0
 11
115.8429975415165
 21
219.7742847370895
 31
0.0
  0
ARC
  5
44A
330
18
100
AcDbEntity
  8
5
  6
PHANTOM
 48
0.25
100
AcDbCircle
 10
114.5626287421874
 20
218.2378421778949
 30
0.0
 40
1.999999999999992
100
AcDbArc
 50
50.19442890773591
 51
90.0
  0
ARC
  5
44B
330
18
100
AcDbEntity
  8
5
  6
PHANTOM
 48
0.25
100
AcDbCircle
 10
125.2867286125502
 20
209.3010922859261
 30
0.0
 40
2.000000000000003
100
AcDbArc
 50
0.0
 51
50.19442890773591
  0
LINE
  5
44C
330
18
100
AcDbEntity
  8
5
  6
PHANTOM
 48
0.25
100
AcDbLine
 10
127.2867286125502
 20
202.737842177895
 30
0.0
 11
127.2867286125502
 21
209.3010922859261
 31
0.0
  0
ARC
  5
44D
330
18
100
AcDbEntity
  8
5
  6
PHANTOM
 48
0.25
100
AcDbCircle
 10
126.7867286125502
 20
202.7378421778948
 30
0.0
 40
0.499999999999996
100
AcDbArc
 50
270.0
 51
0.0
  0
ARC
  5
44E
330
18
100
AcDbEntity
  8
1
  6
Continuous
 48
0.25
100
AcDbCircle
 10
188.4444539271983
 20
162.5945779092403
 30
0.0
 40
0.499999999999996
100
AcDbArc
 50
0.0
 51
90.0
  0
ARC
  5
44F
330
18
100
AcDbEntity
  8
1
  6
Continuous
 48
0.25
100
AcDbCircle
 10
188.4444539271983
 20
103.5945779092403
 30
0.0
 40
0.5000000000000026
100
AcDbArc
 50
270.0
 51
0.0
  0
LINE
  5
450
330
18
100
AcDbEntity
  8
1
  6
Continuous
 48
0.25
100
AcDbLine
 10
185.9444539271983
 20
152.2445779092403
 30
0.0
 11
185.9444539271983
 21
113.9445779092403
 31
0.0
  0
ARC
  5
451
330
18
100
AcDbEntity
  8
1
  6
Continuous
 48
0.25
100
AcDbCircle
 10
171.4444539272002
 20
103.5945779092403
 30
0.0
 40
0.5
100
AcDbArc
 50
180.0
 51
270.0
  0
ARC
  5
452
330
18
100
AcDbEntity
  8
1
  6
Continuous
 48
0.25
100
AcDbCircle
 10
171.4444539272002
 20
162.5945779092403
 30
0.0
 40
0.5
100
AcDbArc
 50
90.0
 51
180.0
  0
ARC
  5
453
330
18
100
AcDbEntity
  8
1
  6
Continuous
 48
0.25
100
AcDbCircle
 10
171.4444539272002
 20
112.4445779092403
 30
0.0
 40
0.5
100
AcDbArc
 50
90.0
 51
180.0
  0
ARC
  5
454
330
18
100
AcDbEntity
  8
1
  6
Continuous
 48
0.25
100
AcDbCircle
 10
171.4444539272002
 20
153.7445779092402
 30
0.0
 40
0.5
100
AcDbArc
 50
180.0
 51
270.0
  0
LINE
  5
455
330
18
100
AcDbEntity
  8
4
  6
CENTER
 48
0.25
100
AcDbLine
 10
177.9444539271983
 20
101.5945779092403
 30
0.0
 11
177.9444539271983
 21
164.5945779092402
 31
0.0
  0
LINE
  5
456
330
18
100
AcDbEntity
  8
4
  6
CENTER
 48
0.25
100
AcDbLine
 10
190.4444539271983
 20
133.0945779092403
 30
0.0
 11
169.4444539272002
 21
133.0945779092403
 31
0.0
  0
LINE
  5
457
330
18
100
AcDbEntity
  8
1
  6
Continuous
 48
0.25
100
AcDbLine
 10
188.9444539271983
 20
162.5945779092403
 30
0.0
 11
188.9444539271983
 21
103.5945779092403
 31
0.0
  0
LINE
  5
458
330
18
100
AcDbEntity
  8
1
  6
Continuous
 48
0.25
100
AcDbLine
 10
171.4444539272002
 20
103.0945779092403
 30
0.0
 11
188.4444539271983
 21
103.0945779092403
 31
0.0
  0
LINE
  5
459
330
18
100
AcDbEntity
  8
1
  6
Continuous
 48
0.25
100
AcDbLine
 10
171.4444539272002
 20
112.9445779092403
 30
0.0
 11
184.9444539271983
 21
112.9445779092403
 31
0.0
  0
LINE
  5
45A
330
18
100
AcDbEntity
  8
1
  6
Continuous
 48
0.25
100
AcDbLine
 10
171.4444539272002
 20
153.2445779092402
 30
0.0
 11
184.9444539271983
 21
153.2445779092403
 31
0.0
  0
LINE
  5
45B
330
18
100
AcDbEntity
  8
1
  6
Continuous
 48
0.25
100
AcDbLine
 10
171.4444539272002
 20
163.0945779092403
 30
0.0
 11
188.4444539271983
 21
163.0945779092403
 31
0.0
  0
LINE
  5
45C
330
18
100
AcDbEntity
  8
4
  6
CENTER
 48
0.25
100
AcDbLine
 10
190.4444539271982
 20
108.0945779092403
 30
0.0
 11
181.4444539271982
 21
108.0945779092403
 31
0.0
  0
LINE
  5
45D
330
18
100
AcDbEntity
  8
4
  6
CENTER
 48
0.25
100
AcDbLine
 10
190.4444539271982
 20
158.0945779092404
 30
0.0
 11
181.4444539271982
 21
158.0945779092404
 31
0.0
  0
ARC
  5
45E
330
18
100
AcDbEntity
  8
1
  6
Continuous
 48
0.25
100
AcDbCircle
 10
184.9444539271983
 20
113.9445779092403
 30
0.0
 40
1.0
100
AcDbArc
 50
270.0
 51
0.0
  0
ARC
  5
45F
330
18
100
AcDbEntity
  8
1
  6
Continuous
 48
0.25
100
AcDbCircle
 10
184.9444539271983
 20
152.2445779092402
 30
0.0
 40
1.0
100
AcDbArc
 50
0.0
 51
90.0
  0
LINE
  5
460
330
18
100
AcDbEntity
  8
1
  6
Continuous
 48
0.25
100
AcDbLine
 10
175.9171404339269
 20
125.0945779092402
 30
0.0
 11
175.9171404339269
 21
141.0945779092403
 31
0.0
  0
LINE
  5
461
330
18
100
AcDbEntity
  8
1
  6
Continuous
 48
0.25
100
AcDbLine
 10
179.9717674204696
 20
125.0945779092402
 30
0.0
 11
179.9717674204696
 21
141.0945779092403
 31
0.0
  0
LINE
  5
462
330
18
100
AcDbEntity
  8
1
  6
Continuous
 48
0.25
100
AcDbLine
 10
175.9171404339269
 20
141.0945779092403
 30
0.0
 11
179.9717674204696
 21
141.0945779092403
 31
0.0
  0
LINE
  5
463
330
18
100
AcDbEntity
  8
1
  6
Continuous
 48
0.25
100
AcDbLine
 10
175.9171404339269
 20
125.0945779092403
 30
0.0
 11
179.9717674204696
 21
125.0945779092403
 31
0.0
  0
LINE
  5
464
330
18
100
AcDbEntity
  8
1
  6
Continuous
 48
0.25
100
AcDbLine
 10
170.9444539272001
 20
115.1445779092402
 30
0.0
 11
184.9444539272002
 21
115.1445779092402
 31
0.0
  0
LINE
  5
465
330
18
100
AcDbEntity
  8
1
  6
Continuous
 48
0.25
100
AcDbLine
 10
170.9444539272003
 20
103.5945779092403
 30
0.0
 11
170.9444539272002
 21
162.5945779092403
 31
0.0
  0
LINE
  5
466
330
18
100
AcDbEntity
  8
1
  6
Continuous
 48
0.25
100
AcDbLine
 10
184.9444539272002
 20
113.1445779092494
 30
0.0
 11
184.9444539272002
 21
150.5445779092318
 31
0.0
  0
ARC
  5
467
330
18
100
AcDbEntity
  8
1
  6
Continuous
 48
0.25
100
AcDbCircle
 10
171.4444539272002
 20
115.6445779092402
 30
0.0
 40
0.5
100
AcDbArc
 50
180.0
 51
270.0
  0
ARC
  5
468
330
18
100
AcDbEntity
  8
1
  6
Continuous
 48
0.25
100
AcDbCircle
 10
184.4444539272002
 20
115.6445779092402
 30
0.0
 40
0.5
100
AcDbArc
 50
270.0
 51
0.0
  0
LINE
  5
469
330
18
100
AcDbEntity
  8
1
  6
Continuous
 48
0.25
100
AcDbLine
 10
170.9444539272001
 20
151.0445779092334
 30
0.0
 11
184.9444539272002
 21
151.0445779092318
 31
0.0
  0
ARC
  5
46A
330
18
100
AcDbEntity
  8
1
  6
Continuous
 48
0.25
100
AcDbCircle
 10
184.4444539272003
 20
150.5445779092318
 30
0.0
 40
0.5
100
AcDbArc
 50
0.0
 51
90.0
  0
ARC
  5
46B
330
18
100
AcDbEntity
  8
1
  6
Continuous
 48
0.25
100
AcDbCircle
 10
171.4444539272002
 20
150.5445779092333
 30
0.0
 40
0.5
100
AcDbArc
 50
90.0
 51
180.0
  0
LINE
  5
46C
330
18
100
AcDbEntity
  8
1
  6
Continuous
 48
0.25
100
AcDbLine
 10
170.9444539272003
 20
153.0445779092334
 30
0.0
 11
184.9444539272216
 21
153.0445779092317
 31
0.0
  0
LINE
  5
46D
330
18
100
AcDbEntity
  8
1
  6
Continuous
 48
0.25
100
AcDbLine
 10
184.9444539272002
 20
151.0445779092317
 30
0.0
 11
184.9444539272002
 21
153.0445779092317
 31
0.0
  0
LINE
  5
46E
330
18
100
AcDbEntity
  8
1
  6
Continuous
 48
0.25
100
AcDbLine
 10
170.9444539272003
 20
113.1445779092477
 30
0.0
 11
184.9444539272216
 21
113.1445779092494
 31
0.0
  0
LINE
  5
46F
330
18
100
AcDbEntity
  8
1
  6
Continuous
 48
0.25
100
AcDbLine
 10
112.2867286125501
 20
162.5945779092403
 30
0.0
 11
112.2867286125501
 21
103.5945779092403
 31
0.0
  0
ARC
  5
470
330
18
100
AcDbEntity
  8
1
  6
Continuous
100
AcDbCircle
 10
243.790161868703
 20
138.1824481966562
 30
0.0
 40
0.5207118820758546
100
AcDbArc
 50
304.8882680994089
 51
55.11173190059107
  0
ARC
  5
471
330
18
100
AcDbEntity
  8
1
  6
Continuous
100
AcDbCircle
 10
242.8315856328547
 20
138.1824481966562
 30
0.0
 40
0.5207118820758546
100
AcDbArc
 50
124.8882680994089
 51
235.111731900591
  0
LINE
  5
472
330
18
100
AcDbEntity
  8
1
  6
Continuous
100
AcDbLine
 10
245.3108737507788
 20
137.4113421876071
 30
0.0
 11
247.3108737507788
 21
136.6613421876071
 31
0.0
  0
ARC
  5
473
330
18
100
AcDbEntity
  8
1
  6
Continuous
100
AcDbCircle
 10
245.8108737507788
 20
142.3019278778086
 30
0.0
 40
0.5000000000000005
100
AcDbArc
 50
53.13010235415486
 51
270.0
  0
LINE
  5
474
330
18
100
AcDbEntity
  8
1
  6
Continuous
100
AcDbLine
 10
245.3108737507788
 20
135.3978886472417
 30
0.0
 11
247.3108737507788
 21
135.3978886472417
 31
0.0
  0
LINE
  5
475
330
18
100
AcDbEntity
  8
1
  6
Continuous
100
AcDbLine
 10
245.3108737507788
 20
135.3978886472417
 30
0.0
 11
245.8341307955931
 21
135.1538898800613
 31
0.0
  0
LINE
  5
476
330
18
100
AcDbEntity
  8
1
  6
Continuous
100
AcDbLine
 10
247.3108737507788
 20
142.8019278778086
 30
0.0
 11
247.3108737507788
 21
141.8019278778086
 31
0.0
  0
LINE
  5
477
330
18
100
AcDbEntity
  8
1
  6
Continuous
100
AcDbLine
 10
246.1108737507789
 20
142.7019278778086
 30
0.0
 11
247.3108737507788
 21
141.8019278778086
 31
0.0
  0
LINE
  5
478
330
18
100
AcDbEntity
  8
1
  6
Continuous
100
AcDbLine
 10
245.3108737507788
 20
137.4113421876071
 30
0.0
 11
245.3108737507788
 21
136.4113421876071
 31
0.0
  0
ARC
  5
479
330
18
100
AcDbEntity
  8
1
  6
Continuous
100
AcDbCircle
 10
242.7850773179963
 20
133.590789047155
 30
0.0
 40
0.4742035672174261
100
AcDbArc
 50
122.0053832080824
 51
237.9946167919175
  0
ARC
  5
47A
330
18
100
AcDbEntity
  8
1
  6
Continuous
100
AcDbCircle
 10
242.7850773179963
 20
131.7347442817033
 30
0.0
 40
0.4742035672174261
100
AcDbArc
 50
122.0053832080824
 51
237.9946167919175
  0
LINE
  5
47B
330
18
100
AcDbEntity
  8
1
  6
Continuous
100
AcDbLine
 10
242.3108737507788
 20
134.6549701522096
 30
0.0
 11
244.3108737507788
 21
134.6549701522096
 31
0.0
  0
LINE
  5
47C
330
18
100
AcDbEntity
  8
1
  6
Continuous
100
AcDbLine
 10
242.3108737507788
 20
135.8049701522096
 30
0.0
 11
244.3108737507788
 21
135.8049701522096
 31
0.0
  0
LINE
  5
47D
330
18
100
AcDbEntity
  8
1
  6
Continuous
100
AcDbLine
 10
242.3108737507788
 20
136.6549701522096
 30
0.0
 11
244.3108737507788
 21
136.6549701522096
 31
0.0
  0
LINE
  5
47E
330
18
100
AcDbEntity
  8
1
  6
Continuous
100
AcDbLine
 10
242.3108737507788
 20
130.0066251881655
 30
0.0
 11
244.3108737507788
 21
130.0066251881655
 31
0.0
  0
ARC
  5
47F
330
18
100
AcDbEntity
  8
1
  6
Continuous
100
AcDbCircle
 10
245.8108737507788
 20
138.5881766309431
 30
0.0
 40
0.4999999999999999
100
AcDbArc
 50
90.0
 51
270.0
  0
ARC
  5
480
330
18
100
AcDbEntity
  8
1
  6
Continuous
100
AcDbCircle
 10
246.8108737507788
 20
138.5881766309431
 30
0.0
 40
0.4999999999999999
100
AcDbArc
 50
270.0
 51
90.0
  0
LINE
  5
481
330
18
100
AcDbEntity
  8
1
  6
Continuous
100
AcDbLine
 10
245.8108737507788
 20
138.0881766309431
 30
0.0
 11
246.8108737507788
 21
138.0881766309431
 31
0.0
  0
LINE
  5
482
330
18
100
AcDbEntity
  8
1
  6
Continuous
100
AcDbLine
 10
245.8108737507788
 20
139.0881766309431
 30
0.0
 11
246.8108737507788
 21
139.0881766309431
 31
0.0
  0
ARC
  5
483
330
18
100
AcDbEntity
  8
1
  6
Continuous
100
AcDbCircle
 10
243.8366701835614
 20
133.590789047155
 30
0.0
 40
0.4742035672174261
100
AcDbArc
 50
302.0053832080825
 51
57.99461679191757
  0
ARC
  5
484
330
18
100
AcDbEntity
  8
1
  6
Continuous
100
AcDbCircle
 10
243.3108737507788
 20
134.4320633396071
 30
0.0
 40
1.466274292452126
100
AcDbArc
 50
237.9946167919175
 51
302.0053832080825
  0
ARC
  5
485
330
18
100
AcDbEntity
  8
1
  6
Continuous
100
AcDbCircle
 10
243.8366701835614
 20
131.7347442817033
 30
0.0
 40
0.4742035672174261
100
AcDbArc
 50
302.0053832080825
 51
57.99461679191757
  0
ARC
  5
486
330
18
100
AcDbEntity
  8
1
  6
Continuous
100
AcDbCircle
 10
243.3108737507788
 20
130.8934699892511
 30
0.0
 40
1.466274292452126
100
AcDbArc
 50
57.9946167919171
 51
122.0053832080824
  0
ARC
  5
487
330
18
100
AcDbEntity
  8
1
  6
Continuous
100
AcDbCircle
 10
243.3108737507788
 20
132.5760185741554
 30
0.0
 40
1.466274292452126
100
AcDbArc
 50
237.9946167919175
 51
302.0053832080825
  0
ARC
  5
488
330
18
100
AcDbEntity
  8
1
  6
Continuous
100
AcDbCircle
 10
243.3108737507788
 20
138.9987224891083
 30
0.0
 40
1.466274292452126
100
AcDbArc
 50
237.9946167919175
 51
302.0053832080825
  0
LINE
  5
489
330
18
100
AcDbEntity
  8
1
  6
Continuous
100
AcDbLine
 10
243.3108737507788
 20
134.6549701522096
 30
0.0
 11
243.3108737507788
 21
135.8049701522096
 31
0.0
  0
LINE
  5
48A
330
18
100
AcDbEntity
  8
1
  6
Continuous
100
AcDbLine
 10
242.3108737507788
 20
130.6066251881655
 30
0.0
 11
242.3108737507788
 21
129.4066251881655
 31
0.0
  0
LINE
  5
48B
330
18
100
AcDbEntity
  8
1
  6
Continuous
100
AcDbLine
 10
242.3108737507788
 20
142.3746495557291
 30
0.0
 11
244.3108737507788
 21
142.9746495557291
 31
0.0
  0
LINE
  5
48C
330
18
100
AcDbEntity
  8
1
  6
Continuous
100
AcDbLine
 10
244.3108737507788
 20
141.7746495557291
 30
0.0
 11
242.3108737507788
 21
142.3746495557291
 31
0.0
  0
LINE
  5
48D
330
18
100
AcDbEntity
  8
1
  6
Continuous
100
AcDbLine
 10
243.3108737507788
 20
140.9593920225417
 30
0.0
 11
242.3108737507788
 21
141.5593920225417
 31
0.0
  0
LINE
  5
48E
330
18
100
AcDbEntity
  8
1
  6
Continuous
100
AcDbLine
 10
242.3108737507788
 20
140.3593920225417
 30
0.0
 11
243.3108737507788
 21
140.9593920225417
 31
0.0
  0
LINE
  5
48F
330
18
100
AcDbEntity
  8
1
  6
Continuous
100
AcDbLine
 10
242.3108737507788
 20
139.6720110341859
 30
0.0
 11
244.3108737507788
 21
139.6720110341859
 31
0.0
  0
LINE
  5
490
330
18
100
AcDbEntity
  8
1
  6
Continuous
100
AcDbLine
 10
243.3108737507788
 20
140.9593920225417
 30
0.0
 11
244.3108737507788
 21
140.9593920225417
 31
0.0
  0
ARC
  5
491
330
18
100
AcDbEntity
  8
1
  6
Continuous
100
AcDbCircle
 10
243.4073377458315
 20
137.3647052755426
 30
0.0
 40
1.520805338277071
100
AcDbArc
 50
115.7201063039166
 51
125.0593381436525
  0
LINE
  5
492
330
18
100
AcDbEntity
  8
1
  6
Continuous
100
AcDbLine
 10
243.3108737507788
 20
138.8824481966562
 30
0.0
 11
243.3108737507788
 21
138.1933296521908
 31
0.0
  0
LINE
  5
493
330
18
100
AcDbEntity
  8
1
  6
Continuous
100
AcDbLine
 10
243.3108737507788
 20
138.8824481966562
 30
0.0
 11
244.2139655980177
 21
138.8824481966562
 31
0.0
  0
ARC
  5
494
330
18
100
AcDbEntity
  8
1
  6
Continuous
100
AcDbCircle
 10
243.2144097557262
 20
137.3647052755426
 30
0.0
 40
1.520805338277071
100
AcDbArc
 50
54.94066185634743
 51
86.36331323835625
  0
LINE
  5
495
330
18
100
AcDbEntity
  8
1
  6
Continuous
100
AcDbLine
 10
243.5608737507788
 20
141.9996495557291
 30
0.0
 11
243.5608737507788
 21
142.7496495557291
 31
0.0
  0
LINE
  5
496
330
18
100
AcDbEntity
  8
1
  6
Continuous
100
AcDbLine
 10
245.3108737507788
 20
130.6066251881655
 30
0.0
 11
245.3108737507788
 21
129.4066251881655
 31
0.0
  0
LINE
  5
497
330
18
100
AcDbEntity
  8
1
  6
Continuous
100
AcDbLine
 10
246.3108737507788
 20
140.967525506558
 30
0.0
 11
246.3108737507788
 21
140.0284069620926
 31
0.0
  0
LINE
  5
498
330
18
100
AcDbEntity
  8
1
  6
Continuous
100
AcDbLine
 10
245.3108737507788
 20
132.3184170997643
 30
0.0
 11
247.3108737507788
 21
132.3184170997643
 31
0.0
  0
LINE
  5
499
330
18
100
AcDbEntity
  8
1
  6
Continuous
100
AcDbLine
 10
245.3108737507788
 20
131.1684170997643
 30
0.0
 11
247.3108737507788
 21
131.1684170997643
 31
0.0
  0
LINE
  5
49A
330
18
100
AcDbEntity
  8
1
  6
Continuous
100
AcDbLine
 10
246.3108737507788
 20
131.1684170997643
 30
0.0
 11
246.3108737507788
 21
132.3184170997643
 31
0.0
  0
LINE
  5
49B
330
18
100
AcDbEntity
  8
1
  6
Continuous
100
AcDbLine
 10
245.3108737507788
 20
130.0066251881655
 30
0.0
 11
247.3108737507788
 21
130.0066251881655
 31
0.0
  0
LINE
  5
49C
330
18
100
AcDbEntity
  8
1
  6
Continuous
100
AcDbLine
 10
246.3108737507788
 20
134.1924820023182
 30
0.0
 11
246.3108737507788
 21
133.2533634578528
 31
0.0
  0
ENDSEC
  0
SECTION
  2
OBJECTS
  0
DICTIONARY
  5
C
330
0
100
AcDbDictionary
281
     1
  3
ACAD_CIP_PREVIOUS_PRODUCT_INFO
350
E7
  3
ACAD_COLOR
350
C6
  3
ACAD_DETAILVIEWSTYLE
350
DF
  3
ACAD_GROUP
350
D
  3
ACAD_LAYOUT
350
E1
  3
ACAD_MATERIAL
350
94
  3
ACAD_MLEADERSTYLE
350
DB
  3
ACAD_MLINESTYLE
350
1B
  3
ACAD_PLOTSETTINGS
350
E2
  3
ACAD_PLOTSTYLENAME
350
92
  3
ACAD_SCALELIST
350
C9
  3
ACAD_SECTIONVIEWSTYLE
350
DD
  3
ACAD_TABLESTYLE
350
C7
  3
ACAD_VISUALSTYLE
350
AD
  3
ACDB_RECOMPOSE_DATA
350
53B
  3
AcDbVariableDictionary
350
F0
  3
CONTENTDICTIONARY
350
3D
  3
DWGPROPS
350
53C
  0
DICTIONARY
  5
4B1
330
8
100
AcDbDictionary
280
     1
281
     1
  0
DICTIONARY
  5
49D
330
E
100
AcDbDictionary
280
     1
281
     1
  3
ADSK_XREC_LAYER_RECONCILED
360
49E
  0
DICTIONARY
  5
49F
330
4E
100
AcDbDictionary
280
     1
281
     1
  3
ADSK_XREC_LAYER_RECONCILED
360
4A0
  0
DICTIONARY
  5
4A1
330
4F
100
AcDbDictionary
280
     1
281
     1
  3
ADSK_XREC_LAYER_RECONCILED
360
4A2
  0
DICTIONARY
  5
4A3
330
50
100
AcDbDictionary
280
     1
281
     1
  3
ADSK_XREC_LAYER_RECONCILED
360
4A4
  0
DICTIONARY
  5
4A5
330
51
100
AcDbDictionary
280
     1
281
     1
  3
ADSK_XREC_LAYER_RECONCILED
360
4A6
  0
DICTIONARY
  5
4A7
330
52
100
AcDbDictionary
280
     1
281
     1
  3
ADSK_XREC_LAYER_RECONCILED
360
4A8
  0
DICTIONARY
  5
4A9
330
53
100
AcDbDictionary
280
     1
281
     1
  3
ADSK_XREC_LAYER_RECONCILED
360
4AA
  0
DICTIONARY
  5
4AB
330
54
100
AcDbDictionary
280
     1
281
     1
  3
ADSK_XREC_LAYER_RECONCILED
360
4AC
  0
XRECORD
  5
E7
102
{ACAD_REACTORS
330
C
102
}
330
C
100
AcDbXrecord
280
     1
300
ACDLT
300
2014
300
ACDLT_F_S
  0
DICTIONARY
  5
C6
102
{ACAD_REACTORS
330
C
102
}
330
C
100
AcDbDictionary
281
     1
  0
DICTIONARY
  5
DF
102
{ACAD_REACTORS
330
C
102
}
330
C
100
AcDbDictionary
281
     1
  3
Metric50
350
E0
  0
DICTIONARY
  5
D
102
{ACAD_REACTORS
330
C
102
}
330
C
100
AcDbDictionary
281
     1
  0
DICTIONARY
  5
E1
102
{ACAD_REACTORS
330
C
102
}
330
C
100
AcDbDictionary
281
     1
  3
Model
350
E3
  3
レイアウト1
350
E4
  0
DICTIONARY
  5
94
102
{ACAD_REACTORS
330
C
102
}
330
C
100
AcDbDictionary
281
     1
  3
ByBlock
350
9D
  3
ByLayer
350
95
  3
Global
350
A5
  0
DICTIONARY
  5
DB
102
{ACAD_REACTORS
330
C
102
}
330
C
100
AcDbDictionary
281
     1
  3
Standard
350
DC
  0
DICTIONARY
  5
1B
102
{ACAD_REACTORS
330
C
102
}
330
C
100
AcDbDictionary
281
     1
  3
STANDARD
350
1C
  0
DICTIONARY
  5
E2
102
{ACAD_REACTORS
330
C
102
}
330
C
100
AcDbDictionary
281
     1
  0
ACDBDICTIONARYWDFLT
  5
92
102
{ACAD_REACTORS
330
C
102
}
330
C
100
AcDbDictionary
281
     1
  3
Normal
350
93
100
AcDbDictionaryWithDefault
340
93
  0
DICTIONARY
  5
C9
102
{ACAD_REACTORS
330
C
102
}
330
C
100
AcDbDictionary
281
     1
  3
A0
350
CA
  3
A1
350
CB
  3
A2
350
CC
  3
A3
350
CD
  3
A4
350
CE
  3
A5
350
CF
  3
A6
350
D0
  3
A7
350
D1
  3
A8
350
D2
  3
A9
350
D3
  3
B0
350
D4
  3
B1
350
D5
  3
B2
350
D6
  3
B3
350
D7
  3
B4
350
D8
  3
B5
350
D9
  3
B6
350
DA
  0
DICTIONARY
  5
DD
102
{ACAD_REACTORS
330
C
102
}
330
C
100
AcDbDictionary
281
     1
  3
Metric50
350
DE
  0
DICTIONARY
  5
C7
102
{ACAD_REACTORS
330
C
102
}
330
C
100
AcDbDictionary
281
     1
  3
Standard
350
C8
  0
DICTIONARY
  5
AD
102
{ACAD_REACTORS
330
C
102
}
330
C
100
AcDbDictionary
281
     1
  3
2dWireframe
350
B3
  3
Basic
350
B2
  3
Brighten
350
B9
  3
ColorChange
350
BD
  3
Conceptual
350
B6
  3
Dim
350
B8
  3
EdgeColorOff
350
C5
  3
Facepattern
350
BC
  3
Flat
350
AE
  3
FlatWithEdges
350
AF
  3
Gouraud
350
B0
  3
GouraudWithEdges
350
B1
  3
Hidden
350
B5
  3
JitterOff
350
C3
  3
Linepattern
350
BB
  3
OverhangOff
350
C4
  3
Realistic
350
B7
  3
Shaded
350
C2
  3
Shaded with edges
350
C1
  3
Shades of Gray
350
BE
  3
Sketchy
350
BF
  3
Thicken
350
BA
  3
Wireframe
350
B4
  3
X-Ray
350
C0
  0
XRECORD
  5
53B
102
{ACAD_REACTORS
330
C
102
}
330
C
100
AcDbXrecord
280
     1
 90
        1
330
C8
  0
DICTIONARY
  5
F0
102
{ACAD_REACTORS
330
C
102
}
330
C
100
AcDbDictionary
281
     1
  3
CANNOSCALE
350
F6
  3
CMLEADERSTYLE
350
F2
  3
CTABLESTYLE
350
F1
  3
CVIEWDETAILSTYLE
350
F3
  3
CVIEWSECTIONSTYLE
350
F4
  3
DIMASSOC
350
4F2
  3
INDEXCTL
350
4F1
  3
LAYEREVAL
350
F8
  3
LAYERNOTIFY
350
F9
  3
LIGHTINGUNITS
350
F7
  3
MSLTSCALE
350
F5
  3
SORTENTS
350
4F0
  3
XCLIPFRAME
350
539
  0
DICTIONARY
  5
3D
102
{ACAD_REACTORS
330
C
102
}
330
C
100
AcDbDictionary
281
     1
  0
XRECORD
  5
53C
102
{ACAD_REACTORS
330
C
102
}
330
C
100
AcDbXrecord
280
     1
  1
DWGPROPS COOKIE
  2

  3

  4

  6

  7

  8
Yoshitsune
  9

300
=
301
=
302
=
303
=
304
=
305
=
306
=
307
=
308
=
309
=
 40
0.0020721759259259
 41
2458352.39287478
 42
2458352.409997778
  1

 90
        0
  0
XRECORD
  5
49E
102
{ACAD_REACTORS
330
49D
102
}
330
49D
100
AcDbXrecord
280
     1
290
     1
  0
XRECORD
  5
4A0
102
{ACAD_REACTORS
330
49F
102
}
330
49F
100
AcDbXrecord
280
     1
290
     1
  0
XRECORD
  5
4A2
102
{ACAD_REACTORS
330
4A1
102
}
330
4A1
100
AcDbXrecord
280
     1
290
     1
  0
XRECORD
  5
4A4
102
{ACAD_REACTORS
330
4A3
102
}
330
4A3
100
AcDbXrecord
280
     1
290
     1
  0
XRECORD
  5
4A6
102
{ACAD_REACTORS
330
4A5
102
}
330
4A5
100
AcDbXrecord
280
     1
290
     1
  0
XRECORD
  5
4A8
102
{ACAD_REACTORS
330
4A7
102
}
330
4A7
100
AcDbXrecord
280
     1
290
     1
  0
XRECORD
  5
4AA
102
{ACAD_REACTORS
330
4A9
102
}
330
4A9
100
AcDbXrecord
280
     1
290
     1
  0
XRECORD
  5
4AC
102
{ACAD_REACTORS
330
4AB
102
}
330
4AB
100
AcDbXrecord
280
     1
290
     1
  0
ACDBDETAILVIEWSTYLE
  5
E0
102
{ACAD_XDICTIONARY
360
575
102
}
102
{ACAD_REACTORS
330
DF
102
}
330
DF
100
AcDbModelDocViewStyle
 70
     0
  3
Metric50
290
     0
100
AcDbDetailViewStyle
 70
     0
 71
     0
 90
        3
 71
     1
340
F
 40
5.0
340
0
 40
5.0
300

 40
0.0
280
     1
 71
     2
340
14
 90
       25
 71
     3
340
F
 40
5.0
 90
        0
 40
15.0
 90
        1
300
%<\AcVar ViewDetailId>% (%<\AcVar ViewScale \f "%sn">%)
 71
     4
340
14
 90
       25
340
14
 90
       25
280
     0
  0
LAYOUT
  5
E3
102
{ACAD_XDICTIONARY
360
577
102
}
102
{ACAD_REACTORS
330
E1
102
}
330
E1
100
AcDbPlotSettings
  1

  2
Canon LBP9100C
  4
A4
  6

 40
5.789083003997802
 41
5.7890625
 42
5.789077758789062
 43
5.789093017578125
 44
209.9733276367187
 45
296.9259948730469
 46
0.0
 47
0.0
 48
0.0
 49
0.0
140
0.0
141
0.0
142
1.0
143
1.387779914137312
 70
 11952
 72
     1
 73
     1
 74
     2
  7
std_栃木屋様.ctb
 75
     0
147
0.7205753519077494
148
-0.0000015376081137
149
0.0000001931532552
100
AcDbLayout
  1
Model
 70
     1
 71
     0
 10
0.0
 20
0.0
 11
12.0
 21
9.0
 12
0.0
 22
0.0
 32
0.0
 14
0.0
 24
0.0
 34
0.0
 15
0.0
 25
0.0
 35
0.0
146
0.0
 13
0.0
 23
0.0
 33
0.0
 16
1.0
 26
0.0
 36
0.0
 17
0.0
 27
1.0
 37
0.0
 76
     0
330
18
331
90
1001
ACAD_PSEXT
1000
Canon LBP9100C
1000
Canon LBP9100C
1000
USB001
1000

1070
     0
  0
LAYOUT
  5
E4
102
{ACAD_XDICTIONARY
360
579
102
}
102
{ACAD_REACTORS
330
E1
102
}
330
E1
100
AcDbPlotSettings
  1

  2
Canon LBP9100C
  4

  6

 40
0.0
 41
0.0
 42
0.0
 43
0.0
 44
0.0
 45
0.0
 46
0.0
 47
0.0
 48
0.0
 49
0.0
140
0.0
141
0.0
142
1.0
143
1.0
 70
   688
 72
     0
 73
     0
 74
     5
  7
std_栃木屋様.ctb
 75
    16
147
1.0
148
0.0
149
0.0
100
AcDbLayout
  1
レイアウト1
 70
     1
 71
     1
 10
0.0
 20
0.0
 11
420.0
 21
297.0
 12
0.0
 22
0.0
 32
0.0
 14
1.000000000000000E+20
 24
1.000000000000000E+20
 34
1.000000000000000E+20
 15
-1.000000000000000E+20
 25
-1.000000000000000E+20
 35
-1.000000000000000E+20
146
0.0
 13
0.0
 23
0.0
 33
0.0
 16
1.0
 26
0.0
 36
0.0
 17
0.0
 27
1.0
 37
0.0
 76
     0
330
15
  0
MATERIAL
  5
9D
102
{ACAD_XDICTIONARY
360
9E
102
}
102
{ACAD_REACTORS
330
94
102
}
330
94
100
AcDbMaterial
  1
ByBlock
 72
     0
 43
0.0208333333333333
 43
0.0
 43
0.0
 43
0.0
 43
0.0
 43
0.0208333333333333
 43
0.0
 43
0.0
 43
0.0
 43
0.0
 43
1.0
 43
0.0
 43
0.0
 43
0.0
 43
0.0
 43
1.0
 77
     0
 47
0.0208333333333333
 47
0.0
 47
0.0
 47
0.0
 47
0.0
 47
0.0208333333333333
 47
0.0
 47
0.0
 47
0.0
 47
0.0
 47
1.0
 47
0.0
 47
0.0
 47
0.0
 47
0.0
 47
1.0
171
     0
 49
0.0208333333333333
 49
0.0
 49
0.0
 49
0.0
 49
0.0
 49
0.0208333333333333
 49
0.0
 49
0.0
 49
0.0
 49
0.0
 49
1.0
 49
0.0
 49
0.0
 49
0.0
 49
0.0
 49
1.0
175
     0
142
0.0208333333333333
142
0.0
142
0.0
142
0.0
142
0.0
142
0.0208333333333333
142
0.0
142
0.0
142
0.0
142
0.0
142
1.0
142
0.0
142
0.0
142
0.0
142
0.0
142
1.0
179
     0
144
0.0208333333333333
144
0.0
144
0.0
144
0.0
144
0.0
144
0.0208333333333333
144
0.0
144
0.0
144
0.0
144
0.0
144
1.0
144
0.0
144
0.0
144
0.0
144
0.0
144
1.0
147
0.0208333333333333
147
0.0
147
0.0
147
0.0
147
0.0
147
0.0208333333333333
147
0.0
147
0.0
147
0.0
147
0.0
147
1.0
147
0.0
147
0.0
147
0.0
147
0.0
147
1.0
  0
MATERIAL
  5
95
102
{ACAD_XDICTIONARY
360
96
102
}
102
{ACAD_REACTORS
330
94
102
}
330
94
100
AcDbMaterial
  1
ByLayer
 72
     0
 43
0.0208333333333333
 43
0.0
 43
0.0
 43
0.0
 43
0.0
 43
0.0208333333333333
 43
0.0
 43
0.0
 43
0.0
 43
0.0
 43
1.0
 43
0.0
 43
0.0
 43
0.0
 43
0.0
 43
1.0
 77
     0
 47
0.0208333333333333
 47
0.0
 47
0.0
 47
0.0
 47
0.0
 47
0.0208333333333333
 47
0.0
 47
0.0
 47
0.0
 47
0.0
 47
1.0
 47
0.0
 47
0.0
 47
0.0
 47
0.0
 47
1.0
171
     0
 49
0.0208333333333333
 49
0.0
 49
0.0
 49
0.0
 49
0.0
 49
0.0208333333333333
 49
0.0
 49
0.0
 49
0.0
 49
0.0
 49
1.0
 49
0.0
 49
0.0
 49
0.0
 49
0.0
 49
1.0
175
     0
142
0.0208333333333333
142
0.0
142
0.0
142
0.0
142
0.0
142
0.0208333333333333
142
0.0
142
0.0
142
0.0
142
0.0
142
1.0
142
0.0
142
0.0
142
0.0
142
0.0
142
1.0
179
     0
144
0.0208333333333333
144
0.0
144
0.0
144
0.0
144
0.0
144
0.0208333333333333
144
0.0
144
0.0
144
0.0
144
0.0
144
1.0
144
0.0
144
0.0
144
0.0
144
0.0
144
1.0
147
0.0208333333333333
147
0.0
147
0.0
147
0.0
147
0.0
147
0.0208333333333333
147
0.0
147
0.0
147
0.0
147
0.0
147
1.0
147
0.0
147
0.0
147
0.0
147
0.0
147
1.0
  0
MATERIAL
  5
A5
102
{ACAD_XDICTIONARY
360
A6
102
}
102
{ACAD_REACTORS
330
94
102
}
330
94
100
AcDbMaterial
  1
Global
 72
     0
 43
0.0208333333333333
 43
0.0
 43
0.0
 43
0.0
 43
0.0
 43
0.0208333333333333
 43
0.0
 43
0.0
 43
0.0
 43
0.0
 43
1.0
 43
0.0
 43
0.0
 43
0.0
 43
0.0
 43
1.0
 77
     0
 47
0.0208333333333333
 47
0.0
 47
0.0
 47
0.0
 47
0.0
 47
0.0208333333333333
 47
0.0
 47
0.0
 47
0.0
 47
0.0
 47
1.0
 47
0.0
 47
0.0
 47
0.0
 47
0.0
 47
1.0
171
     0
 49
0.0208333333333333
 49
0.0
 49
0.0
 49
0.0
 49
0.0
 49
0.0208333333333333
 49
0.0
 49
0.0
 49
0.0
 49
0.0
 49
1.0
 49
0.0
 49
0.0
 49
0.0
 49
0.0
 49
1.0
175
     0
142
0.0208333333333333
142
0.0
142
0.0
142
0.0
142
0.0
142
0.0208333333333333
142
0.0
142
0.0
142
0.0
142
0.0
142
1.0
142
0.0
142
0.0
142
0.0
142
0.0
142
1.0
179
     0
144
0.0208333333333333
144
0.0
144
0.0
144
0.0
144
0.0
144
0.0208333333333333
144
0.0
144
0.0
144
0.0
144
0.0
144
1.0
144
0.0
144
0.0
144
0.0
144
0.0
144
1.0
147
0.0208333333333333
147
0.0
147
0.0
147
0.0
147
0.0
147
0.0208333333333333
147
0.0
147
0.0
147
0.0
147
0.0
147
1.0
147
0.0
147
0.0
147
0.0
147
0.0
147
1.0
  0
MLEADERSTYLE
  5
DC
102
{ACAD_XDICTIONARY
360
571
102
}
102
{ACAD_REACTORS
330
DB
102
}
330
DB
100
AcDbMLeaderStyle
170
     2
171
     1
172
     0
 90
        2
 40
0.0
 41
0.0
173
     1
 91
-1056964608
340
12
 92
       -2
290
     1
 42
2.0
291
     1
 43
0.36
  3
Standard
 44
4.0
300

342
F
174
     1
178
     6
175
     1
176
     0
 93
-1056964608
 45
4.0
292
     0
297
     0
 46
4.0
 94
-1056964608
 47
1.0
 49
1.0
140
1.0
293
     1
141
0.0
294
     1
177
     0
142
1.0
295
     0
296
     0
143
0.125
1001
ACAD_MLEADERVER
1070
     2
  0
MLINESTYLE
  5
1C
102
{ACAD_REACTORS
330
1B
102
}
330
1B
100
AcDbMlineStyle
  2
STANDARD
 70
     0
  3

 62
   256
 51
90.0
 52
90.0
 71
     2
 49
0.5
 62
   256
  6
BYLAYER
 49
-0.5
 62
   256
  6
BYLAYER
  0
ACDBPLACEHOLDER
  5
93
102
{ACAD_REACTORS
330
92
102
}
330
92
  0
SCALE
  5
CA
102
{ACAD_REACTORS
330
C9
102
}
330
C9
100
AcDbScale
 70
     0
300
1:1
140
1.0
141
1.0
290
     1
  0
SCALE
  5
CB
102
{ACAD_REACTORS
330
C9
102
}
330
C9
100
AcDbScale
 70
     0
300
1:2
140
1.0
141
2.0
290
     0
  0
SCALE
  5
CC
102
{ACAD_REACTORS
330
C9
102
}
330
C9
100
AcDbScale
 70
     0
300
1:4
140
1.0
141
4.0
290
     0
  0
SCALE
  5
CD
102
{ACAD_REACTORS
330
C9
102
}
330
C9
100
AcDbScale
 70
     0
300
1:5
140
1.0
141
5.0
290
     0
  0
SCALE
  5
CE
102
{ACAD_REACTORS
330
C9
102
}
330
C9
100
AcDbScale
 70
     0
300
1:8
140
1.0
141
8.0
290
     0
  0
SCALE
  5
CF
102
{ACAD_REACTORS
330
C9
102
}
330
C9
100
AcDbScale
 70
     0
300
1:10
140
1.0
141
10.0
290
     0
  0
SCALE
  5
D0
102
{ACAD_REACTORS
330
C9
102
}
330
C9
100
AcDbScale
 70
     0
300
1:16
140
1.0
141
16.0
290
     0
  0
SCALE
  5
D1
102
{ACAD_REACTORS
330
C9
102
}
330
C9
100
AcDbScale
 70
     0
300
1:20
140
1.0
141
20.0
290
     0
  0
SCALE
  5
D2
102
{ACAD_REACTORS
330
C9
102
}
330
C9
100
AcDbScale
 70
     0
300
1:30
140
1.0
141
30.0
290
     0
  0
SCALE
  5
D3
102
{ACAD_REACTORS
330
C9
102
}
330
C9
100
AcDbScale
 70
     0
300
1:40
140
1.0
141
40.0
290
     0
  0
SCALE
  5
D4
102
{ACAD_REACTORS
330
C9
102
}
330
C9
100
AcDbScale
 70
     0
300
1:50
140
1.0
141
50.0
290
     0
  0
SCALE
  5
D5
102
{ACAD_REACTORS
330
C9
102
}
330
C9
100
AcDbScale
 70
     0
300
1:100
140
1.0
141
100.0
290
     0
  0
SCALE
  5
D6
102
{ACAD_REACTORS
330
C9
102
}
330
C9
100
AcDbScale
 70
     0
300
2:1
140
2.0
141
1.0
290
     0
  0
SCALE
  5
D7
102
{ACAD_REACTORS
330
C9
102
}
330
C9
100
AcDbScale
 70
     0
300
4:1
140
4.0
141
1.0
290
     0
  0
SCALE
  5
D8
102
{ACAD_REACTORS
330
C9
102
}
330
C9
100
AcDbScale
 70
     0
300
8:1
140
8.0
141
1.0
290
     0
  0
SCALE
  5
D9
102
{ACAD_REACTORS
330
C9
102
}
330
C9
100
AcDbScale
 70
     0
300
10:1
140
10.0
141
1.0
290
     0
  0
SCALE
  5
DA
102
{ACAD_REACTORS
330
C9
102
}
330
C9
100
AcDbScale
 70
     0
300
100:1
140
100.0
141
1.0
290
     0
  0
ACDBSECTIONVIEWSTYLE
  5
DE
102
{ACAD_XDICTIONARY
360
573
102
}
102
{ACAD_REACTORS
330
DD
102
}
330
DD
100
AcDbModelDocViewStyle
 70
     0
  3
Metric50
290
     0
100
AcDbSectionViewStyle
 70
     0
 71
     0
 90
      102
 71
     1
340
F
 40
5.0
340
0
340
0
 40
5.0
300
I, O, Q, S, X, Z
 40
10.0
 90
        0
 40
2.5
 90
        0
 71
     2
340
14
 90
       25
340
14
 90
       50
 40
5.0
 40
2.5
 40
5.0
 71
     3
340
F
 40
5.0
 90
        0
 40
15.0
 90
        1
300
%<\AcVar ViewSectionStartId>%-%<\AcVar ViewSectionEndId>% (%<\AcVar ViewScale \f "%sn">%)
 71
     4
300
ANSI31
 40
1.0
 90
        0
290
     0
290
     0
 90
        6
 40
0.0
 40
1.570796326794896
 40
0.2617993877991494
 40
1.308996938995747
 40
-0.2617993877991494
 40
1.832595714594046
  0
TABLESTYLE
  5
C8
102
{ACAD_XDICTIONARY
360
4AD
102
}
102
{ACAD_REACTORS
330
C7
102
}
330
C7
100
AcDbTableStyle
  3
Standard
 70
     0
 71
     0
 40
1.5
 41
1.5
280
     0
281
     0
  7
STANDARD
140
4.5
170
     2
 62
     0
 63
     7
283
     0
274
    -2
284
     1
 64
     0
275
    -2
285
     1
 65
     0
276
    -2
286
     1
 66
     0
277
    -2
287
     1
 67
     0
278
    -2
288
     1
 68
     0
279
    -2
289
     1
 69
     0
  7
STANDARD
140
6.0
170
     5
 62
     0
 63
     7
283
     0
274
    -2
284
     1
 64
     0
275
    -2
285
     1
 65
     0
276
    -2
286
     1
 66
     0
277
    -2
287
     1
 67
     0
278
    -2
288
     1
 68
     0
279
    -2
289
     1
 69
     0
  7
STANDARD
140
4.5
170
     5
 62
     0
 63
     7
283
     0
274
    -2
284
     1
 64
     0
275
    -2
285
     1
 65
     0
276
    -2
286
     1
 66
     0
277
    -2
287
     1
 67
     0
278
    -2
288
     1
 68
     0
279
    -2
289
     1
 69
     0
  0
VISUALSTYLE
  5
B3
102
{ACAD_XDICTIONARY
360
54A
102
}
102
{ACAD_REACTORS
330
AD
102
}
330
AD
100
AcDbVisualStyle
  2
2dWireframe
 70
     4
 71
     0
 72
     2
 73
     0
 90
        0
 40
-0.6
 41
-30.0
 62
     5
 63
     7
 74
     1
 91
        4
 64
     7
 65
   257
 75
     1
175
     1
 42
1.0
 92
        0
 66
   257
 43
1.0
 76
     1
 77
     6
 78
     2
 67
     7
 79
     5
170
     0
171
     0
290
     0
174
     0
 93
        1
 44
0.0
173
     0
291
     0
 45
0.0
1001
ACAD
1000
AcDbSavedByObjectVersion
1070
     0
  0
VISUALSTYLE
  5
B2
102
{ACAD_XDICTIONARY
360
548
102
}
102
{ACAD_REACTORS
330
AD
102
}
330
AD
100
AcDbVisualStyle
  2
Basic
 70
     7
 71
     1
 72
     0
 73
     1
 90
        0
 40
-0.6
 41
-30.0
 62
     5
 63
     7
 74
     0
 91
        4
 64
     7
 65
   257
 75
     1
175
     1
 42
1.0
 92
        8
 66
     7
 43
1.0
 76
     1
 77
     6
 78
     2
 67
     7
 79
     5
170
     0
171
     0
290
     0
174
     0
 93
        1
 44
0.0
173
     0
291
     1
 45
0.0
1001
ACAD
1000
AcDbSavedByObjectVersion
1070
     0
  0
VISUALSTYLE
  5
B9
102
{ACAD_XDICTIONARY
360
556
102
}
102
{ACAD_REACTORS
330
AD
102
}
330
AD
100
AcDbVisualStyle
  2
Brighten
 70
    12
 71
     2
 72
     2
 73
     0
 90
        0
 40
-0.6
 41
-30.0
 62
     5
 63
     7
 74
     1
 91
        4
 64
     7
 65
   257
 75
     1
175
     1
 42
1.0
 92
        8
 66
     7
 43
1.0
 76
     1
 77
     6
 78
     2
 67
     7
 79
     5
170
     0
171
     0
290
     0
174
     0
 93
        1
 44
50.0
173
     0
291
     1
 45
0.0
1001
ACAD
1000
AcDbSavedByObjectVersion
1070
     0
  0
VISUALSTYLE
  5
BD
102
{ACAD_XDICTIONARY
360
55E
102
}
102
{ACAD_REACTORS
330
AD
102
}
330
AD
100
AcDbVisualStyle
  2
ColorChange
 70
    16
 71
     2
 72
     2
 73
     3
 90
        0
 40
-0.6
 41
-30.0
 62
     5
 63
     8
 74
     1
 91
        4
 64
     7
 65
   257
 75
     1
175
     1
 42
1.0
 92
        8
 66
     8
 43
1.0
 76
     1
 77
     6
 78
     2
 67
     7
 79
     5
170
     0
171
     0
290
     0
174
     0
 93
        1
 44
0.0
173
     0
291
     1
 45
0.0
1001
ACAD
1000
AcDbSavedByObjectVersion
1070
     0
  0
VISUALSTYLE
  5
B6
102
{ACAD_XDICTIONARY
360
550
102
}
102
{ACAD_REACTORS
330
AD
102
}
330
AD
100
AcDbVisualStyle
  2
Conceptual
 70
     9
 71
     3
 72
     2
 73
     0
 90
        0
 40
-0.6
 41
-30.0
 62
     5
 63
     7
 74
     2
 91
        2
 64
     7
 65
   257
 75
     1
175
     1
 42
179.0
 92
        8
 66
     7
 43
1.0
 76
     1
 77
     6
 78
     2
 67
     7
 79
     3
170
     0
171
     0
290
     0
174
     0
 93
        1
 44
0.0
173
     0
291
     0
 45
0.0
1001
ACAD
1000
AcDbSavedByObjectVersion
1070
     0
  0
VISUALSTYLE
  5
B8
102
{ACAD_XDICTIONARY
360
554
102
}
102
{ACAD_REACTORS
330
AD
102
}
330
AD
100
AcDbVisualStyle
  2
Dim
 70
    11
 71
     2
 72
     2
 73
     0
 90
        0
 40
-0.6
 41
-30.0
 62
     5
 63
     7
 74
     1
 91
        4
 64
     7
 65
   257
 75
     1
175
     1
 42
1.0
 92
        8
 66
     7
 43
1.0
 76
     1
 77
     6
 78
     2
 67
     7
 79
     5
170
     0
171
     0
290
     0
174
     0
 93
        1
 44
-50.0
173
     0
291
     1
 45
0.0
1001
ACAD
1000
AcDbSavedByObjectVersion
1070
     0
  0
VISUALSTYLE
  5
C5
102
{ACAD_XDICTIONARY
360
56E
102
}
102
{ACAD_REACTORS
330
AD
102
}
330
AD
100
AcDbVisualStyle
  2
EdgeColorOff
 70
    22
 71
     2
 72
     2
 73
     0
 90
        0
 40
-0.6
 41
-30.0
 62
     5
 63
     7
 74
     1
 91
        4
 64
     7
 65
   257
 75
     1
175
     1
 42
1.0
 92
        8
 66
     7
 43
1.0
 76
     1
 77
     6
 78
     2
 67
     7
 79
     5
170
     0
171
     0
290
     0
174
     0
 93
        1
 44
0.0
173
     0
291
     1
 45
0.0
1001
ACAD
1000
AcDbSavedByObjectVersion
1070
     0
  0
VISUALSTYLE
  5
BC
102
{ACAD_XDICTIONARY
360
55C
102
}
102
{ACAD_REACTORS
330
AD
102
}
330
AD
100
AcDbVisualStyle
  2
Facepattern
 70
    15
 71
     2
 72
     2
 73
     0
 90
        0
 40
-0.6
 41
-30.0
 62
     5
 63
     7
 74
     1
 91
        4
 64
     7
 65
   257
 75
     1
175
     1
 42
1.0
 92
        8
 66
     7
 43
1.0
 76
     1
 77
     6
 78
     2
 67
     7
 79
     5
170
     0
171
     0
290
     0
174
     0
 93
        1
 44
0.0
173
     0
291
     1
 45
0.0
1001
ACAD
1000
AcDbSavedByObjectVersion
1070
     0
  0
VISUALSTYLE
  5
AE
102
{ACAD_XDICTIONARY
360
540
102
}
102
{ACAD_REACTORS
330
AD
102
}
330
AD
100
AcDbVisualStyle
  2
Flat
 70
     0
 71
     2
 72
     1
 73
     1
 90
        2
 40
-0.6
 41
30.0
 62
     5
 63
     7
 74
     0
 91
        0
 64
     7
 65
   257
 75
     1
175
     1
 42
1.0
 92
        8
 66
     7
 43
1.0
 76
     1
 77
     6
 78
     2
 67
     7
 79
     5
170
     0
171
     0
290
     0
174
     0
 93
       13
 44
0.0
173
     0
291
     1
 45
0.0
1001
ACAD
1000
AcDbSavedByObjectVersion
1070
     0
  0
VISUALSTYLE
  5
AF
102
{ACAD_XDICTIONARY
360
542
102
}
102
{ACAD_REACTORS
330
AD
102
}
330
AD
100
AcDbVisualStyle
  2
FlatWithEdges
 70
     1
 71
     2
 72
     1
 73
     1
 90
        2
 40
-0.6
 41
30.0
 62
     5
 63
     7
 74
     1
 91
        0
 64
     7
 65
   257
 75
     1
175
     1
 42
1.0
 92
        0
 66
   257
 43
1.0
 76
     1
 77
     6
 78
     2
 67
     7
 79
     5
170
     0
171
     0
290
     0
174
     0
 93
       13
 44
0.0
173
     0
291
     1
 45
0.0
1001
ACAD
1000
AcDbSavedByObjectVersion
1070
     0
  0
VISUALSTYLE
  5
B0
102
{ACAD_XDICTIONARY
360
544
102
}
102
{ACAD_REACTORS
330
AD
102
}
330
AD
100
AcDbVisualStyle
  2
Gouraud
 70
     2
 71
     2
 72
     2
 73
     1
 90
        2
 40
-0.6
 41
30.0
 62
     5
 63
     7
 74
     0
 91
        0
 64
     7
 65
   257
 75
     1
175
     1
 42
1.0
 92
        0
 66
     7
 43
1.0
 76
     1
 77
     6
 78
     2
 67
     7
 79
     5
170
     0
171
     0
290
     0
174
     0
 93
       13
 44
0.0
173
     0
291
     1
 45
0.0
1001
ACAD
1000
AcDbSavedByObjectVersion
1070
     0
  0
VISUALSTYLE
  5
B1
102
{ACAD_XDICTIONARY
360
546
102
}
102
{ACAD_REACTORS
330
AD
102
}
330
AD
100
AcDbVisualStyle
  2
GouraudWithEdges
 70
     3
 71
     2
 72
     2
 73
     1
 90
        2
 40
-0.6
 41
30.0
 62
     5
 63
     7
 74
     1
 91
        0
 64
     7
 65
   257
 75
     1
175
     1
 42
1.0
 92
        0
 66
   257
 43
1.0
 76
     1
 77
     6
 78
     2
 67
     7
 79
     5
170
     0
171
     0
290
     0
174
     0
 93
       13
 44
0.0
173
     0
291
     1
 45
0.0
1001
ACAD
1000
AcDbSavedByObjectVersion
1070
     0
  0
VISUALSTYLE
  5
B5
102
{ACAD_XDICTIONARY
360
54E
102
}
102
{ACAD_REACTORS
330
AD
102
}
330
AD
100
AcDbVisualStyle
  2
Hidden
 70
     6
 71
     1
 72
     2
 73
     2
 90
        0
 40
-0.6
 41
-30.0
 62
     5
 63
     7
 74
     2
 91
        2
 64
     7
 65
   257
 75
     2
175
     1
 42
40.0
 92
        0
 66
   257
 43
1.0
 76
     1
 77
     6
 78
     2
 67
     7
 79
     3
170
     0
171
     0
290
     0
174
     0
 93
        1
 44
0.0
173
     0
291
     0
 45
0.0
1001
ACAD
1000
AcDbSavedByObjectVersion
1070
     0
  0
VISUALSTYLE
  5
C3
102
{ACAD_XDICTIONARY
360
56A
102
}
102
{ACAD_REACTORS
330
AD
102
}
330
AD
100
AcDbVisualStyle
  2
JitterOff
 70
    20
 71
     2
 72
     2
 73
     0
 90
        0
 40
-0.6
 41
-30.0
 62
     5
 63
     7
 74
     1
 91
        4
 64
     7
 65
   257
 75
     1
175
     1
 42
1.0
 92
       10
 66
     7
 43
1.0
 76
     1
 77
     6
 78
     2
 67
     7
 79
     5
170
     0
171
     0
290
     0
174
     0
 93
        1
 44
0.0
173
     0
291
     1
 45
0.0
1001
ACAD
1000
AcDbSavedByObjectVersion
1070
     0
  0
VISUALSTYLE
  5
BB
102
{ACAD_XDICTIONARY
360
55A
102
}
102
{ACAD_REACTORS
330
AD
102
}
330
AD
100
AcDbVisualStyle
  2
Linepattern
 70
    14
 71
     2
 72
     2
 73
     0
 90
        0
 40
-0.6
 41
-30.0
 62
     5
 63
     7
 74
     1
 91
        4
 64
     7
 65
   257
 75
     7
175
     7
 42
1.0
 92
        8
 66
     7
 43
1.0
 76
     1
 77
     6
 78
     2
 67
     7
 79
     5
170
     0
171
     0
290
     0
174
     0
 93
        1
 44
0.0
173
     0
291
     1
 45
0.0
1001
ACAD
1000
AcDbSavedByObjectVersion
1070
     0
  0
VISUALSTYLE
  5
C4
102
{ACAD_XDICTIONARY
360
56C
102
}
102
{ACAD_REACTORS
330
AD
102
}
330
AD
100
AcDbVisualStyle
  2
OverhangOff
 70
    21
 71
     2
 72
     2
 73
     0
 90
        0
 40
-0.6
 41
-30.0
 62
     5
 63
     7
 74
     1
 91
        4
 64
     7
 65
   257
 75
     1
175
     1
 42
1.0
 92
        9
 66
     7
 43
1.0
 76
     1
 77
     6
 78
     2
 67
     7
 79
     5
170
     0
171
     0
290
     0
174
     0
 93
        1
 44
0.0
173
     0
291
     1
 45
0.0
1001
ACAD
1000
AcDbSavedByObjectVersion
1070
     0
  0
VISUALSTYLE
  5
B7
102
{ACAD_XDICTIONARY
360
552
102
}
102
{ACAD_REACTORS
330
AD
102
}
330
AD
100
AcDbVisualStyle
  2
Realistic
 70
     8
 71
     2
 72
     2
 73
     0
 90
        2
 40
-0.6
 41
30.0
 62
     5
 63
     7
 74
     0
 91
        0
 64
     7
 65
   257
 75
     1
175
     1
 42
1.0
 92
        8
 66
   257
 43
1.0
 76
     1
 77
     6
 78
     2
 67
     7
 79
     3
170
     0
171
     0
290
     0
174
     0
 93
       13
 44
0.0
173
     0
291
     0
 45
0.0
1001
ACAD
1000
AcDbSavedByObjectVersion
1070
     0
  0
VISUALSTYLE
  5
C2
102
{ACAD_XDICTIONARY
360
568
102
}
102
{ACAD_REACTORS
330
AD
102
}
330
AD
100
AcDbVisualStyle
  2
Shaded
 70
    27
 71
     2
 72
     2
 73
     1
 90
        2
 40
-0.6
 41
30.0
 62
     5
 63
     7
 74
     0
 91
        4
 64
     7
 65
   257
 75
     1
175
     1
 42
1.0
 92
        8
 66
   257
 43
1.0
 76
     1
 77
     6
 78
     2
 67
     8
 79
     3
170
     0
171
     0
290
     0
174
     0
 93
        5
 44
0.0
173
     0
291
     0
 45
0.0
1001
ACAD
1000
AcDbSavedByObjectVersion
1070
     0
  0
VISUALSTYLE
  5
C1
102
{ACAD_XDICTIONARY
360
566
102
}
102
{ACAD_REACTORS
330
AD
102
}
330
AD
100
AcDbVisualStyle
  2
Shaded with edges
 70
    26
 71
     2
 72
     2
 73
     1
 90
        2
 40
-0.6
 41
30.0
 62
     5
 63
     7
 74
     1
 91
       10
 64
     7
 65
   257
 75
     2
175
     1
 42
1.0
 92
        8
 66
   257
 43
1.0
 76
     1
 77
     6
 78
     2
 67
     7
 79
     3
170
     0
171
     0
290
     0
174
     0
 93
        5
 44
0.0
173
     0
291
     0
 45
0.0
1001
ACAD
1000
AcDbSavedByObjectVersion
1070
     0
  0
VISUALSTYLE
  5
BE
102
{ACAD_XDICTIONARY
360
560
102
}
102
{ACAD_REACTORS
330
AD
102
}
330
AD
100
AcDbVisualStyle
  2
Shades of Gray
 70
    23
 71
     2
 72
     2
 73
     3
 90
        0
 40
-0.6
 41
-30.0
 62
     5
 63
     7
 74
     2
 91
        2
 64
     7
 65
     7
 75
     1
175
     1
 42
40.0
 92
        8
 66
     7
 43
1.0
 76
     1
 77
     6
 78
     2
 67
     7
 79
     3
170
     0
171
     0
290
     0
174
     0
 93
        1
 44
0.0
173
     0
291
     0
 45
0.0
1001
ACAD
1000
AcDbSavedByObjectVersion
1070
     0
  0
VISUALSTYLE
  5
BF
102
{ACAD_XDICTIONARY
360
562
102
}
102
{ACAD_REACTORS
330
AD
102
}
330
AD
100
AcDbVisualStyle
  2
Sketchy
 70
    24
 71
     1
 72
     2
 73
     2
 90
        0
 40
-0.6
 41
-30.0
 62
     5
 63
     7
 74
     2
 91
        2
 64
     7
 65
     7
 75
     1
175
     1
 42
40.0
 92
       11
 66
     7
 43
1.0
 76
     1
 77
     6
 78
     2
 67
     7
 79
     6
170
     0
171
     0
290
     0
174
     0
 93
        1
 44
0.0
173
     0
291
     0
 45
0.0
1001
ACAD
1000
AcDbSavedByObjectVersion
1070
     0
  0
VISUALSTYLE
  5
BA
102
{ACAD_XDICTIONARY
360
558
102
}
102
{ACAD_REACTORS
330
AD
102
}
330
AD
100
AcDbVisualStyle
  2
Thicken
 70
    13
 71
     2
 72
     2
 73
     0
 90
        0
 40
-0.6
 41
-30.0
 62
     5
 63
     7
 74
     1
 91
        4
 64
     7
 65
   257
 75
     1
175
     1
 42
1.0
 92
       12
 66
     7
 43
1.0
 76
     1
 77
     6
 78
     2
 67
     7
 79
     5
170
     0
171
     0
290
     0
174
     0
 93
        1
 44
0.0
173
     0
291
     1
 45
0.0
1001
ACAD
1000
AcDbSavedByObjectVersion
1070
     0
  0
VISUALSTYLE
  5
B4
102
{ACAD_XDICTIONARY
360
54C
102
}
102
{ACAD_REACTORS
330
AD
102
}
330
AD
100
AcDbVisualStyle
  2
Wireframe
 70
     5
 71
     0
 72
     2
 73
     0
 90
        0
 40
-0.6
 41
-30.0
 62
     5
 63
     7
 74
     1
 91
        4
 64
     7
 65
   257
 75
     1
175
     1
 42
1.0
 92
        0
 66
   257
 43
1.0
 76
     1
 77
     6
 78
     2
 67
     7
 79
     3
170
     0
171
     0
290
     0
174
     0
 93
        1
 44
0.0
173
     0
291
     0
 45
0.0
1001
ACAD
1000
AcDbSavedByObjectVersion
1070
     0
  0
VISUALSTYLE
  5
C0
102
{ACAD_XDICTIONARY
360
564
102
}
102
{ACAD_REACTORS
330
AD
102
}
330
AD
100
AcDbVisualStyle
  2
X-Ray
 70
    25
 71
     2
 72
     2
 73
     1
 90
        1
 40
0.5
 41
-30.0
 62
     5
 63
     7
 74
     1
 91
        0
 64
     7
 65
   257
 75
     1
175
     1
 42
1.0
 92
        8
 66
     7
 43
1.0
 76
     1
 77
     6
 78
     2
 67
     7
 79
     3
170
     0
171
     0
290
     0
174
     0
 93
       13
 44
0.0
173
     0
291
     0
 45
0.0
1001
ACAD
1000
AcDbSavedByObjectVersion
1070
     0
  0
DICTIONARYVAR
  5
F6
102
{ACAD_REACTORS
330
F0
102
}
330
F0
100
DictionaryVariables
280
     0
  1
1:1
  0
DICTIONARYVAR
  5
F2
102
{ACAD_REACTORS
330
F0
102
}
330
F0
100
DictionaryVariables
280
     0
  1
STANDARD
  0
DICTIONARYVAR
  5
F1
102
{ACAD_REACTORS
330
F0
102
}
330
F0
100
DictionaryVariables
280
     0
  1
STANDARD
  0
DICTIONARYVAR
  5
F3
102
{ACAD_REACTORS
330
F0
102
}
330
F0
100
DictionaryVariables
280
     0
  1
Metric50
  0
DICTIONARYVAR
  5
F4
102
{ACAD_REACTORS
330
F0
102
}
330
F0
100
DictionaryVariables
280
     0
  1
Metric50
  0
DICTIONARYVAR
  5
4F2
102
{ACAD_REACTORS
330
F0
102
}
330
F0
100
DictionaryVariables
280
     0
  1
1
  0
DICTIONARYVAR
  5
4F1
102
{ACAD_REACTORS
330
F0
102
}
330
F0
100
DictionaryVariables
280
     0
  1
0
  0
DICTIONARYVAR
  5
F8
102
{ACAD_REACTORS
330
F0
102
}
330
F0
100
DictionaryVariables
280
     0
  1
1
  0
DICTIONARYVAR
  5
F9
102
{ACAD_REACTORS
330
F0
102
}
330
F0
100
DictionaryVariables
280
     0
  1
15
  0
DICTIONARYVAR
  5
F7
102
{ACAD_REACTORS
330
F0
102
}
330
F0
100
DictionaryVariables
280
     0
  1
0
  0
DICTIONARYVAR
  5
F5
102
{ACAD_REACTORS
330
F0
102
}
330
F0
100
DictionaryVariables
280
     0
  1
0
  0
DICTIONARYVAR
  5
4F0
102
{ACAD_REACTORS
330
F0
102
}
330
F0
100
DictionaryVariables
280
     0
  1
127
  0
DICTIONARYVAR
  5
539
102
{ACAD_REACTORS
330
F0
102
}
330
F0
100
DictionaryVariables
280
     0
  1
2
  0
DICTIONARY
  5
575
330
E0
100
AcDbDictionary
280
     1
281
     1
  3
ACAD_XREC_ROUNDTRIP
360
576
  0
DICTIONARY
  5
577
330
E3
100
AcDbDictionary
280
     1
281
     1
  3
ACAD_XREC_ROUNDTRIP
360
578
  0
DICTIONARY
  5
579
330
E4
100
AcDbDictionary
280
     1
281
     1
  3
ACAD_XREC_ROUNDTRIP
360
57A
  0
DICTIONARY
  5
9E
330
9D
100
AcDbDictionary
280
     1
281
     1
  3
ACAD_XREC_ROUNDTRIP
360
53E
  3
BUMPTILE
360
A0
  3
DIFFUSETILE
360
9F
  3
OPACITYTILE
360
A3
  3
REFLECTIONTILE
360
A2
  3
REFRACTIONTILE
360
A4
  3
SPECULARTILE
360
A1
  0
DICTIONARY
  5
96
330
95
100
AcDbDictionary
280
     1
281
     1
  3
ACAD_XREC_ROUNDTRIP
360
53D
  3
BUMPTILE
360
98
  3
DIFFUSETILE
360
97
  3
OPACITYTILE
360
9B
  3
REFLECTIONTILE
360
9A
  3
REFRACTIONTILE
360
9C
  3
SPECULARTILE
360
99
  0
DICTIONARY
  5
A6
330
A5
100
AcDbDictionary
280
     1
281
     1
  3
ACAD_XREC_ROUNDTRIP
360
53F
  3
BUMPTILE
360
A8
  3
DIFFUSETILE
360
A7
  3
OPACITYTILE
360
AB
  3
REFLECTIONTILE
360
AA
  3
REFRACTIONTILE
360
AC
  3
SPECULARTILE
360
A9
  0
DICTIONARY
  5
571
330
DC
100
AcDbDictionary
280
     1
281
     1
  3
ACAD_XREC_ROUNDTRIP
360
572
  0
DICTIONARY
  5
573
330
DE
100
AcDbDictionary
280
     1
281
     1
  3
ACAD_XREC_ROUNDTRIP
360
574
  0
DICTIONARY
  5
4AD
330
C8
100
AcDbDictionary
280
     1
281
     1
  3
ACAD_ROUNDTRIP_2008_TABLESTYLE_CELLSTYLEMAP
360
53A
  3
ACAD_XREC_ROUNDTRIP
360
570
  0
DICTIONARY
  5
54A
330
B3
100
AcDbDictionary
280
     1
281
     1
  3
ACAD_XREC_ROUNDTRIP
360
54B
  0
DICTIONARY
  5
548
330
B2
100
AcDbDictionary
280
     1
281
     1
  3
ACAD_XREC_ROUNDTRIP
360
549
  0
DICTIONARY
  5
556
330
B9
100
AcDbDictionary
280
     1
281
     1
  3
ACAD_XREC_ROUNDTRIP
360
557
  0
DICTIONARY
  5
55E
330
BD
100
AcDbDictionary
280
     1
281
     1
  3
ACAD_XREC_ROUNDTRIP
360
55F
  0
DICTIONARY
  5
550
330
B6
100
AcDbDictionary
280
     1
281
     1
  3
ACAD_XREC_ROUNDTRIP
360
551
  0
DICTIONARY
  5
554
330
B8
100
AcDbDictionary
280
     1
281
     1
  3
ACAD_XREC_ROUNDTRIP
360
555
  0
DICTIONARY
  5
56E
330
C5
100
AcDbDictionary
280
     1
281
     1
  3
ACAD_XREC_ROUNDTRIP
360
56F
  0
DICTIONARY
  5
55C
330
BC
100
AcDbDictionary
280
     1
281
     1
  3
ACAD_XREC_ROUNDTRIP
360
55D
  0
DICTIONARY
  5
540
330
AE
100
AcDbDictionary
280
     1
281
     1
  3
ACAD_XREC_ROUNDTRIP
360
541
  0
DICTIONARY
  5
542
330
AF
100
AcDbDictionary
280
     1
281
     1
  3
ACAD_XREC_ROUNDTRIP
360
543
  0
DICTIONARY
  5
544
330
B0
100
AcDbDictionary
280
     1
281
     1
  3
ACAD_XREC_ROUNDTRIP
360
545
  0
DICTIONARY
  5
546
330
B1
100
AcDbDictionary
280
     1
281
     1
  3
ACAD_XREC_ROUNDTRIP
360
547
  0
DICTIONARY
  5
54E
330
B5
100
AcDbDictionary
280
     1
281
     1
  3
ACAD_XREC_ROUNDTRIP
360
54F
  0
DICTIONARY
  5
56A
330
C3
100
AcDbDictionary
280
     1
281
     1
  3
ACAD_XREC_ROUNDTRIP
360
56B
  0
DICTIONARY
  5
55A
330
BB
100
AcDbDictionary
280
     1
281
     1
  3
ACAD_XREC_ROUNDTRIP
360
55B
  0
DICTIONARY
  5
56C
330
C4
100
AcDbDictionary
280
     1
281
     1
  3
ACAD_XREC_ROUNDTRIP
360
56D
  0
DICTIONARY
  5
552
330
B7
100
AcDbDictionary
280
     1
281
     1
  3
ACAD_XREC_ROUNDTRIP
360
553
  0
DICTIONARY
  5
568
330
C2
100
AcDbDictionary
280
     1
281
     1
  3
ACAD_XREC_ROUNDTRIP
360
569
  0
DICTIONARY
  5
566
330
C1
100
AcDbDictionary
280
     1
281
     1
  3
ACAD_XREC_ROUNDTRIP
360
567
  0
DICTIONARY
  5
560
330
BE
100
AcDbDictionary
280
     1
281
     1
  3
ACAD_XREC_ROUNDTRIP
360
561
  0
DICTIONARY
  5
562
330
BF
100
AcDbDictionary
280
     1
281
     1
  3
ACAD_XREC_ROUNDTRIP
360
563
  0
DICTIONARY
  5
558
330
BA
100
AcDbDictionary
280
     1
281
     1
  3
ACAD_XREC_ROUNDTRIP
360
559
  0
DICTIONARY
  5
54C
330
B4
100
AcDbDictionary
280
     1
281
     1
  3
ACAD_XREC_ROUNDTRIP
360
54D
  0
DICTIONARY
  5
564
330
C0
100
AcDbDictionary
280
     1
281
     1
  3
ACAD_XREC_ROUNDTRIP
360
565
  0
XRECORD
  5
576
102
{ACAD_REACTORS
330
575
102
}
330
575
100
AcDbXrecord
280
     1
102
DISPLAYNAME
  1
Metric50
102
FLAGS
 90
        0
  0
XRECORD
  5
578
102
{ACAD_REACTORS
330
577
102
}
330
577
100
AcDbXrecord
280
     1
102
SHADEPLOT
 70
     0
102
SHADEPLOTRESLEVEL
 70
     2
102
SHADEPLOTCUSTOMDPI
 70
   300
  0
XRECORD
  5
57A
102
{ACAD_REACTORS
330
579
102
}
330
579
100
AcDbXrecord
280
     1
102
SHADEPLOT
 70
     0
102
SHADEPLOTRESLEVEL
 70
     2
102
SHADEPLOTCUSTOMDPI
 70
   300
  0
XRECORD
  5
53E
102
{ACAD_REACTORS
330
9E
102
}
330
9E
100
AcDbXrecord
280
     1
102
MATERIAL
148
0.0
149
0.0
149
0.0
 93
        0
 94
      127
282
     0
 72
     0
 77
     0
171
     0
175
     0
179
     0
273
     0
  0
XRECORD
  5
A0
102
{ACAD_REACTORS
330
9E
102
}
330
9E
100
AcDbXrecord
280
     1
270
     1
271
     1
  0
XRECORD
  5
9F
102
{ACAD_REACTORS
330
9E
102
}
330
9E
100
AcDbXrecord
280
     1
270
     1
271
     1
  0
XRECORD
  5
A3
102
{ACAD_REACTORS
330
9E
102
}
330
9E
100
AcDbXrecord
280
     1
270
     1
271
     1
  0
XRECORD
  5
A2
102
{ACAD_REACTORS
330
9E
102
}
330
9E
100
AcDbXrecord
280
     1
270
     1
271
     1
  0
XRECORD
  5
A4
102
{ACAD_REACTORS
330
9E
102
}
330
9E
100
AcDbXrecord
280
     1
270
     1
271
     1
  0
XRECORD
  5
A1
102
{ACAD_REACTORS
330
9E
102
}
330
9E
100
AcDbXrecord
280
     1
270
     1
271
     1
  0
XRECORD
  5
53D
102
{ACAD_REACTORS
330
96
102
}
330
96
100
AcDbXrecord
280
     1
102
MATERIAL
148
0.0
149
0.0
149
0.0
 93
        0
 94
      127
282
     0
 72
     0
 77
     0
171
     0
175
     0
179
     0
273
     0
  0
XRECORD
  5
98
102
{ACAD_REACTORS
330
96
102
}
330
96
100
AcDbXrecord
280
     1
270
     1
271
     1
  0
XRECORD
  5
97
102
{ACAD_REACTORS
330
96
102
}
330
96
100
AcDbXrecord
280
     1
270
     1
271
     1
  0
XRECORD
  5
9B
102
{ACAD_REACTORS
330
96
102
}
330
96
100
AcDbXrecord
280
     1
270
     1
271
     1
  0
XRECORD
  5
9A
102
{ACAD_REACTORS
330
96
102
}
330
96
100
AcDbXrecord
280
     1
270
     1
271
     1
  0
XRECORD
  5
9C
102
{ACAD_REACTORS
330
96
102
}
330
96
100
AcDbXrecord
280
     1
270
     1
271
     1
  0
XRECORD
  5
99
102
{ACAD_REACTORS
330
96
102
}
330
96
100
AcDbXrecord
280
     1
270
     1
271
     1
  0
XRECORD
  5
53F
102
{ACAD_REACTORS
330
A6
102
}
330
A6
100
AcDbXrecord
280
     1
102
MATERIAL
148
0.0
149
0.0
149
0.0
 93
        0
 94
      127
282
     0
 72
     0
 77
     0
171
     0
175
     0
179
     0
273
     0
  0
XRECORD
  5
A8
102
{ACAD_REACTORS
330
A6
102
}
330
A6
100
AcDbXrecord
280
     1
270
     1
271
     1
  0
XRECORD
  5
A7
102
{ACAD_REACTORS
330
A6
102
}
330
A6
100
AcDbXrecord
280
     1
270
     1
271
     1
  0
XRECORD
  5
AB
102
{ACAD_REACTORS
330
A6
102
}
330
A6
100
AcDbXrecord
280
     1
270
     1
271
     1
  0
XRECORD
  5
AA
102
{ACAD_REACTORS
330
A6
102
}
330
A6
100
AcDbXrecord
280
     1
270
     1
271
     1
  0
XRECORD
  5
AC
102
{ACAD_REACTORS
330
A6
102
}
330
A6
100
AcDbXrecord
280
     1
270
     1
271
     1
  0
XRECORD
  5
A9
102
{ACAD_REACTORS
330
A6
102
}
330
A6
100
AcDbXrecord
280
     1
270
     1
271
     1
  0
XRECORD
  5
572
102
{ACAD_REACTORS
330
571
102
}
330
571
100
AcDbXrecord
280
     1
102
ACAD_ROUNDTRIP_2012_MLEADER_STYLE
298
     1
  0
XRECORD
  5
574
102
{ACAD_REACTORS
330
573
102
}
330
573
100
AcDbXrecord
280
     1
102
DISPLAYNAME
  1
Metric50
102
FLAGS
 90
        0
  0
CELLSTYLEMAP
  5
53A
102
{ACAD_REACTORS
330
4AD
102
}
330
4AD
100
AcDbCellStyleMap
 90
        3
300
CELLSTYLE
  1
TABLEFORMAT_BEGIN
 90
        5
170
     1
 91
        0
 92
    32768
 62
   257
 93
        1
300
CONTENTFORMAT
  1
CONTENTFORMAT_BEGIN
 90
        0
 91
        0
 92
      512
 93
        0
300

 40
0.0
140
1.0
 94
        5
 62
     0
340
F
144
6.0
309
CONTENTFORMAT_END
171
     1
301
MARGIN
  1
CELLMARGIN_BEGIN
 40
1.5
 40
1.5
 40
1.5
 40
1.5
 40
4.5
 40
4.5
309
CELLMARGIN_END
 94
        6
 95
        1
302
GRIDFORMAT
  1
GRIDFORMAT_BEGIN
 90
        0
 91
        1
 62
     0
 92
       -2
340
0
 93
        0
 40
1.125
309
GRIDFORMAT_END
 95
        2
302
GRIDFORMAT
  1
GRIDFORMAT_BEGIN
 90
        0
 91
        1
 62
     0
 92
       -2
340
0
 93
        0
 40
1.125
309
GRIDFORMAT_END
 95
        4
302
GRIDFORMAT
  1
GRIDFORMAT_BEGIN
 90
        0
 91
        1
 62
     0
 92
       -2
340
0
 93
        0
 40
1.125
309
GRIDFORMAT_END
 95
        8
302
GRIDFORMAT
  1
GRIDFORMAT_BEGIN
 90
        0
 91
        1
 62
     0
 92
       -2
340
0
 93
        0
 40
1.125
309
GRIDFORMAT_END
 95
       16
302
GRIDFORMAT
  1
GRIDFORMAT_BEGIN
 90
        0
 91
        1
 62
     0
 92
       -2
340
0
 93
        0
 40
1.125
309
GRIDFORMAT_END
 95
       32
302
GRIDFORMAT
  1
GRIDFORMAT_BEGIN
 90
        0
 91
        1
 62
     0
 92
       -2
340
0
 93
        0
 40
1.125
309
GRIDFORMAT_END
309
TABLEFORMAT_END
  1
CELLSTYLE_BEGIN
 90
        1
 91
        1
300
_TITLE
309
CELLSTYLE_END
300
CELLSTYLE
  1
TABLEFORMAT_BEGIN
 90
        5
170
     1
 91
        0
 92
        0
 62
   257
 93
        1
300
CONTENTFORMAT
  1
CONTENTFORMAT_BEGIN
 90
        0
 91
        0
 92
      512
 93
        0
300

 40
0.0
140
1.0
 94
        5
 62
     0
340
F
144
4.5
309
CONTENTFORMAT_END
171
     1
301
MARGIN
  1
CELLMARGIN_BEGIN
 40
1.5
 40
1.5
 40
1.5
 40
1.5
 40
4.5
 40
4.5
309
CELLMARGIN_END
 94
        6
 95
        1
302
GRIDFORMAT
  1
GRIDFORMAT_BEGIN
 90
        0
 91
        1
 62
     0
 92
       -2
340
0
 93
        0
 40
1.125
309
GRIDFORMAT_END
 95
        2
302
GRIDFORMAT
  1
GRIDFORMAT_BEGIN
 90
        0
 91
        1
 62
     0
 92
       -2
340
0
 93
        0
 40
1.125
309
GRIDFORMAT_END
 95
        4
302
GRIDFORMAT
  1
GRIDFORMAT_BEGIN
 90
        0
 91
        1
 62
     0
 92
       -2
340
0
 93
        0
 40
1.125
309
GRIDFORMAT_END
 95
        8
302
GRIDFORMAT
  1
GRIDFORMAT_BEGIN
 90
        0
 91
        1
 62
     0
 92
       -2
340
0
 93
        0
 40
1.125
309
GRIDFORMAT_END
 95
       16
302
GRIDFORMAT
  1
GRIDFORMAT_BEGIN
 90
        0
 91
        1
 62
     0
 92
       -2
340
0
 93
        0
 40
1.125
309
GRIDFORMAT_END
 95
       32
302
GRIDFORMAT
  1
GRIDFORMAT_BEGIN
 90
        0
 91
        1
 62
     0
 92
       -2
340
0
 93
        0
 40
1.125
309
GRIDFORMAT_END
309
TABLEFORMAT_END
  1
CELLSTYLE_BEGIN
 90
        2
 91
        1
300
_HEADER
309
CELLSTYLE_END
300
CELLSTYLE
  1
TABLEFORMAT_BEGIN
 90
        5
170
     1
 91
        0
 92
        0
 62
   257
 93
        1
300
CONTENTFORMAT
  1
CONTENTFORMAT_BEGIN
 90
        0
 91
        0
 92
      512
 93
        0
300

 40
0.0
140
1.0
 94
        2
 62
     0
340
F
144
4.5
309
CONTENTFORMAT_END
171
     1
301
MARGIN
  1
CELLMARGIN_BEGIN
 40
1.5
 40
1.5
 40
1.5
 40
1.5
 40
4.5
 40
4.5
309
CELLMARGIN_END
 94
        6
 95
        1
302
GRIDFORMAT
  1
GRIDFORMAT_BEGIN
 90
        0
 91
        1
 62
     0
 92
       -2
340
0
 93
        0
 40
1.125
309
GRIDFORMAT_END
 95
        2
302
GRIDFORMAT
  1
GRIDFORMAT_BEGIN
 90
        0
 91
        1
 62
     0
 92
       -2
340
0
 93
        0
 40
1.125
309
GRIDFORMAT_END
 95
        4
302
GRIDFORMAT
  1
GRIDFORMAT_BEGIN
 90
        0
 91
        1
 62
     0
 92
       -2
340
0
 93
        0
 40
1.125
309
GRIDFORMAT_END
 95
        8
302
GRIDFORMAT
  1
GRIDFORMAT_BEGIN
 90
        0
 91
        1
 62
     0
 92
       -2
340
0
 93
        0
 40
1.125
309
GRIDFORMAT_END
 95
       16
302
GRIDFORMAT
  1
GRIDFORMAT_BEGIN
 90
        0
 91
        1
 62
     0
 92
       -2
340
0
 93
        0
 40
1.125
309
GRIDFORMAT_END
 95
       32
302
GRIDFORMAT
  1
GRIDFORMAT_BEGIN
 90
        0
 91
        1
 62
     0
 92
       -2
340
0
 93
        0
 40
1.125
309
GRIDFORMAT_END
309
TABLEFORMAT_END
  1
CELLSTYLE_BEGIN
 90
        3
 91
        2
300
_DATA
309
CELLSTYLE_END
  0
XRECORD
  5
570
102
{ACAD_REACTORS
330
4AD
102
}
330
4AD
100
AcDbXrecord
280
     1
102
ACAD_ROUNDTRIP_PRE2007_TABLESTYLE
 90
      512
 91
        0
  1

 92
      512
 93
        0
  2

 94
      512
 95
        0
  3

  0
XRECORD
  5
54B
102
{ACAD_REACTORS
330
54A
102
}
330
54A
100
AcDbXrecord
280
     1
102
RTVSPost2010Prop28
280
     1
102
RTVSPost2010PropOp28
 70
     1
102
RTVSPost2010Prop29
280
     1
102
RTVSPost2010PropOp29
 70
     1
102
RTVSPost2010Prop30
280
     0
102
RTVSPost2010PropOp30
 70
     1
102
RTVSPost2010Prop31
280
     0
102
RTVSPost2010PropOp31
 70
     1
102
RTVSPost2010Prop32
280
     0
102
RTVSPost2010PropOp32
 70
     1
102
RTVSPost2010Prop33
280
     0
102
RTVSPost2010PropOp33
 70
     1
102
RTVSPost2010Prop34
280
     0
102
RTVSPost2010PropOp34
 70
     1
102
RTVSPost2010Prop35
280
     0
102
RTVSPost2010PropOp35
 70
     1
102
RTVSPost2010Prop36
280
     0
102
RTVSPost2010PropOp36
 70
     1
102
RTVSPost2010Prop37
 90
       50
102
RTVSPost2010PropOp37
 70
     1
102
RTVSPost2010Prop38
140
0.0
102
RTVSPost2010PropOp38
 70
     1
102
RTVSPost2010Prop39
140
1.0
102
RTVSPost2010PropOp39
 70
     1
102
RTVSPost2010Prop40
 90
        0
102
RTVSPost2010PropOp40
 70
     1
102
RTVSPost2010Prop41ColorIndex
 90
       18
102
RTVSPost2010Prop41ColorRGB
 90
        0
102
RTVSPost2010PropOp41
 70
     1
102
RTVSPost2010Prop42
 90
       50
102
RTVSPost2010PropOp42
 70
     1
102
RTVSPost2010Prop43
 90
        3
102
RTVSPost2010PropOp43
 70
     1
102
RTVSPost2010Prop44ColorIndex
 90
        5
102
RTVSPost2010Prop44ColorRGB
 90
      255
102
RTVSPost2010PropOp44
 70
     1
102
RTVSPost2010Prop45
280
     0
102
RTVSPost2010PropOp45
 70
     1
102
RTVSPost2010Prop46
 90
       50
102
RTVSPost2010PropOp46
 70
     1
102
RTVSPost2010Prop47
 90
       50
102
RTVSPost2010PropOp47
 70
     1
102
RTVSPost2010Prop48
 90
       50
102
RTVSPost2010PropOp48
 70
     1
102
RTVSPost2010Prop49
280
     0
102
RTVSPost2010PropOp49
 70
     1
102
RTVSPost2010Prop50
 90
       50
102
RTVSPost2010PropOp50
 70
     1
102
RTVSPost2010Prop51ColorIndex
 90
      256
102
RTVSPost2010Prop51ColorRGB
 90
-16777216
102
RTVSPost2010PropOp51
 70
     0
102
RTVSPost2010Prop52
140
1.0
102
RTVSPost2010PropOp52
 70
     0
102
RTVSPost2010Prop53
 90
        2
102
RTVSPost2010PropOp53
 70
     1
102
RTVSPost2010Prop54
  1
strokes_ogs.tif
102
RTVSPost2010PropOp54
 70
     1
102
RTVSPost2010Prop55
280
     0
102
RTVSPost2010PropOp55
 70
     1
102
RTVSPost2010Prop56
140
1.0
102
RTVSPost2010PropOp56
 70
     1
102
RTVSPost2010Prop57
140
1.0
102
RTVSPost2010PropOp57
 70
     1
102
RTVSPropertyOp0
 70
     1
102
RTVSPropertyOp1
 70
     1
102
RTVSPropertyOp2
 70
     1
102
RTVSPropertyOp3
 70
     1
102
RTVSPropertyOp4
 70
     1
102
RTVSPropertyOp5
 70
     1
102
RTVSPropertyOp6
 70
     1
102
RTVSPropertyOp7
 70
     1
102
RTVSPropertyOp8
 70
     1
102
RTVSPropertyOp9
 70
     1
102
RTVSPropertyOp10
 70
     1
102
RTVSPropertyOp11
 70
     1
102
RTVSPropertyOp12
 70
     1
102
RTVSPropertyOp13
 70
     1
102
RTVSPropertyOp14
 70
     1
102
RTVSPropertyOp15
 70
     1
102
RTVSPropertyOp16
 70
     1
102
RTVSPropertyOp17
 70
     1
102
RTVSPropertyOp18
 70
     1
102
RTVSPropertyOp19
 70
     1
102
RTVSPropertyOp20
 70
     1
102
RTVSPropertyOp21
 70
     1
102
RTVSPropertyOp22
 70
     1
102
RTVSPropertyOp23
 70
     1
102
RTVSPropertyOp24
 70
     1
102
RTVSPropertyOp25
 70
     1
102
RTVSPropertyOp26
 70
     1
102
RTVSPropertyOp27
 70
     1
102
RTVSPropertyOp28
 70
     1
102
RTVSPropertyOp29
 70
     1
102
RTVSPropertyOp30
 70
     1
102
RTVSPropertyOp31
 70
     1
102
RTVSPropertyOp32
 70
     1
102
RTVSPropertyOp33
 70
     1
102
RTVSPropertyOp34
 70
     1
102
RTVSPropertyOp35
 70
     1
102
RTVSPropertyOp36
 70
     1
102
RTVSPropertyOp37
 70
     1
102
RTVSPropertyOp38
 70
     1
102
RTVSPropertyOp39
 70
     1
102
RTVSPropertyOp40
 70
     1
102
RTVSPropertyOp41
 70
     1
102
RTVSPropertyOp42
 70
     1
102
RTVSPropertyOp43
 70
     1
102
RTVSPropertyOp44
 70
     1
102
RTVSPropertyOp45
 70
     1
102
RTVSPropertyOp46
 70
     1
102
RTVSPropertyOp47
 70
     1
102
RTVSPropertyOp48
 70
     1
102
RTVSPropertyOp49
 70
     1
102
RTVSPropertyOp50
 70
     1
102
RTVSPropertyOp51
 70
     0
102
RTVSPropertyOp52
 70
     0
102
RTVSPropertyOp53
 70
     1
102
RTVSPropertyOp54
 70
     1
102
RTVSPropertyOp55
 70
     1
102
RTVSPropertyOp56
 70
     1
102
RTVSPropertyOp57
 70
     1
102
RTVSPropertyOp58
 70
     1
102
RTVSPropertyOp59
 70
     1
102
RTVSPropertyOp60
 70
     1
102
RTVSPropertyOp61
 70
     1
102
RTVSPropertyOp62
 70
     1
  0
XRECORD
  5
549
102
{ACAD_REACTORS
330
548
102
}
330
548
100
AcDbXrecord
280
     1
102
RTVSPost2010Prop28
280
     0
102
RTVSPost2010PropOp28
 70
     1
102
RTVSPost2010Prop29
280
     1
102
RTVSPost2010PropOp29
 70
     1
102
RTVSPost2010Prop30
280
     1
102
RTVSPost2010PropOp30
 70
     1
102
RTVSPost2010Prop31
280
     0
102
RTVSPost2010PropOp31
 70
     1
102
RTVSPost2010Prop32
280
     0
102
RTVSPost2010PropOp32
 70
     1
102
RTVSPost2010Prop33
280
     0
102
RTVSPost2010PropOp33
 70
     1
102
RTVSPost2010Prop34
280
     0
102
RTVSPost2010PropOp34
 70
     1
102
RTVSPost2010Prop35
280
     0
102
RTVSPost2010PropOp35
 70
     1
102
RTVSPost2010Prop36
280
     0
102
RTVSPost2010PropOp36
 70
     1
102
RTVSPost2010Prop37
 90
       50
102
RTVSPost2010PropOp37
 70
     1
102
RTVSPost2010Prop38
140
0.0
102
RTVSPost2010PropOp38
 70
     1
102
RTVSPost2010Prop39
140
1.0
102
RTVSPost2010PropOp39
 70
     1
102
RTVSPost2010Prop40
 90
        0
102
RTVSPost2010PropOp40
 70
     1
102
RTVSPost2010Prop41ColorIndex
 90
       18
102
RTVSPost2010Prop41ColorRGB
 90
        0
102
RTVSPost2010PropOp41
 70
     1
102
RTVSPost2010Prop42
 90
       50
102
RTVSPost2010PropOp42
 70
     1
102
RTVSPost2010Prop43
 90
        3
102
RTVSPost2010PropOp43
 70
     1
102
RTVSPost2010Prop44ColorIndex
 90
        5
102
RTVSPost2010Prop44ColorRGB
 90
      255
102
RTVSPost2010PropOp44
 70
     1
102
RTVSPost2010Prop45
280
     0
102
RTVSPost2010PropOp45
 70
     1
102
RTVSPost2010Prop46
 90
       50
102
RTVSPost2010PropOp46
 70
     1
102
RTVSPost2010Prop47
 90
       50
102
RTVSPost2010PropOp47
 70
     1
102
RTVSPost2010Prop48
 90
       50
102
RTVSPost2010PropOp48
 70
     1
102
RTVSPost2010Prop49
280
     0
102
RTVSPost2010PropOp49
 70
     1
102
RTVSPost2010Prop50
 90
       50
102
RTVSPost2010PropOp50
 70
     1
102
RTVSPost2010Prop51ColorIndex
 90
      256
102
RTVSPost2010Prop51ColorRGB
 90
-16777216
102
RTVSPost2010PropOp51
 70
     0
102
RTVSPost2010Prop52
140
1.0
102
RTVSPost2010PropOp52
 70
     0
102
RTVSPost2010Prop53
 90
        2
102
RTVSPost2010PropOp53
 70
     1
102
RTVSPost2010Prop54
  1
strokes_ogs.tif
102
RTVSPost2010PropOp54
 70
     1
102
RTVSPost2010Prop55
280
     0
102
RTVSPost2010PropOp55
 70
     1
102
RTVSPost2010Prop56
140
1.0
102
RTVSPost2010PropOp56
 70
     1
102
RTVSPost2010Prop57
140
1.0
102
RTVSPost2010PropOp57
 70
     1
102
RTVSPropertyOp0
 70
     1
102
RTVSPropertyOp1
 70
     1
102
RTVSPropertyOp2
 70
     1
102
RTVSPropertyOp3
 70
     1
102
RTVSPropertyOp4
 70
     1
102
RTVSPropertyOp5
 70
     1
102
RTVSPropertyOp6
 70
     1
102
RTVSPropertyOp7
 70
     1
102
RTVSPropertyOp8
 70
     1
102
RTVSPropertyOp9
 70
     1
102
RTVSPropertyOp10
 70
     1
102
RTVSPropertyOp11
 70
     1
102
RTVSPropertyOp12
 70
     1
102
RTVSPropertyOp13
 70
     1
102
RTVSPropertyOp14
 70
     1
102
RTVSPropertyOp15
 70
     1
102
RTVSPropertyOp16
 70
     1
102
RTVSPropertyOp17
 70
     1
102
RTVSPropertyOp18
 70
     1
102
RTVSPropertyOp19
 70
     1
102
RTVSPropertyOp20
 70
     1
102
RTVSPropertyOp21
 70
     1
102
RTVSPropertyOp22
 70
     1
102
RTVSPropertyOp23
 70
     1
102
RTVSPropertyOp24
 70
     1
102
RTVSPropertyOp25
 70
     1
102
RTVSPropertyOp26
 70
     1
102
RTVSPropertyOp27
 70
     1
102
RTVSPropertyOp28
 70
     1
102
RTVSPropertyOp29
 70
     1
102
RTVSPropertyOp30
 70
     1
102
RTVSPropertyOp31
 70
     1
102
RTVSPropertyOp32
 70
     1
102
RTVSPropertyOp33
 70
     1
102
RTVSPropertyOp34
 70
     1
102
RTVSPropertyOp35
 70
     1
102
RTVSPropertyOp36
 70
     1
102
RTVSPropertyOp37
 70
     1
102
RTVSPropertyOp38
 70
     1
102
RTVSPropertyOp39
 70
     1
102
RTVSPropertyOp40
 70
     1
102
RTVSPropertyOp41
 70
     1
102
RTVSPropertyOp42
 70
     1
102
RTVSPropertyOp43
 70
     1
102
RTVSPropertyOp44
 70
     1
102
RTVSPropertyOp45
 70
     1
102
RTVSPropertyOp46
 70
     1
102
RTVSPropertyOp47
 70
     1
102
RTVSPropertyOp48
 70
     1
102
RTVSPropertyOp49
 70
     1
102
RTVSPropertyOp50
 70
     1
102
RTVSPropertyOp51
 70
     0
102
RTVSPropertyOp52
 70
     0
102
RTVSPropertyOp53
 70
     1
102
RTVSPropertyOp54
 70
     1
102
RTVSPropertyOp55
 70
     1
102
RTVSPropertyOp56
 70
     1
102
RTVSPropertyOp57
 70
     1
102
RTVSPropertyOp58
 70
     1
102
RTVSPropertyOp59
 70
     1
102
RTVSPropertyOp60
 70
     1
102
RTVSPropertyOp61
 70
     1
102
RTVSPropertyOp62
 70
     1
  0
XRECORD
  5
557
102
{ACAD_REACTORS
330
556
102
}
330
556
100
AcDbXrecord
280
     1
102
RTVSPost2010Prop28
280
     0
102
RTVSPost2010PropOp28
 70
     1
102
RTVSPost2010Prop29
280
     1
102
RTVSPost2010PropOp29
 70
     1
102
RTVSPost2010Prop30
280
     1
102
RTVSPost2010PropOp30
 70
     1
102
RTVSPost2010Prop31
280
     0
102
RTVSPost2010PropOp31
 70
     1
102
RTVSPost2010Prop32
280
     0
102
RTVSPost2010PropOp32
 70
     1
102
RTVSPost2010Prop33
280
     0
102
RTVSPost2010PropOp33
 70
     1
102
RTVSPost2010Prop34
280
     0
102
RTVSPost2010PropOp34
 70
     1
102
RTVSPost2010Prop35
280
     0
102
RTVSPost2010PropOp35
 70
     1
102
RTVSPost2010Prop36
280
     0
102
RTVSPost2010PropOp36
 70
     1
102
RTVSPost2010Prop37
 90
       50
102
RTVSPost2010PropOp37
 70
     1
102
RTVSPost2010Prop38
140
0.0
102
RTVSPost2010PropOp38
 70
     1
102
RTVSPost2010Prop39
140
1.0
102
RTVSPost2010PropOp39
 70
     1
102
RTVSPost2010Prop40
 90
        0
102
RTVSPost2010PropOp40
 70
     1
102
RTVSPost2010Prop41ColorIndex
 90
       18
102
RTVSPost2010Prop41ColorRGB
 90
        0
102
RTVSPost2010PropOp41
 70
     1
102
RTVSPost2010Prop42
 90
       50
102
RTVSPost2010PropOp42
 70
     1
102
RTVSPost2010Prop43
 90
        3
102
RTVSPost2010PropOp43
 70
     1
102
RTVSPost2010Prop44ColorIndex
 90
        5
102
RTVSPost2010Prop44ColorRGB
 90
      255
102
RTVSPost2010PropOp44
 70
     1
102
RTVSPost2010Prop45
280
     0
102
RTVSPost2010PropOp45
 70
     1
102
RTVSPost2010Prop46
 90
       50
102
RTVSPost2010PropOp46
 70
     1
102
RTVSPost2010Prop47
 90
       50
102
RTVSPost2010PropOp47
 70
     1
102
RTVSPost2010Prop48
 90
       50
102
RTVSPost2010PropOp48
 70
     1
102
RTVSPost2010Prop49
280
     0
102
RTVSPost2010PropOp49
 70
     1
102
RTVSPost2010Prop50
 90
       50
102
RTVSPost2010PropOp50
 70
     1
102
RTVSPost2010Prop51ColorIndex
 90
      256
102
RTVSPost2010Prop51ColorRGB
 90
-16777216
102
RTVSPost2010PropOp51
 70
     0
102
RTVSPost2010Prop52
140
1.0
102
RTVSPost2010PropOp52
 70
     0
102
RTVSPost2010Prop53
 90
        2
102
RTVSPost2010PropOp53
 70
     1
102
RTVSPost2010Prop54
  1
strokes_ogs.tif
102
RTVSPost2010PropOp54
 70
     1
102
RTVSPost2010Prop55
280
     0
102
RTVSPost2010PropOp55
 70
     1
102
RTVSPost2010Prop56
140
1.0
102
RTVSPost2010PropOp56
 70
     1
102
RTVSPost2010Prop57
140
1.0
102
RTVSPost2010PropOp57
 70
     1
102
RTVSPropertyOp0
 70
     1
102
RTVSPropertyOp1
 70
     1
102
RTVSPropertyOp2
 70
     1
102
RTVSPropertyOp3
 70
     1
102
RTVSPropertyOp4
 70
     1
102
RTVSPropertyOp5
 70
     1
102
RTVSPropertyOp6
 70
     1
102
RTVSPropertyOp7
 70
     1
102
RTVSPropertyOp8
 70
     1
102
RTVSPropertyOp9
 70
     1
102
RTVSPropertyOp10
 70
     1
102
RTVSPropertyOp11
 70
     1
102
RTVSPropertyOp12
 70
     1
102
RTVSPropertyOp13
 70
     1
102
RTVSPropertyOp14
 70
     1
102
RTVSPropertyOp15
 70
     1
102
RTVSPropertyOp16
 70
     1
102
RTVSPropertyOp17
 70
     1
102
RTVSPropertyOp18
 70
     1
102
RTVSPropertyOp19
 70
     1
102
RTVSPropertyOp20
 70
     1
102
RTVSPropertyOp21
 70
     1
102
RTVSPropertyOp22
 70
     1
102
RTVSPropertyOp23
 70
     1
102
RTVSPropertyOp24
 70
     1
102
RTVSPropertyOp25
 70
     1
102
RTVSPropertyOp26
 70
     1
102
RTVSPropertyOp27
 70
     1
102
RTVSPropertyOp28
 70
     1
102
RTVSPropertyOp29
 70
     1
102
RTVSPropertyOp30
 70
     1
102
RTVSPropertyOp31
 70
     1
102
RTVSPropertyOp32
 70
     1
102
RTVSPropertyOp33
 70
     1
102
RTVSPropertyOp34
 70
     1
102
RTVSPropertyOp35
 70
     1
102
RTVSPropertyOp36
 70
     1
102
RTVSPropertyOp37
 70
     1
102
RTVSPropertyOp38
 70
     1
102
RTVSPropertyOp39
 70
     1
102
RTVSPropertyOp40
 70
     1
102
RTVSPropertyOp41
 70
     1
102
RTVSPropertyOp42
 70
     1
102
RTVSPropertyOp43
 70
     1
102
RTVSPropertyOp44
 70
     1
102
RTVSPropertyOp45
 70
     1
102
RTVSPropertyOp46
 70
     1
102
RTVSPropertyOp47
 70
     1
102
RTVSPropertyOp48
 70
     1
102
RTVSPropertyOp49
 70
     1
102
RTVSPropertyOp50
 70
     1
102
RTVSPropertyOp51
 70
     0
102
RTVSPropertyOp52
 70
     0
102
RTVSPropertyOp53
 70
     1
102
RTVSPropertyOp54
 70
     1
102
RTVSPropertyOp55
 70
     1
102
RTVSPropertyOp56
 70
     1
102
RTVSPropertyOp57
 70
     1
102
RTVSPropertyOp58
 70
     1
102
RTVSPropertyOp59
 70
     1
102
RTVSPropertyOp60
 70
     1
102
RTVSPropertyOp61
 70
     1
102
RTVSPropertyOp62
 70
     1
  0
XRECORD
  5
55F
102
{ACAD_REACTORS
330
55E
102
}
330
55E
100
AcDbXrecord
280
     1
102
RTVSPost2010Prop28
280
     0
102
RTVSPost2010PropOp28
 70
     1
102
RTVSPost2010Prop29
280
     1
102
RTVSPost2010PropOp29
 70
     1
102
RTVSPost2010Prop30
280
     1
102
RTVSPost2010PropOp30
 70
     1
102
RTVSPost2010Prop31
280
     0
102
RTVSPost2010PropOp31
 70
     1
102
RTVSPost2010Prop32
280
     0
102
RTVSPost2010PropOp32
 70
     1
102
RTVSPost2010Prop33
280
     0
102
RTVSPost2010PropOp33
 70
     1
102
RTVSPost2010Prop34
280
     0
102
RTVSPost2010PropOp34
 70
     1
102
RTVSPost2010Prop35
280
     0
102
RTVSPost2010PropOp35
 70
     1
102
RTVSPost2010Prop36
280
     0
102
RTVSPost2010PropOp36
 70
     1
102
RTVSPost2010Prop37
 90
       50
102
RTVSPost2010PropOp37
 70
     1
102
RTVSPost2010Prop38
140
0.0
102
RTVSPost2010PropOp38
 70
     1
102
RTVSPost2010Prop39
140
1.0
102
RTVSPost2010PropOp39
 70
     1
102
RTVSPost2010Prop40
 90
        0
102
RTVSPost2010PropOp40
 70
     1
102
RTVSPost2010Prop41ColorIndex
 90
       18
102
RTVSPost2010Prop41ColorRGB
 90
        0
102
RTVSPost2010PropOp41
 70
     1
102
RTVSPost2010Prop42
 90
       50
102
RTVSPost2010PropOp42
 70
     1
102
RTVSPost2010Prop43
 90
        3
102
RTVSPost2010PropOp43
 70
     1
102
RTVSPost2010Prop44ColorIndex
 90
        5
102
RTVSPost2010Prop44ColorRGB
 90
      255
102
RTVSPost2010PropOp44
 70
     1
102
RTVSPost2010Prop45
280
     0
102
RTVSPost2010PropOp45
 70
     1
102
RTVSPost2010Prop46
 90
       50
102
RTVSPost2010PropOp46
 70
     1
102
RTVSPost2010Prop47
 90
       50
102
RTVSPost2010PropOp47
 70
     1
102
RTVSPost2010Prop48
 90
       50
102
RTVSPost2010PropOp48
 70
     1
102
RTVSPost2010Prop49
280
     0
102
RTVSPost2010PropOp49
 70
     1
102
RTVSPost2010Prop50
 90
       50
102
RTVSPost2010PropOp50
 70
     1
102
RTVSPost2010Prop51ColorIndex
 90
      256
102
RTVSPost2010Prop51ColorRGB
 90
-16777216
102
RTVSPost2010PropOp51
 70
     0
102
RTVSPost2010Prop52
140
1.0
102
RTVSPost2010PropOp52
 70
     0
102
RTVSPost2010Prop53
 90
        2
102
RTVSPost2010PropOp53
 70
     1
102
RTVSPost2010Prop54
  1
strokes_ogs.tif
102
RTVSPost2010PropOp54
 70
     1
102
RTVSPost2010Prop55
280
     0
102
RTVSPost2010PropOp55
 70
     1
102
RTVSPost2010Prop56
140
1.0
102
RTVSPost2010PropOp56
 70
     1
102
RTVSPost2010Prop57
140
1.0
102
RTVSPost2010PropOp57
 70
     1
102
RTVSPropertyOp0
 70
     1
102
RTVSPropertyOp1
 70
     1
102
RTVSPropertyOp2
 70
     1
102
RTVSPropertyOp3
 70
     1
102
RTVSPropertyOp4
 70
     1
102
RTVSPropertyOp5
 70
     1
102
RTVSPropertyOp6
 70
     1
102
RTVSPropertyOp7
 70
     1
102
RTVSPropertyOp8
 70
     1
102
RTVSPropertyOp9
 70
     1
102
RTVSPropertyOp10
 70
     1
102
RTVSPropertyOp11
 70
     1
102
RTVSPropertyOp12
 70
     1
102
RTVSPropertyOp13
 70
     1
102
RTVSPropertyOp14
 70
     1
102
RTVSPropertyOp15
 70
     1
102
RTVSPropertyOp16
 70
     1
102
RTVSPropertyOp17
 70
     1
102
RTVSPropertyOp18
 70
     1
102
RTVSPropertyOp19
 70
     1
102
RTVSPropertyOp20
 70
     1
102
RTVSPropertyOp21
 70
     1
102
RTVSPropertyOp22
 70
     1
102
RTVSPropertyOp23
 70
     1
102
RTVSPropertyOp24
 70
     1
102
RTVSPropertyOp25
 70
     1
102
RTVSPropertyOp26
 70
     1
102
RTVSPropertyOp27
 70
     1
102
RTVSPropertyOp28
 70
     1
102
RTVSPropertyOp29
 70
     1
102
RTVSPropertyOp30
 70
     1
102
RTVSPropertyOp31
 70
     1
102
RTVSPropertyOp32
 70
     1
102
RTVSPropertyOp33
 70
     1
102
RTVSPropertyOp34
 70
     1
102
RTVSPropertyOp35
 70
     1
102
RTVSPropertyOp36
 70
     1
102
RTVSPropertyOp37
 70
     1
102
RTVSPropertyOp38
 70
     1
102
RTVSPropertyOp39
 70
     1
102
RTVSPropertyOp40
 70
     1
102
RTVSPropertyOp41
 70
     1
102
RTVSPropertyOp42
 70
     1
102
RTVSPropertyOp43
 70
     1
102
RTVSPropertyOp44
 70
     1
102
RTVSPropertyOp45
 70
     1
102
RTVSPropertyOp46
 70
     1
102
RTVSPropertyOp47
 70
     1
102
RTVSPropertyOp48
 70
     1
102
RTVSPropertyOp49
 70
     1
102
RTVSPropertyOp50
 70
     1
102
RTVSPropertyOp51
 70
     0
102
RTVSPropertyOp52
 70
     0
102
RTVSPropertyOp53
 70
     1
102
RTVSPropertyOp54
 70
     1
102
RTVSPropertyOp55
 70
     1
102
RTVSPropertyOp56
 70
     1
102
RTVSPropertyOp57
 70
     1
102
RTVSPropertyOp58
 70
     1
102
RTVSPropertyOp59
 70
     1
102
RTVSPropertyOp60
 70
     1
102
RTVSPropertyOp61
 70
     1
102
RTVSPropertyOp62
 70
     1
  0
XRECORD
  5
551
102
{ACAD_REACTORS
330
550
102
}
330
550
100
AcDbXrecord
280
     1
102
RTVSPost2010Prop28
280
     0
102
RTVSPost2010PropOp28
 70
     1
102
RTVSPost2010Prop29
280
     1
102
RTVSPost2010PropOp29
 70
     1
102
RTVSPost2010Prop30
280
     1
102
RTVSPost2010PropOp30
 70
     1
102
RTVSPost2010Prop31
280
     0
102
RTVSPost2010PropOp31
 70
     1
102
RTVSPost2010Prop32
280
     0
102
RTVSPost2010PropOp32
 70
     1
102
RTVSPost2010Prop33
280
     0
102
RTVSPost2010PropOp33
 70
     1
102
RTVSPost2010Prop34
280
     0
102
RTVSPost2010PropOp34
 70
     1
102
RTVSPost2010Prop35
280
     0
102
RTVSPost2010PropOp35
 70
     1
102
RTVSPost2010Prop36
280
     0
102
RTVSPost2010PropOp36
 70
     1
102
RTVSPost2010Prop37
 90
       50
102
RTVSPost2010PropOp37
 70
     1
102
RTVSPost2010Prop38
140
0.0
102
RTVSPost2010PropOp38
 70
     1
102
RTVSPost2010Prop39
140
1.0
102
RTVSPost2010PropOp39
 70
     1
102
RTVSPost2010Prop40
 90
        0
102
RTVSPost2010PropOp40
 70
     1
102
RTVSPost2010Prop41ColorIndex
 90
       18
102
RTVSPost2010Prop41ColorRGB
 90
        0
102
RTVSPost2010PropOp41
 70
     1
102
RTVSPost2010Prop42
 90
       50
102
RTVSPost2010PropOp42
 70
     1
102
RTVSPost2010Prop43
 90
        3
102
RTVSPost2010PropOp43
 70
     1
102
RTVSPost2010Prop44ColorIndex
 90
        5
102
RTVSPost2010Prop44ColorRGB
 90
      255
102
RTVSPost2010PropOp44
 70
     1
102
RTVSPost2010Prop45
280
     0
102
RTVSPost2010PropOp45
 70
     1
102
RTVSPost2010Prop46
 90
       50
102
RTVSPost2010PropOp46
 70
     1
102
RTVSPost2010Prop47
 90
       50
102
RTVSPost2010PropOp47
 70
     1
102
RTVSPost2010Prop48
 90
       50
102
RTVSPost2010PropOp48
 70
     1
102
RTVSPost2010Prop49
280
     0
102
RTVSPost2010PropOp49
 70
     1
102
RTVSPost2010Prop50
 90
       50
102
RTVSPost2010PropOp50
 70
     1
102
RTVSPost2010Prop51ColorIndex
 90
      256
102
RTVSPost2010Prop51ColorRGB
 90
-16777216
102
RTVSPost2010PropOp51
 70
     0
102
RTVSPost2010Prop52
140
1.0
102
RTVSPost2010PropOp52
 70
     0
102
RTVSPost2010Prop53
 90
        2
102
RTVSPost2010PropOp53
 70
     1
102
RTVSPost2010Prop54
  1
strokes_ogs.tif
102
RTVSPost2010PropOp54
 70
     1
102
RTVSPost2010Prop55
280
     0
102
RTVSPost2010PropOp55
 70
     1
102
RTVSPost2010Prop56
140
1.0
102
RTVSPost2010PropOp56
 70
     1
102
RTVSPost2010Prop57
140
1.0
102
RTVSPost2010PropOp57
 70
     1
102
RTVSPropertyOp0
 70
     1
102
RTVSPropertyOp1
 70
     1
102
RTVSPropertyOp2
 70
     1
102
RTVSPropertyOp3
 70
     1
102
RTVSPropertyOp4
 70
     1
102
RTVSPropertyOp5
 70
     1
102
RTVSPropertyOp6
 70
     1
102
RTVSPropertyOp7
 70
     1
102
RTVSPropertyOp8
 70
     1
102
RTVSPropertyOp9
 70
     1
102
RTVSPropertyOp10
 70
     1
102
RTVSPropertyOp11
 70
     1
102
RTVSPropertyOp12
 70
     1
102
RTVSPropertyOp13
 70
     1
102
RTVSPropertyOp14
 70
     1
102
RTVSPropertyOp15
 70
     1
102
RTVSPropertyOp16
 70
     1
102
RTVSPropertyOp17
 70
     1
102
RTVSPropertyOp18
 70
     1
102
RTVSPropertyOp19
 70
     1
102
RTVSPropertyOp20
 70
     1
102
RTVSPropertyOp21
 70
     1
102
RTVSPropertyOp22
 70
     1
102
RTVSPropertyOp23
 70
     1
102
RTVSPropertyOp24
 70
     1
102
RTVSPropertyOp25
 70
     1
102
RTVSPropertyOp26
 70
     1
102
RTVSPropertyOp27
 70
     1
102
RTVSPropertyOp28
 70
     1
102
RTVSPropertyOp29
 70
     1
102
RTVSPropertyOp30
 70
     1
102
RTVSPropertyOp31
 70
     1
102
RTVSPropertyOp32
 70
     1
102
RTVSPropertyOp33
 70
     1
102
RTVSPropertyOp34
 70
     1
102
RTVSPropertyOp35
 70
     1
102
RTVSPropertyOp36
 70
     1
102
RTVSPropertyOp37
 70
     1
102
RTVSPropertyOp38
 70
     1
102
RTVSPropertyOp39
 70
     1
102
RTVSPropertyOp40
 70
     1
102
RTVSPropertyOp41
 70
     1
102
RTVSPropertyOp42
 70
     1
102
RTVSPropertyOp43
 70
     1
102
RTVSPropertyOp44
 70
     1
102
RTVSPropertyOp45
 70
     1
102
RTVSPropertyOp46
 70
     1
102
RTVSPropertyOp47
 70
     1
102
RTVSPropertyOp48
 70
     1
102
RTVSPropertyOp49
 70
     1
102
RTVSPropertyOp50
 70
     1
102
RTVSPropertyOp51
 70
     0
102
RTVSPropertyOp52
 70
     0
102
RTVSPropertyOp53
 70
     1
102
RTVSPropertyOp54
 70
     1
102
RTVSPropertyOp55
 70
     1
102
RTVSPropertyOp56
 70
     1
102
RTVSPropertyOp57
 70
     1
102
RTVSPropertyOp58
 70
     1
102
RTVSPropertyOp59
 70
     1
102
RTVSPropertyOp60
 70
     1
102
RTVSPropertyOp61
 70
     1
102
RTVSPropertyOp62
 70
     1
  0
XRECORD
  5
555
102
{ACAD_REACTORS
330
554
102
}
330
554
100
AcDbXrecord
280
     1
102
RTVSPost2010Prop28
280
     0
102
RTVSPost2010PropOp28
 70
     1
102
RTVSPost2010Prop29
280
     1
102
RTVSPost2010PropOp29
 70
     1
102
RTVSPost2010Prop30
280
     1
102
RTVSPost2010PropOp30
 70
     1
102
RTVSPost2010Prop31
280
     0
102
RTVSPost2010PropOp31
 70
     1
102
RTVSPost2010Prop32
280
     0
102
RTVSPost2010PropOp32
 70
     1
102
RTVSPost2010Prop33
280
     0
102
RTVSPost2010PropOp33
 70
     1
102
RTVSPost2010Prop34
280
     0
102
RTVSPost2010PropOp34
 70
     1
102
RTVSPost2010Prop35
280
     0
102
RTVSPost2010PropOp35
 70
     1
102
RTVSPost2010Prop36
280
     0
102
RTVSPost2010PropOp36
 70
     1
102
RTVSPost2010Prop37
 90
       50
102
RTVSPost2010PropOp37
 70
     1
102
RTVSPost2010Prop38
140
0.0
102
RTVSPost2010PropOp38
 70
     1
102
RTVSPost2010Prop39
140
1.0
102
RTVSPost2010PropOp39
 70
     1
102
RTVSPost2010Prop40
 90
        0
102
RTVSPost2010PropOp40
 70
     1
102
RTVSPost2010Prop41ColorIndex
 90
       18
102
RTVSPost2010Prop41ColorRGB
 90
        0
102
RTVSPost2010PropOp41
 70
     1
102
RTVSPost2010Prop42
 90
       50
102
RTVSPost2010PropOp42
 70
     1
102
RTVSPost2010Prop43
 90
        3
102
RTVSPost2010PropOp43
 70
     1
102
RTVSPost2010Prop44ColorIndex
 90
        5
102
RTVSPost2010Prop44ColorRGB
 90
      255
102
RTVSPost2010PropOp44
 70
     1
102
RTVSPost2010Prop45
280
     0
102
RTVSPost2010PropOp45
 70
     1
102
RTVSPost2010Prop46
 90
       50
102
RTVSPost2010PropOp46
 70
     1
102
RTVSPost2010Prop47
 90
       50
102
RTVSPost2010PropOp47
 70
     1
102
RTVSPost2010Prop48
 90
       50
102
RTVSPost2010PropOp48
 70
     1
102
RTVSPost2010Prop49
280
     0
102
RTVSPost2010PropOp49
 70
     1
102
RTVSPost2010Prop50
 90
       50
102
RTVSPost2010PropOp50
 70
     1
102
RTVSPost2010Prop51ColorIndex
 90
      256
102
RTVSPost2010Prop51ColorRGB
 90
-16777216
102
RTVSPost2010PropOp51
 70
     0
102
RTVSPost2010Prop52
140
1.0
102
RTVSPost2010PropOp52
 70
     0
102
RTVSPost2010Prop53
 90
        2
102
RTVSPost2010PropOp53
 70
     1
102
RTVSPost2010Prop54
  1
strokes_ogs.tif
102
RTVSPost2010PropOp54
 70
     1
102
RTVSPost2010Prop55
280
     0
102
RTVSPost2010PropOp55
 70
     1
102
RTVSPost2010Prop56
140
1.0
102
RTVSPost2010PropOp56
 70
     1
102
RTVSPost2010Prop57
140
1.0
102
RTVSPost2010PropOp57
 70
     1
102
RTVSPropertyOp0
 70
     1
102
RTVSPropertyOp1
 70
     1
102
RTVSPropertyOp2
 70
     1
102
RTVSPropertyOp3
 70
     1
102
RTVSPropertyOp4
 70
     1
102
RTVSPropertyOp5
 70
     1
102
RTVSPropertyOp6
 70
     1
102
RTVSPropertyOp7
 70
     1
102
RTVSPropertyOp8
 70
     1
102
RTVSPropertyOp9
 70
     1
102
RTVSPropertyOp10
 70
     1
102
RTVSPropertyOp11
 70
     1
102
RTVSPropertyOp12
 70
     1
102
RTVSPropertyOp13
 70
     1
102
RTVSPropertyOp14
 70
     1
102
RTVSPropertyOp15
 70
     1
102
RTVSPropertyOp16
 70
     1
102
RTVSPropertyOp17
 70
     1
102
RTVSPropertyOp18
 70
     1
102
RTVSPropertyOp19
 70
     1
102
RTVSPropertyOp20
 70
     1
102
RTVSPropertyOp21
 70
     1
102
RTVSPropertyOp22
 70
     1
102
RTVSPropertyOp23
 70
     1
102
RTVSPropertyOp24
 70
     1
102
RTVSPropertyOp25
 70
     1
102
RTVSPropertyOp26
 70
     1
102
RTVSPropertyOp27
 70
     1
102
RTVSPropertyOp28
 70
     1
102
RTVSPropertyOp29
 70
     1
102
RTVSPropertyOp30
 70
     1
102
RTVSPropertyOp31
 70
     1
102
RTVSPropertyOp32
 70
     1
102
RTVSPropertyOp33
 70
     1
102
RTVSPropertyOp34
 70
     1
102
RTVSPropertyOp35
 70
     1
102
RTVSPropertyOp36
 70
     1
102
RTVSPropertyOp37
 70
     1
102
RTVSPropertyOp38
 70
     1
102
RTVSPropertyOp39
 70
     1
102
RTVSPropertyOp40
 70
     1
102
RTVSPropertyOp41
 70
     1
102
RTVSPropertyOp42
 70
     1
102
RTVSPropertyOp43
 70
     1
102
RTVSPropertyOp44
 70
     1
102
RTVSPropertyOp45
 70
     1
102
RTVSPropertyOp46
 70
     1
102
RTVSPropertyOp47
 70
     1
102
RTVSPropertyOp48
 70
     1
102
RTVSPropertyOp49
 70
     1
102
RTVSPropertyOp50
 70
     1
102
RTVSPropertyOp51
 70
     0
102
RTVSPropertyOp52
 70
     0
102
RTVSPropertyOp53
 70
     1
102
RTVSPropertyOp54
 70
     1
102
RTVSPropertyOp55
 70
     1
102
RTVSPropertyOp56
 70
     1
102
RTVSPropertyOp57
 70
     1
102
RTVSPropertyOp58
 70
     1
102
RTVSPropertyOp59
 70
     1
102
RTVSPropertyOp60
 70
     1
102
RTVSPropertyOp61
 70
     1
102
RTVSPropertyOp62
 70
     1
  0
XRECORD
  5
56F
102
{ACAD_REACTORS
330
56E
102
}
330
56E
100
AcDbXrecord
280
     1
102
RTVSPost2010Prop28
280
     0
102
RTVSPost2010PropOp28
 70
     0
102
RTVSPost2010Prop29
280
     1
102
RTVSPost2010PropOp29
 70
     0
102
RTVSPost2010Prop30
280
     1
102
RTVSPost2010PropOp30
 70
     0
102
RTVSPost2010Prop31
280
     0
102
RTVSPost2010PropOp31
 70
     0
102
RTVSPost2010Prop32
280
     0
102
RTVSPost2010PropOp32
 70
     0
102
RTVSPost2010Prop33
280
     0
102
RTVSPost2010PropOp33
 70
     0
102
RTVSPost2010Prop34
280
     0
102
RTVSPost2010PropOp34
 70
     0
102
RTVSPost2010Prop35
280
     0
102
RTVSPost2010PropOp35
 70
     0
102
RTVSPost2010Prop36
280
     0
102
RTVSPost2010PropOp36
 70
     0
102
RTVSPost2010Prop37
 90
       50
102
RTVSPost2010PropOp37
 70
     0
102
RTVSPost2010Prop38
140
0.0
102
RTVSPost2010PropOp38
 70
     0
102
RTVSPost2010Prop39
140
1.0
102
RTVSPost2010PropOp39
 70
     0
102
RTVSPost2010Prop40
 90
        0
102
RTVSPost2010PropOp40
 70
     0
102
RTVSPost2010Prop41ColorIndex
 90
       18
102
RTVSPost2010Prop41ColorRGB
 90
        0
102
RTVSPost2010PropOp41
 70
     0
102
RTVSPost2010Prop42
 90
       50
102
RTVSPost2010PropOp42
 70
     0
102
RTVSPost2010Prop43
 90
        3
102
RTVSPost2010PropOp43
 70
     0
102
RTVSPost2010Prop44ColorIndex
 90
        5
102
RTVSPost2010Prop44ColorRGB
 90
      255
102
RTVSPost2010PropOp44
 70
     0
102
RTVSPost2010Prop45
280
     0
102
RTVSPost2010PropOp45
 70
     0
102
RTVSPost2010Prop46
 90
       50
102
RTVSPost2010PropOp46
 70
     0
102
RTVSPost2010Prop47
 90
       50
102
RTVSPost2010PropOp47
 70
     0
102
RTVSPost2010Prop48
 90
       50
102
RTVSPost2010PropOp48
 70
     0
102
RTVSPost2010Prop49
280
     0
102
RTVSPost2010PropOp49
 70
     0
102
RTVSPost2010Prop50
 90
       50
102
RTVSPost2010PropOp50
 70
     0
102
RTVSPost2010Prop51ColorIndex
 90
      256
102
RTVSPost2010Prop51ColorRGB
 90
-16777216
102
RTVSPost2010PropOp51
 70
     0
102
RTVSPost2010Prop52
140
1.0
102
RTVSPost2010PropOp52
 70
     0
102
RTVSPost2010Prop53
 90
        2
102
RTVSPost2010PropOp53
 70
     0
102
RTVSPost2010Prop54
  1
strokes_ogs.tif
102
RTVSPost2010PropOp54
 70
     0
102
RTVSPost2010Prop55
280
     0
102
RTVSPost2010PropOp55
 70
     0
102
RTVSPost2010Prop56
140
1.0
102
RTVSPost2010PropOp56
 70
     0
102
RTVSPost2010Prop57
140
1.0
102
RTVSPost2010PropOp57
 70
     0
102
RTVSPropertyOp0
 70
     0
102
RTVSPropertyOp1
 70
     0
102
RTVSPropertyOp2
 70
     0
102
RTVSPropertyOp3
 70
     0
102
RTVSPropertyOp4
 70
     0
102
RTVSPropertyOp5
 70
     0
102
RTVSPropertyOp6
 70
     0
102
RTVSPropertyOp7
 70
     0
102
RTVSPropertyOp8
 70
     0
102
RTVSPropertyOp9
 70
     0
102
RTVSPropertyOp10
 70
     0
102
RTVSPropertyOp11
 70
     0
102
RTVSPropertyOp12
 70
     0
102
RTVSPropertyOp13
 70
     0
102
RTVSPropertyOp14
 70
     2
102
RTVSPropertyOp15
 70
     0
102
RTVSPropertyOp16
 70
     0
102
RTVSPropertyOp17
 70
     0
102
RTVSPropertyOp18
 70
     0
102
RTVSPropertyOp19
 70
     0
102
RTVSPropertyOp20
 70
     0
102
RTVSPropertyOp21
 70
     0
102
RTVSPropertyOp22
 70
     0
102
RTVSPropertyOp23
 70
     0
102
RTVSPropertyOp24
 70
     0
102
RTVSPropertyOp25
 70
     0
102
RTVSPropertyOp26
 70
     0
102
RTVSPropertyOp27
 70
     0
102
RTVSPropertyOp28
 70
     0
102
RTVSPropertyOp29
 70
     0
102
RTVSPropertyOp30
 70
     0
102
RTVSPropertyOp31
 70
     0
102
RTVSPropertyOp32
 70
     0
102
RTVSPropertyOp33
 70
     0
102
RTVSPropertyOp34
 70
     0
102
RTVSPropertyOp35
 70
     0
102
RTVSPropertyOp36
 70
     0
102
RTVSPropertyOp37
 70
     0
102
RTVSPropertyOp38
 70
     0
102
RTVSPropertyOp39
 70
     0
102
RTVSPropertyOp40
 70
     0
102
RTVSPropertyOp41
 70
     0
102
RTVSPropertyOp42
 70
     0
102
RTVSPropertyOp43
 70
     0
102
RTVSPropertyOp44
 70
     0
102
RTVSPropertyOp45
 70
     0
102
RTVSPropertyOp46
 70
     0
102
RTVSPropertyOp47
 70
     0
102
RTVSPropertyOp48
 70
     0
102
RTVSPropertyOp49
 70
     0
102
RTVSPropertyOp50
 70
     0
102
RTVSPropertyOp51
 70
     0
102
RTVSPropertyOp52
 70
     0
102
RTVSPropertyOp53
 70
     0
102
RTVSPropertyOp54
 70
     0
102
RTVSPropertyOp55
 70
     0
102
RTVSPropertyOp56
 70
     0
102
RTVSPropertyOp57
 70
     0
102
RTVSPropertyOp58
 70
     1
102
RTVSPropertyOp59
 70
     1
102
RTVSPropertyOp60
 70
     1
102
RTVSPropertyOp61
 70
     1
102
RTVSPropertyOp62
 70
     1
  0
XRECORD
  5
55D
102
{ACAD_REACTORS
330
55C
102
}
330
55C
100
AcDbXrecord
280
     1
102
RTVSPost2010Prop28
280
     0
102
RTVSPost2010PropOp28
 70
     1
102
RTVSPost2010Prop29
280
     1
102
RTVSPost2010PropOp29
 70
     1
102
RTVSPost2010Prop30
280
     1
102
RTVSPost2010PropOp30
 70
     1
102
RTVSPost2010Prop31
280
     0
102
RTVSPost2010PropOp31
 70
     1
102
RTVSPost2010Prop32
280
     0
102
RTVSPost2010PropOp32
 70
     1
102
RTVSPost2010Prop33
280
     0
102
RTVSPost2010PropOp33
 70
     1
102
RTVSPost2010Prop34
280
     0
102
RTVSPost2010PropOp34
 70
     1
102
RTVSPost2010Prop35
280
     0
102
RTVSPost2010PropOp35
 70
     1
102
RTVSPost2010Prop36
280
     0
102
RTVSPost2010PropOp36
 70
     1
102
RTVSPost2010Prop37
 90
       50
102
RTVSPost2010PropOp37
 70
     1
102
RTVSPost2010Prop38
140
0.0
102
RTVSPost2010PropOp38
 70
     1
102
RTVSPost2010Prop39
140
1.0
102
RTVSPost2010PropOp39
 70
     1
102
RTVSPost2010Prop40
 90
        0
102
RTVSPost2010PropOp40
 70
     1
102
RTVSPost2010Prop41ColorIndex
 90
       18
102
RTVSPost2010Prop41ColorRGB
 90
        0
102
RTVSPost2010PropOp41
 70
     1
102
RTVSPost2010Prop42
 90
       50
102
RTVSPost2010PropOp42
 70
     1
102
RTVSPost2010Prop43
 90
        3
102
RTVSPost2010PropOp43
 70
     1
102
RTVSPost2010Prop44ColorIndex
 90
        5
102
RTVSPost2010Prop44ColorRGB
 90
      255
102
RTVSPost2010PropOp44
 70
     1
102
RTVSPost2010Prop45
280
     0
102
RTVSPost2010PropOp45
 70
     1
102
RTVSPost2010Prop46
 90
       50
102
RTVSPost2010PropOp46
 70
     1
102
RTVSPost2010Prop47
 90
       50
102
RTVSPost2010PropOp47
 70
     1
102
RTVSPost2010Prop48
 90
       50
102
RTVSPost2010PropOp48
 70
     1
102
RTVSPost2010Prop49
280
     0
102
RTVSPost2010PropOp49
 70
     1
102
RTVSPost2010Prop50
 90
       50
102
RTVSPost2010PropOp50
 70
     1
102
RTVSPost2010Prop51ColorIndex
 90
      256
102
RTVSPost2010Prop51ColorRGB
 90
-16777216
102
RTVSPost2010PropOp51
 70
     0
102
RTVSPost2010Prop52
140
1.0
102
RTVSPost2010PropOp52
 70
     0
102
RTVSPost2010Prop53
 90
        2
102
RTVSPost2010PropOp53
 70
     1
102
RTVSPost2010Prop54
  1
strokes_ogs.tif
102
RTVSPost2010PropOp54
 70
     1
102
RTVSPost2010Prop55
280
     0
102
RTVSPost2010PropOp55
 70
     1
102
RTVSPost2010Prop56
140
1.0
102
RTVSPost2010PropOp56
 70
     1
102
RTVSPost2010Prop57
140
1.0
102
RTVSPost2010PropOp57
 70
     1
102
RTVSPropertyOp0
 70
     1
102
RTVSPropertyOp1
 70
     1
102
RTVSPropertyOp2
 70
     1
102
RTVSPropertyOp3
 70
     1
102
RTVSPropertyOp4
 70
     1
102
RTVSPropertyOp5
 70
     1
102
RTVSPropertyOp6
 70
     1
102
RTVSPropertyOp7
 70
     1
102
RTVSPropertyOp8
 70
     1
102
RTVSPropertyOp9
 70
     1
102
RTVSPropertyOp10
 70
     1
102
RTVSPropertyOp11
 70
     1
102
RTVSPropertyOp12
 70
     1
102
RTVSPropertyOp13
 70
     1
102
RTVSPropertyOp14
 70
     1
102
RTVSPropertyOp15
 70
     1
102
RTVSPropertyOp16
 70
     1
102
RTVSPropertyOp17
 70
     1
102
RTVSPropertyOp18
 70
     1
102
RTVSPropertyOp19
 70
     1
102
RTVSPropertyOp20
 70
     1
102
RTVSPropertyOp21
 70
     1
102
RTVSPropertyOp22
 70
     1
102
RTVSPropertyOp23
 70
     1
102
RTVSPropertyOp24
 70
     1
102
RTVSPropertyOp25
 70
     1
102
RTVSPropertyOp26
 70
     1
102
RTVSPropertyOp27
 70
     1
102
RTVSPropertyOp28
 70
     1
102
RTVSPropertyOp29
 70
     1
102
RTVSPropertyOp30
 70
     1
102
RTVSPropertyOp31
 70
     1
102
RTVSPropertyOp32
 70
     1
102
RTVSPropertyOp33
 70
     1
102
RTVSPropertyOp34
 70
     1
102
RTVSPropertyOp35
 70
     1
102
RTVSPropertyOp36
 70
     1
102
RTVSPropertyOp37
 70
     1
102
RTVSPropertyOp38
 70
     1
102
RTVSPropertyOp39
 70
     1
102
RTVSPropertyOp40
 70
     1
102
RTVSPropertyOp41
 70
     1
102
RTVSPropertyOp42
 70
     1
102
RTVSPropertyOp43
 70
     1
102
RTVSPropertyOp44
 70
     1
102
RTVSPropertyOp45
 70
     1
102
RTVSPropertyOp46
 70
     1
102
RTVSPropertyOp47
 70
     1
102
RTVSPropertyOp48
 70
     1
102
RTVSPropertyOp49
 70
     1
102
RTVSPropertyOp50
 70
     1
102
RTVSPropertyOp51
 70
     0
102
RTVSPropertyOp52
 70
     0
102
RTVSPropertyOp53
 70
     1
102
RTVSPropertyOp54
 70
     1
102
RTVSPropertyOp55
 70
     1
102
RTVSPropertyOp56
 70
     1
102
RTVSPropertyOp57
 70
     1
102
RTVSPropertyOp58
 70
     1
102
RTVSPropertyOp59
 70
     1
102
RTVSPropertyOp60
 70
     1
102
RTVSPropertyOp61
 70
     1
102
RTVSPropertyOp62
 70
     1
  0
XRECORD
  5
541
102
{ACAD_REACTORS
330
540
102
}
330
540
100
AcDbXrecord
280
     1
102
RTVSPost2010Prop28
280
     0
102
RTVSPost2010PropOp28
 70
     1
102
RTVSPost2010Prop29
280
     1
102
RTVSPost2010PropOp29
 70
     1
102
RTVSPost2010Prop30
280
     1
102
RTVSPost2010PropOp30
 70
     1
102
RTVSPost2010Prop31
280
     0
102
RTVSPost2010PropOp31
 70
     1
102
RTVSPost2010Prop32
280
     0
102
RTVSPost2010PropOp32
 70
     1
102
RTVSPost2010Prop33
280
     0
102
RTVSPost2010PropOp33
 70
     1
102
RTVSPost2010Prop34
280
     0
102
RTVSPost2010PropOp34
 70
     1
102
RTVSPost2010Prop35
280
     0
102
RTVSPost2010PropOp35
 70
     1
102
RTVSPost2010Prop36
280
     0
102
RTVSPost2010PropOp36
 70
     1
102
RTVSPost2010Prop37
 90
       50
102
RTVSPost2010PropOp37
 70
     1
102
RTVSPost2010Prop38
140
0.0
102
RTVSPost2010PropOp38
 70
     1
102
RTVSPost2010Prop39
140
1.0
102
RTVSPost2010PropOp39
 70
     1
102
RTVSPost2010Prop40
 90
        0
102
RTVSPost2010PropOp40
 70
     1
102
RTVSPost2010Prop41ColorIndex
 90
       18
102
RTVSPost2010Prop41ColorRGB
 90
        0
102
RTVSPost2010PropOp41
 70
     1
102
RTVSPost2010Prop42
 90
       50
102
RTVSPost2010PropOp42
 70
     1
102
RTVSPost2010Prop43
 90
        3
102
RTVSPost2010PropOp43
 70
     1
102
RTVSPost2010Prop44ColorIndex
 90
        5
102
RTVSPost2010Prop44ColorRGB
 90
      255
102
RTVSPost2010PropOp44
 70
     1
102
RTVSPost2010Prop45
280
     0
102
RTVSPost2010PropOp45
 70
     1
102
RTVSPost2010Prop46
 90
       50
102
RTVSPost2010PropOp46
 70
     1
102
RTVSPost2010Prop47
 90
       50
102
RTVSPost2010PropOp47
 70
     1
102
RTVSPost2010Prop48
 90
       50
102
RTVSPost2010PropOp48
 70
     1
102
RTVSPost2010Prop49
280
     0
102
RTVSPost2010PropOp49
 70
     1
102
RTVSPost2010Prop50
 90
       50
102
RTVSPost2010PropOp50
 70
     1
102
RTVSPost2010Prop51ColorIndex
 90
      256
102
RTVSPost2010Prop51ColorRGB
 90
-16777216
102
RTVSPost2010PropOp51
 70
     0
102
RTVSPost2010Prop52
140
1.0
102
RTVSPost2010PropOp52
 70
     0
102
RTVSPost2010Prop53
 90
        2
102
RTVSPost2010PropOp53
 70
     1
102
RTVSPost2010Prop54
  1
strokes_ogs.tif
102
RTVSPost2010PropOp54
 70
     1
102
RTVSPost2010Prop55
280
     0
102
RTVSPost2010PropOp55
 70
     1
102
RTVSPost2010Prop56
140
1.0
102
RTVSPost2010PropOp56
 70
     1
102
RTVSPost2010Prop57
140
1.0
102
RTVSPost2010PropOp57
 70
     1
102
RTVSPropertyOp0
 70
     1
102
RTVSPropertyOp1
 70
     1
102
RTVSPropertyOp2
 70
     1
102
RTVSPropertyOp3
 70
     1
102
RTVSPropertyOp4
 70
     1
102
RTVSPropertyOp5
 70
     1
102
RTVSPropertyOp6
 70
     1
102
RTVSPropertyOp7
 70
     1
102
RTVSPropertyOp8
 70
     1
102
RTVSPropertyOp9
 70
     1
102
RTVSPropertyOp10
 70
     1
102
RTVSPropertyOp11
 70
     1
102
RTVSPropertyOp12
 70
     1
102
RTVSPropertyOp13
 70
     1
102
RTVSPropertyOp14
 70
     1
102
RTVSPropertyOp15
 70
     1
102
RTVSPropertyOp16
 70
     1
102
RTVSPropertyOp17
 70
     1
102
RTVSPropertyOp18
 70
     1
102
RTVSPropertyOp19
 70
     1
102
RTVSPropertyOp20
 70
     1
102
RTVSPropertyOp21
 70
     1
102
RTVSPropertyOp22
 70
     1
102
RTVSPropertyOp23
 70
     1
102
RTVSPropertyOp24
 70
     1
102
RTVSPropertyOp25
 70
     1
102
RTVSPropertyOp26
 70
     1
102
RTVSPropertyOp27
 70
     1
102
RTVSPropertyOp28
 70
     1
102
RTVSPropertyOp29
 70
     1
102
RTVSPropertyOp30
 70
     1
102
RTVSPropertyOp31
 70
     1
102
RTVSPropertyOp32
 70
     1
102
RTVSPropertyOp33
 70
     1
102
RTVSPropertyOp34
 70
     1
102
RTVSPropertyOp35
 70
     1
102
RTVSPropertyOp36
 70
     1
102
RTVSPropertyOp37
 70
     1
102
RTVSPropertyOp38
 70
     1
102
RTVSPropertyOp39
 70
     1
102
RTVSPropertyOp40
 70
     1
102
RTVSPropertyOp41
 70
     1
102
RTVSPropertyOp42
 70
     1
102
RTVSPropertyOp43
 70
     1
102
RTVSPropertyOp44
 70
     1
102
RTVSPropertyOp45
 70
     1
102
RTVSPropertyOp46
 70
     1
102
RTVSPropertyOp47
 70
     1
102
RTVSPropertyOp48
 70
     1
102
RTVSPropertyOp49
 70
     1
102
RTVSPropertyOp50
 70
     1
102
RTVSPropertyOp51
 70
     0
102
RTVSPropertyOp52
 70
     0
102
RTVSPropertyOp53
 70
     1
102
RTVSPropertyOp54
 70
     1
102
RTVSPropertyOp55
 70
     1
102
RTVSPropertyOp56
 70
     1
102
RTVSPropertyOp57
 70
     1
102
RTVSPropertyOp58
 70
     1
102
RTVSPropertyOp59
 70
     1
102
RTVSPropertyOp60
 70
     1
102
RTVSPropertyOp61
 70
     1
102
RTVSPropertyOp62
 70
     1
  0
XRECORD
  5
543
102
{ACAD_REACTORS
330
542
102
}
330
542
100
AcDbXrecord
280
     1
102
RTVSPost2010Prop28
280
     0
102
RTVSPost2010PropOp28
 70
     1
102
RTVSPost2010Prop29
280
     1
102
RTVSPost2010PropOp29
 70
     1
102
RTVSPost2010Prop30
280
     1
102
RTVSPost2010PropOp30
 70
     1
102
RTVSPost2010Prop31
280
     0
102
RTVSPost2010PropOp31
 70
     1
102
RTVSPost2010Prop32
280
     0
102
RTVSPost2010PropOp32
 70
     1
102
RTVSPost2010Prop33
280
     0
102
RTVSPost2010PropOp33
 70
     1
102
RTVSPost2010Prop34
280
     0
102
RTVSPost2010PropOp34
 70
     1
102
RTVSPost2010Prop35
280
     0
102
RTVSPost2010PropOp35
 70
     1
102
RTVSPost2010Prop36
280
     0
102
RTVSPost2010PropOp36
 70
     1
102
RTVSPost2010Prop37
 90
       50
102
RTVSPost2010PropOp37
 70
     1
102
RTVSPost2010Prop38
140
0.0
102
RTVSPost2010PropOp38
 70
     1
102
RTVSPost2010Prop39
140
1.0
102
RTVSPost2010PropOp39
 70
     1
102
RTVSPost2010Prop40
 90
        0
102
RTVSPost2010PropOp40
 70
     1
102
RTVSPost2010Prop41ColorIndex
 90
       18
102
RTVSPost2010Prop41ColorRGB
 90
        0
102
RTVSPost2010PropOp41
 70
     1
102
RTVSPost2010Prop42
 90
       50
102
RTVSPost2010PropOp42
 70
     1
102
RTVSPost2010Prop43
 90
        3
102
RTVSPost2010PropOp43
 70
     1
102
RTVSPost2010Prop44ColorIndex
 90
        5
102
RTVSPost2010Prop44ColorRGB
 90
      255
102
RTVSPost2010PropOp44
 70
     1
102
RTVSPost2010Prop45
280
     0
102
RTVSPost2010PropOp45
 70
     1
102
RTVSPost2010Prop46
 90
       50
102
RTVSPost2010PropOp46
 70
     1
102
RTVSPost2010Prop47
 90
       50
102
RTVSPost2010PropOp47
 70
     1
102
RTVSPost2010Prop48
 90
       50
102
RTVSPost2010PropOp48
 70
     1
102
RTVSPost2010Prop49
280
     0
102
RTVSPost2010PropOp49
 70
     1
102
RTVSPost2010Prop50
 90
       50
102
RTVSPost2010PropOp50
 70
     1
102
RTVSPost2010Prop51ColorIndex
 90
      256
102
RTVSPost2010Prop51ColorRGB
 90
-16777216
102
RTVSPost2010PropOp51
 70
     0
102
RTVSPost2010Prop52
140
1.0
102
RTVSPost2010PropOp52
 70
     0
102
RTVSPost2010Prop53
 90
        2
102
RTVSPost2010PropOp53
 70
     1
102
RTVSPost2010Prop54
  1
strokes_ogs.tif
102
RTVSPost2010PropOp54
 70
     1
102
RTVSPost2010Prop55
280
     0
102
RTVSPost2010PropOp55
 70
     1
102
RTVSPost2010Prop56
140
1.0
102
RTVSPost2010PropOp56
 70
     1
102
RTVSPost2010Prop57
140
1.0
102
RTVSPost2010PropOp57
 70
     1
102
RTVSPropertyOp0
 70
     1
102
RTVSPropertyOp1
 70
     1
102
RTVSPropertyOp2
 70
     1
102
RTVSPropertyOp3
 70
     1
102
RTVSPropertyOp4
 70
     1
102
RTVSPropertyOp5
 70
     1
102
RTVSPropertyOp6
 70
     1
102
RTVSPropertyOp7
 70
     1
102
RTVSPropertyOp8
 70
     1
102
RTVSPropertyOp9
 70
     1
102
RTVSPropertyOp10
 70
     1
102
RTVSPropertyOp11
 70
     1
102
RTVSPropertyOp12
 70
     1
102
RTVSPropertyOp13
 70
     1
102
RTVSPropertyOp14
 70
     1
102
RTVSPropertyOp15
 70
     1
102
RTVSPropertyOp16
 70
     1
102
RTVSPropertyOp17
 70
     1
102
RTVSPropertyOp18
 70
     1
102
RTVSPropertyOp19
 70
     1
102
RTVSPropertyOp20
 70
     1
102
RTVSPropertyOp21
 70
     1
102
RTVSPropertyOp22
 70
     1
102
RTVSPropertyOp23
 70
     1
102
RTVSPropertyOp24
 70
     1
102
RTVSPropertyOp25
 70
     1
102
RTVSPropertyOp26
 70
     1
102
RTVSPropertyOp27
 70
     1
102
RTVSPropertyOp28
 70
     1
102
RTVSPropertyOp29
 70
     1
102
RTVSPropertyOp30
 70
     1
102
RTVSPropertyOp31
 70
     1
102
RTVSPropertyOp32
 70
     1
102
RTVSPropertyOp33
 70
     1
102
RTVSPropertyOp34
 70
     1
102
RTVSPropertyOp35
 70
     1
102
RTVSPropertyOp36
 70
     1
102
RTVSPropertyOp37
 70
     1
102
RTVSPropertyOp38
 70
     1
102
RTVSPropertyOp39
 70
     1
102
RTVSPropertyOp40
 70
     1
102
RTVSPropertyOp41
 70
     1
102
RTVSPropertyOp42
 70
     1
102
RTVSPropertyOp43
 70
     1
102
RTVSPropertyOp44
 70
     1
102
RTVSPropertyOp45
 70
     1
102
RTVSPropertyOp46
 70
     1
102
RTVSPropertyOp47
 70
     1
102
RTVSPropertyOp48
 70
     1
102
RTVSPropertyOp49
 70
     1
102
RTVSPropertyOp50
 70
     1
102
RTVSPropertyOp51
 70
     0
102
RTVSPropertyOp52
 70
     0
102
RTVSPropertyOp53
 70
     1
102
RTVSPropertyOp54
 70
     1
102
RTVSPropertyOp55
 70
     1
102
RTVSPropertyOp56
 70
     1
102
RTVSPropertyOp57
 70
     1
102
RTVSPropertyOp58
 70
     1
102
RTVSPropertyOp59
 70
     1
102
RTVSPropertyOp60
 70
     1
102
RTVSPropertyOp61
 70
     1
102
RTVSPropertyOp62
 70
     1
  0
XRECORD
  5
545
102
{ACAD_REACTORS
330
544
102
}
330
544
100
AcDbXrecord
280
     1
102
RTVSPost2010Prop28
280
     0
102
RTVSPost2010PropOp28
 70
     1
102
RTVSPost2010Prop29
280
     1
102
RTVSPost2010PropOp29
 70
     1
102
RTVSPost2010Prop30
280
     1
102
RTVSPost2010PropOp30
 70
     1
102
RTVSPost2010Prop31
280
     0
102
RTVSPost2010PropOp31
 70
     1
102
RTVSPost2010Prop32
280
     0
102
RTVSPost2010PropOp32
 70
     1
102
RTVSPost2010Prop33
280
     0
102
RTVSPost2010PropOp33
 70
     1
102
RTVSPost2010Prop34
280
     0
102
RTVSPost2010PropOp34
 70
     1
102
RTVSPost2010Prop35
280
     0
102
RTVSPost2010PropOp35
 70
     1
102
RTVSPost2010Prop36
280
     0
102
RTVSPost2010PropOp36
 70
     1
102
RTVSPost2010Prop37
 90
       50
102
RTVSPost2010PropOp37
 70
     1
102
RTVSPost2010Prop38
140
0.0
102
RTVSPost2010PropOp38
 70
     1
102
RTVSPost2010Prop39
140
1.0
102
RTVSPost2010PropOp39
 70
     1
102
RTVSPost2010Prop40
 90
        0
102
RTVSPost2010PropOp40
 70
     1
102
RTVSPost2010Prop41ColorIndex
 90
       18
102
RTVSPost2010Prop41ColorRGB
 90
        0
102
RTVSPost2010PropOp41
 70
     1
102
RTVSPost2010Prop42
 90
       50
102
RTVSPost2010PropOp42
 70
     1
102
RTVSPost2010Prop43
 90
        3
102
RTVSPost2010PropOp43
 70
     1
102
RTVSPost2010Prop44ColorIndex
 90
        5
102
RTVSPost2010Prop44ColorRGB
 90
      255
102
RTVSPost2010PropOp44
 70
     1
102
RTVSPost2010Prop45
280
     0
102
RTVSPost2010PropOp45
 70
     1
102
RTVSPost2010Prop46
 90
       50
102
RTVSPost2010PropOp46
 70
     1
102
RTVSPost2010Prop47
 90
       50
102
RTVSPost2010PropOp47
 70
     1
102
RTVSPost2010Prop48
 90
       50
102
RTVSPost2010PropOp48
 70
     1
102
RTVSPost2010Prop49
280
     0
102
RTVSPost2010PropOp49
 70
     1
102
RTVSPost2010Prop50
 90
       50
102
RTVSPost2010PropOp50
 70
     1
102
RTVSPost2010Prop51ColorIndex
 90
      256
102
RTVSPost2010Prop51ColorRGB
 90
-16777216
102
RTVSPost2010PropOp51
 70
     0
102
RTVSPost2010Prop52
140
1.0
102
RTVSPost2010PropOp52
 70
     0
102
RTVSPost2010Prop53
 90
        2
102
RTVSPost2010PropOp53
 70
     1
102
RTVSPost2010Prop54
  1
strokes_ogs.tif
102
RTVSPost2010PropOp54
 70
     1
102
RTVSPost2010Prop55
280
     0
102
RTVSPost2010PropOp55
 70
     1
102
RTVSPost2010Prop56
140
1.0
102
RTVSPost2010PropOp56
 70
     1
102
RTVSPost2010Prop57
140
1.0
102
RTVSPost2010PropOp57
 70
     1
102
RTVSPropertyOp0
 70
     1
102
RTVSPropertyOp1
 70
     1
102
RTVSPropertyOp2
 70
     1
102
RTVSPropertyOp3
 70
     1
102
RTVSPropertyOp4
 70
     1
102
RTVSPropertyOp5
 70
     1
102
RTVSPropertyOp6
 70
     1
102
RTVSPropertyOp7
 70
     1
102
RTVSPropertyOp8
 70
     1
102
RTVSPropertyOp9
 70
     1
102
RTVSPropertyOp10
 70
     1
102
RTVSPropertyOp11
 70
     1
102
RTVSPropertyOp12
 70
     1
102
RTVSPropertyOp13
 70
     1
102
RTVSPropertyOp14
 70
     1
102
RTVSPropertyOp15
 70
     1
102
RTVSPropertyOp16
 70
     1
102
RTVSPropertyOp17
 70
     1
102
RTVSPropertyOp18
 70
     1
102
RTVSPropertyOp19
 70
     1
102
RTVSPropertyOp20
 70
     1
102
RTVSPropertyOp21
 70
     1
102
RTVSPropertyOp22
 70
     1
102
RTVSPropertyOp23
 70
     1
102
RTVSPropertyOp24
 70
     1
102
RTVSPropertyOp25
 70
     1
102
RTVSPropertyOp26
 70
     1
102
RTVSPropertyOp27
 70
     1
102
RTVSPropertyOp28
 70
     1
102
RTVSPropertyOp29
 70
     1
102
RTVSPropertyOp30
 70
     1
102
RTVSPropertyOp31
 70
     1
102
RTVSPropertyOp32
 70
     1
102
RTVSPropertyOp33
 70
     1
102
RTVSPropertyOp34
 70
     1
102
RTVSPropertyOp35
 70
     1
102
RTVSPropertyOp36
 70
     1
102
RTVSPropertyOp37
 70
     1
102
RTVSPropertyOp38
 70
     1
102
RTVSPropertyOp39
 70
     1
102
RTVSPropertyOp40
 70
     1
102
RTVSPropertyOp41
 70
     1
102
RTVSPropertyOp42
 70
     1
102
RTVSPropertyOp43
 70
     1
102
RTVSPropertyOp44
 70
     1
102
RTVSPropertyOp45
 70
     1
102
RTVSPropertyOp46
 70
     1
102
RTVSPropertyOp47
 70
     1
102
RTVSPropertyOp48
 70
     1
102
RTVSPropertyOp49
 70
     1
102
RTVSPropertyOp50
 70
     1
102
RTVSPropertyOp51
 70
     0
102
RTVSPropertyOp52
 70
     0
102
RTVSPropertyOp53
 70
     1
102
RTVSPropertyOp54
 70
     1
102
RTVSPropertyOp55
 70
     1
102
RTVSPropertyOp56
 70
     1
102
RTVSPropertyOp57
 70
     1
102
RTVSPropertyOp58
 70
     1
102
RTVSPropertyOp59
 70
     1
102
RTVSPropertyOp60
 70
     1
102
RTVSPropertyOp61
 70
     1
102
RTVSPropertyOp62
 70
     1
  0
XRECORD
  5
547
102
{ACAD_REACTORS
330
546
102
}
330
546
100
AcDbXrecord
280
     1
102
RTVSPost2010Prop28
280
     0
102
RTVSPost2010PropOp28
 70
     1
102
RTVSPost2010Prop29
280
     1
102
RTVSPost2010PropOp29
 70
     1
102
RTVSPost2010Prop30
280
     1
102
RTVSPost2010PropOp30
 70
     1
102
RTVSPost2010Prop31
280
     0
102
RTVSPost2010PropOp31
 70
     1
102
RTVSPost2010Prop32
280
     0
102
RTVSPost2010PropOp32
 70
     1
102
RTVSPost2010Prop33
280
     0
102
RTVSPost2010PropOp33
 70
     1
102
RTVSPost2010Prop34
280
     0
102
RTVSPost2010PropOp34
 70
     1
102
RTVSPost2010Prop35
280
     0
102
RTVSPost2010PropOp35
 70
     1
102
RTVSPost2010Prop36
280
     0
102
RTVSPost2010PropOp36
 70
     1
102
RTVSPost2010Prop37
 90
       50
102
RTVSPost2010PropOp37
 70
     1
102
RTVSPost2010Prop38
140
0.0
102
RTVSPost2010PropOp38
 70
     1
102
RTVSPost2010Prop39
140
1.0
102
RTVSPost2010PropOp39
 70
     1
102
RTVSPost2010Prop40
 90
        0
102
RTVSPost2010PropOp40
 70
     1
102
RTVSPost2010Prop41ColorIndex
 90
       18
102
RTVSPost2010Prop41ColorRGB
 90
        0
102
RTVSPost2010PropOp41
 70
     1
102
RTVSPost2010Prop42
 90
       50
102
RTVSPost2010PropOp42
 70
     1
102
RTVSPost2010Prop43
 90
        3
102
RTVSPost2010PropOp43
 70
     1
102
RTVSPost2010Prop44ColorIndex
 90
        5
102
RTVSPost2010Prop44ColorRGB
 90
      255
102
RTVSPost2010PropOp44
 70
     1
102
RTVSPost2010Prop45
280
     0
102
RTVSPost2010PropOp45
 70
     1
102
RTVSPost2010Prop46
 90
       50
102
RTVSPost2010PropOp46
 70
     1
102
RTVSPost2010Prop47
 90
       50
102
RTVSPost2010PropOp47
 70
     1
102
RTVSPost2010Prop48
 90
       50
102
RTVSPost2010PropOp48
 70
     1
102
RTVSPost2010Prop49
280
     0
102
RTVSPost2010PropOp49
 70
     1
102
RTVSPost2010Prop50
 90
       50
102
RTVSPost2010PropOp50
 70
     1
102
RTVSPost2010Prop51ColorIndex
 90
      256
102
RTVSPost2010Prop51ColorRGB
 90
-16777216
102
RTVSPost2010PropOp51
 70
     0
102
RTVSPost2010Prop52
140
1.0
102
RTVSPost2010PropOp52
 70
     0
102
RTVSPost2010Prop53
 90
        2
102
RTVSPost2010PropOp53
 70
     1
102
RTVSPost2010Prop54
  1
strokes_ogs.tif
102
RTVSPost2010PropOp54
 70
     1
102
RTVSPost2010Prop55
280
     0
102
RTVSPost2010PropOp55
 70
     1
102
RTVSPost2010Prop56
140
1.0
102
RTVSPost2010PropOp56
 70
     1
102
RTVSPost2010Prop57
140
1.0
102
RTVSPost2010PropOp57
 70
     1
102
RTVSPropertyOp0
 70
     1
102
RTVSPropertyOp1
 70
     1
102
RTVSPropertyOp2
 70
     1
102
RTVSPropertyOp3
 70
     1
102
RTVSPropertyOp4
 70
     1
102
RTVSPropertyOp5
 70
     1
102
RTVSPropertyOp6
 70
     1
102
RTVSPropertyOp7
 70
     1
102
RTVSPropertyOp8
 70
     1
102
RTVSPropertyOp9
 70
     1
102
RTVSPropertyOp10
 70
     1
102
RTVSPropertyOp11
 70
     1
102
RTVSPropertyOp12
 70
     1
102
RTVSPropertyOp13
 70
     1
102
RTVSPropertyOp14
 70
     1
102
RTVSPropertyOp15
 70
     1
102
RTVSPropertyOp16
 70
     1
102
RTVSPropertyOp17
 70
     1
102
RTVSPropertyOp18
 70
     1
102
RTVSPropertyOp19
 70
     1
102
RTVSPropertyOp20
 70
     1
102
RTVSPropertyOp21
 70
     1
102
RTVSPropertyOp22
 70
     1
102
RTVSPropertyOp23
 70
     1
102
RTVSPropertyOp24
 70
     1
102
RTVSPropertyOp25
 70
     1
102
RTVSPropertyOp26
 70
     1
102
RTVSPropertyOp27
 70
     1
102
RTVSPropertyOp28
 70
     1
102
RTVSPropertyOp29
 70
     1
102
RTVSPropertyOp30
 70
     1
102
RTVSPropertyOp31
 70
     1
102
RTVSPropertyOp32
 70
     1
102
RTVSPropertyOp33
 70
     1
102
RTVSPropertyOp34
 70
     1
102
RTVSPropertyOp35
 70
     1
102
RTVSPropertyOp36
 70
     1
102
RTVSPropertyOp37
 70
     1
102
RTVSPropertyOp38
 70
     1
102
RTVSPropertyOp39
 70
     1
102
RTVSPropertyOp40
 70
     1
102
RTVSPropertyOp41
 70
     1
102
RTVSPropertyOp42
 70
     1
102
RTVSPropertyOp43
 70
     1
102
RTVSPropertyOp44
 70
     1
102
RTVSPropertyOp45
 70
     1
102
RTVSPropertyOp46
 70
     1
102
RTVSPropertyOp47
 70
     1
102
RTVSPropertyOp48
 70
     1
102
RTVSPropertyOp49
 70
     1
102
RTVSPropertyOp50
 70
     1
102
RTVSPropertyOp51
 70
     0
102
RTVSPropertyOp52
 70
     0
102
RTVSPropertyOp53
 70
     1
102
RTVSPropertyOp54
 70
     1
102
RTVSPropertyOp55
 70
     1
102
RTVSPropertyOp56
 70
     1
102
RTVSPropertyOp57
 70
     1
102
RTVSPropertyOp58
 70
     1
102
RTVSPropertyOp59
 70
     1
102
RTVSPropertyOp60
 70
     1
102
RTVSPropertyOp61
 70
     1
102
RTVSPropertyOp62
 70
     1
  0
XRECORD
  5
54F
102
{ACAD_REACTORS
330
54E
102
}
330
54E
100
AcDbXrecord
280
     1
102
RTVSPost2010Prop28
280
     0
102
RTVSPost2010PropOp28
 70
     1
102
RTVSPost2010Prop29
280
     1
102
RTVSPost2010PropOp29
 70
     1
102
RTVSPost2010Prop30
280
     1
102
RTVSPost2010PropOp30
 70
     1
102
RTVSPost2010Prop31
280
     0
102
RTVSPost2010PropOp31
 70
     1
102
RTVSPost2010Prop32
280
     0
102
RTVSPost2010PropOp32
 70
     1
102
RTVSPost2010Prop33
280
     0
102
RTVSPost2010PropOp33
 70
     1
102
RTVSPost2010Prop34
280
     0
102
RTVSPost2010PropOp34
 70
     1
102
RTVSPost2010Prop35
280
     0
102
RTVSPost2010PropOp35
 70
     1
102
RTVSPost2010Prop36
280
     0
102
RTVSPost2010PropOp36
 70
     1
102
RTVSPost2010Prop37
 90
       50
102
RTVSPost2010PropOp37
 70
     1
102
RTVSPost2010Prop38
140
0.0
102
RTVSPost2010PropOp38
 70
     1
102
RTVSPost2010Prop39
140
1.0
102
RTVSPost2010PropOp39
 70
     1
102
RTVSPost2010Prop40
 90
        0
102
RTVSPost2010PropOp40
 70
     1
102
RTVSPost2010Prop41ColorIndex
 90
       18
102
RTVSPost2010Prop41ColorRGB
 90
        0
102
RTVSPost2010PropOp41
 70
     1
102
RTVSPost2010Prop42
 90
       50
102
RTVSPost2010PropOp42
 70
     1
102
RTVSPost2010Prop43
 90
        3
102
RTVSPost2010PropOp43
 70
     1
102
RTVSPost2010Prop44ColorIndex
 90
        5
102
RTVSPost2010Prop44ColorRGB
 90
      255
102
RTVSPost2010PropOp44
 70
     1
102
RTVSPost2010Prop45
280
     0
102
RTVSPost2010PropOp45
 70
     1
102
RTVSPost2010Prop46
 90
       50
102
RTVSPost2010PropOp46
 70
     1
102
RTVSPost2010Prop47
 90
       50
102
RTVSPost2010PropOp47
 70
     1
102
RTVSPost2010Prop48
 90
       50
102
RTVSPost2010PropOp48
 70
     1
102
RTVSPost2010Prop49
280
     0
102
RTVSPost2010PropOp49
 70
     1
102
RTVSPost2010Prop50
 90
       50
102
RTVSPost2010PropOp50
 70
     1
102
RTVSPost2010Prop51ColorIndex
 90
      256
102
RTVSPost2010Prop51ColorRGB
 90
-16777216
102
RTVSPost2010PropOp51
 70
     0
102
RTVSPost2010Prop52
140
1.0
102
RTVSPost2010PropOp52
 70
     0
102
RTVSPost2010Prop53
 90
        2
102
RTVSPost2010PropOp53
 70
     1
102
RTVSPost2010Prop54
  1
strokes_ogs.tif
102
RTVSPost2010PropOp54
 70
     1
102
RTVSPost2010Prop55
280
     0
102
RTVSPost2010PropOp55
 70
     1
102
RTVSPost2010Prop56
140
1.0
102
RTVSPost2010PropOp56
 70
     1
102
RTVSPost2010Prop57
140
1.0
102
RTVSPost2010PropOp57
 70
     1
102
RTVSPropertyOp0
 70
     1
102
RTVSPropertyOp1
 70
     1
102
RTVSPropertyOp2
 70
     1
102
RTVSPropertyOp3
 70
     1
102
RTVSPropertyOp4
 70
     1
102
RTVSPropertyOp5
 70
     1
102
RTVSPropertyOp6
 70
     1
102
RTVSPropertyOp7
 70
     1
102
RTVSPropertyOp8
 70
     1
102
RTVSPropertyOp9
 70
     1
102
RTVSPropertyOp10
 70
     1
102
RTVSPropertyOp11
 70
     1
102
RTVSPropertyOp12
 70
     1
102
RTVSPropertyOp13
 70
     1
102
RTVSPropertyOp14
 70
     1
102
RTVSPropertyOp15
 70
     1
102
RTVSPropertyOp16
 70
     1
102
RTVSPropertyOp17
 70
     1
102
RTVSPropertyOp18
 70
     1
102
RTVSPropertyOp19
 70
     1
102
RTVSPropertyOp20
 70
     1
102
RTVSPropertyOp21
 70
     1
102
RTVSPropertyOp22
 70
     1
102
RTVSPropertyOp23
 70
     1
102
RTVSPropertyOp24
 70
     1
102
RTVSPropertyOp25
 70
     1
102
RTVSPropertyOp26
 70
     1
102
RTVSPropertyOp27
 70
     1
102
RTVSPropertyOp28
 70
     1
102
RTVSPropertyOp29
 70
     1
102
RTVSPropertyOp30
 70
     1
102
RTVSPropertyOp31
 70
     1
102
RTVSPropertyOp32
 70
     1
102
RTVSPropertyOp33
 70
     1
102
RTVSPropertyOp34
 70
     1
102
RTVSPropertyOp35
 70
     1
102
RTVSPropertyOp36
 70
     1
102
RTVSPropertyOp37
 70
     1
102
RTVSPropertyOp38
 70
     1
102
RTVSPropertyOp39
 70
     1
102
RTVSPropertyOp40
 70
     1
102
RTVSPropertyOp41
 70
     1
102
RTVSPropertyOp42
 70
     1
102
RTVSPropertyOp43
 70
     1
102
RTVSPropertyOp44
 70
     1
102
RTVSPropertyOp45
 70
     1
102
RTVSPropertyOp46
 70
     1
102
RTVSPropertyOp47
 70
     1
102
RTVSPropertyOp48
 70
     1
102
RTVSPropertyOp49
 70
     1
102
RTVSPropertyOp50
 70
     1
102
RTVSPropertyOp51
 70
     0
102
RTVSPropertyOp52
 70
     0
102
RTVSPropertyOp53
 70
     1
102
RTVSPropertyOp54
 70
     1
102
RTVSPropertyOp55
 70
     1
102
RTVSPropertyOp56
 70
     1
102
RTVSPropertyOp57
 70
     1
102
RTVSPropertyOp58
 70
     1
102
RTVSPropertyOp59
 70
     1
102
RTVSPropertyOp60
 70
     1
102
RTVSPropertyOp61
 70
     1
102
RTVSPropertyOp62
 70
     1
  0
XRECORD
  5
56B
102
{ACAD_REACTORS
330
56A
102
}
330
56A
100
AcDbXrecord
280
     1
102
RTVSPost2010Prop28
280
     0
102
RTVSPost2010PropOp28
 70
     0
102
RTVSPost2010Prop29
280
     1
102
RTVSPost2010PropOp29
 70
     0
102
RTVSPost2010Prop30
280
     1
102
RTVSPost2010PropOp30
 70
     0
102
RTVSPost2010Prop31
280
     0
102
RTVSPost2010PropOp31
 70
     0
102
RTVSPost2010Prop32
280
     0
102
RTVSPost2010PropOp32
 70
     0
102
RTVSPost2010Prop33
280
     0
102
RTVSPost2010PropOp33
 70
     0
102
RTVSPost2010Prop34
280
     0
102
RTVSPost2010PropOp34
 70
     0
102
RTVSPost2010Prop35
280
     0
102
RTVSPost2010PropOp35
 70
     0
102
RTVSPost2010Prop36
280
     0
102
RTVSPost2010PropOp36
 70
     0
102
RTVSPost2010Prop37
 90
       50
102
RTVSPost2010PropOp37
 70
     0
102
RTVSPost2010Prop38
140
0.0
102
RTVSPost2010PropOp38
 70
     0
102
RTVSPost2010Prop39
140
1.0
102
RTVSPost2010PropOp39
 70
     0
102
RTVSPost2010Prop40
 90
        0
102
RTVSPost2010PropOp40
 70
     0
102
RTVSPost2010Prop41ColorIndex
 90
       18
102
RTVSPost2010Prop41ColorRGB
 90
        0
102
RTVSPost2010PropOp41
 70
     0
102
RTVSPost2010Prop42
 90
       50
102
RTVSPost2010PropOp42
 70
     0
102
RTVSPost2010Prop43
 90
        3
102
RTVSPost2010PropOp43
 70
     0
102
RTVSPost2010Prop44ColorIndex
 90
        5
102
RTVSPost2010Prop44ColorRGB
 90
      255
102
RTVSPost2010PropOp44
 70
     0
102
RTVSPost2010Prop45
280
     0
102
RTVSPost2010PropOp45
 70
     0
102
RTVSPost2010Prop46
 90
       50
102
RTVSPost2010PropOp46
 70
     0
102
RTVSPost2010Prop47
 90
       50
102
RTVSPost2010PropOp47
 70
     0
102
RTVSPost2010Prop48
 90
       50
102
RTVSPost2010PropOp48
 70
     0
102
RTVSPost2010Prop49
280
     0
102
RTVSPost2010PropOp49
 70
     0
102
RTVSPost2010Prop50
 90
       50
102
RTVSPost2010PropOp50
 70
     0
102
RTVSPost2010Prop51ColorIndex
 90
      256
102
RTVSPost2010Prop51ColorRGB
 90
-16777216
102
RTVSPost2010PropOp51
 70
     0
102
RTVSPost2010Prop52
140
1.0
102
RTVSPost2010PropOp52
 70
     0
102
RTVSPost2010Prop53
 90
        2
102
RTVSPost2010PropOp53
 70
     0
102
RTVSPost2010Prop54
  1
strokes_ogs.tif
102
RTVSPost2010PropOp54
 70
     0
102
RTVSPost2010Prop55
280
     0
102
RTVSPost2010PropOp55
 70
     0
102
RTVSPost2010Prop56
140
1.0
102
RTVSPost2010PropOp56
 70
     0
102
RTVSPost2010Prop57
140
1.0
102
RTVSPost2010PropOp57
 70
     0
102
RTVSPropertyOp0
 70
     0
102
RTVSPropertyOp1
 70
     0
102
RTVSPropertyOp2
 70
     0
102
RTVSPropertyOp3
 70
     0
102
RTVSPropertyOp4
 70
     0
102
RTVSPropertyOp5
 70
     0
102
RTVSPropertyOp6
 70
     0
102
RTVSPropertyOp7
 70
     0
102
RTVSPropertyOp8
 70
     0
102
RTVSPropertyOp9
 70
     0
102
RTVSPropertyOp10
 70
     0
102
RTVSPropertyOp11
 70
     0
102
RTVSPropertyOp12
 70
     0
102
RTVSPropertyOp13
 70
     0
102
RTVSPropertyOp14
 70
     2
102
RTVSPropertyOp15
 70
     0
102
RTVSPropertyOp16
 70
     0
102
RTVSPropertyOp17
 70
     0
102
RTVSPropertyOp18
 70
     0
102
RTVSPropertyOp19
 70
     0
102
RTVSPropertyOp20
 70
     0
102
RTVSPropertyOp21
 70
     0
102
RTVSPropertyOp22
 70
     0
102
RTVSPropertyOp23
 70
     0
102
RTVSPropertyOp24
 70
     0
102
RTVSPropertyOp25
 70
     0
102
RTVSPropertyOp26
 70
     0
102
RTVSPropertyOp27
 70
     0
102
RTVSPropertyOp28
 70
     0
102
RTVSPropertyOp29
 70
     0
102
RTVSPropertyOp30
 70
     0
102
RTVSPropertyOp31
 70
     0
102
RTVSPropertyOp32
 70
     0
102
RTVSPropertyOp33
 70
     0
102
RTVSPropertyOp34
 70
     0
102
RTVSPropertyOp35
 70
     0
102
RTVSPropertyOp36
 70
     0
102
RTVSPropertyOp37
 70
     0
102
RTVSPropertyOp38
 70
     0
102
RTVSPropertyOp39
 70
     0
102
RTVSPropertyOp40
 70
     0
102
RTVSPropertyOp41
 70
     0
102
RTVSPropertyOp42
 70
     0
102
RTVSPropertyOp43
 70
     0
102
RTVSPropertyOp44
 70
     0
102
RTVSPropertyOp45
 70
     0
102
RTVSPropertyOp46
 70
     0
102
RTVSPropertyOp47
 70
     0
102
RTVSPropertyOp48
 70
     0
102
RTVSPropertyOp49
 70
     0
102
RTVSPropertyOp50
 70
     0
102
RTVSPropertyOp51
 70
     0
102
RTVSPropertyOp52
 70
     0
102
RTVSPropertyOp53
 70
     0
102
RTVSPropertyOp54
 70
     0
102
RTVSPropertyOp55
 70
     0
102
RTVSPropertyOp56
 70
     0
102
RTVSPropertyOp57
 70
     0
102
RTVSPropertyOp58
 70
     1
102
RTVSPropertyOp59
 70
     1
102
RTVSPropertyOp60
 70
     1
102
RTVSPropertyOp61
 70
     1
102
RTVSPropertyOp62
 70
     1
  0
XRECORD
  5
55B
102
{ACAD_REACTORS
330
55A
102
}
330
55A
100
AcDbXrecord
280
     1
102
RTVSPost2010Prop28
280
     0
102
RTVSPost2010PropOp28
 70
     1
102
RTVSPost2010Prop29
280
     1
102
RTVSPost2010PropOp29
 70
     1
102
RTVSPost2010Prop30
280
     1
102
RTVSPost2010PropOp30
 70
     1
102
RTVSPost2010Prop31
280
     0
102
RTVSPost2010PropOp31
 70
     1
102
RTVSPost2010Prop32
280
     0
102
RTVSPost2010PropOp32
 70
     1
102
RTVSPost2010Prop33
280
     0
102
RTVSPost2010PropOp33
 70
     1
102
RTVSPost2010Prop34
280
     0
102
RTVSPost2010PropOp34
 70
     1
102
RTVSPost2010Prop35
280
     0
102
RTVSPost2010PropOp35
 70
     1
102
RTVSPost2010Prop36
280
     0
102
RTVSPost2010PropOp36
 70
     1
102
RTVSPost2010Prop37
 90
       50
102
RTVSPost2010PropOp37
 70
     1
102
RTVSPost2010Prop38
140
0.0
102
RTVSPost2010PropOp38
 70
     1
102
RTVSPost2010Prop39
140
1.0
102
RTVSPost2010PropOp39
 70
     1
102
RTVSPost2010Prop40
 90
        0
102
RTVSPost2010PropOp40
 70
     1
102
RTVSPost2010Prop41ColorIndex
 90
       18
102
RTVSPost2010Prop41ColorRGB
 90
        0
102
RTVSPost2010PropOp41
 70
     1
102
RTVSPost2010Prop42
 90
       50
102
RTVSPost2010PropOp42
 70
     1
102
RTVSPost2010Prop43
 90
        3
102
RTVSPost2010PropOp43
 70
     1
102
RTVSPost2010Prop44ColorIndex
 90
        5
102
RTVSPost2010Prop44ColorRGB
 90
      255
102
RTVSPost2010PropOp44
 70
     1
102
RTVSPost2010Prop45
280
     0
102
RTVSPost2010PropOp45
 70
     1
102
RTVSPost2010Prop46
 90
       50
102
RTVSPost2010PropOp46
 70
     1
102
RTVSPost2010Prop47
 90
       50
102
RTVSPost2010PropOp47
 70
     1
102
RTVSPost2010Prop48
 90
       50
102
RTVSPost2010PropOp48
 70
     1
102
RTVSPost2010Prop49
280
     0
102
RTVSPost2010PropOp49
 70
     1
102
RTVSPost2010Prop50
 90
       50
102
RTVSPost2010PropOp50
 70
     1
102
RTVSPost2010Prop51ColorIndex
 90
      256
102
RTVSPost2010Prop51ColorRGB
 90
-16777216
102
RTVSPost2010PropOp51
 70
     0
102
RTVSPost2010Prop52
140
1.0
102
RTVSPost2010PropOp52
 70
     0
102
RTVSPost2010Prop53
 90
        2
102
RTVSPost2010PropOp53
 70
     1
102
RTVSPost2010Prop54
  1
strokes_ogs.tif
102
RTVSPost2010PropOp54
 70
     1
102
RTVSPost2010Prop55
280
     0
102
RTVSPost2010PropOp55
 70
     1
102
RTVSPost2010Prop56
140
1.0
102
RTVSPost2010PropOp56
 70
     1
102
RTVSPost2010Prop57
140
1.0
102
RTVSPost2010PropOp57
 70
     1
102
RTVSPropertyOp0
 70
     1
102
RTVSPropertyOp1
 70
     1
102
RTVSPropertyOp2
 70
     1
102
RTVSPropertyOp3
 70
     1
102
RTVSPropertyOp4
 70
     1
102
RTVSPropertyOp5
 70
     1
102
RTVSPropertyOp6
 70
     1
102
RTVSPropertyOp7
 70
     1
102
RTVSPropertyOp8
 70
     1
102
RTVSPropertyOp9
 70
     1
102
RTVSPropertyOp10
 70
     1
102
RTVSPropertyOp11
 70
     1
102
RTVSPropertyOp12
 70
     1
102
RTVSPropertyOp13
 70
     1
102
RTVSPropertyOp14
 70
     1
102
RTVSPropertyOp15
 70
     1
102
RTVSPropertyOp16
 70
     1
102
RTVSPropertyOp17
 70
     1
102
RTVSPropertyOp18
 70
     1
102
RTVSPropertyOp19
 70
     1
102
RTVSPropertyOp20
 70
     1
102
RTVSPropertyOp21
 70
     1
102
RTVSPropertyOp22
 70
     1
102
RTVSPropertyOp23
 70
     1
102
RTVSPropertyOp24
 70
     1
102
RTVSPropertyOp25
 70
     1
102
RTVSPropertyOp26
 70
     1
102
RTVSPropertyOp27
 70
     1
102
RTVSPropertyOp28
 70
     1
102
RTVSPropertyOp29
 70
     1
102
RTVSPropertyOp30
 70
     1
102
RTVSPropertyOp31
 70
     1
102
RTVSPropertyOp32
 70
     1
102
RTVSPropertyOp33
 70
     1
102
RTVSPropertyOp34
 70
     1
102
RTVSPropertyOp35
 70
     1
102
RTVSPropertyOp36
 70
     1
102
RTVSPropertyOp37
 70
     1
102
RTVSPropertyOp38
 70
     1
102
RTVSPropertyOp39
 70
     1
102
RTVSPropertyOp40
 70
     1
102
RTVSPropertyOp41
 70
     1
102
RTVSPropertyOp42
 70
     1
102
RTVSPropertyOp43
 70
     1
102
RTVSPropertyOp44
 70
     1
102
RTVSPropertyOp45
 70
     1
102
RTVSPropertyOp46
 70
     1
102
RTVSPropertyOp47
 70
     1
102
RTVSPropertyOp48
 70
     1
102
RTVSPropertyOp49
 70
     1
102
RTVSPropertyOp50
 70
     1
102
RTVSPropertyOp51
 70
     0
102
RTVSPropertyOp52
 70
     0
102
RTVSPropertyOp53
 70
     1
102
RTVSPropertyOp54
 70
     1
102
RTVSPropertyOp55
 70
     1
102
RTVSPropertyOp56
 70
     1
102
RTVSPropertyOp57
 70
     1
102
RTVSPropertyOp58
 70
     1
102
RTVSPropertyOp59
 70
     1
102
RTVSPropertyOp60
 70
     1
102
RTVSPropertyOp61
 70
     1
102
RTVSPropertyOp62
 70
     1
  0
XRECORD
  5
56D
102
{ACAD_REACTORS
330
56C
102
}
330
56C
100
AcDbXrecord
280
     1
102
RTVSPost2010Prop28
280
     0
102
RTVSPost2010PropOp28
 70
     0
102
RTVSPost2010Prop29
280
     1
102
RTVSPost2010PropOp29
 70
     0
102
RTVSPost2010Prop30
280
     1
102
RTVSPost2010PropOp30
 70
     0
102
RTVSPost2010Prop31
280
     0
102
RTVSPost2010PropOp31
 70
     0
102
RTVSPost2010Prop32
280
     0
102
RTVSPost2010PropOp32
 70
     0
102
RTVSPost2010Prop33
280
     0
102
RTVSPost2010PropOp33
 70
     0
102
RTVSPost2010Prop34
280
     0
102
RTVSPost2010PropOp34
 70
     0
102
RTVSPost2010Prop35
280
     0
102
RTVSPost2010PropOp35
 70
     0
102
RTVSPost2010Prop36
280
     0
102
RTVSPost2010PropOp36
 70
     0
102
RTVSPost2010Prop37
 90
       50
102
RTVSPost2010PropOp37
 70
     0
102
RTVSPost2010Prop38
140
0.0
102
RTVSPost2010PropOp38
 70
     0
102
RTVSPost2010Prop39
140
1.0
102
RTVSPost2010PropOp39
 70
     0
102
RTVSPost2010Prop40
 90
        0
102
RTVSPost2010PropOp40
 70
     0
102
RTVSPost2010Prop41ColorIndex
 90
       18
102
RTVSPost2010Prop41ColorRGB
 90
        0
102
RTVSPost2010PropOp41
 70
     0
102
RTVSPost2010Prop42
 90
       50
102
RTVSPost2010PropOp42
 70
     0
102
RTVSPost2010Prop43
 90
        3
102
RTVSPost2010PropOp43
 70
     0
102
RTVSPost2010Prop44ColorIndex
 90
        5
102
RTVSPost2010Prop44ColorRGB
 90
      255
102
RTVSPost2010PropOp44
 70
     0
102
RTVSPost2010Prop45
280
     0
102
RTVSPost2010PropOp45
 70
     0
102
RTVSPost2010Prop46
 90
       50
102
RTVSPost2010PropOp46
 70
     0
102
RTVSPost2010Prop47
 90
       50
102
RTVSPost2010PropOp47
 70
     0
102
RTVSPost2010Prop48
 90
       50
102
RTVSPost2010PropOp48
 70
     0
102
RTVSPost2010Prop49
280
     0
102
RTVSPost2010PropOp49
 70
     0
102
RTVSPost2010Prop50
 90
       50
102
RTVSPost2010PropOp50
 70
     0
102
RTVSPost2010Prop51ColorIndex
 90
      256
102
RTVSPost2010Prop51ColorRGB
 90
-16777216
102
RTVSPost2010PropOp51
 70
     0
102
RTVSPost2010Prop52
140
1.0
102
RTVSPost2010PropOp52
 70
     0
102
RTVSPost2010Prop53
 90
        2
102
RTVSPost2010PropOp53
 70
     0
102
RTVSPost2010Prop54
  1
strokes_ogs.tif
102
RTVSPost2010PropOp54
 70
     0
102
RTVSPost2010Prop55
280
     0
102
RTVSPost2010PropOp55
 70
     0
102
RTVSPost2010Prop56
140
1.0
102
RTVSPost2010PropOp56
 70
     0
102
RTVSPost2010Prop57
140
1.0
102
RTVSPost2010PropOp57
 70
     0
102
RTVSPropertyOp0
 70
     0
102
RTVSPropertyOp1
 70
     0
102
RTVSPropertyOp2
 70
     0
102
RTVSPropertyOp3
 70
     0
102
RTVSPropertyOp4
 70
     0
102
RTVSPropertyOp5
 70
     0
102
RTVSPropertyOp6
 70
     0
102
RTVSPropertyOp7
 70
     0
102
RTVSPropertyOp8
 70
     0
102
RTVSPropertyOp9
 70
     0
102
RTVSPropertyOp10
 70
     0
102
RTVSPropertyOp11
 70
     0
102
RTVSPropertyOp12
 70
     0
102
RTVSPropertyOp13
 70
     0
102
RTVSPropertyOp14
 70
     2
102
RTVSPropertyOp15
 70
     0
102
RTVSPropertyOp16
 70
     0
102
RTVSPropertyOp17
 70
     0
102
RTVSPropertyOp18
 70
     0
102
RTVSPropertyOp19
 70
     0
102
RTVSPropertyOp20
 70
     0
102
RTVSPropertyOp21
 70
     0
102
RTVSPropertyOp22
 70
     0
102
RTVSPropertyOp23
 70
     0
102
RTVSPropertyOp24
 70
     0
102
RTVSPropertyOp25
 70
     0
102
RTVSPropertyOp26
 70
     0
102
RTVSPropertyOp27
 70
     0
102
RTVSPropertyOp28
 70
     0
102
RTVSPropertyOp29
 70
     0
102
RTVSPropertyOp30
 70
     0
102
RTVSPropertyOp31
 70
     0
102
RTVSPropertyOp32
 70
     0
102
RTVSPropertyOp33
 70
     0
102
RTVSPropertyOp34
 70
     0
102
RTVSPropertyOp35
 70
     0
102
RTVSPropertyOp36
 70
     0
102
RTVSPropertyOp37
 70
     0
102
RTVSPropertyOp38
 70
     0
102
RTVSPropertyOp39
 70
     0
102
RTVSPropertyOp40
 70
     0
102
RTVSPropertyOp41
 70
     0
102
RTVSPropertyOp42
 70
     0
102
RTVSPropertyOp43
 70
     0
102
RTVSPropertyOp44
 70
     0
102
RTVSPropertyOp45
 70
     0
102
RTVSPropertyOp46
 70
     0
102
RTVSPropertyOp47
 70
     0
102
RTVSPropertyOp48
 70
     0
102
RTVSPropertyOp49
 70
     0
102
RTVSPropertyOp50
 70
     0
102
RTVSPropertyOp51
 70
     0
102
RTVSPropertyOp52
 70
     0
102
RTVSPropertyOp53
 70
     0
102
RTVSPropertyOp54
 70
     0
102
RTVSPropertyOp55
 70
     0
102
RTVSPropertyOp56
 70
     0
102
RTVSPropertyOp57
 70
     0
102
RTVSPropertyOp58
 70
     1
102
RTVSPropertyOp59
 70
     1
102
RTVSPropertyOp60
 70
     1
102
RTVSPropertyOp61
 70
     1
102
RTVSPropertyOp62
 70
     1
  0
XRECORD
  5
553
102
{ACAD_REACTORS
330
552
102
}
330
552
100
AcDbXrecord
280
     1
102
RTVSPost2010Prop28
280
     0
102
RTVSPost2010PropOp28
 70
     1
102
RTVSPost2010Prop29
280
     1
102
RTVSPost2010PropOp29
 70
     1
102
RTVSPost2010Prop30
280
     1
102
RTVSPost2010PropOp30
 70
     1
102
RTVSPost2010Prop31
280
     0
102
RTVSPost2010PropOp31
 70
     1
102
RTVSPost2010Prop32
280
     0
102
RTVSPost2010PropOp32
 70
     1
102
RTVSPost2010Prop33
280
     0
102
RTVSPost2010PropOp33
 70
     1
102
RTVSPost2010Prop34
280
     0
102
RTVSPost2010PropOp34
 70
     1
102
RTVSPost2010Prop35
280
     0
102
RTVSPost2010PropOp35
 70
     1
102
RTVSPost2010Prop36
280
     0
102
RTVSPost2010PropOp36
 70
     1
102
RTVSPost2010Prop37
 90
       50
102
RTVSPost2010PropOp37
 70
     1
102
RTVSPost2010Prop38
140
0.0
102
RTVSPost2010PropOp38
 70
     1
102
RTVSPost2010Prop39
140
1.0
102
RTVSPost2010PropOp39
 70
     1
102
RTVSPost2010Prop40
 90
        0
102
RTVSPost2010PropOp40
 70
     1
102
RTVSPost2010Prop41ColorIndex
 90
       18
102
RTVSPost2010Prop41ColorRGB
 90
        0
102
RTVSPost2010PropOp41
 70
     1
102
RTVSPost2010Prop42
 90
       50
102
RTVSPost2010PropOp42
 70
     1
102
RTVSPost2010Prop43
 90
        3
102
RTVSPost2010PropOp43
 70
     1
102
RTVSPost2010Prop44ColorIndex
 90
        5
102
RTVSPost2010Prop44ColorRGB
 90
      255
102
RTVSPost2010PropOp44
 70
     1
102
RTVSPost2010Prop45
280
     0
102
RTVSPost2010PropOp45
 70
     1
102
RTVSPost2010Prop46
 90
       50
102
RTVSPost2010PropOp46
 70
     1
102
RTVSPost2010Prop47
 90
       50
102
RTVSPost2010PropOp47
 70
     1
102
RTVSPost2010Prop48
 90
       50
102
RTVSPost2010PropOp48
 70
     1
102
RTVSPost2010Prop49
280
     0
102
RTVSPost2010PropOp49
 70
     1
102
RTVSPost2010Prop50
 90
       50
102
RTVSPost2010PropOp50
 70
     1
102
RTVSPost2010Prop51ColorIndex
 90
      256
102
RTVSPost2010Prop51ColorRGB
 90
-16777216
102
RTVSPost2010PropOp51
 70
     0
102
RTVSPost2010Prop52
140
1.0
102
RTVSPost2010PropOp52
 70
     0
102
RTVSPost2010Prop53
 90
        2
102
RTVSPost2010PropOp53
 70
     1
102
RTVSPost2010Prop54
  1
strokes_ogs.tif
102
RTVSPost2010PropOp54
 70
     1
102
RTVSPost2010Prop55
280
     0
102
RTVSPost2010PropOp55
 70
     1
102
RTVSPost2010Prop56
140
1.0
102
RTVSPost2010PropOp56
 70
     1
102
RTVSPost2010Prop57
140
1.0
102
RTVSPost2010PropOp57
 70
     1
102
RTVSPropertyOp0
 70
     1
102
RTVSPropertyOp1
 70
     1
102
RTVSPropertyOp2
 70
     1
102
RTVSPropertyOp3
 70
     1
102
RTVSPropertyOp4
 70
     1
102
RTVSPropertyOp5
 70
     1
102
RTVSPropertyOp6
 70
     1
102
RTVSPropertyOp7
 70
     1
102
RTVSPropertyOp8
 70
     1
102
RTVSPropertyOp9
 70
     1
102
RTVSPropertyOp10
 70
     1
102
RTVSPropertyOp11
 70
     1
102
RTVSPropertyOp12
 70
     1
102
RTVSPropertyOp13
 70
     1
102
RTVSPropertyOp14
 70
     1
102
RTVSPropertyOp15
 70
     1
102
RTVSPropertyOp16
 70
     1
102
RTVSPropertyOp17
 70
     1
102
RTVSPropertyOp18
 70
     1
102
RTVSPropertyOp19
 70
     1
102
RTVSPropertyOp20
 70
     1
102
RTVSPropertyOp21
 70
     1
102
RTVSPropertyOp22
 70
     1
102
RTVSPropertyOp23
 70
     1
102
RTVSPropertyOp24
 70
     1
102
RTVSPropertyOp25
 70
     1
102
RTVSPropertyOp26
 70
     1
102
RTVSPropertyOp27
 70
     1
102
RTVSPropertyOp28
 70
     1
102
RTVSPropertyOp29
 70
     1
102
RTVSPropertyOp30
 70
     1
102
RTVSPropertyOp31
 70
     1
102
RTVSPropertyOp32
 70
     1
102
RTVSPropertyOp33
 70
     1
102
RTVSPropertyOp34
 70
     1
102
RTVSPropertyOp35
 70
     1
102
RTVSPropertyOp36
 70
     1
102
RTVSPropertyOp37
 70
     1
102
RTVSPropertyOp38
 70
     1
102
RTVSPropertyOp39
 70
     1
102
RTVSPropertyOp40
 70
     1
102
RTVSPropertyOp41
 70
     1
102
RTVSPropertyOp42
 70
     1
102
RTVSPropertyOp43
 70
     1
102
RTVSPropertyOp44
 70
     1
102
RTVSPropertyOp45
 70
     1
102
RTVSPropertyOp46
 70
     1
102
RTVSPropertyOp47
 70
     1
102
RTVSPropertyOp48
 70
     1
102
RTVSPropertyOp49
 70
     1
102
RTVSPropertyOp50
 70
     1
102
RTVSPropertyOp51
 70
     0
102
RTVSPropertyOp52
 70
     0
102
RTVSPropertyOp53
 70
     1
102
RTVSPropertyOp54
 70
     1
102
RTVSPropertyOp55
 70
     1
102
RTVSPropertyOp56
 70
     1
102
RTVSPropertyOp57
 70
     1
102
RTVSPropertyOp58
 70
     1
102
RTVSPropertyOp59
 70
     1
102
RTVSPropertyOp60
 70
     1
102
RTVSPropertyOp61
 70
     1
102
RTVSPropertyOp62
 70
     1
  0
XRECORD
  5
569
102
{ACAD_REACTORS
330
568
102
}
330
568
100
AcDbXrecord
280
     1
102
RTVSPost2010Prop28
280
     0
102
RTVSPost2010PropOp28
 70
     1
102
RTVSPost2010Prop29
280
     1
102
RTVSPost2010PropOp29
 70
     1
102
RTVSPost2010Prop30
280
     1
102
RTVSPost2010PropOp30
 70
     1
102
RTVSPost2010Prop31
280
     0
102
RTVSPost2010PropOp31
 70
     1
102
RTVSPost2010Prop32
280
     0
102
RTVSPost2010PropOp32
 70
     1
102
RTVSPost2010Prop33
280
     0
102
RTVSPost2010PropOp33
 70
     1
102
RTVSPost2010Prop34
280
     0
102
RTVSPost2010PropOp34
 70
     1
102
RTVSPost2010Prop35
280
     0
102
RTVSPost2010PropOp35
 70
     1
102
RTVSPost2010Prop36
280
     0
102
RTVSPost2010PropOp36
 70
     1
102
RTVSPost2010Prop37
 90
       50
102
RTVSPost2010PropOp37
 70
     1
102
RTVSPost2010Prop38
140
0.0
102
RTVSPost2010PropOp38
 70
     1
102
RTVSPost2010Prop39
140
1.0
102
RTVSPost2010PropOp39
 70
     1
102
RTVSPost2010Prop40
 90
        0
102
RTVSPost2010PropOp40
 70
     1
102
RTVSPost2010Prop41ColorIndex
 90
       18
102
RTVSPost2010Prop41ColorRGB
 90
        0
102
RTVSPost2010PropOp41
 70
     1
102
RTVSPost2010Prop42
 90
       50
102
RTVSPost2010PropOp42
 70
     1
102
RTVSPost2010Prop43
 90
        3
102
RTVSPost2010PropOp43
 70
     1
102
RTVSPost2010Prop44ColorIndex
 90
        5
102
RTVSPost2010Prop44ColorRGB
 90
      255
102
RTVSPost2010PropOp44
 70
     1
102
RTVSPost2010Prop45
280
     0
102
RTVSPost2010PropOp45
 70
     1
102
RTVSPost2010Prop46
 90
       50
102
RTVSPost2010PropOp46
 70
     1
102
RTVSPost2010Prop47
 90
       50
102
RTVSPost2010PropOp47
 70
     1
102
RTVSPost2010Prop48
 90
       50
102
RTVSPost2010PropOp48
 70
     1
102
RTVSPost2010Prop49
280
     0
102
RTVSPost2010PropOp49
 70
     1
102
RTVSPost2010Prop50
 90
       50
102
RTVSPost2010PropOp50
 70
     1
102
RTVSPost2010Prop51ColorIndex
 90
      256
102
RTVSPost2010Prop51ColorRGB
 90
-16777216
102
RTVSPost2010PropOp51
 70
     0
102
RTVSPost2010Prop52
140
1.0
102
RTVSPost2010PropOp52
 70
     0
102
RTVSPost2010Prop53
 90
        2
102
RTVSPost2010PropOp53
 70
     1
102
RTVSPost2010Prop54
  1
strokes_ogs.tif
102
RTVSPost2010PropOp54
 70
     1
102
RTVSPost2010Prop55
280
     0
102
RTVSPost2010PropOp55
 70
     1
102
RTVSPost2010Prop56
140
1.0
102
RTVSPost2010PropOp56
 70
     1
102
RTVSPost2010Prop57
140
1.0
102
RTVSPost2010PropOp57
 70
     1
102
RTVSPropertyOp0
 70
     1
102
RTVSPropertyOp1
 70
     1
102
RTVSPropertyOp2
 70
     1
102
RTVSPropertyOp3
 70
     1
102
RTVSPropertyOp4
 70
     1
102
RTVSPropertyOp5
 70
     1
102
RTVSPropertyOp6
 70
     1
102
RTVSPropertyOp7
 70
     1
102
RTVSPropertyOp8
 70
     1
102
RTVSPropertyOp9
 70
     1
102
RTVSPropertyOp10
 70
     1
102
RTVSPropertyOp11
 70
     1
102
RTVSPropertyOp12
 70
     1
102
RTVSPropertyOp13
 70
     1
102
RTVSPropertyOp14
 70
     1
102
RTVSPropertyOp15
 70
     1
102
RTVSPropertyOp16
 70
     1
102
RTVSPropertyOp17
 70
     1
102
RTVSPropertyOp18
 70
     1
102
RTVSPropertyOp19
 70
     1
102
RTVSPropertyOp20
 70
     1
102
RTVSPropertyOp21
 70
     1
102
RTVSPropertyOp22
 70
     1
102
RTVSPropertyOp23
 70
     1
102
RTVSPropertyOp24
 70
     1
102
RTVSPropertyOp25
 70
     1
102
RTVSPropertyOp26
 70
     1
102
RTVSPropertyOp27
 70
     1
102
RTVSPropertyOp28
 70
     1
102
RTVSPropertyOp29
 70
     1
102
RTVSPropertyOp30
 70
     1
102
RTVSPropertyOp31
 70
     1
102
RTVSPropertyOp32
 70
     1
102
RTVSPropertyOp33
 70
     1
102
RTVSPropertyOp34
 70
     1
102
RTVSPropertyOp35
 70
     1
102
RTVSPropertyOp36
 70
     1
102
RTVSPropertyOp37
 70
     1
102
RTVSPropertyOp38
 70
     1
102
RTVSPropertyOp39
 70
     1
102
RTVSPropertyOp40
 70
     1
102
RTVSPropertyOp41
 70
     1
102
RTVSPropertyOp42
 70
     1
102
RTVSPropertyOp43
 70
     1
102
RTVSPropertyOp44
 70
     1
102
RTVSPropertyOp45
 70
     1
102
RTVSPropertyOp46
 70
     1
102
RTVSPropertyOp47
 70
     1
102
RTVSPropertyOp48
 70
     1
102
RTVSPropertyOp49
 70
     1
102
RTVSPropertyOp50
 70
     1
102
RTVSPropertyOp51
 70
     0
102
RTVSPropertyOp52
 70
     0
102
RTVSPropertyOp53
 70
     1
102
RTVSPropertyOp54
 70
     1
102
RTVSPropertyOp55
 70
     1
102
RTVSPropertyOp56
 70
     1
102
RTVSPropertyOp57
 70
     1
102
RTVSPropertyOp58
 70
     1
102
RTVSPropertyOp59
 70
     1
102
RTVSPropertyOp60
 70
     1
102
RTVSPropertyOp61
 70
     1
102
RTVSPropertyOp62
 70
     1
  0
XRECORD
  5
567
102
{ACAD_REACTORS
330
566
102
}
330
566
100
AcDbXrecord
280
     1
102
RTVSPost2010Prop28
280
     0
102
RTVSPost2010PropOp28
 70
     1
102
RTVSPost2010Prop29
280
     1
102
RTVSPost2010PropOp29
 70
     1
102
RTVSPost2010Prop30
280
     1
102
RTVSPost2010PropOp30
 70
     1
102
RTVSPost2010Prop31
280
     0
102
RTVSPost2010PropOp31
 70
     1
102
RTVSPost2010Prop32
280
     0
102
RTVSPost2010PropOp32
 70
     1
102
RTVSPost2010Prop33
280
     0
102
RTVSPost2010PropOp33
 70
     1
102
RTVSPost2010Prop34
280
     0
102
RTVSPost2010PropOp34
 70
     1
102
RTVSPost2010Prop35
280
     0
102
RTVSPost2010PropOp35
 70
     1
102
RTVSPost2010Prop36
280
     0
102
RTVSPost2010PropOp36
 70
     1
102
RTVSPost2010Prop37
 90
       50
102
RTVSPost2010PropOp37
 70
     1
102
RTVSPost2010Prop38
140
0.0
102
RTVSPost2010PropOp38
 70
     1
102
RTVSPost2010Prop39
140
1.0
102
RTVSPost2010PropOp39
 70
     1
102
RTVSPost2010Prop40
 90
        0
102
RTVSPost2010PropOp40
 70
     1
102
RTVSPost2010Prop41ColorIndex
 90
       18
102
RTVSPost2010Prop41ColorRGB
 90
        0
102
RTVSPost2010PropOp41
 70
     1
102
RTVSPost2010Prop42
 90
       50
102
RTVSPost2010PropOp42
 70
     1
102
RTVSPost2010Prop43
 90
        3
102
RTVSPost2010PropOp43
 70
     1
102
RTVSPost2010Prop44ColorIndex
 90
        5
102
RTVSPost2010Prop44ColorRGB
 90
      255
102
RTVSPost2010PropOp44
 70
     1
102
RTVSPost2010Prop45
280
     0
102
RTVSPost2010PropOp45
 70
     1
102
RTVSPost2010Prop46
 90
       50
102
RTVSPost2010PropOp46
 70
     1
102
RTVSPost2010Prop47
 90
       50
102
RTVSPost2010PropOp47
 70
     1
102
RTVSPost2010Prop48
 90
       50
102
RTVSPost2010PropOp48
 70
     1
102
RTVSPost2010Prop49
280
     0
102
RTVSPost2010PropOp49
 70
     1
102
RTVSPost2010Prop50
 90
       50
102
RTVSPost2010PropOp50
 70
     1
102
RTVSPost2010Prop51ColorIndex
 90
      256
102
RTVSPost2010Prop51ColorRGB
 90
-16777216
102
RTVSPost2010PropOp51
 70
     0
102
RTVSPost2010Prop52
140
1.0
102
RTVSPost2010PropOp52
 70
     0
102
RTVSPost2010Prop53
 90
        2
102
RTVSPost2010PropOp53
 70
     1
102
RTVSPost2010Prop54
  1
strokes_ogs.tif
102
RTVSPost2010PropOp54
 70
     1
102
RTVSPost2010Prop55
280
     0
102
RTVSPost2010PropOp55
 70
     1
102
RTVSPost2010Prop56
140
1.0
102
RTVSPost2010PropOp56
 70
     1
102
RTVSPost2010Prop57
140
1.0
102
RTVSPost2010PropOp57
 70
     1
102
RTVSPropertyOp0
 70
     1
102
RTVSPropertyOp1
 70
     1
102
RTVSPropertyOp2
 70
     1
102
RTVSPropertyOp3
 70
     1
102
RTVSPropertyOp4
 70
     1
102
RTVSPropertyOp5
 70
     1
102
RTVSPropertyOp6
 70
     1
102
RTVSPropertyOp7
 70
     1
102
RTVSPropertyOp8
 70
     1
102
RTVSPropertyOp9
 70
     1
102
RTVSPropertyOp10
 70
     1
102
RTVSPropertyOp11
 70
     1
102
RTVSPropertyOp12
 70
     1
102
RTVSPropertyOp13
 70
     1
102
RTVSPropertyOp14
 70
     1
102
RTVSPropertyOp15
 70
     1
102
RTVSPropertyOp16
 70
     1
102
RTVSPropertyOp17
 70
     1
102
RTVSPropertyOp18
 70
     1
102
RTVSPropertyOp19
 70
     1
102
RTVSPropertyOp20
 70
     1
102
RTVSPropertyOp21
 70
     1
102
RTVSPropertyOp22
 70
     1
102
RTVSPropertyOp23
 70
     1
102
RTVSPropertyOp24
 70
     1
102
RTVSPropertyOp25
 70
     1
102
RTVSPropertyOp26
 70
     1
102
RTVSPropertyOp27
 70
     1
102
RTVSPropertyOp28
 70
     1
102
RTVSPropertyOp29
 70
     1
102
RTVSPropertyOp30
 70
     1
102
RTVSPropertyOp31
 70
     1
102
RTVSPropertyOp32
 70
     1
102
RTVSPropertyOp33
 70
     1
102
RTVSPropertyOp34
 70
     1
102
RTVSPropertyOp35
 70
     1
102
RTVSPropertyOp36
 70
     1
102
RTVSPropertyOp37
 70
     1
102
RTVSPropertyOp38
 70
     1
102
RTVSPropertyOp39
 70
     1
102
RTVSPropertyOp40
 70
     1
102
RTVSPropertyOp41
 70
     1
102
RTVSPropertyOp42
 70
     1
102
RTVSPropertyOp43
 70
     1
102
RTVSPropertyOp44
 70
     1
102
RTVSPropertyOp45
 70
     1
102
RTVSPropertyOp46
 70
     1
102
RTVSPropertyOp47
 70
     1
102
RTVSPropertyOp48
 70
     1
102
RTVSPropertyOp49
 70
     1
102
RTVSPropertyOp50
 70
     1
102
RTVSPropertyOp51
 70
     0
102
RTVSPropertyOp52
 70
     0
102
RTVSPropertyOp53
 70
     1
102
RTVSPropertyOp54
 70
     1
102
RTVSPropertyOp55
 70
     1
102
RTVSPropertyOp56
 70
     1
102
RTVSPropertyOp57
 70
     1
102
RTVSPropertyOp58
 70
     1
102
RTVSPropertyOp59
 70
     1
102
RTVSPropertyOp60
 70
     1
102
RTVSPropertyOp61
 70
     1
102
RTVSPropertyOp62
 70
     1
  0
XRECORD
  5
561
102
{ACAD_REACTORS
330
560
102
}
330
560
100
AcDbXrecord
280
     1
102
RTVSPost2010Prop28
280
     0
102
RTVSPost2010PropOp28
 70
     1
102
RTVSPost2010Prop29
280
     1
102
RTVSPost2010PropOp29
 70
     1
102
RTVSPost2010Prop30
280
     1
102
RTVSPost2010PropOp30
 70
     1
102
RTVSPost2010Prop31
280
     0
102
RTVSPost2010PropOp31
 70
     1
102
RTVSPost2010Prop32
280
     0
102
RTVSPost2010PropOp32
 70
     1
102
RTVSPost2010Prop33
280
     0
102
RTVSPost2010PropOp33
 70
     1
102
RTVSPost2010Prop34
280
     0
102
RTVSPost2010PropOp34
 70
     1
102
RTVSPost2010Prop35
280
     0
102
RTVSPost2010PropOp35
 70
     1
102
RTVSPost2010Prop36
280
     0
102
RTVSPost2010PropOp36
 70
     1
102
RTVSPost2010Prop37
 90
       50
102
RTVSPost2010PropOp37
 70
     1
102
RTVSPost2010Prop38
140
0.0
102
RTVSPost2010PropOp38
 70
     1
102
RTVSPost2010Prop39
140
1.0
102
RTVSPost2010PropOp39
 70
     1
102
RTVSPost2010Prop40
 90
        0
102
RTVSPost2010PropOp40
 70
     1
102
RTVSPost2010Prop41ColorIndex
 90
       18
102
RTVSPost2010Prop41ColorRGB
 90
        0
102
RTVSPost2010PropOp41
 70
     1
102
RTVSPost2010Prop42
 90
       50
102
RTVSPost2010PropOp42
 70
     1
102
RTVSPost2010Prop43
 90
        3
102
RTVSPost2010PropOp43
 70
     1
102
RTVSPost2010Prop44ColorIndex
 90
        5
102
RTVSPost2010Prop44ColorRGB
 90
      255
102
RTVSPost2010PropOp44
 70
     1
102
RTVSPost2010Prop45
280
     0
102
RTVSPost2010PropOp45
 70
     1
102
RTVSPost2010Prop46
 90
       50
102
RTVSPost2010PropOp46
 70
     1
102
RTVSPost2010Prop47
 90
       50
102
RTVSPost2010PropOp47
 70
     1
102
RTVSPost2010Prop48
 90
       50
102
RTVSPost2010PropOp48
 70
     1
102
RTVSPost2010Prop49
280
     0
102
RTVSPost2010PropOp49
 70
     1
102
RTVSPost2010Prop50
 90
       50
102
RTVSPost2010PropOp50
 70
     1
102
RTVSPost2010Prop51ColorIndex
 90
      256
102
RTVSPost2010Prop51ColorRGB
 90
-16777216
102
RTVSPost2010PropOp51
 70
     0
102
RTVSPost2010Prop52
140
1.0
102
RTVSPost2010PropOp52
 70
     0
102
RTVSPost2010Prop53
 90
        2
102
RTVSPost2010PropOp53
 70
     1
102
RTVSPost2010Prop54
  1
strokes_ogs.tif
102
RTVSPost2010PropOp54
 70
     1
102
RTVSPost2010Prop55
280
     0
102
RTVSPost2010PropOp55
 70
     1
102
RTVSPost2010Prop56
140
1.0
102
RTVSPost2010PropOp56
 70
     1
102
RTVSPost2010Prop57
140
1.0
102
RTVSPost2010PropOp57
 70
     1
102
RTVSPropertyOp0
 70
     1
102
RTVSPropertyOp1
 70
     1
102
RTVSPropertyOp2
 70
     1
102
RTVSPropertyOp3
 70
     1
102
RTVSPropertyOp4
 70
     1
102
RTVSPropertyOp5
 70
     1
102
RTVSPropertyOp6
 70
     1
102
RTVSPropertyOp7
 70
     1
102
RTVSPropertyOp8
 70
     1
102
RTVSPropertyOp9
 70
     1
102
RTVSPropertyOp10
 70
     1
102
RTVSPropertyOp11
 70
     1
102
RTVSPropertyOp12
 70
     1
102
RTVSPropertyOp13
 70
     1
102
RTVSPropertyOp14
 70
     1
102
RTVSPropertyOp15
 70
     1
102
RTVSPropertyOp16
 70
     1
102
RTVSPropertyOp17
 70
     1
102
RTVSPropertyOp18
 70
     1
102
RTVSPropertyOp19
 70
     1
102
RTVSPropertyOp20
 70
     1
102
RTVSPropertyOp21
 70
     1
102
RTVSPropertyOp22
 70
     1
102
RTVSPropertyOp23
 70
     1
102
RTVSPropertyOp24
 70
     1
102
RTVSPropertyOp25
 70
     1
102
RTVSPropertyOp26
 70
     1
102
RTVSPropertyOp27
 70
     1
102
RTVSPropertyOp28
 70
     1
102
RTVSPropertyOp29
 70
     1
102
RTVSPropertyOp30
 70
     1
102
RTVSPropertyOp31
 70
     1
102
RTVSPropertyOp32
 70
     1
102
RTVSPropertyOp33
 70
     1
102
RTVSPropertyOp34
 70
     1
102
RTVSPropertyOp35
 70
     1
102
RTVSPropertyOp36
 70
     1
102
RTVSPropertyOp37
 70
     1
102
RTVSPropertyOp38
 70
     1
102
RTVSPropertyOp39
 70
     1
102
RTVSPropertyOp40
 70
     1
102
RTVSPropertyOp41
 70
     1
102
RTVSPropertyOp42
 70
     1
102
RTVSPropertyOp43
 70
     1
102
RTVSPropertyOp44
 70
     1
102
RTVSPropertyOp45
 70
     1
102
RTVSPropertyOp46
 70
     1
102
RTVSPropertyOp47
 70
     1
102
RTVSPropertyOp48
 70
     1
102
RTVSPropertyOp49
 70
     1
102
RTVSPropertyOp50
 70
     1
102
RTVSPropertyOp51
 70
     0
102
RTVSPropertyOp52
 70
     0
102
RTVSPropertyOp53
 70
     1
102
RTVSPropertyOp54
 70
     1
102
RTVSPropertyOp55
 70
     1
102
RTVSPropertyOp56
 70
     1
102
RTVSPropertyOp57
 70
     1
102
RTVSPropertyOp58
 70
     1
102
RTVSPropertyOp59
 70
     1
102
RTVSPropertyOp60
 70
     1
102
RTVSPropertyOp61
 70
     1
102
RTVSPropertyOp62
 70
     1
  0
XRECORD
  5
563
102
{ACAD_REACTORS
330
562
102
}
330
562
100
AcDbXrecord
280
     1
102
RTVSPost2010Prop28
280
     0
102
RTVSPost2010PropOp28
 70
     1
102
RTVSPost2010Prop29
280
     1
102
RTVSPost2010PropOp29
 70
     1
102
RTVSPost2010Prop30
280
     1
102
RTVSPost2010PropOp30
 70
     1
102
RTVSPost2010Prop31
280
     0
102
RTVSPost2010PropOp31
 70
     1
102
RTVSPost2010Prop32
280
     0
102
RTVSPost2010PropOp32
 70
     1
102
RTVSPost2010Prop33
280
     0
102
RTVSPost2010PropOp33
 70
     1
102
RTVSPost2010Prop34
280
     0
102
RTVSPost2010PropOp34
 70
     1
102
RTVSPost2010Prop35
280
     0
102
RTVSPost2010PropOp35
 70
     1
102
RTVSPost2010Prop36
280
     0
102
RTVSPost2010PropOp36
 70
     1
102
RTVSPost2010Prop37
 90
       50
102
RTVSPost2010PropOp37
 70
     1
102
RTVSPost2010Prop38
140
0.0
102
RTVSPost2010PropOp38
 70
     1
102
RTVSPost2010Prop39
140
1.0
102
RTVSPost2010PropOp39
 70
     1
102
RTVSPost2010Prop40
 90
        0
102
RTVSPost2010PropOp40
 70
     1
102
RTVSPost2010Prop41ColorIndex
 90
       18
102
RTVSPost2010Prop41ColorRGB
 90
        0
102
RTVSPost2010PropOp41
 70
     1
102
RTVSPost2010Prop42
 90
       50
102
RTVSPost2010PropOp42
 70
     1
102
RTVSPost2010Prop43
 90
        3
102
RTVSPost2010PropOp43
 70
     1
102
RTVSPost2010Prop44ColorIndex
 90
        5
102
RTVSPost2010Prop44ColorRGB
 90
      255
102
RTVSPost2010PropOp44
 70
     1
102
RTVSPost2010Prop45
280
     0
102
RTVSPost2010PropOp45
 70
     1
102
RTVSPost2010Prop46
 90
       50
102
RTVSPost2010PropOp46
 70
     1
102
RTVSPost2010Prop47
 90
       50
102
RTVSPost2010PropOp47
 70
     1
102
RTVSPost2010Prop48
 90
       50
102
RTVSPost2010PropOp48
 70
     1
102
RTVSPost2010Prop49
280
     0
102
RTVSPost2010PropOp49
 70
     1
102
RTVSPost2010Prop50
 90
       50
102
RTVSPost2010PropOp50
 70
     1
102
RTVSPost2010Prop51ColorIndex
 90
      256
102
RTVSPost2010Prop51ColorRGB
 90
-16777216
102
RTVSPost2010PropOp51
 70
     0
102
RTVSPost2010Prop52
140
1.0
102
RTVSPost2010PropOp52
 70
     0
102
RTVSPost2010Prop53
 90
        2
102
RTVSPost2010PropOp53
 70
     1
102
RTVSPost2010Prop54
  1
strokes_ogs.tif
102
RTVSPost2010PropOp54
 70
     1
102
RTVSPost2010Prop55
280
     0
102
RTVSPost2010PropOp55
 70
     1
102
RTVSPost2010Prop56
140
1.0
102
RTVSPost2010PropOp56
 70
     1
102
RTVSPost2010Prop57
140
1.0
102
RTVSPost2010PropOp57
 70
     1
102
RTVSPropertyOp0
 70
     1
102
RTVSPropertyOp1
 70
     1
102
RTVSPropertyOp2
 70
     1
102
RTVSPropertyOp3
 70
     1
102
RTVSPropertyOp4
 70
     1
102
RTVSPropertyOp5
 70
     1
102
RTVSPropertyOp6
 70
     1
102
RTVSPropertyOp7
 70
     1
102
RTVSPropertyOp8
 70
     1
102
RTVSPropertyOp9
 70
     1
102
RTVSPropertyOp10
 70
     1
102
RTVSPropertyOp11
 70
     1
102
RTVSPropertyOp12
 70
     1
102
RTVSPropertyOp13
 70
     1
102
RTVSPropertyOp14
 70
     1
102
RTVSPropertyOp15
 70
     1
102
RTVSPropertyOp16
 70
     1
102
RTVSPropertyOp17
 70
     1
102
RTVSPropertyOp18
 70
     1
102
RTVSPropertyOp19
 70
     1
102
RTVSPropertyOp20
 70
     1
102
RTVSPropertyOp21
 70
     1
102
RTVSPropertyOp22
 70
     1
102
RTVSPropertyOp23
 70
     1
102
RTVSPropertyOp24
 70
     1
102
RTVSPropertyOp25
 70
     1
102
RTVSPropertyOp26
 70
     1
102
RTVSPropertyOp27
 70
     1
102
RTVSPropertyOp28
 70
     1
102
RTVSPropertyOp29
 70
     1
102
RTVSPropertyOp30
 70
     1
102
RTVSPropertyOp31
 70
     1
102
RTVSPropertyOp32
 70
     1
102
RTVSPropertyOp33
 70
     1
102
RTVSPropertyOp34
 70
     1
102
RTVSPropertyOp35
 70
     1
102
RTVSPropertyOp36
 70
     1
102
RTVSPropertyOp37
 70
     1
102
RTVSPropertyOp38
 70
     1
102
RTVSPropertyOp39
 70
     1
102
RTVSPropertyOp40
 70
     1
102
RTVSPropertyOp41
 70
     1
102
RTVSPropertyOp42
 70
     1
102
RTVSPropertyOp43
 70
     1
102
RTVSPropertyOp44
 70
     1
102
RTVSPropertyOp45
 70
     1
102
RTVSPropertyOp46
 70
     1
102
RTVSPropertyOp47
 70
     1
102
RTVSPropertyOp48
 70
     1
102
RTVSPropertyOp49
 70
     1
102
RTVSPropertyOp50
 70
     1
102
RTVSPropertyOp51
 70
     0
102
RTVSPropertyOp52
 70
     0
102
RTVSPropertyOp53
 70
     1
102
RTVSPropertyOp54
 70
     1
102
RTVSPropertyOp55
 70
     1
102
RTVSPropertyOp56
 70
     1
102
RTVSPropertyOp57
 70
     1
102
RTVSPropertyOp58
 70
     1
102
RTVSPropertyOp59
 70
     1
102
RTVSPropertyOp60
 70
     1
102
RTVSPropertyOp61
 70
     1
102
RTVSPropertyOp62
 70
     1
  0
XRECORD
  5
559
102
{ACAD_REACTORS
330
558
102
}
330
558
100
AcDbXrecord
280
     1
102
RTVSPost2010Prop28
280
     0
102
RTVSPost2010PropOp28
 70
     1
102
RTVSPost2010Prop29
280
     1
102
RTVSPost2010PropOp29
 70
     1
102
RTVSPost2010Prop30
280
     1
102
RTVSPost2010PropOp30
 70
     1
102
RTVSPost2010Prop31
280
     0
102
RTVSPost2010PropOp31
 70
     1
102
RTVSPost2010Prop32
280
     0
102
RTVSPost2010PropOp32
 70
     1
102
RTVSPost2010Prop33
280
     0
102
RTVSPost2010PropOp33
 70
     1
102
RTVSPost2010Prop34
280
     0
102
RTVSPost2010PropOp34
 70
     1
102
RTVSPost2010Prop35
280
     0
102
RTVSPost2010PropOp35
 70
     1
102
RTVSPost2010Prop36
280
     0
102
RTVSPost2010PropOp36
 70
     1
102
RTVSPost2010Prop37
 90
       50
102
RTVSPost2010PropOp37
 70
     1
102
RTVSPost2010Prop38
140
0.0
102
RTVSPost2010PropOp38
 70
     1
102
RTVSPost2010Prop39
140
1.0
102
RTVSPost2010PropOp39
 70
     1
102
RTVSPost2010Prop40
 90
        0
102
RTVSPost2010PropOp40
 70
     1
102
RTVSPost2010Prop41ColorIndex
 90
       18
102
RTVSPost2010Prop41ColorRGB
 90
        0
102
RTVSPost2010PropOp41
 70
     1
102
RTVSPost2010Prop42
 90
       50
102
RTVSPost2010PropOp42
 70
     1
102
RTVSPost2010Prop43
 90
        3
102
RTVSPost2010PropOp43
 70
     1
102
RTVSPost2010Prop44ColorIndex
 90
        5
102
RTVSPost2010Prop44ColorRGB
 90
      255
102
RTVSPost2010PropOp44
 70
     1
102
RTVSPost2010Prop45
280
     0
102
RTVSPost2010PropOp45
 70
     1
102
RTVSPost2010Prop46
 90
       50
102
RTVSPost2010PropOp46
 70
     1
102
RTVSPost2010Prop47
 90
       50
102
RTVSPost2010PropOp47
 70
     1
102
RTVSPost2010Prop48
 90
       50
102
RTVSPost2010PropOp48
 70
     1
102
RTVSPost2010Prop49
280
     0
102
RTVSPost2010PropOp49
 70
     1
102
RTVSPost2010Prop50
 90
       50
102
RTVSPost2010PropOp50
 70
     1
102
RTVSPost2010Prop51ColorIndex
 90
      256
102
RTVSPost2010Prop51ColorRGB
 90
-16777216
102
RTVSPost2010PropOp51
 70
     0
102
RTVSPost2010Prop52
140
1.0
102
RTVSPost2010PropOp52
 70
     0
102
RTVSPost2010Prop53
 90
        2
102
RTVSPost2010PropOp53
 70
     1
102
RTVSPost2010Prop54
  1
strokes_ogs.tif
102
RTVSPost2010PropOp54
 70
     1
102
RTVSPost2010Prop55
280
     0
102
RTVSPost2010PropOp55
 70
     1
102
RTVSPost2010Prop56
140
1.0
102
RTVSPost2010PropOp56
 70
     1
102
RTVSPost2010Prop57
140
1.0
102
RTVSPost2010PropOp57
 70
     1
102
RTVSPropertyOp0
 70
     1
102
RTVSPropertyOp1
 70
     1
102
RTVSPropertyOp2
 70
     1
102
RTVSPropertyOp3
 70
     1
102
RTVSPropertyOp4
 70
     1
102
RTVSPropertyOp5
 70
     1
102
RTVSPropertyOp6
 70
     1
102
RTVSPropertyOp7
 70
     1
102
RTVSPropertyOp8
 70
     1
102
RTVSPropertyOp9
 70
     1
102
RTVSPropertyOp10
 70
     1
102
RTVSPropertyOp11
 70
     1
102
RTVSPropertyOp12
 70
     1
102
RTVSPropertyOp13
 70
     1
102
RTVSPropertyOp14
 70
     1
102
RTVSPropertyOp15
 70
     1
102
RTVSPropertyOp16
 70
     1
102
RTVSPropertyOp17
 70
     1
102
RTVSPropertyOp18
 70
     1
102
RTVSPropertyOp19
 70
     1
102
RTVSPropertyOp20
 70
     1
102
RTVSPropertyOp21
 70
     1
102
RTVSPropertyOp22
 70
     1
102
RTVSPropertyOp23
 70
     1
102
RTVSPropertyOp24
 70
     1
102
RTVSPropertyOp25
 70
     1
102
RTVSPropertyOp26
 70
     1
102
RTVSPropertyOp27
 70
     1
102
RTVSPropertyOp28
 70
     1
102
RTVSPropertyOp29
 70
     1
102
RTVSPropertyOp30
 70
     1
102
RTVSPropertyOp31
 70
     1
102
RTVSPropertyOp32
 70
     1
102
RTVSPropertyOp33
 70
     1
102
RTVSPropertyOp34
 70
     1
102
RTVSPropertyOp35
 70
     1
102
RTVSPropertyOp36
 70
     1
102
RTVSPropertyOp37
 70
     1
102
RTVSPropertyOp38
 70
     1
102
RTVSPropertyOp39
 70
     1
102
RTVSPropertyOp40
 70
     1
102
RTVSPropertyOp41
 70
     1
102
RTVSPropertyOp42
 70
     1
102
RTVSPropertyOp43
 70
     1
102
RTVSPropertyOp44
 70
     1
102
RTVSPropertyOp45
 70
     1
102
RTVSPropertyOp46
 70
     1
102
RTVSPropertyOp47
 70
     1
102
RTVSPropertyOp48
 70
     1
102
RTVSPropertyOp49
 70
     1
102
RTVSPropertyOp50
 70
     1
102
RTVSPropertyOp51
 70
     0
102
RTVSPropertyOp52
 70
     0
102
RTVSPropertyOp53
 70
     1
102
RTVSPropertyOp54
 70
     1
102
RTVSPropertyOp55
 70
     1
102
RTVSPropertyOp56
 70
     1
102
RTVSPropertyOp57
 70
     1
102
RTVSPropertyOp58
 70
     1
102
RTVSPropertyOp59
 70
     1
102
RTVSPropertyOp60
 70
     1
102
RTVSPropertyOp61
 70
     1
102
RTVSPropertyOp62
 70
     1
  0
XRECORD
  5
54D
102
{ACAD_REACTORS
330
54C
102
}
330
54C
100
AcDbXrecord
280
     1
102
RTVSPost2010Prop28
280
     0
102
RTVSPost2010PropOp28
 70
     1
102
RTVSPost2010Prop29
280
     1
102
RTVSPost2010PropOp29
 70
     1
102
RTVSPost2010Prop30
280
     1
102
RTVSPost2010PropOp30
 70
     1
102
RTVSPost2010Prop31
280
     0
102
RTVSPost2010PropOp31
 70
     1
102
RTVSPost2010Prop32
280
     0
102
RTVSPost2010PropOp32
 70
     1
102
RTVSPost2010Prop33
280
     0
102
RTVSPost2010PropOp33
 70
     1
102
RTVSPost2010Prop34
280
     0
102
RTVSPost2010PropOp34
 70
     1
102
RTVSPost2010Prop35
280
     0
102
RTVSPost2010PropOp35
 70
     1
102
RTVSPost2010Prop36
280
     0
102
RTVSPost2010PropOp36
 70
     1
102
RTVSPost2010Prop37
 90
       50
102
RTVSPost2010PropOp37
 70
     1
102
RTVSPost2010Prop38
140
0.0
102
RTVSPost2010PropOp38
 70
     1
102
RTVSPost2010Prop39
140
1.0
102
RTVSPost2010PropOp39
 70
     1
102
RTVSPost2010Prop40
 90
        0
102
RTVSPost2010PropOp40
 70
     1
102
RTVSPost2010Prop41ColorIndex
 90
       18
102
RTVSPost2010Prop41ColorRGB
 90
        0
102
RTVSPost2010PropOp41
 70
     1
102
RTVSPost2010Prop42
 90
       50
102
RTVSPost2010PropOp42
 70
     1
102
RTVSPost2010Prop43
 90
        3
102
RTVSPost2010PropOp43
 70
     1
102
RTVSPost2010Prop44ColorIndex
 90
        5
102
RTVSPost2010Prop44ColorRGB
 90
      255
102
RTVSPost2010PropOp44
 70
     1
102
RTVSPost2010Prop45
280
     0
102
RTVSPost2010PropOp45
 70
     1
102
RTVSPost2010Prop46
 90
       50
102
RTVSPost2010PropOp46
 70
     1
102
RTVSPost2010Prop47
 90
       50
102
RTVSPost2010PropOp47
 70
     1
102
RTVSPost2010Prop48
 90
       50
102
RTVSPost2010PropOp48
 70
     1
102
RTVSPost2010Prop49
280
     0
102
RTVSPost2010PropOp49
 70
     1
102
RTVSPost2010Prop50
 90
       50
102
RTVSPost2010PropOp50
 70
     1
102
RTVSPost2010Prop51ColorIndex
 90
      256
102
RTVSPost2010Prop51ColorRGB
 90
-16777216
102
RTVSPost2010PropOp51
 70
     0
102
RTVSPost2010Prop52
140
1.0
102
RTVSPost2010PropOp52
 70
     0
102
RTVSPost2010Prop53
 90
        2
102
RTVSPost2010PropOp53
 70
     1
102
RTVSPost2010Prop54
  1
strokes_ogs.tif
102
RTVSPost2010PropOp54
 70
     1
102
RTVSPost2010Prop55
280
     0
102
RTVSPost2010PropOp55
 70
     1
102
RTVSPost2010Prop56
140
1.0
102
RTVSPost2010PropOp56
 70
     1
102
RTVSPost2010Prop57
140
1.0
102
RTVSPost2010PropOp57
 70
     1
102
RTVSPropertyOp0
 70
     1
102
RTVSPropertyOp1
 70
     1
102
RTVSPropertyOp2
 70
     1
102
RTVSPropertyOp3
 70
     1
102
RTVSPropertyOp4
 70
     1
102
RTVSPropertyOp5
 70
     1
102
RTVSPropertyOp6
 70
     1
102
RTVSPropertyOp7
 70
     1
102
RTVSPropertyOp8
 70
     1
102
RTVSPropertyOp9
 70
     1
102
RTVSPropertyOp10
 70
     1
102
RTVSPropertyOp11
 70
     1
102
RTVSPropertyOp12
 70
     1
102
RTVSPropertyOp13
 70
     1
102
RTVSPropertyOp14
 70
     1
102
RTVSPropertyOp15
 70
     1
102
RTVSPropertyOp16
 70
     1
102
RTVSPropertyOp17
 70
     1
102
RTVSPropertyOp18
 70
     1
102
RTVSPropertyOp19
 70
     1
102
RTVSPropertyOp20
 70
     1
102
RTVSPropertyOp21
 70
     1
102
RTVSPropertyOp22
 70
     1
102
RTVSPropertyOp23
 70
     1
102
RTVSPropertyOp24
 70
     1
102
RTVSPropertyOp25
 70
     1
102
RTVSPropertyOp26
 70
     1
102
RTVSPropertyOp27
 70
     1
102
RTVSPropertyOp28
 70
     1
102
RTVSPropertyOp29
 70
     1
102
RTVSPropertyOp30
 70
     1
102
RTVSPropertyOp31
 70
     1
102
RTVSPropertyOp32
 70
     1
102
RTVSPropertyOp33
 70
     1
102
RTVSPropertyOp34
 70
     1
102
RTVSPropertyOp35
 70
     1
102
RTVSPropertyOp36
 70
     1
102
RTVSPropertyOp37
 70
     1
102
RTVSPropertyOp38
 70
     1
102
RTVSPropertyOp39
 70
     1
102
RTVSPropertyOp40
 70
     1
102
RTVSPropertyOp41
 70
     1
102
RTVSPropertyOp42
 70
     1
102
RTVSPropertyOp43
 70
     1
102
RTVSPropertyOp44
 70
     1
102
RTVSPropertyOp45
 70
     1
102
RTVSPropertyOp46
 70
     1
102
RTVSPropertyOp47
 70
     1
102
RTVSPropertyOp48
 70
     1
102
RTVSPropertyOp49
 70
     1
102
RTVSPropertyOp50
 70
     1
102
RTVSPropertyOp51
 70
     0
102
RTVSPropertyOp52
 70
     0
102
RTVSPropertyOp53
 70
     1
102
RTVSPropertyOp54
 70
     1
102
RTVSPropertyOp55
 70
     1
102
RTVSPropertyOp56
 70
     1
102
RTVSPropertyOp57
 70
     1
102
RTVSPropertyOp58
 70
     1
102
RTVSPropertyOp59
 70
     1
102
RTVSPropertyOp60
 70
     1
102
RTVSPropertyOp61
 70
     1
102
RTVSPropertyOp62
 70
     1
  0
XRECORD
  5
565
102
{ACAD_REACTORS
330
564
102
}
330
564
100
AcDbXrecord
280
     1
102
RTVSPost2010Prop28
280
     0
102
RTVSPost2010PropOp28
 70
     1
102
RTVSPost2010Prop29
280
     1
102
RTVSPost2010PropOp29
 70
     1
102
RTVSPost2010Prop30
280
     1
102
RTVSPost2010PropOp30
 70
     1
102
RTVSPost2010Prop31
280
     0
102
RTVSPost2010PropOp31
 70
     1
102
RTVSPost2010Prop32
280
     0
102
RTVSPost2010PropOp32
 70
     1
102
RTVSPost2010Prop33
280
     0
102
RTVSPost2010PropOp33
 70
     1
102
RTVSPost2010Prop34
280
     0
102
RTVSPost2010PropOp34
 70
     1
102
RTVSPost2010Prop35
280
     0
102
RTVSPost2010PropOp35
 70
     1
102
RTVSPost2010Prop36
280
     0
102
RTVSPost2010PropOp36
 70
     1
102
RTVSPost2010Prop37
 90
       50
102
RTVSPost2010PropOp37
 70
     1
102
RTVSPost2010Prop38
140
0.0
102
RTVSPost2010PropOp38
 70
     1
102
RTVSPost2010Prop39
140
1.0
102
RTVSPost2010PropOp39
 70
     1
102
RTVSPost2010Prop40
 90
        0
102
RTVSPost2010PropOp40
 70
     1
102
RTVSPost2010Prop41ColorIndex
 90
       18
102
RTVSPost2010Prop41ColorRGB
 90
        0
102
RTVSPost2010PropOp41
 70
     1
102
RTVSPost2010Prop42
 90
       50
102
RTVSPost2010PropOp42
 70
     1
102
RTVSPost2010Prop43
 90
        3
102
RTVSPost2010PropOp43
 70
     1
102
RTVSPost2010Prop44ColorIndex
 90
        5
102
RTVSPost2010Prop44ColorRGB
 90
      255
102
RTVSPost2010PropOp44
 70
     1
102
RTVSPost2010Prop45
280
     0
102
RTVSPost2010PropOp45
 70
     1
102
RTVSPost2010Prop46
 90
       50
102
RTVSPost2010PropOp46
 70
     1
102
RTVSPost2010Prop47
 90
       50
102
RTVSPost2010PropOp47
 70
     1
102
RTVSPost2010Prop48
 90
       50
102
RTVSPost2010PropOp48
 70
     1
102
RTVSPost2010Prop49
280
     0
102
RTVSPost2010PropOp49
 70
     1
102
RTVSPost2010Prop50
 90
       50
102
RTVSPost2010PropOp50
 70
     1
102
RTVSPost2010Prop51ColorIndex
 90
      256
102
RTVSPost2010Prop51ColorRGB
 90
-16777216
102
RTVSPost2010PropOp51
 70
     0
102
RTVSPost2010Prop52
140
1.0
102
RTVSPost2010PropOp52
 70
     0
102
RTVSPost2010Prop53
 90
        2
102
RTVSPost2010PropOp53
 70
     1
102
RTVSPost2010Prop54
  1
strokes_ogs.tif
102
RTVSPost2010PropOp54
 70
     1
102
RTVSPost2010Prop55
280
     0
102
RTVSPost2010PropOp55
 70
     1
102
RTVSPost2010Prop56
140
1.0
102
RTVSPost2010PropOp56
 70
     1
102
RTVSPost2010Prop57
140
1.0
102
RTVSPost2010PropOp57
 70
     1
102
RTVSPropertyOp0
 70
     1
102
RTVSPropertyOp1
 70
     1
102
RTVSPropertyOp2
 70
     1
102
RTVSPropertyOp3
 70
     1
102
RTVSPropertyOp4
 70
     1
102
RTVSPropertyOp5
 70
     1
102
RTVSPropertyOp6
 70
     1
102
RTVSPropertyOp7
 70
     1
102
RTVSPropertyOp8
 70
     1
102
RTVSPropertyOp9
 70
     1
102
RTVSPropertyOp10
 70
     1
102
RTVSPropertyOp11
 70
     1
102
RTVSPropertyOp12
 70
     1
102
RTVSPropertyOp13
 70
     1
102
RTVSPropertyOp14
 70
     1
102
RTVSPropertyOp15
 70
     1
102
RTVSPropertyOp16
 70
     1
102
RTVSPropertyOp17
 70
     1
102
RTVSPropertyOp18
 70
     1
102
RTVSPropertyOp19
 70
     1
102
RTVSPropertyOp20
 70
     1
102
RTVSPropertyOp21
 70
     1
102
RTVSPropertyOp22
 70
     1
102
RTVSPropertyOp23
 70
     1
102
RTVSPropertyOp24
 70
     1
102
RTVSPropertyOp25
 70
     1
102
RTVSPropertyOp26
 70
     1
102
RTVSPropertyOp27
 70
     1
102
RTVSPropertyOp28
 70
     1
102
RTVSPropertyOp29
 70
     1
102
RTVSPropertyOp30
 70
     1
102
RTVSPropertyOp31
 70
     1
102
RTVSPropertyOp32
 70
     1
102
RTVSPropertyOp33
 70
     1
102
RTVSPropertyOp34
 70
     1
102
RTVSPropertyOp35
 70
     1
102
RTVSPropertyOp36
 70
     1
102
RTVSPropertyOp37
 70
     1
102
RTVSPropertyOp38
 70
     1
102
RTVSPropertyOp39
 70
     1
102
RTVSPropertyOp40
 70
     1
102
RTVSPropertyOp41
 70
     1
102
RTVSPropertyOp42
 70
     1
102
RTVSPropertyOp43
 70
     1
102
RTVSPropertyOp44
 70
     1
102
RTVSPropertyOp45
 70
     1
102
RTVSPropertyOp46
 70
     1
102
RTVSPropertyOp47
 70
     1
102
RTVSPropertyOp48
 70
     1
102
RTVSPropertyOp49
 70
     1
102
RTVSPropertyOp50
 70
     1
102
RTVSPropertyOp51
 70
     0
102
RTVSPropertyOp52
 70
     0
102
RTVSPropertyOp53
 70
     1
102
RTVSPropertyOp54
 70
     1
102
RTVSPropertyOp55
 70
     1
102
RTVSPropertyOp56
 70
     1
102
RTVSPropertyOp57
 70
     1
102
RTVSPropertyOp58
 70
     1
102
RTVSPropertyOp59
 70
     1
102
RTVSPropertyOp60
 70
     1
102
RTVSPropertyOp61
 70
     1
102
RTVSPropertyOp62
 70
     1
  0
ENDSEC
  0
EOF
