  0
SECTION
  2
HEADER
  9
$ACADVER
  1
AC1015
  9
$DWGCODEPAGE
  3
ANSI_932
  9
$LTSCALE
 40
20.0
  9
$FILLMODE
 70
     1
  9
$CLAYER
  8
0
  9
$PDMODE
 70
     0
  9
$SPLFRAME
 70
     0
  9
$SPLINETYPE
 70
     6
  9
$SPLINESEGS
 70
     8
  9
$DIMASZ
 40
2.000000
  9
$DIMEXE
 40
1.500000
  9
$DIMEXO
 40
0.800000
  9
$DIMTAD
 70
     1
  9
$DIMTIH
 70
     0
  9
$DIMTOH
 70
     0
  9
$DIMTVP
 40
0.500000
  9
$DIMTXT
 40
3.100000
  9
$EXTMIN
 10
0.000000
 20
0.000000
 30
0.000000
  9
$EXTMAX
 10
297.000000
 20
420.000000
 30
0.000000
  9
$MEASUREMENT
 70
  1
  9
$LIMMIN
 10
0.000000
 20
0.000000
  9
$LIMMAX
 10
297.000000
 20
420.000000
  9
$HANDSEED
  5
136
  9
$LWDISPLAY
290
     0
  9
$DIMBLK
  1
_OPEN
  9
$DIMDEC
 70
     2
  9
$DIMADEC
 70
     2
  9
$DIMAUNIT
 70
     0
  9
$DIMZIN
 70
     8
  9
$DIMAZIN
 70
     2
  9
$DIMTOFL
 70
     1
  0
ENDSEC
  0
SECTION
  2
CLASSES
  0
ENDSEC
  0
SECTION
  2
TABLES
  0
TABLE
  2
VPORT
  5
105
100
AcDbSymbolTable
 70
     1
  0
VPORT
  5
106
100
AcDbSymbolTableRecord
100
AcDbViewportTableRecord
  2
*ACTIVE
 70
     0
 12
184.883408
 22
106.355536
 40
713.153801
 41
0.872649
  0
ENDTAB
  0
TABLE
  2
LTYPE
  5
107
100
AcDbSymbolTable
 70
     2
  0
LTYPE
  5
108
100
AcDbSymbolTableRecord
100
AcDbLinetypeTableRecord
  2
BYBLOCK
 70
     0
  3

 72
    65
 73
     0
 40
0.0
  0
LTYPE
  5
109
100
AcDbSymbolTableRecord
100
AcDbLinetypeTableRecord
  2
BYLAYER
 70
     0
  3

 72
    65
 73
     0
 40
0.0
  0
LTYPE
  5
10A
100
AcDbSymbolTableRecord
100
AcDbLinetypeTableRecord
  2
CONTINUOUS
 70
     0
  3
Solid line (NEC CAE2D for Win R15.2 : 2020.01.15)
 72
    65
 73
     0
 40
0.0
  0
LTYPE
  5
10B
100
AcDbSymbolTableRecord
100
AcDbLinetypeTableRecord
  2
CENTER
 70
     0
  3
____ _ ____ _ ____ _ ____ _ ____ _ ____
 72
    65
 73
     4
 40
2.0
 49
1.25
 74
     0
 49
-0.25
 74
     0
 49
0.25
 74
     0
 49
-0.25
 74
     0
  0
ENDTAB
  0
TABLE
  2
LAYER
  5
10C
100
AcDbSymbolTable
 70
    11
  0
LAYER
  5
10D
100
AcDbSymbolTableRecord
100
AcDbLayerTableRecord
  2
0
 70
     0
 62
     7
  6
CONTINUOUS
370
    -3
390

  0
LAYER
  5
10E
100
AcDbSymbolTableRecord
100
AcDbLayerTableRecord
  2
A0
 70
     0
 62
     9
  6
CONTINUOUS
370
    -3
390

  0
LAYER
  5
10F
100
AcDbSymbolTableRecord
100
AcDbLayerTableRecord
  2
A7
 70
     0
 62
    12
  6
CONTINUOUS
370
    -3
390

  0
LAYER
  5
110
100
AcDbSymbolTableRecord
100
AcDbLayerTableRecord
  2
A8
 70
     0
 62
    10
  6
CONTINUOUS
370
    -3
390

  0
LAYER
  5
111
100
AcDbSymbolTableRecord
100
AcDbLayerTableRecord
  2
A10
 70
     0
 62
     6
  6
CONTINUOUS
370
    -3
390

  0
LAYER
  5
112
100
AcDbSymbolTableRecord
100
AcDbLayerTableRecord
  2
A14
 70
     0
 62
     5
  6
CONTINUOUS
370
    -3
390

  0
LAYER
  5
113
100
AcDbSymbolTableRecord
100
AcDbLayerTableRecord
  2
A20
 70
     0
 62
     1
  6
CONTINUOUS
370
    -3
390

  0
LAYER
  5
114
100
AcDbSymbolTableRecord
100
AcDbLayerTableRecord
  2
A30
 70
     0
 62
     1
  6
CONTINUOUS
370
    -3
390

  0
LAYER
  5
115
100
AcDbSymbolTableRecord
100
AcDbLayerTableRecord
  2
A40
 70
     0
 62
     9
  6
CONTINUOUS
370
    -3
390

  0
LAYER
  5
116
100
AcDbSymbolTableRecord
100
AcDbLayerTableRecord
  2
A50
 70
     0
 62
    12
  6
CONTINUOUS
370
    -3
390

  0
LAYER
  5
117
100
AcDbSymbolTableRecord
100
AcDbLayerTableRecord
  2
A1023
 70
     0
 62
    16
  6
CONTINUOUS
370
    -3
390

  0
ENDTAB
  0
TABLE
  2
STYLE
  5
118
100
AcDbSymbolTable
 70
     4
  0
STYLE
  5
119
100
AcDbSymbolTableRecord
100
AcDbTextStyleTableRecord
  2
STANDARD
 70
    64
 40
0.0
 41
1.0
 50
0.0
 71
     0
 42
3.000000000000000
  3
TXT
  4

  0
STYLE
  5
11A
100
AcDbSymbolTableRecord
100
AcDbTextStyleTableRecord
  2
ANKTATE
 70
    68
 40
0.0
 41
1.0
 50
0.0
 71
     0
 42
3.000000000000000
  3
TXT
  4

  0
STYLE
  5
11B
100
AcDbSymbolTableRecord
100
AcDbTextStyleTableRecord
  2
KNJYOKO
 70
    64
 40
0.0
 41
1.0
 50
0.0
 71
     0
 42
3.000000000000000
  3
TXT
  4
BIGFONT
  0
STYLE
  5
11C
100
AcDbSymbolTableRecord
100
AcDbTextStyleTableRecord
  2
KNJTATE
 70
    68
 40
0.0
 41
1.0
 50
0.0
 71
     0
 42
3.000000000000000
  3
TXT
  4
BIGFONT
  0
ENDTAB
  0
TABLE
  2
VIEW
  5
11D
100
AcDbSymbolTable
 70
     0
  0
ENDTAB
  0
TABLE
  2
UCS
  5
11E
100
AcDbSymbolTable
 70
     0
  0
ENDTAB
  0
TABLE
  2
APPID
  5
11F
100
AcDbSymbolTable
 70
     1
  0
APPID
  5
120
100
AcDbSymbolTableRecord
100
AcDbRegAppTableRecord
  2
ACAD
 70
     0
  0
ENDTAB
  0
TABLE
  2
DIMSTYLE
  5
121
100
AcDbSymbolTable
 70
     2
100
AcDbDimStyleTable
  0
DIMSTYLE
105
122
100
AcDbSymbolTableRecord
100
AcDbDimStyleTableRecord
  2
STANDARD
 70
     0
 41
2.000000
 44
1.500000
 42
0.800000
145
0.661290
140
3.100000
144
1.000000
146
0.645161
340
119
  0
DIMSTYLE
105
123
100
AcDbSymbolTableRecord
100
AcDbDimStyleTableRecord
  2
A001
 70
     0
 41
2.000000
 44
1.500000
 42
0.800000
145
0.661290
140
3.100000
144
1.000000
146
0.645161
 77
     1
 73
     0
 74
     0
271
     2
179
     2
275
     0
 78
     8
 79
     2
172
     1
340
119
  0
ENDTAB
  0
TABLE
  2
BLOCK_RECORD
  5
124
100
AcDbSymbolTable
 70
    12
  0
BLOCK_RECORD
  5
125
100
AcDbSymbolTableRecord
100
AcDbBlockTableRecord
  2
*MODEL_SPACE
  0
BLOCK_RECORD
  5
126
100
AcDbSymbolTableRecord
100
AcDbBlockTableRecord
  2
*PAPER_SPACE
  0
BLOCK_RECORD
  5
127
100
AcDbSymbolTableRecord
100
AcDbBlockTableRecord
  2
*PAPER_SPACE0
  0
BLOCK_RECORD
  5
1
100
AcDbSymbolTableRecord
100
AcDbBlockTableRecord
  2
_NONE
  0
BLOCK_RECORD
  5
4
100
AcDbSymbolTableRecord
100
AcDbBlockTableRecord
  2
_CLOSED
  0
BLOCK_RECORD
  5
B
100
AcDbSymbolTableRecord
100
AcDbBlockTableRecord
  2
_DOT
  0
BLOCK_RECORD
  5
13
100
AcDbSymbolTableRecord
100
AcDbBlockTableRecord
  2
_OPEN
  0
BLOCK_RECORD
  5
19
100
AcDbSymbolTableRecord
100
AcDbBlockTableRecord
  2
_ORIGIN
  0
BLOCK_RECORD
  5
1E
100
AcDbSymbolTableRecord
100
AcDbBlockTableRecord
  2
_OPEN30
  0
BLOCK_RECORD
  5
24
100
AcDbSymbolTableRecord
100
AcDbBlockTableRecord
  2
_BOXFILLED
  0
BLOCK_RECORD
  5
29
100
AcDbSymbolTableRecord
100
AcDbBlockTableRecord
  2
_BOXBLANK
  0
BLOCK_RECORD
  5
31
100
AcDbSymbolTableRecord
100
AcDbBlockTableRecord
  2
_OBLIQUE
  0
BLOCK_RECORD
  5
35
100
AcDbSymbolTableRecord
100
AcDbBlockTableRecord
  2
_OPEN90
  0
BLOCK_RECORD
  5
3B
100
AcDbSymbolTableRecord
100
AcDbBlockTableRecord
  2
_CLOSEDBLANK
  0
BLOCK_RECORD
  5
41
100
AcDbSymbolTableRecord
100
AcDbBlockTableRecord
  2
_DOTBLANK
  0
ENDTAB
  0
ENDSEC
  0
SECTION
  2
BLOCKS
  0
BLOCK
  5
128
100
AcDbEntity
  8
0
100
AcDbBlockBegin
  2
*MODEL_SPACE
 70
     0
 10
0.0
 20
0.0
 30
0.0
  3
*MODEL_SPACE
  1

  0
ENDBLK
  5
129
100
AcDbEntity
  8
0
100
AcDbBlockEnd
  0
BLOCK
  5
12A
100
AcDbEntity
  8
0
100
AcDbBlockBegin
  2
*PAPER_SPACE
 70
     0
 10
0.0
 20
0.0
 30
0.0
  3
*PAPER_SPACE
  1

  0
ENDBLK
  5
12B
100
AcDbEntity
  8
0
100
AcDbBlockEnd
  0
BLOCK
  5
12C
100
AcDbEntity
  8
0
100
AcDbBlockBegin
  2
*PAPER_SPACE0
 70
     0
 10
0.0
 20
0.0
 30
0.0
  3
*PAPER_SPACE0
  1

  0
ENDBLK
  5
12D
100
AcDbEntity
  8
0
100
AcDbBlockEnd
  0
BLOCK
  5
2
330
1
100
AcDbEntity
  8
0
100
AcDbBlockBegin
  2
_NONE
 70
     0
 10
0.0
 20
0.0
 30
0.0
  3
_NONE
  1

  0
ENDBLK
  5
3
330
1
100
AcDbEntity
  8
0
100
AcDbBlockEnd
  0
BLOCK
  5
5
330
4
100
AcDbEntity
  8
0
100
AcDbBlockBegin
  2
_CLOSED
 70
     0
 10
0.0
 20
0.0
 30
0.0
  3
_CLOSED
  1

  0
LINE
  5
6
330
4
100
AcDbEntity
  8
0
  6
BYBLOCK
 62
     0
370
    -2
100
AcDbLine
 10
-1.0
 20
0.166667
 30
0.0
 11
0.0
 21
0.0
 31
0.0
  0
LINE
  5
7
330
4
100
AcDbEntity
  8
0
  6
BYBLOCK
 62
     0
370
    -2
100
AcDbLine
 10
0.0
 20
0.0
 30
0.0
 11
-1.0
 21
-0.166667
 31
0.0
  0
LINE
  5
8
330
4
100
AcDbEntity
  8
0
  6
BYBLOCK
 62
     0
370
    -2
100
AcDbLine
 10
-1.0
 20
0.166667
 30
0.0
 11
-1.0
 21
-0.166667
 31
0.0
  0
LINE
  5
9
330
4
100
AcDbEntity
  8
0
  6
BYBLOCK
 62
     0
370
    -2
100
AcDbLine
 10
0.0
 20
0.0
 30
0.0
 11
-1.0
 21
0.0
 31
0.0
  0
ENDBLK
  5
A
330
4
100
AcDbEntity
  8
0
100
AcDbBlockEnd
  0
BLOCK
  5
C
330
B
100
AcDbEntity
  8
0
100
AcDbBlockBegin
  2
_DOT
 70
     0
 10
0.0
 20
0.0
 30
0.0
  3
_DOT
  1

  0
POLYLINE
  5
D
330
B
100
AcDbEntity
  8
0
  6
BYBLOCK
 62
     0
370
    -2
100
AcDb2dPolyline
 66
     1
 10
0.0
 20
0.0
 30
0.0
 70
     1
 40
0.5
 41
0.5
  0
VERTEX
  5
E
330
B
100
AcDbEntity
  8
0
  6
BYBLOCK
 62
     0
370
    -2
100
AcDbVertex
100
AcDb2dVertex
 10
-0.25
 20
0.0
 30
0.0
 42
1.0
  0
VERTEX
  5
F
330
B
100
AcDbEntity
  8
0
  6
BYBLOCK
 62
     0
370
    -2
100
AcDbVertex
100
AcDb2dVertex
 10
0.25
 20
0.0
 30
0.0
 42
1.0
  0
SEQEND
  5
10
330
B
100
AcDbEntity
  8
0
  6
BYBLOCK
 62
     0
370
    -2
  0
LINE
  5
11
330
B
100
AcDbEntity
  8
0
  6
BYBLOCK
 62
     0
370
    -2
100
AcDbLine
 10
-0.5
 20
0.0
 30
0.0
 11
-1.0
 21
0.0
 31
0.0
  0
ENDBLK
  5
12
330
B
100
AcDbEntity
  8
0
100
AcDbBlockEnd
  0
BLOCK
  5
14
330
13
100
AcDbEntity
  8
0
100
AcDbBlockBegin
  2
_OPEN
 70
     0
 10
0.0
 20
0.0
 30
0.0
  3
_OPEN
  1

  0
LINE
  5
15
330
13
100
AcDbEntity
  8
0
  6
BYBLOCK
 62
     0
370
    -2
100
AcDbLine
 10
-1.0
 20
0.166667
 30
0.0
 11
0.0
 21
0.0
 31
0.0
  0
LINE
  5
16
330
13
100
AcDbEntity
  8
0
  6
BYBLOCK
 62
     0
370
    -2
100
AcDbLine
 10
0.0
 20
0.0
 30
0.0
 11
-1.0
 21
-0.166667
 31
0.0
  0
LINE
  5
17
330
13
100
AcDbEntity
  8
0
  6
BYBLOCK
 62
     0
370
    -2
100
AcDbLine
 10
0.0
 20
0.0
 30
0.0
 11
-1.0
 21
0.0
 31
0.0
  0
ENDBLK
  5
18
330
13
100
AcDbEntity
  8
0
100
AcDbBlockEnd
  0
BLOCK
  5
1A
330
19
100
AcDbEntity
  8
0
100
AcDbBlockBegin
  2
_ORIGIN
 70
     0
 10
0.0
 20
0.0
 30
0.0
  3
_ORIGIN
  1

  0
CIRCLE
  5
1B
330
19
100
AcDbEntity
  8
0
  6
BYBLOCK
 62
     0
370
    -2
100
AcDbCircle
 10
0.0
 20
0.0
 30
0.0
 40
0.5
  0
LINE
  5
1C
330
19
100
AcDbEntity
  8
0
  6
BYBLOCK
 62
     0
370
    -2
100
AcDbLine
 10
0.0
 20
0.0
 30
0.0
 11
-1.0
 21
0.0
 31
0.0
  0
ENDBLK
  5
1D
330
19
100
AcDbEntity
  8
0
100
AcDbBlockEnd
  0
BLOCK
  5
1F
330
1E
100
AcDbEntity
  8
0
100
AcDbBlockBegin
  2
_OPEN30
 70
     0
 10
0.0
 20
0.0
 30
0.0
  3
_OPEN30
  1

  0
LINE
  5
20
330
1E
100
AcDbEntity
  8
0
  6
BYBLOCK
 62
     0
370
    -2
100
AcDbLine
 10
-1.0
 20
0.267949
 30
0.0
 11
0.0
 21
0.0
 31
0.0
  0
LINE
  5
21
330
1E
100
AcDbEntity
  8
0
  6
BYBLOCK
 62
     0
370
    -2
100
AcDbLine
 10
0.0
 20
0.0
 30
0.0
 11
-1.0
 21
-0.267949
 31
0.0
  0
LINE
  5
22
330
1E
100
AcDbEntity
  8
0
  6
BYBLOCK
 62
     0
370
    -2
100
AcDbLine
 10
0.0
 20
0.0
 30
0.0
 11
-1.0
 21
0.0
 31
0.0
  0
ENDBLK
  5
23
330
1E
100
AcDbEntity
  8
0
100
AcDbBlockEnd
  0
BLOCK
  5
25
330
24
100
AcDbEntity
  8
0
100
AcDbBlockBegin
  2
_BOXFILLED
 70
     0
 10
0.0
 20
0.0
 30
0.0
  3
_BOXFILLED
  1

  0
SOLID
  5
26
330
24
100
AcDbEntity
  8
0
  6
BYBLOCK
 62
     0
370
    -2
100
AcDbTrace
 10
-0.5
 20
0.5
 30
0.0
 11
0.5
 21
0.5
 31
0.0
 12
-0.5
 22
-0.5
 32
0.0
 13
0.5
 23
-0.5
 33
0.0
  0
LINE
  5
27
330
24
100
AcDbEntity
  8
0
  6
BYBLOCK
 62
     0
370
    -2
100
AcDbLine
 10
-0.5
 20
0.0
 30
0.0
 11
-1.0
 21
0.0
 31
0.0
  0
ENDBLK
  5
28
330
24
100
AcDbEntity
  8
0
100
AcDbBlockEnd
  0
BLOCK
  5
2A
330
29
100
AcDbEntity
  8
0
100
AcDbBlockBegin
  2
_BOXBLANK
 70
     0
 10
0.0
 20
0.0
 30
0.0
  3
_BOXBLANK
  1

  0
LINE
  5
2B
330
29
100
AcDbEntity
  8
0
  6
BYBLOCK
 62
     0
370
    -2
100
AcDbLine
 10
-0.5
 20
-0.5
 30
0.0
 11
0.5
 21
-0.5
 31
0.0
  0
LINE
  5
2C
330
29
100
AcDbEntity
  8
0
  6
BYBLOCK
 62
     0
370
    -2
100
AcDbLine
 10
0.5
 20
-0.5
 30
0.0
 11
0.5
 21
0.5
 31
0.0
  0
LINE
  5
2D
330
29
100
AcDbEntity
  8
0
  6
BYBLOCK
 62
     0
370
    -2
100
AcDbLine
 10
0.5
 20
0.5
 30
0.0
 11
-0.5
 21
0.5
 31
0.0
  0
LINE
  5
2E
330
29
100
AcDbEntity
  8
0
  6
BYBLOCK
 62
     0
370
    -2
100
AcDbLine
 10
-0.5
 20
0.5
 30
0.0
 11
-0.5
 21
-0.5
 31
0.0
  0
LINE
  5
2F
330
29
100
AcDbEntity
  8
0
  6
BYBLOCK
 62
     0
370
    -2
100
AcDbLine
 10
-0.5
 20
0.0
 30
0.0
 11
-1.0
 21
0.0
 31
0.0
  0
ENDBLK
  5
30
330
29
100
AcDbEntity
  8
0
100
AcDbBlockEnd
  0
BLOCK
  5
32
330
31
100
AcDbEntity
  8
0
100
AcDbBlockBegin
  2
_OBLIQUE
 70
     0
 10
0.0
 20
0.0
 30
0.0
  3
_OBLIQUE
  1

  0
LINE
  5
33
330
31
100
AcDbEntity
  8
0
  6
BYBLOCK
 62
     0
370
    -2
100
AcDbLine
 10
-0.5
 20
-0.5
 30
0.0
 11
0.5
 21
0.5
 31
0.0
  0
ENDBLK
  5
34
330
31
100
AcDbEntity
  8
0
100
AcDbBlockEnd
  0
BLOCK
  5
36
330
35
100
AcDbEntity
  8
0
100
AcDbBlockBegin
  2
_OPEN90
 70
     0
 10
0.0
 20
0.0
 30
0.0
  3
_OPEN90
  1

  0
LINE
  5
37
330
35
100
AcDbEntity
  8
0
  6
BYBLOCK
 62
     0
370
    -2
100
AcDbLine
 10
-0.5
 20
0.5
 30
0.0
 11
0.0
 21
0.0
 31
0.0
  0
LINE
  5
38
330
35
100
AcDbEntity
  8
0
  6
BYBLOCK
 62
     0
370
    -2
100
AcDbLine
 10
0.0
 20
0.0
 30
0.0
 11
-0.5
 21
-0.5
 31
0.0
  0
LINE
  5
39
330
35
100
AcDbEntity
  8
0
  6
BYBLOCK
 62
     0
370
    -2
100
AcDbLine
 10
0.0
 20
0.0
 30
0.0
 11
-1.0
 21
0.0
 31
0.0
  0
ENDBLK
  5
3A
330
35
100
AcDbEntity
  8
0
100
AcDbBlockEnd
  0
BLOCK
  5
3C
330
3B
100
AcDbEntity
  8
0
100
AcDbBlockBegin
  2
_CLOSEDBLANK
 70
     0
 10
0.0
 20
0.0
 30
0.0
  3
_CLOSEDBLANK
  1

  0
LINE
  5
3D
330
3B
100
AcDbEntity
  8
0
  6
BYBLOCK
 62
     0
370
    -2
100
AcDbLine
 10
-1.0
 20
0.1666666666666666
 30
0.0
 11
0.0
 21
0.0
 31
0.0
  0
LINE
  5
3E
330
3B
100
AcDbEntity
  8
0
  6
BYBLOCK
 62
     0
370
    -2
100
AcDbLine
 10
0.0
 20
0.0
 30
0.0
 11
-1.0
 21
-0.1666666666666666
 31
0.0
  0
LINE
  5
3F
330
3B
100
AcDbEntity
  8
0
  6
BYBLOCK
 62
     0
370
    -2
100
AcDbLine
 10
-1.0
 20
0.1666666666666666
 30
0.0
 11
-1.0
 21
-0.1666666666666666
 31
0.0
  0
ENDBLK
  5
40
330
3B
100
AcDbEntity
  8
0
100
AcDbBlockEnd
  0
BLOCK
  5
42
330
41
100
AcDbEntity
  8
0
100
AcDbBlockBegin
  2
_DOTBLANK
 70
     0
 10
0.0
 20
0.0
 30
0.0
  3
_DOTBLANK
  1

  0
CIRCLE
  5
43
330
41
100
AcDbEntity
  8
0
  6
BYBLOCK
 62
     0
370
    -2
100
AcDbCircle
 10
0.0
 20
0.0
 30
0.0
 40
0.5
  0
LINE
  5
44
330
41
100
AcDbEntity
  8
0
  6
BYBLOCK
 62
     0
370
    -2
100
AcDbLine
 10
-0.5
 20
0.0
 30
0.0
 11
-1.0
 21
0.0
 31
0.0
  0
ENDBLK
  5
45
330
41
100
AcDbEntity
  8
0
100
AcDbBlockEnd
  0
ENDSEC
  0
SECTION
  2
ENTITIES
  0
MTEXT
  5
46
100
AcDbEntity
  8
A8
  6
CONTINUOUS
 62
7
100
AcDbMText
 10
9.999997526638502
 20
18.00000076076889
 30
0.0000000000000000
 40
3.000000000000000
 41
0.0000000000000000
 44
0.6739999771118164
 71
     7
 72
     1
  1
{\H0.93x;{TYPE No.TH-175}}
 11
1.000000000000000
 21
0.0000000000000000
 31
0.0000000000000000
  7
STANDARD
  0
POINT
  5
47
100
AcDbEntity
  8
A0
  6
CONTINUOUS
 62
5
100
AcDbPoint
 10
9.999997526638502
 20
18.00000076076889
 30
0.0000000000000000
  0
LINE
  5
48
100
AcDbEntity
  8
A10
  6
CONTINUOUS
 62
7
100
AcDbLine
 10
100.1320995829866
 20
145.1758918499119
 30
0.0000000000000000
 11
100.1320995829867
 21
83.17589184991192
 31
0.0000000000000000
  0
LINE
  5
49
100
AcDbEntity
  8
A10
  6
CONTINUOUS
 62
7
100
AcDbLine
 10
121.1320995829865
 20
146.6758918499119
 30
0.0000000000000000
 11
101.6320995829867
 21
146.6758918499119
 31
0.0000000000000000
  0
LINE
  5
4A
100
AcDbEntity
  8
A10
  6
CONTINUOUS
 62
7
100
AcDbLine
 10
101.6320995829869
 20
81.67589184991182
 30
0.0000000000000000
 11
121.1320995829867
 21
81.67589184991185
 31
0.0000000000000000
  0
ARC
  5
4B
100
AcDbEntity
  8
A10
  6
CONTINUOUS
 62
7
100
AcDbCircle
 10
101.6320995829868
 20
145.1758918499119
 30
0.0000000000000000
 40
1.500000000000000
100
AcDbArc
 50
90.00000000000020
 51
180.0000000000002
  0
ARC
  5
4C
100
AcDbEntity
  8
A10
  6
CONTINUOUS
 62
7
100
AcDbCircle
 10
101.6320995829868
 20
83.17589184991178
 30
0.0000000000000000
 40
1.500000000000000
100
AcDbArc
 50
180.0000000000002
 51
270.0000000000002
  0
ARC
  5
4D
100
AcDbEntity
  8
A10
  6
CONTINUOUS
 62
7
100
AcDbCircle
 10
110.3820995829866
 20
94.17589184991184
 30
0.0000000000000000
 40
2.750000000000000
100
AcDbArc
 50
270.0000000000001
 51
450.0000000000001
  0
ARC
  5
4E
100
AcDbEntity
  8
A10
  6
CONTINUOUS
 62
7
100
AcDbCircle
 10
106.8820995829866
 20
94.17589184991184
 30
0.0000000000000000
 40
2.750000000000000
100
AcDbArc
 50
90.00000000000010
 51
270.0000000000001
  0
LINE
  5
4F
100
AcDbEntity
  8
A10
  6
CONTINUOUS
 62
7
100
AcDbLine
 10
106.8820995829867
 20
91.42589184991181
 30
0.0000000000000000
 11
110.3820995829867
 21
91.42589184991181
 31
0.0000000000000000
  0
LINE
  5
50
100
AcDbEntity
  8
A10
  6
CONTINUOUS
 62
7
100
AcDbLine
 10
106.8820995829867
 20
96.92589184991181
 30
0.0000000000000000
 11
110.3820995829867
 21
96.92589184991181
 31
0.0000000000000000
  0
LINE
  5
51
100
AcDbEntity
  8
A10
  6
CENTER
 62
1
100
AcDbLine
 10
108.6320995829867
 20
98.42589184991181
 30
0.0000000000000000
 11
108.6320995829868
 21
89.92589184991181
 31
0.0000000000000000
  0
ARC
  5
52
100
AcDbEntity
  8
A10
  6
CONTINUOUS
 62
7
100
AcDbCircle
 10
110.3820995829866
 20
134.1758918499120
 30
0.0000000000000000
 40
2.750000000000000
100
AcDbArc
 50
270.0000000000001
 51
450.0000000000001
  0
ARC
  5
53
100
AcDbEntity
  8
A10
  6
CONTINUOUS
 62
7
100
AcDbCircle
 10
106.8820995829866
 20
134.1758918499119
 30
0.0000000000000000
 40
2.750000000000000
100
AcDbArc
 50
90.00000000000010
 51
270.0000000000001
  0
LINE
  5
54
100
AcDbEntity
  8
A10
  6
CONTINUOUS
 62
7
100
AcDbLine
 10
106.8820995829866
 20
136.9258918499120
 30
0.0000000000000000
 11
110.3820995829866
 21
136.9258918499120
 31
0.0000000000000000
  0
LINE
  5
55
100
AcDbEntity
  8
A10
  6
CONTINUOUS
 62
7
100
AcDbLine
 10
106.8820995829866
 20
131.4258918499120
 30
0.0000000000000000
 11
110.3820995829866
 21
131.4258918499120
 31
0.0000000000000000
  0
LINE
  5
56
100
AcDbEntity
  8
A10
  6
CENTER
 62
1
100
AcDbLine
 10
108.6320995829866
 20
129.9258918499120
 30
0.0000000000000000
 11
108.6320995829866
 21
138.4258918499120
 31
0.0000000000000000
  0
LINE
  5
57
100
AcDbEntity
  8
A10
  6
CENTER
 62
1
100
AcDbLine
 10
102.6320995829865
 20
134.1758918499120
 30
0.0000000000000000
 11
114.6320995829865
 21
134.1758918499120
 31
0.0000000000000000
  0
LINE
  5
58
100
AcDbEntity
  8
A10
  6
CENTER
 62
1
100
AcDbLine
 10
102.6320995829867
 20
94.17589184991178
 30
0.0000000000000000
 11
114.6320995829867
 21
94.17589184991184
 31
0.0000000000000000
  0
LINE
  5
59
100
AcDbEntity
  8
A10
  6
CONTINUOUS
 62
7
100
AcDbLine
 10
160.1320995829871
 20
83.17589184993287
 30
0.0000000000000000
 11
160.1320995829872
 21
145.1758918499329
 31
0.0000000000000000
  0
LINE
  5
5A
100
AcDbEntity
  8
A10
  6
CONTINUOUS
 62
7
100
AcDbLine
 10
124.6320995829870
 20
81.67589184993297
 30
0.0000000000000000
 11
158.6320995829870
 21
81.67589184993297
 31
0.0000000000000000
  0
LINE
  5
5B
100
AcDbEntity
  8
A10
  6
CONTINUOUS
 62
7
100
AcDbLine
 10
158.6320995829871
 20
146.6758918499329
 30
0.0000000000000000
 11
124.6320995829871
 21
146.6758918499329
 31
0.0000000000000000
  0
ARC
  5
5C
100
AcDbEntity
  8
A10
  6
CONTINUOUS
 62
7
100
AcDbCircle
 10
158.6320995829870
 20
83.17589184993298
 30
0.0000000000000000
 40
1.500000000000000
100
AcDbArc
 50
270.0000000000000
 51
360.0000000000000
  0
ARC
  5
5D
100
AcDbEntity
  8
A10
  6
CONTINUOUS
 62
7
100
AcDbCircle
 10
158.6320995829871
 20
145.1758918499330
 30
0.0000000000000000
 40
1.500000000000000
100
AcDbArc
 50
0.0000000000000000
 51
90.00000000000000
  0
CIRCLE
  5
5E
100
AcDbEntity
  8
A10
  6
CONTINUOUS
 62
7
100
AcDbCircle
 10
150.1320995829869
 20
94.17589184993287
 30
0.0000000000000000
 40
2.750000000000000
  0
LINE
  5
5F
100
AcDbEntity
  8
A10
  6
CENTER
 62
1
100
AcDbLine
 10
154.3820995829869
 20
94.17589184993281
 30
0.0000000000000000
 11
145.8820995829869
 21
94.17589184993282
 31
0.0000000000000000
  0
LINE
  5
60
100
AcDbEntity
  8
A10
  6
CENTER
 62
1
100
AcDbLine
 10
150.1320995829869
 20
89.92589184993281
 30
0.0000000000000000
 11
150.1320995829869
 21
98.42589184993284
 31
0.0000000000000000
  0
CIRCLE
  5
61
100
AcDbEntity
  8
A10
  6
CONTINUOUS
 62
7
100
AcDbCircle
 10
150.1320995829870
 20
134.1758918499329
 30
0.0000000000000000
 40
2.750000000000000
  0
LINE
  5
62
100
AcDbEntity
  8
A10
  6
CENTER
 62
1
100
AcDbLine
 10
154.3820995829870
 20
134.1758918499328
 30
0.0000000000000000
 11
145.8820995829870
 21
134.1758918499328
 31
0.0000000000000000
  0
LINE
  5
63
100
AcDbEntity
  8
A10
  6
CENTER
 62
1
100
AcDbLine
 10
150.1320995829870
 20
138.4258918499328
 30
0.0000000000000000
 11
150.1320995829870
 21
129.9258918499328
 31
0.0000000000000000
  0
LINE
  5
64
100
AcDbEntity
  8
A14
  6
CENTER
 62
1
100
AcDbLine
 10
130.1320995829872
 20
148.6758918499328
 30
0.0000000000000000
 11
130.1320995829872
 21
79.67589184993294
 31
0.0000000000000000
  0
LINE
  5
65
100
AcDbEntity
  8
A10
  6
CONTINUOUS
 62
7
100
AcDbLine
 10
38.13209958276018
 20
81.67589184991186
 30
0.0000000000000000
 11
38.13209958276018
 21
146.6758918499118
 31
0.0000000000000000
  0
LINE
  5
66
100
AcDbEntity
  8
A10
  6
CONTINUOUS
 62
7
100
AcDbLine
 10
40.13209958276023
 20
81.67589184991044
 30
0.0000000000000000
 11
40.13209958276023
 21
146.6758918499104
 31
0.0000000000000000
  0
LINE
  5
67
100
AcDbEntity
  8
A10
  6
CENTER
 62
1
100
AcDbLine
 10
50.63209958301285
 20
114.1758918499105
 30
0.0000000000000000
 11
36.63209958276018
 21
114.1758918499118
 31
0.0000000000000000
  0
LINE
  5
68
100
AcDbEntity
  8
A10
  6
CONTINUOUS
 62
7
100
AcDbLine
 10
49.13209958276124
 20
146.6758918499105
 30
0.0000000000000000
 11
38.13209958276016
 21
146.6758918499118
 31
0.0000000000000000
  0
LINE
  5
69
100
AcDbEntity
  8
A10
  6
CONTINUOUS
 62
7
100
AcDbLine
 10
49.13209958276438
 20
81.67589184991050
 30
0.0000000000000000
 11
38.13209958276017
 21
81.67589184991178
 31
0.0000000000000000
  0
LINE
  5
6A
100
AcDbEntity
  8
A10
  6
CONTINUOUS
 62
7
100
AcDbLine
 10
49.13209958276205
 20
130.6758918499104
 30
0.0000000000000000
 11
42.58209958276022
 21
130.6758918499104
 31
0.0000000000000000
  0
LINE
  5
6B
100
AcDbEntity
  8
A10
  6
CONTINUOUS
 62
7
100
AcDbLine
 10
49.13209958276359
 20
97.67589184991044
 30
0.0000000000000000
 11
40.13209958276023
 21
97.67589184991044
 31
0.0000000000000000
  0
LINE
  5
6C
100
AcDbEntity
  8
A10
  6
CONTINUOUS
 62
7
100
AcDbLine
 10
42.63209958276020
 20
98.67589184991039
 30
0.0000000000000000
 11
43.63209958276020
 21
97.67589184991037
 31
0.0000000000000000
  0
LINE
  5
6D
100
AcDbEntity
  8
A10
  6
CONTINUOUS
 62
7
100
AcDbLine
 10
42.63209958276021
 20
129.6758918499103
 30
0.0000000000000000
 11
43.63209958276023
 21
130.6758918499103
 31
0.0000000000000000
  0
LINE
  5
6E
100
AcDbEntity
  8
A10
  6
CENTER
 62
1
100
AcDbLine
 10
41.63209958276023
 20
94.17589184991044
 30
0.0000000000000000
 11
36.63209958276018
 21
94.17589184991184
 31
0.0000000000000000
  0
LINE
  5
6F
100
AcDbEntity
  8
A10
  6
CENTER
 62
1
100
AcDbLine
 10
41.63209958276022
 20
134.1758918499103
 30
0.0000000000000000
 11
36.63209958276016
 21
134.1758918499117
 31
0.0000000000000000
  0
LINE
  5
70
100
AcDbEntity
  8
A10
  6
CENTER
 62
1
100
AcDbLine
 10
43.63209958276023
 20
148.6758918499314
 30
0.0000000000000000
 11
43.63209958276023
 21
79.67589184993153
 31
0.0000000000000000
  0
LINE
  5
71
100
AcDbEntity
  8
A10
  6
CONTINUOUS
 62
7
100
AcDbLine
 10
49.13209958276379
 20
94.57589184983449
 30
0.0000000000000000
 11
40.13209958285125
 21
94.57589184982207
 31
0.0000000000000000
  0
LINE
  5
72
100
AcDbEntity
  8
A10
  6
CONTINUOUS
 62
7
100
AcDbLine
 10
49.13209958276181
 20
133.7758918499865
 30
0.0000000000000000
 11
40.13209958285125
 21
133.7758918499989
 31
0.0000000000000000
  0
SPLINE
  5
73
100
AcDbEntity
  8
A14
  6
CONTINUOUS
 62
7
100
AcDbSpline
210
0.0000000000000000
220
0.0000000000000000
230
1.000000000000000
 70
     8
 71
     3
 72
    14
 73
    10
 74
     0
 42
1.000000000000000e-07
 43
1.000000000000000e-07
 12
0.0000000000000000
 22
-1.439548106460052
 32
0.0000000000000000
 13
-1.429788191874763
 23
0.0000000000000000
 33
0.0000000000000000
 40
0.0000000000000000
 40
0.0000000000000000
 40
0.0000000000000000
 40
0.0000000000000000
 40
0.1825514452340335
 40
0.3678804006172183
 40
0.4622609181934876
 40
0.6390569632618966
 40
0.7362568653629893
 40
0.9245172250940340
 40
1.106459818670249
 40
1.106459818670249
 40
1.106459818670249
 40
1.106459818670249
 10
42.58209958276021
 20
118.8758918499104
 30
0.0000000000000000
 10
42.58209958276021
 20
118.7882946541376
 30
0.0000000000000000
 10
42.56463213931241
 20
118.6949608558106
 30
0.0000000000000000
 10
42.49404533020865
 20
118.5236006384789
 30
0.0000000000000000
 10
42.44093503768354
 20
118.4455815451371
 30
0.0000000000000000
 10
42.31672547657942
 20
118.3197688809012
 30
0.0000000000000000
 10
42.23647498171366
 20
118.2649265702072
 30
0.0000000000000000
 10
42.06248994409864
 20
118.1930157244872
 30
0.0000000000000000
 10
41.96881270672500
 20
118.1758918499104
 30
0.0000000000000000
 10
41.88209958276022
 20
118.1758918499104
 30
0.0000000000000000
  0
LINE
  5
74
100
AcDbEntity
  8
A14
  6
CONTINUOUS
 62
7
100
AcDbLine
 10
42.58209958276022
 20
130.6758918499104
 30
0.0000000000000000
 11
42.58209958276022
 21
118.8758918499104
 31
0.0000000000000000
  0
LINE
  5
75
100
AcDbEntity
  8
A14
  6
CONTINUOUS
 62
7
100
AcDbLine
 10
40.13209958276023
 20
114.6758918499104
 30
0.0000000000000000
 11
40.63209958276023
 21
114.6758918499104
 31
0.0000000000000000
  0
LINE
  5
76
100
AcDbEntity
  8
A10
  6
CONTINUOUS
 62
7
100
AcDbLine
 10
49.03209958276027
 20
133.7758918499104
 30
0.0000000000000000
 11
49.03209958276027
 21
130.6758918499104
 31
0.0000000000000000
  0
LINE
  5
77
100
AcDbEntity
  8
A10
  6
CONTINUOUS
 62
7
100
AcDbLine
 10
49.03209958276027
 20
94.57589184991036
 30
0.0000000000000000
 11
49.03209958276027
 21
97.67589184991033
 31
0.0000000000000000
  0
LINE
  5
78
100
AcDbEntity
  8
A14
  6
CONTINUOUS
 62
7
100
AcDbLine
 10
42.58209958276022
 20
97.67589184991039
 30
0.0000000000000000
 11
42.58209958276022
 21
109.4758918499104
 31
0.0000000000000000
  0
SPLINE
  5
79
100
AcDbEntity
  8
A14
  6
CONTINUOUS
 62
7
100
AcDbSpline
210
0.0000000000000000
220
0.0000000000000000
230
1.000000000000000
 70
     8
 71
     3
 72
    14
 73
    10
 74
     0
 42
1.000000000000000e-07
 43
1.000000000000000e-07
 12
0.0000000000000000
 22
1.439548106459142
 32
0.0000000000000000
 13
-1.429788191874763
 23
0.0000000000000000
 33
0.0000000000000000
 40
0.0000000000000000
 40
0.0000000000000000
 40
0.0000000000000000
 40
0.0000000000000000
 40
0.1825514452340335
 40
0.3678804006172183
 40
0.4622609181934876
 40
0.6390569632618966
 40
0.7362568653629893
 40
0.9245172250940340
 40
1.106459818670249
 40
1.106459818670249
 40
1.106459818670249
 40
1.106459818670249
 10
42.58209958276021
 20
109.4758918499104
 30
0.0000000000000000
 10
42.58209958276021
 20
109.5634890456831
 30
0.0000000000000000
 10
42.56463213931241
 20
109.6568228440102
 30
0.0000000000000000
 10
42.49404533020865
 20
109.8281830613419
 30
0.0000000000000000
 10
42.44093503768354
 20
109.9062021546836
 30
0.0000000000000000
 10
42.31672547657942
 20
110.0320148189196
 30
0.0000000000000000
 10
42.23647498171366
 20
110.0868571296136
 30
0.0000000000000000
 10
42.06248994409864
 20
110.1587679753336
 30
0.0000000000000000
 10
41.96881270672500
 20
110.1758918499104
 30
0.0000000000000000
 10
41.88209958276022
 20
110.1758918499104
 30
0.0000000000000000
  0
LINE
  5
7A
100
AcDbEntity
  8
A14
  6
CONTINUOUS
 62
7
100
AcDbLine
 10
40.13209958276023
 20
113.6758918499104
 30
0.0000000000000000
 11
40.63209958276023
 21
113.6758918499104
 31
0.0000000000000000
  0
LINE
  5
7B
100
AcDbEntity
  8
A10
  6
CONTINUOUS
 62
7
100
AcDbLine
 10
40.13209958276019
 20
110.1758918499104
 30
0.0000000000000000
 11
42.13209958276019
 21
110.1758918499104
 31
0.0000000000000000
  0
LINE
  5
7C
100
AcDbEntity
  8
A10
  6
CONTINUOUS
 62
7
100
AcDbLine
 10
40.13209958276016
 20
118.1758918499104
 30
0.0000000000000000
 11
42.13209958276028
 21
118.1758918499105
 31
0.0000000000000000
  0
LINE
  5
7D
100
AcDbEntity
  8
A14
  6
CONTINUOUS
 62
7
100
AcDbLine
 10
46.83209958276035
 20
81.17589184991050
 30
0.0000000000000000
 11
47.13209958276035
 21
81.47589184991051
 31
0.0000000000000000
  0
LINE
  5
7E
100
AcDbEntity
  8
A14
  6
CONTINUOUS
 62
7
100
AcDbLine
 10
46.83209958276039
 20
81.17589184991044
 30
0.0000000000000000
 11
40.43209958276042
 21
81.17589184991044
 31
0.0000000000000000
  0
LINE
  5
7F
100
AcDbEntity
  8
A14
  6
CONTINUOUS
 62
7
100
AcDbLine
 10
40.13209958276040
 20
81.47589184991045
 30
0.0000000000000000
 11
47.13209958276040
 21
81.47589184991045
 31
0.0000000000000000
  0
LINE
  5
80
100
AcDbEntity
  8
A14
  6
CONTINUOUS
 62
7
100
AcDbLine
 10
47.13209958276040
 20
81.47589184991045
 30
0.0000000000000000
 11
47.13209958276040
 21
81.67589184991044
 31
0.0000000000000000
  0
LINE
  5
81
100
AcDbEntity
  8
A14
  6
CONTINUOUS
 62
7
100
AcDbLine
 10
40.13209958276040
 20
81.47589184991045
 30
0.0000000000000000
 11
40.13209958276040
 21
81.67589184991044
 31
0.0000000000000000
  0
LINE
  5
82
100
AcDbEntity
  8
A14
  6
CONTINUOUS
 62
7
100
AcDbLine
 10
40.43209958276034
 20
81.17589184991046
 30
0.0000000000000000
 11
40.13209958276035
 21
81.47589184991045
 31
0.0000000000000000
  0
LINE
  5
83
100
AcDbEntity
  8
A14
  6
CONTINUOUS
 62
7
100
AcDbLine
 10
46.83209958276036
 20
147.1758918499103
 30
0.0000000000000000
 11
47.13209958276035
 21
146.8758918499103
 31
0.0000000000000000
  0
LINE
  5
84
100
AcDbEntity
  8
A14
  6
CONTINUOUS
 62
7
100
AcDbLine
 10
46.83209958276039
 20
147.1758918499103
 30
0.0000000000000000
 11
40.43209958276042
 21
147.1758918499103
 31
0.0000000000000000
  0
LINE
  5
85
100
AcDbEntity
  8
A14
  6
CONTINUOUS
 62
7
100
AcDbLine
 10
40.13209958276040
 20
146.8758918499103
 30
0.0000000000000000
 11
47.13209958276040
 21
146.8758918499103
 31
0.0000000000000000
  0
LINE
  5
86
100
AcDbEntity
  8
A14
  6
CONTINUOUS
 62
7
100
AcDbLine
 10
47.13209958276040
 20
146.8758918499103
 30
0.0000000000000000
 11
47.13209958276040
 21
146.6758918499103
 31
0.0000000000000000
  0
LINE
  5
87
100
AcDbEntity
  8
A14
  6
CONTINUOUS
 62
7
100
AcDbLine
 10
40.13209958276040
 20
146.8758918499103
 30
0.0000000000000000
 11
40.13209958276040
 21
146.6758918499103
 31
0.0000000000000000
  0
LINE
  5
88
100
AcDbEntity
  8
A14
  6
CONTINUOUS
 62
7
100
AcDbLine
 10
40.43209958276031
 20
147.1758918499103
 30
0.0000000000000000
 11
40.13209958276031
 21
146.8758918499103
 31
0.0000000000000000
  0
LINE
  5
89
100
AcDbEntity
  8
A10
  6
CONTINUOUS
 62
7
100
AcDbLine
 10
49.13209958276125
 20
146.6758918499106
 30
0.0000000000000000
 11
49.13209958276182
 21
133.7758918499865
 31
0.0000000000000000
  0
LINE
  5
8A
100
AcDbEntity
  8
A10
  6
CONTINUOUS
 62
7
100
AcDbLine
 10
49.13209958276200
 20
130.6758918499105
 30
0.0000000000000000
 11
49.13209958276357
 21
97.67589184991043
 31
0.0000000000000000
  0
LINE
  5
8B
100
AcDbEntity
  8
A10
  6
CONTINUOUS
 62
7
100
AcDbLine
 10
49.13209958276378
 20
94.57589184983446
 30
0.0000000000000000
 11
49.13209958276435
 21
81.67589184991526
 31
0.0000000000000000
  0
LINE
  5
8C
100
AcDbEntity
  8
A10
  6
CONTINUOUS
 62
7
100
AcDbLine
 10
122.1320995829867
 20
96.67589184991181
 30
0.0000000000000000
 11
122.1320995829867
 21
82.67589184991186
 31
0.0000000000000000
  0
ARC
  5
8D
100
AcDbEntity
  8
A10
  6
CONTINUOUS
 62
7
100
AcDbCircle
 10
121.1320995829867
 20
82.67589184991186
 30
0.0000000000000000
 40
1.000000000000000
100
AcDbArc
 50
270.0000000000002
 51
360.0000000000002
  0
LINE
  5
8E
100
AcDbEntity
  8
A10
  6
CONTINUOUS
 62
7
100
AcDbLine
 10
122.1320995829865
 20
145.6758918499119
 30
0.0000000000000000
 11
122.1320995829871
 21
131.6758918499119
 31
0.0000000000000000
  0
ARC
  5
8F
100
AcDbEntity
  8
A10
  6
CONTINUOUS
 62
7
100
AcDbCircle
 10
121.1320995829865
 20
145.6758918499119
 30
0.0000000000000000
 40
1.000000000000000
100
AcDbArc
 50
2.035554996136651e-13
 51
90.00000000000020
  0
LINE
  5
90
100
AcDbEntity
  8
A14
  6
CONTINUOUS
 62
7
100
AcDbLine
 10
126.9320995829869
 20
81.17589184993297
 30
0.0000000000000000
 11
133.3320995829870
 21
81.17589184993297
 31
0.0000000000000000
  0
LINE
  5
91
100
AcDbEntity
  8
A14
  6
CONTINUOUS
 62
7
100
AcDbLine
 10
133.3320995829870
 20
81.17589184993282
 30
0.0000000000000000
 11
133.6320995829871
 21
81.47589184993286
 31
0.0000000000000000
  0
LINE
  5
92
100
AcDbEntity
  8
A14
  6
CONTINUOUS
 62
7
100
AcDbLine
 10
133.6320995829870
 20
81.47589184993292
 30
0.0000000000000000
 11
126.6320995829869
 21
81.47589184993296
 31
0.0000000000000000
  0
LINE
  5
93
100
AcDbEntity
  8
A14
  6
CONTINUOUS
 62
7
100
AcDbLine
 10
133.6320995829870
 20
81.47589184993292
 30
0.0000000000000000
 11
133.6320995829870
 21
81.67589184993297
 31
0.0000000000000000
  0
LINE
  5
94
100
AcDbEntity
  8
A14
  6
CONTINUOUS
 62
7
100
AcDbLine
 10
126.9320995829870
 20
81.17589184993282
 30
0.0000000000000000
 11
126.6320995829869
 21
81.47589184993286
 31
0.0000000000000000
  0
LINE
  5
95
100
AcDbEntity
  8
A14
  6
CONTINUOUS
 62
7
100
AcDbLine
 10
126.6320995829869
 20
81.47589184993298
 30
0.0000000000000000
 11
126.6320995829869
 21
81.67589184993297
 31
0.0000000000000000
  0
LINE
  5
96
100
AcDbEntity
  8
A14
  6
CONTINUOUS
 62
7
100
AcDbLine
 10
126.9320995829870
 20
147.1758918499327
 30
0.0000000000000000
 11
133.3320995829872
 21
147.1758918499327
 31
0.0000000000000000
  0
LINE
  5
97
100
AcDbEntity
  8
A14
  6
CONTINUOUS
 62
7
100
AcDbLine
 10
133.3320995829872
 20
147.1758918499327
 30
0.0000000000000000
 11
133.6320995829872
 21
146.8758918499327
 31
0.0000000000000000
  0
LINE
  5
98
100
AcDbEntity
  8
A14
  6
CONTINUOUS
 62
7
100
AcDbLine
 10
133.6320995829872
 20
146.8758918499328
 30
0.0000000000000000
 11
126.6320995829871
 21
146.8758918499327
 31
0.0000000000000000
  0
LINE
  5
99
100
AcDbEntity
  8
A14
  6
CONTINUOUS
 62
7
100
AcDbLine
 10
133.6320995829872
 20
146.8758918499327
 30
0.0000000000000000
 11
133.6320995829872
 21
146.6758918499327
 31
0.0000000000000000
  0
LINE
  5
9A
100
AcDbEntity
  8
A14
  6
CONTINUOUS
 62
7
100
AcDbLine
 10
126.9320995829871
 20
147.1758918499327
 30
0.0000000000000000
 11
126.6320995829870
 21
146.8758918499327
 31
0.0000000000000000
  0
LINE
  5
9B
100
AcDbEntity
  8
A14
  6
CONTINUOUS
 62
7
100
AcDbLine
 10
126.6320995829870
 20
146.8758918499327
 30
0.0000000000000000
 11
126.6320995829870
 21
146.6758918499327
 31
0.0000000000000000
  0
LINE
  5
9C
100
AcDbEntity
  8
A10
  6
CONTINUOUS
 62
7
100
AcDbLine
 10
135.6320995829871
 20
146.6758918499328
 30
0.0000000000000000
 11
135.6320995829871
 21
134.7758918499329
 31
0.0000000000000000
  0
LINE
  5
9D
100
AcDbEntity
  8
A10
  6
CONTINUOUS
 62
7
100
AcDbLine
 10
124.6320995829871
 20
146.6758918499328
 30
0.0000000000000000
 11
124.6320995829871
 21
134.7758918499329
 31
0.0000000000000000
  0
LINE
  5
9E
100
AcDbEntity
  8
A10
  6
CONTINUOUS
 62
7
100
AcDbLine
 10
135.6320995829871
 20
93.57589184993289
 30
0.0000000000000000
 11
135.6320995829871
 21
81.67589184991660
 31
0.0000000000000000
  0
LINE
  5
9F
100
AcDbEntity
  8
A10
  6
CONTINUOUS
 62
7
100
AcDbLine
 10
124.6320995829871
 20
93.57589184993289
 30
0.0000000000000000
 11
124.6320995829871
 21
81.67589184991660
 31
0.0000000000000000
  0
LINE
  5
A0
100
AcDbEntity
  8
A14
  6
CONTINUOUS
 62
7
100
AcDbLine
 10
100.1320995829861
 20
36.02701227999041
 30
0.0000000000000000
 11
100.1320995829861
 21
34.02701227999041
 31
0.0000000000000000
  0
LINE
  5
A1
100
AcDbEntity
  8
A14
  6
CONTINUOUS
 62
7
100
AcDbLine
 10
122.1320995829868
 20
34.02701227999041
 30
0.0000000000000000
 11
122.1320995829868
 21
36.02701227999041
 31
0.0000000000000000
  0
LINE
  5
A2
100
AcDbEntity
  8
A14
  6
CONTINUOUS
 62
7
100
AcDbLine
 10
160.1320995829865
 20
34.02701227999075
 30
0.0000000000000000
 11
160.1320995829865
 21
36.02701227999075
 31
0.0000000000000000
  0
LINE
  5
A3
100
AcDbEntity
  8
A14
  6
CONTINUOUS
 62
7
100
AcDbLine
 10
133.0655910012165
 20
37.61792137089979
 30
0.0000000000000000
 11
134.7418718116335
 21
36.52701227999067
 31
0.0000000000000000
  0
LINE
  5
A4
100
AcDbEntity
  8
A14
  6
CONTINUOUS
 62
7
100
AcDbLine
 10
135.2104914389676
 20
37.41515618709215
 30
0.0000000000000000
 11
133.4887625095446
 21
38.53564252179017
 31
0.0000000000000000
  0
CIRCLE
  5
A5
100
AcDbEntity
  8
A14
  6
CONTINUOUS
 62
7
100
AcDbCircle
 10
130.1320995829875
 20
39.52701227999064
 30
0.0000000000000000
 40
3.500000000000001
  0
CIRCLE
  5
A6
100
AcDbEntity
  8
A14
  6
CONTINUOUS
 62
7
100
AcDbCircle
 10
130.1320995829877
 20
39.52701227999064
 30
0.0000000000000000
 40
3.200000000000001
  0
ARC
  5
A7
100
AcDbEntity
  8
A14
  6
CONTINUOUS
 62
7
100
AcDbCircle
 10
130.1320995829815
 20
39.52701227999042
 30
0.0000000000000000
 40
5.400000000000037
100
AcDbArc
 50
319.5978747434200
 51
326.9442688491491
  0
LINE
  5
A8
100
AcDbEntity
  8
A7
  6
CENTER
 62
1
100
AcDbLine
 10
123.1320995829803
 20
39.52701227999064
 30
0.0000000000000000
 11
137.1320995829806
 21
39.52701227999064
 31
0.0000000000000000
  0
LINE
  5
A9
100
AcDbEntity
  8
A7
  6
CENTER
 62
1
100
AcDbLine
 10
130.1320995829872
 20
32.52701227999035
 30
0.0000000000000000
 11
130.1320995829872
 21
46.52701227999069
 31
0.0000000000000000
  0
LINE
  5
AA
100
AcDbEntity
  8
A14
  6
CONTINUOUS
 62
7
100
AcDbLine
 10
100.1320995829861
 20
36.02701227999041
 30
0.0000000000000000
 11
125.8894588958619
 21
36.02701227999044
 31
0.0000000000000000
  0
LINE
  5
AB
100
AcDbEntity
  8
A14
  6
CONTINUOUS
 62
7
100
AcDbLine
 10
130.1320995829873
 20
36.02701227999064
 30
0.0000000000000000
 11
160.1320995829865
 21
36.02701227999076
 31
0.0000000000000000
  0
ARC
  5
AC
100
AcDbEntity
  8
A14
  6
CONTINUOUS
 62
7
100
AcDbCircle
 10
130.1320995829805
 20
39.52701227999053
 30
0.0000000000000000
 40
5.500000000000177
100
AcDbArc
 50
320.4788036413611
 51
630.0000000000000
  0
LINE
  5
AD
100
AcDbEntity
  8
A14
  6
CONTINUOUS
 62
7
100
AcDbLine
 10
100.1320995829862
 20
34.02701227999047
 30
0.0000000000000000
 11
160.1320995829865
 21
34.02701227999070
 31
0.0000000000000000
  0
LINE
  5
AE
100
AcDbEntity
  8
A10
  6
CENTER
 62
1
100
AcDbLine
 10
108.6320995828799
 20
37.52701227999044
 30
0.0000000000000000
 11
108.6320995828800
 21
32.52701227999022
 31
0.0000000000000000
  0
LINE
  5
AF
100
AcDbEntity
  8
A10
  6
CENTER
 62
1
100
AcDbLine
 10
150.1320995828800
 20
37.52701227999052
 30
0.0000000000000000
 11
150.1320995828800
 21
32.52701227999029
 31
0.0000000000000000
  0
ARC
  5
B0
100
AcDbEntity
  8
A10
  6
CONTINUOUS
 62
7
100
AcDbCircle
 10
42.13209958276028
 20
118.6758918499104
 30
0.0000000000000000
 40
0.5000000000000000
100
AcDbArc
 50
270.0000000000000
 51
360.0000000000000
  0
ARC
  5
B1
100
AcDbEntity
  8
A10
  6
CONTINUOUS
 62
7
100
AcDbCircle
 10
41.13209958276022
 20
117.6758918499104
 30
0.0000000000000000
 40
0.5000000000000000
100
AcDbArc
 50
90.00000000000000
 51
180.0000000000000
  0
LINE
  5
B2
100
AcDbEntity
  8
A10
  6
CONTINUOUS
 62
7
100
AcDbLine
 10
40.63209958276023
 20
110.6758918499104
 30
0.0000000000000000
 11
40.63209958276023
 21
117.6758918499104
 31
0.0000000000000000
  0
ARC
  5
B3
100
AcDbEntity
  8
A10
  6
CONTINUOUS
 62
7
100
AcDbCircle
 10
41.13209958276022
 20
110.6758918499104
 30
0.0000000000000000
 40
0.5000000000000000
100
AcDbArc
 50
180.0000000000000
 51
270.0000000000000
  0
ARC
  5
B4
100
AcDbEntity
  8
A10
  6
CONTINUOUS
 62
7
100
AcDbCircle
 10
42.13209958276022
 20
109.6758918499104
 30
0.0000000000000000
 40
0.5000000000000000
100
AcDbArc
 50
0.0000000000000000
 51
90.00000000000000
  0
LINE
  5
B5
100
AcDbEntity
  8
A10
  6
CONTINUOUS
 62
7
100
AcDbLine
 10
42.63209958276023
 20
129.6758918499104
 30
0.0000000000000000
 11
42.63209958276023
 21
118.6758918499104
 31
0.0000000000000000
  0
LINE
  5
B6
100
AcDbEntity
  8
A10
  6
CONTINUOUS
 62
7
100
AcDbLine
 10
42.63209958276023
 20
109.6758918499104
 30
0.0000000000000000
 11
42.63209958276023
 21
98.67589184991044
 31
0.0000000000000000
  0
CIRCLE
  5
B7
100
AcDbEntity
  8
A10
  6
CONTINUOUS
 62
1
100
AcDbCircle
 10
151.3820995829870
 20
114.1758918499329
 30
0.0000000000000000
 40
2.000000000000000
  0
CIRCLE
  5
B8
100
AcDbEntity
  8
A10
  6
CONTINUOUS
 62
7
100
AcDbCircle
 10
151.3820995829870
 20
114.1758918499329
 30
0.0000000000000000
 40
1.621000000000000
  0
LINE
  5
B9
100
AcDbEntity
  8
A10
  6
CENTER
 62
1
100
AcDbLine
 10
151.3820995829870
 20
110.6758918499328
 30
0.0000000000000000
 11
151.3820995829870
 21
117.6758918499328
 31
0.0000000000000000
  0
CIRCLE
  5
BA
100
AcDbEntity
  8
A10
  6
CONTINUOUS
 62
1
100
AcDbCircle
 10
108.8820995829867
 20
114.1758918499119
 30
0.0000000000000000
 40
2.000000000000000
  0
CIRCLE
  5
BB
100
AcDbEntity
  8
A10
  6
CONTINUOUS
 62
7
100
AcDbCircle
 10
108.8820995829867
 20
114.1758918499119
 30
0.0000000000000000
 40
1.621000000000000
  0
LINE
  5
BC
100
AcDbEntity
  8
A10
  6
CENTER
 62
1
100
AcDbLine
 10
108.8820995829868
 20
110.6758918499118
 30
0.0000000000000000
 11
108.8820995829868
 21
117.6758918499119
 31
0.0000000000000000
  0
LINE
  5
BD
100
AcDbEntity
  8
A10
  6
CONTINUOUS
 62
7
100
AcDbLine
 10
135.6320995829872
 20
130.6758918499120
 30
0.0000000000000000
 11
123.1320995829871
 21
130.6758918499119
 31
0.0000000000000000
  0
LINE
  5
BE
100
AcDbEntity
  8
A10
  6
CONTINUOUS
 62
7
100
AcDbLine
 10
135.6320995829871
 20
97.67589184991198
 30
0.0000000000000000
 11
123.1320995829868
 21
97.67589184991192
 31
0.0000000000000000
  0
ARC
  5
BF
100
AcDbEntity
  8
A10
  6
CONTINUOUS
 62
7
100
AcDbCircle
 10
123.1320995829867
 20
96.67589184991186
 30
0.0000000000000000
 40
1.000000000000000
100
AcDbArc
 50
90.00000000000020
 51
180.0000000000002
  0
ARC
  5
C0
100
AcDbEntity
  8
A10
  6
CONTINUOUS
 62
7
100
AcDbCircle
 10
123.1320995829871
 20
131.6758918499119
 30
0.0000000000000000
 40
1.000000000000000
100
AcDbArc
 50
180.0000000000002
 51
270.0000000000002
  0
LINE
  5
C1
100
AcDbEntity
  8
A10
  6
CONTINUOUS
 62
7
100
AcDbLine
 10
137.1320995829870
 20
134.7758918499329
 30
0.0000000000000000
 11
124.6320995829871
 21
134.7758918499329
 31
0.0000000000000000
  0
LINE
  5
C2
100
AcDbEntity
  8
A10
  6
CONTINUOUS
 62
7
100
AcDbLine
 10
137.1320995829869
 20
93.57589184993289
 30
0.0000000000000000
 11
124.6320995829870
 21
93.57589184993289
 31
0.0000000000000000
  0
LINE
  5
C3
100
AcDbEntity
  8
A10
  6
CONTINUOUS
 62
7
100
AcDbLine
 10
138.1320995829871
 20
133.7758918499330
 30
0.0000000000000000
 11
138.1320995829870
 21
94.57589184993299
 31
0.0000000000000000
  0
ARC
  5
C4
100
AcDbEntity
  8
A10
  6
CONTINUOUS
 62
7
100
AcDbCircle
 10
137.1320995829869
 20
94.57589184993293
 30
0.0000000000000000
 40
1.000000000000000
100
AcDbArc
 50
270.0000000000000
 51
360.0000000000000
  0
ARC
  5
C5
100
AcDbEntity
  8
A10
  6
CONTINUOUS
 62
7
100
AcDbCircle
 10
137.1320995829870
 20
133.7758918499329
 30
0.0000000000000000
 40
1.000000000000000
100
AcDbArc
 50
0.0000000000000000
 51
90.00000000000000
  0
LINE
  5
C6
100
AcDbEntity
  8
A10
  6
CONTINUOUS
 62
7
100
AcDbLine
 10
124.7320995829870
 20
133.7758918499119
 30
0.0000000000000000
 11
124.7320995829870
 21
130.6758918499119
 31
0.0000000000000000
  0
LINE
  5
C7
100
AcDbEntity
  8
A10
  6
CONTINUOUS
 62
7
100
AcDbLine
 10
135.5320995829871
 20
133.7758918499119
 30
0.0000000000000000
 11
135.5320995829871
 21
130.6758918499119
 31
0.0000000000000000
  0
LINE
  5
C8
100
AcDbEntity
  8
A10
  6
CONTINUOUS
 62
7
100
AcDbLine
 10
135.6320995829870
 20
133.7758918499119
 30
0.0000000000000000
 11
124.6320995829871
 21
133.7758918499119
 31
0.0000000000000000
  0
LINE
  5
C9
100
AcDbEntity
  8
A10
  6
CONTINUOUS
 62
7
100
AcDbLine
 10
124.6320995829871
 20
134.7758918499329
 30
0.0000000000000000
 11
124.6320995829871
 21
133.7758918499119
 31
0.0000000000000000
  0
LINE
  5
CA
100
AcDbEntity
  8
A10
  6
CONTINUOUS
 62
7
100
AcDbLine
 10
135.6320995829871
 20
134.7758918499329
 30
0.0000000000000000
 11
135.6320995829871
 21
133.7758918499120
 31
0.0000000000000000
  0
LINE
  5
CB
100
AcDbEntity
  8
A10
  6
CONTINUOUS
 62
7
100
AcDbLine
 10
135.5320995829870
 20
94.57589184995368
 30
0.0000000000000000
 11
135.5320995829870
 21
97.67589184995370
 31
0.0000000000000000
  0
LINE
  5
CC
100
AcDbEntity
  8
A10
  6
CONTINUOUS
 62
7
100
AcDbLine
 10
135.6320995829870
 20
94.57589184995369
 30
0.0000000000000000
 11
124.6320995829870
 21
94.57589184995378
 31
0.0000000000000000
  0
LINE
  5
CD
100
AcDbEntity
  8
A10
  6
CONTINUOUS
 62
7
100
AcDbLine
 10
135.6320995829870
 20
93.57589184993276
 30
0.0000000000000000
 11
135.6320995829870
 21
94.57589184995368
 31
0.0000000000000000
  0
LINE
  5
CE
100
AcDbEntity
  8
A10
  6
CONTINUOUS
 62
7
100
AcDbLine
 10
124.7320995829870
 20
94.57589184995372
 30
0.0000000000000000
 11
124.7320995829870
 21
97.67589184995374
 31
0.0000000000000000
  0
LINE
  5
CF
100
AcDbEntity
  8
A10
  6
CONTINUOUS
 62
7
100
AcDbLine
 10
124.6320995829870
 20
93.57589184993280
 30
0.0000000000000000
 11
124.6320995829870
 21
94.57589184995372
 31
0.0000000000000000
  0
LINE
  5
D0
100
AcDbEntity
  8
A10
  6
CONTINUOUS
 62
7
100
AcDbLine
 10
135.6320995829872
 20
130.6758918499119
 30
0.0000000000000000
 11
135.6320995829871
 21
97.67589184991192
 31
0.0000000000000000
  0
LINE
  5
D1
100
AcDbEntity
  8
A10
  6
CONTINUOUS
 62
7
100
AcDbLine
 10
124.6320995829871
 20
130.6758918499119
 30
0.0000000000000000
 11
124.6320995829871
 21
97.67589184991193
 31
0.0000000000000000
  0
LINE
  5
D2
100
AcDbEntity
  8
A10
  6
CONTINUOUS
 62
7
100
AcDbLine
 10
49.13209958276381
 20
93.57589184983449
 30
0.0000000000000000
 11
40.13209958285124
 21
93.57589184982207
 31
0.0000000000000000
  0
LINE
  5
D3
100
AcDbEntity
  8
A10
  6
CONTINUOUS
 62
7
100
AcDbLine
 10
49.13209958276182
 20
134.7758918499865
 30
0.0000000000000000
 11
40.13209958285124
 21
134.7758918499989
 31
0.0000000000000000
  0
ARC
  5
D4
100
AcDbEntity
  8
A10
  6
CONTINUOUS
 62
1
100
AcDbCircle
 10
117.1320995829868
 20
117.5091850373322
 30
0.0000000000000000
 40
1.431765911236078
100
AcDbArc
 50
35.53767779200084
 51
76.53743939173309
  0
ARC
  5
D5
100
AcDbEntity
  8
A10
  6
CONTINUOUS
 62
1
100
AcDbCircle
 10
112.4654891206028
 20
114.1758918499117
 30
0.0000000000000000
 40
7.166580352953972
100
AcDbArc
 50
324.4623222079991
 51
395.5376777920009
  0
ARC
  5
D6
100
AcDbEntity
  8
A10
  6
CONTINUOUS
 62
1
100
AcDbCircle
 10
117.1320995829868
 20
110.8425986624913
 30
0.0000000000000000
 40
1.431765911236079
100
AcDbArc
 50
242.2496545546281
 51
324.4623222079992
  0
ARC
  5
D7
100
AcDbEntity
  8
A10
  6
CONTINUOUS
 62
1
100
AcDbCircle
 10
117.1320995829868
 20
117.5091850373322
 30
0.0000000000000000
 40
1.431765911236078
100
AcDbArc
 50
90.00000000000000
 51
144.4623222080521
  0
ARC
  5
D8
100
AcDbEntity
  8
A10
  6
CONTINUOUS
 62
1
100
AcDbCircle
 10
121.7987100453799
 20
114.1758918499117
 30
0.0000000000000000
 40
7.166580352953972
100
AcDbArc
 50
144.4623222080520
 51
215.5376777919479
  0
ARC
  5
D9
100
AcDbEntity
  8
A10
  6
CONTINUOUS
 62
1
100
AcDbCircle
 10
117.1320995829868
 20
110.8425986624913
 30
0.0000000000000000
 40
1.431765911236079
100
AcDbArc
 50
215.5376777919479
 51
225.6988392796171
  0
LINE
  5
DA
100
AcDbEntity
  8
A10
  6
CONTINUOUS
 62
1
100
AcDbLine
 10
118.6558093547474
 20
117.7869594696172
 30
0.0000000000000000
 11
116.2610274988342
 21
117.7869594696172
 31
0.0000000000000000
  0
LINE
  5
DB
100
AcDbEntity
  8
A10
  6
CONTINUOUS
 62
1
100
AcDbLine
 10
116.1071126056890
 20
117.2314106050471
 30
0.0000000000000000
 11
118.1570865602938
 21
117.2314106050471
 31
0.0000000000000000
  0
ARC
  5
DC
100
AcDbEntity
  8
A10
  6
CONTINUOUS
 62
1
100
AcDbCircle
 10
118.1570865602938
 20
116.9536361727621
 30
0.0000000000000000
 40
0.2777744322850376
100
AcDbArc
 50
26.01436599963663
 51
90.00000000000000
  0
ARC
  5
DD
100
AcDbEntity
  8
A10
  6
CONTINUOUS
 62
1
100
AcDbCircle
 10
112.4654891206028
 20
114.1758918499117
 30
0.0000000000000000
 40
6.611031488383896
100
AcDbArc
 50
22.94395355653779
 51
26.01436599963663
  0
ARC
  5
DE
100
AcDbEntity
  8
A10
  6
CONTINUOUS
 62
1
100
AcDbCircle
 10
118.5023398386871
 20
116.7314166269341
 30
0.0000000000000000
 40
0.05555488645700751
100
AcDbArc
 50
270.0000000000000
 51
382.9439535565375
  0
LINE
  5
DF
100
AcDbEntity
  8
A10
  6
CONTINUOUS
 62
1
100
AcDbLine
 10
118.5023398386871
 20
116.6758617404771
 30
0.0000000000000000
 11
115.7618593272955
 21
116.6758617404770
 31
0.0000000000000000
  0
ARC
  5
E0
100
AcDbEntity
  8
A10
  6
CONTINUOUS
 62
1
100
AcDbCircle
 10
115.7618593272955
 20
116.7314166269341
 30
0.0000000000000000
 40
0.05555488645700751
100
AcDbArc
 50
157.0560464434623
 51
270.0000000000000
  0
ARC
  5
E1
100
AcDbEntity
  8
A10
  6
CONTINUOUS
 62
1
100
AcDbCircle
 10
121.7987100453799
 20
114.1758918499117
 30
0.0000000000000000
 40
6.611031488383896
100
AcDbArc
 50
153.9856340003634
 51
157.0560464434622
  0
ARC
  5
E2
100
AcDbEntity
  8
A10
  6
CONTINUOUS
 62
1
100
AcDbCircle
 10
116.1071126056889
 20
116.9536361727621
 30
0.0000000000000000
 40
0.2777744322850376
100
AcDbArc
 50
90.00000000000000
 51
153.9856340003634
  0
LINE
  5
E3
100
AcDbEntity
  8
A10
  6
CONTINUOUS
 62
1
100
AcDbLine
 10
117.7987582204708
 20
115.5647640113369
 30
0.0000000000000000
 11
118.8598541384726
 21
115.5647640113369
 31
0.0000000000000000
  0
ARC
  5
E4
100
AcDbEntity
  8
A10
  6
CONTINUOUS
 62
1
100
AcDbCircle
 10
118.8598541384725
 20
115.6203188977939
 30
0.0000000000000000
 40
0.05555488645700751
100
AcDbArc
 50
270.0000000000000
 51
372.7289438731227
  0
ARC
  5
E5
100
AcDbEntity
  8
A10
  6
CONTINUOUS
 62
1
100
AcDbCircle
 10
112.4654891206028
 20
114.1758918499117
 30
0.0000000000000000
 40
6.611031488383896
100
AcDbArc
 50
12.72894387312263
 51
13.26811897055621
  0
ARC
  5
E6
100
AcDbEntity
  8
A10
  6
CONTINUOUS
 62
1
100
AcDbCircle
 10
112.4654891206028
 20
114.1758918499117
 30
0.0000000000000000
 40
6.611031488383896
100
AcDbArc
 50
13.26811897055626
 51
15.25752329045639
  0
ARC
  5
E7
100
AcDbEntity
  8
A10
  6
CONTINUOUS
 62
1
100
AcDbCircle
 10
118.5755164585366
 20
115.8425384436220
 30
0.0000000000000000
 40
0.2777744322850376
100
AcDbArc
 50
15.25752329045642
 51
90.00000000000000
  0
LINE
  5
E8
100
AcDbEntity
  8
A10
  6
CONTINUOUS
 62
1
100
AcDbLine
 10
118.5755164585367
 20
116.1203128759070
 30
0.0000000000000000
 11
115.6886827074460
 21
116.1203128759070
 31
0.0000000000000000
  0
ARC
  5
E9
100
AcDbEntity
  8
A10
  6
CONTINUOUS
 62
1
100
AcDbCircle
 10
115.6886827074460
 20
115.8425384436220
 30
0.0000000000000000
 40
0.2777744322850376
100
AcDbArc
 50
90.00000000000000
 51
164.7424767095436
  0
ARC
  5
EA
100
AcDbEntity
  8
A10
  6
CONTINUOUS
 62
1
100
AcDbCircle
 10
121.7987100453799
 20
114.1758918499117
 30
0.0000000000000000
 40
6.611031488383896
100
AcDbArc
 50
164.7424767095436
 51
164.7937121239420
  0
ARC
  5
EB
100
AcDbEntity
  8
A10
  6
CONTINUOUS
 62
1
100
AcDbCircle
 10
121.7987100453799
 20
114.1758918499117
 30
0.0000000000000000
 40
6.611031488383896
100
AcDbArc
 50
164.7937121239420
 51
167.2710561268773
  0
ARC
  5
EC
100
AcDbEntity
  8
A10
  6
CONTINUOUS
 62
1
100
AcDbCircle
 10
115.4043450275101
 20
115.6203188977939
 30
0.0000000000000000
 40
0.05555488645700751
100
AcDbArc
 50
167.2710561268775
 51
270.0000000000000
  0
LINE
  5
ED
100
AcDbEntity
  8
A10
  6
CONTINUOUS
 62
1
100
AcDbLine
 10
115.4043450275101
 20
115.5647640113369
 30
0.0000000000000000
 11
116.4654409455027
 21
115.5647640113369
 31
0.0000000000000000
  0
LINE
  5
EE
100
AcDbEntity
  8
A10
  6
CONTINUOUS
 62
1
100
AcDbLine
 10
119.0237899389033
 20
115.0092151467669
 30
0.0000000000000000
 11
115.2404092270795
 21
115.0092151467668
 31
0.0000000000000000
  0
LINE
  5
EF
100
AcDbEntity
  8
A10
  6
CONTINUOUS
 62
1
100
AcDbLine
 10
119.0706824338353
 20
114.4536662821967
 30
0.0000000000000000
 11
115.1935167321474
 21
114.4536662821967
 31
0.0000000000000000
  0
LINE
  5
F0
100
AcDbEntity
  8
A10
  6
CONTINUOUS
 62
1
100
AcDbLine
 10
117.1320995829867
 20
114.4536662821967
 30
0.0000000000000000
 11
117.1320995829867
 21
115.0092151467669
 31
0.0000000000000000
  0
LINE
  5
F1
100
AcDbEntity
  8
A10
  6
CONTINUOUS
 62
1
100
AcDbLine
 10
119.0706824338353
 20
113.8981174176267
 30
0.0000000000000000
 11
115.1935167321474
 21
113.8981174176267
 31
0.0000000000000000
  0
LINE
  5
F2
100
AcDbEntity
  8
A10
  6
CONTINUOUS
 62
1
100
AcDbLine
 10
117.7987582204708
 20
112.7870196884865
 30
0.0000000000000000
 11
118.7005197359988
 21
112.7870196884865
 31
0.0000000000000000
  0
ARC
  5
F3
100
AcDbEntity
  8
A10
  6
CONTINUOUS
 62
1
100
AcDbCircle
 10
118.7005197359988
 20
113.0647941207716
 30
0.0000000000000000
 40
0.2777744322850376
100
AcDbArc
 50
270.0000000000000
 51
349.8958172838749
  0
ARC
  5
F4
100
AcDbEntity
  8
A10
  6
CONTINUOUS
 62
1
100
AcDbCircle
 10
112.4654891206028
 20
114.1758918499117
 30
0.0000000000000000
 40
6.611031488383896
100
AcDbArc
 50
349.8958172838750
 51
352.2070756645776
  0
ARC
  5
F5
100
AcDbEntity
  8
A10
  6
CONTINUOUS
 62
1
100
AcDbCircle
 10
118.9604232275543
 20
113.2870136665996
 30
0.0000000000000000
 40
0.05555488645700751
100
AcDbArc
 50
352.2070756645773
 51
450.0000000000000
  0
LINE
  5
F6
100
AcDbEntity
  8
A10
  6
CONTINUOUS
 62
1
100
AcDbLine
 10
118.9604232275542
 20
113.3425685530566
 30
0.0000000000000000
 11
115.3037759384285
 21
113.3425685530566
 31
0.0000000000000000
  0
ARC
  5
F7
100
AcDbEntity
  8
A10
  6
CONTINUOUS
 62
1
100
AcDbCircle
 10
115.3037759384285
 20
113.2870136665996
 30
0.0000000000000000
 40
0.05555488645700751
100
AcDbArc
 50
90.00000000000000
 51
187.7929243354228
  0
ARC
  5
F8
100
AcDbEntity
  8
A10
  6
CONTINUOUS
 62
1
100
AcDbCircle
 10
121.7987100453799
 20
114.1758918499117
 30
0.0000000000000000
 40
6.611031488383896
100
AcDbArc
 50
187.7929243354224
 51
190.1041827161250
  0
ARC
  5
F9
100
AcDbEntity
  8
A10
  6
CONTINUOUS
 62
1
100
AcDbCircle
 10
115.5636794299840
 20
113.0647941207716
 30
0.0000000000000000
 40
0.2777744322850376
100
AcDbArc
 50
190.1041827161250
 51
270.0000000000000
  0
LINE
  5
FA
100
AcDbEntity
  8
A10
  6
CONTINUOUS
 62
1
100
AcDbLine
 10
115.5636794299840
 20
112.7870196884865
 30
0.0000000000000000
 11
117.1320995829867
 21
112.7870196884865
 31
0.0000000000000000
  0
LINE
  5
FB
100
AcDbEntity
  8
A10
  6
CONTINUOUS
 62
1
100
AcDbLine
 10
117.1320995829867
 20
112.7870196884865
 30
0.0000000000000000
 11
117.1320995829867
 21
113.0647941207715
 31
0.0000000000000000
  0
LINE
  5
FC
100
AcDbEntity
  8
A10
  6
CONTINUOUS
 62
1
100
AcDbLine
 10
118.9582845081812
 20
112.2314708239164
 30
0.0000000000000000
 11
115.4800896093931
 21
112.2314708239164
 31
0.0000000000000000
  0
LINE
  5
FD
100
AcDbEntity
  8
A10
  6
CONTINUOUS
 62
1
100
AcDbLine
 10
118.6965584709132
 20
111.6759219593464
 30
0.0000000000000000
 11
117.4098740152719
 21
111.6759219593464
 31
0.0000000000000000
  0
ARC
  5
FE
100
AcDbEntity
  8
A10
  6
CONTINUOUS
 62
1
100
AcDbCircle
 10
117.4098740152719
 20
111.3981475270614
 30
0.0000000000000000
 40
0.2777744322850389
100
AcDbArc
 50
90.00000000000000
 51
270.0000000000000
  0
LINE
  5
FF
100
AcDbEntity
  8
A10
  6
CONTINUOUS
 62
1
100
AcDbLine
 10
117.4098740152719
 20
111.1203730947763
 30
0.0000000000000000
 11
118.5966951263310
 21
111.1203730947763
 31
0.0000000000000000
  0
LINE
  5
100
100
AcDbEntity
  8
A10
  6
CONTINUOUS
 62
1
100
AcDbLine
 10
117.1320995829867
 20
111.3981475270613
 30
0.0000000000000000
 11
115.7995539532888
 21
111.3981475270613
 31
0.0000000000000000
  0
LINE
  5
101
100
AcDbEntity
  8
A10
  6
CONTINUOUS
 62
1
100
AcDbLine
 10
116.0924920812060
 20
110.8375069281657
 30
0.0000000000000000
 11
118.4346585298766
 21
110.2099253197031
 31
0.0000000000000000
  0
LINE
  5
102
100
AcDbEntity
  8
A10
  6
CONTINUOUS
 62
1
100
AcDbLine
 10
117.1320995829867
 20
109.4108327512552
 30
0.0000000000000000
 11
117.1320995829867
 21
110.5589449376173
 31
0.0000000000000000
  0
LINE
  5
103
100
AcDbEntity
  8
A10
  6
CENTER
 62
1
100
AcDbLine
 10
98.63209958298670
 20
114.1758918499118
 30
0.0000000000000000
 11
113.0134648720928
 21
114.1758918499166
 31
0.0000000000000000
  0
LINE
  5
104
100
AcDbEntity
  8
A10
  6
CENTER
 62
1
100
AcDbLine
 10
121.6487159551778
 20
114.1758918499195
 30
0.0000000000000000
 11
161.6320995829872
 21
114.1758918499328
 31
0.0000000000000000
  0
ENDSEC
  0
SECTION
  2
OBJECTS
  0
DICTIONARY
  5
12E
100
AcDbDictionary
  3
ACAD_GROUP
350
12F
  3
ACAD_LAYOUT
350
130
  3
ACAD_MLINESTYLE
350
131
  0
DICTIONARY
  5
12F
102
{ACAD_REACTORS
330
12E
102
}
330
12E
100
AcDbDictionary
  0
DICTIONARY
  5
130
102
{ACAD_REACTORS
330
12E
102
}
330
12E
100
AcDbDictionary
  3
Model
350
132
  3
ﾚｲｱｳﾄ1
350
133
  3
ﾚｲｱｳﾄ2
350
134
  0
DICTIONARY
  5
131
102
{ACAD_REACTORS
330
12E
102
}
330
12E
100
AcDbDictionary
  3
STANDARD
350
135
  0
LAYOUT
  5
132
102
{ACAD_REACTORS
330
130
102
}
330
130
100
AcDbPlotSettings
 70
11952
  4
A3
 44
297.000000
 45
420.000000
 73
  1
 72
  1
100
AcDbLayout
  1
Model
 71
0
330
125
  0
LAYOUT
  5
133
102
{ACAD_REACTORS
330
130
102
}
330
130
100
AcDbPlotSettings
100
AcDbLayout
  1
ﾚｲｱｳﾄ1
 71
1
330
126
  0
LAYOUT
  5
134
102
{ACAD_REACTORS
330
130
102
}
330
130
100
AcDbPlotSettings
100
AcDbLayout
  1
ﾚｲｱｳﾄ2
 71
2
330
127
  0
MLINESTYLE
  5
135
102
{ACAD_REACTORS
330
131
102
}
330
131
100
AcDbMlineStyle
  2
STANDARD
 70
     0
  3

 62
   256
 51
90.00
 52
90.00
 71
     2
 49
0.50
 62
   256
  6
BYLAYER
 49
-0.50
 62
   256
  6
BYLAYER
  0
ENDSEC
  0
EOF
