  0
SECTION
  2
HEADER
  9
$ACADVER
  1
AC1015
  9
$DWGCODEPAGE
  3
ANSI_932
  9
$LTSCALE
 40
20.0
  9
$FILLMODE
 70
     1
  9
$CLAYER
  8
0
  9
$PDMODE
 70
     0
  9
$SPLFRAME
 70
     0
  9
$SPLINETYPE
 70
     6
  9
$SPLINESEGS
 70
     8
  9
$DIMASZ
 40
2.000000
  9
$DIMEXE
 40
1.500000
  9
$DIMEXO
 40
0.800000
  9
$DIMTAD
 70
     1
  9
$DIMTIH
 70
     0
  9
$DIMTOH
 70
     0
  9
$DIMTVP
 40
0.500000
  9
$DIMTXT
 40
3.100000
  9
$EXTMIN
 10
0.000000
 20
0.000000
 30
0.000000
  9
$EXTMAX
 10
297.000000
 20
420.000000
 30
0.000000
  9
$MEASUREMENT
 70
  1
  9
$LIMMIN
 10
0.000000
 20
0.000000
  9
$LIMMAX
 10
297.000000
 20
420.000000
  9
$HANDSEED
  5
122
  9
$LWDISPLAY
290
     0
  9
$DIMBLK
  1
_OPEN
  9
$DIMDEC
 70
     2
  9
$DIMADEC
 70
     2
  9
$DIMAUNIT
 70
     0
  9
$DIMZIN
 70
     8
  9
$DIMAZIN
 70
     2
  9
$DIMTOFL
 70
     1
  0
ENDSEC
  0
SECTION
  2
CLASSES
  0
ENDSEC
  0
SECTION
  2
TABLES
  0
TABLE
  2
VPORT
  5
F2
100
AcDbSymbolTable
 70
     1
  0
VPORT
  5
F3
100
AcDbSymbolTableRecord
100
AcDbViewportTableRecord
  2
*ACTIVE
 70
     0
 12
210.000000
 22
147.007551
 40
291.419539
 41
1.963149
  0
ENDTAB
  0
TABLE
  2
LTYPE
  5
F4
100
AcDbSymbolTable
 70
     2
  0
LTYPE
  5
F5
100
AcDbSymbolTableRecord
100
AcDbLinetypeTableRecord
  2
BYBLOCK
 70
     0
  3

 72
    65
 73
     0
 40
0.0
  0
LTYPE
  5
F6
100
AcDbSymbolTableRecord
100
AcDbLinetypeTableRecord
  2
BYLAYER
 70
     0
  3

 72
    65
 73
     0
 40
0.0
  0
LTYPE
  5
F7
100
AcDbSymbolTableRecord
100
AcDbLinetypeTableRecord
  2
CONTINUOUS
 70
     0
  3
Solid line (NEC CAE2D for Win R15.2 : 2020.01.15)
 72
    65
 73
     0
 40
0.0
  0
LTYPE
  5
F8
100
AcDbSymbolTableRecord
100
AcDbLinetypeTableRecord
  2
CENTER
 70
     0
  3
____ _ ____ _ ____ _ ____ _ ____ _ ____
 72
    65
 73
     4
 40
2.0
 49
1.25
 74
     0
 49
-0.25
 74
     0
 49
0.25
 74
     0
 49
-0.25
 74
     0
  0
ENDTAB
  0
TABLE
  2
LAYER
  5
F9
100
AcDbSymbolTable
 70
    10
  0
LAYER
  5
FA
100
AcDbSymbolTableRecord
100
AcDbLayerTableRecord
  2
0
 70
     0
 62
     7
  6
CONTINUOUS
370
    -3
390

  0
LAYER
  5
FB
100
AcDbSymbolTableRecord
100
AcDbLayerTableRecord
  2
A0
 70
     0
 62
     9
  6
CONTINUOUS
370
    -3
390

  0
LAYER
  5
FC
100
AcDbSymbolTableRecord
100
AcDbLayerTableRecord
  2
A1
 70
     0
 62
     1
  6
CONTINUOUS
370
    -3
390

  0
LAYER
  5
FD
100
AcDbSymbolTableRecord
100
AcDbLayerTableRecord
  2
A8
 70
     0
 62
    10
  6
CONTINUOUS
370
    -3
390

  0
LAYER
  5
FE
100
AcDbSymbolTableRecord
100
AcDbLayerTableRecord
  2
A10
 70
     0
 62
     6
  6
CONTINUOUS
370
    -3
390

  0
LAYER
  5
FF
100
AcDbSymbolTableRecord
100
AcDbLayerTableRecord
  2
A20
 70
     0
 62
     1
  6
CONTINUOUS
370
    -3
390

  0
LAYER
  5
100
100
AcDbSymbolTableRecord
100
AcDbLayerTableRecord
  2
A30
 70
     0
 62
     1
  6
CONTINUOUS
370
    -3
390

  0
LAYER
  5
101
100
AcDbSymbolTableRecord
100
AcDbLayerTableRecord
  2
A40
 70
     0
 62
     9
  6
CONTINUOUS
370
    -3
390

  0
LAYER
  5
102
100
AcDbSymbolTableRecord
100
AcDbLayerTableRecord
  2
A50
 70
     0
 62
    12
  6
CONTINUOUS
370
    -3
390

  0
LAYER
  5
103
100
AcDbSymbolTableRecord
100
AcDbLayerTableRecord
  2
A1023
 70
     0
 62
    16
  6
CONTINUOUS
370
    -3
390

  0
ENDTAB
  0
TABLE
  2
STYLE
  5
104
100
AcDbSymbolTable
 70
     4
  0
STYLE
  5
105
100
AcDbSymbolTableRecord
100
AcDbTextStyleTableRecord
  2
STANDARD
 70
    64
 40
0.0
 41
1.0
 50
0.0
 71
     0
 42
3.000000000000000
  3
TXT
  4

  0
STYLE
  5
106
100
AcDbSymbolTableRecord
100
AcDbTextStyleTableRecord
  2
ANKTATE
 70
    68
 40
0.0
 41
1.0
 50
0.0
 71
     0
 42
3.000000000000000
  3
TXT
  4

  0
STYLE
  5
107
100
AcDbSymbolTableRecord
100
AcDbTextStyleTableRecord
  2
KNJYOKO
 70
    64
 40
0.0
 41
1.0
 50
0.0
 71
     0
 42
3.000000000000000
  3
TXT
  4
BIGFONT
  0
STYLE
  5
108
100
AcDbSymbolTableRecord
100
AcDbTextStyleTableRecord
  2
KNJTATE
 70
    68
 40
0.0
 41
1.0
 50
0.0
 71
     0
 42
3.000000000000000
  3
TXT
  4
BIGFONT
  0
ENDTAB
  0
TABLE
  2
VIEW
  5
109
100
AcDbSymbolTable
 70
     0
  0
ENDTAB
  0
TABLE
  2
UCS
  5
10A
100
AcDbSymbolTable
 70
     0
  0
ENDTAB
  0
TABLE
  2
APPID
  5
10B
100
AcDbSymbolTable
 70
     1
  0
APPID
  5
10C
100
AcDbSymbolTableRecord
100
AcDbRegAppTableRecord
  2
ACAD
 70
     0
  0
ENDTAB
  0
TABLE
  2
DIMSTYLE
  5
10D
100
AcDbSymbolTable
 70
     2
100
AcDbDimStyleTable
  0
DIMSTYLE
105
10E
100
AcDbSymbolTableRecord
100
AcDbDimStyleTableRecord
  2
STANDARD
 70
     0
 41
2.000000
 44
1.500000
 42
0.800000
145
0.661290
140
3.100000
144
1.000000
146
0.645161
340
105
  0
DIMSTYLE
105
10F
100
AcDbSymbolTableRecord
100
AcDbDimStyleTableRecord
  2
A001
 70
     0
 41
2.000000
 44
1.500000
 42
0.800000
145
0.661290
140
3.100000
144
1.000000
146
0.645161
 77
     1
 73
     0
 74
     0
271
     2
179
     2
275
     0
 78
     8
 79
     2
172
     1
340
105
  0
ENDTAB
  0
TABLE
  2
BLOCK_RECORD
  5
110
100
AcDbSymbolTable
 70
    12
  0
BLOCK_RECORD
  5
111
100
AcDbSymbolTableRecord
100
AcDbBlockTableRecord
  2
*MODEL_SPACE
  0
BLOCK_RECORD
  5
112
100
AcDbSymbolTableRecord
100
AcDbBlockTableRecord
  2
*PAPER_SPACE
  0
BLOCK_RECORD
  5
113
100
AcDbSymbolTableRecord
100
AcDbBlockTableRecord
  2
*PAPER_SPACE0
  0
BLOCK_RECORD
  5
1
100
AcDbSymbolTableRecord
100
AcDbBlockTableRecord
  2
_NONE
  0
BLOCK_RECORD
  5
4
100
AcDbSymbolTableRecord
100
AcDbBlockTableRecord
  2
_CLOSED
  0
BLOCK_RECORD
  5
B
100
AcDbSymbolTableRecord
100
AcDbBlockTableRecord
  2
_DOT
  0
BLOCK_RECORD
  5
13
100
AcDbSymbolTableRecord
100
AcDbBlockTableRecord
  2
_OPEN
  0
BLOCK_RECORD
  5
19
100
AcDbSymbolTableRecord
100
AcDbBlockTableRecord
  2
_ORIGIN
  0
BLOCK_RECORD
  5
1E
100
AcDbSymbolTableRecord
100
AcDbBlockTableRecord
  2
_OPEN30
  0
BLOCK_RECORD
  5
24
100
AcDbSymbolTableRecord
100
AcDbBlockTableRecord
  2
_BOXFILLED
  0
BLOCK_RECORD
  5
29
100
AcDbSymbolTableRecord
100
AcDbBlockTableRecord
  2
_BOXBLANK
  0
BLOCK_RECORD
  5
31
100
AcDbSymbolTableRecord
100
AcDbBlockTableRecord
  2
_OBLIQUE
  0
BLOCK_RECORD
  5
35
100
AcDbSymbolTableRecord
100
AcDbBlockTableRecord
  2
_OPEN90
  0
BLOCK_RECORD
  5
3B
100
AcDbSymbolTableRecord
100
AcDbBlockTableRecord
  2
_CLOSEDBLANK
  0
BLOCK_RECORD
  5
41
100
AcDbSymbolTableRecord
100
AcDbBlockTableRecord
  2
_DOTBLANK
  0
ENDTAB
  0
ENDSEC
  0
SECTION
  2
BLOCKS
  0
BLOCK
  5
114
100
AcDbEntity
  8
0
100
AcDbBlockBegin
  2
*MODEL_SPACE
 70
     0
 10
0.0
 20
0.0
 30
0.0
  3
*MODEL_SPACE
  1

  0
ENDBLK
  5
115
100
AcDbEntity
  8
0
100
AcDbBlockEnd
  0
BLOCK
  5
116
100
AcDbEntity
  8
0
100
AcDbBlockBegin
  2
*PAPER_SPACE
 70
     0
 10
0.0
 20
0.0
 30
0.0
  3
*PAPER_SPACE
  1

  0
ENDBLK
  5
117
100
AcDbEntity
  8
0
100
AcDbBlockEnd
  0
BLOCK
  5
118
100
AcDbEntity
  8
0
100
AcDbBlockBegin
  2
*PAPER_SPACE0
 70
     0
 10
0.0
 20
0.0
 30
0.0
  3
*PAPER_SPACE0
  1

  0
ENDBLK
  5
119
100
AcDbEntity
  8
0
100
AcDbBlockEnd
  0
BLOCK
  5
2
330
1
100
AcDbEntity
  8
0
100
AcDbBlockBegin
  2
_NONE
 70
     0
 10
0.0
 20
0.0
 30
0.0
  3
_NONE
  1

  0
ENDBLK
  5
3
330
1
100
AcDbEntity
  8
0
100
AcDbBlockEnd
  0
BLOCK
  5
5
330
4
100
AcDbEntity
  8
0
100
AcDbBlockBegin
  2
_CLOSED
 70
     0
 10
0.0
 20
0.0
 30
0.0
  3
_CLOSED
  1

  0
LINE
  5
6
330
4
100
AcDbEntity
  8
0
  6
BYBLOCK
 62
     0
370
    -2
100
AcDbLine
 10
-1.0
 20
0.166667
 30
0.0
 11
0.0
 21
0.0
 31
0.0
  0
LINE
  5
7
330
4
100
AcDbEntity
  8
0
  6
BYBLOCK
 62
     0
370
    -2
100
AcDbLine
 10
0.0
 20
0.0
 30
0.0
 11
-1.0
 21
-0.166667
 31
0.0
  0
LINE
  5
8
330
4
100
AcDbEntity
  8
0
  6
BYBLOCK
 62
     0
370
    -2
100
AcDbLine
 10
-1.0
 20
0.166667
 30
0.0
 11
-1.0
 21
-0.166667
 31
0.0
  0
LINE
  5
9
330
4
100
AcDbEntity
  8
0
  6
BYBLOCK
 62
     0
370
    -2
100
AcDbLine
 10
0.0
 20
0.0
 30
0.0
 11
-1.0
 21
0.0
 31
0.0
  0
ENDBLK
  5
A
330
4
100
AcDbEntity
  8
0
100
AcDbBlockEnd
  0
BLOCK
  5
C
330
B
100
AcDbEntity
  8
0
100
AcDbBlockBegin
  2
_DOT
 70
     0
 10
0.0
 20
0.0
 30
0.0
  3
_DOT
  1

  0
POLYLINE
  5
D
330
B
100
AcDbEntity
  8
0
  6
BYBLOCK
 62
     0
370
    -2
100
AcDb2dPolyline
 66
     1
 10
0.0
 20
0.0
 30
0.0
 70
     1
 40
0.5
 41
0.5
  0
VERTEX
  5
E
330
B
100
AcDbEntity
  8
0
  6
BYBLOCK
 62
     0
370
    -2
100
AcDbVertex
100
AcDb2dVertex
 10
-0.25
 20
0.0
 30
0.0
 42
1.0
  0
VERTEX
  5
F
330
B
100
AcDbEntity
  8
0
  6
BYBLOCK
 62
     0
370
    -2
100
AcDbVertex
100
AcDb2dVertex
 10
0.25
 20
0.0
 30
0.0
 42
1.0
  0
SEQEND
  5
10
330
B
100
AcDbEntity
  8
0
  6
BYBLOCK
 62
     0
370
    -2
  0
LINE
  5
11
330
B
100
AcDbEntity
  8
0
  6
BYBLOCK
 62
     0
370
    -2
100
AcDbLine
 10
-0.5
 20
0.0
 30
0.0
 11
-1.0
 21
0.0
 31
0.0
  0
ENDBLK
  5
12
330
B
100
AcDbEntity
  8
0
100
AcDbBlockEnd
  0
BLOCK
  5
14
330
13
100
AcDbEntity
  8
0
100
AcDbBlockBegin
  2
_OPEN
 70
     0
 10
0.0
 20
0.0
 30
0.0
  3
_OPEN
  1

  0
LINE
  5
15
330
13
100
AcDbEntity
  8
0
  6
BYBLOCK
 62
     0
370
    -2
100
AcDbLine
 10
-1.0
 20
0.166667
 30
0.0
 11
0.0
 21
0.0
 31
0.0
  0
LINE
  5
16
330
13
100
AcDbEntity
  8
0
  6
BYBLOCK
 62
     0
370
    -2
100
AcDbLine
 10
0.0
 20
0.0
 30
0.0
 11
-1.0
 21
-0.166667
 31
0.0
  0
LINE
  5
17
330
13
100
AcDbEntity
  8
0
  6
BYBLOCK
 62
     0
370
    -2
100
AcDbLine
 10
0.0
 20
0.0
 30
0.0
 11
-1.0
 21
0.0
 31
0.0
  0
ENDBLK
  5
18
330
13
100
AcDbEntity
  8
0
100
AcDbBlockEnd
  0
BLOCK
  5
1A
330
19
100
AcDbEntity
  8
0
100
AcDbBlockBegin
  2
_ORIGIN
 70
     0
 10
0.0
 20
0.0
 30
0.0
  3
_ORIGIN
  1

  0
CIRCLE
  5
1B
330
19
100
AcDbEntity
  8
0
  6
BYBLOCK
 62
     0
370
    -2
100
AcDbCircle
 10
0.0
 20
0.0
 30
0.0
 40
0.5
  0
LINE
  5
1C
330
19
100
AcDbEntity
  8
0
  6
BYBLOCK
 62
     0
370
    -2
100
AcDbLine
 10
0.0
 20
0.0
 30
0.0
 11
-1.0
 21
0.0
 31
0.0
  0
ENDBLK
  5
1D
330
19
100
AcDbEntity
  8
0
100
AcDbBlockEnd
  0
BLOCK
  5
1F
330
1E
100
AcDbEntity
  8
0
100
AcDbBlockBegin
  2
_OPEN30
 70
     0
 10
0.0
 20
0.0
 30
0.0
  3
_OPEN30
  1

  0
LINE
  5
20
330
1E
100
AcDbEntity
  8
0
  6
BYBLOCK
 62
     0
370
    -2
100
AcDbLine
 10
-1.0
 20
0.267949
 30
0.0
 11
0.0
 21
0.0
 31
0.0
  0
LINE
  5
21
330
1E
100
AcDbEntity
  8
0
  6
BYBLOCK
 62
     0
370
    -2
100
AcDbLine
 10
0.0
 20
0.0
 30
0.0
 11
-1.0
 21
-0.267949
 31
0.0
  0
LINE
  5
22
330
1E
100
AcDbEntity
  8
0
  6
BYBLOCK
 62
     0
370
    -2
100
AcDbLine
 10
0.0
 20
0.0
 30
0.0
 11
-1.0
 21
0.0
 31
0.0
  0
ENDBLK
  5
23
330
1E
100
AcDbEntity
  8
0
100
AcDbBlockEnd
  0
BLOCK
  5
25
330
24
100
AcDbEntity
  8
0
100
AcDbBlockBegin
  2
_BOXFILLED
 70
     0
 10
0.0
 20
0.0
 30
0.0
  3
_BOXFILLED
  1

  0
SOLID
  5
26
330
24
100
AcDbEntity
  8
0
  6
BYBLOCK
 62
     0
370
    -2
100
AcDbTrace
 10
-0.5
 20
0.5
 30
0.0
 11
0.5
 21
0.5
 31
0.0
 12
-0.5
 22
-0.5
 32
0.0
 13
0.5
 23
-0.5
 33
0.0
  0
LINE
  5
27
330
24
100
AcDbEntity
  8
0
  6
BYBLOCK
 62
     0
370
    -2
100
AcDbLine
 10
-0.5
 20
0.0
 30
0.0
 11
-1.0
 21
0.0
 31
0.0
  0
ENDBLK
  5
28
330
24
100
AcDbEntity
  8
0
100
AcDbBlockEnd
  0
BLOCK
  5
2A
330
29
100
AcDbEntity
  8
0
100
AcDbBlockBegin
  2
_BOXBLANK
 70
     0
 10
0.0
 20
0.0
 30
0.0
  3
_BOXBLANK
  1

  0
LINE
  5
2B
330
29
100
AcDbEntity
  8
0
  6
BYBLOCK
 62
     0
370
    -2
100
AcDbLine
 10
-0.5
 20
-0.5
 30
0.0
 11
0.5
 21
-0.5
 31
0.0
  0
LINE
  5
2C
330
29
100
AcDbEntity
  8
0
  6
BYBLOCK
 62
     0
370
    -2
100
AcDbLine
 10
0.5
 20
-0.5
 30
0.0
 11
0.5
 21
0.5
 31
0.0
  0
LINE
  5
2D
330
29
100
AcDbEntity
  8
0
  6
BYBLOCK
 62
     0
370
    -2
100
AcDbLine
 10
0.5
 20
0.5
 30
0.0
 11
-0.5
 21
0.5
 31
0.0
  0
LINE
  5
2E
330
29
100
AcDbEntity
  8
0
  6
BYBLOCK
 62
     0
370
    -2
100
AcDbLine
 10
-0.5
 20
0.5
 30
0.0
 11
-0.5
 21
-0.5
 31
0.0
  0
LINE
  5
2F
330
29
100
AcDbEntity
  8
0
  6
BYBLOCK
 62
     0
370
    -2
100
AcDbLine
 10
-0.5
 20
0.0
 30
0.0
 11
-1.0
 21
0.0
 31
0.0
  0
ENDBLK
  5
30
330
29
100
AcDbEntity
  8
0
100
AcDbBlockEnd
  0
BLOCK
  5
32
330
31
100
AcDbEntity
  8
0
100
AcDbBlockBegin
  2
_OBLIQUE
 70
     0
 10
0.0
 20
0.0
 30
0.0
  3
_OBLIQUE
  1

  0
LINE
  5
33
330
31
100
AcDbEntity
  8
0
  6
BYBLOCK
 62
     0
370
    -2
100
AcDbLine
 10
-0.5
 20
-0.5
 30
0.0
 11
0.5
 21
0.5
 31
0.0
  0
ENDBLK
  5
34
330
31
100
AcDbEntity
  8
0
100
AcDbBlockEnd
  0
BLOCK
  5
36
330
35
100
AcDbEntity
  8
0
100
AcDbBlockBegin
  2
_OPEN90
 70
     0
 10
0.0
 20
0.0
 30
0.0
  3
_OPEN90
  1

  0
LINE
  5
37
330
35
100
AcDbEntity
  8
0
  6
BYBLOCK
 62
     0
370
    -2
100
AcDbLine
 10
-0.5
 20
0.5
 30
0.0
 11
0.0
 21
0.0
 31
0.0
  0
LINE
  5
38
330
35
100
AcDbEntity
  8
0
  6
BYBLOCK
 62
     0
370
    -2
100
AcDbLine
 10
0.0
 20
0.0
 30
0.0
 11
-0.5
 21
-0.5
 31
0.0
  0
LINE
  5
39
330
35
100
AcDbEntity
  8
0
  6
BYBLOCK
 62
     0
370
    -2
100
AcDbLine
 10
0.0
 20
0.0
 30
0.0
 11
-1.0
 21
0.0
 31
0.0
  0
ENDBLK
  5
3A
330
35
100
AcDbEntity
  8
0
100
AcDbBlockEnd
  0
BLOCK
  5
3C
330
3B
100
AcDbEntity
  8
0
100
AcDbBlockBegin
  2
_CLOSEDBLANK
 70
     0
 10
0.0
 20
0.0
 30
0.0
  3
_CLOSEDBLANK
  1

  0
LINE
  5
3D
330
3B
100
AcDbEntity
  8
0
  6
BYBLOCK
 62
     0
370
    -2
100
AcDbLine
 10
-1.0
 20
0.1666666666666666
 30
0.0
 11
0.0
 21
0.0
 31
0.0
  0
LINE
  5
3E
330
3B
100
AcDbEntity
  8
0
  6
BYBLOCK
 62
     0
370
    -2
100
AcDbLine
 10
0.0
 20
0.0
 30
0.0
 11
-1.0
 21
-0.1666666666666666
 31
0.0
  0
LINE
  5
3F
330
3B
100
AcDbEntity
  8
0
  6
BYBLOCK
 62
     0
370
    -2
100
AcDbLine
 10
-1.0
 20
0.1666666666666666
 30
0.0
 11
-1.0
 21
-0.1666666666666666
 31
0.0
  0
ENDBLK
  5
40
330
3B
100
AcDbEntity
  8
0
100
AcDbBlockEnd
  0
BLOCK
  5
42
330
41
100
AcDbEntity
  8
0
100
AcDbBlockBegin
  2
_DOTBLANK
 70
     0
 10
0.0
 20
0.0
 30
0.0
  3
_DOTBLANK
  1

  0
CIRCLE
  5
43
330
41
100
AcDbEntity
  8
0
  6
BYBLOCK
 62
     0
370
    -2
100
AcDbCircle
 10
0.0
 20
0.0
 30
0.0
 40
0.5
  0
LINE
  5
44
330
41
100
AcDbEntity
  8
0
  6
BYBLOCK
 62
     0
370
    -2
100
AcDbLine
 10
-0.5
 20
0.0
 30
0.0
 11
-1.0
 21
0.0
 31
0.0
  0
ENDBLK
  5
45
330
41
100
AcDbEntity
  8
0
100
AcDbBlockEnd
  0
ENDSEC
  0
SECTION
  2
ENTITIES
  0
MTEXT
  5
46
100
AcDbEntity
  8
A8
  6
CONTINUOUS
 62
7
100
AcDbMText
 10
9.999997526638502
 20
18.00000076076889
 30
0.0000000000000000
 40
3.000000000000000
 41
0.0000000000000000
 44
0.6739999771118164
 71
     7
 72
     1
  1
{\H0.93x;{TYPE No.TH-176}}
 11
1.000000000000000
 21
0.0000000000000000
 31
0.0000000000000000
  7
STANDARD
  0
POINT
  5
47
100
AcDbEntity
  8
A0
  6
CONTINUOUS
 62
5
100
AcDbPoint
 10
9.999997526638502
 20
18.00000076076889
 30
0.0000000000000000
  0
LINE
  5
48
100
AcDbEntity
  8
A1
  6
CONTINUOUS
 62
7
100
AcDbLine
 10
104.6192954259627
 20
88.58315709196921
 30
0.0000000000000000
 11
104.6192954259627
 21
100.5831570919692
 31
0.0000000000000000
  0
LINE
  5
49
100
AcDbEntity
  8
A1
  6
CONTINUOUS
 62
7
100
AcDbLine
 10
135.6192954259627
 20
92.58315709196923
 30
0.0000000000000000
 11
135.6192954259627
 21
142.5831570919693
 31
0.0000000000000000
  0
LINE
  5
4A
100
AcDbEntity
  8
A1
  6
CONTINUOUS
 62
7
100
AcDbLine
 10
105.6192954259627
 20
87.58315709196921
 30
0.0000000000000000
 11
130.6192954259627
 21
87.58315709196923
 31
0.0000000000000000
  0
ARC
  5
4B
100
AcDbEntity
  8
A1
  6
CONTINUOUS
 62
7
100
AcDbCircle
 10
105.6192954259627
 20
88.58315709196921
 30
0.0000000000000000
 40
1.000000000000000
100
AcDbArc
 50
180.0000000000000
 51
270.0000000000000
  0
ARC
  5
4C
100
AcDbEntity
  8
A1
  6
CONTINUOUS
 62
7
100
AcDbCircle
 10
103.6192954259627
 20
100.5831570919692
 30
0.0000000000000000
 40
1.000000000000000
100
AcDbArc
 50
0.0000000000000000
 51
90.00000000000000
  0
LINE
  5
4D
100
AcDbEntity
  8
A1
  6
CONTINUOUS
 62
7
100
AcDbLine
 10
105.6192954259627
 20
147.5831570919691
 30
0.0000000000000000
 11
130.6192954259626
 21
147.5831570919693
 31
0.0000000000000000
  0
LINE
  5
4E
100
AcDbEntity
  8
A1
  6
CONTINUOUS
 62
7
100
AcDbLine
 10
104.6192954259626
 20
135.5831570919692
 30
0.0000000000000000
 11
104.6192954259627
 21
146.5831570919692
 31
0.0000000000000000
  0
LINE
  5
4F
100
AcDbEntity
  8
A1
  6
CONTINUOUS
 62
7
100
AcDbLine
 10
104.6192954259627
 20
134.5831570919692
 30
0.0000000000000000
 11
104.6192954259627
 21
136.0831570919692
 31
0.0000000000000000
  0
ARC
  5
50
100
AcDbEntity
  8
A1
  6
CONTINUOUS
 62
7
100
AcDbCircle
 10
103.6192954259625
 20
134.5831570919692
 30
0.0000000000000000
 40
1.000000000000000
100
AcDbArc
 50
269.9999999999998
 51
360.0000000000000
  0
ARC
  5
51
100
AcDbEntity
  8
A1
  6
CONTINUOUS
 62
7
100
AcDbCircle
 10
105.6192954259627
 20
146.5831570919691
 30
0.0000000000000000
 40
1.000000000000000
100
AcDbArc
 50
90.00000000000010
 51
180.0000000000000
  0
ARC
  5
52
100
AcDbEntity
  8
A1
  6
CONTINUOUS
 62
7
100
AcDbCircle
 10
130.6192954259627
 20
92.58315709196921
 30
0.0000000000000000
 40
5.000000000000000
100
AcDbArc
 50
270.0000000000000
 51
360.0000000000000
  0
ARC
  5
53
100
AcDbEntity
  8
A1
  6
CONTINUOUS
 62
7
100
AcDbCircle
 10
130.6192954259627
 20
142.5831570919693
 30
0.0000000000000000
 40
5.000000000000000
100
AcDbArc
 50
0.0000000000000000
 51
90.00000000000000
  0
LINE
  5
54
100
AcDbEntity
  8
A1
  6
CONTINUOUS
 62
7
100
AcDbLine
 10
81.11929542596268
 20
146.5831570919692
 30
0.0000000000000000
 11
81.11929542596269
 21
88.58315709196921
 31
0.0000000000000000
  0
LINE
  5
55
100
AcDbEntity
  8
A1
  6
CONTINUOUS
 62
7
100
AcDbLine
 10
82.11929542596268
 20
147.5831570919692
 30
0.0000000000000000
 11
102.6192954257359
 21
147.5831570919692
 31
0.0000000000000000
  0
LINE
  5
56
100
AcDbEntity
  8
A1
  6
CONTINUOUS
 62
7
100
AcDbLine
 10
82.11929542596269
 20
87.58315709196921
 30
0.0000000000000000
 11
102.6192954258655
 21
87.58315709196921
 31
0.0000000000000000
  0
ARC
  5
57
100
AcDbEntity
  8
A1
  6
CONTINUOUS
 62
7
100
AcDbCircle
 10
82.11929542596266
 20
146.5831570919692
 30
0.0000000000000000
 40
1.000000000000000
100
AcDbArc
 50
90.00000000000000
 51
180.0000000000000
  0
ARC
  5
58
100
AcDbEntity
  8
A1
  6
CONTINUOUS
 62
7
100
AcDbCircle
 10
82.11929542596266
 20
88.58315709196921
 30
0.0000000000000000
 40
1.000000000000000
100
AcDbArc
 50
180.0000000000000
 51
270.0000000000000
  0
LINE
  5
59
100
AcDbEntity
  8
A10
  6
CENTER
 62
1
100
AcDbLine
 10
91.61929542596266
 20
135.5831570919687
 30
0.0000000000000000
 11
83.61929542596266
 21
135.5831570919687
 31
0.0000000000000000
  0
CIRCLE
  5
5A
100
AcDbEntity
  8
A10
  6
CONTINUOUS
 62
7
100
AcDbCircle
 10
87.61929542596266
 20
135.5831570919687
 30
0.0000000000000000
 40
2.500000000000000
  0
LINE
  5
5B
100
AcDbEntity
  8
A10
  6
CENTER
 62
1
100
AcDbLine
 10
91.61929542596266
 20
99.58315709196870
 30
0.0000000000000000
 11
83.61929542596266
 21
99.58315709196870
 31
0.0000000000000000
  0
LINE
  5
5C
100
AcDbEntity
  8
A10
  6
CENTER
 62
1
100
AcDbLine
 10
87.61929542596266
 20
103.5831570919687
 30
0.0000000000000000
 11
87.61929542596266
 21
95.58315709196870
 31
0.0000000000000000
  0
CIRCLE
  5
5D
100
AcDbEntity
  8
A10
  6
CONTINUOUS
 62
7
100
AcDbCircle
 10
87.61929542596266
 20
99.58315709196870
 30
0.0000000000000000
 40
2.500000000000000
  0
LINE
  5
5E
100
AcDbEntity
  8
A10
  6
CENTER
 62
1
100
AcDbLine
 10
87.61929542596266
 20
139.5831570919687
 30
0.0000000000000000
 11
87.61929542596266
 21
131.5831570919687
 31
0.0000000000000000
  0
LINE
  5
5F
100
AcDbEntity
  8
A10
  6
CONTINUOUS
 62
7
100
AcDbLine
 10
93.61929542575832
 20
137.1831570919692
 30
0.0000000000000000
 11
93.61929542573590
 21
147.5831570919519
 31
0.0000000000000000
  0
LINE
  5
60
100
AcDbEntity
  8
A10
  6
CONTINUOUS
 62
7
100
AcDbLine
 10
93.61929542586527
 20
87.58315709196914
 30
0.0000000000000000
 11
93.61929542584285
 21
97.98315709196929
 31
0.0000000000000000
  0
LINE
  5
61
100
AcDbEntity
  8
A10
  6
CONTINUOUS
 62
7
100
AcDbLine
 10
102.6192954257584
 20
137.1831570919691
 30
0.0000000000000000
 11
102.6192954257360
 21
147.5831570919519
 31
0.0000000000000000
  0
LINE
  5
62
100
AcDbEntity
  8
A10
  6
CONTINUOUS
 62
7
100
AcDbLine
 10
102.6192954258655
 20
87.58315709196904
 30
0.0000000000000000
 11
102.6192954258430
 21
97.98315709196925
 31
0.0000000000000000
  0
LINE
  5
63
100
AcDbEntity
  8
A8
  6
CENTER
 62
1
100
AcDbLine
 10
98.11929542596266
 20
85.58315709196933
 30
0.0000000000000000
 11
98.11929542596266
 21
149.5831570919691
 31
0.0000000000000000
  0
LINE
  5
64
100
AcDbEntity
  8
A8
  6
CENTER
 62
1
100
AcDbLine
 10
79.61929542596266
 20
117.5831570919692
 30
0.0000000000000000
 11
137.1192954259626
 21
117.5831570919692
 31
0.0000000000000000
  0
LINE
  5
65
100
AcDbEntity
  8
A1
  6
CONTINUOUS
 62
7
100
AcDbLine
 10
135.6192954259626
 20
55.58315709196920
 30
0.0000000000000000
 11
101.8609528127367
 21
55.58315709196920
 31
0.0000000000000000
  0
LINE
  5
66
100
AcDbEntity
  8
A1
  6
CONTINUOUS
 62
7
100
AcDbLine
 10
135.6192954259625
 20
55.58315709196921
 30
0.0000000000000000
 11
135.6192954259625
 21
57.58315709196921
 31
0.0000000000000000
  0
LINE
  5
67
100
AcDbEntity
  8
A1
  6
CONTINUOUS
 62
7
100
AcDbLine
 10
104.6192954259625
 20
55.58315709196921
 30
0.0000000000000000
 11
104.6192954259625
 21
57.58315709196921
 31
0.0000000000000000
  0
LINE
  5
68
100
AcDbEntity
  8
A10
  6
CENTER
 62
1
100
AcDbLine
 10
127.6192954259626
 20
58.58315709196921
 30
0.0000000000000000
 11
127.6192954259626
 21
54.08315709196921
 31
0.0000000000000000
  0
LINE
  5
69
100
AcDbEntity
  8
A10
  6
CONTINUOUS
 62
7
100
AcDbLine
 10
135.6192954259625
 20
57.58315709196921
 30
0.0000000000000000
 11
98.11929542596262
 21
57.58315709196921
 31
0.0000000000000000
  0
LINE
  5
6A
100
AcDbEntity
  8
A1
  6
CONTINUOUS
 62
7
100
AcDbLine
 10
95.61929542596235
 20
44.08315709196922
 30
0.0000000000000000
 11
95.61929542596259
 21
53.08315709196932
 31
0.0000000000000000
  0
LINE
  5
6B
100
AcDbEntity
  8
A1
  6
CONTINUOUS
 62
7
100
AcDbLine
 10
93.61929542596224
 20
44.08315709196927
 30
0.0000000000000000
 11
93.61929542596248
 21
53.08315709196914
 31
0.0000000000000000
  0
ARC
  5
6C
100
AcDbEntity
  8
A10
  6
CONTINUOUS
 62
7
100
AcDbCircle
 10
98.11929542596260
 20
53.08315709196914
 30
0.0000000000000000
 40
4.500000000000114
100
AcDbArc
 50
236.2510114041110
 51
539.9999999999984
  0
LINE
  5
6D
100
AcDbEntity
  8
A10
  6
CONTINUOUS
 62
7
100
AcDbLine
 10
97.00818431485177
 20
50.84364105077516
 30
0.0000000000000000
 11
96.11929542596280
 21
49.05202821781985
 31
0.0000000000000000
  0
LINE
  5
6E
100
AcDbEntity
  8
A10
  6
CONTINUOUS
 62
7
100
AcDbLine
 10
81.11929542596233
 20
42.08315709196945
 30
0.0000000000000000
 11
93.61929542596236
 21
42.08315709196928
 31
0.0000000000000000
  0
LINE
  5
6F
100
AcDbEntity
  8
A10
  6
CONTINUOUS
 62
7
100
AcDbLine
 10
81.11929542596238
 20
44.08315709196941
 30
0.0000000000000000
 11
81.11929542596232
 21
42.08315709196938
 31
0.0000000000000000
  0
LINE
  5
70
100
AcDbEntity
  8
A10
  6
CONTINUOUS
 62
7
100
AcDbLine
 10
81.11929542596236
 20
44.08315709196945
 30
0.0000000000000000
 11
93.61929542596228
 21
44.08315709196928
 31
0.0000000000000000
  0
ARC
  5
71
100
AcDbEntity
  8
A1
  6
CONTINUOUS
 62
7
100
AcDbCircle
 10
93.61929542596241
 20
44.08315709196927
 30
0.0000000000000000
 40
2.000000000000000
100
AcDbArc
 50
269.9999999999985
 51
359.9999999999985
  0
LINE
  5
72
100
AcDbEntity
  8
A10
  6
CENTER
 62
1
100
AcDbLine
 10
87.61929542596236
 20
45.58315709196929
 30
0.0000000000000000
 11
87.61929542596222
 21
40.58315709196926
 31
0.0000000000000000
  0
LINE
  5
73
100
AcDbEntity
  8
A10
  6
CONTINUOUS
 62
7
100
AcDbLine
 10
97.56373987046152
 20
50.64566698434792
 30
0.0000000000000000
 11
97.11929542606035
 21
48.69567489825092
 31
0.0000000000000000
  0
CIRCLE
  5
74
100
AcDbEntity
  8
A10
  6
CONTINUOUS
 62
7
100
AcDbCircle
 10
98.11929542596263
 20
53.08315709196920
 30
0.0000000000000000
 40
2.000000000000000
  0
CIRCLE
  5
75
100
AcDbEntity
  8
A10
  6
CONTINUOUS
 62
7
100
AcDbCircle
 10
98.11929542596263
 20
53.08315709196920
 30
0.0000000000000000
 40
2.500000000000000
  0
ARC
  5
76
100
AcDbEntity
  8
A10
  6
CONTINUOUS
 62
7
100
AcDbCircle
 10
98.11929542596263
 20
53.08315709196920
 30
0.0000000000000000
 40
4.000000000000000
100
AcDbArc
 50
231.3178125465085
 51
243.6122000387593
  0
LINE
  5
77
100
AcDbEntity
  8
A1
  6
CENTER
 62
1
100
AcDbLine
 10
92.61929542596256
 20
53.08315709196928
 30
0.0000000000000000
 11
103.6192954259627
 21
53.08315709196922
 31
0.0000000000000000
  0
LINE
  5
78
100
AcDbEntity
  8
A1
  6
CENTER
 62
1
100
AcDbLine
 10
98.11929542596263
 20
47.58315709196921
 30
0.0000000000000000
 11
98.11929542596263
 21
58.58315709196920
 31
0.0000000000000000
  0
LINE
  5
79
100
AcDbEntity
  8
A1
  6
CONTINUOUS
 62
7
100
AcDbLine
 10
93.61929542596269
 20
101.5831570919692
 30
0.0000000000000000
 11
93.61929542596268
 21
133.5831570919693
 31
0.0000000000000000
  0
LINE
  5
7A
100
AcDbEntity
  8
A1
  6
CONTINUOUS
 62
7
100
AcDbLine
 10
103.6192954259627
 20
101.5831570919692
 30
0.0000000000000000
 11
93.61929542596269
 21
101.5831570919692
 31
0.0000000000000000
  0
LINE
  5
7B
100
AcDbEntity
  8
A1
  6
CONTINUOUS
 62
7
100
AcDbLine
 10
103.6192954259626
 20
133.5831570919693
 30
0.0000000000000000
 11
93.61929542596268
 21
133.5831570919693
 31
0.0000000000000000
  0
LINE
  5
7C
100
AcDbEntity
  8
A1
  6
CONTINUOUS
 62
7
100
AcDbLine
 10
93.11929542596268
 20
137.1831570919692
 30
0.0000000000000000
 11
102.6192954257584
 21
137.1831570919692
 31
0.0000000000000000
  0
LINE
  5
7D
100
AcDbEntity
  8
A1
  6
CONTINUOUS
 62
7
100
AcDbLine
 10
93.11929542596269
 20
97.98315709196925
 30
0.0000000000000000
 11
102.6192954258430
 21
97.98315709196925
 31
0.0000000000000000
  0
LINE
  5
7E
100
AcDbEntity
  8
A10
  6
CONTINUOUS
 62
7
100
AcDbLine
 10
92.11929542596268
 20
136.1831570919692
 30
0.0000000000000000
 11
92.11929542596269
 21
98.98315709196919
 31
0.0000000000000000
  0
ARC
  5
7F
100
AcDbEntity
  8
A1
  6
CONTINUOUS
 62
7
100
AcDbCircle
 10
93.11929542596266
 20
136.1831570919692
 30
0.0000000000000000
 40
1.000000000000000
100
AcDbArc
 50
90.00000000000000
 51
180.0000000000000
  0
ARC
  5
80
100
AcDbEntity
  8
A10
  6
CONTINUOUS
 62
7
100
AcDbCircle
 10
93.11929542596266
 20
98.98315709196919
 30
0.0000000000000000
 40
1.000000000000000
100
AcDbArc
 50
180.0000000000000
 51
270.0000000000000
  0
LINE
  5
81
100
AcDbEntity
  8
A10
  6
CONTINUOUS
 62
7
100
AcDbLine
 10
102.1192954259627
 20
136.1831570919693
 30
0.0000000000000000
 11
94.11929542596268
 21
136.1831570919693
 31
0.0000000000000000
  0
LINE
  5
82
100
AcDbEntity
  8
A10
  6
CONTINUOUS
 62
7
100
AcDbLine
 10
94.21929542596266
 20
136.1831570919693
 30
0.0000000000000000
 11
94.21929542596266
 21
133.5831570919693
 31
0.0000000000000000
  0
LINE
  5
83
100
AcDbEntity
  8
A10
  6
CONTINUOUS
 62
7
100
AcDbLine
 10
102.0192954259627
 20
136.1831570919693
 30
0.0000000000000000
 11
102.0192954259627
 21
133.5831570919693
 31
0.0000000000000000
  0
LINE
  5
84
100
AcDbEntity
  8
A10
  6
CONTINUOUS
 62
7
100
AcDbLine
 10
94.11929542596266
 20
137.1831570919692
 30
0.0000000000000000
 11
94.11929542596266
 21
136.1831570919693
 31
0.0000000000000000
  0
LINE
  5
85
100
AcDbEntity
  8
A10
  6
CONTINUOUS
 62
7
100
AcDbLine
 10
102.1192954259627
 20
137.1831570919692
 30
0.0000000000000000
 11
102.1192954259627
 21
136.1831570919693
 31
0.0000000000000000
  0
LINE
  5
86
100
AcDbEntity
  8
A10
  6
CONTINUOUS
 62
7
100
AcDbLine
 10
102.1192954259626
 20
98.98315709196909
 30
0.0000000000000000
 11
94.11929542596270
 21
98.98315709196909
 31
0.0000000000000000
  0
LINE
  5
87
100
AcDbEntity
  8
A10
  6
CONTINUOUS
 62
7
100
AcDbLine
 10
94.21929542596266
 20
98.98315709196908
 30
0.0000000000000000
 11
94.21929542596266
 21
101.5831570919690
 31
0.0000000000000000
  0
LINE
  5
88
100
AcDbEntity
  8
A10
  6
CONTINUOUS
 62
7
100
AcDbLine
 10
102.0192954259627
 20
98.98315709196908
 30
0.0000000000000000
 11
102.0192954259627
 21
101.5831570919690
 31
0.0000000000000000
  0
LINE
  5
89
100
AcDbEntity
  8
A10
  6
CONTINUOUS
 62
7
100
AcDbLine
 10
94.11929542596266
 20
97.98315709196919
 30
0.0000000000000000
 11
94.11929542596266
 21
98.98315709196908
 31
0.0000000000000000
  0
LINE
  5
8A
100
AcDbEntity
  8
A10
  6
CONTINUOUS
 62
7
100
AcDbLine
 10
102.1192954259627
 20
97.98315709196919
 30
0.0000000000000000
 11
102.1192954259627
 21
98.98315709196908
 31
0.0000000000000000
  0
CIRCLE
  5
8B
100
AcDbEntity
  8
A10
  6
CONTINUOUS
 62
7
100
AcDbCircle
 10
127.6192954257838
 20
135.5831570919603
 30
0.0000000000000000
 40
4.300000000000000
  0
CIRCLE
  5
8C
100
AcDbEntity
  8
A10
  6
CONTINUOUS
 62
7
100
AcDbCircle
 10
127.6192954257838
 20
135.5831570919603
 30
0.0000000000000000
 40
3.000000000000000
  0
CIRCLE
  5
8D
100
AcDbEntity
  8
A10
  6
CONTINUOUS
 62
7
100
AcDbCircle
 10
127.6192954257838
 20
99.58315709196035
 30
0.0000000000000000
 40
4.300000000000000
  0
CIRCLE
  5
8E
100
AcDbEntity
  8
A10
  6
CONTINUOUS
 62
7
100
AcDbCircle
 10
127.6192954257838
 20
99.58315709196035
 30
0.0000000000000000
 40
3.000000000000000
  0
LINE
  5
8F
100
AcDbEntity
  8
A10
  6
CENTER
 62
1
100
AcDbLine
 10
121.8192954257838
 20
135.5831570919603
 30
0.0000000000000000
 11
133.4192954257838
 21
135.5831570919603
 31
0.0000000000000000
  0
LINE
  5
90
100
AcDbEntity
  8
A10
  6
CENTER
 62
1
100
AcDbLine
 10
127.6192954257838
 20
129.7831570919603
 30
0.0000000000000000
 11
127.6192954257838
 21
141.3831570919603
 31
0.0000000000000000
  0
LINE
  5
91
100
AcDbEntity
  8
A10
  6
CENTER
 62
1
100
AcDbLine
 10
127.6192954257838
 20
93.78315709196033
 30
0.0000000000000000
 11
127.6192954257838
 21
105.3831570919604
 31
0.0000000000000000
  0
LINE
  5
92
100
AcDbEntity
  8
A10
  6
CENTER
 62
1
100
AcDbLine
 10
121.8192954257838
 20
99.58315709196035
 30
0.0000000000000000
 11
133.4192954257838
 21
99.58315709196035
 31
0.0000000000000000
  0
LINE
  5
93
100
AcDbEntity
  8
A1
  6
CONTINUOUS
 62
7
100
AcDbLine
 10
95.61929542596317
 20
147.7831570919691
 30
0.0000000000000000
 11
95.61929542596317
 21
147.5831570919691
 31
0.0000000000000000
  0
LINE
  5
94
100
AcDbEntity
  8
A1
  6
CONTINUOUS
 62
7
100
AcDbLine
 10
100.6192954259632
 20
147.7831570919690
 30
0.0000000000000000
 11
100.6192954259632
 21
147.5831570919691
 31
0.0000000000000000
  0
LINE
  5
95
100
AcDbEntity
  8
A1
  6
CONTINUOUS
 62
7
100
AcDbLine
 10
95.91929542596330
 20
148.0831570919691
 30
0.0000000000000000
 11
100.3192954259633
 21
148.0831570919691
 31
0.0000000000000000
  0
LINE
  5
96
100
AcDbEntity
  8
A1
  6
CONTINUOUS
 62
7
100
AcDbLine
 10
95.91929542596324
 20
148.0831570919690
 30
0.0000000000000000
 11
95.61929542596326
 21
147.7831570919691
 31
0.0000000000000000
  0
LINE
  5
97
100
AcDbEntity
  8
A1
  6
CONTINUOUS
 62
7
100
AcDbLine
 10
100.3192954259631
 20
148.0831570919690
 30
0.0000000000000000
 11
100.6192954259631
 21
147.7831570919690
 31
0.0000000000000000
  0
LINE
  5
98
100
AcDbEntity
  8
A10
  6
CONTINUOUS
 62
7
100
AcDbLine
 10
100.6192954259632
 20
147.7831570919691
 30
0.0000000000000000
 11
95.61929542596502
 21
147.7831570919725
 31
0.0000000000000000
  0
LINE
  5
99
100
AcDbEntity
  8
A1
  6
CONTINUOUS
 62
7
100
AcDbLine
 10
95.61929542596317
 20
87.38315709196934
 30
0.0000000000000000
 11
95.61929542596317
 21
87.58315709196933
 31
0.0000000000000000
  0
LINE
  5
9A
100
AcDbEntity
  8
A1
  6
CONTINUOUS
 62
7
100
AcDbLine
 10
100.6192954259632
 20
87.38315709196939
 30
0.0000000000000000
 11
100.6192954259632
 21
87.58315709196933
 31
0.0000000000000000
  0
LINE
  5
9B
100
AcDbEntity
  8
A1
  6
CONTINUOUS
 62
7
100
AcDbLine
 10
95.91929542596330
 20
87.08315709196933
 30
0.0000000000000000
 11
100.3192954259633
 21
87.08315709196933
 31
0.0000000000000000
  0
LINE
  5
9C
100
AcDbEntity
  8
A1
  6
CONTINUOUS
 62
7
100
AcDbLine
 10
95.91929542596323
 20
87.08315709196930
 30
0.0000000000000000
 11
95.61929542596326
 21
87.38315709196922
 31
0.0000000000000000
  0
LINE
  5
9D
100
AcDbEntity
  8
A1
  6
CONTINUOUS
 62
7
100
AcDbLine
 10
100.3192954259631
 20
87.08315709196944
 30
0.0000000000000000
 11
100.6192954259631
 21
87.38315709196944
 31
0.0000000000000000
  0
LINE
  5
9E
100
AcDbEntity
  8
A10
  6
CONTINUOUS
 62
7
100
AcDbLine
 10
100.6192954259632
 20
87.38315709196924
 30
0.0000000000000000
 11
95.61929542596499
 21
87.38315709196591
 31
0.0000000000000000
  0
ARC
  5
9F
100
AcDbEntity
  8
A10
  6
CONTINUOUS
 62
1
100
AcDbCircle
 10
127.6192954257838
 20
120.9164502793896
 30
0.0000000000000000
 40
1.431765911236078
100
AcDbArc
 50
35.53767779200084
 51
76.53743939173309
  0
ARC
  5
A0
100
AcDbEntity
  8
A10
  6
CONTINUOUS
 62
1
100
AcDbCircle
 10
122.9526849633998
 20
117.5831570919692
 30
0.0000000000000000
 40
7.166580352953972
100
AcDbArc
 50
324.4623222079991
 51
395.5376777920009
  0
ARC
  5
A1
100
AcDbEntity
  8
A10
  6
CONTINUOUS
 62
1
100
AcDbCircle
 10
127.6192954257838
 20
114.2498639045487
 30
0.0000000000000000
 40
1.431765911236079
100
AcDbArc
 50
242.2496545546281
 51
324.4623222079992
  0
ARC
  5
A2
100
AcDbEntity
  8
A10
  6
CONTINUOUS
 62
1
100
AcDbCircle
 10
127.6192954257838
 20
120.9164502793896
 30
0.0000000000000000
 40
1.431765911236078
100
AcDbArc
 50
90.00000000000000
 51
144.4623222080521
  0
ARC
  5
A3
100
AcDbEntity
  8
A10
  6
CONTINUOUS
 62
1
100
AcDbCircle
 10
132.2859058881769
 20
117.5831570919692
 30
0.0000000000000000
 40
7.166580352953972
100
AcDbArc
 50
144.4623222080521
 51
215.5376777919479
  0
ARC
  5
A4
100
AcDbEntity
  8
A10
  6
CONTINUOUS
 62
1
100
AcDbCircle
 10
127.6192954257838
 20
114.2498639045487
 30
0.0000000000000000
 40
1.431765911236079
100
AcDbArc
 50
215.5376777919479
 51
225.6988392796171
  0
LINE
  5
A5
100
AcDbEntity
  8
A10
  6
CONTINUOUS
 62
1
100
AcDbLine
 10
129.1430051975445
 20
121.1942247116747
 30
0.0000000000000000
 11
126.7482233416313
 21
121.1942247116747
 31
0.0000000000000000
  0
LINE
  5
A6
100
AcDbEntity
  8
A10
  6
CONTINUOUS
 62
1
100
AcDbLine
 10
126.5943084484860
 20
120.6386758471046
 30
0.0000000000000000
 11
128.6442824030908
 21
120.6386758471046
 31
0.0000000000000000
  0
ARC
  5
A7
100
AcDbEntity
  8
A10
  6
CONTINUOUS
 62
1
100
AcDbCircle
 10
128.6442824030908
 20
120.3609014148196
 30
0.0000000000000000
 40
0.2777744322850376
100
AcDbArc
 50
26.01436599963663
 51
90.00000000000000
  0
ARC
  5
A8
100
AcDbEntity
  8
A10
  6
CONTINUOUS
 62
1
100
AcDbCircle
 10
122.9526849633998
 20
117.5831570919692
 30
0.0000000000000000
 40
6.611031488383896
100
AcDbArc
 50
22.94395355653777
 51
26.01436599963663
  0
ARC
  5
A9
100
AcDbEntity
  8
A10
  6
CONTINUOUS
 62
1
100
AcDbCircle
 10
128.9895356814841
 20
120.1386818689915
 30
0.0000000000000000
 40
0.05555488645700751
100
AcDbArc
 50
270.0000000000000
 51
382.9439535565375
  0
LINE
  5
AA
100
AcDbEntity
  8
A10
  6
CONTINUOUS
 62
1
100
AcDbLine
 10
128.9895356814842
 20
120.0831269825346
 30
0.0000000000000000
 11
126.2490551700926
 21
120.0831269825346
 31
0.0000000000000000
  0
ARC
  5
AB
100
AcDbEntity
  8
A10
  6
CONTINUOUS
 62
1
100
AcDbCircle
 10
126.2490551700925
 20
120.1386818689915
 30
0.0000000000000000
 40
0.05555488645700751
100
AcDbArc
 50
157.0560464434623
 51
270.0000000000000
  0
ARC
  5
AC
100
AcDbEntity
  8
A10
  6
CONTINUOUS
 62
1
100
AcDbCircle
 10
132.2859058881769
 20
117.5831570919692
 30
0.0000000000000000
 40
6.611031488383896
100
AcDbArc
 50
153.9856340003634
 51
157.0560464434622
  0
ARC
  5
AD
100
AcDbEntity
  8
A10
  6
CONTINUOUS
 62
1
100
AcDbCircle
 10
126.5943084484859
 20
120.3609014148196
 30
0.0000000000000000
 40
0.2777744322850376
100
AcDbArc
 50
90.00000000000000
 51
153.9856340003634
  0
LINE
  5
AE
100
AcDbEntity
  8
A10
  6
CONTINUOUS
 62
1
100
AcDbLine
 10
128.2859540632678
 20
118.9720292533944
 30
0.0000000000000000
 11
129.3470499812696
 21
118.9720292533944
 31
0.0000000000000000
  0
ARC
  5
AF
100
AcDbEntity
  8
A10
  6
CONTINUOUS
 62
1
100
AcDbCircle
 10
129.3470499812695
 20
119.0275841398514
 30
0.0000000000000000
 40
0.05555488645700751
100
AcDbArc
 50
270.0000000000000
 51
372.7289438731227
  0
ARC
  5
B0
100
AcDbEntity
  8
A10
  6
CONTINUOUS
 62
1
100
AcDbCircle
 10
122.9526849633998
 20
117.5831570919692
 30
0.0000000000000000
 40
6.611031488383896
100
AcDbArc
 50
12.72894387312260
 51
13.26811897055621
  0
ARC
  5
B1
100
AcDbEntity
  8
A10
  6
CONTINUOUS
 62
1
100
AcDbCircle
 10
122.9526849633998
 20
117.5831570919692
 30
0.0000000000000000
 40
6.611031488383896
100
AcDbArc
 50
13.26811897055626
 51
15.25752329045636
  0
ARC
  5
B2
100
AcDbEntity
  8
A10
  6
CONTINUOUS
 62
1
100
AcDbCircle
 10
129.0627123013336
 20
119.2498036856794
 30
0.0000000000000000
 40
0.2777744322850376
100
AcDbArc
 50
15.25752329045642
 51
90.00000000000000
  0
LINE
  5
B3
100
AcDbEntity
  8
A10
  6
CONTINUOUS
 62
1
100
AcDbLine
 10
129.0627123013337
 20
119.5275781179645
 30
0.0000000000000000
 11
126.1758785502431
 21
119.5275781179645
 31
0.0000000000000000
  0
ARC
  5
B4
100
AcDbEntity
  8
A10
  6
CONTINUOUS
 62
1
100
AcDbCircle
 10
126.1758785502431
 20
119.2498036856794
 30
0.0000000000000000
 40
0.2777744322850376
100
AcDbArc
 50
90.00000000000000
 51
164.7424767095435
  0
ARC
  5
B5
100
AcDbEntity
  8
A10
  6
CONTINUOUS
 62
1
100
AcDbCircle
 10
132.2859058881769
 20
117.5831570919692
 30
0.0000000000000000
 40
6.611031488383896
100
AcDbArc
 50
164.7424767095435
 51
164.7937121239420
  0
ARC
  5
B6
100
AcDbEntity
  8
A10
  6
CONTINUOUS
 62
1
100
AcDbCircle
 10
132.2859058881769
 20
117.5831570919692
 30
0.0000000000000000
 40
6.611031488383896
100
AcDbArc
 50
164.7937121239420
 51
167.2710561268774
  0
ARC
  5
B7
100
AcDbEntity
  8
A10
  6
CONTINUOUS
 62
1
100
AcDbCircle
 10
125.8915408703072
 20
119.0275841398514
 30
0.0000000000000000
 40
0.05555488645700751
100
AcDbArc
 50
167.2710561268774
 51
270.0000000000000
  0
LINE
  5
B8
100
AcDbEntity
  8
A10
  6
CONTINUOUS
 62
1
100
AcDbLine
 10
125.8915408703072
 20
118.9720292533944
 30
0.0000000000000000
 11
126.9526367882998
 21
118.9720292533944
 31
0.0000000000000000
  0
LINE
  5
B9
100
AcDbEntity
  8
A10
  6
CONTINUOUS
 62
1
100
AcDbLine
 10
129.5109857817004
 20
118.4164803888243
 30
0.0000000000000000
 11
125.7276050698766
 21
118.4164803888243
 31
0.0000000000000000
  0
LINE
  5
BA
100
AcDbEntity
  8
A10
  6
CONTINUOUS
 62
1
100
AcDbLine
 10
129.5578782766324
 20
117.8609315242542
 30
0.0000000000000000
 11
125.6807125749445
 21
117.8609315242542
 31
0.0000000000000000
  0
LINE
  5
BB
100
AcDbEntity
  8
A10
  6
CONTINUOUS
 62
1
100
AcDbLine
 10
127.6192954257838
 20
117.8609315242542
 30
0.0000000000000000
 11
127.6192954257838
 21
118.4164803888243
 31
0.0000000000000000
  0
LINE
  5
BC
100
AcDbEntity
  8
A10
  6
CONTINUOUS
 62
1
100
AcDbLine
 10
129.5578782766324
 20
117.3053826596842
 30
0.0000000000000000
 11
125.6807125749445
 21
117.3053826596842
 31
0.0000000000000000
  0
LINE
  5
BD
100
AcDbEntity
  8
A10
  6
CONTINUOUS
 62
1
100
AcDbLine
 10
128.2859540632678
 20
116.1942849305440
 30
0.0000000000000000
 11
129.1877155787958
 21
116.1942849305440
 31
0.0000000000000000
  0
ARC
  5
BE
100
AcDbEntity
  8
A10
  6
CONTINUOUS
 62
1
100
AcDbCircle
 10
129.1877155787958
 20
116.4720593628290
 30
0.0000000000000000
 40
0.2777744322850376
100
AcDbArc
 50
270.0000000000000
 51
349.8958172838749
  0
ARC
  5
BF
100
AcDbEntity
  8
A10
  6
CONTINUOUS
 62
1
100
AcDbCircle
 10
122.9526849633998
 20
117.5831570919692
 30
0.0000000000000000
 40
6.611031488383896
100
AcDbArc
 50
349.8958172838750
 51
352.2070756645776
  0
ARC
  5
C0
100
AcDbEntity
  8
A10
  6
CONTINUOUS
 62
1
100
AcDbCircle
 10
129.4476190703513
 20
116.6942789086571
 30
0.0000000000000000
 40
0.05555488645700751
100
AcDbArc
 50
352.2070756645773
 51
450.0000000000000
  0
LINE
  5
C1
100
AcDbEntity
  8
A10
  6
CONTINUOUS
 62
1
100
AcDbLine
 10
129.4476190703513
 20
116.7498337951141
 30
0.0000000000000000
 11
125.7909717812255
 21
116.7498337951141
 31
0.0000000000000000
  0
ARC
  5
C2
100
AcDbEntity
  8
A10
  6
CONTINUOUS
 62
1
100
AcDbCircle
 10
125.7909717812255
 20
116.6942789086571
 30
0.0000000000000000
 40
0.05555488645700751
100
AcDbArc
 50
90.00000000000000
 51
187.7929243354228
  0
ARC
  5
C3
100
AcDbEntity
  8
A10
  6
CONTINUOUS
 62
1
100
AcDbCircle
 10
132.2859058881769
 20
117.5831570919692
 30
0.0000000000000000
 40
6.611031488383896
100
AcDbArc
 50
187.7929243354224
 51
190.1041827161250
  0
ARC
  5
C4
100
AcDbEntity
  8
A10
  6
CONTINUOUS
 62
1
100
AcDbCircle
 10
126.0508752727810
 20
116.4720593628290
 30
0.0000000000000000
 40
0.2777744322850376
100
AcDbArc
 50
190.1041827161250
 51
270.0000000000000
  0
LINE
  5
C5
100
AcDbEntity
  8
A10
  6
CONTINUOUS
 62
1
100
AcDbLine
 10
126.0508752727811
 20
116.1942849305440
 30
0.0000000000000000
 11
127.6192954257838
 21
116.1942849305440
 31
0.0000000000000000
  0
LINE
  5
C6
100
AcDbEntity
  8
A10
  6
CONTINUOUS
 62
1
100
AcDbLine
 10
127.6192954257838
 20
116.1942849305440
 30
0.0000000000000000
 11
127.6192954257838
 21
116.4720593628290
 31
0.0000000000000000
  0
LINE
  5
C7
100
AcDbEntity
  8
A10
  6
CONTINUOUS
 62
1
100
AcDbLine
 10
129.4454803509782
 20
115.6387360659739
 30
0.0000000000000000
 11
125.9672854521901
 21
115.6387360659739
 31
0.0000000000000000
  0
LINE
  5
C8
100
AcDbEntity
  8
A10
  6
CONTINUOUS
 62
1
100
AcDbLine
 10
129.1837543137102
 20
115.0831872014038
 30
0.0000000000000000
 11
127.8970698580689
 21
115.0831872014038
 31
0.0000000000000000
  0
ARC
  5
C9
100
AcDbEntity
  8
A10
  6
CONTINUOUS
 62
1
100
AcDbCircle
 10
127.8970698580689
 20
114.8054127691188
 30
0.0000000000000000
 40
0.2777744322850389
100
AcDbArc
 50
90.00000000000000
 51
270.0000000000000
  0
LINE
  5
CA
100
AcDbEntity
  8
A10
  6
CONTINUOUS
 62
1
100
AcDbLine
 10
127.8970698580689
 20
114.5276383368337
 30
0.0000000000000000
 11
129.0838909691280
 21
114.5276383368337
 31
0.0000000000000000
  0
LINE
  5
CB
100
AcDbEntity
  8
A10
  6
CONTINUOUS
 62
1
100
AcDbLine
 10
127.6192954257838
 20
114.8054127691188
 30
0.0000000000000000
 11
126.2867497960858
 21
114.8054127691188
 31
0.0000000000000000
  0
LINE
  5
CC
100
AcDbEntity
  8
A10
  6
CONTINUOUS
 62
1
100
AcDbLine
 10
126.5796879240032
 20
114.2447721702232
 30
0.0000000000000000
 11
128.9218543726737
 21
113.6171905617605
 31
0.0000000000000000
  0
LINE
  5
CD
100
AcDbEntity
  8
A10
  6
CONTINUOUS
 62
1
100
AcDbLine
 10
127.6192954257838
 20
112.8180979933127
 30
0.0000000000000000
 11
127.6192954257838
 21
113.9662101796747
 31
0.0000000000000000
  0
POINT
  5
CE
100
AcDbEntity
  8
A10
  6
CONTINUOUS
 62
5
100
AcDbPoint
 10
127.6192954257838
 20
117.5831570919692
 30
0.0000000000000000
  0
LINE
  5
CF
100
AcDbEntity
  8
A10
  6
CONTINUOUS
 62
7
100
AcDbLine
 10
28.22618125280836
 20
87.58315709196920
 30
0.0000000000000000
 11
28.22618125281775
 21
147.5831570919693
 31
0.0000000000000000
  0
LINE
  5
D0
100
AcDbEntity
  8
A10
  6
CONTINUOUS
 62
7
100
AcDbLine
 10
30.22618125280836
 20
87.58315709196889
 30
0.0000000000000000
 11
30.22618125281775
 21
147.5831570919690
 31
0.0000000000000000
  0
LINE
  5
D1
100
AcDbEntity
  8
A10
  6
CONTINUOUS
 62
7
100
AcDbLine
 10
28.22618125281775
 20
147.5831570919693
 30
0.0000000000000000
 11
43.72618125281775
 21
147.5831570919693
 31
0.0000000000000000
  0
LINE
  5
D2
100
AcDbEntity
  8
A10
  6
CONTINUOUS
 62
7
100
AcDbLine
 10
28.22618125280836
 20
87.58315709196921
 30
0.0000000000000000
 11
43.72618125281079
 21
87.58315709196921
 31
0.0000000000000000
  0
LINE
  5
D3
100
AcDbEntity
  8
A10
  6
CONTINUOUS
 62
7
100
AcDbLine
 10
43.72618125281855
 20
137.1831570920439
 30
0.0000000000000000
 11
30.22618125275955
 21
137.1831570920625
 31
0.0000000000000000
  0
LINE
  5
D4
100
AcDbEntity
  8
A10
  6
CONTINUOUS
 62
7
100
AcDbLine
 10
43.72618125281799
 20
133.5831570919693
 30
0.0000000000000000
 11
34.72618125275955
 21
133.5831570919693
 31
0.0000000000000000
  0
LINE
  5
D5
100
AcDbEntity
  8
A10
  6
CONTINUOUS
 62
7
100
AcDbLine
 10
43.72618125281299
 20
101.5831570919693
 30
0.0000000000000000
 11
34.72618125277769
 21
101.5831570919693
 31
0.0000000000000000
  0
LINE
  5
D6
100
AcDbEntity
  8
A10
  6
CONTINUOUS
 62
7
100
AcDbLine
 10
43.72618125281241
 20
97.98315709208124
 30
0.0000000000000000
 11
30.22618125287596
 21
97.98315709210904
 31
0.0000000000000000
  0
LINE
  5
D7
100
AcDbEntity
  8
A10
  6
CENTER
 62
1
100
AcDbLine
 10
39.22618125281014
 20
83.19126341944255
 30
0.0000000000000000
 11
39.22618125282078
 21
151.1220321641679
 31
0.0000000000000000
  0
LINE
  5
D8
100
AcDbEntity
  8
A10
  6
CONTINUOUS
 62
7
100
AcDbLine
 10
43.22618125281844
 20
136.1831570919692
 30
0.0000000000000000
 11
35.22618125281844
 21
136.1831570919692
 31
0.0000000000000000
  0
LINE
  5
D9
100
AcDbEntity
  8
A10
  6
CONTINUOUS
 62
7
100
AcDbLine
 10
43.22618125281261
 20
98.98315709196910
 30
0.0000000000000000
 11
35.22618125281262
 21
98.98315709196910
 31
0.0000000000000000
  0
LINE
  5
DA
100
AcDbEntity
  8
A10
  6
CONTINUOUS
 62
7
100
AcDbLine
 10
43.22618125281246
 20
97.98315709208227
 30
0.0000000000000000
 11
43.22618125281262
 21
98.98315709196912
 31
0.0000000000000000
  0
LINE
  5
DB
100
AcDbEntity
  8
A10
  6
CONTINUOUS
 62
7
100
AcDbLine
 10
43.22618125281844
 20
136.1831570919692
 30
0.0000000000000000
 11
43.22618125281860
 21
137.1831570920446
 31
0.0000000000000000
  0
LINE
  5
DC
100
AcDbEntity
  8
A10
  6
CONTINUOUS
 62
7
100
AcDbLine
 10
43.72618125281856
 20
137.1831570920439
 30
0.0000000000000000
 11
43.72618125282018
 21
147.5831570919669
 31
0.0000000000000000
  0
LINE
  5
DD
100
AcDbEntity
  8
A10
  6
CONTINUOUS
 62
7
100
AcDbLine
 10
35.22618125281246
 20
97.98315709209875
 30
0.0000000000000000
 11
35.22618125281262
 21
98.98315709196912
 31
0.0000000000000000
  0
LINE
  5
DE
100
AcDbEntity
  8
A10
  6
CONTINUOUS
 62
7
100
AcDbLine
 10
35.22618125281844
 20
136.1831570919693
 30
0.0000000000000000
 11
35.22618125281860
 21
137.1831570920556
 31
0.0000000000000000
  0
LINE
  5
DF
100
AcDbEntity
  8
A10
  6
CONTINUOUS
 62
7
100
AcDbLine
 10
35.32618125281262
 20
98.98315709196912
 30
0.0000000000000000
 11
35.32618125281302
 21
101.5831570919693
 31
0.0000000000000000
  0
LINE
  5
E0
100
AcDbEntity
  8
A10
  6
CONTINUOUS
 62
7
100
AcDbLine
 10
35.32618125281804
 20
133.5831570919693
 30
0.0000000000000000
 11
35.32618125281844
 21
136.1831570919692
 31
0.0000000000000000
  0
LINE
  5
E1
100
AcDbEntity
  8
A10
  6
CONTINUOUS
 62
7
100
AcDbLine
 10
43.12618125281261
 20
98.98315709196906
 30
0.0000000000000000
 11
43.12618125281302
 21
101.5831570919693
 31
0.0000000000000000
  0
LINE
  5
E2
100
AcDbEntity
  8
A10
  6
CONTINUOUS
 62
7
100
AcDbLine
 10
43.12618125281804
 20
133.5831570919693
 30
0.0000000000000000
 11
43.12618125281844
 21
136.1831570919692
 31
0.0000000000000000
  0
LINE
  5
E3
100
AcDbEntity
  8
A10
  6
CONTINUOUS
 62
7
100
AcDbLine
 10
43.72618125281079
 20
87.58315709196678
 30
0.0000000000000000
 11
43.72618125281242
 21
97.98315709208124
 31
0.0000000000000000
  0
LINE
  5
E4
100
AcDbEntity
  8
A10
  6
CONTINUOUS
 62
7
100
AcDbLine
 10
43.72618125281299
 20
101.5831570919693
 30
0.0000000000000000
 11
43.72618125281799
 21
133.5831570919693
 31
0.0000000000000000
  0
LINE
  5
E5
100
AcDbEntity
  8
A10
  6
CONTINUOUS
 62
7
100
AcDbLine
 10
34.72618125277769
 20
101.5831570919693
 30
0.0000000000000000
 11
34.72618125275955
 21
133.5831570919693
 31
0.0000000000000000
  0
LINE
  5
E6
100
AcDbEntity
  8
A1
  6
CONTINUOUS
 62
7
100
AcDbLine
 10
37.02618125281310
 20
87.08315709196933
 30
0.0000000000000000
 11
41.42618125281308
 21
87.08315709196933
 31
0.0000000000000000
  0
LINE
  5
E7
100
AcDbEntity
  8
A10
  6
CONTINUOUS
 62
7
100
AcDbLine
 10
41.72618125281299
 20
87.38315709196924
 30
0.0000000000000000
 11
36.72618125281481
 21
87.38315709196591
 31
0.0000000000000000
  0
LINE
  5
E8
100
AcDbEntity
  8
A1
  6
CONTINUOUS
 62
7
100
AcDbLine
 10
37.02618125281305
 20
87.08315709196930
 30
0.0000000000000000
 11
36.72618125281307
 21
87.38315709196924
 31
0.0000000000000000
  0
LINE
  5
E9
100
AcDbEntity
  8
A1
  6
CONTINUOUS
 62
7
100
AcDbLine
 10
36.72618125281298
 20
87.38315709196934
 30
0.0000000000000000
 11
36.72618125281298
 21
87.58315709196933
 31
0.0000000000000000
  0
LINE
  5
EA
100
AcDbEntity
  8
A1
  6
CONTINUOUS
 62
7
100
AcDbLine
 10
41.42618125281297
 20
87.08315709196944
 30
0.0000000000000000
 11
41.72618125281296
 21
87.38315709196942
 31
0.0000000000000000
  0
LINE
  5
EB
100
AcDbEntity
  8
A1
  6
CONTINUOUS
 62
7
100
AcDbLine
 10
41.72618125281303
 20
87.38315709196939
 30
0.0000000000000000
 11
41.72618125281303
 21
87.58315709196933
 31
0.0000000000000000
  0
LINE
  5
EC
100
AcDbEntity
  8
A1
  6
CONTINUOUS
 62
7
100
AcDbLine
 10
37.02618125281307
 20
148.0831570919690
 30
0.0000000000000000
 11
41.42618125281305
 21
148.0831570919690
 31
0.0000000000000000
  0
LINE
  5
ED
100
AcDbEntity
  8
A10
  6
CONTINUOUS
 62
7
100
AcDbLine
 10
41.72618125281296
 20
147.7831570919691
 30
0.0000000000000000
 11
36.72618125281478
 21
147.7831570919724
 31
0.0000000000000000
  0
LINE
  5
EE
100
AcDbEntity
  8
A1
  6
CONTINUOUS
 62
7
100
AcDbLine
 10
37.02618125281302
 20
148.0831570919691
 30
0.0000000000000000
 11
36.72618125281304
 21
147.7831570919691
 31
0.0000000000000000
  0
LINE
  5
EF
100
AcDbEntity
  8
A1
  6
CONTINUOUS
 62
7
100
AcDbLine
 10
36.72618125281295
 20
147.7831570919690
 30
0.0000000000000000
 11
36.72618125281295
 21
147.5831570919690
 31
0.0000000000000000
  0
LINE
  5
F0
100
AcDbEntity
  8
A1
  6
CONTINUOUS
 62
7
100
AcDbLine
 10
41.42618125281292
 20
148.0831570919689
 30
0.0000000000000000
 11
41.72618125281292
 21
147.7831570919689
 31
0.0000000000000000
  0
LINE
  5
F1
100
AcDbEntity
  8
A1
  6
CONTINUOUS
 62
7
100
AcDbLine
 10
41.72618125281301
 20
147.7831570919689
 30
0.0000000000000000
 11
41.72618125281301
 21
147.5831570919690
 31
0.0000000000000000
  0
ENDSEC
  0
SECTION
  2
OBJECTS
  0
DICTIONARY
  5
11A
100
AcDbDictionary
  3
ACAD_GROUP
350
11B
  3
ACAD_LAYOUT
350
11C
  3
ACAD_MLINESTYLE
350
11D
  0
DICTIONARY
  5
11B
102
{ACAD_REACTORS
330
11A
102
}
330
11A
100
AcDbDictionary
  0
DICTIONARY
  5
11C
102
{ACAD_REACTORS
330
11A
102
}
330
11A
100
AcDbDictionary
  3
Model
350
11E
  3
ﾚｲｱｳﾄ1
350
11F
  3
ﾚｲｱｳﾄ2
350
120
  0
DICTIONARY
  5
11D
102
{ACAD_REACTORS
330
11A
102
}
330
11A
100
AcDbDictionary
  3
STANDARD
350
121
  0
LAYOUT
  5
11E
102
{ACAD_REACTORS
330
11C
102
}
330
11C
100
AcDbPlotSettings
 70
11952
  4
A3
 44
297.000000
 45
420.000000
 73
  1
 72
  1
100
AcDbLayout
  1
Model
 71
0
330
111
  0
LAYOUT
  5
11F
102
{ACAD_REACTORS
330
11C
102
}
330
11C
100
AcDbPlotSettings
100
AcDbLayout
  1
ﾚｲｱｳﾄ1
 71
1
330
112
  0
LAYOUT
  5
120
102
{ACAD_REACTORS
330
11C
102
}
330
11C
100
AcDbPlotSettings
100
AcDbLayout
  1
ﾚｲｱｳﾄ2
 71
2
330
113
  0
MLINESTYLE
  5
121
102
{ACAD_REACTORS
330
11D
102
}
330
11D
100
AcDbMlineStyle
  2
STANDARD
 70
     0
  3

 62
   256
 51
90.00
 52
90.00
 71
     2
 49
0.50
 62
   256
  6
BYLAYER
 49
-0.50
 62
   256
  6
BYLAYER
  0
ENDSEC
  0
EOF
