  0
SECTION
  2
HEADER
  9
$ACADVER
  1
AC1015
  9
$DWGCODEPAGE
  3
ANSI_932
  9
$LTSCALE
 40
20.0
  9
$FILLMODE
 70
     1
  9
$CLAYER
  8
0
  9
$PDMODE
 70
     0
  9
$SPLFRAME
 70
     0
  9
$SPLINETYPE
 70
     6
  9
$SPLINESEGS
 70
     8
  9
$DIMASZ
 40
2.000000
  9
$DIMEXE
 40
1.500000
  9
$DIMEXO
 40
0.800000
  9
$DIMTAD
 70
     1
  9
$DIMTIH
 70
     0
  9
$DIMTOH
 70
     0
  9
$DIMTVP
 40
0.500000
  9
$DIMTXT
 40
3.100000
  9
$EXTMIN
 10
0.000000
 20
0.000000
 30
0.000000
  9
$EXTMAX
 10
297.000000
 20
420.000000
 30
0.000000
  9
$MEASUREMENT
 70
  1
  9
$LIMMIN
 10
0.000000
 20
0.000000
  9
$LIMMAX
 10
297.000000
 20
420.000000
  9
$HANDSEED
  5
1AB
  9
$LWDISPLAY
290
     0
  9
$DIMBLK
  1
_OPEN
  9
$DIMDEC
 70
     2
  9
$DIMADEC
 70
     2
  9
$DIMAUNIT
 70
     0
  9
$DIMZIN
 70
     8
  9
$DIMAZIN
 70
     2
  9
$DIMTOFL
 70
     1
  0
ENDSEC
  0
SECTION
  2
CLASSES
  0
ENDSEC
  0
SECTION
  2
TABLES
  0
TABLE
  2
VPORT
  5
176
100
AcDbSymbolTable
 70
     1
  0
VPORT
  5
177
100
AcDbSymbolTableRecord
100
AcDbViewportTableRecord
  2
*ACTIVE
 70
     0
 12
186.531797
 22
191.716198
 40
460.232589
 41
3.132140
  0
ENDTAB
  0
TABLE
  2
LTYPE
  5
178
100
AcDbSymbolTable
 70
     3
  0
LTYPE
  5
179
100
AcDbSymbolTableRecord
100
AcDbLinetypeTableRecord
  2
BYBLOCK
 70
     0
  3

 72
    65
 73
     0
 40
0.0
  0
LTYPE
  5
17A
100
AcDbSymbolTableRecord
100
AcDbLinetypeTableRecord
  2
BYLAYER
 70
     0
  3

 72
    65
 73
     0
 40
0.0
  0
LTYPE
  5
17B
100
AcDbSymbolTableRecord
100
AcDbLinetypeTableRecord
  2
CONTINUOUS
 70
     0
  3
Solid line (NEC CAE2D for Win R16.0 : 2020.10.12)
 72
    65
 73
     0
 40
0.0
  0
LTYPE
  5
17C
100
AcDbSymbolTableRecord
100
AcDbLinetypeTableRecord
  2
DASHED
 70
     0
  3
__ __ __ __ __ __ __ __ __ __ __ __ __ _
 72
    65
 73
     2
 40
0.75
 49
0.5
 74
     0
 49
-0.25
 74
     0
  0
LTYPE
  5
17D
100
AcDbSymbolTableRecord
100
AcDbLinetypeTableRecord
  2
CENTER
 70
     0
  3
____ _ ____ _ ____ _ ____ _ ____ _ ____
 72
    65
 73
     4
 40
2.0
 49
1.25
 74
     0
 49
-0.25
 74
     0
 49
0.25
 74
     0
 49
-0.25
 74
     0
  0
ENDTAB
  0
TABLE
  2
LAYER
  5
17E
100
AcDbSymbolTable
 70
    14
  0
LAYER
  5
17F
100
AcDbSymbolTableRecord
100
AcDbLayerTableRecord
  2
0
 70
     0
 62
     7
  6
CONTINUOUS
370
    -3
390

  0
LAYER
  5
180
100
AcDbSymbolTableRecord
100
AcDbLayerTableRecord
  2
A0
 70
     0
 62
     9
  6
CONTINUOUS
370
    -3
390

  0
LAYER
  5
181
100
AcDbSymbolTableRecord
100
AcDbLayerTableRecord
  2
A1
 70
     0
 62
     1
  6
CONTINUOUS
370
    -3
390

  0
LAYER
  5
182
100
AcDbSymbolTableRecord
100
AcDbLayerTableRecord
  2
A4
 70
     0
 62
     9
  6
CONTINUOUS
370
    -3
390

  0
LAYER
  5
183
100
AcDbSymbolTableRecord
100
AcDbLayerTableRecord
  2
A5
 70
     0
 62
     8
  6
CONTINUOUS
370
    -3
390

  0
LAYER
  5
184
100
AcDbSymbolTableRecord
100
AcDbLayerTableRecord
  2
A6
 70
     0
 62
    12
  6
CONTINUOUS
370
    -3
390

  0
LAYER
  5
185
100
AcDbSymbolTableRecord
100
AcDbLayerTableRecord
  2
A8
 70
     0
 62
    10
  6
CONTINUOUS
370
    -3
390

  0
LAYER
  5
186
100
AcDbSymbolTableRecord
100
AcDbLayerTableRecord
  2
A9
 70
     0
 62
     9
  6
CONTINUOUS
370
    -3
390

  0
LAYER
  5
187
100
AcDbSymbolTableRecord
100
AcDbLayerTableRecord
  2
A10
 70
     0
 62
     6
  6
CONTINUOUS
370
    -3
390

  0
LAYER
  5
188
100
AcDbSymbolTableRecord
100
AcDbLayerTableRecord
  2
A20
 70
     0
 62
     1
  6
CONTINUOUS
370
    -3
390

  0
LAYER
  5
189
100
AcDbSymbolTableRecord
100
AcDbLayerTableRecord
  2
A30
 70
     0
 62
     1
  6
CONTINUOUS
370
    -3
390

  0
LAYER
  5
18A
100
AcDbSymbolTableRecord
100
AcDbLayerTableRecord
  2
A40
 70
     0
 62
     9
  6
CONTINUOUS
370
    -3
390

  0
LAYER
  5
18B
100
AcDbSymbolTableRecord
100
AcDbLayerTableRecord
  2
A50
 70
     0
 62
    12
  6
CONTINUOUS
370
    -3
390

  0
LAYER
  5
18C
100
AcDbSymbolTableRecord
100
AcDbLayerTableRecord
  2
A1023
 70
     0
 62
    16
  6
CONTINUOUS
370
    -3
390

  0
ENDTAB
  0
TABLE
  2
STYLE
  5
18D
100
AcDbSymbolTable
 70
     4
  0
STYLE
  5
18E
100
AcDbSymbolTableRecord
100
AcDbTextStyleTableRecord
  2
STANDARD
 70
    64
 40
0.0
 41
1.0
 50
0.0
 71
     0
 42
2.000000000000000
  3
TXT
  4

  0
STYLE
  5
18F
100
AcDbSymbolTableRecord
100
AcDbTextStyleTableRecord
  2
ANKTATE
 70
    68
 40
0.0
 41
1.0
 50
0.0
 71
     0
 42
2.000000000000000
  3
TXT
  4

  0
STYLE
  5
190
100
AcDbSymbolTableRecord
100
AcDbTextStyleTableRecord
  2
KNJYOKO
 70
    64
 40
0.0
 41
1.0
 50
0.0
 71
     0
 42
2.000000000000000
  3
TXT
  4
BIGFONT
  0
STYLE
  5
191
100
AcDbSymbolTableRecord
100
AcDbTextStyleTableRecord
  2
KNJTATE
 70
    68
 40
0.0
 41
1.0
 50
0.0
 71
     0
 42
2.000000000000000
  3
TXT
  4
BIGFONT
  0
ENDTAB
  0
TABLE
  2
VIEW
  5
192
100
AcDbSymbolTable
 70
     0
  0
ENDTAB
  0
TABLE
  2
UCS
  5
193
100
AcDbSymbolTable
 70
     0
  0
ENDTAB
  0
TABLE
  2
APPID
  5
194
100
AcDbSymbolTable
 70
     1
  0
APPID
  5
195
100
AcDbSymbolTableRecord
100
AcDbRegAppTableRecord
  2
ACAD
 70
     0
  0
ENDTAB
  0
TABLE
  2
DIMSTYLE
  5
196
100
AcDbSymbolTable
 70
     2
100
AcDbDimStyleTable
  0
DIMSTYLE
105
197
100
AcDbSymbolTableRecord
100
AcDbDimStyleTableRecord
  2
STANDARD
 70
     0
 41
2.000000
 44
1.500000
 42
0.800000
145
0.661290
140
3.100000
144
1.000000
146
0.645161
340
18E
  0
DIMSTYLE
105
198
100
AcDbSymbolTableRecord
100
AcDbDimStyleTableRecord
  2
A001
 70
     0
 41
2.000000
 44
1.500000
 42
0.800000
145
0.661290
140
3.100000
144
1.000000
146
0.645161
 77
     1
 73
     0
 74
     0
271
     2
179
     2
275
     0
 78
     8
 79
     2
172
     1
340
18E
  0
ENDTAB
  0
TABLE
  2
BLOCK_RECORD
  5
199
100
AcDbSymbolTable
 70
    12
  0
BLOCK_RECORD
  5
19A
100
AcDbSymbolTableRecord
100
AcDbBlockTableRecord
  2
*MODEL_SPACE
  0
BLOCK_RECORD
  5
19B
100
AcDbSymbolTableRecord
100
AcDbBlockTableRecord
  2
*PAPER_SPACE
  0
BLOCK_RECORD
  5
19C
100
AcDbSymbolTableRecord
100
AcDbBlockTableRecord
  2
*PAPER_SPACE0
  0
BLOCK_RECORD
  5
1
100
AcDbSymbolTableRecord
100
AcDbBlockTableRecord
  2
_NONE
  0
BLOCK_RECORD
  5
4
100
AcDbSymbolTableRecord
100
AcDbBlockTableRecord
  2
_CLOSED
  0
BLOCK_RECORD
  5
B
100
AcDbSymbolTableRecord
100
AcDbBlockTableRecord
  2
_DOT
  0
BLOCK_RECORD
  5
13
100
AcDbSymbolTableRecord
100
AcDbBlockTableRecord
  2
_OPEN
  0
BLOCK_RECORD
  5
19
100
AcDbSymbolTableRecord
100
AcDbBlockTableRecord
  2
_ORIGIN
  0
BLOCK_RECORD
  5
1E
100
AcDbSymbolTableRecord
100
AcDbBlockTableRecord
  2
_OPEN30
  0
BLOCK_RECORD
  5
24
100
AcDbSymbolTableRecord
100
AcDbBlockTableRecord
  2
_BOXFILLED
  0
BLOCK_RECORD
  5
29
100
AcDbSymbolTableRecord
100
AcDbBlockTableRecord
  2
_BOXBLANK
  0
BLOCK_RECORD
  5
31
100
AcDbSymbolTableRecord
100
AcDbBlockTableRecord
  2
_OBLIQUE
  0
BLOCK_RECORD
  5
35
100
AcDbSymbolTableRecord
100
AcDbBlockTableRecord
  2
_OPEN90
  0
BLOCK_RECORD
  5
3B
100
AcDbSymbolTableRecord
100
AcDbBlockTableRecord
  2
_CLOSEDBLANK
  0
BLOCK_RECORD
  5
41
100
AcDbSymbolTableRecord
100
AcDbBlockTableRecord
  2
_DOTBLANK
  0
ENDTAB
  0
ENDSEC
  0
SECTION
  2
BLOCKS
  0
BLOCK
  5
19D
100
AcDbEntity
  8
0
100
AcDbBlockBegin
  2
*MODEL_SPACE
 70
     0
 10
0.0
 20
0.0
 30
0.0
  3
*MODEL_SPACE
  1

  0
ENDBLK
  5
19E
100
AcDbEntity
  8
0
100
AcDbBlockEnd
  0
BLOCK
  5
19F
100
AcDbEntity
  8
0
100
AcDbBlockBegin
  2
*PAPER_SPACE
 70
     0
 10
0.0
 20
0.0
 30
0.0
  3
*PAPER_SPACE
  1

  0
ENDBLK
  5
1A0
100
AcDbEntity
  8
0
100
AcDbBlockEnd
  0
BLOCK
  5
1A1
100
AcDbEntity
  8
0
100
AcDbBlockBegin
  2
*PAPER_SPACE0
 70
     0
 10
0.0
 20
0.0
 30
0.0
  3
*PAPER_SPACE0
  1

  0
ENDBLK
  5
1A2
100
AcDbEntity
  8
0
100
AcDbBlockEnd
  0
BLOCK
  5
2
330
1
100
AcDbEntity
  8
0
100
AcDbBlockBegin
  2
_NONE
 70
     0
 10
0.0
 20
0.0
 30
0.0
  3
_NONE
  1

  0
ENDBLK
  5
3
330
1
100
AcDbEntity
  8
0
100
AcDbBlockEnd
  0
BLOCK
  5
5
330
4
100
AcDbEntity
  8
0
100
AcDbBlockBegin
  2
_CLOSED
 70
     0
 10
0.0
 20
0.0
 30
0.0
  3
_CLOSED
  1

  0
LINE
  5
6
330
4
100
AcDbEntity
  8
0
  6
BYBLOCK
 62
     0
370
    -2
100
AcDbLine
 10
-1.0
 20
0.166667
 30
0.0
 11
0.0
 21
0.0
 31
0.0
  0
LINE
  5
7
330
4
100
AcDbEntity
  8
0
  6
BYBLOCK
 62
     0
370
    -2
100
AcDbLine
 10
0.0
 20
0.0
 30
0.0
 11
-1.0
 21
-0.166667
 31
0.0
  0
LINE
  5
8
330
4
100
AcDbEntity
  8
0
  6
BYBLOCK
 62
     0
370
    -2
100
AcDbLine
 10
-1.0
 20
0.166667
 30
0.0
 11
-1.0
 21
-0.166667
 31
0.0
  0
LINE
  5
9
330
4
100
AcDbEntity
  8
0
  6
BYBLOCK
 62
     0
370
    -2
100
AcDbLine
 10
0.0
 20
0.0
 30
0.0
 11
-1.0
 21
0.0
 31
0.0
  0
ENDBLK
  5
A
330
4
100
AcDbEntity
  8
0
100
AcDbBlockEnd
  0
BLOCK
  5
C
330
B
100
AcDbEntity
  8
0
100
AcDbBlockBegin
  2
_DOT
 70
     0
 10
0.0
 20
0.0
 30
0.0
  3
_DOT
  1

  0
POLYLINE
  5
D
330
B
100
AcDbEntity
  8
0
  6
BYBLOCK
 62
     0
370
    -2
100
AcDb2dPolyline
 66
     1
 10
0.0
 20
0.0
 30
0.0
 70
     1
 40
0.5
 41
0.5
  0
VERTEX
  5
E
330
B
100
AcDbEntity
  8
0
  6
BYBLOCK
 62
     0
370
    -2
100
AcDbVertex
100
AcDb2dVertex
 10
-0.25
 20
0.0
 30
0.0
 42
1.0
  0
VERTEX
  5
F
330
B
100
AcDbEntity
  8
0
  6
BYBLOCK
 62
     0
370
    -2
100
AcDbVertex
100
AcDb2dVertex
 10
0.25
 20
0.0
 30
0.0
 42
1.0
  0
SEQEND
  5
10
330
B
100
AcDbEntity
  8
0
  6
BYBLOCK
 62
     0
370
    -2
  0
LINE
  5
11
330
B
100
AcDbEntity
  8
0
  6
BYBLOCK
 62
     0
370
    -2
100
AcDbLine
 10
-0.5
 20
0.0
 30
0.0
 11
-1.0
 21
0.0
 31
0.0
  0
ENDBLK
  5
12
330
B
100
AcDbEntity
  8
0
100
AcDbBlockEnd
  0
BLOCK
  5
14
330
13
100
AcDbEntity
  8
0
100
AcDbBlockBegin
  2
_OPEN
 70
     0
 10
0.0
 20
0.0
 30
0.0
  3
_OPEN
  1

  0
LINE
  5
15
330
13
100
AcDbEntity
  8
0
  6
BYBLOCK
 62
     0
370
    -2
100
AcDbLine
 10
-1.0
 20
0.166667
 30
0.0
 11
0.0
 21
0.0
 31
0.0
  0
LINE
  5
16
330
13
100
AcDbEntity
  8
0
  6
BYBLOCK
 62
     0
370
    -2
100
AcDbLine
 10
0.0
 20
0.0
 30
0.0
 11
-1.0
 21
-0.166667
 31
0.0
  0
LINE
  5
17
330
13
100
AcDbEntity
  8
0
  6
BYBLOCK
 62
     0
370
    -2
100
AcDbLine
 10
0.0
 20
0.0
 30
0.0
 11
-1.0
 21
0.0
 31
0.0
  0
ENDBLK
  5
18
330
13
100
AcDbEntity
  8
0
100
AcDbBlockEnd
  0
BLOCK
  5
1A
330
19
100
AcDbEntity
  8
0
100
AcDbBlockBegin
  2
_ORIGIN
 70
     0
 10
0.0
 20
0.0
 30
0.0
  3
_ORIGIN
  1

  0
CIRCLE
  5
1B
330
19
100
AcDbEntity
  8
0
  6
BYBLOCK
 62
     0
370
    -2
100
AcDbCircle
 10
0.0
 20
0.0
 30
0.0
 40
0.5
  0
LINE
  5
1C
330
19
100
AcDbEntity
  8
0
  6
BYBLOCK
 62
     0
370
    -2
100
AcDbLine
 10
0.0
 20
0.0
 30
0.0
 11
-1.0
 21
0.0
 31
0.0
  0
ENDBLK
  5
1D
330
19
100
AcDbEntity
  8
0
100
AcDbBlockEnd
  0
BLOCK
  5
1F
330
1E
100
AcDbEntity
  8
0
100
AcDbBlockBegin
  2
_OPEN30
 70
     0
 10
0.0
 20
0.0
 30
0.0
  3
_OPEN30
  1

  0
LINE
  5
20
330
1E
100
AcDbEntity
  8
0
  6
BYBLOCK
 62
     0
370
    -2
100
AcDbLine
 10
-1.0
 20
0.267949
 30
0.0
 11
0.0
 21
0.0
 31
0.0
  0
LINE
  5
21
330
1E
100
AcDbEntity
  8
0
  6
BYBLOCK
 62
     0
370
    -2
100
AcDbLine
 10
0.0
 20
0.0
 30
0.0
 11
-1.0
 21
-0.267949
 31
0.0
  0
LINE
  5
22
330
1E
100
AcDbEntity
  8
0
  6
BYBLOCK
 62
     0
370
    -2
100
AcDbLine
 10
0.0
 20
0.0
 30
0.0
 11
-1.0
 21
0.0
 31
0.0
  0
ENDBLK
  5
23
330
1E
100
AcDbEntity
  8
0
100
AcDbBlockEnd
  0
BLOCK
  5
25
330
24
100
AcDbEntity
  8
0
100
AcDbBlockBegin
  2
_BOXFILLED
 70
     0
 10
0.0
 20
0.0
 30
0.0
  3
_BOXFILLED
  1

  0
SOLID
  5
26
330
24
100
AcDbEntity
  8
0
  6
BYBLOCK
 62
     0
370
    -2
100
AcDbTrace
 10
-0.5
 20
0.5
 30
0.0
 11
0.5
 21
0.5
 31
0.0
 12
-0.5
 22
-0.5
 32
0.0
 13
0.5
 23
-0.5
 33
0.0
  0
LINE
  5
27
330
24
100
AcDbEntity
  8
0
  6
BYBLOCK
 62
     0
370
    -2
100
AcDbLine
 10
-0.5
 20
0.0
 30
0.0
 11
-1.0
 21
0.0
 31
0.0
  0
ENDBLK
  5
28
330
24
100
AcDbEntity
  8
0
100
AcDbBlockEnd
  0
BLOCK
  5
2A
330
29
100
AcDbEntity
  8
0
100
AcDbBlockBegin
  2
_BOXBLANK
 70
     0
 10
0.0
 20
0.0
 30
0.0
  3
_BOXBLANK
  1

  0
LINE
  5
2B
330
29
100
AcDbEntity
  8
0
  6
BYBLOCK
 62
     0
370
    -2
100
AcDbLine
 10
-0.5
 20
-0.5
 30
0.0
 11
0.5
 21
-0.5
 31
0.0
  0
LINE
  5
2C
330
29
100
AcDbEntity
  8
0
  6
BYBLOCK
 62
     0
370
    -2
100
AcDbLine
 10
0.5
 20
-0.5
 30
0.0
 11
0.5
 21
0.5
 31
0.0
  0
LINE
  5
2D
330
29
100
AcDbEntity
  8
0
  6
BYBLOCK
 62
     0
370
    -2
100
AcDbLine
 10
0.5
 20
0.5
 30
0.0
 11
-0.5
 21
0.5
 31
0.0
  0
LINE
  5
2E
330
29
100
AcDbEntity
  8
0
  6
BYBLOCK
 62
     0
370
    -2
100
AcDbLine
 10
-0.5
 20
0.5
 30
0.0
 11
-0.5
 21
-0.5
 31
0.0
  0
LINE
  5
2F
330
29
100
AcDbEntity
  8
0
  6
BYBLOCK
 62
     0
370
    -2
100
AcDbLine
 10
-0.5
 20
0.0
 30
0.0
 11
-1.0
 21
0.0
 31
0.0
  0
ENDBLK
  5
30
330
29
100
AcDbEntity
  8
0
100
AcDbBlockEnd
  0
BLOCK
  5
32
330
31
100
AcDbEntity
  8
0
100
AcDbBlockBegin
  2
_OBLIQUE
 70
     0
 10
0.0
 20
0.0
 30
0.0
  3
_OBLIQUE
  1

  0
LINE
  5
33
330
31
100
AcDbEntity
  8
0
  6
BYBLOCK
 62
     0
370
    -2
100
AcDbLine
 10
-0.5
 20
-0.5
 30
0.0
 11
0.5
 21
0.5
 31
0.0
  0
ENDBLK
  5
34
330
31
100
AcDbEntity
  8
0
100
AcDbBlockEnd
  0
BLOCK
  5
36
330
35
100
AcDbEntity
  8
0
100
AcDbBlockBegin
  2
_OPEN90
 70
     0
 10
0.0
 20
0.0
 30
0.0
  3
_OPEN90
  1

  0
LINE
  5
37
330
35
100
AcDbEntity
  8
0
  6
BYBLOCK
 62
     0
370
    -2
100
AcDbLine
 10
-0.5
 20
0.5
 30
0.0
 11
0.0
 21
0.0
 31
0.0
  0
LINE
  5
38
330
35
100
AcDbEntity
  8
0
  6
BYBLOCK
 62
     0
370
    -2
100
AcDbLine
 10
0.0
 20
0.0
 30
0.0
 11
-0.5
 21
-0.5
 31
0.0
  0
LINE
  5
39
330
35
100
AcDbEntity
  8
0
  6
BYBLOCK
 62
     0
370
    -2
100
AcDbLine
 10
0.0
 20
0.0
 30
0.0
 11
-1.0
 21
0.0
 31
0.0
  0
ENDBLK
  5
3A
330
35
100
AcDbEntity
  8
0
100
AcDbBlockEnd
  0
BLOCK
  5
3C
330
3B
100
AcDbEntity
  8
0
100
AcDbBlockBegin
  2
_CLOSEDBLANK
 70
     0
 10
0.0
 20
0.0
 30
0.0
  3
_CLOSEDBLANK
  1

  0
LINE
  5
3D
330
3B
100
AcDbEntity
  8
0
  6
BYBLOCK
 62
     0
370
    -2
100
AcDbLine
 10
-1.0
 20
0.1666666666666666
 30
0.0
 11
0.0
 21
0.0
 31
0.0
  0
LINE
  5
3E
330
3B
100
AcDbEntity
  8
0
  6
BYBLOCK
 62
     0
370
    -2
100
AcDbLine
 10
0.0
 20
0.0
 30
0.0
 11
-1.0
 21
-0.1666666666666666
 31
0.0
  0
LINE
  5
3F
330
3B
100
AcDbEntity
  8
0
  6
BYBLOCK
 62
     0
370
    -2
100
AcDbLine
 10
-1.0
 20
0.1666666666666666
 30
0.0
 11
-1.0
 21
-0.1666666666666666
 31
0.0
  0
ENDBLK
  5
40
330
3B
100
AcDbEntity
  8
0
100
AcDbBlockEnd
  0
BLOCK
  5
42
330
41
100
AcDbEntity
  8
0
100
AcDbBlockBegin
  2
_DOTBLANK
 70
     0
 10
0.0
 20
0.0
 30
0.0
  3
_DOTBLANK
  1

  0
CIRCLE
  5
43
330
41
100
AcDbEntity
  8
0
  6
BYBLOCK
 62
     0
370
    -2
100
AcDbCircle
 10
0.0
 20
0.0
 30
0.0
 40
0.5
  0
LINE
  5
44
330
41
100
AcDbEntity
  8
0
  6
BYBLOCK
 62
     0
370
    -2
100
AcDbLine
 10
-0.5
 20
0.0
 30
0.0
 11
-1.0
 21
0.0
 31
0.0
  0
ENDBLK
  5
45
330
41
100
AcDbEntity
  8
0
100
AcDbBlockEnd
  0
ENDSEC
  0
SECTION
  2
ENTITIES
  0
MTEXT
  5
46
100
AcDbEntity
  8
A8
  6
CONTINUOUS
 62
7
100
AcDbMText
 10
9.999997526638502
 20
18.00000076076889
 30
0.0000000000000000
 40
3.000000000000000
 41
0.0000000000000000
 44
0.6739999771118164
 71
     7
 72
     1
  1
{\H0.93x;{TYPE No.TH-180}}
 11
1.000000000000000
 21
0.0000000000000000
 31
0.0000000000000000
  7
STANDARD
  0
LINE
  5
47
100
AcDbEntity
  8
A1
  6
CONTINUOUS
 62
7
100
AcDbLine
 10
124.7994865504733
 20
78.69421674997993
 30
0.0000000000000000
 11
106.0522969577227
 21
78.69421674997992
 31
0.0000000000000000
  0
LINE
  5
48
100
AcDbEntity
  8
A1
  6
CONTINUOUS
 62
7
100
AcDbLine
 10
146.0522969577228
 20
76.69421674998007
 30
0.0000000000000000
 11
106.0522969577228
 21
76.69421674998004
 31
0.0000000000000000
  0
LINE
  5
49
100
AcDbEntity
  8
A1
  6
CONTINUOUS
 62
7
100
AcDbLine
 10
106.0522969577227
 20
76.69421674997993
 30
0.0000000000000000
 11
106.0522969577227
 21
78.69421674997993
 31
0.0000000000000000
  0
LINE
  5
4A
100
AcDbEntity
  8
A1
  6
CONTINUOUS
 62
7
100
AcDbLine
 10
125.6290002127849
 20
77.82144494540162
 30
0.0000000000000000
 11
139.4031383450978
 21
106.2215674079920
 31
0.0000000000000000
  0
ARC
  5
4B
100
AcDbEntity
  8
A1
  6
CONTINUOUS
 62
7
100
AcDbCircle
 10
142.5522969577227
 20
104.6942167499800
 30
0.0000000000000000
 40
3.500000000000000
100
AcDbArc
 50
5.088887490341627e-13
 51
154.1264861739969
  0
ARC
  5
4C
100
AcDbEntity
  8
A1
  6
CONTINUOUS
 62
7
100
AcDbCircle
 10
123.8294810055708
 20
78.69421674998004
 30
0.0000000000000000
 40
1.999999999999999
100
AcDbArc
 50
270.0000000000000
 51
334.1264861739969
  0
ARC
  5
4D
100
AcDbEntity
  8
A1
  6
CONTINUOUS
 62
7
100
AcDbCircle
 10
124.7994865504733
 20
80.69421674998004
 30
0.0000000000000000
 40
2.000000000000000
100
AcDbArc
 50
270.0000000000000
 51
334.1264861739969
  0
LINE
  5
4E
100
AcDbEntity
  8
A10
  6
DASHED
 62
4
100
AcDbLine
 10
124.7994865504731
 20
78.69421674997992
 30
0.0000000000000000
 11
146.0522969578678
 21
78.69421674997453
 31
0.0000000000000000
  0
LINE
  5
4F
100
AcDbEntity
  8
A10
  6
CENTER
 62
1
100
AcDbLine
 10
114.0522969578680
 20
80.19421674998004
 30
0.0000000000000000
 11
114.0522969578680
 21
75.19421674998004
 31
0.0000000000000000
  0
LINE
  5
50
100
AcDbEntity
  8
A10
  6
CENTER
 62
1
100
AcDbLine
 10
126.0522969578680
 20
80.19421674998004
 30
0.0000000000000000
 11
126.0522969578680
 21
75.19421674998004
 31
0.0000000000000000
  0
LINE
  5
51
100
AcDbEntity
  8
A10
  6
CENTER
 62
1
100
AcDbLine
 10
138.0522969578680
 20
80.19421674998004
 30
0.0000000000000000
 11
138.0522969578680
 21
75.19421674998004
 31
0.0000000000000000
  0
LINE
  5
52
100
AcDbEntity
  8
A1
  6
CONTINUOUS
 62
7
100
AcDbLine
 10
140.0522969577227
 20
125.1942167499799
 30
0.0000000000000000
 11
199.0522969577227
 21
125.1942167499799
 31
0.0000000000000000
  0
LINE
  5
53
100
AcDbEntity
  8
A1
  6
CONTINUOUS
 62
7
100
AcDbLine
 10
139.0522969577227
 20
124.1942167499799
 30
0.0000000000000000
 11
139.0522969577227
 21
105.4981872392521
 31
0.0000000000000000
  0
LINE
  5
54
100
AcDbEntity
  8
A1
  6
CONTINUOUS
 62
7
100
AcDbLine
 10
200.0522969577227
 20
124.1942167499799
 30
0.0000000000000000
 11
200.0522969577227
 21
114.6942167499799
 31
0.0000000000000000
  0
LINE
  5
55
100
AcDbEntity
  8
A1
  6
CONTINUOUS
 62
7
100
AcDbLine
 10
199.0522969577227
 20
113.6942167499799
 30
0.0000000000000000
 11
151.6658137008205
 21
113.6942167499799
 31
0.0000000000000000
  0
LINE
  5
56
100
AcDbEntity
  8
A1
  6
CONTINUOUS
 62
7
100
AcDbLine
 10
150.7743352095754
 20
113.1472797694893
 30
0.0000000000000000
 11
146.0522969577228
 21
103.8558669745936
 31
0.0000000000000000
  0
CIRCLE
  5
57
100
AcDbEntity
  8
A1
  6
CONTINUOUS
 62
7
100
AcDbCircle
 10
157.0522969577227
 20
119.4442167499799
 30
0.0000000000000000
 40
3.500000000000000
  0
CIRCLE
  5
58
100
AcDbEntity
  8
A1
  6
CONTINUOUS
 62
7
100
AcDbCircle
 10
175.0522969577228
 20
119.4442167499799
 30
0.0000000000000000
 40
3.500000000000000
  0
CIRCLE
  5
59
100
AcDbEntity
  8
A1
  6
CONTINUOUS
 62
7
100
AcDbCircle
 10
193.0522969577228
 20
119.4442167499799
 30
0.0000000000000000
 40
3.500000000000000
  0
LINE
  5
5A
100
AcDbEntity
  8
A1
  6
CENTER
 62
1
100
AcDbLine
 10
188.0522969577227
 20
119.4442167499799
 30
0.0000000000000000
 11
198.0522969577227
 21
119.4442167499799
 31
0.0000000000000000
  0
LINE
  5
5B
100
AcDbEntity
  8
A1
  6
CENTER
 62
1
100
AcDbLine
 10
193.0522969577227
 20
114.4442167499799
 30
0.0000000000000000
 11
193.0522969577227
 21
124.4442167499799
 31
0.0000000000000000
  0
LINE
  5
5C
100
AcDbEntity
  8
A1
  6
CENTER
 62
1
100
AcDbLine
 10
170.0522969577227
 20
119.4442167499799
 30
0.0000000000000000
 11
180.0522969577227
 21
119.4442167499799
 31
0.0000000000000000
  0
LINE
  5
5D
100
AcDbEntity
  8
A1
  6
CENTER
 62
1
100
AcDbLine
 10
175.0522969577227
 20
114.4442167499799
 30
0.0000000000000000
 11
175.0522969577227
 21
124.4442167499799
 31
0.0000000000000000
  0
LINE
  5
5E
100
AcDbEntity
  8
A1
  6
CENTER
 62
1
100
AcDbLine
 10
152.0522969577227
 20
119.4442167499799
 30
0.0000000000000000
 11
162.0522969577227
 21
119.4442167499799
 31
0.0000000000000000
  0
LINE
  5
5F
100
AcDbEntity
  8
A1
  6
CENTER
 62
1
100
AcDbLine
 10
157.0522969577227
 20
114.4442167499799
 30
0.0000000000000000
 11
157.0522969577227
 21
124.4442167499799
 31
0.0000000000000000
  0
ARC
  5
60
100
AcDbEntity
  8
A1
  6
CONTINUOUS
 62
7
100
AcDbCircle
 10
199.0522969577228
 20
114.6942167499799
 30
0.0000000000000000
 40
1.000000000000000
100
AcDbArc
 50
270.0000000000000
 51
360.0000000000000
  0
ARC
  5
61
100
AcDbEntity
  8
A1
  6
CONTINUOUS
 62
7
100
AcDbCircle
 10
199.0522969577228
 20
124.1942167499799
 30
0.0000000000000000
 40
1.000000000000000
100
AcDbArc
 50
0.0000000000000000
 51
90.00000000000000
  0
ARC
  5
62
100
AcDbEntity
  8
A1
  6
CONTINUOUS
 62
7
100
AcDbCircle
 10
151.6658137008205
 20
112.6942167499799
 30
0.0000000000000000
 40
1.000000000000000
100
AcDbArc
 50
90.00000000000000
 51
153.0596254077996
  0
ARC
  5
63
100
AcDbEntity
  8
A1
  6
CONTINUOUS
 62
7
100
AcDbCircle
 10
140.0522969577227
 20
124.1942167499799
 30
0.0000000000000000
 40
1.000000000000000
100
AcDbArc
 50
90.00000000000000
 51
180.0000000000000
  0
ARC
  5
64
100
AcDbEntity
  8
A10
  6
CONTINUOUS
 62
1
100
AcDbCircle
 10
168.0522728702138
 20
119.4442167499799
 30
0.0000000000000000
 40
0.8590595467416471
100
AcDbArc
 50
305.5376777920008
 51
346.5374393917331
  0
ARC
  5
65
100
AcDbEntity
  8
A10
  6
CONTINUOUS
 62
1
100
AcDbCircle
 10
166.0522969577614
 20
122.2441830274103
 30
0.0000000000000000
 40
4.299948211772383
100
AcDbArc
 50
234.4623222079991
 51
305.5376777920008
  0
ARC
  5
66
100
AcDbEntity
  8
A10
  6
CONTINUOUS
 62
1
100
AcDbCircle
 10
164.0523210453092
 20
119.4442167499799
 30
0.0000000000000000
 40
0.8590595467416478
100
AcDbArc
 50
152.2496545546281
 51
234.4623222079992
  0
ARC
  5
67
100
AcDbEntity
  8
A10
  6
CONTINUOUS
 62
1
100
AcDbCircle
 10
168.0522728702138
 20
119.4442167499799
 30
0.0000000000000000
 40
0.8590595467416471
100
AcDbArc
 50
0.0000000000000000
 51
54.46232220805208
  0
ARC
  5
68
100
AcDbEntity
  8
A10
  6
CONTINUOUS
 62
1
100
AcDbCircle
 10
166.0522969577614
 20
116.6442504725440
 30
0.0000000000000000
 40
4.299948211772383
100
AcDbArc
 50
54.46232220805204
 51
125.5376777919479
  0
ARC
  5
69
100
AcDbEntity
  8
A10
  6
CONTINUOUS
 62
1
100
AcDbCircle
 10
164.0523210453092
 20
119.4442167499799
 30
0.0000000000000000
 40
0.8590595467416478
100
AcDbArc
 50
125.5376777919479
 51
135.6988392796172
  0
LINE
  5
6A
100
AcDbEntity
  8
A10
  6
CONTINUOUS
 62
1
100
AcDbLine
 10
168.2189375295848
 20
118.5299908869235
 30
0.0000000000000000
 11
168.2189375295848
 21
119.9668600004714
 31
0.0000000000000000
  0
LINE
  5
6B
100
AcDbEntity
  8
A10
  6
CONTINUOUS
 62
1
100
AcDbLine
 10
167.8856082108427
 20
120.0592089363587
 30
0.0000000000000000
 11
167.8856082108427
 21
118.8292245635957
 31
0.0000000000000000
  0
ARC
  5
6C
100
AcDbEntity
  8
A10
  6
CONTINUOUS
 62
1
100
AcDbCircle
 10
167.7189435514717
 20
118.8292245635957
 30
0.0000000000000000
 40
0.1666646593710226
100
AcDbArc
 50
296.0143659996366
 51
360.0000000000000
  0
ARC
  5
6D
100
AcDbEntity
  8
A10
  6
CONTINUOUS
 62
1
100
AcDbCircle
 10
166.0522969577614
 20
122.2441830274103
 30
0.0000000000000000
 40
3.966618893030338
100
AcDbArc
 50
292.9439535565378
 51
296.0143659996366
  0
ARC
  5
6E
100
AcDbEntity
  8
A10
  6
CONTINUOUS
 62
1
100
AcDbCircle
 10
167.5856118239749
 20
118.6220725965597
 30
0.0000000000000000
 40
0.03333293187420451
100
AcDbArc
 50
180.0000000000000
 51
292.9439535565375
  0
LINE
  5
6F
100
AcDbEntity
  8
A10
  6
CONTINUOUS
 62
1
100
AcDbLine
 10
167.5522788921006
 20
118.6220725965597
 30
0.0000000000000000
 11
167.5522788921006
 21
120.2663609033947
 31
0.0000000000000000
  0
ARC
  5
70
100
AcDbEntity
  8
A10
  6
CONTINUOUS
 62
1
100
AcDbCircle
 10
167.5856118239749
 20
120.2663609033947
 30
0.0000000000000000
 40
0.03333293187420451
100
AcDbArc
 50
67.05604644346229
 51
180.0000000000000
  0
ARC
  5
71
100
AcDbEntity
  8
A10
  6
CONTINUOUS
 62
1
100
AcDbCircle
 10
166.0522969577614
 20
116.6442504725440
 30
0.0000000000000000
 40
3.966618893030338
100
AcDbArc
 50
63.98563400036338
 51
67.05604644346224
  0
ARC
  5
72
100
AcDbEntity
  8
A10
  6
CONTINUOUS
 62
1
100
AcDbCircle
 10
167.7189435514717
 20
120.0592089363586
 30
0.0000000000000000
 40
0.1666646593710226
100
AcDbArc
 50
0.0000000000000000
 51
63.98563400036338
  0
LINE
  5
73
100
AcDbEntity
  8
A10
  6
CONTINUOUS
 62
1
100
AcDbLine
 10
166.8856202546166
 20
119.0442215674895
 30
0.0000000000000000
 11
166.8856202546166
 21
118.4075640166885
 31
0.0000000000000000
  0
ARC
  5
74
100
AcDbEntity
  8
A10
  6
CONTINUOUS
 62
1
100
AcDbCircle
 10
166.9189531864907
 20
118.4075640166885
 30
0.0000000000000000
 40
0.03333293187420451
100
AcDbArc
 50
180.0000000000000
 51
282.7289438731227
  0
ARC
  5
75
100
AcDbEntity
  8
A10
  6
CONTINUOUS
 62
1
100
AcDbCircle
 10
166.0522969577614
 20
122.2441830274103
 30
0.0000000000000000
 40
3.966618893030338
100
AcDbArc
 50
282.7289438731226
 51
283.2681189705562
  0
ARC
  5
76
100
AcDbEntity
  8
A10
  6
CONTINUOUS
 62
1
100
AcDbCircle
 10
166.0522969577614
 20
122.2441830274103
 30
0.0000000000000000
 40
3.966618893030338
100
AcDbArc
 50
283.2681189705563
 51
285.2575232904563
  0
ARC
  5
77
100
AcDbEntity
  8
A10
  6
CONTINUOUS
 62
1
100
AcDbCircle
 10
167.0522849139876
 20
118.5781666246500
 30
0.0000000000000000
 40
0.1666646593710226
100
AcDbArc
 50
285.2575232904564
 51
360.0000000000000
  0
LINE
  5
78
100
AcDbEntity
  8
A10
  6
CONTINUOUS
 62
1
100
AcDbLine
 10
167.2189495733586
 20
118.5781666246500
 30
0.0000000000000000
 11
167.2189495733586
 21
120.3102668753043
 31
0.0000000000000000
  0
ARC
  5
79
100
AcDbEntity
  8
A10
  6
CONTINUOUS
 62
1
100
AcDbCircle
 10
167.0522849139876
 20
120.3102668753044
 30
0.0000000000000000
 40
0.1666646593710226
100
AcDbArc
 50
0.0000000000000000
 51
74.74247670954358
  0
ARC
  5
7A
100
AcDbEntity
  8
A10
  6
CONTINUOUS
 62
1
100
AcDbCircle
 10
166.0522969577614
 20
116.6442504725440
 30
0.0000000000000000
 40
3.966618893030338
100
AcDbArc
 50
74.74247670954358
 51
74.79371212394199
  0
ARC
  5
7B
100
AcDbEntity
  8
A10
  6
CONTINUOUS
 62
1
100
AcDbCircle
 10
166.0522969577614
 20
116.6442504725440
 30
0.0000000000000000
 40
3.966618893030338
100
AcDbArc
 50
74.79371212394199
 51
77.27105612687734
  0
ARC
  5
7C
100
AcDbEntity
  8
A10
  6
CONTINUOUS
 62
1
100
AcDbCircle
 10
166.9189531864907
 20
120.4808694832659
 30
0.0000000000000000
 40
0.03333293187420451
100
AcDbArc
 50
77.27105612687744
 51
180.0000000000000
  0
LINE
  5
7D
100
AcDbEntity
  8
A10
  6
CONTINUOUS
 62
1
100
AcDbLine
 10
166.8856202546166
 20
120.4808694832659
 30
0.0000000000000000
 11
166.8856202546166
 21
119.8442119324704
 31
0.0000000000000000
  0
LINE
  5
7E
100
AcDbEntity
  8
A10
  6
CONTINUOUS
 62
1
100
AcDbLine
 10
166.5522909358746
 20
118.3092025364300
 30
0.0000000000000000
 11
166.5522909358746
 21
120.5792309635243
 31
0.0000000000000000
  0
LINE
  5
7F
100
AcDbEntity
  8
A10
  6
CONTINUOUS
 62
1
100
AcDbLine
 10
166.2189616171325
 20
118.2810670394708
 30
0.0000000000000000
 11
166.2189616171325
 21
120.6073664604835
 31
0.0000000000000000
  0
LINE
  5
80
100
AcDbEntity
  8
A10
  6
CONTINUOUS
 62
1
100
AcDbLine
 10
166.2189616171325
 20
119.4442167499799
 30
0.0000000000000000
 11
166.5522909358746
 21
119.4442167499799
 31
0.0000000000000000
  0
LINE
  5
81
100
AcDbEntity
  8
A10
  6
CONTINUOUS
 62
1
100
AcDbLine
 10
165.8856322983904
 20
118.2810670394708
 30
0.0000000000000000
 11
165.8856322983904
 21
120.6073664604835
 31
0.0000000000000000
  0
LINE
  5
82
100
AcDbEntity
  8
A10
  6
CONTINUOUS
 62
1
100
AcDbLine
 10
165.2189736609063
 20
119.0442215674895
 30
0.0000000000000000
 11
165.2189736609063
 21
118.5031646581727
 31
0.0000000000000000
  0
ARC
  5
83
100
AcDbEntity
  8
A10
  6
CONTINUOUS
 62
1
100
AcDbCircle
 10
165.3856383202774
 20
118.5031646581727
 30
0.0000000000000000
 40
0.1666646593710226
100
AcDbArc
 50
180.0000000000000
 51
259.8958172838749
  0
ARC
  5
84
100
AcDbEntity
  8
A10
  6
CONTINUOUS
 62
1
100
AcDbCircle
 10
166.0522969577614
 20
122.2441830274103
 30
0.0000000000000000
 40
3.966618893030338
100
AcDbArc
 50
259.8958172838750
 51
262.2070756645776
  0
ARC
  5
85
100
AcDbEntity
  8
A10
  6
CONTINUOUS
 62
1
100
AcDbCircle
 10
165.5189700477742
 20
118.3472225632394
 30
0.0000000000000000
 40
0.03333293187420451
100
AcDbArc
 50
262.2070756645773
 51
360.0000000000000
  0
LINE
  5
86
100
AcDbEntity
  8
A10
  6
CONTINUOUS
 62
1
100
AcDbLine
 10
165.5523029796483
 20
118.3472225632395
 30
0.0000000000000000
 11
165.5523029796483
 21
120.5412109367149
 31
0.0000000000000000
  0
ARC
  5
87
100
AcDbEntity
  8
A10
  6
CONTINUOUS
 62
1
100
AcDbCircle
 10
165.5189700477742
 20
120.5412109367149
 30
0.0000000000000000
 40
0.03333293187420451
100
AcDbArc
 50
0.0000000000000000
 51
97.79292433542275
  0
ARC
  5
88
100
AcDbEntity
  8
A10
  6
CONTINUOUS
 62
1
100
AcDbCircle
 10
166.0522969577614
 20
116.6442504725440
 30
0.0000000000000000
 40
3.966618893030338
100
AcDbArc
 50
97.79292433542234
 51
100.1041827161250
  0
ARC
  5
89
100
AcDbEntity
  8
A10
  6
CONTINUOUS
 62
1
100
AcDbCircle
 10
165.3856383202774
 20
120.3852688417816
 30
0.0000000000000000
 40
0.1666646593710226
100
AcDbArc
 50
100.1041827161250
 51
180.0000000000000
  0
LINE
  5
8A
100
AcDbEntity
  8
A10
  6
CONTINUOUS
 62
1
100
AcDbLine
 10
165.2189736609063
 20
120.3852688417816
 30
0.0000000000000000
 11
165.2189736609063
 21
119.4442167499799
 31
0.0000000000000000
  0
LINE
  5
8B
100
AcDbEntity
  8
A10
  6
CONTINUOUS
 62
1
100
AcDbLine
 10
165.2189736609063
 20
119.4442167499799
 30
0.0000000000000000
 11
165.3856383202773
 21
119.4442167499799
 31
0.0000000000000000
  0
LINE
  5
8C
100
AcDbEntity
  8
A10
  6
CONTINUOUS
 62
1
100
AcDbLine
 10
164.8856443421643
 20
118.3485057948633
 30
0.0000000000000000
 11
164.8856443421643
 21
120.4354227341362
 31
0.0000000000000000
  0
LINE
  5
8D
100
AcDbEntity
  8
A10
  6
CONTINUOUS
 62
1
100
AcDbLine
 10
164.5523150234223
 20
118.5055414172241
 30
0.0000000000000000
 11
164.5523150234223
 21
119.2775520906089
 31
0.0000000000000000
  0
ARC
  5
8E
100
AcDbEntity
  8
A10
  6
CONTINUOUS
 62
1
100
AcDbCircle
 10
164.3856503640512
 20
119.2775520906089
 30
0.0000000000000000
 40
0.1666646593710234
100
AcDbArc
 50
0.0000000000000000
 51
180.0000000000000
  0
LINE
  5
8F
100
AcDbEntity
  8
A10
  6
CONTINUOUS
 62
1
100
AcDbLine
 10
164.2189857046801
 20
119.2775520906089
 30
0.0000000000000000
 11
164.2189857046801
 21
118.5654594239735
 31
0.0000000000000000
  0
LINE
  5
90
100
AcDbEntity
  8
A10
  6
CONTINUOUS
 62
1
100
AcDbLine
 10
164.3856503640513
 20
119.4442167499799
 30
0.0000000000000000
 11
164.3856503640513
 21
120.2437441277987
 31
0.0000000000000000
  0
LINE
  5
91
100
AcDbEntity
  8
A10
  6
CONTINUOUS
 62
1
100
AcDbLine
 10
164.0492660047139
 20
120.0679812510482
 30
0.0000000000000000
 11
163.6727170396363
 21
118.6626813818459
 31
0.0000000000000000
  0
LINE
  5
92
100
AcDbEntity
  8
A10
  6
CONTINUOUS
 62
1
100
AcDbLine
 10
163.1932614985675
 20
119.4442167499799
 30
0.0000000000000000
 11
163.8821288103848
 21
119.4442167499799
 31
0.0000000000000000
  0
CIRCLE
  5
93
100
AcDbEntity
  8
A10
  6
CONTINUOUS
 62
7
100
AcDbCircle
 10
193.0522969577228
 20
119.4442167499799
 30
0.0000000000000000
 40
2.050000000000000
  0
CIRCLE
  5
94
100
AcDbEntity
  8
A10
  6
CONTINUOUS
 62
7
100
AcDbCircle
 10
175.0522969577228
 20
119.4442167499799
 30
0.0000000000000000
 40
2.050000000000000
  0
CIRCLE
  5
95
100
AcDbEntity
  8
A10
  6
CONTINUOUS
 62
7
100
AcDbCircle
 10
157.0522969577227
 20
119.4442167499799
 30
0.0000000000000000
 40
2.050000000000000
  0
LINE
  5
96
100
AcDbEntity
  8
A10
  6
CENTER
 62
1
100
AcDbLine
 10
146.7522969577227
 20
104.6942167499799
 30
0.0000000000000000
 11
138.3522969577227
 21
104.6942167499799
 31
0.0000000000000000
  0
LINE
  5
97
100
AcDbEntity
  8
A10
  6
CENTER
 62
1
100
AcDbLine
 10
142.5522969577227
 20
108.8942167499799
 30
0.0000000000000000
 11
142.5522969577227
 21
100.4942167499799
 31
0.0000000000000000
  0
MTEXT
  5
98
100
AcDbEntity
  8
A20
  6
CONTINUOUS
 62
1
100
AcDbMText
 10
171.0062434062606
 20
122.7565606535828
 30
0.0000000000000000
 40
2.000000000000000
 41
0.0000000000000000
 44
0.6720000028610229
 71
     1
 72
     1
  1
{\H0.92x;{TH-180}}
 11
-1.000000000000000
 21
1.224646799147353e-16
 31
0.0000000000000000
  7
STANDARD
  0
LINE
  5
99
100
AcDbEntity
  8
A1
  6
CONTINUOUS
 62
7
100
AcDbLine
 10
107.0522969577225
 20
173.4045906800684
 30
0.0000000000000000
 11
126.0522969577225
 21
173.4045906800684
 31
0.0000000000000000
  0
LINE
  5
9A
100
AcDbEntity
  8
A1
  6
CONTINUOUS
 62
7
100
AcDbLine
 10
146.0522969577225
 20
171.4045906800685
 30
0.0000000000000000
 11
126.6024873886933
 21
171.4045906800685
 31
0.0000000000000000
  0
LINE
  5
9B
100
AcDbEntity
  8
A1
  6
CONTINUOUS
 62
7
100
AcDbLine
 10
126.0522969577225
 20
173.4045906800683
 30
0.0000000000000000
 11
146.0522969577225
 21
173.4045906800683
 31
0.0000000000000000
  0
ARC
  5
9C
100
AcDbEntity
  8
A1
  6
CONTINUOUS
 62
7
100
AcDbCircle
 10
124.5522969577225
 20
181.4045906800685
 30
0.0000000000000000
 40
3.000000000000000
100
AcDbArc
 50
90.00000000000000
 51
270.0000000000000
  0
ARC
  5
9D
100
AcDbEntity
  8
A1
  6
CONTINUOUS
 62
7
100
AcDbCircle
 10
127.5522969577225
 20
181.4045906800685
 30
0.0000000000000000
 40
3.000000000000000
100
AcDbArc
 50
270.0000000000000
 51
450.0000000000000
  0
LINE
  5
9E
100
AcDbEntity
  8
A1
  6
CONTINUOUS
 62
7
100
AcDbLine
 10
127.5522969577225
 20
184.4045906800685
 30
0.0000000000000000
 11
124.5522969577225
 21
184.4045906800685
 31
0.0000000000000000
  0
LINE
  5
9F
100
AcDbEntity
  8
A1
  6
CONTINUOUS
 62
7
100
AcDbLine
 10
127.5522969577225
 20
178.4045906800685
 30
0.0000000000000000
 11
124.5522969577225
 21
178.4045906800685
 31
0.0000000000000000
  0
ARC
  5
A0
100
AcDbEntity
  8
A1
  6
CONTINUOUS
 62
7
100
AcDbCircle
 10
127.5522969577225
 20
181.4045906800685
 30
0.0000000000000000
 40
2.000000000000000
100
AcDbArc
 50
270.0000000000000
 51
450.0000000000000
  0
LINE
  5
A1
100
AcDbEntity
  8
A1
  6
CONTINUOUS
 62
7
100
AcDbLine
 10
127.5522969577225
 20
183.4045906800685
 30
0.0000000000000000
 11
124.5522969577225
 21
183.4045906800685
 31
0.0000000000000000
  0
LINE
  5
A2
100
AcDbEntity
  8
A1
  6
CONTINUOUS
 62
7
100
AcDbLine
 10
127.5522969577225
 20
179.4045906800685
 30
0.0000000000000000
 11
124.5522969577225
 21
179.4045906800685
 31
0.0000000000000000
  0
ARC
  5
A3
100
AcDbEntity
  8
A1
  6
CONTINUOUS
 62
7
100
AcDbCircle
 10
124.5522969577225
 20
181.4045906800685
 30
0.0000000000000000
 40
2.000000000000000
100
AcDbArc
 50
90.00000000000000
 51
270.0000000000000
  0
CIRCLE
  5
A4
100
AcDbEntity
  8
A1
  6
CONTINUOUS
 62
7
100
AcDbCircle
 10
138.0522969577225
 20
185.9045906800685
 30
0.0000000000000000
 40
3.500000000000000
  0
CIRCLE
  5
A5
100
AcDbEntity
  8
A1
  6
CONTINUOUS
 62
7
100
AcDbCircle
 10
114.0522969577225
 20
185.9045906800685
 30
0.0000000000000000
 40
3.500000000000000
  0
LINE
  5
A6
100
AcDbEntity
  8
A1
  6
CONTINUOUS
 62
7
100
AcDbLine
 10
126.6024873886935
 20
171.4045906800686
 30
0.0000000000000000
 11
126.0522969577226
 21
173.4045906800685
 31
0.0000000000000000
  0
LINE
  5
A7
100
AcDbEntity
  8
A1
  6
CENTER
 62
1
100
AcDbLine
 10
138.0522969577225
 20
190.9045906800685
 30
0.0000000000000000
 11
138.0522969577225
 21
180.9045906800685
 31
0.0000000000000000
  0
LINE
  5
A8
100
AcDbEntity
  8
A1
  6
CENTER
 62
1
100
AcDbLine
 10
133.0522969577225
 20
185.9045906800685
 30
0.0000000000000000
 11
143.0522969577225
 21
185.9045906800685
 31
0.0000000000000000
  0
LINE
  5
A9
100
AcDbEntity
  8
A1
  6
CENTER
 62
1
100
AcDbLine
 10
114.0522969577225
 20
190.9045906800685
 30
0.0000000000000000
 11
114.0522969577225
 21
180.9045906800685
 31
0.0000000000000000
  0
LINE
  5
AA
100
AcDbEntity
  8
A1
  6
CENTER
 62
1
100
AcDbLine
 10
109.0522969577225
 20
185.9045906800685
 30
0.0000000000000000
 11
119.0522969577225
 21
185.9045906800685
 31
0.0000000000000000
  0
LINE
  5
AB
100
AcDbEntity
  8
A1
  6
CENTER
 62
1
100
AcDbLine
 10
120.0522969577225
 20
181.4045906800685
 30
0.0000000000000000
 11
132.0522969577225
 21
181.4045906800685
 31
0.0000000000000000
  0
LINE
  5
AC
100
AcDbEntity
  8
A10
  6
CENTER
 62
1
100
AcDbLine
 10
126.0522969577225
 20
185.9045906800685
 30
0.0000000000000000
 11
126.0522969577225
 21
176.9045906800685
 31
0.0000000000000000
  0
ARC
  5
AD
100
AcDbEntity
  8
A1
  6
CONTINUOUS
 62
7
100
AcDbCircle
 10
107.0522969577225
 20
174.4045906800683
 30
0.0000000000000000
 40
1.000000000000000
100
AcDbArc
 50
180.0000000000000
 51
270.0000000000000
  0
ARC
  5
AE
100
AcDbEntity
  8
A1
  6
CONTINUOUS
 62
7
100
AcDbCircle
 10
107.0522969577225
 20
190.4045906800685
 30
0.0000000000000000
 40
1.000000000000000
100
AcDbArc
 50
90.00000000000000
 51
180.0000000000000
  0
ARC
  5
AF
100
AcDbEntity
  8
A1
  6
CONTINUOUS
 62
7
100
AcDbCircle
 10
145.0522969577225
 20
190.4045906800686
 30
0.0000000000000000
 40
1.000000000000000
100
AcDbArc
 50
0.0000000000000000
 51
90.00000000000000
  0
CIRCLE
  5
B0
100
AcDbEntity
  8
A10
  6
CONTINUOUS
 62
7
100
AcDbCircle
 10
114.0522969577225
 20
185.9045906800685
 30
0.0000000000000000
 40
2.050000000000000
  0
CIRCLE
  5
B1
100
AcDbEntity
  8
A10
  6
CONTINUOUS
 62
7
100
AcDbCircle
 10
138.0522969577225
 20
185.9045906800685
 30
0.0000000000000000
 40
2.050000000000000
  0
LINE
  5
B2
100
AcDbEntity
  8
A10
  6
CONTINUOUS
 62
7
100
AcDbLine
 10
139.0522969577224
 20
173.9045906800683
 30
0.0000000000000000
 11
200.0522969577225
 21
173.9045906800683
 31
0.0000000000000000
  0
LINE
  5
B3
100
AcDbEntity
  8
A10
  6
CONTINUOUS
 62
7
100
AcDbLine
 10
139.0522969577224
 20
175.9045906800683
 30
0.0000000000000000
 11
200.0522969577225
 21
175.9045906800683
 31
0.0000000000000000
  0
LINE
  5
B4
100
AcDbEntity
  8
A10
  6
CONTINUOUS
 62
7
100
AcDbLine
 10
200.0522969577225
 20
173.9045906800683
 30
0.0000000000000000
 11
200.0522969577225
 21
175.9045906800683
 31
0.0000000000000000
  0
LINE
  5
B5
100
AcDbEntity
  8
A10
  6
CONTINUOUS
 62
7
100
AcDbLine
 10
139.0522969577224
 20
173.9045906800683
 30
0.0000000000000000
 11
139.0522969577224
 21
175.9045906800683
 31
0.0000000000000000
  0
LINE
  5
B6
100
AcDbEntity
  8
A10
  6
CENTER
 62
1
100
AcDbLine
 10
193.0522969577225
 20
172.4045906800683
 30
0.0000000000000000
 11
193.0522969577225
 21
177.4045906800683
 31
0.0000000000000000
  0
LINE
  5
B7
100
AcDbEntity
  8
A10
  6
CENTER
 62
1
100
AcDbLine
 10
175.0522969577225
 20
172.4045906800683
 30
0.0000000000000000
 11
175.0522969577225
 21
177.4045906800683
 31
0.0000000000000000
  0
LINE
  5
B8
100
AcDbEntity
  8
A10
  6
CENTER
 62
1
100
AcDbLine
 10
157.0522969577224
 20
172.4045906800683
 30
0.0000000000000000
 11
157.0522969577224
 21
177.4045906800683
 31
0.0000000000000000
  0
LINE
  5
B9
100
AcDbEntity
  8
A10
  6
CONTINUOUS
 62
7
100
AcDbLine
 10
139.5522969577224
 20
173.4045906800683
 30
0.0000000000000000
 11
139.5522969577224
 21
173.9045906800683
 31
0.0000000000000000
  0
LINE
  5
BA
100
AcDbEntity
  8
A10
  6
CONTINUOUS
 62
7
100
AcDbLine
 10
145.5522969577224
 20
173.4045906800683
 30
0.0000000000000000
 11
145.5522969577224
 21
173.9045906800683
 31
0.0000000000000000
  0
LINE
  5
BB
100
AcDbEntity
  8
A1
  6
CONTINUOUS
 62
7
100
AcDbLine
 10
146.0522969577225
 20
173.9045906800683
 30
0.0000000000000000
 11
146.0522969577225
 21
171.4045906800685
 31
0.0000000000000000
  0
LINE
  5
BC
100
AcDbEntity
  8
A1
  6
CONTINUOUS
 62
7
100
AcDbLine
 10
146.0522969577225
 20
175.9045906800683
 30
0.0000000000000000
 11
146.0522969577225
 21
190.4045906800686
 31
0.0000000000000000
  0
LINE
  5
BD
100
AcDbEntity
  8
A1
  6
CONTINUOUS
 62
7
100
AcDbLine
 10
107.0522969577224
 20
191.4045906800685
 30
0.0000000000000000
 11
145.0522969577224
 21
191.4045906800685
 31
0.0000000000000000
  0
LINE
  5
BE
100
AcDbEntity
  8
A1
  6
CONTINUOUS
 62
7
100
AcDbLine
 10
106.0522969577225
 20
174.4045906800683
 30
0.0000000000000000
 11
106.0522969577225
 21
190.4045906800685
 31
0.0000000000000000
  0
LINE
  5
BF
100
AcDbEntity
  8
A1
  6
CONTINUOUS
 62
7
100
AcDbLine
 10
146.0522969577226
 20
76.69421674998006
 30
0.0000000000000000
 11
146.0522969577227
 21
104.6942167499800
 31
0.0000000000000000
  0
LINE
  5
C0
100
AcDbEntity
  8
A1
  6
CONTINUOUS
 62
7
100
AcDbLine
 10
145.0522969577227
 20
304.9361501765874
 30
0.0000000000000000
 11
107.0522969577224
 21
304.9361501765876
 31
0.0000000000000000
  0
LINE
  5
C1
100
AcDbEntity
  8
A1
  6
CONTINUOUS
 62
7
100
AcDbLine
 10
106.0522969577225
 20
305.9361501765875
 30
0.0000000000000000
 11
106.0522969577225
 21
321.9361501765877
 31
0.0000000000000000
  0
LINE
  5
C2
100
AcDbEntity
  8
A1
  6
CONTINUOUS
 62
7
100
AcDbLine
 10
107.0522969577223
 20
322.9361501765879
 30
0.0000000000000000
 11
146.0522969577224
 21
322.9361501765879
 31
0.0000000000000000
  0
LINE
  5
C3
100
AcDbEntity
  8
A1
  6
CONTINUOUS
 62
7
100
AcDbLine
 10
146.0522969577226
 20
305.9361501765876
 30
0.0000000000000000
 11
146.0522969577226
 21
324.9361501765876
 31
0.0000000000000000
  0
LINE
  5
C4
100
AcDbEntity
  8
A1
  6
CONTINUOUS
 62
7
100
AcDbLine
 10
146.0522969577227
 20
324.9361501765875
 30
0.0000000000000000
 11
126.6024873886935
 21
324.9361501765875
 31
0.0000000000000000
  0
ARC
  5
C5
100
AcDbEntity
  8
A1
  6
CONTINUOUS
 62
7
100
AcDbCircle
 10
124.5522969577226
 20
314.9361501765876
 30
0.0000000000000000
 40
3.000000000000000
100
AcDbArc
 50
90.00000000000000
 51
270.0000000000000
  0
ARC
  5
C6
100
AcDbEntity
  8
A1
  6
CONTINUOUS
 62
7
100
AcDbCircle
 10
127.5522969577226
 20
314.9361501765876
 30
0.0000000000000000
 40
3.000000000000000
100
AcDbArc
 50
270.0000000000000
 51
450.0000000000000
  0
LINE
  5
C7
100
AcDbEntity
  8
A1
  6
CONTINUOUS
 62
7
100
AcDbLine
 10
127.5522969577227
 20
311.9361501765875
 30
0.0000000000000000
 11
124.5522969577227
 21
311.9361501765875
 31
0.0000000000000000
  0
LINE
  5
C8
100
AcDbEntity
  8
A1
  6
CONTINUOUS
 62
7
100
AcDbLine
 10
127.5522969577227
 20
317.9361501765875
 30
0.0000000000000000
 11
124.5522969577227
 21
317.9361501765875
 31
0.0000000000000000
  0
ARC
  5
C9
100
AcDbEntity
  8
A1
  6
CONTINUOUS
 62
7
100
AcDbCircle
 10
127.5522969577226
 20
314.9361501765876
 30
0.0000000000000000
 40
2.000000000000000
100
AcDbArc
 50
270.0000000000000
 51
450.0000000000000
  0
LINE
  5
CA
100
AcDbEntity
  8
A1
  6
CONTINUOUS
 62
7
100
AcDbLine
 10
127.5522969577227
 20
312.9361501765875
 30
0.0000000000000000
 11
124.5522969577227
 21
312.9361501765875
 31
0.0000000000000000
  0
LINE
  5
CB
100
AcDbEntity
  8
A1
  6
CONTINUOUS
 62
7
100
AcDbLine
 10
127.5522969577227
 20
316.9361501765875
 30
0.0000000000000000
 11
124.5522969577227
 21
316.9361501765875
 31
0.0000000000000000
  0
ARC
  5
CC
100
AcDbEntity
  8
A1
  6
CONTINUOUS
 62
7
100
AcDbCircle
 10
124.5522969577226
 20
314.9361501765876
 30
0.0000000000000000
 40
2.000000000000000
100
AcDbArc
 50
90.00000000000000
 51
270.0000000000000
  0
CIRCLE
  5
CD
100
AcDbEntity
  8
A1
  6
CONTINUOUS
 62
7
100
AcDbCircle
 10
138.0522969577226
 20
310.4361501765876
 30
0.0000000000000000
 40
3.500000000000000
  0
CIRCLE
  5
CE
100
AcDbEntity
  8
A1
  6
CONTINUOUS
 62
7
100
AcDbCircle
 10
114.0522969577226
 20
310.4361501765876
 30
0.0000000000000000
 40
3.500000000000000
  0
LINE
  5
CF
100
AcDbEntity
  8
A1
  6
CONTINUOUS
 62
7
100
AcDbLine
 10
126.6024873886946
 20
324.9361501765871
 30
0.0000000000000000
 11
126.0522969577238
 21
322.9361501765874
 31
0.0000000000000000
  0
LINE
  5
D0
100
AcDbEntity
  8
A1
  6
CENTER
 62
1
100
AcDbLine
 10
138.0522969577226
 20
305.4361501765876
 30
0.0000000000000000
 11
138.0522969577226
 21
315.4361501765876
 31
0.0000000000000000
  0
LINE
  5
D1
100
AcDbEntity
  8
A1
  6
CENTER
 62
1
100
AcDbLine
 10
133.0522969577226
 20
310.4361501765876
 30
0.0000000000000000
 11
143.0522969577226
 21
310.4361501765876
 31
0.0000000000000000
  0
LINE
  5
D2
100
AcDbEntity
  8
A1
  6
CENTER
 62
1
100
AcDbLine
 10
114.0522969577226
 20
305.4361501765876
 30
0.0000000000000000
 11
114.0522969577226
 21
315.4361501765876
 31
0.0000000000000000
  0
LINE
  5
D3
100
AcDbEntity
  8
A1
  6
CENTER
 62
1
100
AcDbLine
 10
109.0522969577226
 20
310.4361501765876
 30
0.0000000000000000
 11
119.0522969577226
 21
310.4361501765876
 31
0.0000000000000000
  0
LINE
  5
D4
100
AcDbEntity
  8
A1
  6
CENTER
 62
1
100
AcDbLine
 10
120.0522969577226
 20
314.9361501765876
 30
0.0000000000000000
 11
132.0522969577226
 21
314.9361501765876
 31
0.0000000000000000
  0
LINE
  5
D5
100
AcDbEntity
  8
A10
  6
CENTER
 62
1
100
AcDbLine
 10
126.0522969577226
 20
310.4361501765876
 30
0.0000000000000000
 11
126.0522969577226
 21
319.4361501765876
 31
0.0000000000000000
  0
LINE
  5
D6
100
AcDbEntity
  8
A10
  6
CENTER
 62
1
100
AcDbLine
 10
142.5522969577227
 20
318.4361501765873
 30
0.0000000000000000
 11
142.5522969577227
 21
327.4361501765874
 31
0.0000000000000000
  0
ARC
  5
D7
100
AcDbEntity
  8
A1
  6
CONTINUOUS
 62
7
100
AcDbCircle
 10
107.0522969577225
 20
321.9361501765877
 30
0.0000000000000000
 40
1.000000000000000
100
AcDbArc
 50
90.00000000000000
 51
180.0000000000000
  0
ARC
  5
D8
100
AcDbEntity
  8
A1
  6
CONTINUOUS
 62
7
100
AcDbCircle
 10
107.0522969577225
 20
305.9361501765876
 30
0.0000000000000000
 40
1.000000000000000
100
AcDbArc
 50
180.0000000000000
 51
270.0000000000000
  0
ARC
  5
D9
100
AcDbEntity
  8
A1
  6
CONTINUOUS
 62
7
100
AcDbCircle
 10
145.0522969577226
 20
305.9361501765875
 30
0.0000000000000000
 40
1.000000000000000
100
AcDbArc
 50
270.0000000000000
 51
360.0000000000000
  0
LINE
  5
DA
100
AcDbEntity
  8
A10
  6
CONTINUOUS
 62
7
100
AcDbLine
 10
145.5522969577227
 20
322.4361501765877
 30
0.0000000000000000
 11
145.5522969577227
 21
322.9361501765877
 31
0.0000000000000000
  0
LINE
  5
DB
100
AcDbEntity
  8
A10
  6
CONTINUOUS
 62
7
100
AcDbLine
 10
139.5522969577227
 20
322.4361501765877
 30
0.0000000000000000
 11
139.5522969577227
 21
322.9361501765877
 31
0.0000000000000000
  0
CIRCLE
  5
DC
100
AcDbEntity
  8
A10
  6
CONTINUOUS
 62
7
100
AcDbCircle
 10
138.0522969577226
 20
310.4361501765876
 30
0.0000000000000000
 40
2.050000000000000
  0
CIRCLE
  5
DD
100
AcDbEntity
  8
A10
  6
CONTINUOUS
 62
7
100
AcDbCircle
 10
114.0522969577226
 20
310.4361501765876
 30
0.0000000000000000
 40
2.050000000000000
  0
LINE
  5
DE
100
AcDbEntity
  8
A1
  6
CONTINUOUS
 62
7
100
AcDbLine
 10
139.0522969577272
 20
320.4361501765875
 30
0.0000000000000000
 11
139.0522969577272
 21
322.4361501765876
 31
0.0000000000000000
  0
LINE
  5
DF
100
AcDbEntity
  8
A10
  6
CONTINUOUS
 62
7
100
AcDbLine
 10
139.0522969577276
 20
320.4361501765875
 30
0.0000000000000000
 11
200.0522969577276
 21
320.4361501765875
 31
0.0000000000000000
  0
LINE
  5
E0
100
AcDbEntity
  8
A10
  6
CONTINUOUS
 62
7
100
AcDbLine
 10
139.0522969577276
 20
322.4361501765875
 30
0.0000000000000000
 11
200.0522969577276
 21
322.4361501765875
 31
0.0000000000000000
  0
LINE
  5
E1
100
AcDbEntity
  8
A10
  6
CENTER
 62
1
100
AcDbLine
 10
157.0522969577276
 20
318.9361501765875
 30
0.0000000000000000
 11
157.0522969577276
 21
323.9361501765876
 31
0.0000000000000000
  0
LINE
  5
E2
100
AcDbEntity
  8
A10
  6
CENTER
 62
1
100
AcDbLine
 10
175.0522969577276
 20
318.9361501765875
 30
0.0000000000000000
 11
175.0522969577276
 21
323.9361501765876
 31
0.0000000000000000
  0
LINE
  5
E3
100
AcDbEntity
  8
A10
  6
CONTINUOUS
 62
7
100
AcDbLine
 10
200.0522969577276
 20
320.4361501765875
 30
0.0000000000000000
 11
200.0522969577276
 21
322.4361501765875
 31
0.0000000000000000
  0
LINE
  5
E4
100
AcDbEntity
  8
A10
  6
CENTER
 62
1
100
AcDbLine
 10
193.0522969577276
 20
318.9361501765875
 30
0.0000000000000000
 11
193.0522969577276
 21
323.9361501765876
 31
0.0000000000000000
  0
LINE
  5
E5
100
AcDbEntity
  8
A1
  6
CONTINUOUS
 62
7
100
AcDbLine
 10
140.0522969577276
 20
370.3324925111106
 30
0.0000000000000000
 11
199.0522969577276
 21
370.3324925111106
 31
0.0000000000000000
  0
LINE
  5
E6
100
AcDbEntity
  8
A1
  6
CONTINUOUS
 62
7
100
AcDbLine
 10
139.0522969577276
 20
371.3324925111106
 30
0.0000000000000000
 11
139.0522969577276
 21
390.0285220218380
 31
0.0000000000000000
  0
LINE
  5
E7
100
AcDbEntity
  8
A1
  6
CONTINUOUS
 62
7
100
AcDbLine
 10
200.0522969577276
 20
371.3324925111106
 30
0.0000000000000000
 11
200.0522969577276
 21
380.8324925111106
 31
0.0000000000000000
  0
LINE
  5
E8
100
AcDbEntity
  8
A1
  6
CONTINUOUS
 62
7
100
AcDbLine
 10
199.0522969577276
 20
381.8324925111106
 30
0.0000000000000000
 11
151.6658137008256
 21
381.8324925111106
 31
0.0000000000000000
  0
LINE
  5
E9
100
AcDbEntity
  8
A1
  6
CONTINUOUS
 62
7
100
AcDbLine
 10
150.7743352095806
 20
382.3794294916010
 30
0.0000000000000000
 11
146.0522969577280
 21
391.6708422864965
 31
0.0000000000000000
  0
CIRCLE
  5
EA
100
AcDbEntity
  8
A1
  6
CONTINUOUS
 62
7
100
AcDbCircle
 10
157.0522969577276
 20
376.0824925111106
 30
0.0000000000000000
 40
3.500000000000000
  0
CIRCLE
  5
EB
100
AcDbEntity
  8
A1
  6
CONTINUOUS
 62
7
100
AcDbCircle
 10
175.0522969577276
 20
376.0824925111106
 30
0.0000000000000000
 40
3.500000000000000
  0
CIRCLE
  5
EC
100
AcDbEntity
  8
A1
  6
CONTINUOUS
 62
7
100
AcDbCircle
 10
193.0522969577276
 20
376.0824925111106
 30
0.0000000000000000
 40
3.500000000000000
  0
LINE
  5
ED
100
AcDbEntity
  8
A1
  6
CENTER
 62
1
100
AcDbLine
 10
188.0522969577276
 20
376.0824925111106
 30
0.0000000000000000
 11
198.0522969577276
 21
376.0824925111106
 31
0.0000000000000000
  0
LINE
  5
EE
100
AcDbEntity
  8
A1
  6
CENTER
 62
1
100
AcDbLine
 10
193.0522969577276
 20
381.0824925111106
 30
0.0000000000000000
 11
193.0522969577276
 21
371.0824925111106
 31
0.0000000000000000
  0
LINE
  5
EF
100
AcDbEntity
  8
A1
  6
CENTER
 62
1
100
AcDbLine
 10
170.0522969577276
 20
376.0824925111106
 30
0.0000000000000000
 11
180.0522969577276
 21
376.0824925111106
 31
0.0000000000000000
  0
LINE
  5
F0
100
AcDbEntity
  8
A1
  6
CENTER
 62
1
100
AcDbLine
 10
175.0522969577276
 20
381.0824925111106
 30
0.0000000000000000
 11
175.0522969577276
 21
371.0824925111106
 31
0.0000000000000000
  0
LINE
  5
F1
100
AcDbEntity
  8
A1
  6
CENTER
 62
1
100
AcDbLine
 10
152.0522969577276
 20
376.0824925111106
 30
0.0000000000000000
 11
162.0522969577276
 21
376.0824925111106
 31
0.0000000000000000
  0
LINE
  5
F2
100
AcDbEntity
  8
A1
  6
CENTER
 62
1
100
AcDbLine
 10
157.0522969577276
 20
381.0824925111106
 30
0.0000000000000000
 11
157.0522969577276
 21
371.0824925111106
 31
0.0000000000000000
  0
LINE
  5
F3
100
AcDbEntity
  8
A1
  6
CENTER
 62
1
100
AcDbLine
 10
142.5522969577276
 20
395.8324925111106
 30
0.0000000000000000
 11
142.5522969577276
 21
387.7824925111105
 31
0.0000000000000000
  0
ARC
  5
F4
100
AcDbEntity
  8
A1
  6
CONTINUOUS
 62
7
100
AcDbCircle
 10
140.0522969577276
 20
371.3324925111106
 30
0.0000000000000000
 40
1.000000000000000
100
AcDbArc
 50
180.0000000000000
 51
270.0000000000000
  0
ARC
  5
F5
100
AcDbEntity
  8
A1
  6
CONTINUOUS
 62
7
100
AcDbCircle
 10
199.0522969577276
 20
371.3324925111106
 30
0.0000000000000000
 40
1.000000000000000
100
AcDbArc
 50
270.0000000000000
 51
360.0000000000000
  0
ARC
  5
F6
100
AcDbEntity
  8
A1
  6
CONTINUOUS
 62
7
100
AcDbCircle
 10
199.0522969577276
 20
380.8324925111106
 30
0.0000000000000000
 40
1.000000000000000
100
AcDbArc
 50
0.0000000000000000
 51
90.00000000000000
  0
ARC
  5
F7
100
AcDbEntity
  8
A1
  6
CONTINUOUS
 62
7
100
AcDbCircle
 10
151.6658137008256
 20
382.8324925111106
 30
0.0000000000000000
 40
1.000000000000000
100
AcDbArc
 50
206.9403745922004
 51
270.0000000000000
  0
LINE
  5
F8
100
AcDbEntity
  8
A1
  6
CENTER
 62
1
100
AcDbLine
 10
170.0522969577276
 20
376.0824925111106
 30
0.0000000000000000
 11
180.0522969577276
 21
376.0824925111106
 31
0.0000000000000000
  0
MTEXT
  5
F9
100
AcDbEntity
  8
A20
  6
CONTINUOUS
 62
1
100
AcDbMText
 10
160.6141179301492
 20
372.7701486075078
 30
0.0000000000000000
 40
2.000000000000000
 41
0.0000000000000000
 44
0.6720000028610229
 71
     1
 72
     1
  1
{\H0.92x;{TH-180}}
 11
1.000000000000000
 21
0.0000000000000000
 31
0.0000000000000000
  7
STANDARD
  0
CIRCLE
  5
FA
100
AcDbEntity
  8
A10
  6
CONTINUOUS
 62
7
100
AcDbCircle
 10
157.0522969577276
 20
376.0824925111106
 30
0.0000000000000000
 40
2.050000000000000
  0
CIRCLE
  5
FB
100
AcDbEntity
  8
A10
  6
CONTINUOUS
 62
7
100
AcDbCircle
 10
175.0522969577276
 20
376.0824925111106
 30
0.0000000000000000
 40
2.050000000000000
  0
CIRCLE
  5
FC
100
AcDbEntity
  8
A10
  6
CONTINUOUS
 62
7
100
AcDbCircle
 10
193.0522969577276
 20
376.0824925111106
 30
0.0000000000000000
 40
2.050000000000000
  0
LINE
  5
FD
100
AcDbEntity
  8
A1
  6
CONTINUOUS
 62
7
100
AcDbLine
 10
124.7994865504786
 20
416.8324925111106
 30
0.0000000000000000
 11
106.0522969577279
 21
416.8324925111106
 31
0.0000000000000000
  0
LINE
  5
FE
100
AcDbEntity
  8
A1
  6
CONTINUOUS
 62
7
100
AcDbLine
 10
146.0522969577275
 20
418.8324925111104
 30
0.0000000000000000
 11
106.0522969577276
 21
418.8324925111104
 31
0.0000000000000000
  0
LINE
  5
FF
100
AcDbEntity
  8
A1
  6
CONTINUOUS
 62
7
100
AcDbLine
 10
106.0522969577278
 20
418.8324925111107
 30
0.0000000000000000
 11
106.0522969577278
 21
416.8324925111107
 31
0.0000000000000000
  0
LINE
  5
100
100
AcDbEntity
  8
A1
  6
CONTINUOUS
 62
7
100
AcDbLine
 10
125.6290002127899
 20
417.7052643156886
 30
0.0000000000000000
 11
139.4031383451028
 21
389.3051418530983
 31
0.0000000000000000
  0
ARC
  5
101
100
AcDbEntity
  8
A1
  6
CONTINUOUS
 62
7
100
AcDbCircle
 10
142.5522969577276
 20
390.8324925111106
 30
0.0000000000000000
 40
3.500000000000000
100
AcDbArc
 50
205.8735138260031
 51
359.9999999999995
  0
ARC
  5
102
100
AcDbEntity
  8
A1
  6
CONTINUOUS
 62
7
100
AcDbCircle
 10
123.8294810055757
 20
416.8324925111106
 30
0.0000000000000000
 40
1.999999999999999
100
AcDbArc
 50
25.87351382600307
 51
90.00000000000000
  0
ARC
  5
103
100
AcDbEntity
  8
A1
  6
CONTINUOUS
 62
7
100
AcDbCircle
 10
124.7994865504782
 20
414.8324925111106
 30
0.0000000000000000
 40
2.000000000000000
100
AcDbArc
 50
25.87351382600307
 51
90.00000000000000
  0
LINE
  5
104
100
AcDbEntity
  8
A10
  6
DASHED
 62
4
100
AcDbLine
 10
124.7994865504785
 20
416.8324925111105
 30
0.0000000000000000
 11
146.0522969578730
 21
416.8324925111159
 31
0.0000000000000000
  0
LINE
  5
105
100
AcDbEntity
  8
A1
  6
CENTER
 62
1
100
AcDbLine
 10
147.5522969577277
 20
390.8324925111106
 30
0.0000000000000000
 11
137.5522969577277
 21
390.8324925111106
 31
0.0000000000000000
  0
LINE
  5
106
100
AcDbEntity
  8
A10
  6
CENTER
 62
1
100
AcDbLine
 10
114.0522969578732
 20
415.3324925111107
 30
0.0000000000000000
 11
114.0522969578732
 21
420.3324925111107
 31
0.0000000000000000
  0
LINE
  5
107
100
AcDbEntity
  8
A10
  6
CENTER
 62
1
100
AcDbLine
 10
126.0522969578732
 20
415.3324925111107
 30
0.0000000000000000
 11
126.0522969578732
 21
420.3324925111107
 31
0.0000000000000000
  0
LINE
  5
108
100
AcDbEntity
  8
A10
  6
CENTER
 62
1
100
AcDbLine
 10
138.0522969578732
 20
415.3324925111107
 30
0.0000000000000000
 11
138.0522969578732
 21
420.3324925111107
 31
0.0000000000000000
  0
LINE
  5
109
100
AcDbEntity
  8
A1
  6
CONTINUOUS
 62
7
100
AcDbLine
 10
146.0522969577278
 20
390.8324925111104
 30
0.0000000000000000
 11
146.0522969577279
 21
418.8324925111105
 31
0.0000000000000000
  0
LINE
  5
10A
100
AcDbEntity
  8
A10
  6
CONTINUOUS
 62
7
100
AcDbLine
 10
144.5522969577227
 20
325.9361501765875
 30
0.0000000000000000
 11
140.5522969577227
 21
325.9361501765875
 31
0.0000000000000000
  0
ARC
  5
10B
100
AcDbEntity
  8
A10
  6
CONTINUOUS
 62
7
100
AcDbCircle
 10
140.5522969577227
 20
325.4361501765875
 30
0.0000000000000000
 40
0.5000000000000000
100
AcDbArc
 50
90.00000000000000
 51
270.0000000000000
  0
ARC
  5
10C
100
AcDbEntity
  8
A10
  6
CONTINUOUS
 62
7
100
AcDbCircle
 10
144.5522969577227
 20
325.4361501765875
 30
0.0000000000000000
 40
0.4999999999999432
100
AcDbArc
 50
270.0000000000000
 51
450.0000000000000
  0
CIRCLE
  5
10D
100
AcDbEntity
  8
A10
  6
CONTINUOUS
 62
7
100
AcDbCircle
 10
142.5522969577276
 20
390.8324925111106
 30
0.0000000000000000
 40
2.500000000004931
  0
ARC
  5
10E
100
AcDbEntity
  8
A10
  6
CONTINUOUS
 62
7
100
AcDbCircle
 10
144.5522969576810
 20
170.9045906800683
 30
0.0000000000000000
 40
0.5000000000000000
100
AcDbArc
 50
270.0000000000000
 51
450.0000000000000
  0
LINE
  5
10F
100
AcDbEntity
  8
A10
  6
CONTINUOUS
 62
7
100
AcDbLine
 10
140.5522969576810
 20
170.4045906800683
 30
0.0000000000000000
 11
144.5522969576810
 21
170.4045906800683
 31
0.0000000000000000
  0
ARC
  5
110
100
AcDbEntity
  8
A10
  6
CONTINUOUS
 62
7
100
AcDbCircle
 10
140.5522969576809
 20
170.9045906800682
 30
0.0000000000000000
 40
0.4999999999999432
100
AcDbArc
 50
90.00000000000000
 51
270.0000000000000
  0
LINE
  5
111
100
AcDbEntity
  8
A10
  6
CENTER
 62
1
100
AcDbLine
 10
142.5522969577227
 20
168.9045906800683
 30
0.0000000000000000
 11
142.5522969577227
 21
178.2045906800685
 31
0.0000000000000000
  0
CIRCLE
  5
112
100
AcDbEntity
  8
A10
  6
CONTINUOUS
 62
7
100
AcDbCircle
 10
142.5522969577227
 20
104.6942167499799
 30
0.0000000000000000
 40
2.499999999958291
  0
LINE
  5
113
100
AcDbEntity
  8
A10
  6
CONTINUOUS
 62
7
100
AcDbLine
 10
140.4522969577345
 20
319.9361501765873
 30
0.0000000000000000
 11
144.6522969577225
 21
319.9361501765873
 31
0.0000000000000000
  0
LINE
  5
114
100
AcDbEntity
  8
A10
  6
CONTINUOUS
 62
7
100
AcDbLine
 10
140.4522969577344
 20
319.9361501765873
 30
0.0000000000000000
 11
140.7522969577334
 21
320.4361501765877
 31
0.0000000000000000
  0
LINE
  5
115
100
AcDbEntity
  8
A10
  6
CONTINUOUS
 62
7
100
AcDbLine
 10
144.3522969577237
 20
320.4361501765872
 30
0.0000000000000000
 11
144.6522969577225
 21
319.9361501765873
 31
0.0000000000000000
  0
LINE
  5
116
100
AcDbEntity
  8
A10
  6
CONTINUOUS
 62
7
100
AcDbLine
 10
144.6522969577109
 20
176.4045906800682
 30
0.0000000000000000
 11
140.4522969577228
 21
176.4045906800682
 31
0.0000000000000000
  0
LINE
  5
117
100
AcDbEntity
  8
A10
  6
CONTINUOUS
 62
7
100
AcDbLine
 10
140.7522969577216
 20
175.9045906800683
 30
0.0000000000000000
 11
140.4522969577228
 21
176.4045906800682
 31
0.0000000000000000
  0
LINE
  5
118
100
AcDbEntity
  8
A10
  6
CONTINUOUS
 62
7
100
AcDbLine
 10
144.6522969577109
 20
176.4045906800682
 30
0.0000000000000000
 11
144.3522969577119
 21
175.9045906800678
 31
0.0000000000000000
  0
ARC
  5
119
100
AcDbEntity
  8
A10
  6
CONTINUOUS
 62
1
100
AcDbCircle
 10
164.0523210453141
 20
376.0824925111106
 30
0.0000000000000000
 40
0.8590595467416471
100
AcDbArc
 50
125.5376777920008
 51
166.5374393917331
  0
ARC
  5
11A
100
AcDbEntity
  8
A10
  6
CONTINUOUS
 62
1
100
AcDbCircle
 10
166.0522969577664
 20
373.2825262336802
 30
0.0000000000000000
 40
4.299948211772383
100
AcDbArc
 50
54.46232220799912
 51
125.5376777920008
  0
ARC
  5
11B
100
AcDbEntity
  8
A10
  6
CONTINUOUS
 62
1
100
AcDbCircle
 10
168.0522728702186
 20
376.0824925111106
 30
0.0000000000000000
 40
0.8590595467416478
100
AcDbArc
 50
332.2496545546281
 51
414.4623222079991
  0
ARC
  5
11C
100
AcDbEntity
  8
A10
  6
CONTINUOUS
 62
1
100
AcDbCircle
 10
164.0523210453141
 20
376.0824925111106
 30
0.0000000000000000
 40
0.8590595467416471
100
AcDbArc
 50
180.0000000000000
 51
234.4623222080521
  0
ARC
  5
11D
100
AcDbEntity
  8
A10
  6
CONTINUOUS
 62
1
100
AcDbCircle
 10
166.0522969577664
 20
378.8824587885464
 30
0.0000000000000000
 40
4.299948211772383
100
AcDbArc
 50
234.4623222080520
 51
305.5376777919479
  0
ARC
  5
11E
100
AcDbEntity
  8
A10
  6
CONTINUOUS
 62
1
100
AcDbCircle
 10
168.0522728702186
 20
376.0824925111106
 30
0.0000000000000000
 40
0.8590595467416478
100
AcDbArc
 50
305.5376777919479
 51
315.6988392796171
  0
LINE
  5
11F
100
AcDbEntity
  8
A10
  6
CONTINUOUS
 62
1
100
AcDbLine
 10
163.8856563859430
 20
376.9967183741669
 30
0.0000000000000000
 11
163.8856563859430
 21
375.5598492606190
 31
0.0000000000000000
  0
LINE
  5
120
100
AcDbEntity
  8
A10
  6
CONTINUOUS
 62
1
100
AcDbLine
 10
164.2189857046851
 20
375.4675003247319
 30
0.0000000000000000
 11
164.2189857046851
 21
376.6974846974948
 31
0.0000000000000000
  0
ARC
  5
121
100
AcDbEntity
  8
A10
  6
CONTINUOUS
 62
1
100
AcDbCircle
 10
164.3856503640561
 20
376.6974846974948
 30
0.0000000000000000
 40
0.1666646593710226
100
AcDbArc
 50
116.0143659996366
 51
180.0000000000000
  0
ARC
  5
122
100
AcDbEntity
  8
A10
  6
CONTINUOUS
 62
1
100
AcDbCircle
 10
166.0522969577664
 20
373.2825262336802
 30
0.0000000000000000
 40
3.966618893030338
100
AcDbArc
 50
112.9439535565378
 51
116.0143659996366
  0
ARC
  5
123
100
AcDbEntity
  8
A10
  6
CONTINUOUS
 62
1
100
AcDbCircle
 10
164.5189820915529
 20
376.9046366645308
 30
0.0000000000000000
 40
0.03333293187420451
100
AcDbArc
 50
0.0000000000000000
 51
112.9439535565375
  0
LINE
  5
124
100
AcDbEntity
  8
A10
  6
CONTINUOUS
 62
1
100
AcDbLine
 10
164.5523150234271
 20
376.9046366645308
 30
0.0000000000000000
 11
164.5523150234271
 21
375.2603483576958
 31
0.0000000000000000
  0
ARC
  5
125
100
AcDbEntity
  8
A10
  6
CONTINUOUS
 62
1
100
AcDbCircle
 10
164.5189820915529
 20
375.2603483576958
 30
0.0000000000000000
 40
0.03333293187420451
100
AcDbArc
 50
247.0560464434623
 51
360.0000000000000
  0
ARC
  5
126
100
AcDbEntity
  8
A10
  6
CONTINUOUS
 62
1
100
AcDbCircle
 10
166.0522969577664
 20
378.8824587885464
 30
0.0000000000000000
 40
3.966618893030338
100
AcDbArc
 50
243.9856340003634
 51
247.0560464434622
  0
ARC
  5
127
100
AcDbEntity
  8
A10
  6
CONTINUOUS
 62
1
100
AcDbCircle
 10
164.3856503640561
 20
375.4675003247319
 30
0.0000000000000000
 40
0.1666646593710226
100
AcDbArc
 50
180.0000000000000
 51
243.9856340003634
  0
LINE
  5
128
100
AcDbEntity
  8
A10
  6
CONTINUOUS
 62
1
100
AcDbLine
 10
165.2189736609112
 20
376.4824876936010
 30
0.0000000000000000
 11
165.2189736609112
 21
377.1191452444020
 31
0.0000000000000000
  0
ARC
  5
129
100
AcDbEntity
  8
A10
  6
CONTINUOUS
 62
1
100
AcDbCircle
 10
165.1856407290371
 20
377.1191452444020
 30
0.0000000000000000
 40
0.03333293187420451
100
AcDbArc
 50
0.0000000000000000
 51
102.7289438731227
  0
ARC
  5
12A
100
AcDbEntity
  8
A10
  6
CONTINUOUS
 62
1
100
AcDbCircle
 10
166.0522969577664
 20
373.2825262336802
 30
0.0000000000000000
 40
3.966618893030338
100
AcDbArc
 50
102.7289438731226
 51
103.2681189705562
  0
ARC
  5
12B
100
AcDbEntity
  8
A10
  6
CONTINUOUS
 62
1
100
AcDbCircle
 10
166.0522969577664
 20
373.2825262336802
 30
0.0000000000000000
 40
3.966618893030338
100
AcDbArc
 50
103.2681189705562
 51
105.2575232904564
  0
ARC
  5
12C
100
AcDbEntity
  8
A10
  6
CONTINUOUS
 62
1
100
AcDbCircle
 10
165.0523090015402
 20
376.9485426364405
 30
0.0000000000000000
 40
0.1666646593710226
100
AcDbArc
 50
105.2575232904564
 51
180.0000000000000
  0
LINE
  5
12D
100
AcDbEntity
  8
A10
  6
CONTINUOUS
 62
1
100
AcDbLine
 10
164.8856443421692
 20
376.9485426364405
 30
0.0000000000000000
 11
164.8856443421692
 21
375.2164423857861
 31
0.0000000000000000
  0
ARC
  5
12E
100
AcDbEntity
  8
A10
  6
CONTINUOUS
 62
1
100
AcDbCircle
 10
165.0523090015402
 20
375.2164423857861
 30
0.0000000000000000
 40
0.1666646593710226
100
AcDbArc
 50
180.0000000000000
 51
254.7424767095436
  0
ARC
  5
12F
100
AcDbEntity
  8
A10
  6
CONTINUOUS
 62
1
100
AcDbCircle
 10
166.0522969577664
 20
378.8824587885464
 30
0.0000000000000000
 40
3.966618893030338
100
AcDbArc
 50
254.7424767095436
 51
254.7937121239420
  0
ARC
  5
130
100
AcDbEntity
  8
A10
  6
CONTINUOUS
 62
1
100
AcDbCircle
 10
166.0522969577664
 20
378.8824587885464
 30
0.0000000000000000
 40
3.966618893030338
100
AcDbArc
 50
254.7937121239420
 51
257.2710561268773
  0
ARC
  5
131
100
AcDbEntity
  8
A10
  6
CONTINUOUS
 62
1
100
AcDbCircle
 10
165.1856407290371
 20
375.0458397778245
 30
0.0000000000000000
 40
0.03333293187420451
100
AcDbArc
 50
257.2710561268775
 51
360.0000000000000
  0
LINE
  5
132
100
AcDbEntity
  8
A10
  6
CONTINUOUS
 62
1
100
AcDbLine
 10
165.2189736609112
 20
375.0458397778245
 30
0.0000000000000000
 11
165.2189736609112
 21
375.6824973286201
 31
0.0000000000000000
  0
LINE
  5
133
100
AcDbEntity
  8
A10
  6
CONTINUOUS
 62
1
100
AcDbLine
 10
165.5523029796533
 20
377.2175067246604
 30
0.0000000000000000
 11
165.5523029796533
 21
374.9474782975661
 31
0.0000000000000000
  0
LINE
  5
134
100
AcDbEntity
  8
A10
  6
CONTINUOUS
 62
1
100
AcDbLine
 10
165.8856322983954
 20
377.2456422216196
 30
0.0000000000000000
 11
165.8856322983954
 21
374.9193428006070
 31
0.0000000000000000
  0
LINE
  5
135
100
AcDbEntity
  8
A10
  6
CONTINUOUS
 62
1
100
AcDbLine
 10
165.8856322983954
 20
376.0824925111106
 30
0.0000000000000000
 11
165.5523029796533
 21
376.0824925111106
 31
0.0000000000000000
  0
LINE
  5
136
100
AcDbEntity
  8
A10
  6
CONTINUOUS
 62
1
100
AcDbLine
 10
166.2189616171374
 20
377.2456422216196
 30
0.0000000000000000
 11
166.2189616171374
 21
374.9193428006070
 31
0.0000000000000000
  0
LINE
  5
137
100
AcDbEntity
  8
A10
  6
CONTINUOUS
 62
1
100
AcDbLine
 10
166.8856202546215
 20
376.4824876936010
 30
0.0000000000000000
 11
166.8856202546215
 21
377.0235446029178
 31
0.0000000000000000
  0
ARC
  5
138
100
AcDbEntity
  8
A10
  6
CONTINUOUS
 62
1
100
AcDbCircle
 10
166.7189555952505
 20
377.0235446029178
 30
0.0000000000000000
 40
0.1666646593710226
100
AcDbArc
 50
0.0000000000000000
 51
79.89581728387491
  0
ARC
  5
139
100
AcDbEntity
  8
A10
  6
CONTINUOUS
 62
1
100
AcDbCircle
 10
166.0522969577664
 20
373.2825262336802
 30
0.0000000000000000
 40
3.966618893030338
100
AcDbArc
 50
79.89581728387498
 51
82.20707566457760
  0
ARC
  5
13A
100
AcDbEntity
  8
A10
  6
CONTINUOUS
 62
1
100
AcDbCircle
 10
166.5856238677536
 20
377.1794866978511
 30
0.0000000000000000
 40
0.03333293187420451
100
AcDbArc
 50
82.20707566457730
 51
180.0000000000000
  0
LINE
  5
13B
100
AcDbEntity
  8
A10
  6
CONTINUOUS
 62
1
100
AcDbLine
 10
166.5522909358795
 20
377.1794866978511
 30
0.0000000000000000
 11
166.5522909358795
 21
374.9854983243756
 31
0.0000000000000000
  0
ARC
  5
13C
100
AcDbEntity
  8
A10
  6
CONTINUOUS
 62
1
100
AcDbCircle
 10
166.5856238677536
 20
374.9854983243756
 30
0.0000000000000000
 40
0.03333293187420451
100
AcDbArc
 50
180.0000000000000
 51
277.7929243354228
  0
ARC
  5
13D
100
AcDbEntity
  8
A10
  6
CONTINUOUS
 62
1
100
AcDbCircle
 10
166.0522969577664
 20
378.8824587885464
 30
0.0000000000000000
 40
3.966618893030338
100
AcDbArc
 50
277.7929243354224
 51
280.1041827161250
  0
ARC
  5
13E
100
AcDbEntity
  8
A10
  6
CONTINUOUS
 62
1
100
AcDbCircle
 10
166.7189555952505
 20
375.1414404193089
 30
0.0000000000000000
 40
0.1666646593710226
100
AcDbArc
 50
280.1041827161250
 51
360.0000000000000
  0
LINE
  5
13F
100
AcDbEntity
  8
A10
  6
CONTINUOUS
 62
1
100
AcDbLine
 10
166.8856202546215
 20
375.1414404193089
 30
0.0000000000000000
 11
166.8856202546215
 21
376.0824925111106
 31
0.0000000000000000
  0
LINE
  5
140
100
AcDbEntity
  8
A10
  6
CONTINUOUS
 62
1
100
AcDbLine
 10
166.8856202546215
 20
376.0824925111106
 30
0.0000000000000000
 11
166.7189555952505
 21
376.0824925111106
 31
0.0000000000000000
  0
LINE
  5
141
100
AcDbEntity
  8
A10
  6
CONTINUOUS
 62
1
100
AcDbLine
 10
167.2189495733635
 20
377.1782034662272
 30
0.0000000000000000
 11
167.2189495733635
 21
375.0912865269543
 31
0.0000000000000000
  0
LINE
  5
142
100
AcDbEntity
  8
A10
  6
CONTINUOUS
 62
1
100
AcDbLine
 10
167.5522788921056
 20
377.0211678438664
 30
0.0000000000000000
 11
167.5522788921056
 21
376.2491571704816
 31
0.0000000000000000
  0
ARC
  5
143
100
AcDbEntity
  8
A10
  6
CONTINUOUS
 62
1
100
AcDbCircle
 10
167.7189435514766
 20
376.2491571704816
 30
0.0000000000000000
 40
0.1666646593710234
100
AcDbArc
 50
180.0000000000000
 51
360.0000000000000
  0
LINE
  5
144
100
AcDbEntity
  8
A10
  6
CONTINUOUS
 62
1
100
AcDbLine
 10
167.8856082108476
 20
376.2491571704816
 30
0.0000000000000000
 11
167.8856082108476
 21
376.9612498371171
 31
0.0000000000000000
  0
LINE
  5
145
100
AcDbEntity
  8
A10
  6
CONTINUOUS
 62
1
100
AcDbLine
 10
167.7189435514766
 20
376.0824925111106
 30
0.0000000000000000
 11
167.7189435514766
 21
375.2829651332917
 31
0.0000000000000000
  0
LINE
  5
146
100
AcDbEntity
  8
A10
  6
CONTINUOUS
 62
1
100
AcDbLine
 10
168.0553279108139
 20
375.4587280100421
 30
0.0000000000000000
 11
168.4318768758915
 21
376.8640278792445
 31
0.0000000000000000
  0
LINE
  5
147
100
AcDbEntity
  8
A10
  6
CONTINUOUS
 62
1
100
AcDbLine
 10
168.9113324169603
 20
376.0824925111106
 30
0.0000000000000000
 11
168.2224651051430
 21
376.0824925111106
 31
0.0000000000000000
  0
LINE
  5
148
100
AcDbEntity
  8
A10
  6
CONTINUOUS
 62
7
100
AcDbLine
 10
226.5752595231385
 20
416.8324925111103
 30
0.0000000000000000
 11
226.5752595231384
 21
387.3324925112505
 31
0.0000000000000000
  0
LINE
  5
149
100
AcDbEntity
  8
A10
  6
CONTINUOUS
 62
7
100
AcDbLine
 10
228.5752595231385
 20
416.8324925112003
 30
0.0000000000000000
 11
228.5752595231384
 21
387.3324925112538
 31
0.0000000000000000
  0
LINE
  5
14A
100
AcDbEntity
  8
A10
  6
CONTINUOUS
 62
7
100
AcDbLine
 10
246.5752595231386
 20
418.8324925111287
 30
0.0000000000000000
 11
228.5752595231365
 21
418.8324925111103
 31
0.0000000000000000
  0
LINE
  5
14B
100
AcDbEntity
  8
A10
  6
CONTINUOUS
 62
7
100
AcDbLine
 10
226.5752595231384
 20
387.3324925112505
 30
0.0000000000000000
 11
228.5752595232334
 21
387.3324925112538
 31
0.0000000000000000
  0
LINE
  5
14C
100
AcDbEntity
  8
A10
  6
CONTINUOUS
 62
7
100
AcDbLine
 10
246.5752595231385
 20
418.8324925111103
 30
0.0000000000000000
 11
246.5752595231385
 21
416.8324925112187
 31
0.0000000000000000
  0
LINE
  5
14D
100
AcDbEntity
  8
A10
  6
CONTINUOUS
 62
7
100
AcDbLine
 10
246.5752595231386
 20
416.8324925112187
 30
0.0000000000000000
 11
228.5752595231385
 21
416.8324925112003
 31
0.0000000000000000
  0
ARC
  5
14E
100
AcDbEntity
  8
A10
  6
CONTINUOUS
 62
7
100
AcDbCircle
 10
228.5752595231385
 20
416.8324925111103
 30
0.0000000000000000
 40
2.000000000000000
100
AcDbArc
 50
90.00000000000000
 51
180.0000000000000
  0
ARC
  5
14F
100
AcDbEntity
  8
A10
  6
CONTINUOUS
 62
7
100
AcDbCircle
 10
226.0752595231384
 20
388.8324925111104
 30
0.0000000000000000
 40
0.5000000000000000
100
AcDbArc
 50
180.0000000000000
 51
360.0000000000000
  0
LINE
  5
150
100
AcDbEntity
  8
A10
  6
CONTINUOUS
 62
7
100
AcDbLine
 10
225.5752595231384
 20
392.8324925111105
 30
0.0000000000000000
 11
225.5752595231384
 21
388.8324925111105
 31
0.0000000000000000
  0
ARC
  5
151
100
AcDbEntity
  8
A10
  6
CONTINUOUS
 62
7
100
AcDbCircle
 10
226.0752595231384
 20
392.8324925111105
 30
0.0000000000000000
 40
0.4999999999999432
100
AcDbArc
 50
0.0000000000000000
 51
180.0000000000000
  0
LINE
  5
152
100
AcDbEntity
  8
A10
  6
CENTER
 62
1
100
AcDbLine
 10
233.0752595231386
 20
390.8324925111105
 30
0.0000000000000000
 11
224.0752595231386
 21
390.8324925111105
 31
0.0000000000000000
  0
LINE
  5
153
100
AcDbEntity
  8
A10
  6
CONTINUOUS
 62
7
100
AcDbLine
 10
229.0752595231384
 20
370.3324925111101
 30
0.0000000000000000
 11
229.0752595231384
 21
394.3324925111105
 31
0.0000000000000000
  0
LINE
  5
154
100
AcDbEntity
  8
A1
  6
CONTINUOUS
 62
7
100
AcDbLine
 10
231.0752595231384
 20
370.3324925111101
 30
0.0000000000000000
 11
229.0752595231383
 21
370.3324925111101
 31
0.0000000000000000
  0
LINE
  5
155
100
AcDbEntity
  8
A10
  6
CONTINUOUS
 62
7
100
AcDbLine
 10
229.0752595231383
 20
387.8324925111104
 30
0.0000000000000000
 11
228.5752595231383
 21
387.8324925111104
 31
0.0000000000000000
  0
LINE
  5
156
100
AcDbEntity
  8
A10
  6
CONTINUOUS
 62
7
100
AcDbLine
 10
229.0752595231383
 20
393.8324925111104
 30
0.0000000000000000
 11
228.5752595231383
 21
393.8324925111104
 31
0.0000000000000000
  0
LINE
  5
157
100
AcDbEntity
  8
A10
  6
CONTINUOUS
 62
7
100
AcDbLine
 10
231.5752595231386
 20
388.7324925111222
 30
0.0000000000000000
 11
231.5752595231386
 21
392.9324925111103
 31
0.0000000000000000
  0
LINE
  5
158
100
AcDbEntity
  8
A10
  6
CONTINUOUS
 62
7
100
AcDbLine
 10
231.0752595231384
 20
370.3324925111101
 30
0.0000000000000000
 11
231.0752595231384
 21
394.3324925111105
 31
0.0000000000000000
  0
LINE
  5
159
100
AcDbEntity
  8
A10
  6
CONTINUOUS
 62
7
100
AcDbLine
 10
231.5752595231386
 20
388.7324925111222
 30
0.0000000000000000
 11
231.0752595231382
 21
389.0324925111212
 31
0.0000000000000000
  0
LINE
  5
15A
100
AcDbEntity
  8
A10
  6
CONTINUOUS
 62
7
100
AcDbLine
 10
231.0752595231386
 20
392.6324925111114
 30
0.0000000000000000
 11
231.5752595231385
 21
392.9324925111102
 31
0.0000000000000000
  0
LINE
  5
15B
100
AcDbEntity
  8
A10
  6
CONTINUOUS
 62
7
100
AcDbLine
 10
231.0752595231384
 20
394.3324925111105
 30
0.0000000000000000
 11
229.0752595231383
 21
394.3324925111105
 31
0.0000000000000000
  0
LINE
  5
15C
100
AcDbEntity
  8
A10
  6
CONTINUOUS
 62
7
100
AcDbLine
 10
231.0752595231384
 20
381.8324925111106
 30
0.0000000000000000
 11
229.0752595231383
 21
381.8324925111106
 31
0.0000000000000000
  0
LINE
  5
15D
100
AcDbEntity
  8
A1
  6
CENTER
 62
1
100
AcDbLine
 10
224.0752595231384
 20
376.0824925111106
 30
0.0000000000000000
 11
234.0752595231384
 21
376.0824925111106
 31
0.0000000000000000
  0
LINE
  5
15E
100
AcDbEntity
  8
A1
  6
CENTER
 62
1
100
AcDbLine
 10
241.0752595231385
 20
421.8324925112130
 30
0.0000000000000000
 11
241.0752595231385
 21
413.7824925112130
 31
0.0000000000000000
  0
LINE
  5
15F
100
AcDbEntity
  8
A10
  6
CONTINUOUS
 62
7
100
AcDbLine
 10
226.5752595239357
 20
78.69421675035893
 30
0.0000000000000000
 11
226.5752595237969
 21
108.1942167502188
 31
0.0000000000000000
  0
LINE
  5
160
100
AcDbEntity
  8
A10
  6
CONTINUOUS
 62
7
100
AcDbLine
 10
228.5752595239357
 20
78.69421675027836
 30
0.0000000000000000
 11
228.5752595237969
 21
108.1942167502249
 31
0.0000000000000000
  0
LINE
  5
161
100
AcDbEntity
  8
A10
  6
CONTINUOUS
 62
7
100
AcDbLine
 10
246.5752595239452
 20
76.69421675043459
 30
0.0000000000000000
 11
228.5752595239430
 21
76.69421675036834
 31
0.0000000000000000
  0
LINE
  5
162
100
AcDbEntity
  8
A10
  6
CONTINUOUS
 62
7
100
AcDbLine
 10
226.5752595237969
 20
108.1942167502188
 30
0.0000000000000000
 11
228.5752595238918
 21
108.1942167502249
 31
0.0000000000000000
  0
LINE
  5
163
100
AcDbEntity
  8
A10
  6
CONTINUOUS
 62
7
100
AcDbLine
 10
246.5752595239450
 20
76.69421675045308
 30
0.0000000000000000
 11
246.5752595239357
 21
78.69421675034462
 31
0.0000000000000000
  0
LINE
  5
164
100
AcDbEntity
  8
A10
  6
CONTINUOUS
 62
7
100
AcDbLine
 10
246.5752595239358
 20
78.69421675034461
 30
0.0000000000000000
 11
228.5752595239357
 21
78.69421675027836
 31
0.0000000000000000
  0
ARC
  5
165
100
AcDbEntity
  8
A10
  6
CONTINUOUS
 62
7
100
AcDbCircle
 10
228.5752595239357
 20
78.69421675036837
 30
0.0000000000000000
 40
2.000000000000000
100
AcDbArc
 50
180.0000000002695
 51
270.0000000002695
  0
ARC
  5
166
100
AcDbEntity
  8
A10
  6
CONTINUOUS
 62
7
100
AcDbCircle
 10
226.0752595238039
 20
106.6942167503565
 30
0.0000000000000000
 40
0.5000000000000000
100
AcDbArc
 50
2.695074814884926e-10
 51
180.0000000002695
  0
LINE
  5
167
100
AcDbEntity
  8
A10
  6
CONTINUOUS
 62
7
100
AcDbLine
 10
225.5752595238227
 20
102.6942167503541
 30
0.0000000000000000
 11
225.5752595238039
 21
106.6942167503541
 31
0.0000000000000000
  0
ARC
  5
168
100
AcDbEntity
  8
A10
  6
CONTINUOUS
 62
7
100
AcDbCircle
 10
226.0752595238227
 20
102.6942167503564
 30
0.0000000000000000
 40
0.4999999999999432
100
AcDbArc
 50
180.0000000002695
 51
360.0000000002696
  0
LINE
  5
169
100
AcDbEntity
  8
A10
  6
CENTER
 62
1
100
AcDbLine
 10
233.0752595238135
 20
104.6942167503894
 30
0.0000000000000000
 11
224.0752595238134
 21
104.6942167503470
 31
0.0000000000000000
  0
LINE
  5
16A
100
AcDbEntity
  8
A10
  6
CONTINUOUS
 62
7
100
AcDbLine
 10
229.0752595237169
 20
125.1942167503709
 30
0.0000000000000000
 11
229.0752595238298
 21
101.1942167503705
 31
0.0000000000000000
  0
LINE
  5
16B
100
AcDbEntity
  8
A1
  6
CONTINUOUS
 62
7
100
AcDbLine
 10
231.0752595237169
 20
125.1942167503803
 30
0.0000000000000000
 11
229.0752595237168
 21
125.1942167503709
 31
0.0000000000000000
  0
LINE
  5
16C
100
AcDbEntity
  8
A10
  6
CONTINUOUS
 62
7
100
AcDbLine
 10
229.0752595237990
 20
107.6942167503706
 30
0.0000000000000000
 11
228.5752595237990
 21
107.6942167503682
 31
0.0000000000000000
  0
LINE
  5
16D
100
AcDbEntity
  8
A10
  6
CONTINUOUS
 62
7
100
AcDbLine
 10
229.0752595238272
 20
101.6942167503706
 30
0.0000000000000000
 11
228.5752595238272
 21
101.6942167503682
 31
0.0000000000000000
  0
LINE
  5
16E
100
AcDbEntity
  8
A10
  6
CONTINUOUS
 62
7
100
AcDbLine
 10
231.5752595238036
 20
106.7942167503706
 30
0.0000000000000000
 11
231.5752595238233
 21
102.5942167503825
 31
0.0000000000000000
  0
LINE
  5
16F
100
AcDbEntity
  8
A10
  6
CONTINUOUS
 62
7
100
AcDbLine
 10
231.0752595237169
 20
125.1942167503803
 30
0.0000000000000000
 11
231.0752595238298
 21
101.1942167503800
 31
0.0000000000000000
  0
LINE
  5
170
100
AcDbEntity
  8
A10
  6
CONTINUOUS
 62
7
100
AcDbLine
 10
231.5752595238036
 20
106.7942167503706
 30
0.0000000000000000
 11
231.0752595238046
 21
106.4942167503692
 31
0.0000000000000000
  0
LINE
  5
171
100
AcDbEntity
  8
A10
  6
CONTINUOUS
 62
7
100
AcDbLine
 10
231.0752595238220
 20
102.8942167503789
 30
0.0000000000000000
 11
231.5752595238233
 21
102.5942167503824
 31
0.0000000000000000
  0
LINE
  5
172
100
AcDbEntity
  8
A10
  6
CONTINUOUS
 62
7
100
AcDbLine
 10
231.0752595238298
 20
101.1942167503800
 30
0.0000000000000000
 11
229.0752595238297
 21
101.1942167503705
 31
0.0000000000000000
  0
LINE
  5
173
100
AcDbEntity
  8
A10
  6
CONTINUOUS
 62
7
100
AcDbLine
 10
231.0752595237710
 20
113.6942167503799
 30
0.0000000000000000
 11
229.0752595237709
 21
113.6942167503705
 31
0.0000000000000000
  0
LINE
  5
174
100
AcDbEntity
  8
A1
  6
CENTER
 62
1
100
AcDbLine
 10
224.0752595237439
 20
119.4442167503470
 30
0.0000000000000000
 11
234.0752595237439
 21
119.4442167503940
 31
0.0000000000000000
  0
LINE
  5
175
100
AcDbEntity
  8
A1
  6
CENTER
 62
1
100
AcDbLine
 10
241.0752595239592
 20
73.69421675032443
 30
0.0000000000000000
 11
241.0752595239213
 21
81.74421675032444
 31
0.0000000000000000
  0
ENDSEC
  0
SECTION
  2
OBJECTS
  0
DICTIONARY
  5
1A3
100
AcDbDictionary
  3
ACAD_GROUP
350
1A4
  3
ACAD_LAYOUT
350
1A5
  3
ACAD_MLINESTYLE
350
1A6
  0
DICTIONARY
  5
1A4
102
{ACAD_REACTORS
330
1A3
102
}
330
1A3
100
AcDbDictionary
  0
DICTIONARY
  5
1A5
102
{ACAD_REACTORS
330
1A3
102
}
330
1A3
100
AcDbDictionary
  3
Model
350
1A7
  3
ﾚｲｱｳﾄ1
350
1A8
  3
ﾚｲｱｳﾄ2
350
1A9
  0
DICTIONARY
  5
1A6
102
{ACAD_REACTORS
330
1A3
102
}
330
1A3
100
AcDbDictionary
  3
STANDARD
350
1AA
  0
LAYOUT
  5
1A7
102
{ACAD_REACTORS
330
1A5
102
}
330
1A5
100
AcDbPlotSettings
 70
11952
  4
A3
 44
297.000000
 45
420.000000
 73
  1
 72
  1
100
AcDbLayout
  1
Model
 71
0
330
19A
  0
LAYOUT
  5
1A8
102
{ACAD_REACTORS
330
1A5
102
}
330
1A5
100
AcDbPlotSettings
100
AcDbLayout
  1
ﾚｲｱｳﾄ1
 71
1
330
19B
  0
LAYOUT
  5
1A9
102
{ACAD_REACTORS
330
1A5
102
}
330
1A5
100
AcDbPlotSettings
100
AcDbLayout
  1
ﾚｲｱｳﾄ2
 71
2
330
19C
  0
MLINESTYLE
  5
1AA
102
{ACAD_REACTORS
330
1A6
102
}
330
1A6
100
AcDbMlineStyle
  2
STANDARD
 70
     0
  3

 62
   256
 51
90.00
 52
90.00
 71
     2
 49
0.50
 62
   256
  6
BYLAYER
 49
-0.50
 62
   256
  6
BYLAYER
  0
ENDSEC
  0
EOF
