  0
SECTION
  2
HEADER
  9
$ACADVER
  1
AC1015
  9
$DWGCODEPAGE
  3
ANSI_932
  9
$LTSCALE
 40
20.0
  9
$FILLMODE
 70
     1
  9
$CLAYER
  8
0
  9
$PDMODE
 70
     0
  9
$SPLFRAME
 70
     0
  9
$SPLINETYPE
 70
     6
  9
$SPLINESEGS
 70
     8
  9
$DIMASZ
 40
2.000000
  9
$DIMEXE
 40
1.500000
  9
$DIMEXO
 40
0.800000
  9
$DIMTAD
 70
     1
  9
$DIMTIH
 70
     0
  9
$DIMTOH
 70
     0
  9
$DIMTVP
 40
0.500000
  9
$DIMTXT
 40
3.100000
  9
$EXTMIN
 10
0.000000
 20
0.000000
 30
0.000000
  9
$EXTMAX
 10
297.000000
 20
420.000000
 30
0.000000
  9
$MEASUREMENT
 70
  1
  9
$LIMMIN
 10
0.000000
 20
0.000000
  9
$LIMMAX
 10
297.000000
 20
420.000000
  9
$HANDSEED
  5
191
  9
$LWDISPLAY
290
     0
  9
$DIMBLK
  1
_OPEN
  9
$DIMDEC
 70
     2
  9
$DIMADEC
 70
     2
  9
$DIMAUNIT
 70
     0
  9
$DIMZIN
 70
     8
  9
$DIMAZIN
 70
     2
  9
$DIMTOFL
 70
     1
  0
ENDSEC
  0
SECTION
  2
CLASSES
  0
ENDSEC
  0
SECTION
  2
TABLES
  0
TABLE
  2
VPORT
  5
15C
100
AcDbSymbolTable
 70
     1
  0
VPORT
  5
15D
100
AcDbSymbolTableRecord
100
AcDbViewportTableRecord
  2
*ACTIVE
 70
     0
 12
202.659354
 22
188.008179
 40
374.374741
 41
1.522406
  0
ENDTAB
  0
TABLE
  2
LTYPE
  5
15E
100
AcDbSymbolTable
 70
     3
  0
LTYPE
  5
15F
100
AcDbSymbolTableRecord
100
AcDbLinetypeTableRecord
  2
BYBLOCK
 70
     0
  3

 72
    65
 73
     0
 40
0.0
  0
LTYPE
  5
160
100
AcDbSymbolTableRecord
100
AcDbLinetypeTableRecord
  2
BYLAYER
 70
     0
  3

 72
    65
 73
     0
 40
0.0
  0
LTYPE
  5
161
100
AcDbSymbolTableRecord
100
AcDbLinetypeTableRecord
  2
CONTINUOUS
 70
     0
  3
Solid line (NEC CAE2D for Win R16.0 : 2021.07.30)
 72
    65
 73
     0
 40
0.0
  0
LTYPE
  5
162
100
AcDbSymbolTableRecord
100
AcDbLinetypeTableRecord
  2
DASHED
 70
     0
  3
__ __ __ __ __ __ __ __ __ __ __ __ __ _
 72
    65
 73
     2
 40
0.75
 49
0.5
 74
     0
 49
-0.25
 74
     0
  0
LTYPE
  5
163
100
AcDbSymbolTableRecord
100
AcDbLinetypeTableRecord
  2
CENTER
 70
     0
  3
____ _ ____ _ ____ _ ____ _ ____ _ ____
 72
    65
 73
     4
 40
2.0
 49
1.25
 74
     0
 49
-0.25
 74
     0
 49
0.25
 74
     0
 49
-0.25
 74
     0
  0
ENDTAB
  0
TABLE
  2
LAYER
  5
164
100
AcDbSymbolTable
 70
    14
  0
LAYER
  5
165
100
AcDbSymbolTableRecord
100
AcDbLayerTableRecord
  2
0
 70
     0
 62
     7
  6
CONTINUOUS
370
    -3
390

  0
LAYER
  5
166
100
AcDbSymbolTableRecord
100
AcDbLayerTableRecord
  2
A0
 70
     0
 62
     9
  6
CONTINUOUS
370
    -3
390

  0
LAYER
  5
167
100
AcDbSymbolTableRecord
100
AcDbLayerTableRecord
  2
A1
 70
     0
 62
     1
  6
CONTINUOUS
370
    -3
390

  0
LAYER
  5
168
100
AcDbSymbolTableRecord
100
AcDbLayerTableRecord
  2
A4
 70
     0
 62
     9
  6
CONTINUOUS
370
    -3
390

  0
LAYER
  5
169
100
AcDbSymbolTableRecord
100
AcDbLayerTableRecord
  2
A5
 70
     0
 62
     8
  6
CONTINUOUS
370
    -3
390

  0
LAYER
  5
16A
100
AcDbSymbolTableRecord
100
AcDbLayerTableRecord
  2
A6
 70
     0
 62
    12
  6
CONTINUOUS
370
    -3
390

  0
LAYER
  5
16B
100
AcDbSymbolTableRecord
100
AcDbLayerTableRecord
  2
A8
 70
     0
 62
    10
  6
CONTINUOUS
370
    -3
390

  0
LAYER
  5
16C
100
AcDbSymbolTableRecord
100
AcDbLayerTableRecord
  2
A9
 70
     0
 62
     9
  6
CONTINUOUS
370
    -3
390

  0
LAYER
  5
16D
100
AcDbSymbolTableRecord
100
AcDbLayerTableRecord
  2
A10
 70
     0
 62
     6
  6
CONTINUOUS
370
    -3
390

  0
LAYER
  5
16E
100
AcDbSymbolTableRecord
100
AcDbLayerTableRecord
  2
A20
 70
     0
 62
     1
  6
CONTINUOUS
370
    -3
390

  0
LAYER
  5
16F
100
AcDbSymbolTableRecord
100
AcDbLayerTableRecord
  2
A30
 70
     0
 62
     1
  6
CONTINUOUS
370
    -3
390

  0
LAYER
  5
170
100
AcDbSymbolTableRecord
100
AcDbLayerTableRecord
  2
A40
 70
     0
 62
     9
  6
CONTINUOUS
370
    -3
390

  0
LAYER
  5
171
100
AcDbSymbolTableRecord
100
AcDbLayerTableRecord
  2
A50
 70
     0
 62
    12
  6
CONTINUOUS
370
    -3
390

  0
LAYER
  5
172
100
AcDbSymbolTableRecord
100
AcDbLayerTableRecord
  2
A1023
 70
     0
 62
    16
  6
CONTINUOUS
370
    -3
390

  0
ENDTAB
  0
TABLE
  2
STYLE
  5
173
100
AcDbSymbolTable
 70
     4
  0
STYLE
  5
174
100
AcDbSymbolTableRecord
100
AcDbTextStyleTableRecord
  2
STANDARD
 70
    64
 40
0.0
 41
1.0
 50
0.0
 71
     0
 42
2.000000000000000
  3
TXT
  4

  0
STYLE
  5
175
100
AcDbSymbolTableRecord
100
AcDbTextStyleTableRecord
  2
ANKTATE
 70
    68
 40
0.0
 41
1.0
 50
0.0
 71
     0
 42
2.000000000000000
  3
TXT
  4

  0
STYLE
  5
176
100
AcDbSymbolTableRecord
100
AcDbTextStyleTableRecord
  2
KNJYOKO
 70
    64
 40
0.0
 41
1.0
 50
0.0
 71
     0
 42
2.000000000000000
  3
TXT
  4
BIGFONT
  0
STYLE
  5
177
100
AcDbSymbolTableRecord
100
AcDbTextStyleTableRecord
  2
KNJTATE
 70
    68
 40
0.0
 41
1.0
 50
0.0
 71
     0
 42
2.000000000000000
  3
TXT
  4
BIGFONT
  0
ENDTAB
  0
TABLE
  2
VIEW
  5
178
100
AcDbSymbolTable
 70
     0
  0
ENDTAB
  0
TABLE
  2
UCS
  5
179
100
AcDbSymbolTable
 70
     0
  0
ENDTAB
  0
TABLE
  2
APPID
  5
17A
100
AcDbSymbolTable
 70
     1
  0
APPID
  5
17B
100
AcDbSymbolTableRecord
100
AcDbRegAppTableRecord
  2
ACAD
 70
     0
  0
ENDTAB
  0
TABLE
  2
DIMSTYLE
  5
17C
100
AcDbSymbolTable
 70
     2
100
AcDbDimStyleTable
  0
DIMSTYLE
105
17D
100
AcDbSymbolTableRecord
100
AcDbDimStyleTableRecord
  2
STANDARD
 70
     0
 41
2.000000
 44
1.500000
 42
0.800000
145
0.661290
140
3.100000
144
1.000000
146
0.645161
340
174
  0
DIMSTYLE
105
17E
100
AcDbSymbolTableRecord
100
AcDbDimStyleTableRecord
  2
A001
 70
     0
 41
2.000000
 44
1.500000
 42
0.800000
145
0.661290
140
3.100000
144
1.000000
146
0.645161
 77
     1
 73
     0
 74
     0
271
     2
179
     2
275
     0
 78
     8
 79
     2
172
     1
340
174
  0
ENDTAB
  0
TABLE
  2
BLOCK_RECORD
  5
17F
100
AcDbSymbolTable
 70
    12
  0
BLOCK_RECORD
  5
180
100
AcDbSymbolTableRecord
100
AcDbBlockTableRecord
  2
*MODEL_SPACE
  0
BLOCK_RECORD
  5
181
100
AcDbSymbolTableRecord
100
AcDbBlockTableRecord
  2
*PAPER_SPACE
  0
BLOCK_RECORD
  5
182
100
AcDbSymbolTableRecord
100
AcDbBlockTableRecord
  2
*PAPER_SPACE0
  0
BLOCK_RECORD
  5
1
100
AcDbSymbolTableRecord
100
AcDbBlockTableRecord
  2
_NONE
  0
BLOCK_RECORD
  5
4
100
AcDbSymbolTableRecord
100
AcDbBlockTableRecord
  2
_CLOSED
  0
BLOCK_RECORD
  5
B
100
AcDbSymbolTableRecord
100
AcDbBlockTableRecord
  2
_DOT
  0
BLOCK_RECORD
  5
13
100
AcDbSymbolTableRecord
100
AcDbBlockTableRecord
  2
_OPEN
  0
BLOCK_RECORD
  5
19
100
AcDbSymbolTableRecord
100
AcDbBlockTableRecord
  2
_ORIGIN
  0
BLOCK_RECORD
  5
1E
100
AcDbSymbolTableRecord
100
AcDbBlockTableRecord
  2
_OPEN30
  0
BLOCK_RECORD
  5
24
100
AcDbSymbolTableRecord
100
AcDbBlockTableRecord
  2
_BOXFILLED
  0
BLOCK_RECORD
  5
29
100
AcDbSymbolTableRecord
100
AcDbBlockTableRecord
  2
_BOXBLANK
  0
BLOCK_RECORD
  5
31
100
AcDbSymbolTableRecord
100
AcDbBlockTableRecord
  2
_OBLIQUE
  0
BLOCK_RECORD
  5
35
100
AcDbSymbolTableRecord
100
AcDbBlockTableRecord
  2
_OPEN90
  0
BLOCK_RECORD
  5
3B
100
AcDbSymbolTableRecord
100
AcDbBlockTableRecord
  2
_CLOSEDBLANK
  0
BLOCK_RECORD
  5
41
100
AcDbSymbolTableRecord
100
AcDbBlockTableRecord
  2
_DOTBLANK
  0
ENDTAB
  0
ENDSEC
  0
SECTION
  2
BLOCKS
  0
BLOCK
  5
183
100
AcDbEntity
  8
0
100
AcDbBlockBegin
  2
*MODEL_SPACE
 70
     0
 10
0.0
 20
0.0
 30
0.0
  3
*MODEL_SPACE
  1

  0
ENDBLK
  5
184
100
AcDbEntity
  8
0
100
AcDbBlockEnd
  0
BLOCK
  5
185
100
AcDbEntity
  8
0
100
AcDbBlockBegin
  2
*PAPER_SPACE
 70
     0
 10
0.0
 20
0.0
 30
0.0
  3
*PAPER_SPACE
  1

  0
ENDBLK
  5
186
100
AcDbEntity
  8
0
100
AcDbBlockEnd
  0
BLOCK
  5
187
100
AcDbEntity
  8
0
100
AcDbBlockBegin
  2
*PAPER_SPACE0
 70
     0
 10
0.0
 20
0.0
 30
0.0
  3
*PAPER_SPACE0
  1

  0
ENDBLK
  5
188
100
AcDbEntity
  8
0
100
AcDbBlockEnd
  0
BLOCK
  5
2
330
1
100
AcDbEntity
  8
0
100
AcDbBlockBegin
  2
_NONE
 70
     0
 10
0.0
 20
0.0
 30
0.0
  3
_NONE
  1

  0
ENDBLK
  5
3
330
1
100
AcDbEntity
  8
0
100
AcDbBlockEnd
  0
BLOCK
  5
5
330
4
100
AcDbEntity
  8
0
100
AcDbBlockBegin
  2
_CLOSED
 70
     0
 10
0.0
 20
0.0
 30
0.0
  3
_CLOSED
  1

  0
LINE
  5
6
330
4
100
AcDbEntity
  8
0
  6
BYBLOCK
 62
     0
370
    -2
100
AcDbLine
 10
-1.0
 20
0.166667
 30
0.0
 11
0.0
 21
0.0
 31
0.0
  0
LINE
  5
7
330
4
100
AcDbEntity
  8
0
  6
BYBLOCK
 62
     0
370
    -2
100
AcDbLine
 10
0.0
 20
0.0
 30
0.0
 11
-1.0
 21
-0.166667
 31
0.0
  0
LINE
  5
8
330
4
100
AcDbEntity
  8
0
  6
BYBLOCK
 62
     0
370
    -2
100
AcDbLine
 10
-1.0
 20
0.166667
 30
0.0
 11
-1.0
 21
-0.166667
 31
0.0
  0
LINE
  5
9
330
4
100
AcDbEntity
  8
0
  6
BYBLOCK
 62
     0
370
    -2
100
AcDbLine
 10
0.0
 20
0.0
 30
0.0
 11
-1.0
 21
0.0
 31
0.0
  0
ENDBLK
  5
A
330
4
100
AcDbEntity
  8
0
100
AcDbBlockEnd
  0
BLOCK
  5
C
330
B
100
AcDbEntity
  8
0
100
AcDbBlockBegin
  2
_DOT
 70
     0
 10
0.0
 20
0.0
 30
0.0
  3
_DOT
  1

  0
POLYLINE
  5
D
330
B
100
AcDbEntity
  8
0
  6
BYBLOCK
 62
     0
370
    -2
100
AcDb2dPolyline
 66
     1
 10
0.0
 20
0.0
 30
0.0
 70
     1
 40
0.5
 41
0.5
  0
VERTEX
  5
E
330
B
100
AcDbEntity
  8
0
  6
BYBLOCK
 62
     0
370
    -2
100
AcDbVertex
100
AcDb2dVertex
 10
-0.25
 20
0.0
 30
0.0
 42
1.0
  0
VERTEX
  5
F
330
B
100
AcDbEntity
  8
0
  6
BYBLOCK
 62
     0
370
    -2
100
AcDbVertex
100
AcDb2dVertex
 10
0.25
 20
0.0
 30
0.0
 42
1.0
  0
SEQEND
  5
10
330
B
100
AcDbEntity
  8
0
  6
BYBLOCK
 62
     0
370
    -2
  0
LINE
  5
11
330
B
100
AcDbEntity
  8
0
  6
BYBLOCK
 62
     0
370
    -2
100
AcDbLine
 10
-0.5
 20
0.0
 30
0.0
 11
-1.0
 21
0.0
 31
0.0
  0
ENDBLK
  5
12
330
B
100
AcDbEntity
  8
0
100
AcDbBlockEnd
  0
BLOCK
  5
14
330
13
100
AcDbEntity
  8
0
100
AcDbBlockBegin
  2
_OPEN
 70
     0
 10
0.0
 20
0.0
 30
0.0
  3
_OPEN
  1

  0
LINE
  5
15
330
13
100
AcDbEntity
  8
0
  6
BYBLOCK
 62
     0
370
    -2
100
AcDbLine
 10
-1.0
 20
0.166667
 30
0.0
 11
0.0
 21
0.0
 31
0.0
  0
LINE
  5
16
330
13
100
AcDbEntity
  8
0
  6
BYBLOCK
 62
     0
370
    -2
100
AcDbLine
 10
0.0
 20
0.0
 30
0.0
 11
-1.0
 21
-0.166667
 31
0.0
  0
LINE
  5
17
330
13
100
AcDbEntity
  8
0
  6
BYBLOCK
 62
     0
370
    -2
100
AcDbLine
 10
0.0
 20
0.0
 30
0.0
 11
-1.0
 21
0.0
 31
0.0
  0
ENDBLK
  5
18
330
13
100
AcDbEntity
  8
0
100
AcDbBlockEnd
  0
BLOCK
  5
1A
330
19
100
AcDbEntity
  8
0
100
AcDbBlockBegin
  2
_ORIGIN
 70
     0
 10
0.0
 20
0.0
 30
0.0
  3
_ORIGIN
  1

  0
CIRCLE
  5
1B
330
19
100
AcDbEntity
  8
0
  6
BYBLOCK
 62
     0
370
    -2
100
AcDbCircle
 10
0.0
 20
0.0
 30
0.0
 40
0.5
  0
LINE
  5
1C
330
19
100
AcDbEntity
  8
0
  6
BYBLOCK
 62
     0
370
    -2
100
AcDbLine
 10
0.0
 20
0.0
 30
0.0
 11
-1.0
 21
0.0
 31
0.0
  0
ENDBLK
  5
1D
330
19
100
AcDbEntity
  8
0
100
AcDbBlockEnd
  0
BLOCK
  5
1F
330
1E
100
AcDbEntity
  8
0
100
AcDbBlockBegin
  2
_OPEN30
 70
     0
 10
0.0
 20
0.0
 30
0.0
  3
_OPEN30
  1

  0
LINE
  5
20
330
1E
100
AcDbEntity
  8
0
  6
BYBLOCK
 62
     0
370
    -2
100
AcDbLine
 10
-1.0
 20
0.267949
 30
0.0
 11
0.0
 21
0.0
 31
0.0
  0
LINE
  5
21
330
1E
100
AcDbEntity
  8
0
  6
BYBLOCK
 62
     0
370
    -2
100
AcDbLine
 10
0.0
 20
0.0
 30
0.0
 11
-1.0
 21
-0.267949
 31
0.0
  0
LINE
  5
22
330
1E
100
AcDbEntity
  8
0
  6
BYBLOCK
 62
     0
370
    -2
100
AcDbLine
 10
0.0
 20
0.0
 30
0.0
 11
-1.0
 21
0.0
 31
0.0
  0
ENDBLK
  5
23
330
1E
100
AcDbEntity
  8
0
100
AcDbBlockEnd
  0
BLOCK
  5
25
330
24
100
AcDbEntity
  8
0
100
AcDbBlockBegin
  2
_BOXFILLED
 70
     0
 10
0.0
 20
0.0
 30
0.0
  3
_BOXFILLED
  1

  0
SOLID
  5
26
330
24
100
AcDbEntity
  8
0
  6
BYBLOCK
 62
     0
370
    -2
100
AcDbTrace
 10
-0.5
 20
0.5
 30
0.0
 11
0.5
 21
0.5
 31
0.0
 12
-0.5
 22
-0.5
 32
0.0
 13
0.5
 23
-0.5
 33
0.0
  0
LINE
  5
27
330
24
100
AcDbEntity
  8
0
  6
BYBLOCK
 62
     0
370
    -2
100
AcDbLine
 10
-0.5
 20
0.0
 30
0.0
 11
-1.0
 21
0.0
 31
0.0
  0
ENDBLK
  5
28
330
24
100
AcDbEntity
  8
0
100
AcDbBlockEnd
  0
BLOCK
  5
2A
330
29
100
AcDbEntity
  8
0
100
AcDbBlockBegin
  2
_BOXBLANK
 70
     0
 10
0.0
 20
0.0
 30
0.0
  3
_BOXBLANK
  1

  0
LINE
  5
2B
330
29
100
AcDbEntity
  8
0
  6
BYBLOCK
 62
     0
370
    -2
100
AcDbLine
 10
-0.5
 20
-0.5
 30
0.0
 11
0.5
 21
-0.5
 31
0.0
  0
LINE
  5
2C
330
29
100
AcDbEntity
  8
0
  6
BYBLOCK
 62
     0
370
    -2
100
AcDbLine
 10
0.5
 20
-0.5
 30
0.0
 11
0.5
 21
0.5
 31
0.0
  0
LINE
  5
2D
330
29
100
AcDbEntity
  8
0
  6
BYBLOCK
 62
     0
370
    -2
100
AcDbLine
 10
0.5
 20
0.5
 30
0.0
 11
-0.5
 21
0.5
 31
0.0
  0
LINE
  5
2E
330
29
100
AcDbEntity
  8
0
  6
BYBLOCK
 62
     0
370
    -2
100
AcDbLine
 10
-0.5
 20
0.5
 30
0.0
 11
-0.5
 21
-0.5
 31
0.0
  0
LINE
  5
2F
330
29
100
AcDbEntity
  8
0
  6
BYBLOCK
 62
     0
370
    -2
100
AcDbLine
 10
-0.5
 20
0.0
 30
0.0
 11
-1.0
 21
0.0
 31
0.0
  0
ENDBLK
  5
30
330
29
100
AcDbEntity
  8
0
100
AcDbBlockEnd
  0
BLOCK
  5
32
330
31
100
AcDbEntity
  8
0
100
AcDbBlockBegin
  2
_OBLIQUE
 70
     0
 10
0.0
 20
0.0
 30
0.0
  3
_OBLIQUE
  1

  0
LINE
  5
33
330
31
100
AcDbEntity
  8
0
  6
BYBLOCK
 62
     0
370
    -2
100
AcDbLine
 10
-0.5
 20
-0.5
 30
0.0
 11
0.5
 21
0.5
 31
0.0
  0
ENDBLK
  5
34
330
31
100
AcDbEntity
  8
0
100
AcDbBlockEnd
  0
BLOCK
  5
36
330
35
100
AcDbEntity
  8
0
100
AcDbBlockBegin
  2
_OPEN90
 70
     0
 10
0.0
 20
0.0
 30
0.0
  3
_OPEN90
  1

  0
LINE
  5
37
330
35
100
AcDbEntity
  8
0
  6
BYBLOCK
 62
     0
370
    -2
100
AcDbLine
 10
-0.5
 20
0.5
 30
0.0
 11
0.0
 21
0.0
 31
0.0
  0
LINE
  5
38
330
35
100
AcDbEntity
  8
0
  6
BYBLOCK
 62
     0
370
    -2
100
AcDbLine
 10
0.0
 20
0.0
 30
0.0
 11
-0.5
 21
-0.5
 31
0.0
  0
LINE
  5
39
330
35
100
AcDbEntity
  8
0
  6
BYBLOCK
 62
     0
370
    -2
100
AcDbLine
 10
0.0
 20
0.0
 30
0.0
 11
-1.0
 21
0.0
 31
0.0
  0
ENDBLK
  5
3A
330
35
100
AcDbEntity
  8
0
100
AcDbBlockEnd
  0
BLOCK
  5
3C
330
3B
100
AcDbEntity
  8
0
100
AcDbBlockBegin
  2
_CLOSEDBLANK
 70
     0
 10
0.0
 20
0.0
 30
0.0
  3
_CLOSEDBLANK
  1

  0
LINE
  5
3D
330
3B
100
AcDbEntity
  8
0
  6
BYBLOCK
 62
     0
370
    -2
100
AcDbLine
 10
-1.0
 20
0.1666666666666666
 30
0.0
 11
0.0
 21
0.0
 31
0.0
  0
LINE
  5
3E
330
3B
100
AcDbEntity
  8
0
  6
BYBLOCK
 62
     0
370
    -2
100
AcDbLine
 10
0.0
 20
0.0
 30
0.0
 11
-1.0
 21
-0.1666666666666666
 31
0.0
  0
LINE
  5
3F
330
3B
100
AcDbEntity
  8
0
  6
BYBLOCK
 62
     0
370
    -2
100
AcDbLine
 10
-1.0
 20
0.1666666666666666
 30
0.0
 11
-1.0
 21
-0.1666666666666666
 31
0.0
  0
ENDBLK
  5
40
330
3B
100
AcDbEntity
  8
0
100
AcDbBlockEnd
  0
BLOCK
  5
42
330
41
100
AcDbEntity
  8
0
100
AcDbBlockBegin
  2
_DOTBLANK
 70
     0
 10
0.0
 20
0.0
 30
0.0
  3
_DOTBLANK
  1

  0
CIRCLE
  5
43
330
41
100
AcDbEntity
  8
0
  6
BYBLOCK
 62
     0
370
    -2
100
AcDbCircle
 10
0.0
 20
0.0
 30
0.0
 40
0.5
  0
LINE
  5
44
330
41
100
AcDbEntity
  8
0
  6
BYBLOCK
 62
     0
370
    -2
100
AcDbLine
 10
-0.5
 20
0.0
 30
0.0
 11
-1.0
 21
0.0
 31
0.0
  0
ENDBLK
  5
45
330
41
100
AcDbEntity
  8
0
100
AcDbBlockEnd
  0
ENDSEC
  0
SECTION
  2
ENTITIES
  0
MTEXT
  5
46
100
AcDbEntity
  8
A8
  6
CONTINUOUS
 62
7
100
AcDbMText
 10
9.999997526638502
 20
18.00000076076889
 30
0.000000000000000
 40
3.000000000000000
 41
0.000000000000000
 44
0.6739999771118164
 71
     7
 72
     1
  1
{\H0.93x;{TYPE No.TH-181}}
 11
1.000000000000000
 21
0.000000000000000
 31
0.000000000000000
  7
STANDARD
  0
POINT
  5
47
100
AcDbEntity
  8
A0
  6
CONTINUOUS
 62
5
100
AcDbPoint
 10
9.999997526638502
 20
18.00000076076889
 30
0.000000000000000
  0
LINE
  5
48
100
AcDbEntity
  8
A1
  6
CONTINUOUS
 62
7
100
AcDbLine
 10
110.0000000000001
 20
49.99999999999999
 30
0.000000000000000
 11
51.00000000000000
 21
50.00000000000000
 31
0.000000000000000
  0
LINE
  5
49
100
AcDbEntity
  8
A1
  6
CONTINUOUS
 62
7
100
AcDbLine
 10
50.00000000000000
 20
51.00000000000000
 30
0.000000000000000
 11
50.00000000000000
 21
60.49999999999999
 31
0.000000000000000
  0
LINE
  5
4A
100
AcDbEntity
  8
A1
  6
CONTINUOUS
 62
7
100
AcDbLine
 10
51.00000000000000
 20
61.49999999999996
 30
0.000000000000000
 11
98.38648325690225
 21
61.49999999999996
 31
0.000000000000000
  0
ARC
  5
4B
100
AcDbEntity
  8
A1
  6
CONTINUOUS
 62
7
100
AcDbCircle
 10
107.5000000000000
 20
70.49999999999977
 30
0.000000000000000
 40
3.500000000000000
100
AcDbArc
 50
0.000000000000000
 51
153.0596254077996
  0
CIRCLE
  5
4C
100
AcDbEntity
  8
A1
  6
DASHED
 62
4
100
AcDbCircle
 10
93.00000000000003
 20
55.74999999999977
 30
0.000000000000000
 40
3.500000000000000
  0
CIRCLE
  5
4D
100
AcDbEntity
  8
A1
  6
DASHED
 62
4
100
AcDbCircle
 10
75.00000000000003
 20
55.74999999999977
 30
0.000000000000000
 40
3.500000000000000
  0
CIRCLE
  5
4E
100
AcDbEntity
  8
A1
  6
DASHED
 62
4
100
AcDbCircle
 10
57.00000000000003
 20
55.74999999999977
 30
0.000000000000000
 40
3.500000000000000
  0
LINE
  5
4F
100
AcDbEntity
  8
A1
  6
CENTER
 62
1
100
AcDbLine
 10
62.00000000000001
 20
55.75000000000000
 30
0.000000000000000
 11
52.00000000000000
 21
55.75000000000000
 31
0.000000000000000
  0
LINE
  5
50
100
AcDbEntity
  8
A1
  6
CENTER
 62
1
100
AcDbLine
 10
57.00000000000000
 20
60.74999999999999
 30
0.000000000000000
 11
57.00000000000000
 21
50.75000000000000
 31
0.000000000000000
  0
LINE
  5
51
100
AcDbEntity
  8
A1
  6
CENTER
 62
1
100
AcDbLine
 10
80.00000000000001
 20
55.74999999999999
 30
0.000000000000000
 11
70.00000000000001
 21
55.75000000000000
 31
0.000000000000000
  0
LINE
  5
52
100
AcDbEntity
  8
A1
  6
CENTER
 62
1
100
AcDbLine
 10
75.00000000000001
 20
60.74999999999999
 30
0.000000000000000
 11
75.00000000000001
 21
50.74999999999999
 31
0.000000000000000
  0
LINE
  5
53
100
AcDbEntity
  8
A1
  6
CENTER
 62
1
100
AcDbLine
 10
98.00000000000001
 20
55.74999999999999
 30
0.000000000000000
 11
88.00000000000001
 21
55.74999999999999
 31
0.000000000000000
  0
LINE
  5
54
100
AcDbEntity
  8
A1
  6
CENTER
 62
1
100
AcDbLine
 10
93.00000000000001
 20
60.74999999999999
 30
0.000000000000000
 11
93.00000000000001
 21
50.74999999999999
 31
0.000000000000000
  0
LINE
  5
55
100
AcDbEntity
  8
A1
  6
CENTER
 62
1
100
AcDbLine
 10
107.5000000000000
 20
75.50000000000000
 30
0.000000000000000
 11
107.5000000000000
 21
65.49999999999977
 31
0.000000000000000
  0
ARC
  5
56
100
AcDbEntity
  8
A1
  6
CONTINUOUS
 62
7
100
AcDbCircle
 10
51.00000000000003
 20
60.49999999999977
 30
0.000000000000000
 40
1.000000000000000
100
AcDbArc
 50
90.00000000000000
 51
180.0000000000000
  0
ARC
  5
57
100
AcDbEntity
  8
A1
  6
CONTINUOUS
 62
7
100
AcDbCircle
 10
51.00000000000003
 20
50.99999999999977
 30
0.000000000000000
 40
1.000000000000000
100
AcDbArc
 50
180.0000000000000
 51
270.0000000000000
  0
ARC
  5
58
100
AcDbEntity
  8
A1
  6
CONTINUOUS
 62
7
100
AcDbCircle
 10
98.38648325690227
 20
62.49999999999977
 30
0.000000000000000
 40
1.000000000000000
100
AcDbArc
 50
270.0000000000000
 51
333.0596254077996
  0
ARC
  5
59
100
AcDbEntity
  8
A1
  6
CONTINUOUS
 62
7
100
AcDbCircle
 10
110.0000000000000
 20
50.99999999999977
 30
0.000000000000000
 40
1.000000000000000
100
AcDbArc
 50
270.0000000000000
 51
360.0000000000000
  0
LINE
  5
5A
100
AcDbEntity
  8
A10
  6
CONTINUOUS
 62
7
100
AcDbLine
 10
111.0000000000003
 20
161.7488403629134
 30
0.000000000000000
 11
50.00000000000026
 21
161.7488403629134
 31
0.000000000000000
  0
LINE
  5
5B
100
AcDbEntity
  8
A10
  6
CONTINUOUS
 62
7
100
AcDbLine
 10
111.0000000000003
 20
159.7488403629134
 30
0.000000000000000
 11
50.00000000000026
 21
159.7488403629134
 31
0.000000000000000
  0
LINE
  5
5C
100
AcDbEntity
  8
A10
  6
CONTINUOUS
 62
7
100
AcDbLine
 10
50.00000000000026
 20
161.7488403629134
 30
0.000000000000000
 11
50.00000000000026
 21
159.7488403629134
 31
0.000000000000000
  0
LINE
  5
5D
100
AcDbEntity
  8
A10
  6
CONTINUOUS
 62
7
100
AcDbLine
 10
111.0000000000003
 20
161.7488403629134
 30
0.000000000000000
 11
111.0000000000003
 21
159.7488403629134
 31
0.000000000000000
  0
LINE
  5
5E
100
AcDbEntity
  8
A10
  6
CENTER
 62
1
100
AcDbLine
 10
57.00000000000026
 20
163.2488403629134
 30
0.000000000000000
 11
57.00000000000026
 21
158.2488403629134
 31
0.000000000000000
  0
LINE
  5
5F
100
AcDbEntity
  8
A10
  6
CENTER
 62
1
100
AcDbLine
 10
75.00000000000026
 20
163.2488403629134
 30
0.000000000000000
 11
75.00000000000026
 21
158.2488403629134
 31
0.000000000000000
  0
LINE
  5
60
100
AcDbEntity
  8
A10
  6
CENTER
 62
1
100
AcDbLine
 10
93.00000000000026
 20
163.2488403629134
 30
0.000000000000000
 11
93.00000000000026
 21
158.2488403629134
 31
0.000000000000000
  0
LINE
  5
61
100
AcDbEntity
  8
A10
  6
CENTER
 62
1
100
AcDbLine
 10
107.5000000000003
 20
166.5488403629136
 30
0.000000000000000
 11
107.5000000000003
 21
157.2488403629139
 31
0.000000000000000
  0
LINE
  5
62
100
AcDbEntity
  8
A10
  6
CONTINUOUS
 62
7
100
AcDbLine
 10
99.00000000000030
 20
161.2488403629135
 30
0.000000000000000
 11
99.00000000000030
 21
160.2488403629135
 31
0.000000000000000
  0
LINE
  5
63
100
AcDbEntity
  8
A1
  6
CONTINUOUS
 62
7
100
AcDbLine
 10
105.0000000000002
 20
91.00000000000007
 30
0.000000000000000
 11
164.0000000000001
 21
91.00000000000007
 31
0.000000000000000
  0
LINE
  5
64
100
AcDbEntity
  8
A1
  6
CONTINUOUS
 62
7
100
AcDbLine
 10
165.0000000000001
 20
90.00000000000007
 30
0.000000000000000
 11
165.0000000000001
 21
80.49999999999984
 31
0.000000000000000
  0
LINE
  5
65
100
AcDbEntity
  8
A1
  6
CONTINUOUS
 62
7
100
AcDbLine
 10
164.0000000000001
 20
79.49999999999984
 30
0.000000000000000
 11
116.6135167430977
 21
79.49999999999984
 31
0.000000000000000
  0
CIRCLE
  5
66
100
AcDbEntity
  8
A1
  6
CONTINUOUS
 62
7
100
AcDbCircle
 10
122.0000000000000
 20
85.24999999999977
 30
0.000000000000000
 40
3.500000000000000
  0
CIRCLE
  5
67
100
AcDbEntity
  8
A1
  6
CONTINUOUS
 62
7
100
AcDbCircle
 10
140.0000000000000
 20
85.24999999999977
 30
0.000000000000000
 40
3.500000000000000
  0
CIRCLE
  5
68
100
AcDbEntity
  8
A1
  6
CONTINUOUS
 62
7
100
AcDbCircle
 10
158.0000000000000
 20
85.24999999999977
 30
0.000000000000000
 40
3.500000000000000
  0
LINE
  5
69
100
AcDbEntity
  8
A1
  6
CENTER
 62
1
100
AcDbLine
 10
153.0000000000001
 20
85.24999999999984
 30
0.000000000000000
 11
163.0000000000001
 21
85.24999999999984
 31
0.000000000000000
  0
LINE
  5
6A
100
AcDbEntity
  8
A1
  6
CENTER
 62
1
100
AcDbLine
 10
158.0000000000001
 20
80.24999999999984
 30
0.000000000000000
 11
158.0000000000001
 21
90.25000000000007
 31
0.000000000000000
  0
LINE
  5
6B
100
AcDbEntity
  8
A1
  6
CENTER
 62
1
100
AcDbLine
 10
135.0000000000001
 20
85.24999999999984
 30
0.000000000000000
 11
145.0000000000001
 21
85.24999999999984
 31
0.000000000000000
  0
LINE
  5
6C
100
AcDbEntity
  8
A1
  6
CENTER
 62
1
100
AcDbLine
 10
140.0000000000001
 20
80.24999999999984
 30
0.000000000000000
 11
140.0000000000001
 21
90.25000000000007
 31
0.000000000000000
  0
LINE
  5
6D
100
AcDbEntity
  8
A1
  6
CENTER
 62
1
100
AcDbLine
 10
117.0000000000002
 20
85.24999999999984
 30
0.000000000000000
 11
127.0000000000002
 21
85.24999999999984
 31
0.000000000000000
  0
LINE
  5
6E
100
AcDbEntity
  8
A1
  6
CENTER
 62
1
100
AcDbLine
 10
122.0000000000002
 20
80.24999999999984
 30
0.000000000000000
 11
122.0000000000002
 21
90.25000000000007
 31
0.000000000000000
  0
LINE
  5
6F
100
AcDbEntity
  8
A1
  6
CENTER
 62
1
100
AcDbLine
 10
102.5000000000002
 20
70.49999999999984
 30
0.000000000000000
 11
112.5000000000002
 21
70.49999999999984
 31
0.000000000000000
  0
ARC
  5
70
100
AcDbEntity
  8
A1
  6
CONTINUOUS
 62
7
100
AcDbCircle
 10
164.0000000000000
 20
80.49999999999977
 30
0.000000000000000
 40
1.000000000000000
100
AcDbArc
 50
270.0000000000000
 51
360.0000000000000
  0
ARC
  5
71
100
AcDbEntity
  8
A1
  6
CONTINUOUS
 62
7
100
AcDbCircle
 10
164.0000000000000
 20
89.99999999999977
 30
0.000000000000000
 40
1.000000000000000
100
AcDbArc
 50
0.000000000000000
 51
90.00000000000000
  0
ARC
  5
72
100
AcDbEntity
  8
A1
  6
CONTINUOUS
 62
7
100
AcDbCircle
 10
116.6135167430976
 20
78.49999999999977
 30
0.000000000000000
 40
1.000000000000000
100
AcDbArc
 50
90.00000000000000
 51
153.0596254077996
  0
ARC
  5
73
100
AcDbEntity
  8
A1
  6
CONTINUOUS
 62
7
100
AcDbCircle
 10
105.0000000000000
 20
89.99999999999977
 30
0.000000000000000
 40
1.000000000000000
100
AcDbArc
 50
90.00000000000000
 51
180.0000000000000
  0
LINE
  5
74
100
AcDbEntity
  8
A10
  6
CONTINUOUS
 62
7
100
AcDbLine
 10
104.0000000000003
 20
164.2488403629134
 30
0.000000000000000
 11
165.0000000000003
 21
164.2488403629134
 31
0.000000000000000
  0
LINE
  5
75
100
AcDbEntity
  8
A10
  6
CONTINUOUS
 62
7
100
AcDbLine
 10
104.0000000000003
 20
164.2488403629134
 30
0.000000000000000
 11
104.0000000000003
 21
162.2488403629134
 31
0.000000000000000
  0
LINE
  5
76
100
AcDbEntity
  8
A10
  6
CONTINUOUS
 62
7
100
AcDbLine
 10
165.0000000000003
 20
164.2488403629134
 30
0.000000000000000
 11
165.0000000000003
 21
162.2488403629134
 31
0.000000000000000
  0
LINE
  5
77
100
AcDbEntity
  8
A10
  6
CONTINUOUS
 62
7
100
AcDbLine
 10
104.0000000000003
 20
162.2488403629134
 30
0.000000000000000
 11
165.0000000000003
 21
162.2488403629134
 31
0.000000000000000
  0
LINE
  5
78
100
AcDbEntity
  8
A10
  6
CENTER
 62
1
100
AcDbLine
 10
122.0000000000000
 20
165.7488403629134
 30
0.000000000000000
 11
122.0000000000000
 21
160.7488403629134
 31
0.000000000000000
  0
LINE
  5
79
100
AcDbEntity
  8
A10
  6
CENTER
 62
1
100
AcDbLine
 10
140.0000000000000
 20
165.7488403629134
 30
0.000000000000000
 11
140.0000000000000
 21
160.7488403629130
 31
0.000000000000000
  0
LINE
  5
7A
100
AcDbEntity
  8
A10
  6
CENTER
 62
1
100
AcDbLine
 10
158.0000000000000
 20
165.7488403629134
 30
0.000000000000000
 11
158.0000000000000
 21
160.7488403629134
 31
0.000000000000000
  0
LINE
  5
7B
100
AcDbEntity
  8
A10
  6
CONTINUOUS
 62
7
100
AcDbLine
 10
104.5000000000003
 20
161.7488403629134
 30
0.000000000000000
 11
104.5000000000003
 21
162.2488403629134
 31
0.000000000000000
  0
LINE
  5
7C
100
AcDbEntity
  8
A10
  6
CONTINUOUS
 62
7
100
AcDbLine
 10
110.5000000000003
 20
161.7488403629134
 30
0.000000000000000
 11
110.5000000000003
 21
162.2488403629134
 31
0.000000000000000
  0
LINE
  5
7D
100
AcDbEntity
  8
A1
  6
CONTINUOUS
 62
7
100
AcDbLine
 10
99.27796174814804
 20
62.04693698049087
 30
0.000000000000000
 11
104.3798252806414
 21
72.08572056828274
 31
0.000000000000000
  0
LINE
  5
7E
100
AcDbEntity
  8
A1
  6
CONTINUOUS
 62
7
100
AcDbLine
 10
111.0000000000000
 20
50.99999999999999
 30
0.000000000000000
 11
111.0000000000000
 21
70.49999999999977
 31
0.000000000000000
  0
LINE
  5
7F
100
AcDbEntity
  8
A1
  6
CONTINUOUS
 62
7
100
AcDbLine
 10
104.0000000000001
 20
90.00000000000011
 30
0.000000000000000
 11
104.0000000000001
 21
71.33834977538606
 31
0.000000000000000
  0
LINE
  5
80
100
AcDbEntity
  8
A1
  6
CONTINUOUS
 62
7
100
AcDbLine
 10
115.7220382518530
 20
78.95306301950916
 30
0.000000000000000
 11
111.0000000000000
 21
69.66165022461293
 31
0.000000000000000
  0
ARC
  5
81
100
AcDbEntity
  8
A10
  6
CONTINUOUS
 62
1
100
AcDbCircle
 10
132.9999759124908
 20
85.24999999999980
 30
0.000000000000000
 40
0.8590595467416471
100
AcDbArc
 50
305.5376777920008
 51
346.5374393917331
  0
ARC
  5
82
100
AcDbEntity
  8
A10
  6
CONTINUOUS
 62
1
100
AcDbCircle
 10
131.0000000000385
 20
88.04996627743029
 30
0.000000000000000
 40
4.299948211772383
100
AcDbArc
 50
234.4623222079991
 51
305.5376777920008
  0
ARC
  5
83
100
AcDbEntity
  8
A10
  6
CONTINUOUS
 62
1
100
AcDbCircle
 10
129.0000240875862
 20
85.24999999999980
 30
0.000000000000000
 40
0.8590595467416478
100
AcDbArc
 50
152.2496545546281
 51
234.4623222079992
  0
ARC
  5
84
100
AcDbEntity
  8
A10
  6
CONTINUOUS
 62
1
100
AcDbCircle
 10
132.9999759124908
 20
85.24999999999980
 30
0.000000000000000
 40
0.8590595467416471
100
AcDbArc
 50
0.000000000000000
 51
54.46232220805208
  0
ARC
  5
85
100
AcDbEntity
  8
A10
  6
CONTINUOUS
 62
1
100
AcDbCircle
 10
131.0000000000385
 20
82.45003372256397
 30
0.000000000000000
 40
4.299948211772383
100
AcDbArc
 50
54.46232220805204
 51
125.5376777919479
  0
ARC
  5
86
100
AcDbEntity
  8
A10
  6
CONTINUOUS
 62
1
100
AcDbCircle
 10
129.0000240875862
 20
85.24999999999980
 30
0.000000000000000
 40
0.8590595467416478
100
AcDbArc
 50
125.5376777919479
 51
135.6988392796172
  0
LINE
  5
87
100
AcDbEntity
  8
A10
  6
CONTINUOUS
 62
1
100
AcDbLine
 10
133.1666405718618
 20
84.33577413694347
 30
0.000000000000000
 11
133.1666405718618
 21
85.77264325049138
 31
0.000000000000000
  0
LINE
  5
88
100
AcDbEntity
  8
A10
  6
CONTINUOUS
 62
1
100
AcDbLine
 10
132.8333112531198
 20
85.86499218637861
 30
0.000000000000000
 11
132.8333112531198
 21
84.63500781361567
 31
0.000000000000000
  0
ARC
  5
89
100
AcDbEntity
  8
A10
  6
CONTINUOUS
 62
1
100
AcDbCircle
 10
132.6666465937488
 20
84.63500781361566
 30
0.000000000000000
 40
0.1666646593710226
100
AcDbArc
 50
296.0143659996366
 51
360.0000000000000
  0
ARC
  5
8A
100
AcDbEntity
  8
A10
  6
CONTINUOUS
 62
1
100
AcDbCircle
 10
131.0000000000385
 20
88.04996627743029
 30
0.000000000000000
 40
3.966618893030338
100
AcDbArc
 50
292.9439535565378
 51
296.0143659996366
  0
ARC
  5
8B
100
AcDbEntity
  8
A10
  6
CONTINUOUS
 62
1
100
AcDbCircle
 10
132.5333148662520
 20
84.42785584657966
 30
0.000000000000000
 40
0.03333293187420451
100
AcDbArc
 50
180.0000000000000
 51
292.9439535565375
  0
LINE
  5
8C
100
AcDbEntity
  8
A10
  6
CONTINUOUS
 62
1
100
AcDbLine
 10
132.4999819343778
 20
84.42785584657967
 30
0.000000000000000
 11
132.4999819343778
 21
86.07214415341461
 31
0.000000000000000
  0
ARC
  5
8D
100
AcDbEntity
  8
A10
  6
CONTINUOUS
 62
1
100
AcDbCircle
 10
132.5333148662520
 20
86.07214415341460
 30
0.000000000000000
 40
0.03333293187420451
100
AcDbArc
 50
67.05604644346229
 51
180.0000000000000
  0
ARC
  5
8E
100
AcDbEntity
  8
A10
  6
CONTINUOUS
 62
1
100
AcDbCircle
 10
131.0000000000385
 20
82.45003372256397
 30
0.000000000000000
 40
3.966618893030338
100
AcDbArc
 50
63.98563400036338
 51
67.05604644346224
  0
ARC
  5
8F
100
AcDbEntity
  8
A10
  6
CONTINUOUS
 62
1
100
AcDbCircle
 10
132.6666465937488
 20
85.86499218637860
 30
0.000000000000000
 40
0.1666646593710226
100
AcDbArc
 50
0.000000000000000
 51
63.98563400036338
  0
LINE
  5
90
100
AcDbEntity
  8
A10
  6
CONTINUOUS
 62
1
100
AcDbLine
 10
131.8333232968937
 20
84.85000481750949
 30
0.000000000000000
 11
131.8333232968937
 21
84.21334726670845
 31
0.000000000000000
  0
ARC
  5
91
100
AcDbEntity
  8
A10
  6
CONTINUOUS
 62
1
100
AcDbCircle
 10
131.8666562287678
 20
84.21334726670844
 30
0.000000000000000
 40
0.03333293187420451
100
AcDbArc
 50
180.0000000000000
 51
282.7289438731227
  0
ARC
  5
92
100
AcDbEntity
  8
A10
  6
CONTINUOUS
 62
1
100
AcDbCircle
 10
131.0000000000385
 20
88.04996627743029
 30
0.000000000000000
 40
3.966618893030338
100
AcDbArc
 50
282.7289438731226
 51
283.2681189705562
  0
ARC
  5
93
100
AcDbEntity
  8
A10
  6
CONTINUOUS
 62
1
100
AcDbCircle
 10
131.0000000000385
 20
88.04996627743029
 30
0.000000000000000
 40
3.966618893030338
100
AcDbArc
 50
283.2681189705563
 51
285.2575232904563
  0
ARC
  5
94
100
AcDbEntity
  8
A10
  6
CONTINUOUS
 62
1
100
AcDbCircle
 10
131.9999879562647
 20
84.38394987466998
 30
0.000000000000000
 40
0.1666646593710226
100
AcDbArc
 50
285.2575232904564
 51
360.0000000000000
  0
LINE
  5
95
100
AcDbEntity
  8
A10
  6
CONTINUOUS
 62
1
100
AcDbLine
 10
132.1666526156357
 20
84.38394987466999
 30
0.000000000000000
 11
132.1666526156357
 21
86.11605012532429
 31
0.000000000000000
  0
ARC
  5
96
100
AcDbEntity
  8
A10
  6
CONTINUOUS
 62
1
100
AcDbCircle
 10
131.9999879562647
 20
86.11605012532428
 30
0.000000000000000
 40
0.1666646593710226
100
AcDbArc
 50
0.000000000000000
 51
74.74247670954358
  0
ARC
  5
97
100
AcDbEntity
  8
A10
  6
CONTINUOUS
 62
1
100
AcDbCircle
 10
131.0000000000385
 20
82.45003372256397
 30
0.000000000000000
 40
3.966618893030338
100
AcDbArc
 50
74.74247670954358
 51
74.79371212394199
  0
ARC
  5
98
100
AcDbEntity
  8
A10
  6
CONTINUOUS
 62
1
100
AcDbCircle
 10
131.0000000000385
 20
82.45003372256397
 30
0.000000000000000
 40
3.966618893030338
100
AcDbArc
 50
74.79371212394199
 51
77.27105612687734
  0
ARC
  5
99
100
AcDbEntity
  8
A10
  6
CONTINUOUS
 62
1
100
AcDbCircle
 10
131.8666562287678
 20
86.28665273328582
 30
0.000000000000000
 40
0.03333293187420451
100
AcDbArc
 50
77.27105612687744
 51
180.0000000000000
  0
LINE
  5
9A
100
AcDbEntity
  8
A10
  6
CONTINUOUS
 62
1
100
AcDbLine
 10
131.8333232968937
 20
86.28665273328583
 30
0.000000000000000
 11
131.8333232968937
 21
85.64999518249037
 31
0.000000000000000
  0
LINE
  5
9B
100
AcDbEntity
  8
A10
  6
CONTINUOUS
 62
1
100
AcDbLine
 10
131.4999939781517
 20
84.11498578644994
 30
0.000000000000000
 11
131.4999939781517
 21
86.38501421354424
 31
0.000000000000000
  0
LINE
  5
9C
100
AcDbEntity
  8
A10
  6
CONTINUOUS
 62
1
100
AcDbLine
 10
131.1666646594095
 20
84.08685028949076
 30
0.000000000000000
 11
131.1666646594095
 21
86.41314971050342
 31
0.000000000000000
  0
LINE
  5
9D
100
AcDbEntity
  8
A10
  6
CONTINUOUS
 62
1
100
AcDbLine
 10
131.1666646594095
 20
85.24999999999982
 30
0.000000000000000
 11
131.4999939781517
 21
85.24999999999982
 31
0.000000000000000
  0
LINE
  5
9E
100
AcDbEntity
  8
A10
  6
CONTINUOUS
 62
1
100
AcDbLine
 10
130.8333353406675
 20
84.08685028949076
 30
0.000000000000000
 11
130.8333353406675
 21
86.41314971050342
 31
0.000000000000000
  0
LINE
  5
9F
100
AcDbEntity
  8
A10
  6
CONTINUOUS
 62
1
100
AcDbLine
 10
130.1666767031835
 20
84.85000481750949
 30
0.000000000000000
 11
130.1666767031835
 21
84.30894790819268
 31
0.000000000000000
  0
ARC
  5
A0
100
AcDbEntity
  8
A10
  6
CONTINUOUS
 62
1
100
AcDbCircle
 10
130.3333413625545
 20
84.30894790819266
 30
0.000000000000000
 40
0.1666646593710226
100
AcDbArc
 50
180.0000000000000
 51
259.8958172838749
  0
ARC
  5
A1
100
AcDbEntity
  8
A10
  6
CONTINUOUS
 62
1
100
AcDbCircle
 10
131.0000000000385
 20
88.04996627743029
 30
0.000000000000000
 40
3.966618893030338
100
AcDbArc
 50
259.8958172838750
 51
262.2070756645776
  0
ARC
  5
A2
100
AcDbEntity
  8
A10
  6
CONTINUOUS
 62
1
100
AcDbCircle
 10
130.4666730900512
 20
84.15300581325940
 30
0.000000000000000
 40
0.03333293187420451
100
AcDbArc
 50
262.2070756645773
 51
360.0000000000000
  0
LINE
  5
A3
100
AcDbEntity
  8
A10
  6
CONTINUOUS
 62
1
100
AcDbLine
 10
130.5000060219255
 20
84.15300581325941
 30
0.000000000000000
 11
130.5000060219255
 21
86.34699418673488
 31
0.000000000000000
  0
ARC
  5
A4
100
AcDbEntity
  8
A10
  6
CONTINUOUS
 62
1
100
AcDbCircle
 10
130.4666730900512
 20
86.34699418673486
 30
0.000000000000000
 40
0.03333293187420451
100
AcDbArc
 50
0.000000000000000
 51
97.79292433542275
  0
ARC
  5
A5
100
AcDbEntity
  8
A10
  6
CONTINUOUS
 62
1
100
AcDbCircle
 10
131.0000000000385
 20
82.45003372256397
 30
0.000000000000000
 40
3.966618893030338
100
AcDbArc
 50
97.79292433542234
 51
100.1041827161250
  0
ARC
  5
A6
100
AcDbEntity
  8
A10
  6
CONTINUOUS
 62
1
100
AcDbCircle
 10
130.3333413625545
 20
86.19105209180159
 30
0.000000000000000
 40
0.1666646593710226
100
AcDbArc
 50
100.1041827161250
 51
180.0000000000000
  0
LINE
  5
A7
100
AcDbEntity
  8
A10
  6
CONTINUOUS
 62
1
100
AcDbLine
 10
130.1666767031835
 20
86.19105209180161
 30
0.000000000000000
 11
130.1666767031835
 21
85.24999999999982
 31
0.000000000000000
  0
LINE
  5
A8
100
AcDbEntity
  8
A10
  6
CONTINUOUS
 62
1
100
AcDbLine
 10
130.1666767031835
 20
85.24999999999982
 30
0.000000000000000
 11
130.3333413625545
 21
85.24999999999982
 31
0.000000000000000
  0
LINE
  5
A9
100
AcDbEntity
  8
A10
  6
CONTINUOUS
 62
1
100
AcDbLine
 10
129.8333473844413
 20
84.15428904488321
 30
0.000000000000000
 11
129.8333473844413
 21
86.24120598415611
 31
0.000000000000000
  0
LINE
  5
AA
100
AcDbEntity
  8
A10
  6
CONTINUOUS
 62
1
100
AcDbLine
 10
129.5000180656993
 20
84.31132466724402
 30
0.000000000000000
 11
129.5000180656993
 21
85.08333534062881
 31
0.000000000000000
  0
ARC
  5
AB
100
AcDbEntity
  8
A10
  6
CONTINUOUS
 62
1
100
AcDbCircle
 10
129.3333534063283
 20
85.08333534062879
 30
0.000000000000000
 40
0.1666646593710234
100
AcDbArc
 50
0.000000000000000
 51
180.0000000000000
  0
LINE
  5
AC
100
AcDbEntity
  8
A10
  6
CONTINUOUS
 62
1
100
AcDbLine
 10
129.1666887469572
 20
85.08333534062881
 30
0.000000000000000
 11
129.1666887469572
 21
84.37124267399342
 31
0.000000000000000
  0
LINE
  5
AD
100
AcDbEntity
  8
A10
  6
CONTINUOUS
 62
1
100
AcDbLine
 10
129.3333534063283
 20
85.24999999999982
 30
0.000000000000000
 11
129.3333534063283
 21
86.04952737781871
 31
0.000000000000000
  0
LINE
  5
AE
100
AcDbEntity
  8
A10
  6
CONTINUOUS
 62
1
100
AcDbLine
 10
128.9969690469910
 20
85.87376450106810
 30
0.000000000000000
 11
128.6204200819134
 21
84.46846463186580
 31
0.000000000000000
  0
LINE
  5
AF
100
AcDbEntity
  8
A10
  6
CONTINUOUS
 62
1
100
AcDbLine
 10
128.1409645408446
 20
85.24999999999982
 30
0.000000000000000
 11
128.8298318526618
 21
85.24999999999982
 31
0.000000000000000
  0
MTEXT
  5
B0
100
AcDbEntity
  8
A20
  6
CONTINUOUS
 62
1
100
AcDbMText
 10
135.9539464485381
 20
88.56234390360262
 30
0.000000000000000
 40
2.000000000000000
 41
0.000000000000000
 44
0.6720000028610229
 71
     1
 72
     1
  1
{\H0.92x;{TH-181}}
 11
-1.000000000000000
 21
1.224646799147353e-16
 31
0.000000000000000
  7
STANDARD
  0
CIRCLE
  5
B1
100
AcDbEntity
  8
A10
  6
CONTINUOUS
 62
7
100
AcDbCircle
 10
57.00000000000000
 20
55.74999999999996
 30
0.000000000000000
 40
2.050000000000000
  0
CIRCLE
  5
B2
100
AcDbEntity
  8
A10
  6
CONTINUOUS
 62
7
100
AcDbCircle
 10
74.99999999999997
 20
55.74999999999996
 30
0.000000000000000
 40
2.050000000000000
  0
CIRCLE
  5
B3
100
AcDbEntity
  8
A10
  6
CONTINUOUS
 62
7
100
AcDbCircle
 10
92.99999999999997
 20
55.74999999999994
 30
0.000000000000000
 40
2.050000000000000
  0
CIRCLE
  5
B4
100
AcDbEntity
  8
A10
  6
CONTINUOUS
 62
7
100
AcDbCircle
 10
122.0000000000002
 20
85.24999999999983
 30
0.000000000000000
 40
2.050000000000000
  0
CIRCLE
  5
B5
100
AcDbEntity
  8
A10
  6
CONTINUOUS
 62
7
100
AcDbCircle
 10
140.0000000000002
 20
85.24999999999983
 30
0.000000000000000
 40
2.050000000000000
  0
CIRCLE
  5
B6
100
AcDbEntity
  8
A10
  6
CONTINUOUS
 62
7
100
AcDbCircle
 10
158.0000000000002
 20
85.24999999999983
 30
0.000000000000000
 40
2.050000000000000
  0
LINE
  5
B7
100
AcDbEntity
  8
A10
  6
CONTINUOUS
 62
7
100
AcDbLine
 10
111.0000000000000
 20
276.7488403629134
 30
0.000000000000000
 11
50.00000000000003
 21
276.7488403629134
 31
0.000000000000000
  0
LINE
  5
B8
100
AcDbEntity
  8
A10
  6
CONTINUOUS
 62
7
100
AcDbLine
 10
111.0000000000000
 20
278.7488403629134
 30
0.000000000000000
 11
50.00000000000003
 21
278.7488403629134
 31
0.000000000000000
  0
LINE
  5
B9
100
AcDbEntity
  8
A10
  6
CONTINUOUS
 62
7
100
AcDbLine
 10
50.00000000000003
 20
276.7488403629134
 30
0.000000000000000
 11
50.00000000000003
 21
278.7488403629134
 31
0.000000000000000
  0
LINE
  5
BA
100
AcDbEntity
  8
A10
  6
CONTINUOUS
 62
7
100
AcDbLine
 10
111.0000000000000
 20
276.7488403629134
 30
0.000000000000000
 11
111.0000000000000
 21
278.7488403629134
 31
0.000000000000000
  0
LINE
  5
BB
100
AcDbEntity
  8
A10
  6
CENTER
 62
1
100
AcDbLine
 10
57.00000000000003
 20
275.2488403629134
 30
0.000000000000000
 11
57.00000000000003
 21
280.2488403629134
 31
0.000000000000000
  0
LINE
  5
BC
100
AcDbEntity
  8
A10
  6
CENTER
 62
1
100
AcDbLine
 10
75.00000000000003
 20
275.2488403629134
 30
0.000000000000000
 11
75.00000000000003
 21
280.2488403629134
 31
0.000000000000000
  0
LINE
  5
BD
100
AcDbEntity
  8
A10
  6
CENTER
 62
1
100
AcDbLine
 10
93.00000000000003
 20
275.2488403629134
 30
0.000000000000000
 11
93.00000000000003
 21
280.2488403629134
 31
0.000000000000000
  0
LINE
  5
BE
100
AcDbEntity
  8
A10
  6
CENTER
 62
1
100
AcDbLine
 10
107.5000000000000
 20
272.2488403629135
 30
0.000000000000000
 11
107.5000000000000
 21
281.2488403629135
 31
0.000000000000000
  0
LINE
  5
BF
100
AcDbEntity
  8
A10
  6
CONTINUOUS
 62
7
100
AcDbLine
 10
99.00000000000006
 20
277.2488403629135
 30
0.000000000000000
 11
99.00000000000006
 21
278.2488403629135
 31
0.000000000000000
  0
LINE
  5
C0
100
AcDbEntity
  8
A10
  6
CONTINUOUS
 62
7
100
AcDbLine
 10
104.0000000000000
 20
274.2488403629134
 30
0.000000000000000
 11
165.0000000000000
 21
274.2488403629134
 31
0.000000000000000
  0
LINE
  5
C1
100
AcDbEntity
  8
A10
  6
CONTINUOUS
 62
7
100
AcDbLine
 10
104.0000000000000
 20
274.2488403629134
 30
0.000000000000000
 11
104.0000000000000
 21
276.2488403629134
 31
0.000000000000000
  0
LINE
  5
C2
100
AcDbEntity
  8
A10
  6
CONTINUOUS
 62
7
100
AcDbLine
 10
165.0000000000000
 20
274.2488403629134
 30
0.000000000000000
 11
165.0000000000000
 21
276.2488403629134
 31
0.000000000000000
  0
LINE
  5
C3
100
AcDbEntity
  8
A10
  6
CONTINUOUS
 62
7
100
AcDbLine
 10
104.0000000000000
 20
276.2488403629134
 30
0.000000000000000
 11
165.0000000000000
 21
276.2488403629134
 31
0.000000000000000
  0
LINE
  5
C4
100
AcDbEntity
  8
A10
  6
CENTER
 62
1
100
AcDbLine
 10
121.9999999999998
 20
272.7488403629134
 30
0.000000000000000
 11
121.9999999999998
 21
277.7488403629134
 31
0.000000000000000
  0
LINE
  5
C5
100
AcDbEntity
  8
A10
  6
CENTER
 62
1
100
AcDbLine
 10
139.9999999999998
 20
272.7488403629134
 30
0.000000000000000
 11
139.9999999999998
 21
277.7488403629139
 31
0.000000000000000
  0
LINE
  5
C6
100
AcDbEntity
  8
A10
  6
CENTER
 62
1
100
AcDbLine
 10
157.9999999999998
 20
272.7488403629134
 30
0.000000000000000
 11
157.9999999999998
 21
277.7488403629134
 31
0.000000000000000
  0
LINE
  5
C7
100
AcDbEntity
  8
A10
  6
CONTINUOUS
 62
7
100
AcDbLine
 10
104.5000000000000
 20
276.7488403629134
 30
0.000000000000000
 11
104.5000000000000
 21
276.2488403629134
 31
0.000000000000000
  0
LINE
  5
C8
100
AcDbEntity
  8
A10
  6
CONTINUOUS
 62
7
100
AcDbLine
 10
110.5000000000000
 20
276.7488403629134
 30
0.000000000000000
 11
110.5000000000000
 21
276.2488403629134
 31
0.000000000000000
  0
LINE
  5
C9
100
AcDbEntity
  8
A1
  6
CONTINUOUS
 62
7
100
AcDbLine
 10
110.0000000000000
 20
375.1955492362767
 30
0.000000000000000
 11
51.00000000000014
 21
375.1955492362767
 31
0.000000000000000
  0
LINE
  5
CA
100
AcDbEntity
  8
A1
  6
CONTINUOUS
 62
7
100
AcDbLine
 10
50.00000000000016
 20
374.1955492362767
 30
0.000000000000000
 11
50.00000000000016
 21
364.6955492362767
 31
0.000000000000000
  0
LINE
  5
CB
100
AcDbEntity
  8
A1
  6
CONTINUOUS
 62
7
100
AcDbLine
 10
51.00000000000016
 20
363.6955492362767
 30
0.000000000000000
 11
98.38648325690252
 21
363.6955492362767
 31
0.000000000000000
  0
ARC
  5
CC
100
AcDbEntity
  8
A1
  6
CONTINUOUS
 62
7
100
AcDbCircle
 10
107.5000000000000
 20
354.6955492362769
 30
0.000000000000000
 40
3.500000000000000
100
AcDbArc
 50
206.9403745922004
 51
360.0000000000000
  0
CIRCLE
  5
CD
100
AcDbEntity
  8
A1
  6
DASHED
 62
4
100
AcDbCircle
 10
93.00000000000003
 20
369.4455492362769
 30
0.000000000000000
 40
3.500000000000000
  0
CIRCLE
  5
CE
100
AcDbEntity
  8
A1
  6
DASHED
 62
4
100
AcDbCircle
 10
75.00000000000003
 20
369.4455492362769
 30
0.000000000000000
 40
3.500000000000000
  0
CIRCLE
  5
CF
100
AcDbEntity
  8
A1
  6
DASHED
 62
4
100
AcDbCircle
 10
57.00000000000014
 20
369.4455492362769
 30
0.000000000000000
 40
3.500000000000000
  0
LINE
  5
D0
100
AcDbEntity
  8
A1
  6
CENTER
 62
1
100
AcDbLine
 10
62.00000000000029
 20
369.4455492362767
 30
0.000000000000000
 11
52.00000000000016
 21
369.4455492362767
 31
0.000000000000000
  0
LINE
  5
D1
100
AcDbEntity
  8
A1
  6
CENTER
 62
1
100
AcDbLine
 10
57.00000000000016
 20
364.4455492362767
 30
0.000000000000000
 11
57.00000000000016
 21
374.4455492362767
 31
0.000000000000000
  0
LINE
  5
D2
100
AcDbEntity
  8
A1
  6
CENTER
 62
1
100
AcDbLine
 10
80.00000000000030
 20
369.4455492362767
 30
0.000000000000000
 11
70.00000000000030
 21
369.4455492362767
 31
0.000000000000000
  0
LINE
  5
D3
100
AcDbEntity
  8
A1
  6
CENTER
 62
1
100
AcDbLine
 10
75.00000000000030
 20
364.4455492362767
 30
0.000000000000000
 11
75.00000000000030
 21
374.4455492362767
 31
0.000000000000000
  0
LINE
  5
D4
100
AcDbEntity
  8
A1
  6
CENTER
 62
1
100
AcDbLine
 10
98.00000000000028
 20
369.4455492362767
 30
0.000000000000000
 11
88.00000000000030
 21
369.4455492362767
 31
0.000000000000000
  0
LINE
  5
D5
100
AcDbEntity
  8
A1
  6
CENTER
 62
1
100
AcDbLine
 10
93.00000000000030
 20
364.4455492362767
 30
0.000000000000000
 11
93.00000000000030
 21
374.4455492362767
 31
0.000000000000000
  0
LINE
  5
D6
100
AcDbEntity
  8
A1
  6
CENTER
 62
1
100
AcDbLine
 10
107.5000000000000
 20
349.6955492362767
 30
0.000000000000000
 11
107.5000000000000
 21
359.6955492362769
 31
0.000000000000000
  0
ARC
  5
D7
100
AcDbEntity
  8
A1
  6
CONTINUOUS
 62
7
100
AcDbCircle
 10
51.00000000000014
 20
364.6955492362769
 30
0.000000000000000
 40
1.000000000000000
100
AcDbArc
 50
180.0000000000000
 51
270.0000000000000
  0
ARC
  5
D8
100
AcDbEntity
  8
A1
  6
CONTINUOUS
 62
7
100
AcDbCircle
 10
51.00000000000014
 20
374.1955492362769
 30
0.000000000000000
 40
1.000000000000000
100
AcDbArc
 50
90.00000000000000
 51
180.0000000000000
  0
ARC
  5
D9
100
AcDbEntity
  8
A1
  6
CONTINUOUS
 62
7
100
AcDbCircle
 10
98.38648325690227
 20
362.6955492362769
 30
0.000000000000000
 40
1.000000000000000
100
AcDbArc
 50
26.94037459220041
 51
90.00000000000000
  0
ARC
  5
DA
100
AcDbEntity
  8
A1
  6
CONTINUOUS
 62
7
100
AcDbCircle
 10
110.0000000000000
 20
374.1955492362769
 30
0.000000000000000
 40
1.000000000000000
100
AcDbArc
 50
0.000000000000000
 51
90.00000000000000
  0
LINE
  5
DB
100
AcDbEntity
  8
A1
  6
CONTINUOUS
 62
7
100
AcDbLine
 10
105.0000000000003
 20
334.1955492362765
 30
0.000000000000000
 11
164.0000000000003
 21
334.1955492362765
 31
0.000000000000000
  0
LINE
  5
DC
100
AcDbEntity
  8
A1
  6
CONTINUOUS
 62
7
100
AcDbLine
 10
104.0000000000003
 20
335.1955492362765
 30
0.000000000000000
 11
104.0000000000003
 21
353.8571994608906
 31
0.000000000000000
  0
LINE
  5
DD
100
AcDbEntity
  8
A1
  6
CONTINUOUS
 62
7
100
AcDbLine
 10
165.0000000000003
 20
335.1955492362765
 30
0.000000000000000
 11
165.0000000000003
 21
344.6955492362767
 31
0.000000000000000
  0
LINE
  5
DE
100
AcDbEntity
  8
A1
  6
CONTINUOUS
 62
7
100
AcDbLine
 10
164.0000000000003
 20
345.6955492362767
 30
0.000000000000000
 11
116.6135167430979
 21
345.6955492362767
 31
0.000000000000000
  0
LINE
  5
DF
100
AcDbEntity
  8
A1
  6
CONTINUOUS
 62
7
100
AcDbLine
 10
115.7220382518530
 20
346.2424862167674
 30
0.000000000000000
 11
111.0000000000000
 21
355.5338990116637
 31
0.000000000000000
  0
CIRCLE
  5
E0
100
AcDbEntity
  8
A1
  6
CONTINUOUS
 62
7
100
AcDbCircle
 10
122.0000000000000
 20
339.9455492362769
 30
0.000000000000000
 40
3.500000000000000
  0
CIRCLE
  5
E1
100
AcDbEntity
  8
A1
  6
CONTINUOUS
 62
7
100
AcDbCircle
 10
140.0000000000000
 20
339.9455492362769
 30
0.000000000000000
 40
3.500000000000000
  0
CIRCLE
  5
E2
100
AcDbEntity
  8
A1
  6
CONTINUOUS
 62
7
100
AcDbCircle
 10
158.0000000000000
 20
339.9455492362769
 30
0.000000000000000
 40
3.500000000000000
  0
LINE
  5
E3
100
AcDbEntity
  8
A1
  6
CENTER
 62
1
100
AcDbLine
 10
153.0000000000003
 20
339.9455492362767
 30
0.000000000000000
 11
163.0000000000003
 21
339.9455492362767
 31
0.000000000000000
  0
LINE
  5
E4
100
AcDbEntity
  8
A1
  6
CENTER
 62
1
100
AcDbLine
 10
158.0000000000003
 20
344.9455492362767
 30
0.000000000000000
 11
158.0000000000003
 21
334.9455492362765
 31
0.000000000000000
  0
LINE
  5
E5
100
AcDbEntity
  8
A1
  6
CENTER
 62
1
100
AcDbLine
 10
135.0000000000003
 20
339.9455492362767
 30
0.000000000000000
 11
145.0000000000003
 21
339.9455492362767
 31
0.000000000000000
  0
LINE
  5
E6
100
AcDbEntity
  8
A1
  6
CENTER
 62
1
100
AcDbLine
 10
140.0000000000003
 20
344.9455492362767
 30
0.000000000000000
 11
140.0000000000003
 21
334.9455492362765
 31
0.000000000000000
  0
LINE
  5
E7
100
AcDbEntity
  8
A1
  6
CENTER
 62
1
100
AcDbLine
 10
117.0000000000003
 20
339.9455492362767
 30
0.000000000000000
 11
127.0000000000003
 21
339.9455492362767
 31
0.000000000000000
  0
LINE
  5
E8
100
AcDbEntity
  8
A1
  6
CENTER
 62
1
100
AcDbLine
 10
122.0000000000003
 20
344.9455492362767
 30
0.000000000000000
 11
122.0000000000003
 21
334.9455492362765
 31
0.000000000000000
  0
LINE
  5
E9
100
AcDbEntity
  8
A1
  6
CENTER
 62
1
100
AcDbLine
 10
102.5000000000003
 20
354.6955492362767
 30
0.000000000000000
 11
112.5000000000003
 21
354.6955492362767
 31
0.000000000000000
  0
ARC
  5
EA
100
AcDbEntity
  8
A1
  6
CONTINUOUS
 62
7
100
AcDbCircle
 10
164.0000000000000
 20
344.6955492362769
 30
0.000000000000000
 40
1.000000000000000
100
AcDbArc
 50
0.000000000000000
 51
90.00000000000000
  0
ARC
  5
EB
100
AcDbEntity
  8
A1
  6
CONTINUOUS
 62
7
100
AcDbCircle
 10
164.0000000000000
 20
335.1955492362769
 30
0.000000000000000
 40
1.000000000000000
100
AcDbArc
 50
270.0000000000000
 51
360.0000000000000
  0
ARC
  5
EC
100
AcDbEntity
  8
A1
  6
CONTINUOUS
 62
7
100
AcDbCircle
 10
116.6135167430976
 20
346.6955492362769
 30
0.000000000000000
 40
1.000000000000000
100
AcDbArc
 50
206.9403745922004
 51
270.0000000000000
  0
ARC
  5
ED
100
AcDbEntity
  8
A1
  6
CONTINUOUS
 62
7
100
AcDbCircle
 10
105.0000000000000
 20
335.1955492362769
 30
0.000000000000000
 40
1.000000000000000
100
AcDbArc
 50
180.0000000000000
 51
270.0000000000000
  0
LINE
  5
EE
100
AcDbEntity
  8
A1
  6
CONTINUOUS
 62
7
100
AcDbLine
 10
99.27796174814787
 20
363.1486122557857
 30
0.000000000000000
 11
104.3798252806414
 21
353.1098286679938
 31
0.000000000000000
  0
LINE
  5
EF
100
AcDbEntity
  8
A1
  6
CONTINUOUS
 62
7
100
AcDbLine
 10
111.0000000000000
 20
374.1955492362769
 30
0.000000000000000
 11
111.0000000000000
 21
354.6955492362769
 31
0.000000000000000
  0
CIRCLE
  5
F0
100
AcDbEntity
  8
A10
  6
CONTINUOUS
 62
7
100
AcDbCircle
 10
57.00000000000026
 20
369.4455492362767
 30
0.000000000000000
 40
2.050000000000000
  0
CIRCLE
  5
F1
100
AcDbEntity
  8
A10
  6
CONTINUOUS
 62
7
100
AcDbCircle
 10
75.00000000000026
 20
369.4455492362767
 30
0.000000000000000
 40
2.050000000000000
  0
CIRCLE
  5
F2
100
AcDbEntity
  8
A10
  6
CONTINUOUS
 62
7
100
AcDbCircle
 10
93.00000000000026
 20
369.4455492362767
 30
0.000000000000000
 40
2.050000000000000
  0
CIRCLE
  5
F3
100
AcDbEntity
  8
A10
  6
CONTINUOUS
 62
7
100
AcDbCircle
 10
122.0000000000003
 20
339.9455492362767
 30
0.000000000000000
 40
2.050000000000000
  0
CIRCLE
  5
F4
100
AcDbEntity
  8
A10
  6
CONTINUOUS
 62
7
100
AcDbCircle
 10
140.0000000000003
 20
339.9455492362767
 30
0.000000000000000
 40
2.050000000000000
  0
CIRCLE
  5
F5
100
AcDbEntity
  8
A10
  6
CONTINUOUS
 62
7
100
AcDbCircle
 10
158.0000000000003
 20
339.9455492362767
 30
0.000000000000000
 40
2.050000000000000
  0
ARC
  5
F6
100
AcDbEntity
  8
A10
  6
CONTINUOUS
 62
1
100
AcDbCircle
 10
129.0000240875097
 20
339.9455492362767
 30
0.000000000000000
 40
0.8590595467416471
100
AcDbArc
 50
125.5376777920008
 51
166.5374393917331
  0
ARC
  5
F7
100
AcDbEntity
  8
A10
  6
CONTINUOUS
 62
1
100
AcDbCircle
 10
130.9999999999621
 20
337.1455829588462
 30
0.000000000000000
 40
4.299948211772383
100
AcDbArc
 50
54.46232220799912
 51
125.5376777920008
  0
ARC
  5
F8
100
AcDbEntity
  8
A10
  6
CONTINUOUS
 62
1
100
AcDbCircle
 10
132.9999759124144
 20
339.9455492362767
 30
0.000000000000000
 40
0.8590595467416478
100
AcDbArc
 50
332.2496545546281
 51
414.4623222079991
  0
ARC
  5
F9
100
AcDbEntity
  8
A10
  6
CONTINUOUS
 62
1
100
AcDbCircle
 10
129.0000240875097
 20
339.9455492362767
 30
0.000000000000000
 40
0.8590595467416471
100
AcDbArc
 50
180.0000000000000
 51
234.4623222080521
  0
ARC
  5
FA
100
AcDbEntity
  8
A10
  6
CONTINUOUS
 62
1
100
AcDbCircle
 10
130.9999999999621
 20
342.7455155137125
 30
0.000000000000000
 40
4.299948211772383
100
AcDbArc
 50
234.4623222080520
 51
305.5376777919479
  0
ARC
  5
FB
100
AcDbEntity
  8
A10
  6
CONTINUOUS
 62
1
100
AcDbCircle
 10
132.9999759124144
 20
339.9455492362767
 30
0.000000000000000
 40
0.8590595467416478
100
AcDbArc
 50
305.5376777919479
 51
315.6988392796172
  0
LINE
  5
FC
100
AcDbEntity
  8
A10
  6
CONTINUOUS
 62
1
100
AcDbLine
 10
128.8333594281386
 20
340.8597750993330
 30
0.000000000000000
 11
128.8333594281386
 21
339.4229059857851
 31
0.000000000000000
  0
LINE
  5
FD
100
AcDbEntity
  8
A10
  6
CONTINUOUS
 62
1
100
AcDbLine
 10
129.1666887468806
 20
339.3305570498979
 30
0.000000000000000
 11
129.1666887468806
 21
340.5605414226608
 31
0.000000000000000
  0
ARC
  5
FE
100
AcDbEntity
  8
A10
  6
CONTINUOUS
 62
1
100
AcDbCircle
 10
129.3333534062517
 20
340.5605414226608
 30
0.000000000000000
 40
0.1666646593710226
100
AcDbArc
 50
116.0143659996366
 51
180.0000000000000
  0
ARC
  5
FF
100
AcDbEntity
  8
A10
  6
CONTINUOUS
 62
1
100
AcDbCircle
 10
130.9999999999621
 20
337.1455829588462
 30
0.000000000000000
 40
3.966618893030338
100
AcDbArc
 50
112.9439535565378
 51
116.0143659996366
  0
ARC
  5
100
100
AcDbEntity
  8
A10
  6
CONTINUOUS
 62
1
100
AcDbCircle
 10
129.4666851337486
 20
340.7676933896968
 30
0.000000000000000
 40
0.03333293187420451
100
AcDbArc
 50
0.000000000000000
 51
112.9439535565376
  0
LINE
  5
101
100
AcDbEntity
  8
A10
  6
CONTINUOUS
 62
1
100
AcDbLine
 10
129.5000180656226
 20
340.7676933896968
 30
0.000000000000000
 11
129.5000180656226
 21
339.1234050828619
 31
0.000000000000000
  0
ARC
  5
102
100
AcDbEntity
  8
A10
  6
CONTINUOUS
 62
1
100
AcDbCircle
 10
129.4666851337486
 20
339.1234050828619
 30
0.000000000000000
 40
0.03333293187420451
100
AcDbArc
 50
247.0560464434623
 51
360.0000000000000
  0
ARC
  5
103
100
AcDbEntity
  8
A10
  6
CONTINUOUS
 62
1
100
AcDbCircle
 10
130.9999999999621
 20
342.7455155137125
 30
0.000000000000000
 40
3.966618893030338
100
AcDbArc
 50
243.9856340003634
 51
247.0560464434622
  0
ARC
  5
104
100
AcDbEntity
  8
A10
  6
CONTINUOUS
 62
1
100
AcDbCircle
 10
129.3333534062517
 20
339.3305570498979
 30
0.000000000000000
 40
0.1666646593710226
100
AcDbArc
 50
180.0000000000000
 51
243.9856340003634
  0
LINE
  5
105
100
AcDbEntity
  8
A10
  6
CONTINUOUS
 62
1
100
AcDbLine
 10
130.1666767031066
 20
340.3455444187670
 30
0.000000000000000
 11
130.1666767031066
 21
340.9822019695681
 31
0.000000000000000
  0
ARC
  5
106
100
AcDbEntity
  8
A10
  6
CONTINUOUS
 62
1
100
AcDbCircle
 10
130.1333437712326
 20
340.9822019695681
 30
0.000000000000000
 40
0.03333293187420451
100
AcDbArc
 50
0.000000000000000
 51
102.7289438731227
  0
ARC
  5
107
100
AcDbEntity
  8
A10
  6
CONTINUOUS
 62
1
100
AcDbCircle
 10
130.9999999999621
 20
337.1455829588462
 30
0.000000000000000
 40
3.966618893030338
100
AcDbArc
 50
102.7289438731226
 51
103.2681189705563
  0
ARC
  5
108
100
AcDbEntity
  8
A10
  6
CONTINUOUS
 62
1
100
AcDbCircle
 10
130.9999999999621
 20
337.1455829588462
 30
0.000000000000000
 40
3.966618893030338
100
AcDbArc
 50
103.2681189705563
 51
105.2575232904564
  0
ARC
  5
109
100
AcDbEntity
  8
A10
  6
CONTINUOUS
 62
1
100
AcDbCircle
 10
130.0000120437360
 20
340.8115993616065
 30
0.000000000000000
 40
0.1666646593710226
100
AcDbArc
 50
105.2575232904564
 51
180.0000000000000
  0
LINE
  5
10A
100
AcDbEntity
  8
A10
  6
CONTINUOUS
 62
1
100
AcDbLine
 10
129.8333473843646
 20
340.8115993616065
 30
0.000000000000000
 11
129.8333473843646
 21
339.0794991109522
 31
0.000000000000000
  0
ARC
  5
10B
100
AcDbEntity
  8
A10
  6
CONTINUOUS
 62
1
100
AcDbCircle
 10
130.0000120437360
 20
339.0794991109522
 30
0.000000000000000
 40
0.1666646593710226
100
AcDbArc
 50
180.0000000000000
 51
254.7424767095436
  0
ARC
  5
10C
100
AcDbEntity
  8
A10
  6
CONTINUOUS
 62
1
100
AcDbCircle
 10
130.9999999999621
 20
342.7455155137125
 30
0.000000000000000
 40
3.966618893030338
100
AcDbArc
 50
254.7424767095436
 51
254.7937121239420
  0
ARC
  5
10D
100
AcDbEntity
  8
A10
  6
CONTINUOUS
 62
1
100
AcDbCircle
 10
130.9999999999621
 20
342.7455155137125
 30
0.000000000000000
 40
3.966618893030338
100
AcDbArc
 50
254.7937121239420
 51
257.2710561268773
  0
ARC
  5
10E
100
AcDbEntity
  8
A10
  6
CONTINUOUS
 62
1
100
AcDbCircle
 10
130.1333437712326
 20
338.9088965029907
 30
0.000000000000000
 40
0.03333293187420451
100
AcDbArc
 50
257.2710561268775
 51
360.0000000000000
  0
LINE
  5
10F
100
AcDbEntity
  8
A10
  6
CONTINUOUS
 62
1
100
AcDbLine
 10
130.1666767031066
 20
338.9088965029907
 30
0.000000000000000
 11
130.1666767031066
 21
339.5455540537861
 31
0.000000000000000
  0
LINE
  5
110
100
AcDbEntity
  8
A10
  6
CONTINUOUS
 62
1
100
AcDbLine
 10
130.5000060218487
 20
341.0805634498266
 30
0.000000000000000
 11
130.5000060218487
 21
338.8105350227323
 31
0.000000000000000
  0
LINE
  5
111
100
AcDbEntity
  8
A10
  6
CONTINUOUS
 62
1
100
AcDbLine
 10
130.8333353405909
 20
341.1086989467858
 30
0.000000000000000
 11
130.8333353405909
 21
338.7823995257731
 31
0.000000000000000
  0
LINE
  5
112
100
AcDbEntity
  8
A10
  6
CONTINUOUS
 62
1
100
AcDbLine
 10
130.8333353405909
 20
339.9455492362767
 30
0.000000000000000
 11
130.5000060218487
 21
339.9455492362767
 31
0.000000000000000
  0
LINE
  5
113
100
AcDbEntity
  8
A10
  6
CONTINUOUS
 62
1
100
AcDbLine
 10
131.1666646593329
 20
341.1086989467858
 30
0.000000000000000
 11
131.1666646593329
 21
338.7823995257731
 31
0.000000000000000
  0
LINE
  5
114
100
AcDbEntity
  8
A10
  6
CONTINUOUS
 62
1
100
AcDbLine
 10
131.8333232968170
 20
340.3455444187670
 30
0.000000000000000
 11
131.8333232968170
 21
340.8866013280838
 31
0.000000000000000
  0
ARC
  5
115
100
AcDbEntity
  8
A10
  6
CONTINUOUS
 62
1
100
AcDbCircle
 10
131.6666586374461
 20
340.8866013280838
 30
0.000000000000000
 40
0.1666646593710226
100
AcDbArc
 50
0.000000000000000
 51
79.89581728387493
  0
ARC
  5
116
100
AcDbEntity
  8
A10
  6
CONTINUOUS
 62
1
100
AcDbCircle
 10
130.9999999999621
 20
337.1455829588462
 30
0.000000000000000
 40
3.966618893030338
100
AcDbArc
 50
79.89581728387498
 51
82.20707566457760
  0
ARC
  5
117
100
AcDbEntity
  8
A10
  6
CONTINUOUS
 62
1
100
AcDbCircle
 10
131.5333269099495
 20
341.0425434230171
 30
0.000000000000000
 40
0.03333293187420451
100
AcDbArc
 50
82.20707566457730
 51
180.0000000000000
  0
LINE
  5
118
100
AcDbEntity
  8
A10
  6
CONTINUOUS
 62
1
100
AcDbLine
 10
131.4999939780749
 20
341.0425434230171
 30
0.000000000000000
 11
131.4999939780749
 21
338.8485550495416
 31
0.000000000000000
  0
ARC
  5
119
100
AcDbEntity
  8
A10
  6
CONTINUOUS
 62
1
100
AcDbCircle
 10
131.5333269099495
 20
338.8485550495416
 30
0.000000000000000
 40
0.03333293187420451
100
AcDbArc
 50
180.0000000000000
 51
277.7929243354228
  0
ARC
  5
11A
100
AcDbEntity
  8
A10
  6
CONTINUOUS
 62
1
100
AcDbCircle
 10
130.9999999999621
 20
342.7455155137125
 30
0.000000000000000
 40
3.966618893030338
100
AcDbArc
 50
277.7929243354224
 51
280.1041827161250
  0
ARC
  5
11B
100
AcDbEntity
  8
A10
  6
CONTINUOUS
 62
1
100
AcDbCircle
 10
131.6666586374461
 20
339.0044971444749
 30
0.000000000000000
 40
0.1666646593710226
100
AcDbArc
 50
280.1041827161250
 51
360.0000000000000
  0
LINE
  5
11C
100
AcDbEntity
  8
A10
  6
CONTINUOUS
 62
1
100
AcDbLine
 10
131.8333232968170
 20
339.0044971444749
 30
0.000000000000000
 11
131.8333232968170
 21
339.9455492362767
 31
0.000000000000000
  0
LINE
  5
11D
100
AcDbEntity
  8
A10
  6
CONTINUOUS
 62
1
100
AcDbLine
 10
131.8333232968170
 20
339.9455492362767
 30
0.000000000000000
 11
131.6666586374459
 21
339.9455492362767
 31
0.000000000000000
  0
LINE
  5
11E
100
AcDbEntity
  8
A10
  6
CONTINUOUS
 62
1
100
AcDbLine
 10
132.1666526155592
 20
341.0412601913933
 30
0.000000000000000
 11
132.1666526155592
 21
338.9543432521204
 31
0.000000000000000
  0
LINE
  5
11F
100
AcDbEntity
  8
A10
  6
CONTINUOUS
 62
1
100
AcDbLine
 10
132.4999819343012
 20
340.8842245690325
 30
0.000000000000000
 11
132.4999819343012
 21
340.1122138956477
 31
0.000000000000000
  0
ARC
  5
120
100
AcDbEntity
  8
A10
  6
CONTINUOUS
 62
1
100
AcDbCircle
 10
132.6666465936721
 20
340.1122138956477
 30
0.000000000000000
 40
0.1666646593710234
100
AcDbArc
 50
180.0000000000000
 51
360.0000000000000
  0
LINE
  5
121
100
AcDbEntity
  8
A10
  6
CONTINUOUS
 62
1
100
AcDbLine
 10
132.8333112530432
 20
340.1122138956477
 30
0.000000000000000
 11
132.8333112530432
 21
340.8243065622831
 31
0.000000000000000
  0
LINE
  5
122
100
AcDbEntity
  8
A10
  6
CONTINUOUS
 62
1
100
AcDbLine
 10
132.6666465936720
 20
339.9455492362767
 30
0.000000000000000
 11
132.6666465936720
 21
339.1460218584578
 31
0.000000000000000
  0
LINE
  5
123
100
AcDbEntity
  8
A10
  6
CONTINUOUS
 62
1
100
AcDbLine
 10
133.0030309530097
 20
339.3217847352084
 30
0.000000000000000
 11
133.3795799180873
 21
340.7270846044107
 31
0.000000000000000
  0
LINE
  5
124
100
AcDbEntity
  8
A10
  6
CONTINUOUS
 62
1
100
AcDbLine
 10
133.8590354591557
 20
339.9455492362767
 30
0.000000000000000
 11
133.1701681473386
 21
339.9455492362767
 31
0.000000000000000
  0
MTEXT
  5
125
100
AcDbEntity
  8
A20
  6
CONTINUOUS
 62
1
100
AcDbMText
 10
126.0460535514624
 20
336.6332053326739
 30
0.000000000000000
 40
2.000000000000000
 41
0.000000000000000
 44
0.6720000028610229
 71
     1
 72
     1
  1
{\H0.92x;{TH-181}}
 11
1.000000000000000
 21
0.000000000000000
 31
0.000000000000000
  7
STANDARD
  0
LINE
  5
126
100
AcDbEntity
  8
A10
  6
CONTINUOUS
 62
7
100
AcDbLine
 10
105.5000000000000
 20
279.7488403629135
 30
0.000000000000000
 11
109.5000000000000
 21
279.7488403629135
 31
0.000000000000000
  0
ARC
  5
127
100
AcDbEntity
  8
A10
  6
CONTINUOUS
 62
7
100
AcDbCircle
 10
105.5000000000000
 20
279.2488403629134
 30
0.000000000000000
 40
0.4999999999999738
100
AcDbArc
 50
90.00000000000000
 51
270.0000000000000
  0
ARC
  5
128
100
AcDbEntity
  8
A10
  6
CONTINUOUS
 62
7
100
AcDbCircle
 10
109.5000000000000
 20
279.2488403629135
 30
0.000000000000000
 40
0.4999999999999920
100
AcDbArc
 50
270.0000000000000
 51
450.0000000000000
  0
LINE
  5
129
100
AcDbEntity
  8
A10
  6
CONTINUOUS
 62
7
100
AcDbLine
 10
105.4000000000118
 20
273.7488403629134
 30
0.000000000000000
 11
109.5999999999999
 21
273.7488403629134
 31
0.000000000000000
  0
LINE
  5
12A
100
AcDbEntity
  8
A10
  6
CONTINUOUS
 62
7
100
AcDbLine
 10
105.4000000000118
 20
273.7488403629135
 30
0.000000000000000
 11
105.7000000000108
 21
274.2488403629138
 31
0.000000000000000
  0
LINE
  5
12B
100
AcDbEntity
  8
A10
  6
CONTINUOUS
 62
7
100
AcDbLine
 10
109.3000000000011
 20
274.2488403629134
 30
0.000000000000000
 11
109.5999999999999
 21
273.7488403629134
 31
0.000000000000000
  0
LINE
  5
12C
100
AcDbEntity
  8
A10
  6
CONTINUOUS
 62
7
100
AcDbLine
 10
109.5999999999885
 20
164.7488403629133
 30
0.000000000000000
 11
105.4000000000004
 21
164.7488403629133
 31
0.000000000000000
  0
LINE
  5
12D
100
AcDbEntity
  8
A10
  6
CONTINUOUS
 62
7
100
AcDbLine
 10
105.6999999999992
 20
164.2488403629134
 30
0.000000000000000
 11
105.4000000000005
 21
164.7488403629133
 31
0.000000000000000
  0
LINE
  5
12E
100
AcDbEntity
  8
A10
  6
CONTINUOUS
 62
7
100
AcDbLine
 10
109.5999999999885
 20
164.7488403629133
 30
0.000000000000000
 11
109.2999999999895
 21
164.2488403629129
 31
0.000000000000000
  0
LINE
  5
12F
100
AcDbEntity
  8
A10
  6
CONTINUOUS
 62
7
100
AcDbLine
 10
105.5000000000003
 20
158.7488403629134
 30
0.000000000000000
 11
109.5000000000003
 21
158.7488403629134
 31
0.000000000000000
  0
ARC
  5
130
100
AcDbEntity
  8
A10
  6
CONTINUOUS
 62
7
100
AcDbCircle
 10
109.5000000000003
 20
159.2488403629134
 30
0.000000000000000
 40
0.4999999999999857
100
AcDbArc
 50
270.0000000000000
 51
450.0000000000000
  0
ARC
  5
131
100
AcDbEntity
  8
A10
  6
CONTINUOUS
 62
7
100
AcDbCircle
 10
105.5000000000003
 20
159.2488403629134
 30
0.000000000000000
 40
0.4999999999999857
100
AcDbArc
 50
90.00000000000000
 51
270.0000000000000
  0
CIRCLE
  5
132
100
AcDbEntity
  8
A10
  6
CONTINUOUS
 62
7
100
AcDbCircle
 10
107.5000000000000
 20
354.6955492362767
 30
0.000000000000000
 40
2.500000000000000
  0
CIRCLE
  5
133
100
AcDbEntity
  8
A10
  6
CONTINUOUS
 62
7
100
AcDbCircle
 10
107.5000000000000
 20
70.49999999999983
 30
0.000000000000000
 40
2.500000000000000
  0
LINE
  5
134
100
AcDbEntity
  8
A10
  6
CONTINUOUS
 62
7
100
AcDbLine
 10
192.0000000000001
 20
73.99999999999977
 30
0.000000000000000
 11
192.0000000000001
 21
49.99999999999995
 31
0.000000000000000
  0
LINE
  5
135
100
AcDbEntity
  8
A10
  6
CONTINUOUS
 62
7
100
AcDbLine
 10
194.0000000000001
 20
73.99999999999977
 30
0.000000000000000
 11
194.0000000000001
 21
49.99999999999995
 31
0.000000000000000
  0
LINE
  5
136
100
AcDbEntity
  8
A10
  6
CONTINUOUS
 62
7
100
AcDbLine
 10
194.5000000000001
 20
91.00000000000006
 30
0.000000000000000
 11
196.5000000000002
 21
91.00000000000006
 31
0.000000000000000
  0
LINE
  5
137
100
AcDbEntity
  8
A10
  6
CONTINUOUS
 62
7
100
AcDbLine
 10
192.0000000000001
 20
73.99999999999977
 30
0.000000000000000
 11
194.0000000000001
 21
73.99999999999977
 31
0.000000000000000
  0
LINE
  5
138
100
AcDbEntity
  8
A10
  6
CONTINUOUS
 62
7
100
AcDbLine
 10
194.5000000000001
 20
66.99999999999997
 30
0.000000000000000
 11
196.5000000000001
 21
66.99999999999997
 31
0.000000000000000
  0
LINE
  5
139
100
AcDbEntity
  8
A10
  6
CONTINUOUS
 62
7
100
AcDbLine
 10
192.0000000000001
 20
49.99999999999995
 30
0.000000000000000
 11
193.9999999999935
 21
50.00000000000041
 31
0.000000000000000
  0
LINE
  5
13A
100
AcDbEntity
  8
A10
  6
CONTINUOUS
 62
7
100
AcDbLine
 10
194.5000000000001
 20
91.00000000000006
 30
0.000000000000000
 11
194.5000000000001
 21
66.99999999999997
 31
0.000000000000000
  0
LINE
  5
13B
100
AcDbEntity
  8
A10
  6
CONTINUOUS
 62
7
100
AcDbLine
 10
196.5000000000001
 20
91.00000000000006
 30
0.000000000000000
 11
196.5000000000001
 21
66.99999999999997
 31
0.000000000000000
  0
LINE
  5
13C
100
AcDbEntity
  8
A10
  6
CENTER
 62
1
100
AcDbLine
 10
188.2757698843483
 20
70.49999999999983
 30
0.000000000000000
 11
200.2899642967158
 21
70.49999999999983
 31
0.000000000000000
  0
ARC
  5
13D
100
AcDbEntity
  8
A10
  6
CONTINUOUS
 62
7
100
AcDbCircle
 10
191.5000000000001
 20
72.49999999999977
 30
0.000000000000000
 40
0.4999999999999857
100
AcDbArc
 50
0.000000000000000
 51
180.0000000000000
  0
LINE
  5
13E
100
AcDbEntity
  8
A10
  6
CONTINUOUS
 62
7
100
AcDbLine
 10
191.0000000000001
 20
72.49999999999979
 30
0.000000000000000
 11
191.0000000000001
 21
68.49999999999973
 31
0.000000000000000
  0
ARC
  5
13F
100
AcDbEntity
  8
A10
  6
CONTINUOUS
 62
7
100
AcDbCircle
 10
191.5000000000001
 20
68.49999999999972
 30
0.000000000000000
 40
0.4999999999999857
100
AcDbArc
 50
180.0000000000000
 51
360.0000000000000
  0
LINE
  5
140
100
AcDbEntity
  8
A10
  6
CONTINUOUS
 62
7
100
AcDbLine
 10
194.0000000000001
 20
73.49999999999979
 30
0.000000000000000
 11
194.5000000000001
 21
73.49999999999979
 31
0.000000000000000
  0
LINE
  5
141
100
AcDbEntity
  8
A10
  6
CONTINUOUS
 62
7
100
AcDbLine
 10
194.0000000000001
 20
67.49999999999979
 30
0.000000000000000
 11
194.5000000000001
 21
67.49999999999979
 31
0.000000000000000
  0
LINE
  5
142
100
AcDbEntity
  8
A10
  6
CONTINUOUS
 62
7
100
AcDbLine
 10
196.9999999999999
 20
68.40000000001156
 30
0.000000000000000
 11
196.9999999999999
 21
72.59999999999961
 31
0.000000000000000
  0
LINE
  5
143
100
AcDbEntity
  8
A10
  6
CONTINUOUS
 62
7
100
AcDbLine
 10
196.9999999999999
 20
68.40000000001159
 30
0.000000000000000
 11
196.4999999999995
 21
68.70000000001059
 31
0.000000000000000
  0
LINE
  5
144
100
AcDbEntity
  8
A10
  6
CONTINUOUS
 62
7
100
AcDbLine
 10
196.5000000000001
 20
72.30000000000078
 30
0.000000000000000
 11
197.0000000000000
 21
72.59999999999957
 31
0.000000000000000
  0
LINE
  5
145
100
AcDbEntity
  8
A10
  6
CENTER
 62
1
100
AcDbLine
 10
191.6917195344631
 20
85.24999999999983
 30
0.000000000000000
 11
200.2899642967158
 21
85.24999999999983
 31
0.000000000000000
  0
LINE
  5
146
100
AcDbEntity
  8
A10
  6
CENTER
 62
1
100
AcDbLine
 10
188.2757698843483
 20
55.74999999999999
 30
0.000000000000000
 11
197.7355472056798
 21
55.74999999999999
 31
0.000000000000000
  0
LINE
  5
147
100
AcDbEntity
  8
A10
  6
CONTINUOUS
 62
7
100
AcDbLine
 10
196.4999999998058
 20
358.1955492362716
 30
0.000000000000000
 11
196.4999999997526
 21
334.1955492362717
 31
0.000000000000000
  0
LINE
  5
148
100
AcDbEntity
  8
A10
  6
CONTINUOUS
 62
7
100
AcDbLine
 10
194.4999999998058
 20
358.1955492362760
 30
0.000000000000000
 11
194.4999999997526
 21
334.1955492362762
 31
0.000000000000000
  0
LINE
  5
149
100
AcDbEntity
  8
A10
  6
CONTINUOUS
 62
7
100
AcDbLine
 10
193.9999999998435
 20
375.1955492362774
 30
0.000000000000000
 11
191.9999999998434
 21
375.1955492362818
 31
0.000000000000000
  0
LINE
  5
14A
100
AcDbEntity
  8
A10
  6
CONTINUOUS
 62
7
100
AcDbLine
 10
196.4999999998058
 20
358.1955492362716
 30
0.000000000000000
 11
194.4999999998058
 21
358.1955492362760
 31
0.000000000000000
  0
LINE
  5
14B
100
AcDbEntity
  8
A10
  6
CONTINUOUS
 62
7
100
AcDbLine
 10
193.9999999997903
 20
351.1955492362773
 30
0.000000000000000
 11
191.9999999997903
 21
351.1955492362817
 31
0.000000000000000
  0
LINE
  5
14C
100
AcDbEntity
  8
A10
  6
CONTINUOUS
 62
7
100
AcDbLine
 10
196.4999999997526
 20
334.1955492362718
 30
0.000000000000000
 11
194.4999999997592
 21
334.1955492362767
 31
0.000000000000000
  0
LINE
  5
14D
100
AcDbEntity
  8
A10
  6
CONTINUOUS
 62
7
100
AcDbLine
 10
193.9999999998435
 20
375.1955492362774
 30
0.000000000000000
 11
193.9999999997903
 21
351.1955492362773
 31
0.000000000000000
  0
LINE
  5
14E
100
AcDbEntity
  8
A10
  6
CONTINUOUS
 62
7
100
AcDbLine
 10
191.9999999998435
 20
375.1955492362818
 30
0.000000000000000
 11
191.9999999997903
 21
351.1955492362817
 31
0.000000000000000
  0
LINE
  5
14F
100
AcDbEntity
  8
A10
  6
CENTER
 62
1
100
AcDbLine
 10
200.2242301154499
 20
354.6955492362633
 30
0.000000000000000
 11
188.2100357030824
 21
354.6955492362900
 31
0.000000000000000
  0
ARC
  5
150
100
AcDbEntity
  8
A10
  6
CONTINUOUS
 62
7
100
AcDbCircle
 10
191.5000000000001
 20
356.6955492362766
 30
0.000000000000000
 40
0.4999999999999857
100
AcDbArc
 50
0.000000000000000
 51
180.0000000000000
  0
LINE
  5
151
100
AcDbEntity
  8
A10
  6
CONTINUOUS
 62
7
100
AcDbLine
 10
191.0000000000001
 20
356.6955492362766
 30
0.000000000000000
 11
191.0000000000001
 21
352.6955492362766
 31
0.000000000000000
  0
ARC
  5
152
100
AcDbEntity
  8
A10
  6
CONTINUOUS
 62
7
100
AcDbCircle
 10
191.5000000000001
 20
352.6955492362765
 30
0.000000000000000
 40
0.4999999999999857
100
AcDbArc
 50
180.0000000000000
 51
360.0000000000000
  0
LINE
  5
153
100
AcDbEntity
  8
A10
  6
CONTINUOUS
 62
7
100
AcDbLine
 10
194.4999999998047
 20
357.6955492362760
 30
0.000000000000000
 11
193.9999999998047
 21
357.6955492362771
 31
0.000000000000000
  0
LINE
  5
154
100
AcDbEntity
  8
A10
  6
CONTINUOUS
 62
7
100
AcDbLine
 10
194.4999999997914
 20
351.6955492362760
 30
0.000000000000000
 11
193.9999999997914
 21
351.6955492362771
 31
0.000000000000000
  0
LINE
  5
155
100
AcDbEntity
  8
A10
  6
CONTINUOUS
 62
7
100
AcDbLine
 10
196.9999999999999
 20
352.5955492362884
 30
0.000000000000000
 11
196.9999999999999
 21
356.7955492362764
 31
0.000000000000000
  0
LINE
  5
156
100
AcDbEntity
  8
A10
  6
CONTINUOUS
 62
7
100
AcDbLine
 10
196.9999999999999
 20
352.5955492362884
 30
0.000000000000000
 11
196.4999999999995
 21
352.8955492362874
 31
0.000000000000000
  0
LINE
  5
157
100
AcDbEntity
  8
A10
  6
CONTINUOUS
 62
7
100
AcDbLine
 10
196.5000000000001
 20
356.4955492362777
 30
0.000000000000000
 11
197.0000000000000
 21
356.7955492362764
 31
0.000000000000000
  0
LINE
  5
158
100
AcDbEntity
  8
A10
  6
CENTER
 62
1
100
AcDbLine
 10
196.8082804653678
 20
369.4455492362709
 30
0.000000000000000
 11
188.2100357031151
 21
369.4455492362900
 31
0.000000000000000
  0
LINE
  5
159
100
AcDbEntity
  8
A10
  6
CENTER
 62
1
100
AcDbLine
 10
200.2242301154172
 20
339.9455492362635
 30
0.000000000000000
 11
190.7644527940857
 21
339.9455492362845
 31
0.000000000000000
  0
LINE
  5
15A
100
AcDbEntity
  8
A10
  6
CONTINUOUS
 62
7
100
AcDbLine
 10
196.4999999997807
 20
345.6955492361973
 30
0.000000000000000
 11
194.4999999997873
 21
345.6955492362022
 31
0.000000000000000
  0
LINE
  5
15B
100
AcDbEntity
  8
A10
  6
CONTINUOUS
 62
7
100
AcDbLine
 10
194.5000000000001
 20
79.49999999999983
 30
0.000000000000000
 11
196.5000000000002
 21
79.49999999999983
 31
0.000000000000000
  0
ENDSEC
  0
SECTION
  2
OBJECTS
  0
DICTIONARY
  5
189
100
AcDbDictionary
  3
ACAD_GROUP
350
18A
  3
ACAD_LAYOUT
350
18B
  3
ACAD_MLINESTYLE
350
18C
  0
DICTIONARY
  5
18A
102
{ACAD_REACTORS
330
189
102
}
330
189
100
AcDbDictionary
  0
DICTIONARY
  5
18B
102
{ACAD_REACTORS
330
189
102
}
330
189
100
AcDbDictionary
  3
Model
350
18D
  3
ﾚｲｱｳﾄ1
350
18E
  3
ﾚｲｱｳﾄ2
350
18F
  0
DICTIONARY
  5
18C
102
{ACAD_REACTORS
330
189
102
}
330
189
100
AcDbDictionary
  3
STANDARD
350
190
  0
LAYOUT
  5
18D
102
{ACAD_REACTORS
330
18B
102
}
330
18B
100
AcDbPlotSettings
 70
11952
  4
A3
 44
297.000000
 45
420.000000
 73
  1
 72
  1
100
AcDbLayout
  1
Model
 71
0
330
180
  0
LAYOUT
  5
18E
102
{ACAD_REACTORS
330
18B
102
}
330
18B
100
AcDbPlotSettings
100
AcDbLayout
  1
ﾚｲｱｳﾄ1
 71
1
330
181
  0
LAYOUT
  5
18F
102
{ACAD_REACTORS
330
18B
102
}
330
18B
100
AcDbPlotSettings
100
AcDbLayout
  1
ﾚｲｱｳﾄ2
 71
2
330
182
  0
MLINESTYLE
  5
190
102
{ACAD_REACTORS
330
18C
102
}
330
18C
100
AcDbMlineStyle
  2
STANDARD
 70
     0
  3

 62
   256
 51
90.00
 52
90.00
 71
     2
 49
0.50
 62
   256
  6
BYLAYER
 49
-0.50
 62
   256
  6
BYLAYER
  0
ENDSEC
  0
EOF
