  0
SECTION
  2
HEADER
  9
$ACADVER
  1
AC1027
  9
$DWGCODEPAGE
  3
ANSI_932
  9
$LTSCALE
 40
20.0
  9
$FILLMODE
 70
     1
  9
$CLAYER
  8
0
  9
$PDMODE
 70
     0
  9
$SPLFRAME
 70
     0
  9
$SPLINETYPE
 70
     6
  9
$SPLINESEGS
 70
     8
  9
$DIMASZ
 40
2.000000
  9
$DIMEXE
 40
1.500000
  9
$DIMEXO
 40
0.800000
  9
$DIMTAD
 70
     1
  9
$DIMTIH
 70
     0
  9
$DIMTOH
 70
     0
  9
$DIMTVP
 40
0.500000
  9
$DIMTXT
 40
3.100000
  9
$EXTMIN
 10
0.000000
 20
0.000000
 30
0.000000
  9
$EXTMAX
 10
594.000000
 20
841.000000
 30
0.000000
  9
$MEASUREMENT
 70
  1
  9
$LIMMIN
 10
0.000000
 20
0.000000
  9
$LIMMAX
 10
594.000000
 20
841.000000
  9
$HANDSEED
  5
218
  9
$LWDISPLAY
290
     0
  9
$DIMBLK
  1
_OPEN
  9
$DIMDEC
 70
     2
  9
$DIMADEC
 70
     2
  9
$DIMAUNIT
 70
     0
  9
$DIMZIN
 70
     8
  9
$DIMAZIN
 70
     2
  9
$DIMTOFL
 70
     1
  0
ENDSEC
  0
SECTION
  2
CLASSES
  0
ENDSEC
  0
SECTION
  2
TABLES
  0
TABLE
  2
VPORT
  5
1DF
100
AcDbSymbolTable
 70
     1
  0
VPORT
  5
1E0
100
AcDbSymbolTableRecord
100
AcDbViewportTableRecord
  2
*ACTIVE
 70
     0
 12
134.499999
 22
112.668204
 40
189.336406
 41
1.315120
  0
ENDTAB
  0
TABLE
  2
LTYPE
  5
1E1
100
AcDbSymbolTable
 70
     3
  0
LTYPE
  5
1E2
100
AcDbSymbolTableRecord
100
AcDbLinetypeTableRecord
  2
BYBLOCK
 70
     0
  3

 72
    65
 73
     0
 40
0.0
  0
LTYPE
  5
1E3
100
AcDbSymbolTableRecord
100
AcDbLinetypeTableRecord
  2
BYLAYER
 70
     0
  3

 72
    65
 73
     0
 40
0.0
  0
LTYPE
  5
1E4
100
AcDbSymbolTableRecord
100
AcDbLinetypeTableRecord
  2
CONTINUOUS
 70
     0
  3
Solid line (NEC CAE2D for Win R18.0 : 2025.10.06)
 72
    65
 73
     0
 40
0.0
  0
LTYPE
  5
1E5
100
AcDbSymbolTableRecord
100
AcDbLinetypeTableRecord
  2
CENTER
 70
     0
  3
____ _ ____ _ ____ _ ____ _ ____ _ ____
 72
    65
 73
     4
 40
2.0
 49
1.25
 74
     0
 49
-0.25
 74
     0
 49
0.25
 74
     0
 49
-0.25
 74
     0
  0
LTYPE
  5
1E6
100
AcDbSymbolTableRecord
100
AcDbLinetypeTableRecord
  2
PHANTOM
 70
     0
  3
______  __  __  ______  __  __  ______ 
 72
    65
 73
     6
 40
2.5
 49
1.25
 74
     0
 49
-0.25
 74
     0
 49
0.25
 74
     0
 49
-0.25
 74
     0
 49
0.25
 74
     0
 49
-0.25
 74
     0
  0
ENDTAB
  0
TABLE
  2
LAYER
  5
1E7
100
AcDbSymbolTable
 70
    18
  0
LAYER
  5
1E8
100
AcDbSymbolTableRecord
100
AcDbLayerTableRecord
  2
0
 70
     0
 62
     7
  6
CONTINUOUS
370
    -3
390

  0
LAYER
  5
1E9
100
AcDbSymbolTableRecord
100
AcDbLayerTableRecord
  2
DXF0
 70
     0
 62
     7
  6
CONTINUOUS
370
    -3
390

  0
LAYER
  5
1EA
100
AcDbSymbolTableRecord
100
AcDbLayerTableRecord
  2
A0
 70
     0
 62
     9
  6
CONTINUOUS
370
    -3
390

  0
LAYER
  5
1EB
100
AcDbSymbolTableRecord
100
AcDbLayerTableRecord
  2
A1
 70
     0
 62
    12
  6
CONTINUOUS
370
    -3
390

  0
LAYER
  5
1EC
100
AcDbSymbolTableRecord
100
AcDbLayerTableRecord
  2
A2
 70
     0
 62
     9
  6
CONTINUOUS
370
    -3
390

  0
LAYER
  5
1ED
100
AcDbSymbolTableRecord
100
AcDbLayerTableRecord
  2
A4
 70
     0
 62
     9
  6
CONTINUOUS
370
    -3
390

  0
LAYER
  5
1EE
100
AcDbSymbolTableRecord
100
AcDbLayerTableRecord
  2
A5
 70
     0
 62
     8
  6
CONTINUOUS
370
    -3
390

  0
LAYER
  5
1EF
100
AcDbSymbolTableRecord
100
AcDbLayerTableRecord
  2
A6
 70
     0
 62
    12
  6
CONTINUOUS
370
    -3
390

  0
LAYER
  5
1F0
100
AcDbSymbolTableRecord
100
AcDbLayerTableRecord
  2
A7
 70
     0
 62
    12
  6
CONTINUOUS
370
    -3
390

  0
LAYER
  5
1F1
100
AcDbSymbolTableRecord
100
AcDbLayerTableRecord
  2
A8
 70
     0
 62
    10
  6
CONTINUOUS
370
    -3
390

  0
LAYER
  5
1F2
100
AcDbSymbolTableRecord
100
AcDbLayerTableRecord
  2
A9
 70
     0
 62
     9
  6
CONTINUOUS
370
    -3
390

  0
LAYER
  5
1F3
100
AcDbSymbolTableRecord
100
AcDbLayerTableRecord
  2
A10
 70
     0
 62
     6
  6
CONTINUOUS
370
    -3
390

  0
LAYER
  5
1F4
100
AcDbSymbolTableRecord
100
AcDbLayerTableRecord
  2
A20
 70
     0
 62
     1
  6
CONTINUOUS
370
    -3
390

  0
LAYER
  5
1F5
100
AcDbSymbolTableRecord
100
AcDbLayerTableRecord
  2
A30
 70
     0
 62
     1
  6
CONTINUOUS
370
    -3
390

  0
LAYER
  5
1F6
100
AcDbSymbolTableRecord
100
AcDbLayerTableRecord
  2
A40
 70
     0
 62
     9
  6
CONTINUOUS
370
    -3
390

  0
LAYER
  5
1F7
100
AcDbSymbolTableRecord
100
AcDbLayerTableRecord
  2
A50
 70
     0
 62
    12
  6
CONTINUOUS
370
    -3
390

  0
LAYER
  5
1F8
100
AcDbSymbolTableRecord
100
AcDbLayerTableRecord
  2
A1023
 70
     0
 62
     8
  6
CONTINUOUS
370
    -3
390

  0
LAYER
  5
1F9
100
AcDbSymbolTableRecord
100
AcDbLayerTableRecord
  2
DXF1023
 70
     0
 62
    16
  6
CONTINUOUS
370
    -3
390

  0
ENDTAB
  0
TABLE
  2
STYLE
  5
1FA
100
AcDbSymbolTable
 70
     4
  0
STYLE
  5
1FB
100
AcDbSymbolTableRecord
100
AcDbTextStyleTableRecord
  2
STANDARD
 70
    64
 40
0.0
 41
1.0
 50
0.0
 71
     0
 42
3.000000000000000
  3
TXT
  4

  0
STYLE
  5
1FC
100
AcDbSymbolTableRecord
100
AcDbTextStyleTableRecord
  2
ANKTATE
 70
    68
 40
0.0
 41
1.0
 50
0.0
 71
     0
 42
3.000000000000000
  3
TXT
  4

  0
STYLE
  5
1FD
100
AcDbSymbolTableRecord
100
AcDbTextStyleTableRecord
  2
KNJYOKO
 70
    64
 40
0.0
 41
1.0
 50
0.0
 71
     0
 42
3.000000000000000
  3
TXT
  4
BIGFONT
  0
STYLE
  5
1FE
100
AcDbSymbolTableRecord
100
AcDbTextStyleTableRecord
  2
KNJTATE
 70
    68
 40
0.0
 41
1.0
 50
0.0
 71
     0
 42
3.000000000000000
  3
TXT
  4
BIGFONT
  0
ENDTAB
  0
TABLE
  2
VIEW
  5
1FF
100
AcDbSymbolTable
 70
     0
  0
ENDTAB
  0
TABLE
  2
UCS
  5
200
100
AcDbSymbolTable
 70
     0
  0
ENDTAB
  0
TABLE
  2
APPID
  5
201
100
AcDbSymbolTable
 70
     1
  0
APPID
  5
202
100
AcDbSymbolTableRecord
100
AcDbRegAppTableRecord
  2
ACAD
 70
     0
  0
ENDTAB
  0
TABLE
  2
DIMSTYLE
  5
203
100
AcDbSymbolTable
 70
     2
100
AcDbDimStyleTable
  0
DIMSTYLE
105
204
100
AcDbSymbolTableRecord
100
AcDbDimStyleTableRecord
  2
STANDARD
 70
     0
 41
2.000000
 44
1.500000
 42
0.800000
145
0.661290
140
3.100000
144
1.000000
146
0.645161
340
1FB
  0
DIMSTYLE
105
205
100
AcDbSymbolTableRecord
100
AcDbDimStyleTableRecord
  2
DXF001
 70
     0
 41
2.000000
 44
1.500000
 42
0.800000
145
0.661290
140
3.100000
144
1.000000
146
0.645161
 77
     1
 73
     0
 74
     0
271
     2
179
     2
275
     0
 78
     8
 79
     2
172
     1
340
1FB
  0
ENDTAB
  0
TABLE
  2
BLOCK_RECORD
  5
206
100
AcDbSymbolTable
 70
    12
  0
BLOCK_RECORD
  5
207
100
AcDbSymbolTableRecord
100
AcDbBlockTableRecord
  2
*MODEL_SPACE
  0
BLOCK_RECORD
  5
208
100
AcDbSymbolTableRecord
100
AcDbBlockTableRecord
  2
*PAPER_SPACE
  0
BLOCK_RECORD
  5
209
100
AcDbSymbolTableRecord
100
AcDbBlockTableRecord
  2
*PAPER_SPACE0
  0
BLOCK_RECORD
  5
1
100
AcDbSymbolTableRecord
100
AcDbBlockTableRecord
  2
_NONE
  0
BLOCK_RECORD
  5
4
100
AcDbSymbolTableRecord
100
AcDbBlockTableRecord
  2
_CLOSED
  0
BLOCK_RECORD
  5
B
100
AcDbSymbolTableRecord
100
AcDbBlockTableRecord
  2
_DOT
  0
BLOCK_RECORD
  5
13
100
AcDbSymbolTableRecord
100
AcDbBlockTableRecord
  2
_OPEN
  0
BLOCK_RECORD
  5
19
100
AcDbSymbolTableRecord
100
AcDbBlockTableRecord
  2
_ORIGIN
  0
BLOCK_RECORD
  5
1E
100
AcDbSymbolTableRecord
100
AcDbBlockTableRecord
  2
_OPEN30
  0
BLOCK_RECORD
  5
24
100
AcDbSymbolTableRecord
100
AcDbBlockTableRecord
  2
_BOXFILLED
  0
BLOCK_RECORD
  5
29
100
AcDbSymbolTableRecord
100
AcDbBlockTableRecord
  2
_BOXBLANK
  0
BLOCK_RECORD
  5
31
100
AcDbSymbolTableRecord
100
AcDbBlockTableRecord
  2
_OBLIQUE
  0
BLOCK_RECORD
  5
35
100
AcDbSymbolTableRecord
100
AcDbBlockTableRecord
  2
_OPEN90
  0
BLOCK_RECORD
  5
3B
100
AcDbSymbolTableRecord
100
AcDbBlockTableRecord
  2
_CLOSEDBLANK
  0
BLOCK_RECORD
  5
41
100
AcDbSymbolTableRecord
100
AcDbBlockTableRecord
  2
_DOTBLANK
  0
ENDTAB
  0
ENDSEC
  0
SECTION
  2
BLOCKS
  0
BLOCK
  5
20A
100
AcDbEntity
  8
0
100
AcDbBlockBegin
  2
*MODEL_SPACE
 70
     0
 10
0.0
 20
0.0
 30
0.0
  3
*MODEL_SPACE
  1

  0
ENDBLK
  5
20B
100
AcDbEntity
  8
0
100
AcDbBlockEnd
  0
BLOCK
  5
20C
100
AcDbEntity
  8
0
100
AcDbBlockBegin
  2
*PAPER_SPACE
 70
     0
 10
0.0
 20
0.0
 30
0.0
  3
*PAPER_SPACE
  1

  0
ENDBLK
  5
20D
100
AcDbEntity
  8
0
100
AcDbBlockEnd
  0
BLOCK
  5
20E
100
AcDbEntity
  8
0
100
AcDbBlockBegin
  2
*PAPER_SPACE0
 70
     0
 10
0.0
 20
0.0
 30
0.0
  3
*PAPER_SPACE0
  1

  0
ENDBLK
  5
20F
100
AcDbEntity
  8
0
100
AcDbBlockEnd
  0
BLOCK
  5
2
330
1
100
AcDbEntity
  8
0
100
AcDbBlockBegin
  2
_NONE
 70
     0
 10
0.0
 20
0.0
 30
0.0
  3
_NONE
  1

  0
ENDBLK
  5
3
330
1
100
AcDbEntity
  8
0
100
AcDbBlockEnd
  0
BLOCK
  5
5
330
4
100
AcDbEntity
  8
0
100
AcDbBlockBegin
  2
_CLOSED
 70
     0
 10
0.0
 20
0.0
 30
0.0
  3
_CLOSED
  1

  0
LINE
  5
6
330
4
100
AcDbEntity
  8
0
  6
BYBLOCK
 62
     0
370
    -2
100
AcDbLine
 10
-1.0
 20
0.166667
 30
0.0
 11
0.0
 21
0.0
 31
0.0
  0
LINE
  5
7
330
4
100
AcDbEntity
  8
0
  6
BYBLOCK
 62
     0
370
    -2
100
AcDbLine
 10
0.0
 20
0.0
 30
0.0
 11
-1.0
 21
-0.166667
 31
0.0
  0
LINE
  5
8
330
4
100
AcDbEntity
  8
0
  6
BYBLOCK
 62
     0
370
    -2
100
AcDbLine
 10
-1.0
 20
0.166667
 30
0.0
 11
-1.0
 21
-0.166667
 31
0.0
  0
LINE
  5
9
330
4
100
AcDbEntity
  8
0
  6
BYBLOCK
 62
     0
370
    -2
100
AcDbLine
 10
0.0
 20
0.0
 30
0.0
 11
-1.0
 21
0.0
 31
0.0
  0
ENDBLK
  5
A
330
4
100
AcDbEntity
  8
0
100
AcDbBlockEnd
  0
BLOCK
  5
C
330
B
100
AcDbEntity
  8
0
100
AcDbBlockBegin
  2
_DOT
 70
     0
 10
0.0
 20
0.0
 30
0.0
  3
_DOT
  1

  0
POLYLINE
  5
D
330
B
100
AcDbEntity
  8
0
  6
BYBLOCK
 62
     0
370
    -2
100
AcDb2dPolyline
 66
     1
 10
0.0
 20
0.0
 30
0.0
 70
     1
 40
0.5
 41
0.5
  0
VERTEX
  5
E
330
B
100
AcDbEntity
  8
0
  6
BYBLOCK
 62
     0
370
    -2
100
AcDbVertex
100
AcDb2dVertex
 10
-0.25
 20
0.0
 30
0.0
 42
1.0
  0
VERTEX
  5
F
330
B
100
AcDbEntity
  8
0
  6
BYBLOCK
 62
     0
370
    -2
100
AcDbVertex
100
AcDb2dVertex
 10
0.25
 20
0.0
 30
0.0
 42
1.0
  0
SEQEND
  5
10
330
B
100
AcDbEntity
  8
0
  6
BYBLOCK
 62
     0
370
    -2
  0
LINE
  5
11
330
B
100
AcDbEntity
  8
0
  6
BYBLOCK
 62
     0
370
    -2
100
AcDbLine
 10
-0.5
 20
0.0
 30
0.0
 11
-1.0
 21
0.0
 31
0.0
  0
ENDBLK
  5
12
330
B
100
AcDbEntity
  8
0
100
AcDbBlockEnd
  0
BLOCK
  5
14
330
13
100
AcDbEntity
  8
0
100
AcDbBlockBegin
  2
_OPEN
 70
     0
 10
0.0
 20
0.0
 30
0.0
  3
_OPEN
  1

  0
LINE
  5
15
330
13
100
AcDbEntity
  8
0
  6
BYBLOCK
 62
     0
370
    -2
100
AcDbLine
 10
-1.0
 20
0.166667
 30
0.0
 11
0.0
 21
0.0
 31
0.0
  0
LINE
  5
16
330
13
100
AcDbEntity
  8
0
  6
BYBLOCK
 62
     0
370
    -2
100
AcDbLine
 10
0.0
 20
0.0
 30
0.0
 11
-1.0
 21
-0.166667
 31
0.0
  0
LINE
  5
17
330
13
100
AcDbEntity
  8
0
  6
BYBLOCK
 62
     0
370
    -2
100
AcDbLine
 10
0.0
 20
0.0
 30
0.0
 11
-1.0
 21
0.0
 31
0.0
  0
ENDBLK
  5
18
330
13
100
AcDbEntity
  8
0
100
AcDbBlockEnd
  0
BLOCK
  5
1A
330
19
100
AcDbEntity
  8
0
100
AcDbBlockBegin
  2
_ORIGIN
 70
     0
 10
0.0
 20
0.0
 30
0.0
  3
_ORIGIN
  1

  0
CIRCLE
  5
1B
330
19
100
AcDbEntity
  8
0
  6
BYBLOCK
 62
     0
370
    -2
100
AcDbCircle
 10
0.0
 20
0.0
 30
0.0
 40
0.5
  0
LINE
  5
1C
330
19
100
AcDbEntity
  8
0
  6
BYBLOCK
 62
     0
370
    -2
100
AcDbLine
 10
0.0
 20
0.0
 30
0.0
 11
-1.0
 21
0.0
 31
0.0
  0
ENDBLK
  5
1D
330
19
100
AcDbEntity
  8
0
100
AcDbBlockEnd
  0
BLOCK
  5
1F
330
1E
100
AcDbEntity
  8
0
100
AcDbBlockBegin
  2
_OPEN30
 70
     0
 10
0.0
 20
0.0
 30
0.0
  3
_OPEN30
  1

  0
LINE
  5
20
330
1E
100
AcDbEntity
  8
0
  6
BYBLOCK
 62
     0
370
    -2
100
AcDbLine
 10
-1.0
 20
0.267949
 30
0.0
 11
0.0
 21
0.0
 31
0.0
  0
LINE
  5
21
330
1E
100
AcDbEntity
  8
0
  6
BYBLOCK
 62
     0
370
    -2
100
AcDbLine
 10
0.0
 20
0.0
 30
0.0
 11
-1.0
 21
-0.267949
 31
0.0
  0
LINE
  5
22
330
1E
100
AcDbEntity
  8
0
  6
BYBLOCK
 62
     0
370
    -2
100
AcDbLine
 10
0.0
 20
0.0
 30
0.0
 11
-1.0
 21
0.0
 31
0.0
  0
ENDBLK
  5
23
330
1E
100
AcDbEntity
  8
0
100
AcDbBlockEnd
  0
BLOCK
  5
25
330
24
100
AcDbEntity
  8
0
100
AcDbBlockBegin
  2
_BOXFILLED
 70
     0
 10
0.0
 20
0.0
 30
0.0
  3
_BOXFILLED
  1

  0
SOLID
  5
26
330
24
100
AcDbEntity
  8
0
  6
BYBLOCK
 62
     0
370
    -2
100
AcDbTrace
 10
-0.5
 20
0.5
 30
0.0
 11
0.5
 21
0.5
 31
0.0
 12
-0.5
 22
-0.5
 32
0.0
 13
0.5
 23
-0.5
 33
0.0
  0
LINE
  5
27
330
24
100
AcDbEntity
  8
0
  6
BYBLOCK
 62
     0
370
    -2
100
AcDbLine
 10
-0.5
 20
0.0
 30
0.0
 11
-1.0
 21
0.0
 31
0.0
  0
ENDBLK
  5
28
330
24
100
AcDbEntity
  8
0
100
AcDbBlockEnd
  0
BLOCK
  5
2A
330
29
100
AcDbEntity
  8
0
100
AcDbBlockBegin
  2
_BOXBLANK
 70
     0
 10
0.0
 20
0.0
 30
0.0
  3
_BOXBLANK
  1

  0
LINE
  5
2B
330
29
100
AcDbEntity
  8
0
  6
BYBLOCK
 62
     0
370
    -2
100
AcDbLine
 10
-0.5
 20
-0.5
 30
0.0
 11
0.5
 21
-0.5
 31
0.0
  0
LINE
  5
2C
330
29
100
AcDbEntity
  8
0
  6
BYBLOCK
 62
     0
370
    -2
100
AcDbLine
 10
0.5
 20
-0.5
 30
0.0
 11
0.5
 21
0.5
 31
0.0
  0
LINE
  5
2D
330
29
100
AcDbEntity
  8
0
  6
BYBLOCK
 62
     0
370
    -2
100
AcDbLine
 10
0.5
 20
0.5
 30
0.0
 11
-0.5
 21
0.5
 31
0.0
  0
LINE
  5
2E
330
29
100
AcDbEntity
  8
0
  6
BYBLOCK
 62
     0
370
    -2
100
AcDbLine
 10
-0.5
 20
0.5
 30
0.0
 11
-0.5
 21
-0.5
 31
0.0
  0
LINE
  5
2F
330
29
100
AcDbEntity
  8
0
  6
BYBLOCK
 62
     0
370
    -2
100
AcDbLine
 10
-0.5
 20
0.0
 30
0.0
 11
-1.0
 21
0.0
 31
0.0
  0
ENDBLK
  5
30
330
29
100
AcDbEntity
  8
0
100
AcDbBlockEnd
  0
BLOCK
  5
32
330
31
100
AcDbEntity
  8
0
100
AcDbBlockBegin
  2
_OBLIQUE
 70
     0
 10
0.0
 20
0.0
 30
0.0
  3
_OBLIQUE
  1

  0
LINE
  5
33
330
31
100
AcDbEntity
  8
0
  6
BYBLOCK
 62
     0
370
    -2
100
AcDbLine
 10
-0.5
 20
-0.5
 30
0.0
 11
0.5
 21
0.5
 31
0.0
  0
ENDBLK
  5
34
330
31
100
AcDbEntity
  8
0
100
AcDbBlockEnd
  0
BLOCK
  5
36
330
35
100
AcDbEntity
  8
0
100
AcDbBlockBegin
  2
_OPEN90
 70
     0
 10
0.0
 20
0.0
 30
0.0
  3
_OPEN90
  1

  0
LINE
  5
37
330
35
100
AcDbEntity
  8
0
  6
BYBLOCK
 62
     0
370
    -2
100
AcDbLine
 10
-0.5
 20
0.5
 30
0.0
 11
0.0
 21
0.0
 31
0.0
  0
LINE
  5
38
330
35
100
AcDbEntity
  8
0
  6
BYBLOCK
 62
     0
370
    -2
100
AcDbLine
 10
0.0
 20
0.0
 30
0.0
 11
-0.5
 21
-0.5
 31
0.0
  0
LINE
  5
39
330
35
100
AcDbEntity
  8
0
  6
BYBLOCK
 62
     0
370
    -2
100
AcDbLine
 10
0.0
 20
0.0
 30
0.0
 11
-1.0
 21
0.0
 31
0.0
  0
ENDBLK
  5
3A
330
35
100
AcDbEntity
  8
0
100
AcDbBlockEnd
  0
BLOCK
  5
3C
330
3B
100
AcDbEntity
  8
0
100
AcDbBlockBegin
  2
_CLOSEDBLANK
 70
     0
 10
0.0
 20
0.0
 30
0.0
  3
_CLOSEDBLANK
  1

  0
LINE
  5
3D
330
3B
100
AcDbEntity
  8
0
  6
BYBLOCK
 62
     0
370
    -2
100
AcDbLine
 10
-1.0
 20
0.1666666666666666
 30
0.0
 11
0.0
 21
0.0
 31
0.0
  0
LINE
  5
3E
330
3B
100
AcDbEntity
  8
0
  6
BYBLOCK
 62
     0
370
    -2
100
AcDbLine
 10
0.0
 20
0.0
 30
0.0
 11
-1.0
 21
-0.1666666666666666
 31
0.0
  0
LINE
  5
3F
330
3B
100
AcDbEntity
  8
0
  6
BYBLOCK
 62
     0
370
    -2
100
AcDbLine
 10
-1.0
 20
0.1666666666666666
 30
0.0
 11
-1.0
 21
-0.1666666666666666
 31
0.0
  0
ENDBLK
  5
40
330
3B
100
AcDbEntity
  8
0
100
AcDbBlockEnd
  0
BLOCK
  5
42
330
41
100
AcDbEntity
  8
0
100
AcDbBlockBegin
  2
_DOTBLANK
 70
     0
 10
0.0
 20
0.0
 30
0.0
  3
_DOTBLANK
  1

  0
CIRCLE
  5
43
330
41
100
AcDbEntity
  8
0
  6
BYBLOCK
 62
     0
370
    -2
100
AcDbCircle
 10
0.0
 20
0.0
 30
0.0
 40
0.5
  0
LINE
  5
44
330
41
100
AcDbEntity
  8
0
  6
BYBLOCK
 62
     0
370
    -2
100
AcDbLine
 10
-0.5
 20
0.0
 30
0.0
 11
-1.0
 21
0.0
 31
0.0
  0
ENDBLK
  5
45
330
41
100
AcDbEntity
  8
0
100
AcDbBlockEnd
  0
ENDSEC
  0
SECTION
  2
ENTITIES
  0
MTEXT
  5
46
100
AcDbEntity
  8
A7
  6
CONTINUOUS
 62
3
100
AcDbMText
 10
9.999997526638502
 20
18.00000076076889
 30
0.000000000000000
 40
3.000000000000000
 41
0.000000000000000
 44
0.6739999771118164
 71
     7
 72
     1
  1
{\H0.93x;{TYPE No.TH-182-L}}
 11
1.000000000000000
 21
0.000000000000000
 31
0.000000000000000
  7
STANDARD
  0
POINT
  5
47
100
AcDbEntity
  8
A7
  6
CONTINUOUS
 62
3
100
AcDbPoint
 10
9.999997526638502
 20
18.00000076076889
 30
0.000000000000000
  0
LINE
  5
48
100
AcDbEntity
  8
A1
  6
CONTINUOUS
 62
7
100
AcDbLine
 10
127.2000000000293
 20
135.2364063136384
 30
0.000000000000000
 11
113.4000000000293
 21
135.2364063136384
 31
0.000000000000000
  0
LINE
  5
49
100
AcDbEntity
  8
A1
  6
CONTINUOUS
 62
7
100
AcDbLine
 10
127.2000000000293
 20
100.2364063136384
 30
0.000000000000000
 11
120.7000000000293
 21
100.2364063136384
 31
0.000000000000000
  0
LINE
  5
4A
100
AcDbEntity
  8
A1
  6
CONTINUOUS
 62
7
100
AcDbLine
 10
120.7000000000293
 20
103.4364063136384
 30
0.000000000000000
 11
113.4000000000293
 21
103.4364063136384
 31
0.000000000000000
  0
LINE
  5
4B
100
AcDbEntity
  8
A1
  6
CONTINUOUS
 62
7
100
AcDbLine
 10
111.4000000000293
 20
133.2364063136385
 30
0.000000000000000
 11
111.4000000000293
 21
105.4364063136384
 31
0.000000000000000
  0
CIRCLE
  5
4C
100
AcDbEntity
  8
A1
  6
CONTINUOUS
 62
7
100
AcDbCircle
 10
116.2000000000335
 20
128.8364063137635
 30
0.000000000000000
 40
1.800000000000000
  0
CIRCLE
  5
4D
100
AcDbEntity
  8
A1
  6
CONTINUOUS
 62
7
100
AcDbCircle
 10
116.2000000000633
 20
109.8364063137635
 30
0.000000000000000
 40
1.800000000000000
  0
LINE
  5
4E
100
AcDbEntity
  8
A4
  6
CENTER
 62
1
100
AcDbLine
 10
112.9000000000335
 20
128.8364063137635
 30
0.000000000000000
 11
119.5000000000335
 21
128.8364063137635
 31
0.000000000000000
  0
LINE
  5
4F
100
AcDbEntity
  8
A4
  6
CENTER
 62
1
100
AcDbLine
 10
116.2000000000335
 20
132.1364063137635
 30
0.000000000000000
 11
116.2000000000335
 21
125.5364063137635
 31
0.000000000000000
  0
LINE
  5
50
100
AcDbEntity
  8
A4
  6
CENTER
 62
1
100
AcDbLine
 10
112.9000000000633
 20
109.8364063137635
 30
0.000000000000000
 11
119.5000000000633
 21
109.8364063137635
 31
0.000000000000000
  0
LINE
  5
51
100
AcDbEntity
  8
A4
  6
CENTER
 62
1
100
AcDbLine
 10
116.2000000000633
 20
113.1364063137635
 30
0.000000000000000
 11
116.2000000000633
 21
106.5364063137635
 31
0.000000000000000
  0
LINE
  5
52
100
AcDbEntity
  8
A1
  6
CONTINUOUS
 62
7
100
AcDbLine
 10
127.2000000000293
 20
109.7364063136385
 30
0.000000000000000
 11
127.2000000000293
 21
100.2364063136384
 31
0.000000000000000
  0
LINE
  5
53
100
AcDbEntity
  8
A1
  6
CONTINUOUS
 62
7
100
AcDbLine
 10
127.2000000000293
 20
135.2364063136384
 30
0.000000000000000
 11
127.2000000000293
 21
125.7364063136384
 31
0.000000000000000
  0
LINE
  5
54
100
AcDbEntity
  8
A1
  6
CONTINUOUS
 62
7
100
AcDbLine
 10
121.0000000000634
 20
109.7364063136385
 30
0.000000000000000
 11
121.0000000000783
 21
100.2364063136385
 31
0.000000000000000
  0
LINE
  5
55
100
AcDbEntity
  8
A1
  6
CONTINUOUS
 62
7
100
AcDbLine
 10
121.0000000000234
 20
135.2364063136385
 30
0.000000000000000
 11
121.0000000000383
 21
125.7364063136385
 31
0.000000000000000
  0
LINE
  5
56
100
AcDbEntity
  8
A1
  6
CONTINUOUS
 62
7
100
AcDbLine
 10
111.4000000000665
 20
34.23640631430916
 30
0.000000000000000
 11
111.4000000000672
 21
33.23640631430916
 31
0.000000000000000
  0
LINE
  5
57
100
AcDbEntity
  8
A4
  6
CENTER
 62
1
100
AcDbLine
 10
116.2000000000673
 20
35.73640631430862
 30
0.000000000000000
 11
116.2000000000673
 21
31.73640631430862
 31
0.000000000000000
  0
ARC
  5
58
100
AcDbEntity
  8
A1
  6
CONTINUOUS
 62
7
100
AcDbCircle
 10
124.1000000001010
 20
36.33640631426249
 30
0.000000000000000
 40
3.099999999954889
100
AcDbArc
 50
270.0000000000000
 51
582.6423099795671
  0
LINE
  5
59
100
AcDbEntity
  8
A1
  6
CONTINUOUS
 62
7
100
AcDbLine
 10
124.1000000001010
 20
33.23640631430761
 30
0.000000000000000
 11
111.4000000000675
 21
33.23640631430920
 31
0.000000000000000
  0
LINE
  5
5A
100
AcDbEntity
  8
A1
  6
CONTINUOUS
 62
7
100
AcDbLine
 10
124.1000000001011
 20
34.23640631430761
 30
0.000000000000000
 11
111.4000000000676
 21
34.23640631430920
 31
0.000000000000000
  0
ARC
  5
5B
100
AcDbEntity
  8
A1
  6
CONTINUOUS
 62
7
100
AcDbCircle
 10
124.1000000001010
 20
36.33640631426255
 30
0.000000000000000
 40
2.099999999954932
100
AcDbArc
 50
270.0000000000000
 51
582.6423099795669
  0
LINE
  5
5C
100
AcDbEntity
  8
A1
  6
CONTINUOUS
 62
7
100
AcDbLine
 10
122.5552461983777
 20
34.91382566914178
 30
0.000000000000000
 11
121.8196491499223
 21
34.23640631430786
 31
0.000000000000000
  0
LINE
  5
5D
100
AcDbEntity
  8
A1
  6
CONTINUOUS
 62
7
100
AcDbLine
 10
120.6000000000635
 20
109.7364063136385
 30
0.000000000000000
 11
127.6000000000634
 21
109.7364063136385
 31
0.000000000000000
  0
LINE
  5
5E
100
AcDbEntity
  8
A4
  6
CENTER
 62
1
100
AcDbLine
 10
126.3287290421054
 20
34.18169824655433
 30
0.000000000000000
 11
126.3415080001010
 21
34.17432031426255
 31
0.000000000000000
  0
LINE
  5
5F
100
AcDbEntity
  8
A1
  6
CONTINUOUS
 62
7
100
AcDbLine
 10
127.2000000000293
 20
125.7364063136384
 30
0.000000000000000
 11
121.0000000000383
 21
125.7364063136384
 31
0.000000000000000
  0
LINE
  5
60
100
AcDbEntity
  8
A1
  6
CONTINUOUS
 62
7
100
AcDbLine
 10
121.1000000000293
 20
125.7364063136384
 30
0.000000000000000
 11
121.1000000000293
 21
110.3364063136384
 31
0.000000000000000
  0
LINE
  5
61
100
AcDbEntity
  8
A1
  6
CONTINUOUS
 62
7
100
AcDbLine
 10
120.7000000000293
 20
103.4364063136384
 30
0.000000000000000
 11
120.7000000000293
 21
100.2364063136384
 31
0.000000000000000
  0
LINE
  5
62
100
AcDbEntity
  8
A1
  6
CONTINUOUS
 62
7
100
AcDbLine
 10
120.7000000000293
 20
34.23640631430806
 30
0.000000000000000
 11
120.7000000000293
 21
33.23640631430806
 31
0.000000000000000
  0
CIRCLE
  5
63
100
AcDbEntity
  8
A1
  6
CONTINUOUS
 62
7
100
AcDbCircle
 10
124.1000000001010
 20
36.33640631426249
 30
0.000000000000000
 40
2.000000000000000
  0
CIRCLE
  5
64
100
AcDbEntity
  8
A1
  6
CONTINUOUS
 62
7
100
AcDbCircle
 10
124.1000000001010
 20
36.33640631426249
 30
0.000000000000000
 40
1.000000000000000
  0
ARC
  5
65
100
AcDbEntity
  8
A1
  6
CONTINUOUS
 62
7
100
AcDbCircle
 10
105.1000000001010
 20
36.33640631426249
 30
0.000000000000000
 40
2.000000000000000
100
AcDbArc
 50
90.00000000000000
 51
270.0000000000000
  0
LINE
  5
66
100
AcDbEntity
  8
A1
  6
CONTINUOUS
 62
7
100
AcDbLine
 10
121.2277186768321
 20
38.33640631426249
 30
0.000000000000000
 11
105.1000000001010
 21
38.33640631426249
 31
0.000000000000000
  0
LINE
  5
67
100
AcDbEntity
  8
A1
  6
CONTINUOUS
 62
7
100
AcDbLine
 10
121.2277186768321
 20
34.33640631426249
 30
0.000000000000000
 11
105.1000000001010
 21
34.33640631426249
 31
0.000000000000000
  0
LINE
  5
68
100
AcDbEntity
  8
A1
  6
CONTINUOUS
 62
7
100
AcDbLine
 10
122.1000000001010
 20
36.33640631426249
 30
0.000000000000000
 11
122.0000000001462
 21
36.33640631426249
 31
0.000000000000000
  0
LINE
  5
69
100
AcDbEntity
  8
A1
  6
CONTINUOUS
 62
7
100
AcDbLine
 10
123.3125538768753
 20
38.17486452782523
 30
0.000000000000000
 11
123.2864183969348
 21
38.27240346684306
 31
0.000000000000000
  0
LINE
  5
6A
100
AcDbEntity
  8
A1
  6
CONTINUOUS
 62
7
100
AcDbLine
 10
124.8874461233267
 20
38.17486452782533
 30
0.000000000000000
 11
124.9135816032673
 21
38.27240346684310
 31
0.000000000000000
  0
LINE
  5
6B
100
AcDbEntity
  8
A1
  6
CONTINUOUS
 62
7
100
AcDbLine
 10
126.1000000001011
 20
36.33640631426249
 30
0.000000000000000
 11
126.2000000000560
 21
36.33640631426249
 31
0.000000000000000
  0
ARC
  5
6C
100
AcDbEntity
  8
A1
  6
CONTINUOUS
 62
7
100
AcDbCircle
 10
124.1000000001010
 20
36.33640631426249
 30
0.000000000000000
 40
3.500000000000000
100
AcDbArc
 50
308.8096136123529
 51
576.8698976449145
  0
LINE
  5
6D
100
AcDbEntity
  8
A1
  6
CONTINUOUS
 62
7
100
AcDbLine
 10
122.6355378547917
 20
34.97429375468612
 30
0.000000000000000
 11
122.4378215110388
 21
34.23640631430781
 31
0.000000000000000
  0
ARC
  5
6E
100
AcDbEntity
  8
A1
  6
CONTINUOUS
 62
7
100
AcDbCircle
 10
126.1368873429425
 20
33.80389966025899
 30
0.000000000000000
 40
0.2500000000000000
100
AcDbArc
 50
195.0000000000079
 51
308.8096136123521
  0
LINE
  5
6F
100
AcDbEntity
  8
A4
  6
CENTER
 62
1
100
AcDbLine
 10
124.1000000000635
 20
142.8364063136702
 30
0.000000000000000
 11
124.1000000000635
 21
88.33640631377619
 31
0.000000000000000
  0
LINE
  5
70
100
AcDbEntity
  8
A1
  6
CONTINUOUS
 62
7
100
AcDbLine
 10
125.1000000000635
 20
89.83640631377619
 30
0.000000000000000
 11
123.1000000000635
 21
89.83640631377619
 31
0.000000000000000
  0
LINE
  5
71
100
AcDbEntity
  8
A1
  6
CONTINUOUS
 62
7
100
AcDbLine
 10
120.1000000000635
 20
148.8364063137762
 30
0.000000000000000
 11
105.1000000000635
 21
148.8364063137762
 31
0.000000000000000
  0
LINE
  5
72
100
AcDbEntity
  8
A1
  6
CONTINUOUS
 62
7
100
AcDbLine
 10
120.1000000000635
 20
144.8364063137762
 30
0.000000000000000
 11
105.1000000000635
 21
144.8364063137762
 31
0.000000000000000
  0
ARC
  5
73
100
AcDbEntity
  8
A1
  6
CONTINUOUS
 62
7
100
AcDbCircle
 10
120.1000000000635
 20
142.8364063137762
 30
0.000000000000000
 40
2.000000000000000
100
AcDbArc
 50
0.000000000000000
 51
90.00000000000000
  0
ARC
  5
74
100
AcDbEntity
  8
A1
  6
CONTINUOUS
 62
7
100
AcDbCircle
 10
120.1000000000635
 20
142.8364063137762
 30
0.000000000000000
 40
6.000000000000000
100
AcDbArc
 50
0.000000000000000
 51
90.00000000000000
  0
ARC
  5
75
100
AcDbEntity
  8
A1
  6
CONTINUOUS
 62
7
100
AcDbCircle
 10
105.1000000000635
 20
146.8364063137762
 30
0.000000000000000
 40
2.000000000000028
100
AcDbArc
 50
90.00000000000000
 51
270.0000000000000
  0
LINE
  5
76
100
AcDbEntity
  8
A1
  6
CONTINUOUS
 62
7
100
AcDbLine
 10
126.1000000000634
 20
93.83640631377619
 30
0.000000000000000
 11
122.1000000000635
 21
93.83640631377619
 31
0.000000000000000
  0
LINE
  5
77
100
AcDbEntity
  8
A4
  6
CENTER
 62
1
100
AcDbLine
 10
120.1000000000635
 20
146.8364063136702
 30
0.000000000000000
 11
101.6000000000634
 21
146.8364063136702
 31
0.000000000000000
  0
ARC
  5
78
100
AcDbEntity
  8
A4
  6
CENTER
 62
1
100
AcDbCircle
 10
120.1000000000635
 20
142.8364063136702
 30
0.000000000000000
 40
4.000000000000000
100
AcDbArc
 50
0.000000000000000
 51
90.00000000000000
  0
LINE
  5
79
100
AcDbEntity
  8
A1
  6
CONTINUOUS
 62
7
100
AcDbLine
 10
125.6250000000630
 20
110.3364063136386
 30
0.000000000000000
 11
125.6250000000629
 21
110.4364063136387
 31
0.000000000000000
  0
LINE
  5
7A
100
AcDbEntity
  8
A1
  6
CONTINUOUS
 62
7
100
AcDbLine
 10
122.5750000000637
 20
110.3364063136384
 30
0.000000000000000
 11
122.5750000000637
 21
110.4232463758686
 31
0.000000000000000
  0
LINE
  5
7B
100
AcDbEntity
  8
A1
  6
CONTINUOUS
 62
7
100
AcDbLine
 10
126.1000000000634
 20
93.83640631377608
 30
0.000000000000000
 11
126.1000000000634
 21
100.2364063136384
 31
0.000000000000000
  0
LINE
  5
7C
100
AcDbEntity
  8
A1
  6
CONTINUOUS
 62
7
100
AcDbLine
 10
122.1000000000635
 20
93.83640631377619
 30
0.000000000000000
 11
122.1000000000635
 21
100.2364063136384
 31
0.000000000000000
  0
LINE
  5
7D
100
AcDbEntity
  8
A1
  6
CONTINUOUS
 62
7
100
AcDbLine
 10
126.1000000000635
 20
110.4364063136385
 30
0.000000000000000
 11
122.6980014265979
 21
110.4364063136385
 31
0.000000000000000
  0
LINE
  5
7E
100
AcDbEntity
  8
A1
  6
CONTINUOUS
 62
7
100
AcDbLine
 10
126.1000000000636
 20
93.83640631377614
 30
0.000000000000000
 11
125.1000000000636
 21
89.83640631377612
 31
0.000000000000000
  0
LINE
  5
7F
100
AcDbEntity
  8
A1
  6
CONTINUOUS
 62
7
100
AcDbLine
 10
122.1000000000635
 20
93.83640631377619
 30
0.000000000000000
 11
123.1000000000635
 21
89.83640631377619
 31
0.000000000000000
  0
LINE
  5
80
100
AcDbEntity
  8
A1
  6
CONTINUOUS
 62
7
100
AcDbLine
 10
127.6000000000634
 20
110.3364063136385
 30
0.000000000000000
 11
120.6000000000635
 21
110.3364063136385
 31
0.000000000000000
  0
LINE
  5
81
100
AcDbEntity
  8
A1
  6
CONTINUOUS
 62
7
100
AcDbLine
 10
127.6000000000634
 20
109.7364063136385
 30
0.000000000000000
 11
127.6000000000634
 21
110.3364063136385
 31
0.000000000000000
  0
LINE
  5
82
100
AcDbEntity
  8
A1
  6
CONTINUOUS
 62
7
100
AcDbLine
 10
120.6000000000635
 20
109.7364063136385
 30
0.000000000000000
 11
120.6000000000635
 21
110.3364063136385
 31
0.000000000000000
  0
CIRCLE
  5
83
100
AcDbEntity
  8
A1
  6
CONTINUOUS
 62
7
100
AcDbCircle
 10
126.4500000000635
 20
110.5864063136384
 30
0.000000000000000
 40
0.2500000000000000
  0
LINE
  5
84
100
AcDbEntity
  8
A1
  6
CONTINUOUS
 62
7
100
AcDbLine
 10
121.7765957447442
 20
110.3378250062864
 30
0.000000000000000
 11
126.4765957447443
 21
110.8406785849867
 31
0.000000000000000
  0
LINE
  5
85
100
AcDbEntity
  8
A1
  6
CONTINUOUS
 62
7
100
AcDbLine
 10
121.7234042553827
 20
110.8349876209906
 30
0.000000000000000
 11
126.4234042553826
 21
111.3378411996909
 31
0.000000000000000
  0
ARC
  5
86
100
AcDbEntity
  8
A1
  6
CONTINUOUS
 62
7
100
AcDbCircle
 10
126.4500000000635
 20
111.0892598923388
 30
0.000000000000000
 40
0.2500000000000000
100
AcDbArc
 50
276.1068517298650
 51
456.1068517298651
  0
ARC
  5
87
100
AcDbEntity
  8
A1
  6
CONTINUOUS
 62
7
100
AcDbCircle
 10
121.7500000000636
 20
110.5864063136384
 30
0.000000000000000
 40
0.2500000000000071
100
AcDbArc
 50
96.10685172986491
 51
276.1068517298649
  0
ARC
  5
88
100
AcDbEntity
  8
A1
  6
CONTINUOUS
 62
7
100
AcDbCircle
 10
126.4500000000635
 20
124.9835527349382
 30
0.000000000000000
 40
0.2500000000000000
100
AcDbArc
 50
286.4689045267050
 51
466.4689045272270
  0
ARC
  5
89
100
AcDbEntity
  8
A1
  6
CONTINUOUS
 62
7
100
AcDbCircle
 10
126.4500000000635
 20
125.4864063136385
 30
0.000000000000000
 40
0.2500000000000071
100
AcDbArc
 50
270.0000000000000
 51
450.0000000000000
  0
LINE
  5
8A
100
AcDbEntity
  8
A1
  6
CONTINUOUS
 62
7
100
AcDbLine
 10
121.7500000000636
 20
125.2364063136385
 30
0.000000000000000
 11
126.4500000000636
 21
125.2364063136385
 31
0.000000000000000
  0
ARC
  5
8B
100
AcDbEntity
  8
A1
  6
CONTINUOUS
 62
7
100
AcDbCircle
 10
121.7500000000635
 20
125.4864063136385
 30
0.000000000000000
 40
0.2500000000000071
100
AcDbArc
 50
90.00000000000000
 51
270.0000000000000
  0
ARC
  5
8C
100
AcDbEntity
  8
A1
  6
CONTINUOUS
 62
7
100
AcDbCircle
 10
126.4500000000635
 20
122.2046941664183
 30
0.000000000000000
 40
0.2500000000000355
100
AcDbArc
 50
286.4689045272266
 51
466.4689045266888
  0
ARC
  5
8D
100
AcDbEntity
  8
A1
  6
CONTINUOUS
 62
7
100
AcDbCircle
 10
126.4500000000635
 20
119.4258355978984
 30
0.000000000000000
 40
0.2500000000000355
100
AcDbArc
 50
286.4689045272250
 51
466.4689045266748
  0
ARC
  5
8E
100
AcDbEntity
  8
A1
  6
CONTINUOUS
 62
7
100
AcDbCircle
 10
126.4500000000635
 20
116.6469770293785
 30
0.000000000000000
 40
0.2500000000000355
100
AcDbArc
 50
286.4689045272235
 51
466.4689045266605
  0
ARC
  5
8F
100
AcDbEntity
  8
A1
  6
CONTINUOUS
 62
7
100
AcDbCircle
 10
126.4500000000635
 20
113.8681184608586
 30
0.000000000000000
 40
0.2500000000000355
100
AcDbArc
 50
286.4689045272220
 51
466.4689045266497
  0
ARC
  5
90
100
AcDbEntity
  8
A1
  6
CONTINUOUS
 62
7
100
AcDbCircle
 10
121.7500000000411
 20
123.5941234506612
 30
0.000000000000000
 40
0.2499999999775611
100
AcDbArc
 50
106.4689045272272
 51
286.4689045267037
  0
ARC
  5
91
100
AcDbEntity
  8
A1
  6
CONTINUOUS
 62
7
100
AcDbCircle
 10
121.7500000000405
 20
120.8152648821419
 30
0.000000000000000
 40
0.2500000000229790
100
AcDbArc
 50
106.4689045266884
 51
286.4689045272262
  0
ARC
  5
92
100
AcDbEntity
  8
A1
  6
CONTINUOUS
 62
7
100
AcDbCircle
 10
121.7500000000400
 20
118.0364063136225
 30
0.000000000000000
 40
0.2500000000235261
100
AcDbArc
 50
106.4689045266752
 51
286.4689045272255
  0
ARC
  5
93
100
AcDbEntity
  8
A1
  6
CONTINUOUS
 62
7
100
AcDbCircle
 10
121.7500000000395
 20
115.2575477451032
 30
0.000000000000000
 40
0.2500000000240732
100
AcDbArc
 50
106.4689045266620
 51
286.4689045272235
  0
ARC
  5
94
100
AcDbEntity
  8
A1
  6
CONTINUOUS
 62
7
100
AcDbCircle
 10
121.7500000000389
 20
112.4786891765838
 30
0.000000000000000
 40
0.2500000000246203
100
AcDbArc
 50
106.4689045266472
 51
286.4689045272211
  0
LINE
  5
95
100
AcDbEntity
  8
A1
  6
CONTINUOUS
 62
7
100
AcDbLine
 10
126.3791262666130
 20
125.2232961684390
 30
0.000000000000000
 11
121.6791262665969
 21
123.8338668841405
 31
0.000000000000000
  0
LINE
  5
96
100
AcDbEntity
  8
A1
  6
CONTINUOUS
 62
7
100
AcDbLine
 10
121.8208737334854
 20
123.3543800171819
 30
0.000000000000000
 11
126.5208737335141
 21
124.7438093014374
 31
0.000000000000000
  0
LINE
  5
97
100
AcDbEntity
  8
A1
  6
CONTINUOUS
 62
7
100
AcDbLine
 10
126.4765957447443
 20
125.2321340422903
 30
0.000000000000000
 11
126.4366642891740
 21
125.2364063136384
 31
0.000000000000000
  0
LINE
  5
98
100
AcDbEntity
  8
A1
  6
CONTINUOUS
 62
7
100
AcDbLine
 10
126.1000000000636
 20
122.5688576616665
 30
0.000000000000000
 11
126.5208737335125
 21
122.4444375999197
 31
0.000000000000000
  0
LINE
  5
99
100
AcDbEntity
  8
A1
  6
CONTINUOUS
 62
7
100
AcDbLine
 10
126.1000000000636
 20
117.0111405246310
 30
0.000000000000000
 11
126.5208737335125
 21
116.8867204628799
 31
0.000000000000000
  0
LINE
  5
9A
100
AcDbEntity
  8
A1
  6
CONTINUOUS
 62
7
100
AcDbLine
 10
126.1000000000635
 20
114.2322819561112
 30
0.000000000000000
 11
126.5208737335125
 21
114.1078618943600
 31
0.000000000000000
  0
LINE
  5
9B
100
AcDbEntity
  8
A1
  6
CONTINUOUS
 62
7
100
AcDbLine
 10
121.6791262665829
 20
112.2389457430588
 30
0.000000000000000
 11
122.1000000000635
 21
112.1145256813028
 31
0.000000000000000
  0
LINE
  5
9C
100
AcDbEntity
  8
A1
  6
CONTINUOUS
 62
7
100
AcDbLine
 10
126.3791262666129
 20
122.4444375999192
 30
0.000000000000000
 11
121.6791262665835
 21
121.0550083156647
 31
0.000000000000000
  0
LINE
  5
9D
100
AcDbEntity
  8
A1
  6
CONTINUOUS
 62
7
100
AcDbLine
 10
126.5208737335140
 20
121.9649507329174
 30
0.000000000000000
 11
121.8208737334975
 21
120.5755214486190
 31
0.000000000000000
  0
LINE
  5
9E
100
AcDbEntity
  8
A1
  6
CONTINUOUS
 62
7
100
AcDbLine
 10
126.3791262666131
 20
119.6655790313993
 30
0.000000000000000
 11
121.6791262665829
 21
118.2761497471459
 31
0.000000000000000
  0
LINE
  5
9F
100
AcDbEntity
  8
A1
  6
CONTINUOUS
 62
7
100
AcDbLine
 10
121.8208737334972
 20
117.7966628800992
 30
0.000000000000000
 11
126.5208737335140
 21
119.1860921643976
 31
0.000000000000000
  0
LINE
  5
A0
100
AcDbEntity
  8
A1
  6
CONTINUOUS
 62
7
100
AcDbLine
 10
126.3791262666129
 20
116.8867204628795
 30
0.000000000000000
 11
121.6791262665821
 21
115.4972911786272
 31
0.000000000000000
  0
LINE
  5
A1
100
AcDbEntity
  8
A1
  6
CONTINUOUS
 62
7
100
AcDbLine
 10
121.8208737334967
 20
115.0178043115792
 30
0.000000000000000
 11
126.5208737335140
 21
116.4072335958776
 31
0.000000000000000
  0
LINE
  5
A2
100
AcDbEntity
  8
A1
  6
CONTINUOUS
 62
7
100
AcDbLine
 10
126.3791262666130
 20
114.1078618943596
 30
0.000000000000000
 11
121.6791262665814
 21
112.7184326101083
 31
0.000000000000000
  0
LINE
  5
A3
100
AcDbEntity
  8
A1
  6
CONTINUOUS
 62
7
100
AcDbLine
 10
121.8208737334964
 20
112.2389457430593
 30
0.000000000000000
 11
126.5208737335140
 21
113.6283750273577
 31
0.000000000000000
  0
LINE
  5
A4
100
AcDbEntity
  8
A1
  6
CONTINUOUS
 62
7
100
AcDbLine
 10
126.1000000000635
 20
111.4534233875914
 30
0.000000000000000
 11
126.5208737335126
 21
111.3290033258400
 31
0.000000000000000
  0
LINE
  5
A5
100
AcDbEntity
  8
A1
  6
CONTINUOUS
 62
7
100
AcDbLine
 10
122.1000000000635
 20
110.8752796460834
 30
0.000000000000000
 11
122.1000000000635
 21
112.3214619576942
 31
0.000000000000000
  0
LINE
  5
A6
100
AcDbEntity
  8
A1
  6
CONTINUOUS
 62
7
100
AcDbLine
 10
126.1000000000635
 20
110.4364063136385
 30
0.000000000000000
 11
126.1000000000635
 21
110.8003865598940
 31
0.000000000000000
  0
LINE
  5
A7
100
AcDbEntity
  8
A1
  6
CONTINUOUS
 62
7
100
AcDbLine
 10
126.1000000000635
 20
111.3032401385942
 30
0.000000000000000
 11
126.1000000000635
 21
113.5039549656033
 31
0.000000000000000
  0
LINE
  5
A8
100
AcDbEntity
  8
A1
  6
CONTINUOUS
 62
7
100
AcDbLine
 10
122.1000000000635
 20
112.8428526718674
 30
0.000000000000000
 11
122.1000000000635
 21
115.1003205262140
 31
0.000000000000000
  0
LINE
  5
A9
100
AcDbEntity
  8
A1
  6
CONTINUOUS
 62
7
100
AcDbLine
 10
126.1000000000635
 20
114.0253456797330
 30
0.000000000000000
 11
126.1000000000635
 21
116.2828135341231
 31
0.000000000000000
  0
LINE
  5
AA
100
AcDbEntity
  8
A1
  6
CONTINUOUS
 62
7
100
AcDbLine
 10
122.1000000000635
 20
115.6217112403863
 30
0.000000000000000
 11
122.1000000000635
 21
117.8791790947336
 31
0.000000000000000
  0
LINE
  5
AB
100
AcDbEntity
  8
A1
  6
CONTINUOUS
 62
7
100
AcDbLine
 10
126.1000000000635
 20
116.8042042482528
 30
0.000000000000000
 11
126.1000000000635
 21
119.0616721026431
 31
0.000000000000000
  0
LINE
  5
AC
100
AcDbEntity
  8
A1
  6
CONTINUOUS
 62
7
100
AcDbLine
 10
126.1000000000635
 20
119.5830628167726
 30
0.000000000000000
 11
126.1000000000635
 21
121.8405306711629
 31
0.000000000000000
  0
LINE
  5
AD
100
AcDbEntity
  8
A1
  6
CONTINUOUS
 62
7
100
AcDbLine
 10
122.1000000000635
 20
118.4005698089050
 30
0.000000000000000
 11
122.1000000000635
 21
120.6580376632534
 31
0.000000000000000
  0
LINE
  5
AE
100
AcDbEntity
  8
A1
  6
CONTINUOUS
 62
7
100
AcDbLine
 10
122.1000000000635
 20
121.1794283774237
 30
0.000000000000000
 11
122.1000000000635
 21
123.4368962318172
 31
0.000000000000000
  0
LINE
  5
AF
100
AcDbEntity
  8
A1
  6
CONTINUOUS
 62
7
100
AcDbLine
 10
126.1000000000635
 20
122.3619213852923
 30
0.000000000000000
 11
126.1000000000635
 21
124.6193892396870
 31
0.000000000000000
  0
LINE
  5
B0
100
AcDbEntity
  8
A1
  6
CONTINUOUS
 62
7
100
AcDbLine
 10
126.1000000000635
 20
125.1407799538094
 30
0.000000000000000
 11
126.1000000000635
 21
125.2364063136384
 31
0.000000000000000
  0
LINE
  5
B1
100
AcDbEntity
  8
A1
  6
CONTINUOUS
 62
7
100
AcDbLine
 10
122.1000000000635
 20
135.2364063136384
 30
0.000000000000000
 11
122.1000000000635
 21
142.8364063137762
 31
0.000000000000000
  0
LINE
  5
B2
100
AcDbEntity
  8
A1
  6
CONTINUOUS
 62
7
100
AcDbLine
 10
122.1000000000635
 20
123.9582869458998
 30
0.000000000000000
 11
122.1000000000635
 21
125.2364063136385
 31
0.000000000000000
  0
LINE
  5
B3
100
AcDbEntity
  8
A1
  6
CONTINUOUS
 62
7
100
AcDbLine
 10
126.1000000000634
 20
135.2364063136384
 30
0.000000000000000
 11
126.1000000000634
 21
142.8364063137762
 31
0.000000000000000
  0
LINE
  5
B4
100
AcDbEntity
  8
A1
  6
CONTINUOUS
 62
7
100
AcDbLine
 10
121.7234042553827
 20
125.2378250062863
 30
0.000000000000000
 11
122.1000000000635
 21
125.1975329811935
 31
0.000000000000000
  0
LINE
  5
B5
100
AcDbEntity
  8
A1
  6
CONTINUOUS
 62
7
100
AcDbLine
 10
121.6791262665986
 20
123.3543800171815
 30
0.000000000000000
 11
122.1000000000636
 21
123.2299599554258
 31
0.000000000000000
  0
LINE
  5
B6
100
AcDbEntity
  8
A1
  6
CONTINUOUS
 62
7
100
AcDbLine
 10
126.1000000000635
 20
119.7899990931508
 30
0.000000000000000
 11
126.5208737335124
 21
119.6655790313997
 31
0.000000000000000
  0
LINE
  5
B7
100
AcDbEntity
  8
A1
  6
CONTINUOUS
 62
7
100
AcDbLine
 10
121.6791262665851
 20
120.5755214486185
 30
0.000000000000000
 11
122.1000000000635
 21
120.4511013868629
 31
0.000000000000000
  0
LINE
  5
B8
100
AcDbEntity
  8
A1
  6
CONTINUOUS
 62
7
100
AcDbLine
 10
121.6791262665843
 20
117.7966628800987
 30
0.000000000000000
 11
122.1000000000635
 21
117.6722428183430
 31
0.000000000000000
  0
LINE
  5
B9
100
AcDbEntity
  8
A1
  6
CONTINUOUS
 62
7
100
AcDbLine
 10
121.6791262665837
 20
115.0178043115788
 30
0.000000000000000
 11
122.1000000000636
 21
114.8933842498229
 31
0.000000000000000
  0
LINE
  5
BA
100
AcDbEntity
  8
A1
  6
CONTINUOUS
 62
7
100
AcDbLine
 10
125.8796198896469
 20
33.79810904080275
 30
0.000000000000000
 11
125.8954058863703
 21
33.73919489898324
 31
0.000000000000000
  0
LINE
  5
BB
100
AcDbEntity
  8
A1
  6
CONTINUOUS
 62
7
100
AcDbLine
 10
125.5644621454116
 20
34.97429375468734
 30
0.000000000000000
 11
125.5947256938527
 21
34.86134865428806
 31
0.000000000000000
  0
LINE
  5
BC
100
AcDbEntity
  8
A5
  6
PHANTOM
 62
6
100
AcDbLine
 10
122.1000000000635
 20
104.2364063136384
 30
0.000000000000000
 11
122.1000000000635
 21
109.7364063136385
 31
0.000000000000000
  0
LINE
  5
BD
100
AcDbEntity
  8
A5
  6
PHANTOM
 62
6
100
AcDbLine
 10
122.1000000000633
 20
104.2364063136384
 30
0.000000000000000
 11
123.1000000000633
 21
100.2364063136384
 31
0.000000000000000
  0
LINE
  5
BE
100
AcDbEntity
  8
A5
  6
PHANTOM
 62
6
100
AcDbLine
 10
122.1000000000635
 20
104.2364063136385
 30
0.000000000000000
 11
126.1000000000635
 21
104.2364063136385
 31
0.000000000000000
  0
LINE
  5
BF
100
AcDbEntity
  8
A5
  6
PHANTOM
 62
6
100
AcDbLine
 10
126.1000000000635
 20
104.2364063136385
 30
0.000000000000000
 11
126.1000000000635
 21
109.7364063136385
 31
0.000000000000000
  0
LINE
  5
C0
100
AcDbEntity
  8
A5
  6
PHANTOM
 62
6
100
AcDbLine
 10
126.1000000000634
 20
104.2364063136385
 30
0.000000000000000
 11
125.1000000000634
 21
100.2364063136385
 31
0.000000000000000
  0
LINE
  5
C1
100
AcDbEntity
  8
A5
  6
PHANTOM
 62
6
100
AcDbLine
 10
122.1000000000635
 20
153.2364063137762
 30
0.000000000000000
 11
122.1000000000635
 21
150.3364063137762
 31
0.000000000000000
  0
ARC
  5
C2
100
AcDbEntity
  8
A5
  6
PHANTOM
 62
6
100
AcDbCircle
 10
105.1000000000635
 20
157.2364063137762
 30
0.000000000000000
 40
2.000000000000028
100
AcDbArc
 50
90.00000000000000
 51
270.0000000000000
  0
LINE
  5
C3
100
AcDbEntity
  8
A5
  6
PHANTOM
 62
6
100
AcDbLine
 10
120.1000000000635
 20
159.2364063137762
 30
0.000000000000000
 11
105.1000000000635
 21
159.2364063137762
 31
0.000000000000000
  0
LINE
  5
C4
100
AcDbEntity
  8
A5
  6
PHANTOM
 62
6
100
AcDbLine
 10
120.1000000000635
 20
155.2364063137762
 30
0.000000000000000
 11
105.1000000000635
 21
155.2364063137762
 31
0.000000000000000
  0
ARC
  5
C5
100
AcDbEntity
  8
A5
  6
PHANTOM
 62
6
100
AcDbCircle
 10
120.1000000000635
 20
153.2364063137762
 30
0.000000000000000
 40
2.000000000000000
100
AcDbArc
 50
0.000000000000000
 51
90.00000000000000
  0
ARC
  5
C6
100
AcDbEntity
  8
A5
  6
PHANTOM
 62
6
100
AcDbCircle
 10
120.1000000000635
 20
153.2364063137762
 30
0.000000000000000
 40
6.000000000000000
100
AcDbArc
 50
0.000000000000000
 51
90.00000000000000
  0
ARC
  5
C7
100
AcDbEntity
  8
A1
  6
CONTINUOUS
 62
7
100
AcDbCircle
 10
113.4000000000293
 20
133.2364063136385
 30
0.000000000000000
 40
2.000000000000000
100
AcDbArc
 50
90.00000000000000
 51
180.0000000000000
  0
ARC
  5
C8
100
AcDbEntity
  8
A1
  6
CONTINUOUS
 62
7
100
AcDbCircle
 10
113.4000000000293
 20
105.4364063136384
 30
0.000000000000000
 40
2.000000000000000
100
AcDbArc
 50
180.0000000000000
 51
270.0000000000000
  0
LINE
  5
C9
100
AcDbEntity
  8
A4
  6
CENTER
 62
1
100
AcDbLine
 10
124.1000000001010
 20
41.33640631426249
 30
0.000000000000000
 11
124.1000000001010
 21
31.33640631426246
 31
0.000000000000000
  0
LINE
  5
CA
100
AcDbEntity
  8
A4
  6
CENTER
 62
1
100
AcDbLine
 10
101.6000000001010
 20
36.33640631426249
 30
0.000000000000000
 11
129.1000000001010
 21
36.33640631426249
 31
0.000000000000000
  0
LINE
  5
CB
100
AcDbEntity
  8
A1
  6
CONTINUOUS
 62
7
100
AcDbLine
 10
111.4000000000665
 20
204.4364063142159
 30
0.000000000000000
 11
111.4000000000672
 21
205.4364063142159
 31
0.000000000000000
  0
LINE
  5
CC
100
AcDbEntity
  8
A4
  6
CENTER
 62
1
100
AcDbLine
 10
116.2000000000673
 20
202.9364063142164
 30
0.000000000000000
 11
116.2000000000673
 21
206.9364063142164
 31
0.000000000000000
  0
LINE
  5
CD
100
AcDbEntity
  8
A1
  6
CONTINUOUS
 62
7
100
AcDbLine
 10
124.1000000001010
 20
205.4364063142174
 30
0.000000000000000
 11
111.4000000000675
 21
205.4364063142158
 31
0.000000000000000
  0
LINE
  5
CE
100
AcDbEntity
  8
A1
  6
CONTINUOUS
 62
7
100
AcDbLine
 10
124.1000000001011
 20
204.4364063142174
 30
0.000000000000000
 11
111.4000000000676
 21
204.4364063142158
 31
0.000000000000000
  0
ARC
  5
CF
100
AcDbEntity
  8
A1
  6
CONTINUOUS
 62
7
100
AcDbCircle
 10
124.1000000001010
 20
202.3364063142625
 30
0.000000000000000
 40
2.099999999954932
100
AcDbArc
 50
252.2472098418892
 51
450.0000000000000
  0
LINE
  5
D0
100
AcDbEntity
  8
A1
  6
CONTINUOUS
 62
7
100
AcDbLine
 10
121.9282372855982
 20
204.3364063142625
 30
0.000000000000000
 11
121.8196491499224
 21
204.4364063142172
 31
0.000000000000000
  0
LINE
  5
D1
100
AcDbEntity
  8
A4
  6
CENTER
 62
1
100
AcDbLine
 10
126.3287290421054
 20
204.4911143819707
 30
0.000000000000000
 11
126.3415080001009
 21
204.4984923142625
 31
0.000000000000000
  0
ARC
  5
D2
100
AcDbEntity
  8
A1
  6
CONTINUOUS
 62
7
100
AcDbCircle
 10
124.1000000001010
 20
202.3364063142625
 30
0.000000000000000
 40
2.000000000000000
100
AcDbArc
 50
270.0000000000000
 51
450.0000000000000
  0
ARC
  5
D3
100
AcDbEntity
  8
A1
  6
CONTINUOUS
 62
7
100
AcDbCircle
 10
105.1000000001010
 20
202.3364063142625
 30
0.000000000000000
 40
2.000000000000000
100
AcDbArc
 50
90.00000000000000
 51
270.0000000000000
  0
LINE
  5
D4
100
AcDbEntity
  8
A1
  6
CONTINUOUS
 62
7
100
AcDbLine
 10
124.1000000001010
 20
200.3364063142625
 30
0.000000000000000
 11
105.1000000001010
 21
200.3364063142625
 31
0.000000000000000
  0
LINE
  5
D5
100
AcDbEntity
  8
A1
  6
CONTINUOUS
 62
7
100
AcDbLine
 10
124.1000000001010
 20
204.3364063142625
 30
0.000000000000000
 11
105.1000000001010
 21
204.3364063142625
 31
0.000000000000000
  0
LINE
  5
D6
100
AcDbEntity
  8
A1
  6
CONTINUOUS
 62
7
100
AcDbLine
 10
122.1000000001010
 20
202.3364063142625
 30
0.000000000000000
 11
122.0000000001462
 21
202.3364063142625
 31
0.000000000000000
  0
LINE
  5
D7
100
AcDbEntity
  8
A1
  6
CONTINUOUS
 62
7
100
AcDbLine
 10
124.8874461233268
 20
200.4979481006997
 30
0.000000000000000
 11
124.9135816032673
 21
200.4004091616819
 31
0.000000000000000
  0
LINE
  5
D8
100
AcDbEntity
  8
A1
  6
CONTINUOUS
 62
7
100
AcDbLine
 10
126.1000000001011
 20
202.3364063142625
 30
0.000000000000000
 11
126.2000000000560
 21
202.3364063142625
 31
0.000000000000000
  0
LINE
  5
D9
100
AcDbEntity
  8
A1
  6
CONTINUOUS
 62
7
100
AcDbLine
 10
122.4646164302696
 20
204.3364063142626
 30
0.000000000000000
 11
122.4378215110388
 21
204.4364063142172
 31
0.000000000000000
  0
ARC
  5
DA
100
AcDbEntity
  8
A1
  6
CONTINUOUS
 62
7
100
AcDbCircle
 10
126.1368873429425
 20
204.8689129682660
 30
0.000000000000000
 40
0.2500000000000000
100
AcDbArc
 50
51.19038638764786
 51
164.9999999999921
  0
LINE
  5
DB
100
AcDbEntity
  8
A1
  6
CONTINUOUS
 62
7
100
AcDbLine
 10
125.8796198896470
 20
204.8747035877223
 30
0.000000000000000
 11
125.8954058863703
 21
204.9336177295418
 31
0.000000000000000
  0
LINE
  5
DC
100
AcDbEntity
  8
A1
  6
CONTINUOUS
 62
7
100
AcDbLine
 10
125.5644621454116
 20
203.6985188738377
 30
0.000000000000000
 11
125.5947256938527
 21
203.8114639742370
 31
0.000000000000000
  0
LINE
  5
DD
100
AcDbEntity
  8
A4
  6
CENTER
 62
1
100
AcDbLine
 10
124.1000000001010
 20
197.3364063142625
 30
0.000000000000000
 11
124.1000000001010
 21
207.3364063142626
 31
0.000000000000000
  0
LINE
  5
DE
100
AcDbEntity
  8
A4
  6
CENTER
 62
1
100
AcDbLine
 10
101.6000000001010
 20
202.3364063142625
 30
0.000000000000000
 11
129.1000000001010
 21
202.3364063142625
 31
0.000000000000000
  0
ARC
  5
DF
100
AcDbEntity
  8
A1
  6
CONTINUOUS
 62
7
100
AcDbCircle
 10
124.1000000001010
 20
202.3364063142625
 30
0.000000000000000
 40
3.099999999954889
100
AcDbArc
 50
137.3576900204329
 51
139.8222304591479
  0
ARC
  5
E0
100
AcDbEntity
  8
A1
  6
CONTINUOUS
 62
7
100
AcDbCircle
 10
124.1000000001010
 20
202.3364063142625
 30
0.000000000000000
 40
3.099999999954889
100
AcDbArc
 50
220.1777695408520
 51
450.0000000000000
  0
ARC
  5
E1
100
AcDbEntity
  8
A1
  6
CONTINUOUS
 62
7
100
AcDbCircle
 10
124.1000000001010
 20
202.3364063142625
 30
0.000000000000000
 40
3.500000000000000
100
AcDbArc
 50
143.1301023550855
 51
145.1500954209536
  0
ARC
  5
E2
100
AcDbEntity
  8
A1
  6
CONTINUOUS
 62
7
100
AcDbCircle
 10
124.1000000001010
 20
202.3364063142625
 30
0.000000000000000
 40
3.500000000000000
100
AcDbArc
 50
214.8499045790464
 51
411.1903863876472
  0
CIRCLE
  5
E3
100
AcDbEntity
  8
A1
  6
CONTINUOUS
 62
7
100
AcDbCircle
 10
244.3999999999733
 20
128.8364063133912
 30
0.000000000000000
 40
1.800000000000000
  0
CIRCLE
  5
E4
100
AcDbEntity
  8
A1
  6
CONTINUOUS
 62
7
100
AcDbCircle
 10
244.3999999998895
 20
109.8364063133912
 30
0.000000000000000
 40
1.800000000000000
  0
LINE
  5
E5
100
AcDbEntity
  8
A1
  6
CONTINUOUS
 62
7
100
AcDbLine
 10
233.3999999999956
 20
135.2364063132974
 30
0.000000000000000
 11
247.1999999999958
 21
135.2364063132582
 31
0.000000000000000
  0
LINE
  5
E6
100
AcDbEntity
  8
A4
  6
CENTER
 62
1
100
AcDbLine
 10
247.6999999998895
 20
109.8364063133818
 30
0.000000000000000
 11
241.0999999998896
 21
109.8364063134006
 31
0.000000000000000
  0
LINE
  5
E7
100
AcDbEntity
  8
A1
  6
CONTINUOUS
 62
7
100
AcDbLine
 10
239.8999999998613
 20
103.4364063132790
 30
0.000000000000000
 11
247.1999999999054
 21
103.4364063132582
 31
0.000000000000000
  0
LINE
  5
E8
100
AcDbEntity
  8
A4
  6
CENTER
 62
1
100
AcDbLine
 10
247.6999999999733
 20
128.8364063133818
 30
0.000000000000000
 11
241.0999999999734
 21
128.8364063134005
 31
0.000000000000000
  0
LINE
  5
E9
100
AcDbEntity
  8
A4
  6
CENTER
 62
1
100
AcDbLine
 10
236.5000000000351
 20
142.8364063129355
 30
0.000000000000000
 11
236.4999999997947
 21
88.33640631345469
 31
0.000000000000000
  0
LINE
  5
EA
100
AcDbEntity
  8
A1
  6
CONTINUOUS
 62
7
100
AcDbLine
 10
239.4999999999687
 20
125.7364063132801
 30
0.000000000000000
 11
239.4999999999233
 21
109.7364063132801
 31
0.000000000000000
  0
LINE
  5
EB
100
AcDbEntity
  8
A1
  6
CONTINUOUS
 62
7
100
AcDbLine
 10
233.3999999999231
 20
109.7364063132975
 30
0.000000000000000
 11
233.3999999998961
 21
100.2364063132975
 31
0.000000000000000
  0
LINE
  5
EC
100
AcDbEntity
  8
A1
  6
CONTINUOUS
 62
7
100
AcDbLine
 10
233.3999999998961
 20
100.2364063132975
 30
0.000000000000000
 11
239.8999999998472
 21
100.2364063132790
 31
0.000000000000000
  0
LINE
  5
ED
100
AcDbEntity
  8
A1
  6
CONTINUOUS
 62
7
100
AcDbLine
 10
239.4999999999233
 20
109.7364063132801
 30
0.000000000000000
 11
232.9999999997947
 21
109.7364063132986
 31
0.000000000000000
  0
LINE
  5
EE
100
AcDbEntity
  8
A1
  6
CONTINUOUS
 62
7
100
AcDbLine
 10
233.3999999999956
 20
135.2364063132974
 30
0.000000000000000
 11
233.3999999999686
 21
125.7364063132974
 31
0.000000000000000
  0
LINE
  5
EF
100
AcDbEntity
  8
A1
  6
CONTINUOUS
 62
7
100
AcDbLine
 10
233.3999999999686
 20
125.7364063132974
 30
0.000000000000000
 11
239.4999999999687
 21
125.7364063132801
 31
0.000000000000000
  0
LINE
  5
F0
100
AcDbEntity
  8
A1
  6
CONTINUOUS
 62
7
100
AcDbLine
 10
249.1999999999901
 20
133.2364063132525
 30
0.000000000000000
 11
249.1999999999111
 21
105.4364063132526
 31
0.000000000000000
  0
LINE
  5
F1
100
AcDbEntity
  8
A4
  6
CENTER
 62
1
100
AcDbLine
 10
244.3999999998989
 20
113.1364063133912
 30
0.000000000000000
 11
244.3999999998802
 21
106.5364063133912
 31
0.000000000000000
  0
LINE
  5
F2
100
AcDbEntity
  8
A4
  6
CENTER
 62
1
100
AcDbLine
 10
244.3999999999827
 20
132.1364063133911
 30
0.000000000000000
 11
244.3999999999639
 21
125.5364063133912
 31
0.000000000000000
  0
LINE
  5
F3
100
AcDbEntity
  8
A1
  6
CONTINUOUS
 62
7
100
AcDbLine
 10
239.8999999998472
 20
100.2364063132790
 30
0.000000000000000
 11
239.8999999998614
 21
103.4364063132790
 31
0.000000000000000
  0
LINE
  5
F4
100
AcDbEntity
  8
A1
  6
CONTINUOUS
 62
7
100
AcDbLine
 10
53.10000000006347
 20
135.2364063138098
 30
0.000000000000000
 11
46.90000000009616
 21
135.2364063138274
 31
0.000000000000000
  0
LINE
  5
F5
100
AcDbEntity
  8
A4
  6
CENTER
 62
1
100
AcDbLine
 10
45.40000000003582
 20
109.8364063139590
 30
0.000000000000000
 11
49.40000000003555
 21
109.8364063139476
 31
0.000000000000000
  0
LINE
  5
F6
100
AcDbEntity
  8
A1
  6
CONTINUOUS
 62
7
100
AcDbLine
 10
47.90000000001709
 20
103.4364063138247
 30
0.000000000000000
 11
46.90000000001709
 21
103.4364063138275
 31
0.000000000000000
  0
LINE
  5
F7
100
AcDbEntity
  8
A4
  6
CENTER
 62
1
100
AcDbLine
 10
45.40000000008099
 20
128.8364063139589
 30
0.000000000000000
 11
49.40000000008027
 21
128.8364063139475
 31
0.000000000000000
  0
LINE
  5
F8
100
AcDbEntity
  8
A4
  6
CENTER
 62
1
100
AcDbLine
 10
50.00000000008597
 20
150.3364063137762
 30
0.000000000000000
 11
49.99999999999786
 21
88.33640631388150
 31
0.000000000000000
  0
LINE
  5
F9
100
AcDbEntity
  8
A1
  6
CONTINUOUS
 62
7
100
AcDbLine
 10
53.09999999999099
 20
109.7364063138099
 30
0.000000000000000
 11
53.09999999996399
 21
100.2364063138099
 31
0.000000000000000
  0
LINE
  5
FA
100
AcDbEntity
  8
A1
  6
CONTINUOUS
 62
7
100
AcDbLine
 10
46.90000000009619
 20
135.2364063138275
 30
0.000000000000000
 11
46.90000000001300
 21
100.2364063138275
 31
0.000000000000000
  0
LINE
  5
FB
100
AcDbEntity
  8
A1
  6
CONTINUOUS
 62
7
100
AcDbLine
 10
53.09999999996399
 20
100.2364063138099
 30
0.000000000000000
 11
46.90000000001312
 21
100.2364063138275
 31
0.000000000000000
  0
LINE
  5
FC
100
AcDbEntity
  8
A1
  6
CONTINUOUS
 62
7
100
AcDbLine
 10
53.10000000006347
 20
135.2364063138098
 30
0.000000000000000
 11
53.10000000003647
 21
125.7364063138098
 31
0.000000000000000
  0
LINE
  5
FD
100
AcDbEntity
  8
A1
  6
CONTINUOUS
 62
7
100
AcDbLine
 10
53.10000000003647
 20
125.7364063138098
 30
0.000000000000000
 11
47.90000000007309
 21
125.7364063138246
 31
0.000000000000000
  0
LINE
  5
FE
100
AcDbEntity
  8
A1
  6
CONTINUOUS
 62
7
100
AcDbLine
 10
47.90000000009533
 20
135.2364063138247
 30
0.000000000000000
 11
47.90000000001297
 21
100.2364063138247
 31
0.000000000000000
  0
LINE
  5
FF
100
AcDbEntity
  8
A1
  6
CONTINUOUS
 62
7
100
AcDbLine
 10
47.90000000003540
 20
109.7364063138247
 30
0.000000000000000
 11
53.49999999999996
 21
109.7364063138088
 31
0.000000000000000
  0
ARC
  5
100
100
AcDbEntity
  8
A1
  6
CONTINUOUS
 62
7
100
AcDbCircle
 10
247.1999999999900
 20
133.2364063132582
 30
0.000000000000000
 40
2.000000000000000
100
AcDbArc
 50
0.000000000000000
 51
90.00000000000000
  0
ARC
  5
101
100
AcDbEntity
  8
A1
  6
CONTINUOUS
 62
7
100
AcDbCircle
 10
247.1999999999110
 20
105.4364063132583
 30
0.000000000000000
 40
2.000000000000000
100
AcDbArc
 50
270.0000000000000
 51
360.0000000000000
  0
LINE
  5
102
100
AcDbEntity
  8
A1
  6
CONTINUOUS
 62
7
100
AcDbLine
 10
52.00000000001474
 20
93.83640631377608
 30
0.000000000000000
 11
52.00000000001474
 21
100.2364063136384
 31
0.000000000000000
  0
LINE
  5
103
100
AcDbEntity
  8
A1
  6
CONTINUOUS
 62
7
100
AcDbLine
 10
52.00000000001474
 20
93.83640631377619
 30
0.000000000000000
 11
48.00000000001477
 21
93.83640631377619
 31
0.000000000000000
  0
LINE
  5
104
100
AcDbEntity
  8
A1
  6
CONTINUOUS
 62
7
100
AcDbLine
 10
52.00000000001489
 20
93.83640631377617
 30
0.000000000000000
 11
51.00000000001489
 21
89.83640631377617
 31
0.000000000000000
  0
LINE
  5
105
100
AcDbEntity
  8
A1
  6
CONTINUOUS
 62
7
100
AcDbLine
 10
51.00000000001482
 20
89.83640631377619
 30
0.000000000000000
 11
49.00000000001482
 21
89.83640631377619
 31
0.000000000000000
  0
LINE
  5
106
100
AcDbEntity
  8
A1
  6
CONTINUOUS
 62
7
100
AcDbLine
 10
48.00000000001482
 20
93.83640631377619
 30
0.000000000000000
 11
49.00000000001482
 21
89.83640631377619
 31
0.000000000000000
  0
LINE
  5
107
100
AcDbEntity
  8
A1
  6
CONTINUOUS
 62
7
100
AcDbLine
 10
48.00000000001477
 20
93.83640631377619
 30
0.000000000000000
 11
48.00000000001477
 21
100.2364063136384
 31
0.000000000000000
  0
LINE
  5
108
100
AcDbEntity
  8
A1
  6
CONTINUOUS
 62
7
100
AcDbLine
 10
238.4999999998471
 20
93.83640631324602
 30
0.000000000000000
 11
238.4999999998471
 21
100.2364063131084
 31
0.000000000000000
  0
LINE
  5
109
100
AcDbEntity
  8
A1
  6
CONTINUOUS
 62
7
100
AcDbLine
 10
238.4999999998471
 20
93.83640631324613
 30
0.000000000000000
 11
234.4999999998471
 21
93.83640631324613
 31
0.000000000000000
  0
LINE
  5
10A
100
AcDbEntity
  8
A1
  6
CONTINUOUS
 62
7
100
AcDbLine
 10
238.4999999998473
 20
93.83640631324603
 30
0.000000000000000
 11
237.4999999998473
 21
89.83640631324603
 31
0.000000000000000
  0
LINE
  5
10B
100
AcDbEntity
  8
A1
  6
CONTINUOUS
 62
7
100
AcDbLine
 10
237.4999999998472
 20
89.83640631324613
 30
0.000000000000000
 11
235.4999999998472
 21
89.83640631324613
 31
0.000000000000000
  0
LINE
  5
10C
100
AcDbEntity
  8
A1
  6
CONTINUOUS
 62
7
100
AcDbLine
 10
234.4999999998472
 20
93.83640631324613
 30
0.000000000000000
 11
235.4999999998472
 21
89.83640631324613
 31
0.000000000000000
  0
LINE
  5
10D
100
AcDbEntity
  8
A1
  6
CONTINUOUS
 62
7
100
AcDbLine
 10
234.4999999998471
 20
93.83640631324613
 30
0.000000000000000
 11
234.4999999998471
 21
100.2364063131084
 31
0.000000000000000
  0
LINE
  5
10E
100
AcDbEntity
  8
A1
  6
CONTINUOUS
 62
7
100
AcDbLine
 10
238.5000000000016
 20
135.2364063129037
 30
0.000000000000000
 11
238.5000000000686
 21
142.8364063130415
 31
0.000000000000000
  0
LINE
  5
10F
100
AcDbEntity
  8
A1
  6
CONTINUOUS
 62
7
100
AcDbLine
 10
234.5000000000016
 20
135.2364063129390
 30
0.000000000000000
 11
234.5000000000687
 21
142.8364063130768
 31
0.000000000000000
  0
ARC
  5
110
100
AcDbEntity
  8
A1
  6
CONTINUOUS
 62
7
100
AcDbCircle
 10
240.5000000000686
 20
142.8364063130238
 30
0.000000000000000
 40
6.000000000000000
100
AcDbArc
 50
89.99999999949448
 51
179.9999999994945
  0
ARC
  5
111
100
AcDbEntity
  8
A4
  6
CENTER
 62
1
100
AcDbCircle
 10
240.5000000000686
 20
142.8364063129178
 30
0.000000000000000
 40
4.000000000000000
100
AcDbArc
 50
89.99999999949448
 51
179.9999999994945
  0
ARC
  5
112
100
AcDbEntity
  8
A1
  6
CONTINUOUS
 62
7
100
AcDbCircle
 10
240.5000000000686
 20
142.8364063130238
 30
0.000000000000000
 40
2.000000000000000
100
AcDbArc
 50
89.99999999949448
 51
179.9999999994945
  0
LINE
  5
113
100
AcDbEntity
  8
A1
  6
CONTINUOUS
 62
7
100
AcDbLine
 10
240.5000000000863
 20
144.8364063130238
 30
0.000000000000000
 11
255.5000000000863
 21
144.8364063128915
 31
0.000000000000000
  0
LINE
  5
114
100
AcDbEntity
  8
A4
  6
CENTER
 62
1
100
AcDbLine
 10
240.5000000001039
 20
146.8364063129178
 30
0.000000000000000
 11
259.0000000001040
 21
146.8364063127546
 31
0.000000000000000
  0
LINE
  5
115
100
AcDbEntity
  8
A1
  6
CONTINUOUS
 62
7
100
AcDbLine
 10
240.5000000001215
 20
148.8364063130238
 30
0.000000000000000
 11
255.5000000001215
 21
148.8364063128915
 31
0.000000000000000
  0
ARC
  5
116
100
AcDbEntity
  8
A1
  6
CONTINUOUS
 62
7
100
AcDbCircle
 10
255.5000000001039
 20
146.8364063128915
 30
0.000000000000000
 40
2.000000000000028
100
AcDbArc
 50
269.9999999994945
 51
449.9999999994944
  0
LINE
  5
117
100
AcDbEntity
  8
A1
  6
CONTINUOUS
 62
7
100
AcDbLine
 10
177.2000000000284
 20
135.2364063134571
 30
0.000000000000000
 11
183.3999999999956
 21
135.2364063134395
 31
0.000000000000000
  0
LINE
  5
118
100
AcDbEntity
  8
A4
  6
CENTER
 62
1
100
AcDbLine
 10
184.8999999999116
 20
109.8364063135625
 30
0.000000000000000
 11
180.8999999999119
 21
109.8364063135739
 31
0.000000000000000
  0
LINE
  5
119
100
AcDbEntity
  8
A4
  6
CENTER
 62
1
100
AcDbLine
 10
184.8999999999744
 20
128.8364063135624
 30
0.000000000000000
 11
180.8999999999752
 21
128.8364063135738
 31
0.000000000000000
  0
LINE
  5
11A
100
AcDbEntity
  8
A4
  6
CENTER
 62
1
100
AcDbLine
 10
180.3000000000916
 20
150.3364063137762
 30
0.000000000000000
 11
180.2999999998273
 21
88.33640631351116
 31
0.000000000000000
  0
LINE
  5
11B
100
AcDbEntity
  8
A1
  6
CONTINUOUS
 62
7
100
AcDbLine
 10
177.1999999999559
 20
109.7364063134572
 30
0.000000000000000
 11
177.1999999999289
 21
100.2364063134572
 31
0.000000000000000
  0
LINE
  5
11C
100
AcDbEntity
  8
A1
  6
CONTINUOUS
 62
7
100
AcDbLine
 10
183.3999999999956
 20
135.2364063134395
 30
0.000000000000000
 11
183.3999999998798
 21
100.2364063134396
 31
0.000000000000000
  0
LINE
  5
11D
100
AcDbEntity
  8
A1
  6
CONTINUOUS
 62
7
100
AcDbLine
 10
177.1999999999289
 20
100.2364063134572
 30
0.000000000000000
 11
183.3999999998798
 21
100.2364063134396
 31
0.000000000000000
  0
LINE
  5
11E
100
AcDbEntity
  8
A1
  6
CONTINUOUS
 62
7
100
AcDbLine
 10
177.2000000000284
 20
135.2364063134571
 30
0.000000000000000
 11
177.2000000000014
 21
125.7364063134571
 31
0.000000000000000
  0
LINE
  5
11F
100
AcDbEntity
  8
A1
  6
CONTINUOUS
 62
7
100
AcDbLine
 10
177.2000000000014
 20
125.7364063134571
 30
0.000000000000000
 11
183.3999999999642
 21
125.7364063134395
 31
0.000000000000000
  0
LINE
  5
120
100
AcDbEntity
  8
A1
  6
CONTINUOUS
 62
7
100
AcDbLine
 10
183.3999999999112
 20
109.7364063134396
 30
0.000000000000000
 11
176.7999999998273
 21
109.7364063134583
 31
0.000000000000000
  0
LINE
  5
121
100
AcDbEntity
  8
A1
  6
CONTINUOUS
 62
7
100
AcDbLine
 10
178.2999999998417
 20
93.83640631341711
 30
0.000000000000000
 11
178.2999999998781
 21
100.2364063132795
 31
0.000000000000000
  0
LINE
  5
122
100
AcDbEntity
  8
A1
  6
CONTINUOUS
 62
7
100
AcDbLine
 10
178.2999999998417
 20
93.83640631341723
 30
0.000000000000000
 11
182.2999999998417
 21
93.83640631339449
 31
0.000000000000000
  0
LINE
  5
123
100
AcDbEntity
  8
A1
  6
CONTINUOUS
 62
7
100
AcDbLine
 10
178.2999999998416
 20
93.83640631341720
 30
0.000000000000000
 11
179.2999999998190
 21
89.83640631341152
 31
0.000000000000000
  0
LINE
  5
124
100
AcDbEntity
  8
A1
  6
CONTINUOUS
 62
7
100
AcDbLine
 10
179.2999999998189
 20
89.83640631341154
 30
0.000000000000000
 11
181.2999999998189
 21
89.83640631340018
 31
0.000000000000000
  0
LINE
  5
125
100
AcDbEntity
  8
A1
  6
CONTINUOUS
 62
7
100
AcDbLine
 10
182.2999999998416
 20
93.83640631339449
 30
0.000000000000000
 11
181.2999999998189
 21
89.83640631340020
 31
0.000000000000000
  0
LINE
  5
126
100
AcDbEntity
  8
A1
  6
CONTINUOUS
 62
7
100
AcDbLine
 10
182.2999999998417
 20
93.83640631339449
 30
0.000000000000000
 11
182.2999999998781
 21
100.2364063132567
 31
0.000000000000000
  0
LINE
  5
127
100
AcDbEntity
  8
A1
  6
CONTINUOUS
 62
7
100
AcDbLine
 10
182.2999999998781
 20
135.2364063134426
 30
0.000000000000000
 11
182.2999999998781
 21
146.8364063137762
 31
0.000000000000000
  0
LINE
  5
128
100
AcDbEntity
  8
A1
  6
CONTINUOUS
 62
7
100
AcDbLine
 10
178.2999999998781
 20
135.2364063134540
 30
0.000000000000000
 11
178.2999999998781
 21
146.8364063137762
 31
0.000000000000000
  0
ARC
  5
129
100
AcDbEntity
  8
A1
  6
CONTINUOUS
 62
7
100
AcDbCircle
 10
180.2999999998781
 20
146.8364063137762
 30
0.000000000000000
 40
2.000000000000028
100
AcDbArc
 50
0.000000000000000
 51
180.0000000000000
  0
LINE
  5
12A
100
AcDbEntity
  8
A1
  6
CONTINUOUS
 62
7
100
AcDbLine
 10
47.99999999991536
 20
135.2364063138243
 30
0.000000000000000
 11
47.99999999991536
 21
146.8364063141466
 31
0.000000000000000
  0
CIRCLE
  5
12B
100
AcDbEntity
  8
A1
  6
CONTINUOUS
 62
7
100
AcDbCircle
 10
49.99999999991533
 20
146.8364063141466
 30
0.000000000000000
 40
2.000000000000028
  0
LINE
  5
12C
100
AcDbEntity
  8
A1
  6
CONTINUOUS
 62
7
100
AcDbLine
 10
51.99999999991530
 20
135.2364063138129
 30
0.000000000000000
 11
51.99999999991530
 21
146.8364063141466
 31
0.000000000000000
  0
LINE
  5
12D
100
AcDbEntity
  8
A5
  6
PHANTOM
 62
6
100
AcDbLine
 10
126.1000000000635
 20
153.2364063137762
 30
0.000000000000000
 11
126.1000000000635
 21
150.3364063137762
 31
0.000000000000000
  0
LINE
  5
12E
100
AcDbEntity
  8
A1
  6
CONTINUOUS
 62
7
100
AcDbLine
 10
176.7999999998273
 20
110.3364063136385
 30
0.000000000000000
 11
183.0825066538308
 21
110.3364063136385
 31
0.000000000000000
  0
LINE
  5
12F
100
AcDbEntity
  8
A1
  6
CONTINUOUS
 62
7
100
AcDbLine
 10
53.50000000000000
 20
110.3364063136385
 30
0.000000000000000
 11
47.90000000003674
 21
110.3364063136385
 31
0.000000000000000
  0
LINE
  5
130
100
AcDbEntity
  8
A1
  6
CONTINUOUS
 62
7
100
AcDbLine
 10
183.0825066538308
 20
109.7364063134405
 30
0.000000000000000
 11
183.0825066538308
 21
110.3364063136385
 31
0.000000000000000
  0
LINE
  5
131
100
AcDbEntity
  8
A1
  6
CONTINUOUS
 62
7
100
AcDbLine
 10
176.7999999998273
 20
109.7364063134583
 30
0.000000000000000
 11
176.7999999998273
 21
110.3364063136385
 31
0.000000000000000
  0
LINE
  5
132
100
AcDbEntity
  8
A1
  6
CONTINUOUS
 62
7
100
AcDbLine
 10
53.49999999999996
 20
109.7364063138088
 30
0.000000000000000
 11
53.50000000000000
 21
110.3364063136396
 31
0.000000000000000
  0
LINE
  5
133
100
AcDbEntity
  8
A1
  6
CONTINUOUS
 62
7
100
AcDbLine
 10
51.52500000002867
 20
110.3364063136386
 30
0.000000000000000
 11
51.52500000002858
 21
110.4364063136387
 31
0.000000000000000
  0
LINE
  5
134
100
AcDbEntity
  8
A1
  6
CONTINUOUS
 62
7
100
AcDbLine
 10
52.00000000002915
 20
110.4364063136385
 30
0.000000000000000
 11
48.59800142656356
 21
110.4364063136385
 31
0.000000000000000
  0
CIRCLE
  5
135
100
AcDbEntity
  8
A1
  6
CONTINUOUS
 62
7
100
AcDbCircle
 10
52.35000000002917
 20
110.5864063136384
 30
0.000000000000000
 40
0.2500000000000000
  0
LINE
  5
136
100
AcDbEntity
  8
A1
  6
CONTINUOUS
 62
7
100
AcDbLine
 10
47.90000000003680
 20
110.3617270550711
 30
0.000000000000000
 11
52.37659574470995
 21
110.8406785849867
 31
0.000000000000000
  0
LINE
  5
137
100
AcDbEntity
  8
A1
  6
CONTINUOUS
 62
7
100
AcDbLine
 10
47.90000000003798
 20
110.8645806337715
 30
0.000000000000000
 11
52.32340425534827
 21
111.3378411996909
 31
0.000000000000000
  0
ARC
  5
138
100
AcDbEntity
  8
A1
  6
CONTINUOUS
 62
7
100
AcDbCircle
 10
52.35000000002911
 20
111.0892598923388
 30
0.000000000000000
 40
0.2500000000000000
100
AcDbArc
 50
276.1068517298650
 51
456.1068517298651
  0
ARC
  5
139
100
AcDbEntity
  8
A1
  6
CONTINUOUS
 62
7
100
AcDbCircle
 10
52.35000000002911
 20
124.9835527349382
 30
0.000000000000000
 40
0.2500000000000000
100
AcDbArc
 50
286.4689045267050
 51
466.4689045272270
  0
ARC
  5
13A
100
AcDbEntity
  8
A1
  6
CONTINUOUS
 62
7
100
AcDbCircle
 10
52.35000000002911
 20
125.4864063136385
 30
0.000000000000000
 40
0.2500000000000071
100
AcDbArc
 50
270.0000000000000
 51
450.0000000000000
  0
LINE
  5
13B
100
AcDbEntity
  8
A1
  6
CONTINUOUS
 62
7
100
AcDbLine
 10
47.90000000007180
 20
125.2364063136385
 30
0.000000000000000
 11
52.35000000002920
 21
125.2364063136385
 31
0.000000000000000
  0
ARC
  5
13C
100
AcDbEntity
  8
A1
  6
CONTINUOUS
 62
7
100
AcDbCircle
 10
52.35000000002911
 20
122.2046941664183
 30
0.000000000000000
 40
0.2500000000000355
100
AcDbArc
 50
286.4689045272266
 51
466.4689045266888
  0
ARC
  5
13D
100
AcDbEntity
  8
A1
  6
CONTINUOUS
 62
7
100
AcDbCircle
 10
52.35000000002911
 20
119.4258355978984
 30
0.000000000000000
 40
0.2500000000000355
100
AcDbArc
 50
286.4689045272250
 51
466.4689045266748
  0
ARC
  5
13E
100
AcDbEntity
  8
A1
  6
CONTINUOUS
 62
7
100
AcDbCircle
 10
52.35000000002911
 20
116.6469770293785
 30
0.000000000000000
 40
0.2500000000000355
100
AcDbArc
 50
286.4689045272235
 51
466.4689045266605
  0
ARC
  5
13F
100
AcDbEntity
  8
A1
  6
CONTINUOUS
 62
7
100
AcDbCircle
 10
52.35000000002911
 20
113.8681184608586
 30
0.000000000000000
 40
0.2500000000000355
100
AcDbArc
 50
286.4689045272220
 51
466.4689045266497
  0
LINE
  5
140
100
AcDbEntity
  8
A1
  6
CONTINUOUS
 62
7
100
AcDbLine
 10
52.27912626657860
 20
125.2232961684391
 30
0.000000000000000
 11
47.90000000006873
 21
123.9287246207138
 31
0.000000000000000
  0
LINE
  5
141
100
AcDbEntity
  8
A1
  6
CONTINUOUS
 62
7
100
AcDbLine
 10
47.90000000006749
 20
123.4073339066318
 30
0.000000000000000
 11
52.42087373347973
 21
124.7438093014374
 31
0.000000000000000
  0
LINE
  5
142
100
AcDbEntity
  8
A1
  6
CONTINUOUS
 62
7
100
AcDbLine
 10
52.37659574470997
 20
125.2321340422903
 30
0.000000000000000
 11
52.33666428913970
 21
125.2364063136384
 31
0.000000000000000
  0
LINE
  5
143
100
AcDbEntity
  8
A1
  6
CONTINUOUS
 62
7
100
AcDbLine
 10
52.00000000002920
 20
122.5688576616665
 30
0.000000000000000
 11
52.42087373347816
 21
122.4444375999197
 31
0.000000000000000
  0
LINE
  5
144
100
AcDbEntity
  8
A1
  6
CONTINUOUS
 62
7
100
AcDbLine
 10
52.00000000002922
 20
117.0111405246310
 30
0.000000000000000
 11
52.42087373347820
 21
116.8867204628799
 31
0.000000000000000
  0
LINE
  5
145
100
AcDbEntity
  8
A1
  6
CONTINUOUS
 62
7
100
AcDbLine
 10
52.00000000002916
 20
114.2322819561112
 30
0.000000000000000
 11
52.42087373347815
 21
114.1078618943600
 31
0.000000000000000
  0
LINE
  5
146
100
AcDbEntity
  8
A1
  6
CONTINUOUS
 62
7
100
AcDbLine
 10
52.27912626657857
 20
122.4444375999191
 30
0.000000000000000
 11
47.90000000006216
 21
121.1498660522367
 31
0.000000000000000
  0
LINE
  5
147
100
AcDbEntity
  8
A1
  6
CONTINUOUS
 62
7
100
AcDbLine
 10
52.42087373347966
 20
121.9649507329174
 30
0.000000000000000
 11
47.90000000006096
 21
120.6284753380651
 31
0.000000000000000
  0
LINE
  5
148
100
AcDbEntity
  8
A1
  6
CONTINUOUS
 62
7
100
AcDbLine
 10
52.27912626657874
 20
119.6655790313993
 30
0.000000000000000
 11
47.90000000005566
 21
118.3710074837160
 31
0.000000000000000
  0
LINE
  5
149
100
AcDbEntity
  8
A1
  6
CONTINUOUS
 62
7
100
AcDbLine
 10
47.90000000005440
 20
117.8496167695436
 30
0.000000000000000
 11
52.42087373347965
 21
119.1860921643976
 31
0.000000000000000
  0
LINE
  5
14A
100
AcDbEntity
  8
A1
  6
CONTINUOUS
 62
7
100
AcDbLine
 10
52.27912626657853
 20
116.8867204628795
 30
0.000000000000000
 11
47.90000000004909
 21
115.5921489151955
 31
0.000000000000000
  0
LINE
  5
14B
100
AcDbEntity
  8
A1
  6
CONTINUOUS
 62
7
100
AcDbLine
 10
47.90000000004787
 20
115.0707582010218
 30
0.000000000000000
 11
52.42087373347957
 21
116.4072335958776
 31
0.000000000000000
  0
LINE
  5
14C
100
AcDbEntity
  8
A1
  6
CONTINUOUS
 62
7
100
AcDbLine
 10
52.27912626657863
 20
114.1078618943596
 30
0.000000000000000
 11
47.90000000004257
 21
112.8132903466749
 31
0.000000000000000
  0
LINE
  5
14D
100
AcDbEntity
  8
A1
  6
CONTINUOUS
 62
7
100
AcDbLine
 10
47.90000000004136
 20
112.2918996325000
 30
0.000000000000000
 11
52.42087373347967
 21
113.6283750273577
 31
0.000000000000000
  0
LINE
  5
14E
100
AcDbEntity
  8
A1
  6
CONTINUOUS
 62
7
100
AcDbLine
 10
52.00000000002917
 20
111.4534233875914
 30
0.000000000000000
 11
52.42087373347815
 21
111.3290033258400
 31
0.000000000000000
  0
LINE
  5
14F
100
AcDbEntity
  8
A1
  6
CONTINUOUS
 62
7
100
AcDbLine
 10
52.00000000002915
 20
110.4364063136385
 30
0.000000000000000
 11
52.00000000002915
 21
110.8003865598940
 31
0.000000000000000
  0
LINE
  5
150
100
AcDbEntity
  8
A1
  6
CONTINUOUS
 62
7
100
AcDbLine
 10
52.00000000002915
 20
111.3032401385942
 30
0.000000000000000
 11
52.00000000002915
 21
113.5039549656033
 31
0.000000000000000
  0
LINE
  5
151
100
AcDbEntity
  8
A1
  6
CONTINUOUS
 62
7
100
AcDbLine
 10
52.00000000002915
 20
114.0253456797330
 30
0.000000000000000
 11
52.00000000002915
 21
116.2828135341231
 31
0.000000000000000
  0
LINE
  5
152
100
AcDbEntity
  8
A1
  6
CONTINUOUS
 62
7
100
AcDbLine
 10
52.00000000002915
 20
116.8042042482528
 30
0.000000000000000
 11
52.00000000002915
 21
119.0616721026431
 31
0.000000000000000
  0
LINE
  5
153
100
AcDbEntity
  8
A1
  6
CONTINUOUS
 62
7
100
AcDbLine
 10
52.00000000002915
 20
119.5830628167726
 30
0.000000000000000
 11
52.00000000002915
 21
121.8405306711629
 31
0.000000000000000
  0
LINE
  5
154
100
AcDbEntity
  8
A1
  6
CONTINUOUS
 62
7
100
AcDbLine
 10
52.00000000002915
 20
122.3619213852923
 30
0.000000000000000
 11
52.00000000002915
 21
124.6193892396870
 31
0.000000000000000
  0
LINE
  5
155
100
AcDbEntity
  8
A1
  6
CONTINUOUS
 62
7
100
AcDbLine
 10
52.00000000002915
 20
125.1407799538094
 30
0.000000000000000
 11
52.00000000002915
 21
125.2364063136384
 31
0.000000000000000
  0
LINE
  5
156
100
AcDbEntity
  8
A1
  6
CONTINUOUS
 62
7
100
AcDbLine
 10
52.00000000002915
 20
119.7899990931508
 30
0.000000000000000
 11
52.42087373347810
 21
119.6655790313997
 31
0.000000000000000
  0
LINE
  5
157
100
AcDbEntity
  8
A1
  6
CONTINUOUS
 62
7
100
AcDbLine
 10
48.47500000002929
 20
110.3364063136384
 30
0.000000000000000
 11
48.47500000002930
 21
110.4232463758686
 31
0.000000000000000
  0
LINE
  5
158
100
AcDbEntity
  8
A1
  6
CONTINUOUS
 62
7
100
AcDbLine
 10
47.90000000004100
 20
112.1440880064953
 30
0.000000000000000
 11
48.00000000002915
 21
112.1145256813028
 31
0.000000000000000
  0
LINE
  5
159
100
AcDbEntity
  8
A1
  6
CONTINUOUS
 62
7
100
AcDbLine
 10
48.00000000002917
 20
110.8752796460834
 30
0.000000000000000
 11
48.00000000002917
 21
112.3214619576942
 31
0.000000000000000
  0
LINE
  5
15A
100
AcDbEntity
  8
A1
  6
CONTINUOUS
 62
7
100
AcDbLine
 10
48.00000000002917
 20
112.8428526718674
 30
0.000000000000000
 11
48.00000000002917
 21
115.1003205262140
 31
0.000000000000000
  0
LINE
  5
15B
100
AcDbEntity
  8
A1
  6
CONTINUOUS
 62
7
100
AcDbLine
 10
48.00000000002917
 20
115.6217112403863
 30
0.000000000000000
 11
48.00000000002917
 21
117.8791790947336
 31
0.000000000000000
  0
LINE
  5
15C
100
AcDbEntity
  8
A1
  6
CONTINUOUS
 62
7
100
AcDbLine
 10
48.00000000002917
 20
118.4005698089050
 30
0.000000000000000
 11
48.00000000002917
 21
120.6580376632534
 31
0.000000000000000
  0
LINE
  5
15D
100
AcDbEntity
  8
A1
  6
CONTINUOUS
 62
7
100
AcDbLine
 10
48.00000000002917
 20
121.1794283774237
 30
0.000000000000000
 11
48.00000000002917
 21
123.4368962318172
 31
0.000000000000000
  0
LINE
  5
15E
100
AcDbEntity
  8
A1
  6
CONTINUOUS
 62
7
100
AcDbLine
 10
48.00000000002917
 20
123.9582869458998
 30
0.000000000000000
 11
48.00000000002917
 21
125.2364063136385
 31
0.000000000000000
  0
LINE
  5
15F
100
AcDbEntity
  8
A1
  6
CONTINUOUS
 62
7
100
AcDbLine
 10
47.90000000007171
 20
125.2082319935017
 30
0.000000000000000
 11
48.00000000002914
 21
125.1975329811935
 31
0.000000000000000
  0
LINE
  5
160
100
AcDbEntity
  8
A1
  6
CONTINUOUS
 62
7
100
AcDbLine
 10
47.90000000006714
 20
123.2595222806116
 30
0.000000000000000
 11
48.00000000002920
 21
123.2299599554258
 31
0.000000000000000
  0
LINE
  5
161
100
AcDbEntity
  8
A1
  6
CONTINUOUS
 62
7
100
AcDbLine
 10
47.90000000006060
 20
120.4806637120497
 30
0.000000000000000
 11
48.00000000002918
 21
120.4511013868629
 31
0.000000000000000
  0
LINE
  5
162
100
AcDbEntity
  8
A1
  6
CONTINUOUS
 62
7
100
AcDbLine
 10
47.90000000005406
 20
117.7018051435316
 30
0.000000000000000
 11
48.00000000002918
 21
117.6722428183430
 31
0.000000000000000
  0
LINE
  5
163
100
AcDbEntity
  8
A1
  6
CONTINUOUS
 62
7
100
AcDbLine
 10
47.90000000004751
 20
114.9229465750135
 30
0.000000000000000
 11
48.00000000002918
 21
114.8933842498229
 31
0.000000000000000
  0
LINE
  5
164
100
AcDbEntity
  8
A1
  6
CONTINUOUS
 62
7
100
AcDbLine
 10
181.8249999999206
 20
110.3364063136386
 30
0.000000000000000
 11
181.8249999999205
 21
110.4364063136387
 31
0.000000000000000
  0
LINE
  5
165
100
AcDbEntity
  8
A1
  6
CONTINUOUS
 62
7
100
AcDbLine
 10
182.2999999999211
 20
110.4364063136385
 30
0.000000000000000
 11
178.8980014264556
 21
110.4364063136385
 31
0.000000000000000
  0
CIRCLE
  5
166
100
AcDbEntity
  8
A1
  6
CONTINUOUS
 62
7
100
AcDbCircle
 10
182.6499999999211
 20
110.5864063136384
 30
0.000000000000000
 40
0.2500000000000000
  0
LINE
  5
167
100
AcDbEntity
  8
A1
  6
CONTINUOUS
 62
7
100
AcDbLine
 10
177.9765957446019
 20
110.3378250062864
 30
0.000000000000000
 11
182.6765957446020
 21
110.8406785849867
 31
0.000000000000000
  0
LINE
  5
168
100
AcDbEntity
  8
A1
  6
CONTINUOUS
 62
7
100
AcDbLine
 10
177.9234042552403
 20
110.8349876209906
 30
0.000000000000000
 11
182.6234042552403
 21
111.3378411996909
 31
0.000000000000000
  0
ARC
  5
169
100
AcDbEntity
  8
A1
  6
CONTINUOUS
 62
7
100
AcDbCircle
 10
182.6499999999211
 20
111.0892598923388
 30
0.000000000000000
 40
0.2500000000000000
100
AcDbArc
 50
276.1068517298650
 51
456.1068517298651
  0
ARC
  5
16A
100
AcDbEntity
  8
A1
  6
CONTINUOUS
 62
7
100
AcDbCircle
 10
182.6499999999211
 20
124.9835527349382
 30
0.000000000000000
 40
0.2500000000000000
100
AcDbArc
 50
286.4689045267050
 51
466.4689045272270
  0
ARC
  5
16B
100
AcDbEntity
  8
A1
  6
CONTINUOUS
 62
7
100
AcDbCircle
 10
182.6499999999211
 20
125.4864063136385
 30
0.000000000000000
 40
0.2500000000000071
100
AcDbArc
 50
270.0000000000000
 51
450.0000000000000
  0
LINE
  5
16C
100
AcDbEntity
  8
A1
  6
CONTINUOUS
 62
7
100
AcDbLine
 10
177.9499999999211
 20
125.2364063136385
 30
0.000000000000000
 11
182.6499999999212
 21
125.2364063136385
 31
0.000000000000000
  0
ARC
  5
16D
100
AcDbEntity
  8
A1
  6
CONTINUOUS
 62
7
100
AcDbCircle
 10
182.6499999999211
 20
122.2046941664183
 30
0.000000000000000
 40
0.2500000000000355
100
AcDbArc
 50
286.4689045272266
 51
466.4689045266888
  0
ARC
  5
16E
100
AcDbEntity
  8
A1
  6
CONTINUOUS
 62
7
100
AcDbCircle
 10
182.6499999999211
 20
119.4258355978984
 30
0.000000000000000
 40
0.2500000000000355
100
AcDbArc
 50
286.4689045272250
 51
466.4689045266748
  0
ARC
  5
16F
100
AcDbEntity
  8
A1
  6
CONTINUOUS
 62
7
100
AcDbCircle
 10
182.6499999999211
 20
116.6469770293785
 30
0.000000000000000
 40
0.2500000000000355
100
AcDbArc
 50
286.4689045272235
 51
466.4689045266605
  0
ARC
  5
170
100
AcDbEntity
  8
A1
  6
CONTINUOUS
 62
7
100
AcDbCircle
 10
182.6499999999211
 20
113.8681184608586
 30
0.000000000000000
 40
0.2500000000000355
100
AcDbArc
 50
286.4689045272220
 51
466.4689045266497
  0
LINE
  5
171
100
AcDbEntity
  8
A1
  6
CONTINUOUS
 62
7
100
AcDbLine
 10
182.5791262664706
 20
125.2232961684390
 30
0.000000000000000
 11
177.8791262664545
 21
123.8338668841405
 31
0.000000000000000
  0
LINE
  5
172
100
AcDbEntity
  8
A1
  6
CONTINUOUS
 62
7
100
AcDbLine
 10
178.0208737333430
 20
123.3543800171819
 30
0.000000000000000
 11
182.7208737333717
 21
124.7438093014374
 31
0.000000000000000
  0
LINE
  5
173
100
AcDbEntity
  8
A1
  6
CONTINUOUS
 62
7
100
AcDbLine
 10
182.6765957446019
 20
125.2321340422903
 30
0.000000000000000
 11
182.6366642890317
 21
125.2364063136384
 31
0.000000000000000
  0
LINE
  5
174
100
AcDbEntity
  8
A1
  6
CONTINUOUS
 62
7
100
AcDbLine
 10
182.2999999999212
 20
122.5688576616666
 30
0.000000000000000
 11
182.7208737333702
 21
122.4444375999198
 31
0.000000000000000
  0
LINE
  5
175
100
AcDbEntity
  8
A1
  6
CONTINUOUS
 62
7
100
AcDbLine
 10
182.2999999999212
 20
117.0111405246310
 30
0.000000000000000
 11
182.7208737333702
 21
116.8867204628799
 31
0.000000000000000
  0
LINE
  5
176
100
AcDbEntity
  8
A1
  6
CONTINUOUS
 62
7
100
AcDbLine
 10
182.2999999999211
 20
114.2322819561112
 30
0.000000000000000
 11
182.7208737333702
 21
114.1078618943600
 31
0.000000000000000
  0
LINE
  5
177
100
AcDbEntity
  8
A1
  6
CONTINUOUS
 62
7
100
AcDbLine
 10
182.5791262664705
 20
122.4444375999192
 30
0.000000000000000
 11
177.8791262664411
 21
121.0550083156648
 31
0.000000000000000
  0
LINE
  5
178
100
AcDbEntity
  8
A1
  6
CONTINUOUS
 62
7
100
AcDbLine
 10
182.7208737333716
 20
121.9649507329173
 30
0.000000000000000
 11
178.0208737333551
 21
120.5755214486189
 31
0.000000000000000
  0
LINE
  5
179
100
AcDbEntity
  8
A1
  6
CONTINUOUS
 62
7
100
AcDbLine
 10
182.5791262664707
 20
119.6655790313993
 30
0.000000000000000
 11
177.8791262664406
 21
118.2761497471459
 31
0.000000000000000
  0
LINE
  5
17A
100
AcDbEntity
  8
A1
  6
CONTINUOUS
 62
7
100
AcDbLine
 10
178.0208737333548
 20
117.7966628800992
 30
0.000000000000000
 11
182.7208737333716
 21
119.1860921643976
 31
0.000000000000000
  0
LINE
  5
17B
100
AcDbEntity
  8
A1
  6
CONTINUOUS
 62
7
100
AcDbLine
 10
182.5791262664705
 20
116.8867204628795
 30
0.000000000000000
 11
177.8791262664398
 21
115.4972911786272
 31
0.000000000000000
  0
LINE
  5
17C
100
AcDbEntity
  8
A1
  6
CONTINUOUS
 62
7
100
AcDbLine
 10
178.0208737333544
 20
115.0178043115792
 30
0.000000000000000
 11
182.7208737333716
 21
116.4072335958776
 31
0.000000000000000
  0
LINE
  5
17D
100
AcDbEntity
  8
A1
  6
CONTINUOUS
 62
7
100
AcDbLine
 10
182.5791262664707
 20
114.1078618943596
 30
0.000000000000000
 11
177.8791262664391
 21
112.7184326101083
 31
0.000000000000000
  0
LINE
  5
17E
100
AcDbEntity
  8
A1
  6
CONTINUOUS
 62
7
100
AcDbLine
 10
178.0208737333540
 20
112.2389457430593
 30
0.000000000000000
 11
182.7208737333717
 21
113.6283750273577
 31
0.000000000000000
  0
LINE
  5
17F
100
AcDbEntity
  8
A1
  6
CONTINUOUS
 62
7
100
AcDbLine
 10
182.2999999999212
 20
111.4534233875914
 30
0.000000000000000
 11
182.7208737333702
 21
111.3290033258400
 31
0.000000000000000
  0
LINE
  5
180
100
AcDbEntity
  8
A1
  6
CONTINUOUS
 62
7
100
AcDbLine
 10
182.2999999999211
 20
110.4364063136385
 30
0.000000000000000
 11
182.2999999999211
 21
110.8003865598940
 31
0.000000000000000
  0
LINE
  5
181
100
AcDbEntity
  8
A1
  6
CONTINUOUS
 62
7
100
AcDbLine
 10
182.2999999999211
 20
111.3032401385942
 30
0.000000000000000
 11
182.2999999999211
 21
113.5039549656033
 31
0.000000000000000
  0
LINE
  5
182
100
AcDbEntity
  8
A1
  6
CONTINUOUS
 62
7
100
AcDbLine
 10
182.2999999999211
 20
114.0253456797330
 30
0.000000000000000
 11
182.2999999999211
 21
116.2828135341231
 31
0.000000000000000
  0
LINE
  5
183
100
AcDbEntity
  8
A1
  6
CONTINUOUS
 62
7
100
AcDbLine
 10
182.2999999999211
 20
116.8042042482528
 30
0.000000000000000
 11
182.2999999999211
 21
119.0616721026431
 31
0.000000000000000
  0
LINE
  5
184
100
AcDbEntity
  8
A1
  6
CONTINUOUS
 62
7
100
AcDbLine
 10
182.2999999999211
 20
119.5830628167726
 30
0.000000000000000
 11
182.2999999999211
 21
121.8405306711629
 31
0.000000000000000
  0
LINE
  5
185
100
AcDbEntity
  8
A1
  6
CONTINUOUS
 62
7
100
AcDbLine
 10
182.2999999999211
 20
122.3619213852923
 30
0.000000000000000
 11
182.2999999999211
 21
124.6193892396870
 31
0.000000000000000
  0
LINE
  5
186
100
AcDbEntity
  8
A1
  6
CONTINUOUS
 62
7
100
AcDbLine
 10
182.2999999999211
 20
125.1407799538094
 30
0.000000000000000
 11
182.2999999999211
 21
125.2364063136384
 31
0.000000000000000
  0
LINE
  5
187
100
AcDbEntity
  8
A1
  6
CONTINUOUS
 62
7
100
AcDbLine
 10
182.2999999999211
 20
119.7899990931508
 30
0.000000000000000
 11
182.7208737333701
 21
119.6655790313997
 31
0.000000000000000
  0
LINE
  5
188
100
AcDbEntity
  8
A1
  6
CONTINUOUS
 62
7
100
AcDbLine
 10
178.7749999999213
 20
110.3364063136384
 30
0.000000000000000
 11
178.7749999999213
 21
110.4232463758686
 31
0.000000000000000
  0
ARC
  5
189
100
AcDbEntity
  8
A1
  6
CONTINUOUS
 62
7
100
AcDbCircle
 10
177.9499999999212
 20
110.5864063136384
 30
0.000000000000000
 40
0.2500000000000071
100
AcDbArc
 50
96.10685172986491
 51
276.1068517298649
  0
ARC
  5
18A
100
AcDbEntity
  8
A1
  6
CONTINUOUS
 62
7
100
AcDbCircle
 10
177.9499999999211
 20
125.4864063136385
 30
0.000000000000000
 40
0.2500000000000071
100
AcDbArc
 50
90.00000000000000
 51
270.0000000000000
  0
ARC
  5
18B
100
AcDbEntity
  8
A1
  6
CONTINUOUS
 62
7
100
AcDbCircle
 10
177.9499999998988
 20
123.5941234506612
 30
0.000000000000000
 40
0.2499999999775611
100
AcDbArc
 50
106.4689045272272
 51
286.4689045267037
  0
ARC
  5
18C
100
AcDbEntity
  8
A1
  6
CONTINUOUS
 62
7
100
AcDbCircle
 10
177.9499999998982
 20
120.8152648821419
 30
0.000000000000000
 40
0.2500000000229790
100
AcDbArc
 50
106.4689045266884
 51
286.4689045272262
  0
ARC
  5
18D
100
AcDbEntity
  8
A1
  6
CONTINUOUS
 62
7
100
AcDbCircle
 10
177.9499999998977
 20
118.0364063136225
 30
0.000000000000000
 40
0.2500000000235261
100
AcDbArc
 50
106.4689045266752
 51
286.4689045272255
  0
ARC
  5
18E
100
AcDbEntity
  8
A1
  6
CONTINUOUS
 62
7
100
AcDbCircle
 10
177.9499999998971
 20
115.2575477451032
 30
0.000000000000000
 40
0.2500000000240732
100
AcDbArc
 50
106.4689045266620
 51
286.4689045272235
  0
ARC
  5
18F
100
AcDbEntity
  8
A1
  6
CONTINUOUS
 62
7
100
AcDbCircle
 10
177.9499999998965
 20
112.4786891765838
 30
0.000000000000000
 40
0.2500000000246203
100
AcDbArc
 50
106.4689045266472
 51
286.4689045272211
  0
LINE
  5
190
100
AcDbEntity
  8
A1
  6
CONTINUOUS
 62
7
100
AcDbLine
 10
177.8791262664405
 20
112.2389457430588
 30
0.000000000000000
 11
178.2999999999211
 21
112.1145256813028
 31
0.000000000000000
  0
LINE
  5
191
100
AcDbEntity
  8
A1
  6
CONTINUOUS
 62
7
100
AcDbLine
 10
178.2999999999212
 20
110.8752796460834
 30
0.000000000000000
 11
178.2999999999212
 21
112.3214619576942
 31
0.000000000000000
  0
LINE
  5
192
100
AcDbEntity
  8
A1
  6
CONTINUOUS
 62
7
100
AcDbLine
 10
178.2999999999212
 20
112.8428526718674
 30
0.000000000000000
 11
178.2999999999212
 21
115.1003205262140
 31
0.000000000000000
  0
LINE
  5
193
100
AcDbEntity
  8
A1
  6
CONTINUOUS
 62
7
100
AcDbLine
 10
178.2999999999212
 20
115.6217112403863
 30
0.000000000000000
 11
178.2999999999212
 21
117.8791790947336
 31
0.000000000000000
  0
LINE
  5
194
100
AcDbEntity
  8
A1
  6
CONTINUOUS
 62
7
100
AcDbLine
 10
178.2999999999212
 20
118.4005698089050
 30
0.000000000000000
 11
178.2999999999212
 21
120.6580376632534
 31
0.000000000000000
  0
LINE
  5
195
100
AcDbEntity
  8
A1
  6
CONTINUOUS
 62
7
100
AcDbLine
 10
178.2999999999212
 20
121.1794283774237
 30
0.000000000000000
 11
178.2999999999212
 21
123.4368962318172
 31
0.000000000000000
  0
LINE
  5
196
100
AcDbEntity
  8
A1
  6
CONTINUOUS
 62
7
100
AcDbLine
 10
178.2999999999212
 20
123.9582869458998
 30
0.000000000000000
 11
178.2999999999212
 21
125.2364063136385
 31
0.000000000000000
  0
LINE
  5
197
100
AcDbEntity
  8
A1
  6
CONTINUOUS
 62
7
100
AcDbLine
 10
177.9234042552403
 20
125.2378250062863
 30
0.000000000000000
 11
178.2999999999211
 21
125.1975329811935
 31
0.000000000000000
  0
LINE
  5
198
100
AcDbEntity
  8
A1
  6
CONTINUOUS
 62
7
100
AcDbLine
 10
177.8791262664562
 20
123.3543800171815
 30
0.000000000000000
 11
178.2999999999212
 21
123.2299599554258
 31
0.000000000000000
  0
LINE
  5
199
100
AcDbEntity
  8
A1
  6
CONTINUOUS
 62
7
100
AcDbLine
 10
177.8791262664427
 20
120.5755214486184
 30
0.000000000000000
 11
178.2999999999212
 21
120.4511013868629
 31
0.000000000000000
  0
LINE
  5
19A
100
AcDbEntity
  8
A1
  6
CONTINUOUS
 62
7
100
AcDbLine
 10
177.8791262664420
 20
117.7966628800987
 30
0.000000000000000
 11
178.2999999999212
 21
117.6722428183430
 31
0.000000000000000
  0
LINE
  5
19B
100
AcDbEntity
  8
A1
  6
CONTINUOUS
 62
7
100
AcDbLine
 10
177.8791262664413
 20
115.0178043115788
 30
0.000000000000000
 11
178.2999999999212
 21
114.8933842498229
 31
0.000000000000000
  0
LINE
  5
19C
100
AcDbEntity
  8
A1
  6
CONTINUOUS
 62
7
100
AcDbLine
 10
238.0249999998886
 20
110.3364063136386
 30
0.000000000000000
 11
238.0249999998885
 21
110.4364063136387
 31
0.000000000000000
  0
LINE
  5
19D
100
AcDbEntity
  8
A1
  6
CONTINUOUS
 62
7
100
AcDbLine
 10
238.4999999998891
 20
110.4364063136385
 30
0.000000000000000
 11
235.0980014264235
 21
110.4364063136385
 31
0.000000000000000
  0
CIRCLE
  5
19E
100
AcDbEntity
  8
A1
  6
CONTINUOUS
 62
7
100
AcDbCircle
 10
238.8499999998891
 20
110.5864063136384
 30
0.000000000000000
 40
0.2500000000000000
  0
LINE
  5
19F
100
AcDbEntity
  8
A1
  6
CONTINUOUS
 62
7
100
AcDbLine
 10
234.1765957445699
 20
110.3378250062864
 30
0.000000000000000
 11
238.8765957445699
 21
110.8406785849867
 31
0.000000000000000
  0
LINE
  5
1A0
100
AcDbEntity
  8
A1
  6
CONTINUOUS
 62
7
100
AcDbLine
 10
234.1234042552083
 20
110.8349876209906
 30
0.000000000000000
 11
238.8234042552083
 21
111.3378411996909
 31
0.000000000000000
  0
ARC
  5
1A1
100
AcDbEntity
  8
A1
  6
CONTINUOUS
 62
7
100
AcDbCircle
 10
238.8499999998891
 20
111.0892598923388
 30
0.000000000000000
 40
0.2500000000000000
100
AcDbArc
 50
276.1068517298650
 51
456.1068517298651
  0
ARC
  5
1A2
100
AcDbEntity
  8
A1
  6
CONTINUOUS
 62
7
100
AcDbCircle
 10
238.8499999998891
 20
124.9835527349382
 30
0.000000000000000
 40
0.2500000000000000
100
AcDbArc
 50
286.4689045267050
 51
466.4689045272270
  0
ARC
  5
1A3
100
AcDbEntity
  8
A1
  6
CONTINUOUS
 62
7
100
AcDbCircle
 10
238.8499999998891
 20
125.4864063136385
 30
0.000000000000000
 40
0.2500000000000071
100
AcDbArc
 50
270.0000000000000
 51
450.0000000000000
  0
LINE
  5
1A4
100
AcDbEntity
  8
A1
  6
CONTINUOUS
 62
7
100
AcDbLine
 10
234.1499999998891
 20
125.2364063136385
 30
0.000000000000000
 11
238.8499999998892
 21
125.2364063136385
 31
0.000000000000000
  0
ARC
  5
1A5
100
AcDbEntity
  8
A1
  6
CONTINUOUS
 62
7
100
AcDbCircle
 10
238.8499999998891
 20
122.2046941664183
 30
0.000000000000000
 40
0.2500000000000355
100
AcDbArc
 50
286.4689045272266
 51
466.4689045266888
  0
ARC
  5
1A6
100
AcDbEntity
  8
A1
  6
CONTINUOUS
 62
7
100
AcDbCircle
 10
238.8499999998891
 20
119.4258355978984
 30
0.000000000000000
 40
0.2500000000000355
100
AcDbArc
 50
286.4689045272250
 51
466.4689045266748
  0
ARC
  5
1A7
100
AcDbEntity
  8
A1
  6
CONTINUOUS
 62
7
100
AcDbCircle
 10
238.8499999998891
 20
116.6469770293785
 30
0.000000000000000
 40
0.2500000000000355
100
AcDbArc
 50
286.4689045272235
 51
466.4689045266605
  0
ARC
  5
1A8
100
AcDbEntity
  8
A1
  6
CONTINUOUS
 62
7
100
AcDbCircle
 10
238.8499999998891
 20
113.8681184608586
 30
0.000000000000000
 40
0.2500000000000355
100
AcDbArc
 50
286.4689045272220
 51
466.4689045266497
  0
LINE
  5
1A9
100
AcDbEntity
  8
A1
  6
CONTINUOUS
 62
7
100
AcDbLine
 10
238.7791262664384
 20
125.2232961684390
 30
0.000000000000000
 11
234.0791262664224
 21
123.8338668841405
 31
0.000000000000000
  0
LINE
  5
1AA
100
AcDbEntity
  8
A1
  6
CONTINUOUS
 62
7
100
AcDbLine
 10
234.2208737333110
 20
123.3543800171819
 30
0.000000000000000
 11
238.9208737333396
 21
124.7438093014374
 31
0.000000000000000
  0
LINE
  5
1AB
100
AcDbEntity
  8
A1
  6
CONTINUOUS
 62
7
100
AcDbLine
 10
238.8765957445699
 20
125.2321340422903
 30
0.000000000000000
 11
238.8366642889996
 21
125.2364063136384
 31
0.000000000000000
  0
LINE
  5
1AC
100
AcDbEntity
  8
A1
  6
CONTINUOUS
 62
7
100
AcDbLine
 10
238.4999999998892
 20
122.5688576616666
 30
0.000000000000000
 11
238.9208737333382
 21
122.4444375999198
 31
0.000000000000000
  0
LINE
  5
1AD
100
AcDbEntity
  8
A1
  6
CONTINUOUS
 62
7
100
AcDbLine
 10
238.4999999998892
 20
117.0111405246310
 30
0.000000000000000
 11
238.9208737333382
 21
116.8867204628799
 31
0.000000000000000
  0
LINE
  5
1AE
100
AcDbEntity
  8
A1
  6
CONTINUOUS
 62
7
100
AcDbLine
 10
238.4999999998891
 20
114.2322819561112
 30
0.000000000000000
 11
238.9208737333381
 21
114.1078618943599
 31
0.000000000000000
  0
LINE
  5
1AF
100
AcDbEntity
  8
A1
  6
CONTINUOUS
 62
7
100
AcDbLine
 10
238.7791262664385
 20
122.4444375999192
 30
0.000000000000000
 11
234.0791262664090
 21
121.0550083156648
 31
0.000000000000000
  0
LINE
  5
1B0
100
AcDbEntity
  8
A1
  6
CONTINUOUS
 62
7
100
AcDbLine
 10
238.9208737333397
 20
121.9649507329174
 30
0.000000000000000
 11
234.2208737333233
 21
120.5755214486190
 31
0.000000000000000
  0
LINE
  5
1B1
100
AcDbEntity
  8
A1
  6
CONTINUOUS
 62
7
100
AcDbLine
 10
238.7791262664387
 20
119.6655790313993
 30
0.000000000000000
 11
234.0791262664085
 21
118.2761497471459
 31
0.000000000000000
  0
LINE
  5
1B2
100
AcDbEntity
  8
A1
  6
CONTINUOUS
 62
7
100
AcDbLine
 10
234.2208737333229
 20
117.7966628800992
 30
0.000000000000000
 11
238.9208737333396
 21
119.1860921643976
 31
0.000000000000000
  0
LINE
  5
1B3
100
AcDbEntity
  8
A1
  6
CONTINUOUS
 62
7
100
AcDbLine
 10
238.7791262664385
 20
116.8867204628795
 30
0.000000000000000
 11
234.0791262664078
 21
115.4972911786272
 31
0.000000000000000
  0
LINE
  5
1B4
100
AcDbEntity
  8
A1
  6
CONTINUOUS
 62
7
100
AcDbLine
 10
234.2208737333222
 20
115.0178043115792
 30
0.000000000000000
 11
238.9208737333395
 21
116.4072335958776
 31
0.000000000000000
  0
LINE
  5
1B5
100
AcDbEntity
  8
A1
  6
CONTINUOUS
 62
7
100
AcDbLine
 10
238.7791262664387
 20
114.1078618943596
 30
0.000000000000000
 11
234.0791262664071
 21
112.7184326101083
 31
0.000000000000000
  0
LINE
  5
1B6
100
AcDbEntity
  8
A1
  6
CONTINUOUS
 62
7
100
AcDbLine
 10
234.2208737333221
 20
112.2389457430593
 30
0.000000000000000
 11
238.9208737333398
 21
113.6283750273577
 31
0.000000000000000
  0
LINE
  5
1B7
100
AcDbEntity
  8
A1
  6
CONTINUOUS
 62
7
100
AcDbLine
 10
238.4999999998892
 20
111.4534233875914
 30
0.000000000000000
 11
238.9208737333382
 21
111.3290033258400
 31
0.000000000000000
  0
LINE
  5
1B8
100
AcDbEntity
  8
A1
  6
CONTINUOUS
 62
7
100
AcDbLine
 10
238.4999999998891
 20
110.4364063136385
 30
0.000000000000000
 11
238.4999999998891
 21
110.8003865598940
 31
0.000000000000000
  0
LINE
  5
1B9
100
AcDbEntity
  8
A1
  6
CONTINUOUS
 62
7
100
AcDbLine
 10
238.4999999998891
 20
111.3032401385942
 30
0.000000000000000
 11
238.4999999998891
 21
113.5039549656033
 31
0.000000000000000
  0
LINE
  5
1BA
100
AcDbEntity
  8
A1
  6
CONTINUOUS
 62
7
100
AcDbLine
 10
238.4999999998891
 20
114.0253456797330
 30
0.000000000000000
 11
238.4999999998891
 21
116.2828135341231
 31
0.000000000000000
  0
LINE
  5
1BB
100
AcDbEntity
  8
A1
  6
CONTINUOUS
 62
7
100
AcDbLine
 10
238.4999999998891
 20
116.8042042482528
 30
0.000000000000000
 11
238.4999999998891
 21
119.0616721026431
 31
0.000000000000000
  0
LINE
  5
1BC
100
AcDbEntity
  8
A1
  6
CONTINUOUS
 62
7
100
AcDbLine
 10
238.4999999998891
 20
119.5830628167726
 30
0.000000000000000
 11
238.4999999998891
 21
121.8405306711629
 31
0.000000000000000
  0
LINE
  5
1BD
100
AcDbEntity
  8
A1
  6
CONTINUOUS
 62
7
100
AcDbLine
 10
238.4999999998891
 20
122.3619213852923
 30
0.000000000000000
 11
238.4999999998891
 21
124.6193892396870
 31
0.000000000000000
  0
LINE
  5
1BE
100
AcDbEntity
  8
A1
  6
CONTINUOUS
 62
7
100
AcDbLine
 10
238.4999999998891
 20
125.1407799538094
 30
0.000000000000000
 11
238.4999999998891
 21
125.2364063136384
 31
0.000000000000000
  0
LINE
  5
1BF
100
AcDbEntity
  8
A1
  6
CONTINUOUS
 62
7
100
AcDbLine
 10
238.4999999998891
 20
119.7899990931508
 30
0.000000000000000
 11
238.9208737333381
 21
119.6655790313997
 31
0.000000000000000
  0
LINE
  5
1C0
100
AcDbEntity
  8
A1
  6
CONTINUOUS
 62
7
100
AcDbLine
 10
234.9749999998893
 20
110.3364063136384
 30
0.000000000000000
 11
234.9749999998893
 21
110.4232463758686
 31
0.000000000000000
  0
ARC
  5
1C1
100
AcDbEntity
  8
A1
  6
CONTINUOUS
 62
7
100
AcDbCircle
 10
234.1499999998892
 20
110.5864063136384
 30
0.000000000000000
 40
0.2500000000000071
100
AcDbArc
 50
96.10685172986491
 51
276.1068517298649
  0
ARC
  5
1C2
100
AcDbEntity
  8
A1
  6
CONTINUOUS
 62
7
100
AcDbCircle
 10
234.1499999998891
 20
125.4864063136385
 30
0.000000000000000
 40
0.2500000000000071
100
AcDbArc
 50
90.00000000000000
 51
270.0000000000000
  0
ARC
  5
1C3
100
AcDbEntity
  8
A1
  6
CONTINUOUS
 62
7
100
AcDbCircle
 10
234.1499999998667
 20
123.5941234506612
 30
0.000000000000000
 40
0.2499999999775611
100
AcDbArc
 50
106.4689045272272
 51
286.4689045267037
  0
ARC
  5
1C4
100
AcDbEntity
  8
A1
  6
CONTINUOUS
 62
7
100
AcDbCircle
 10
234.1499999998662
 20
120.8152648821419
 30
0.000000000000000
 40
0.2500000000229790
100
AcDbArc
 50
106.4689045266884
 51
286.4689045272262
  0
ARC
  5
1C5
100
AcDbEntity
  8
A1
  6
CONTINUOUS
 62
7
100
AcDbCircle
 10
234.1499999998657
 20
118.0364063136225
 30
0.000000000000000
 40
0.2500000000235261
100
AcDbArc
 50
106.4689045266752
 51
286.4689045272255
  0
ARC
  5
1C6
100
AcDbEntity
  8
A1
  6
CONTINUOUS
 62
7
100
AcDbCircle
 10
234.1499999998651
 20
115.2575477451032
 30
0.000000000000000
 40
0.2500000000240732
100
AcDbArc
 50
106.4689045266620
 51
286.4689045272235
  0
ARC
  5
1C7
100
AcDbEntity
  8
A1
  6
CONTINUOUS
 62
7
100
AcDbCircle
 10
234.1499999998645
 20
112.4786891765838
 30
0.000000000000000
 40
0.2500000000246203
100
AcDbArc
 50
106.4689045266472
 51
286.4689045272211
  0
LINE
  5
1C8
100
AcDbEntity
  8
A1
  6
CONTINUOUS
 62
7
100
AcDbLine
 10
234.0791262664085
 20
112.2389457430588
 30
0.000000000000000
 11
234.4999999998891
 21
112.1145256813028
 31
0.000000000000000
  0
LINE
  5
1C9
100
AcDbEntity
  8
A1
  6
CONTINUOUS
 62
7
100
AcDbLine
 10
234.4999999998892
 20
110.8752796460834
 30
0.000000000000000
 11
234.4999999998892
 21
112.3214619576942
 31
0.000000000000000
  0
LINE
  5
1CA
100
AcDbEntity
  8
A1
  6
CONTINUOUS
 62
7
100
AcDbLine
 10
234.4999999998892
 20
112.8428526718674
 30
0.000000000000000
 11
234.4999999998892
 21
115.1003205262140
 31
0.000000000000000
  0
LINE
  5
1CB
100
AcDbEntity
  8
A1
  6
CONTINUOUS
 62
7
100
AcDbLine
 10
234.4999999998892
 20
115.6217112403863
 30
0.000000000000000
 11
234.4999999998892
 21
117.8791790947336
 31
0.000000000000000
  0
LINE
  5
1CC
100
AcDbEntity
  8
A1
  6
CONTINUOUS
 62
7
100
AcDbLine
 10
234.4999999998892
 20
118.4005698089050
 30
0.000000000000000
 11
234.4999999998892
 21
120.6580376632534
 31
0.000000000000000
  0
LINE
  5
1CD
100
AcDbEntity
  8
A1
  6
CONTINUOUS
 62
7
100
AcDbLine
 10
234.4999999998892
 20
121.1794283774237
 30
0.000000000000000
 11
234.4999999998892
 21
123.4368962318172
 31
0.000000000000000
  0
LINE
  5
1CE
100
AcDbEntity
  8
A1
  6
CONTINUOUS
 62
7
100
AcDbLine
 10
234.4999999998892
 20
123.9582869458998
 30
0.000000000000000
 11
234.4999999998892
 21
125.2364063136385
 31
0.000000000000000
  0
LINE
  5
1CF
100
AcDbEntity
  8
A1
  6
CONTINUOUS
 62
7
100
AcDbLine
 10
234.1234042552082
 20
125.2378250062863
 30
0.000000000000000
 11
234.4999999998891
 21
125.1975329811935
 31
0.000000000000000
  0
LINE
  5
1D0
100
AcDbEntity
  8
A1
  6
CONTINUOUS
 62
7
100
AcDbLine
 10
234.0791262664242
 20
123.3543800171815
 30
0.000000000000000
 11
234.4999999998892
 21
123.2299599554258
 31
0.000000000000000
  0
LINE
  5
1D1
100
AcDbEntity
  8
A1
  6
CONTINUOUS
 62
7
100
AcDbLine
 10
234.0791262664107
 20
120.5755214486184
 30
0.000000000000000
 11
234.4999999998892
 21
120.4511013868629
 31
0.000000000000000
  0
LINE
  5
1D2
100
AcDbEntity
  8
A1
  6
CONTINUOUS
 62
7
100
AcDbLine
 10
234.0791262664099
 20
117.7966628800987
 30
0.000000000000000
 11
234.4999999998892
 21
117.6722428183430
 31
0.000000000000000
  0
LINE
  5
1D3
100
AcDbEntity
  8
A1
  6
CONTINUOUS
 62
7
100
AcDbLine
 10
234.0791262664093
 20
115.0178043115789
 30
0.000000000000000
 11
234.4999999998892
 21
114.8933842498230
 31
0.000000000000000
  0
LINE
  5
1D4
100
AcDbEntity
  8
A1
  6
CONTINUOUS
 62
7
100
AcDbLine
 10
182.3999999999631
 20
125.2364063136385
 30
0.000000000000000
 11
182.3999999999629
 21
125.1703422790195
 31
0.000000000000000
  0
LINE
  5
1D5
100
AcDbEntity
  8
A1
  6
CONTINUOUS
 62
7
100
AcDbLine
 10
182.3999999999612
 20
124.6489515648956
 30
0.000000000000000
 11
182.3999999999541
 21
122.5392953364608
 31
0.000000000000000
  0
LINE
  5
1D6
100
AcDbEntity
  8
A1
  6
CONTINUOUS
 62
7
100
AcDbLine
 10
182.3999999999519
 20
121.8700929963697
 30
0.000000000000000
 11
182.3999999999449
 21
119.7604367679467
 31
0.000000000000000
  0
LINE
  5
1D7
100
AcDbEntity
  8
A1
  6
CONTINUOUS
 62
7
100
AcDbLine
 10
182.3999999999427
 20
119.0912344278473
 30
0.000000000000000
 11
182.3999999999357
 21
116.9815781994297
 31
0.000000000000000
  0
LINE
  5
1D8
100
AcDbEntity
  8
A1
  6
CONTINUOUS
 62
7
100
AcDbLine
 10
182.3999999999334
 20
116.3123758593245
 30
0.000000000000000
 11
182.3999999999264
 21
114.2027196309126
 31
0.000000000000000
  0
LINE
  5
1D9
100
AcDbEntity
  8
A1
  6
CONTINUOUS
 62
7
100
AcDbLine
 10
182.3999999999242
 20
113.5335172908019
 30
0.000000000000000
 11
182.3999999999172
 21
111.4238610623955
 31
0.000000000000000
  0
LINE
  5
1DA
100
AcDbEntity
  8
A1
  6
CONTINUOUS
 62
7
100
AcDbLine
 10
232.9999999997947
 20
109.7364063132986
 30
0.000000000000000
 11
232.9999999997947
 21
110.3364063136385
 31
0.000000000000000
  0
LINE
  5
1DB
100
AcDbEntity
  8
A1
  6
CONTINUOUS
 62
7
100
AcDbLine
 10
237.7999999998133
 20
109.7364063132850
 30
0.000000000000000
 11
237.7999999998137
 21
110.3364063136396
 31
0.000000000000000
  0
LINE
  5
1DC
100
AcDbEntity
  8
A1
  6
CONTINUOUS
 62
7
100
AcDbLine
 10
235.1999999998361
 20
109.7364063132924
 30
0.000000000000000
 11
235.1999999998370
 21
110.3364063136396
 31
0.000000000000000
  0
LINE
  5
1DD
100
AcDbEntity
  8
A1
  6
CONTINUOUS
 62
7
100
AcDbLine
 10
232.9999999997947
 20
110.3364063136385
 30
0.000000000000000
 11
235.1999999998370
 21
110.3364063136385
 31
0.000000000000000
  0
LINE
  5
1DE
100
AcDbEntity
  8
A1
  6
CONTINUOUS
 62
7
100
AcDbLine
 10
237.7999999998138
 20
110.3364063136385
 30
0.000000000000000
 11
239.4999999999250
 21
110.3364063136385
 31
0.000000000000000
  0
ENDSEC
  0
SECTION
  2
OBJECTS
  0
DICTIONARY
  5
210
100
AcDbDictionary
  3
ACAD_GROUP
350
211
  3
ACAD_LAYOUT
350
212
  3
ACAD_MLINESTYLE
350
213
  0
DICTIONARY
  5
211
102
{ACAD_REACTORS
330
210
102
}
330
210
100
AcDbDictionary
  0
DICTIONARY
  5
212
102
{ACAD_REACTORS
330
210
102
}
330
210
100
AcDbDictionary
  3
Model
350
214
  3
ﾚｲｱｳﾄ1
350
215
  3
ﾚｲｱｳﾄ2
350
216
  0
DICTIONARY
  5
213
102
{ACAD_REACTORS
330
210
102
}
330
210
100
AcDbDictionary
  3
STANDARD
350
217
  0
LAYOUT
  5
214
102
{ACAD_REACTORS
330
212
102
}
330
212
100
AcDbPlotSettings
 70
11952
  4
A1
 44
594.000000
 45
841.000000
 73
  1
 72
  1
100
AcDbLayout
  1
Model
 71
0
330
207
  0
LAYOUT
  5
215
102
{ACAD_REACTORS
330
212
102
}
330
212
100
AcDbPlotSettings
100
AcDbLayout
  1
ﾚｲｱｳﾄ1
 71
1
330
208
  0
LAYOUT
  5
216
102
{ACAD_REACTORS
330
212
102
}
330
212
100
AcDbPlotSettings
100
AcDbLayout
  1
ﾚｲｱｳﾄ2
 71
2
330
209
  0
MLINESTYLE
  5
217
102
{ACAD_REACTORS
330
213
102
}
330
213
100
AcDbMlineStyle
  2
STANDARD
 70
     0
  3

 62
   256
 51
90.00
 52
90.00
 71
     2
 49
0.50
 62
   256
  6
BYLAYER
 49
-0.50
 62
   256
  6
BYLAYER
  0
ENDSEC
  0
EOF
