  0
SECTION
  2
HEADER
  9
$ACADVER
  1
AC1024
  9
$DWGCODEPAGE
  3
ANSI_932
  9
$LTSCALE
 40
20.0
  9
$FILLMODE
 70
     1
  9
$CLAYER
  8
0
  9
$PDMODE
 70
     0
  9
$SPLFRAME
 70
     0
  9
$SPLINETYPE
 70
     6
  9
$SPLINESEGS
 70
     8
  9
$DIMASZ
 40
2.000000
  9
$DIMEXE
 40
1.500000
  9
$DIMEXO
 40
0.800000
  9
$DIMTAD
 70
     1
  9
$DIMTIH
 70
     0
  9
$DIMTOH
 70
     0
  9
$DIMTVP
 40
0.500000
  9
$DIMTXT
 40
3.100000
  9
$EXTMIN
 10
0.000000
 20
0.000000
 30
0.000000
  9
$EXTMAX
 10
297.000000
 20
420.000000
 30
0.000000
  9
$MEASUREMENT
 70
  1
  9
$LIMMIN
 10
0.000000
 20
0.000000
  9
$LIMMAX
 10
297.000000
 20
420.000000
  9
$HANDSEED
  5
12B
  9
$LWDISPLAY
290
     0
  9
$DIMBLK
  1
_OPEN
  9
$DIMDEC
 70
     2
  9
$DIMADEC
 70
     2
  9
$DIMAUNIT
 70
     0
  9
$DIMZIN
 70
     8
  9
$DIMAZIN
 70
     2
  9
$DIMTOFL
 70
     1
  0
ENDSEC
  0
SECTION
  2
CLASSES
  0
ENDSEC
  0
SECTION
  2
TABLES
  0
TABLE
  2
VPORT
  5
F4
100
AcDbSymbolTable
 70
     1
  0
VPORT
  5
F5
100
AcDbSymbolTableRecord
100
AcDbViewportTableRecord
  2
*ACTIVE
 70
     0
 12
124.023353
 22
108.807758
 40
181.615514
 41
1.255657
  0
ENDTAB
  0
TABLE
  2
LTYPE
  5
F6
100
AcDbSymbolTable
 70
     3
  0
LTYPE
  5
F7
100
AcDbSymbolTableRecord
100
AcDbLinetypeTableRecord
  2
BYBLOCK
 70
     0
  3

 72
    65
 73
     0
 40
0.0
  0
LTYPE
  5
F8
100
AcDbSymbolTableRecord
100
AcDbLinetypeTableRecord
  2
BYLAYER
 70
     0
  3

 72
    65
 73
     0
 40
0.0
  0
LTYPE
  5
F9
100
AcDbSymbolTableRecord
100
AcDbLinetypeTableRecord
  2
CONTINUOUS
 70
     0
  3
Solid line (NEC CAE2D for Win R18.0 : 2024.02.06)
 72
    65
 73
     0
 40
0.0
  0
LTYPE
  5
FA
100
AcDbSymbolTableRecord
100
AcDbLinetypeTableRecord
  2
CENTER
 70
     0
  3
____ _ ____ _ ____ _ ____ _ ____ _ ____
 72
    65
 73
     4
 40
2.0
 49
1.25
 74
     0
 49
-0.25
 74
     0
 49
0.25
 74
     0
 49
-0.25
 74
     0
  0
LTYPE
  5
FB
100
AcDbSymbolTableRecord
100
AcDbLinetypeTableRecord
  2
PHANTOM
 70
     0
  3
______  __  __  ______  __  __  ______ 
 72
    65
 73
     6
 40
2.5
 49
1.25
 74
     0
 49
-0.25
 74
     0
 49
0.25
 74
     0
 49
-0.25
 74
     0
 49
0.25
 74
     0
 49
-0.25
 74
     0
  0
ENDTAB
  0
TABLE
  2
LAYER
  5
FC
100
AcDbSymbolTable
 70
    16
  0
LAYER
  5
FD
100
AcDbSymbolTableRecord
100
AcDbLayerTableRecord
  2
0
 70
     0
 62
     7
  6
CONTINUOUS
370
    -3
390

  0
LAYER
  5
FE
100
AcDbSymbolTableRecord
100
AcDbLayerTableRecord
  2
A0
 70
     0
 62
     9
  6
CONTINUOUS
370
    -3
390

  0
LAYER
  5
FF
100
AcDbSymbolTableRecord
100
AcDbLayerTableRecord
  2
A1
 70
     0
 62
    12
  6
CONTINUOUS
370
    -3
390

  0
LAYER
  5
100
100
AcDbSymbolTableRecord
100
AcDbLayerTableRecord
  2
A2
 70
     0
 62
     9
  6
CONTINUOUS
370
    -3
390

  0
LAYER
  5
101
100
AcDbSymbolTableRecord
100
AcDbLayerTableRecord
  2
A4
 70
     0
 62
     9
  6
CONTINUOUS
370
    -3
390

  0
LAYER
  5
102
100
AcDbSymbolTableRecord
100
AcDbLayerTableRecord
  2
A5
 70
     0
 62
     8
  6
CONTINUOUS
370
    -3
390

  0
LAYER
  5
103
100
AcDbSymbolTableRecord
100
AcDbLayerTableRecord
  2
A6
 70
     0
 62
    12
  6
CONTINUOUS
370
    -3
390

  0
LAYER
  5
104
100
AcDbSymbolTableRecord
100
AcDbLayerTableRecord
  2
A7
 70
     0
 62
    12
  6
CONTINUOUS
370
    -3
390

  0
LAYER
  5
105
100
AcDbSymbolTableRecord
100
AcDbLayerTableRecord
  2
A8
 70
     0
 62
    10
  6
CONTINUOUS
370
    -3
390

  0
LAYER
  5
106
100
AcDbSymbolTableRecord
100
AcDbLayerTableRecord
  2
A9
 70
     0
 62
     9
  6
CONTINUOUS
370
    -3
390

  0
LAYER
  5
107
100
AcDbSymbolTableRecord
100
AcDbLayerTableRecord
  2
A10
 70
     0
 62
     6
  6
CONTINUOUS
370
    -3
390

  0
LAYER
  5
108
100
AcDbSymbolTableRecord
100
AcDbLayerTableRecord
  2
A20
 70
     0
 62
     1
  6
CONTINUOUS
370
    -3
390

  0
LAYER
  5
109
100
AcDbSymbolTableRecord
100
AcDbLayerTableRecord
  2
A30
 70
     0
 62
     1
  6
CONTINUOUS
370
    -3
390

  0
LAYER
  5
10A
100
AcDbSymbolTableRecord
100
AcDbLayerTableRecord
  2
A40
 70
     0
 62
     9
  6
CONTINUOUS
370
    -3
390

  0
LAYER
  5
10B
100
AcDbSymbolTableRecord
100
AcDbLayerTableRecord
  2
A50
 70
     0
 62
    12
  6
CONTINUOUS
370
    -3
390

  0
LAYER
  5
10C
100
AcDbSymbolTableRecord
100
AcDbLayerTableRecord
  2
A1023
 70
     0
 62
    16
  6
CONTINUOUS
370
    -3
390

  0
ENDTAB
  0
TABLE
  2
STYLE
  5
10D
100
AcDbSymbolTable
 70
     4
  0
STYLE
  5
10E
100
AcDbSymbolTableRecord
100
AcDbTextStyleTableRecord
  2
STANDARD
 70
    64
 40
0.0
 41
1.0
 50
0.0
 71
     0
 42
3.000000000000000
  3
TXT
  4

  0
STYLE
  5
10F
100
AcDbSymbolTableRecord
100
AcDbTextStyleTableRecord
  2
ANKTATE
 70
    68
 40
0.0
 41
1.0
 50
0.0
 71
     0
 42
3.000000000000000
  3
TXT
  4

  0
STYLE
  5
110
100
AcDbSymbolTableRecord
100
AcDbTextStyleTableRecord
  2
KNJYOKO
 70
    64
 40
0.0
 41
1.0
 50
0.0
 71
     0
 42
3.000000000000000
  3
TXT
  4
BIGFONT
  0
STYLE
  5
111
100
AcDbSymbolTableRecord
100
AcDbTextStyleTableRecord
  2
KNJTATE
 70
    68
 40
0.0
 41
1.0
 50
0.0
 71
     0
 42
3.000000000000000
  3
TXT
  4
BIGFONT
  0
ENDTAB
  0
TABLE
  2
VIEW
  5
112
100
AcDbSymbolTable
 70
     0
  0
ENDTAB
  0
TABLE
  2
UCS
  5
113
100
AcDbSymbolTable
 70
     0
  0
ENDTAB
  0
TABLE
  2
APPID
  5
114
100
AcDbSymbolTable
 70
     1
  0
APPID
  5
115
100
AcDbSymbolTableRecord
100
AcDbRegAppTableRecord
  2
ACAD
 70
     0
  0
ENDTAB
  0
TABLE
  2
DIMSTYLE
  5
116
100
AcDbSymbolTable
 70
     2
100
AcDbDimStyleTable
  0
DIMSTYLE
105
117
100
AcDbSymbolTableRecord
100
AcDbDimStyleTableRecord
  2
STANDARD
 70
     0
 41
2.000000
 44
1.500000
 42
0.800000
145
0.661290
140
3.100000
144
1.000000
146
0.645161
340
10E
  0
DIMSTYLE
105
118
100
AcDbSymbolTableRecord
100
AcDbDimStyleTableRecord
  2
A001
 70
     0
 41
2.000000
 44
1.500000
 42
0.800000
145
0.661290
140
3.100000
144
1.000000
146
0.645161
 77
     1
 73
     0
 74
     0
271
     2
179
     2
275
     0
 78
     8
 79
     2
172
     1
340
10E
  0
ENDTAB
  0
TABLE
  2
BLOCK_RECORD
  5
119
100
AcDbSymbolTable
 70
    12
  0
BLOCK_RECORD
  5
11A
100
AcDbSymbolTableRecord
100
AcDbBlockTableRecord
  2
*MODEL_SPACE
  0
BLOCK_RECORD
  5
11B
100
AcDbSymbolTableRecord
100
AcDbBlockTableRecord
  2
*PAPER_SPACE
  0
BLOCK_RECORD
  5
11C
100
AcDbSymbolTableRecord
100
AcDbBlockTableRecord
  2
*PAPER_SPACE0
  0
BLOCK_RECORD
  5
1
100
AcDbSymbolTableRecord
100
AcDbBlockTableRecord
  2
_NONE
  0
BLOCK_RECORD
  5
4
100
AcDbSymbolTableRecord
100
AcDbBlockTableRecord
  2
_CLOSED
  0
BLOCK_RECORD
  5
B
100
AcDbSymbolTableRecord
100
AcDbBlockTableRecord
  2
_DOT
  0
BLOCK_RECORD
  5
13
100
AcDbSymbolTableRecord
100
AcDbBlockTableRecord
  2
_OPEN
  0
BLOCK_RECORD
  5
19
100
AcDbSymbolTableRecord
100
AcDbBlockTableRecord
  2
_ORIGIN
  0
BLOCK_RECORD
  5
1E
100
AcDbSymbolTableRecord
100
AcDbBlockTableRecord
  2
_OPEN30
  0
BLOCK_RECORD
  5
24
100
AcDbSymbolTableRecord
100
AcDbBlockTableRecord
  2
_BOXFILLED
  0
BLOCK_RECORD
  5
29
100
AcDbSymbolTableRecord
100
AcDbBlockTableRecord
  2
_BOXBLANK
  0
BLOCK_RECORD
  5
31
100
AcDbSymbolTableRecord
100
AcDbBlockTableRecord
  2
_OBLIQUE
  0
BLOCK_RECORD
  5
35
100
AcDbSymbolTableRecord
100
AcDbBlockTableRecord
  2
_OPEN90
  0
BLOCK_RECORD
  5
3B
100
AcDbSymbolTableRecord
100
AcDbBlockTableRecord
  2
_CLOSEDBLANK
  0
BLOCK_RECORD
  5
41
100
AcDbSymbolTableRecord
100
AcDbBlockTableRecord
  2
_DOTBLANK
  0
ENDTAB
  0
ENDSEC
  0
SECTION
  2
BLOCKS
  0
BLOCK
  5
11D
100
AcDbEntity
  8
0
100
AcDbBlockBegin
  2
*MODEL_SPACE
 70
     0
 10
0.0
 20
0.0
 30
0.0
  3
*MODEL_SPACE
  1

  0
ENDBLK
  5
11E
100
AcDbEntity
  8
0
100
AcDbBlockEnd
  0
BLOCK
  5
11F
100
AcDbEntity
  8
0
100
AcDbBlockBegin
  2
*PAPER_SPACE
 70
     0
 10
0.0
 20
0.0
 30
0.0
  3
*PAPER_SPACE
  1

  0
ENDBLK
  5
120
100
AcDbEntity
  8
0
100
AcDbBlockEnd
  0
BLOCK
  5
121
100
AcDbEntity
  8
0
100
AcDbBlockBegin
  2
*PAPER_SPACE0
 70
     0
 10
0.0
 20
0.0
 30
0.0
  3
*PAPER_SPACE0
  1

  0
ENDBLK
  5
122
100
AcDbEntity
  8
0
100
AcDbBlockEnd
  0
BLOCK
  5
2
330
1
100
AcDbEntity
  8
0
100
AcDbBlockBegin
  2
_NONE
 70
     0
 10
0.0
 20
0.0
 30
0.0
  3
_NONE
  1

  0
ENDBLK
  5
3
330
1
100
AcDbEntity
  8
0
100
AcDbBlockEnd
  0
BLOCK
  5
5
330
4
100
AcDbEntity
  8
0
100
AcDbBlockBegin
  2
_CLOSED
 70
     0
 10
0.0
 20
0.0
 30
0.0
  3
_CLOSED
  1

  0
LINE
  5
6
330
4
100
AcDbEntity
  8
0
  6
BYBLOCK
 62
     0
370
    -2
100
AcDbLine
 10
-1.0
 20
0.166667
 30
0.0
 11
0.0
 21
0.0
 31
0.0
  0
LINE
  5
7
330
4
100
AcDbEntity
  8
0
  6
BYBLOCK
 62
     0
370
    -2
100
AcDbLine
 10
0.0
 20
0.0
 30
0.0
 11
-1.0
 21
-0.166667
 31
0.0
  0
LINE
  5
8
330
4
100
AcDbEntity
  8
0
  6
BYBLOCK
 62
     0
370
    -2
100
AcDbLine
 10
-1.0
 20
0.166667
 30
0.0
 11
-1.0
 21
-0.166667
 31
0.0
  0
LINE
  5
9
330
4
100
AcDbEntity
  8
0
  6
BYBLOCK
 62
     0
370
    -2
100
AcDbLine
 10
0.0
 20
0.0
 30
0.0
 11
-1.0
 21
0.0
 31
0.0
  0
ENDBLK
  5
A
330
4
100
AcDbEntity
  8
0
100
AcDbBlockEnd
  0
BLOCK
  5
C
330
B
100
AcDbEntity
  8
0
100
AcDbBlockBegin
  2
_DOT
 70
     0
 10
0.0
 20
0.0
 30
0.0
  3
_DOT
  1

  0
POLYLINE
  5
D
330
B
100
AcDbEntity
  8
0
  6
BYBLOCK
 62
     0
370
    -2
100
AcDb2dPolyline
 66
     1
 10
0.0
 20
0.0
 30
0.0
 70
     1
 40
0.5
 41
0.5
  0
VERTEX
  5
E
330
B
100
AcDbEntity
  8
0
  6
BYBLOCK
 62
     0
370
    -2
100
AcDbVertex
100
AcDb2dVertex
 10
-0.25
 20
0.0
 30
0.0
 42
1.0
  0
VERTEX
  5
F
330
B
100
AcDbEntity
  8
0
  6
BYBLOCK
 62
     0
370
    -2
100
AcDbVertex
100
AcDb2dVertex
 10
0.25
 20
0.0
 30
0.0
 42
1.0
  0
SEQEND
  5
10
330
B
100
AcDbEntity
  8
0
  6
BYBLOCK
 62
     0
370
    -2
  0
LINE
  5
11
330
B
100
AcDbEntity
  8
0
  6
BYBLOCK
 62
     0
370
    -2
100
AcDbLine
 10
-0.5
 20
0.0
 30
0.0
 11
-1.0
 21
0.0
 31
0.0
  0
ENDBLK
  5
12
330
B
100
AcDbEntity
  8
0
100
AcDbBlockEnd
  0
BLOCK
  5
14
330
13
100
AcDbEntity
  8
0
100
AcDbBlockBegin
  2
_OPEN
 70
     0
 10
0.0
 20
0.0
 30
0.0
  3
_OPEN
  1

  0
LINE
  5
15
330
13
100
AcDbEntity
  8
0
  6
BYBLOCK
 62
     0
370
    -2
100
AcDbLine
 10
-1.0
 20
0.166667
 30
0.0
 11
0.0
 21
0.0
 31
0.0
  0
LINE
  5
16
330
13
100
AcDbEntity
  8
0
  6
BYBLOCK
 62
     0
370
    -2
100
AcDbLine
 10
0.0
 20
0.0
 30
0.0
 11
-1.0
 21
-0.166667
 31
0.0
  0
LINE
  5
17
330
13
100
AcDbEntity
  8
0
  6
BYBLOCK
 62
     0
370
    -2
100
AcDbLine
 10
0.0
 20
0.0
 30
0.0
 11
-1.0
 21
0.0
 31
0.0
  0
ENDBLK
  5
18
330
13
100
AcDbEntity
  8
0
100
AcDbBlockEnd
  0
BLOCK
  5
1A
330
19
100
AcDbEntity
  8
0
100
AcDbBlockBegin
  2
_ORIGIN
 70
     0
 10
0.0
 20
0.0
 30
0.0
  3
_ORIGIN
  1

  0
CIRCLE
  5
1B
330
19
100
AcDbEntity
  8
0
  6
BYBLOCK
 62
     0
370
    -2
100
AcDbCircle
 10
0.0
 20
0.0
 30
0.0
 40
0.5
  0
LINE
  5
1C
330
19
100
AcDbEntity
  8
0
  6
BYBLOCK
 62
     0
370
    -2
100
AcDbLine
 10
0.0
 20
0.0
 30
0.0
 11
-1.0
 21
0.0
 31
0.0
  0
ENDBLK
  5
1D
330
19
100
AcDbEntity
  8
0
100
AcDbBlockEnd
  0
BLOCK
  5
1F
330
1E
100
AcDbEntity
  8
0
100
AcDbBlockBegin
  2
_OPEN30
 70
     0
 10
0.0
 20
0.0
 30
0.0
  3
_OPEN30
  1

  0
LINE
  5
20
330
1E
100
AcDbEntity
  8
0
  6
BYBLOCK
 62
     0
370
    -2
100
AcDbLine
 10
-1.0
 20
0.267949
 30
0.0
 11
0.0
 21
0.0
 31
0.0
  0
LINE
  5
21
330
1E
100
AcDbEntity
  8
0
  6
BYBLOCK
 62
     0
370
    -2
100
AcDbLine
 10
0.0
 20
0.0
 30
0.0
 11
-1.0
 21
-0.267949
 31
0.0
  0
LINE
  5
22
330
1E
100
AcDbEntity
  8
0
  6
BYBLOCK
 62
     0
370
    -2
100
AcDbLine
 10
0.0
 20
0.0
 30
0.0
 11
-1.0
 21
0.0
 31
0.0
  0
ENDBLK
  5
23
330
1E
100
AcDbEntity
  8
0
100
AcDbBlockEnd
  0
BLOCK
  5
25
330
24
100
AcDbEntity
  8
0
100
AcDbBlockBegin
  2
_BOXFILLED
 70
     0
 10
0.0
 20
0.0
 30
0.0
  3
_BOXFILLED
  1

  0
SOLID
  5
26
330
24
100
AcDbEntity
  8
0
  6
BYBLOCK
 62
     0
370
    -2
100
AcDbTrace
 10
-0.5
 20
0.5
 30
0.0
 11
0.5
 21
0.5
 31
0.0
 12
-0.5
 22
-0.5
 32
0.0
 13
0.5
 23
-0.5
 33
0.0
  0
LINE
  5
27
330
24
100
AcDbEntity
  8
0
  6
BYBLOCK
 62
     0
370
    -2
100
AcDbLine
 10
-0.5
 20
0.0
 30
0.0
 11
-1.0
 21
0.0
 31
0.0
  0
ENDBLK
  5
28
330
24
100
AcDbEntity
  8
0
100
AcDbBlockEnd
  0
BLOCK
  5
2A
330
29
100
AcDbEntity
  8
0
100
AcDbBlockBegin
  2
_BOXBLANK
 70
     0
 10
0.0
 20
0.0
 30
0.0
  3
_BOXBLANK
  1

  0
LINE
  5
2B
330
29
100
AcDbEntity
  8
0
  6
BYBLOCK
 62
     0
370
    -2
100
AcDbLine
 10
-0.5
 20
-0.5
 30
0.0
 11
0.5
 21
-0.5
 31
0.0
  0
LINE
  5
2C
330
29
100
AcDbEntity
  8
0
  6
BYBLOCK
 62
     0
370
    -2
100
AcDbLine
 10
0.5
 20
-0.5
 30
0.0
 11
0.5
 21
0.5
 31
0.0
  0
LINE
  5
2D
330
29
100
AcDbEntity
  8
0
  6
BYBLOCK
 62
     0
370
    -2
100
AcDbLine
 10
0.5
 20
0.5
 30
0.0
 11
-0.5
 21
0.5
 31
0.0
  0
LINE
  5
2E
330
29
100
AcDbEntity
  8
0
  6
BYBLOCK
 62
     0
370
    -2
100
AcDbLine
 10
-0.5
 20
0.5
 30
0.0
 11
-0.5
 21
-0.5
 31
0.0
  0
LINE
  5
2F
330
29
100
AcDbEntity
  8
0
  6
BYBLOCK
 62
     0
370
    -2
100
AcDbLine
 10
-0.5
 20
0.0
 30
0.0
 11
-1.0
 21
0.0
 31
0.0
  0
ENDBLK
  5
30
330
29
100
AcDbEntity
  8
0
100
AcDbBlockEnd
  0
BLOCK
  5
32
330
31
100
AcDbEntity
  8
0
100
AcDbBlockBegin
  2
_OBLIQUE
 70
     0
 10
0.0
 20
0.0
 30
0.0
  3
_OBLIQUE
  1

  0
LINE
  5
33
330
31
100
AcDbEntity
  8
0
  6
BYBLOCK
 62
     0
370
    -2
100
AcDbLine
 10
-0.5
 20
-0.5
 30
0.0
 11
0.5
 21
0.5
 31
0.0
  0
ENDBLK
  5
34
330
31
100
AcDbEntity
  8
0
100
AcDbBlockEnd
  0
BLOCK
  5
36
330
35
100
AcDbEntity
  8
0
100
AcDbBlockBegin
  2
_OPEN90
 70
     0
 10
0.0
 20
0.0
 30
0.0
  3
_OPEN90
  1

  0
LINE
  5
37
330
35
100
AcDbEntity
  8
0
  6
BYBLOCK
 62
     0
370
    -2
100
AcDbLine
 10
-0.5
 20
0.5
 30
0.0
 11
0.0
 21
0.0
 31
0.0
  0
LINE
  5
38
330
35
100
AcDbEntity
  8
0
  6
BYBLOCK
 62
     0
370
    -2
100
AcDbLine
 10
0.0
 20
0.0
 30
0.0
 11
-0.5
 21
-0.5
 31
0.0
  0
LINE
  5
39
330
35
100
AcDbEntity
  8
0
  6
BYBLOCK
 62
     0
370
    -2
100
AcDbLine
 10
0.0
 20
0.0
 30
0.0
 11
-1.0
 21
0.0
 31
0.0
  0
ENDBLK
  5
3A
330
35
100
AcDbEntity
  8
0
100
AcDbBlockEnd
  0
BLOCK
  5
3C
330
3B
100
AcDbEntity
  8
0
100
AcDbBlockBegin
  2
_CLOSEDBLANK
 70
     0
 10
0.0
 20
0.0
 30
0.0
  3
_CLOSEDBLANK
  1

  0
LINE
  5
3D
330
3B
100
AcDbEntity
  8
0
  6
BYBLOCK
 62
     0
370
    -2
100
AcDbLine
 10
-1.0
 20
0.1666666666666666
 30
0.0
 11
0.0
 21
0.0
 31
0.0
  0
LINE
  5
3E
330
3B
100
AcDbEntity
  8
0
  6
BYBLOCK
 62
     0
370
    -2
100
AcDbLine
 10
0.0
 20
0.0
 30
0.0
 11
-1.0
 21
-0.1666666666666666
 31
0.0
  0
LINE
  5
3F
330
3B
100
AcDbEntity
  8
0
  6
BYBLOCK
 62
     0
370
    -2
100
AcDbLine
 10
-1.0
 20
0.1666666666666666
 30
0.0
 11
-1.0
 21
-0.1666666666666666
 31
0.0
  0
ENDBLK
  5
40
330
3B
100
AcDbEntity
  8
0
100
AcDbBlockEnd
  0
BLOCK
  5
42
330
41
100
AcDbEntity
  8
0
100
AcDbBlockBegin
  2
_DOTBLANK
 70
     0
 10
0.0
 20
0.0
 30
0.0
  3
_DOTBLANK
  1

  0
CIRCLE
  5
43
330
41
100
AcDbEntity
  8
0
  6
BYBLOCK
 62
     0
370
    -2
100
AcDbCircle
 10
0.0
 20
0.0
 30
0.0
 40
0.5
  0
LINE
  5
44
330
41
100
AcDbEntity
  8
0
  6
BYBLOCK
 62
     0
370
    -2
100
AcDbLine
 10
-0.5
 20
0.0
 30
0.0
 11
-1.0
 21
0.0
 31
0.0
  0
ENDBLK
  5
45
330
41
100
AcDbEntity
  8
0
100
AcDbBlockEnd
  0
ENDSEC
  0
SECTION
  2
ENTITIES
  0
MTEXT
  5
46
100
AcDbEntity
  8
A8
  6
CONTINUOUS
 62
3
100
AcDbMText
 10
9.999997526638502
 20
18.00000076076889
 30
0.000000000000000
 40
3.000000000000000
 41
0.000000000000000
 44
0.6739999771118164
 71
     7
 72
     1
  1
{\H0.94x;{TYPE No.TH-185SUS}}
 11
1.000000000000000
 21
0.000000000000000
 31
0.000000000000000
  7
STANDARD
  0
POINT
  5
47
100
AcDbEntity
  8
A0
  6
CONTINUOUS
 62
3
100
AcDbPoint
 10
9.999997526638502
 20
18.00000076076889
 30
0.000000000000000
  0
POINT
  5
48
100
AcDbEntity
  8
A10
  6
CONTINUOUS
 62
3
100
AcDbPoint
 10
50.00000000000000
 20
50.00000000000000
 30
0.000000000000000
  0
LINE
  5
49
100
AcDbEntity
  8
A1
  6
CONTINUOUS
 62
7
100
AcDbLine
 10
96.46526369513634
 20
77.32157383634456
 30
0.000000000000000
 11
96.46526369513634
 21
78.82157183634453
 31
0.000000000000000
  0
LINE
  5
4A
100
AcDbEntity
  8
A4
  6
CENTER
 62
1
100
AcDbLine
 10
101.7152636951232
 20
80.32157183634456
 30
0.000000000000000
 11
101.7152636951232
 21
75.82157383634458
 31
0.000000000000000
  0
LINE
  5
4B
100
AcDbEntity
  8
A1
  6
CONTINUOUS
 62
7
100
AcDbLine
 10
96.46526369513634
 20
78.82157183634453
 30
0.000000000000000
 11
114.7152636951363
 21
78.82157183634453
 31
0.000000000000000
  0
LINE
  5
4C
100
AcDbEntity
  8
A1
  6
CONTINUOUS
 62
7
100
AcDbLine
 10
96.46526369513634
 20
77.32157383634456
 30
0.000000000000000
 11
112.2657739523532
 21
77.32157383634456
 31
0.000000000000000
  0
LINE
  5
4D
100
AcDbEntity
  8
A1
  6
CONTINUOUS
 62
7
100
AcDbLine
 10
111.2652636951232
 20
78.82157183634457
 30
0.000000000000000
 11
111.2652636951235
 21
77.32157383636071
 31
0.000000000000000
  0
LINE
  5
4E
100
AcDbEntity
  8
A4
  6
CENTER
 62
1
100
AcDbLine
 10
118.9652616951363
 20
76.07157383634456
 30
0.000000000000000
 11
110.4652656951364
 21
76.07157383634456
 31
0.000000000000000
  0
LINE
  5
4F
100
AcDbEntity
  8
A4
  6
CENTER
 62
1
100
AcDbLine
 10
114.7152636951363
 20
80.32157183634453
 30
0.000000000000000
 11
114.7152636951363
 21
71.82157583634458
 31
0.000000000000000
  0
LINE
  5
50
100
AcDbEntity
  8
A1
  6
CONTINUOUS
 62
7
100
AcDbLine
 10
117.4652636951363
 20
68.82156983634451
 30
0.000000000000000
 11
126.9652636951363
 21
68.82156983634451
 31
0.000000000000000
  0
LINE
  5
51
100
AcDbEntity
  8
A1
  6
CONTINUOUS
 62
7
100
AcDbLine
 10
126.9652636951363
 20
67.32156983634451
 30
0.000000000000000
 11
126.9652636951363
 21
68.82156983634451
 31
0.000000000000000
  0
LINE
  5
52
100
AcDbEntity
  8
A4
  6
CENTER
 62
1
100
AcDbLine
 10
121.9652636951363
 20
70.12156983634452
 30
0.000000000000000
 11
121.9652636951363
 21
65.62156983634452
 31
0.000000000000000
  0
LINE
  5
53
100
AcDbEntity
  8
A1
  6
CONTINUOUS
 62
7
100
AcDbLine
 10
115.9652636951363
 20
75.56167188498529
 30
0.000000000000000
 11
115.9652636951363
 21
68.82156983634451
 31
0.000000000000000
  0
LINE
  5
54
100
AcDbEntity
  8
A1
  6
CONTINUOUS
 62
7
100
AcDbLine
 10
117.4652636951363
 20
67.32156983634451
 30
0.000000000000000
 11
126.9652636951363
 21
67.32156983634451
 31
0.000000000000000
  0
ARC
  5
55
100
AcDbEntity
  8
A1
  6
CONTINUOUS
 62
7
100
AcDbCircle
 10
117.4652636951363
 20
68.82156983634451
 30
0.000000000000000
 40
1.500000000000000
100
AcDbArc
 50
180.0000000000000
 51
270.0000000000000
  0
LINE
  5
56
100
AcDbEntity
  8
A1
  6
CONTINUOUS
 62
7
100
AcDbLine
 10
117.4652636951363
 20
76.07157383634458
 30
0.000000000000000
 11
117.4652636951363
 21
68.82156983634451
 31
0.000000000000000
  0
ARC
  5
57
100
AcDbEntity
  8
A1
  6
CONTINUOUS
 62
7
100
AcDbCircle
 10
114.7152636951363
 20
76.07157383634456
 30
0.000000000000000
 40
2.750000000000000
100
AcDbArc
 50
0.000000000000000
 51
297.0356917894122
  0
LINE
  5
58
100
AcDbEntity
  8
A1
  6
CONTINUOUS
 62
7
100
AcDbLine
 10
115.9652636951363
 20
73.62208409356136
 30
0.000000000000000
 11
115.3289000587727
 21
74.86909705352373
 31
0.000000000000000
  0
CIRCLE
  5
59
100
AcDbEntity
  8
A1
  6
CONTINUOUS
 62
7
100
AcDbCircle
 10
114.7152636951363
 20
76.07157383634456
 30
0.000000000000000
 40
1.350000000000000
  0
LINE
  5
5A
100
AcDbEntity
  8
A1
  6
CONTINUOUS
 62
7
100
AcDbLine
 10
111.9652636951327
 20
113.3570174149782
 30
0.000000000000000
 11
124.4652636951328
 21
113.3570174149782
 31
0.000000000000000
  0
LINE
  5
5B
100
AcDbEntity
  8
A1
  6
CONTINUOUS
 62
7
100
AcDbLine
 10
111.9652636951328
 20
153.3570174149783
 30
0.000000000000000
 11
124.4652636951328
 21
153.3570174149783
 31
0.000000000000000
  0
LINE
  5
5C
100
AcDbEntity
  8
A1
  6
CONTINUOUS
 62
7
100
AcDbLine
 10
126.9652636951328
 20
150.8570174149783
 30
0.000000000000000
 11
126.9652636951328
 21
115.8570174149782
 31
0.000000000000000
  0
CIRCLE
  5
5D
100
AcDbEntity
  8
A1
  6
CONTINUOUS
 62
7
100
AcDbCircle
 10
121.9652636951328
 20
123.3570174149783
 30
0.000000000000000
 40
1.600000000000000
  0
CIRCLE
  5
5E
100
AcDbEntity
  8
A1
  6
CONTINUOUS
 62
7
100
AcDbCircle
 10
121.9652636951328
 20
143.3570174149783
 30
0.000000000000000
 40
1.600000000000000
  0
LINE
  5
5F
100
AcDbEntity
  8
A1
  6
CONTINUOUS
 62
7
100
AcDbLine
 10
111.9652636951328
 20
113.3570174149782
 30
0.000000000000000
 11
111.9652636951328
 21
123.8570174149782
 31
0.000000000000000
  0
LINE
  5
60
100
AcDbEntity
  8
A1
  6
CONTINUOUS
 62
7
100
AcDbLine
 10
117.4652636951545
 20
113.3570174149782
 30
0.000000000000000
 11
117.4652636951418
 21
153.3570174149845
 31
0.000000000000000
  0
LINE
  5
61
100
AcDbEntity
  8
A1
  6
CONTINUOUS
 62
7
100
AcDbLine
 10
111.9652636951232
 20
142.8570174149783
 30
0.000000000000000
 11
111.9652636951232
 21
153.3570174149783
 31
0.000000000000000
  0
LINE
  5
62
100
AcDbEntity
  8
A1
  6
CONTINUOUS
 62
7
100
AcDbLine
 10
111.2652636951232
 20
142.8570174149783
 30
0.000000000000000
 11
117.4652636951452
 21
142.8570174149783
 31
0.000000000000000
  0
LINE
  5
63
100
AcDbEntity
  8
A1
  6
CONTINUOUS
 62
7
100
AcDbLine
 10
111.2652636951232
 20
123.8570174149782
 30
0.000000000000000
 11
117.4652636951512
 21
123.8570174149782
 31
0.000000000000000
  0
LINE
  5
64
100
AcDbEntity
  8
A1
  6
CONTINUOUS
 62
7
100
AcDbLine
 10
98.96526369512316
 20
153.3570174149783
 30
0.000000000000000
 11
111.2652636951232
 21
153.3570174149783
 31
0.000000000000000
  0
LINE
  5
65
100
AcDbEntity
  8
A1
  6
CONTINUOUS
 62
7
100
AcDbLine
 10
96.46526369512316
 20
150.8570174149783
 30
0.000000000000000
 11
96.46526369512316
 21
115.8570174149782
 31
0.000000000000000
  0
LINE
  5
66
100
AcDbEntity
  8
A1
  6
CONTINUOUS
 62
7
100
AcDbLine
 10
98.96526369512314
 20
113.3570174149782
 30
0.000000000000000
 11
111.2652636951232
 21
113.3570174149782
 31
0.000000000000000
  0
CIRCLE
  5
67
100
AcDbEntity
  8
A1
  6
CONTINUOUS
 62
7
100
AcDbCircle
 10
101.7152636951232
 20
123.3570174149785
 30
0.000000000000000
 40
1.600000000000000
  0
CIRCLE
  5
68
100
AcDbEntity
  8
A1
  6
CONTINUOUS
 62
7
100
AcDbCircle
 10
101.7152636951232
 20
143.3570174149785
 30
0.000000000000000
 40
1.600000000000000
  0
LINE
  5
69
100
AcDbEntity
  8
A1
  6
CONTINUOUS
 62
7
100
AcDbLine
 10
117.4652616950661
 20
123.8570174149353
 30
0.000000000000000
 11
117.4652616950661
 21
142.8570174149783
 31
0.000000000000000
  0
ARC
  5
6A
100
AcDbEntity
  8
A1
  6
CONTINUOUS
 62
7
100
AcDbCircle
 10
114.7152636951813
 20
152.7099585914392
 30
0.000000000000000
 40
1.497058823526377
100
AcDbArc
 50
25.60853213032919
 51
154.3914678696805
  0
ARC
  5
6B
100
AcDbEntity
  8
A1
  6
CONTINUOUS
 62
7
100
AcDbCircle
 10
114.7152636951363
 20
114.0040762384920
 30
0.000000000000000
 40
1.497058823526377
100
AcDbArc
 50
205.6085321301863
 51
334.3914678695377
  0
LINE
  5
6C
100
AcDbEntity
  8
A4
  6
CENTER
 62
1
100
AcDbLine
 10
114.7152636951364
 20
111.0070174149656
 30
0.000000000000000
 11
114.7152636951813
 21
155.7070174149656
 31
0.000000000000000
  0
ARC
  5
6D
100
AcDbEntity
  8
A1
  6
CONTINUOUS
 62
7
100
AcDbCircle
 10
98.96526369512316
 20
150.8570174149783
 30
0.000000000000000
 40
2.500000000000000
100
AcDbArc
 50
90.00000000000000
 51
180.0000000000000
  0
ARC
  5
6E
100
AcDbEntity
  8
A1
  6
CONTINUOUS
 62
7
100
AcDbCircle
 10
124.4652636951328
 20
150.8570174149783
 30
0.000000000000000
 40
2.500000000000000
100
AcDbArc
 50
0.000000000000000
 51
90.00000000000000
  0
ARC
  5
6F
100
AcDbEntity
  8
A1
  6
CONTINUOUS
 62
7
100
AcDbCircle
 10
124.4652636951328
 20
115.8570174149782
 30
0.000000000000000
 40
2.500000000000000
100
AcDbArc
 50
270.0000000000000
 51
360.0000000000000
  0
ARC
  5
70
100
AcDbEntity
  8
A1
  6
CONTINUOUS
 62
7
100
AcDbCircle
 10
98.96526369512314
 20
115.8570174149782
 30
0.000000000000000
 40
2.500000000000000
100
AcDbArc
 50
180.0000000000000
 51
270.0000000000000
  0
LINE
  5
71
100
AcDbEntity
  8
A1
  6
CONTINUOUS
 62
7
100
AcDbLine
 10
111.2652636951232
 20
153.3570174149783
 30
0.000000000000000
 11
111.2652636951232
 21
142.8570174149783
 31
0.000000000000000
  0
LINE
  5
72
100
AcDbEntity
  8
A1
  6
CONTINUOUS
 62
7
100
AcDbLine
 10
111.2652636951232
 20
123.8570174149570
 30
0.000000000000000
 11
111.2652636951232
 21
113.3570174149782
 31
0.000000000000000
  0
LINE
  5
73
100
AcDbEntity
  8
A5
  6
PHANTOM
 62
6
100
AcDbLine
 10
132.9652636951363
 20
73.32157583634454
 30
0.000000000000000
 11
114.7152636951364
 21
73.32157583634454
 31
0.000000000000000
  0
LINE
  5
74
100
AcDbEntity
  8
A5
  6
PHANTOM
 62
6
100
AcDbLine
 10
132.9652636951363
 20
74.82157383634451
 30
0.000000000000000
 11
132.9652636951363
 21
73.32157583634454
 31
0.000000000000000
  0
LINE
  5
75
100
AcDbEntity
  8
A5
  6
PHANTOM
 62
6
100
AcDbLine
 10
132.9652636951363
 20
74.82157383634450
 30
0.000000000000000
 11
115.2251656464956
 21
74.82157383634450
 31
0.000000000000000
  0
LINE
  5
76
100
AcDbEntity
  8
A1
  6
CONTINUOUS
 62
7
100
AcDbLine
 10
96.46526369513634
 20
187.9155111461128
 30
0.000000000000000
 11
96.46526369513634
 21
186.4155131461128
 31
0.000000000000000
  0
LINE
  5
77
100
AcDbEntity
  8
A4
  6
CENTER
 62
1
100
AcDbLine
 10
101.7152636951232
 20
184.9155131461128
 30
0.000000000000000
 11
101.7152636951232
 21
189.4155111461128
 31
0.000000000000000
  0
LINE
  5
78
100
AcDbEntity
  8
A1
  6
CONTINUOUS
 62
7
100
AcDbLine
 10
96.46526369513634
 20
186.4155131461128
 30
0.000000000000000
 11
114.7152636951363
 21
186.4155131461128
 31
0.000000000000000
  0
LINE
  5
79
100
AcDbEntity
  8
A1
  6
CONTINUOUS
 62
7
100
AcDbLine
 10
96.46526369513634
 20
187.9155111461128
 30
0.000000000000000
 11
112.2657739523532
 21
187.9155111461128
 31
0.000000000000000
  0
LINE
  5
7A
100
AcDbEntity
  8
A1
  6
CONTINUOUS
 62
7
100
AcDbLine
 10
111.2652636951232
 20
186.4155131461128
 30
0.000000000000000
 11
111.2652636951235
 21
187.9155111460967
 31
0.000000000000000
  0
LINE
  5
7B
100
AcDbEntity
  8
A4
  6
CENTER
 62
1
100
AcDbLine
 10
118.9652616951363
 20
189.1655111461128
 30
0.000000000000000
 11
110.4652656951364
 21
189.1655111461128
 31
0.000000000000000
  0
LINE
  5
7C
100
AcDbEntity
  8
A4
  6
CENTER
 62
1
100
AcDbLine
 10
114.7152636951363
 20
184.9155131461128
 30
0.000000000000000
 11
114.7152636951363
 21
193.4155091461128
 31
0.000000000000000
  0
LINE
  5
7D
100
AcDbEntity
  8
A1
  6
CONTINUOUS
 62
7
100
AcDbLine
 10
117.4652636951363
 20
196.4155151461129
 30
0.000000000000000
 11
126.9652636951363
 21
196.4155151461129
 31
0.000000000000000
  0
LINE
  5
7E
100
AcDbEntity
  8
A1
  6
CONTINUOUS
 62
7
100
AcDbLine
 10
126.9652636951363
 20
197.9155151461129
 30
0.000000000000000
 11
126.9652636951363
 21
196.4155151461129
 31
0.000000000000000
  0
LINE
  5
7F
100
AcDbEntity
  8
A4
  6
CENTER
 62
1
100
AcDbLine
 10
121.9652636951363
 20
195.1155151461128
 30
0.000000000000000
 11
121.9652636951363
 21
199.6155151461128
 31
0.000000000000000
  0
LINE
  5
80
100
AcDbEntity
  8
A1
  6
CONTINUOUS
 62
7
100
AcDbLine
 10
115.9652636951363
 20
189.6754130974721
 30
0.000000000000000
 11
115.9652636951363
 21
196.4155151461129
 31
0.000000000000000
  0
LINE
  5
81
100
AcDbEntity
  8
A1
  6
CONTINUOUS
 62
7
100
AcDbLine
 10
117.4652636951363
 20
197.9155151461129
 30
0.000000000000000
 11
126.9652636951363
 21
197.9155151461129
 31
0.000000000000000
  0
ARC
  5
82
100
AcDbEntity
  8
A1
  6
CONTINUOUS
 62
7
100
AcDbCircle
 10
117.4652636951363
 20
196.4155151461129
 30
0.000000000000000
 40
1.500000000000000
100
AcDbArc
 50
90.00000000000000
 51
180.0000000000000
  0
LINE
  5
83
100
AcDbEntity
  8
A1
  6
CONTINUOUS
 62
7
100
AcDbLine
 10
117.4652636951363
 20
189.1655111461128
 30
0.000000000000000
 11
117.4652636951363
 21
196.4155151461129
 31
0.000000000000000
  0
ARC
  5
84
100
AcDbEntity
  8
A1
  6
CONTINUOUS
 62
7
100
AcDbCircle
 10
114.7152636951363
 20
189.1655111461128
 30
0.000000000000000
 40
2.750000000000000
100
AcDbArc
 50
62.96430821058777
 51
360.0000000000000
  0
LINE
  5
85
100
AcDbEntity
  8
A1
  6
CONTINUOUS
 62
7
100
AcDbLine
 10
115.9652636951363
 20
191.6150008888960
 30
0.000000000000000
 11
115.3289000587727
 21
190.3679879289336
 31
0.000000000000000
  0
CIRCLE
  5
86
100
AcDbEntity
  8
A1
  6
CONTINUOUS
 62
7
100
AcDbCircle
 10
114.7152636951363
 20
189.1655111461128
 30
0.000000000000000
 40
1.350000000000000
  0
LINE
  5
87
100
AcDbEntity
  8
A5
  6
PHANTOM
 62
6
100
AcDbLine
 10
132.9652636951364
 20
191.9155091461128
 30
0.000000000000000
 11
114.7152636951364
 21
191.9155091461128
 31
0.000000000000000
  0
LINE
  5
88
100
AcDbEntity
  8
A5
  6
PHANTOM
 62
6
100
AcDbLine
 10
132.9652636951364
 20
190.4155111461128
 30
0.000000000000000
 11
132.9652636951364
 21
191.9155091461128
 31
0.000000000000000
  0
LINE
  5
89
100
AcDbEntity
  8
A5
  6
PHANTOM
 62
6
100
AcDbLine
 10
132.9652636951363
 20
190.4155111461128
 30
0.000000000000000
 11
115.2251656464956
 21
190.4155111461128
 31
0.000000000000000
  0
LINE
  5
8A
100
AcDbEntity
  8
A1
  6
CONTINUOUS
 62
7
100
AcDbLine
 10
53.64568039214129
 20
153.3570174149783
 30
0.000000000000000
 11
53.64568039214129
 21
113.3570174149782
 31
0.000000000000000
  0
LINE
  5
8B
100
AcDbEntity
  8
A1
  6
CONTINUOUS
 62
7
100
AcDbLine
 10
59.64568639214128
 20
123.8570174149743
 30
0.000000000000000
 11
59.44568039219738
 21
123.8570174149743
 31
0.000000000000000
  0
LINE
  5
8C
100
AcDbEntity
  8
A1
  6
CONTINUOUS
 62
7
100
AcDbLine
 10
59.44568039219917
 20
142.8570174149743
 30
0.000000000000000
 11
59.64568639214128
 21
142.8570174149743
 31
0.000000000000000
  0
LINE
  5
8D
100
AcDbEntity
  8
A1
  6
CONTINUOUS
 62
7
100
AcDbLine
 10
59.44568039219739
 20
123.8570174149743
 30
0.000000000000000
 11
59.44568039219917
 21
142.8570174149743
 31
0.000000000000000
  0
LINE
  5
8E
100
AcDbEntity
  8
A1
  6
CONTINUOUS
 62
7
100
AcDbLine
 10
59.64568439214128
 20
153.3570174149783
 30
0.000000000000000
 11
59.64568439214128
 21
142.8570174149743
 31
0.000000000000000
  0
LINE
  5
8F
100
AcDbEntity
  8
A1
  6
CONTINUOUS
 62
7
100
AcDbLine
 10
63.59568439214127
 20
142.8570174149743
 30
0.000000000000000
 11
63.64568439214128
 21
142.8570174149743
 31
0.000000000000000
  0
LINE
  5
90
100
AcDbEntity
  8
A1
  6
CONTINUOUS
 62
7
100
AcDbLine
 10
59.64568439214128
 20
142.8570174149743
 30
0.000000000000000
 11
63.59568439214127
 21
142.8570174149743
 31
0.000000000000000
  0
LINE
  5
91
100
AcDbEntity
  8
A1
  6
CONTINUOUS
 62
7
100
AcDbLine
 10
59.64568439214128
 20
123.8570174149743
 30
0.000000000000000
 11
59.64568439214128
 21
113.3570174149782
 31
0.000000000000000
  0
LINE
  5
92
100
AcDbEntity
  8
A1
  6
CONTINUOUS
 62
7
100
AcDbLine
 10
63.59568439214127
 20
123.8570174149743
 30
0.000000000000000
 11
59.64568439214128
 21
123.8570174149743
 31
0.000000000000000
  0
LINE
  5
93
100
AcDbEntity
  8
A1
  6
CONTINUOUS
 62
7
100
AcDbLine
 10
63.64568439214128
 20
123.8570174149743
 30
0.000000000000000
 11
63.59568439214127
 21
123.8570174149743
 31
0.000000000000000
  0
LINE
  5
94
100
AcDbEntity
  8
A1
  6
CONTINUOUS
 62
7
100
AcDbLine
 10
63.59568439214127
 20
123.8570174149731
 30
0.000000000000000
 11
59.64568639214128
 21
123.8570174149731
 31
0.000000000000000
  0
LINE
  5
95
100
AcDbEntity
  8
A1
  6
CONTINUOUS
 62
7
100
AcDbLine
 10
63.59568439214119
 20
142.8570174150060
 30
0.000000000000000
 11
59.64568639214128
 21
142.8570174150060
 31
0.000000000000000
  0
LINE
  5
96
100
AcDbEntity
  8
A1
  6
CONTINUOUS
 62
7
100
AcDbLine
 10
59.64568639214128
 20
142.8570174150060
 30
0.000000000000000
 11
59.64568639214128
 21
123.8570174149820
 31
0.000000000000000
  0
LINE
  5
97
100
AcDbEntity
  8
A1
  6
CONTINUOUS
 62
7
100
AcDbLine
 10
63.64568439214128
 20
150.8570174150060
 30
0.000000000000000
 11
63.64568439214128
 21
115.8570174150061
 31
0.000000000000000
  0
LINE
  5
98
100
AcDbEntity
  8
A1
  6
CONTINUOUS
 62
7
100
AcDbLine
 10
65.14568239214128
 20
150.8570174150060
 30
0.000000000000000
 11
65.14568239214128
 21
115.8570174150061
 31
0.000000000000000
  0
LINE
  5
99
100
AcDbEntity
  8
A1
  6
CONTINUOUS
 62
7
100
AcDbLine
 10
63.64568439214128
 20
150.8570174150060
 30
0.000000000000000
 11
63.64568439214128
 21
153.3570174150060
 31
0.000000000000000
  0
LINE
  5
9A
100
AcDbEntity
  8
A1
  6
CONTINUOUS
 62
7
100
AcDbLine
 10
65.14568239214128
 20
153.3570174150060
 30
0.000000000000000
 11
65.14568239214128
 21
150.8570174150060
 31
0.000000000000000
  0
LINE
  5
9B
100
AcDbEntity
  8
A1
  6
CONTINUOUS
 62
7
100
AcDbLine
 10
63.64568439214128
 20
113.3570174150061
 30
0.000000000000000
 11
63.64568439214128
 21
115.8570174150061
 31
0.000000000000000
  0
LINE
  5
9C
100
AcDbEntity
  8
A1
  6
CONTINUOUS
 62
7
100
AcDbLine
 10
65.14568239214128
 20
115.8570174150061
 30
0.000000000000000
 11
65.14568239214128
 21
113.3570174150061
 31
0.000000000000000
  0
ARC
  5
9D
100
AcDbEntity
  8
A1
  6
CONTINUOUS
 62
7
100
AcDbCircle
 10
62.39568439214128
 20
114.0040762384871
 30
0.000000000000000
 40
1.497058823526377
100
AcDbArc
 50
270.0000000000000
 51
334.3914678684943
  0
ARC
  5
9E
100
AcDbEntity
  8
A1
  6
CONTINUOUS
 62
7
100
AcDbCircle
 10
62.39568439214128
 20
114.0040762384871
 30
0.000000000000000
 40
1.497058823526377
100
AcDbArc
 50
205.6085321315057
 51
270.0000000000000
  0
ARC
  5
9F
100
AcDbEntity
  8
A1
  6
CONTINUOUS
 62
7
100
AcDbCircle
 10
62.39568439214128
 20
152.7099585914343
 30
0.000000000000000
 40
1.497058823526377
100
AcDbArc
 50
25.60853213099970
 51
154.3914678690004
  0
LINE
  5
A0
100
AcDbEntity
  8
A4
  6
CENTER
 62
1
100
AcDbLine
 10
51.71429641657698
 20
133.3570174149783
 30
0.000000000000000
 11
67.83439282966302
 21
133.3570174149783
 31
0.000000000000000
  0
LINE
  5
A1
100
AcDbEntity
  8
A1
  6
CONTINUOUS
 62
7
100
AcDbLine
 10
53.64568039214129
 20
113.3570174149782
 30
0.000000000000000
 11
65.14568239214127
 21
113.3570174150060
 31
0.000000000000000
  0
LINE
  5
A2
100
AcDbEntity
  8
A1
  6
CONTINUOUS
 62
7
100
AcDbLine
 10
53.64568039214128
 20
153.3570174149783
 30
0.000000000000000
 11
65.14568239214128
 21
153.3570174150061
 31
0.000000000000000
  0
LINE
  5
A3
100
AcDbEntity
  8
A4
  6
CENTER
 62
1
100
AcDbLine
 10
125.0652636951328
 20
143.3570174149783
 30
0.000000000000000
 11
118.8652636951328
 21
143.3570174149783
 31
0.000000000000000
  0
LINE
  5
A4
100
AcDbEntity
  8
A4
  6
CENTER
 62
1
100
AcDbLine
 10
121.9652636951328
 20
146.4570174149783
 30
0.000000000000000
 11
121.9652636951328
 21
140.2570174149783
 31
0.000000000000000
  0
LINE
  5
A5
100
AcDbEntity
  8
A4
  6
CENTER
 62
1
100
AcDbLine
 10
104.8152636951232
 20
123.3570174149785
 30
0.000000000000000
 11
98.61526369512318
 21
123.3570174149785
 31
0.000000000000000
  0
LINE
  5
A6
100
AcDbEntity
  8
A4
  6
CENTER
 62
1
100
AcDbLine
 10
101.7152636951232
 20
126.4570174149785
 30
0.000000000000000
 11
101.7152636951232
 21
120.2570174149785
 31
0.000000000000000
  0
LINE
  5
A7
100
AcDbEntity
  8
A4
  6
CENTER
 62
1
100
AcDbLine
 10
104.8152636951232
 20
143.3570174149785
 30
0.000000000000000
 11
98.61526369512318
 21
143.3570174149785
 31
0.000000000000000
  0
LINE
  5
A8
100
AcDbEntity
  8
A4
  6
CENTER
 62
1
100
AcDbLine
 10
101.7152636951232
 20
146.4570174149785
 30
0.000000000000000
 11
101.7152636951232
 21
140.2570174149785
 31
0.000000000000000
  0
LINE
  5
A9
100
AcDbEntity
  8
A4
  6
CENTER
 62
1
100
AcDbLine
 10
125.0652636951328
 20
123.3570174149783
 30
0.000000000000000
 11
118.8652636951328
 21
123.3570174149783
 31
0.000000000000000
  0
LINE
  5
AA
100
AcDbEntity
  8
A4
  6
CENTER
 62
1
100
AcDbLine
 10
121.9652636951328
 20
126.4570174149783
 30
0.000000000000000
 11
121.9652636951328
 21
120.2570174149783
 31
0.000000000000000
  0
LINE
  5
AB
100
AcDbEntity
  8
A1
  6
CONTINUOUS
 62
7
100
AcDbLine
 10
161.0287772435491
 20
113.3570174149844
 30
0.000000000000000
 11
158.2787772435492
 21
113.3570174149844
 31
0.000000000000000
  0
LINE
  5
AC
100
AcDbEntity
  8
A1
  6
CONTINUOUS
 62
7
100
AcDbLine
 10
161.0287772435491
 20
123.8570174149805
 30
0.000000000000000
 11
158.2787772435492
 21
123.8570174149805
 31
0.000000000000000
  0
LINE
  5
AD
100
AcDbEntity
  8
A1
  6
CONTINUOUS
 62
7
100
AcDbLine
 10
158.2787772435492
 20
123.8570174149805
 30
0.000000000000000
 11
158.2787772435492
 21
113.3570174149844
 31
0.000000000000000
  0
LINE
  5
AE
100
AcDbEntity
  8
A1
  6
CONTINUOUS
 62
7
100
AcDbLine
 10
168.2787812435492
 20
153.3570174149845
 30
0.000000000000000
 11
161.0287772435491
 21
153.3570174149845
 31
0.000000000000000
  0
LINE
  5
AF
100
AcDbEntity
  8
A1
  6
CONTINUOUS
 62
7
100
AcDbLine
 10
168.2787812435492
 20
113.3570174149844
 30
0.000000000000000
 11
161.0287772435491
 21
113.3570174149844
 31
0.000000000000000
  0
LINE
  5
B0
100
AcDbEntity
  8
A1
  6
CONTINUOUS
 62
7
100
AcDbLine
 10
161.0287772435491
 20
142.8570174149805
 30
0.000000000000000
 11
163.9787812434912
 21
142.8570174149805
 31
0.000000000000000
  0
LINE
  5
B1
100
AcDbEntity
  8
A1
  6
CONTINUOUS
 62
7
100
AcDbLine
 10
163.9787812434912
 20
142.8570174149805
 30
0.000000000000000
 11
163.9787812434931
 21
123.8570174149805
 31
0.000000000000000
  0
LINE
  5
B2
100
AcDbEntity
  8
A1
  6
CONTINUOUS
 62
7
100
AcDbLine
 10
163.9787812434931
 20
123.8570174149804
 30
0.000000000000000
 11
161.0287772435491
 21
123.8570174149804
 31
0.000000000000000
  0
LINE
  5
B3
100
AcDbEntity
  8
A1
  6
CONTINUOUS
 62
7
100
AcDbLine
 10
161.0287772435491
 20
123.8570174149805
 30
0.000000000000000
 11
161.0287772435491
 21
113.3570174149844
 31
0.000000000000000
  0
LINE
  5
B4
100
AcDbEntity
  8
A1
  6
CONTINUOUS
 62
7
100
AcDbLine
 10
161.0287772435491
 20
153.3570174149845
 30
0.000000000000000
 11
158.2787772435492
 21
153.3570174149845
 31
0.000000000000000
  0
LINE
  5
B5
100
AcDbEntity
  8
A1
  6
CONTINUOUS
 62
7
100
AcDbLine
 10
161.0287772435491
 20
153.3570174149845
 30
0.000000000000000
 11
161.0287772435491
 21
142.8570174149805
 31
0.000000000000000
  0
LINE
  5
B6
100
AcDbEntity
  8
A1
  6
CONTINUOUS
 62
7
100
AcDbLine
 10
158.2787772435492
 20
153.3570174149845
 30
0.000000000000000
 11
158.2787772435492
 21
142.8570174149805
 31
0.000000000000000
  0
LINE
  5
B7
100
AcDbEntity
  8
A1
  6
CONTINUOUS
 62
7
100
AcDbLine
 10
158.2787772435492
 20
142.8570174149805
 30
0.000000000000000
 11
161.0287772435491
 21
142.8570174149805
 31
0.000000000000000
  0
LINE
  5
B8
100
AcDbEntity
  8
A1
  6
CONTINUOUS
 62
7
100
AcDbLine
 10
168.2787812435492
 20
153.3570174149844
 30
0.000000000000000
 11
169.7787812435492
 21
153.3570174149844
 31
0.000000000000000
  0
LINE
  5
B9
100
AcDbEntity
  8
A1
  6
CONTINUOUS
 62
7
100
AcDbLine
 10
169.7787812435492
 20
113.3570174149844
 30
0.000000000000000
 11
168.2787812435492
 21
113.3570174149844
 31
0.000000000000000
  0
LINE
  5
BA
100
AcDbEntity
  8
A1
  6
CONTINUOUS
 62
7
100
AcDbLine
 10
158.2787792435492
 20
113.3570174150122
 30
0.000000000000000
 11
158.2787792435362
 21
123.8570174149916
 31
0.000000000000000
  0
LINE
  5
BB
100
AcDbEntity
  8
A1
  6
CONTINUOUS
 62
7
100
AcDbLine
 10
158.2787792435362
 20
153.3570174150122
 30
0.000000000000000
 11
158.2787792435362
 21
142.8570174150122
 31
0.000000000000000
  0
LINE
  5
BC
100
AcDbEntity
  8
A1
  6
CONTINUOUS
 62
7
100
AcDbLine
 10
158.2787792435492
 20
142.8570174150121
 30
0.000000000000000
 11
158.2787792435492
 21
123.8570174149793
 31
0.000000000000000
  0
LINE
  5
BD
100
AcDbEntity
  8
A1
  6
CONTINUOUS
 62
7
100
AcDbLine
 10
163.7787752435492
 20
123.8570174149882
 30
0.000000000000000
 11
163.7787752435492
 21
142.8570174150121
 31
0.000000000000000
  0
LINE
  5
BE
100
AcDbEntity
  8
A1
  6
CONTINUOUS
 62
7
100
AcDbLine
 10
161.0287772435491
 20
123.8570174149793
 30
0.000000000000000
 11
158.2787792435492
 21
123.8570174149793
 31
0.000000000000000
  0
LINE
  5
BF
100
AcDbEntity
  8
A1
  6
CONTINUOUS
 62
7
100
AcDbLine
 10
161.0287772435491
 20
142.8570174150121
 30
0.000000000000000
 11
158.2787792435492
 21
142.8570174150121
 31
0.000000000000000
  0
ARC
  5
C0
100
AcDbEntity
  8
A1
  6
CONTINUOUS
 62
7
100
AcDbCircle
 10
161.0287772435492
 20
114.0040762384933
 30
0.000000000000000
 40
1.497058823526377
100
AcDbArc
 50
205.6085321315057
 51
334.3914678684943
  0
ARC
  5
C1
100
AcDbEntity
  8
A1
  6
CONTINUOUS
 62
7
100
AcDbCircle
 10
161.0287772435492
 20
152.7099585914405
 30
0.000000000000000
 40
1.497058823526377
100
AcDbArc
 50
90.00000000000000
 51
154.3914678690003
  0
ARC
  5
C2
100
AcDbEntity
  8
A1
  6
CONTINUOUS
 62
7
100
AcDbCircle
 10
161.0287772435492
 20
152.7099585914405
 30
0.000000000000000
 40
1.497058823526377
100
AcDbArc
 50
25.60853213099960
 51
90.00000000000000
  0
LINE
  5
C3
100
AcDbEntity
  8
A1
  6
CONTINUOUS
 62
7
100
AcDbLine
 10
168.2787812435492
 20
113.3570174149844
 30
0.000000000000000
 11
168.2787812435492
 21
153.3570174149844
 31
0.000000000000000
  0
LINE
  5
C4
100
AcDbEntity
  8
A1
  6
CONTINUOUS
 62
7
100
AcDbLine
 10
169.7787812435492
 20
113.3570174149844
 30
0.000000000000000
 11
169.7787812435492
 21
153.3570174149844
 31
0.000000000000000
  0
CIRCLE
  5
C5
100
AcDbEntity
  8
A1
  6
CONTINUOUS
 62
7
100
AcDbCircle
 10
212.5467090624076
 20
143.3570174149782
 30
0.000000000000000
 40
1.600000000000000
  0
CIRCLE
  5
C6
100
AcDbEntity
  8
A1
  6
CONTINUOUS
 62
7
100
AcDbCircle
 10
212.5467090624076
 20
123.3570174149783
 30
0.000000000000000
 40
1.600000000000000
  0
ARC
  5
C7
100
AcDbEntity
  8
A1
  6
CONTINUOUS
 62
7
100
AcDbCircle
 10
210.0467090624016
 20
150.8570174149782
 30
0.000000000000000
 40
2.500000000000000
100
AcDbArc
 50
90.00000000000000
 51
180.0000000000000
  0
ARC
  5
C8
100
AcDbEntity
  8
A1
  6
CONTINUOUS
 62
7
100
AcDbCircle
 10
210.0467090624016
 20
115.8570174149783
 30
0.000000000000000
 40
2.500000000000000
100
AcDbArc
 50
179.9999999999991
 51
270.0000000000000
  0
LINE
  5
C9
100
AcDbEntity
  8
A1
  6
CONTINUOUS
 62
7
100
AcDbLine
 10
218.5967090624015
 20
142.8570174149743
 30
0.000000000000000
 11
222.5467090624016
 21
142.8570174149743
 31
0.000000000000000
  0
LINE
  5
CA
100
AcDbEntity
  8
A1
  6
CONTINUOUS
 62
7
100
AcDbLine
 10
222.5467090624016
 20
142.8570174149743
 30
0.000000000000000
 11
222.5467090624016
 21
153.3570174149783
 31
0.000000000000000
  0
LINE
  5
CB
100
AcDbEntity
  8
A1
  6
CONTINUOUS
 62
7
100
AcDbLine
 10
222.5467090624016
 20
153.3570174149783
 30
0.000000000000000
 11
218.5967090624016
 21
153.3570174149783
 31
0.000000000000000
  0
LINE
  5
CC
100
AcDbEntity
  8
A1
  6
CONTINUOUS
 62
7
100
AcDbLine
 10
222.5467090624015
 20
113.3570174149782
 30
0.000000000000000
 11
222.5467090624016
 21
123.8570174149743
 31
0.000000000000000
  0
LINE
  5
CD
100
AcDbEntity
  8
A1
  6
CONTINUOUS
 62
7
100
AcDbLine
 10
222.5467090624016
 20
123.8570174149743
 30
0.000000000000000
 11
218.5967090624015
 21
123.8570174149743
 31
0.000000000000000
  0
LINE
  5
CE
100
AcDbEntity
  8
A1
  6
CONTINUOUS
 62
7
100
AcDbLine
 10
222.5467090624015
 20
113.3570174149782
 30
0.000000000000000
 11
218.5967090624015
 21
113.3570174149782
 31
0.000000000000000
  0
LINE
  5
CF
100
AcDbEntity
  8
A1
  6
CONTINUOUS
 62
7
100
AcDbLine
 10
218.5467090624015
 20
113.3570174149782
 30
0.000000000000000
 11
217.0467090624015
 21
113.3570174149782
 31
0.000000000000000
  0
LINE
  5
D0
100
AcDbEntity
  8
A1
  6
CONTINUOUS
 62
7
100
AcDbLine
 10
218.5467090624016
 20
153.3570174149783
 30
0.000000000000000
 11
218.5467090624015
 21
113.3570174149782
 31
0.000000000000000
  0
LINE
  5
D1
100
AcDbEntity
  8
A1
  6
CONTINUOUS
 62
7
100
AcDbLine
 10
218.5467090624016
 20
153.3570174149783
 30
0.000000000000000
 11
217.0467090624016
 21
153.3570174149783
 31
0.000000000000000
  0
LINE
  5
D2
100
AcDbEntity
  8
A1
  6
CONTINUOUS
 62
7
100
AcDbLine
 10
217.0467090624016
 20
153.3570174149783
 30
0.000000000000000
 11
210.0467090624016
 21
153.3570174149783
 31
0.000000000000000
  0
LINE
  5
D3
100
AcDbEntity
  8
A1
  6
CONTINUOUS
 62
7
100
AcDbLine
 10
207.5467090624016
 20
150.8570174149782
 30
0.000000000000000
 11
207.5467090624015
 21
115.8570174149783
 31
0.000000000000000
  0
LINE
  5
D4
100
AcDbEntity
  8
A1
  6
CONTINUOUS
 62
7
100
AcDbLine
 10
217.0467090624016
 20
113.3570174149782
 30
0.000000000000000
 11
210.0467090624016
 21
113.3570174149783
 31
0.000000000000000
  0
CIRCLE
  5
D5
100
AcDbEntity
  8
A1
  6
CONTINUOUS
 62
7
100
AcDbCircle
 10
232.7967090624016
 20
123.3570174150063
 30
0.000000000000000
 40
1.600000000000000
  0
CIRCLE
  5
D6
100
AcDbEntity
  8
A1
  6
CONTINUOUS
 62
7
100
AcDbCircle
 10
232.7967090624016
 20
143.3570174150063
 30
0.000000000000000
 40
1.600000000000000
  0
ARC
  5
D7
100
AcDbEntity
  8
A1
  6
CONTINUOUS
 62
7
100
AcDbCircle
 10
235.5467090624016
 20
115.8570174150061
 30
0.000000000000000
 40
2.500000000000000
100
AcDbArc
 50
270.0000000000000
 51
360.0000000000000
  0
ARC
  5
D8
100
AcDbEntity
  8
A1
  6
CONTINUOUS
 62
7
100
AcDbCircle
 10
235.5467090624016
 20
150.8570174150060
 30
0.000000000000000
 40
2.500000000000000
100
AcDbArc
 50
359.9999999999994
 51
450.0000000000000
  0
LINE
  5
D9
100
AcDbEntity
  8
A1
  6
CONTINUOUS
 62
7
100
AcDbLine
 10
222.5467070624015
 20
142.8570174150060
 30
0.000000000000000
 11
223.2467090624015
 21
142.8570174150061
 31
0.000000000000000
  0
LINE
  5
DA
100
AcDbEntity
  8
A1
  6
CONTINUOUS
 62
7
100
AcDbLine
 10
222.5467070624015
 20
123.8570174149829
 30
0.000000000000000
 11
223.2467090624016
 21
123.8570174149854
 31
0.000000000000000
  0
LINE
  5
DB
100
AcDbEntity
  8
A1
  6
CONTINUOUS
 62
7
100
AcDbLine
 10
223.2467090624016
 20
142.8570174150060
 30
0.000000000000000
 11
223.2467090624016
 21
153.3570174150060
 31
0.000000000000000
  0
LINE
  5
DC
100
AcDbEntity
  8
A1
  6
CONTINUOUS
 62
7
100
AcDbLine
 10
223.2467090624015
 20
113.3570174150060
 30
0.000000000000000
 11
235.5467090624015
 21
113.3570174150060
 31
0.000000000000000
  0
LINE
  5
DD
100
AcDbEntity
  8
A1
  6
CONTINUOUS
 62
7
100
AcDbLine
 10
238.0467090624016
 20
150.8570174150060
 30
0.000000000000000
 11
238.0467090624015
 21
115.8570174150061
 31
0.000000000000000
  0
LINE
  5
DE
100
AcDbEntity
  8
A1
  6
CONTINUOUS
 62
7
100
AcDbLine
 10
223.2467090624016
 20
153.3570174150060
 30
0.000000000000000
 11
235.5467090624016
 21
153.3570174150060
 31
0.000000000000000
  0
LINE
  5
DF
100
AcDbEntity
  8
A1
  6
CONTINUOUS
 62
7
100
AcDbLine
 10
223.2467090624016
 20
123.8570174149854
 30
0.000000000000000
 11
223.2467090624015
 21
113.3570174150060
 31
0.000000000000000
  0
LINE
  5
E0
100
AcDbEntity
  8
A1
  6
CONTINUOUS
 62
7
100
AcDbLine
 10
222.5467070624015
 20
123.8570174149820
 30
0.000000000000000
 11
222.5467070624015
 21
142.8570174150060
 31
0.000000000000000
  0
LINE
  5
E1
100
AcDbEntity
  8
A1
  6
CONTINUOUS
 62
7
100
AcDbLine
 10
218.5967090624016
 20
123.8570174149688
 30
0.000000000000000
 11
218.5467090625470
 21
123.8570174149687
 31
0.000000000000000
  0
LINE
  5
E2
100
AcDbEntity
  8
A1
  6
CONTINUOUS
 62
7
100
AcDbLine
 10
222.5467070624015
 20
123.8570174149829
 30
0.000000000000000
 11
218.5967090624016
 21
123.8570174149688
 31
0.000000000000000
  0
LINE
  5
E3
100
AcDbEntity
  8
A1
  6
CONTINUOUS
 62
7
100
AcDbLine
 10
218.5967090624016
 20
142.8570174150060
 30
0.000000000000000
 11
218.5467090625470
 21
142.8570174150060
 31
0.000000000000000
  0
LINE
  5
E4
100
AcDbEntity
  8
A1
  6
CONTINUOUS
 62
7
100
AcDbLine
 10
222.5467070624015
 20
142.8570174150060
 30
0.000000000000000
 11
218.5967090624016
 21
142.8570174150060
 31
0.000000000000000
  0
ARC
  5
E5
100
AcDbEntity
  8
A1
  6
CONTINUOUS
 62
7
100
AcDbCircle
 10
219.7967090623299
 20
114.0040762384871
 30
0.000000000000000
 40
1.497058823526377
100
AcDbArc
 50
205.6085321326914
 51
334.3914678696801
  0
ARC
  5
E6
100
AcDbEntity
  8
A1
  6
CONTINUOUS
 62
7
100
AcDbCircle
 10
219.7967090623749
 20
152.7099585914343
 30
0.000000000000000
 40
1.497058823526377
100
AcDbArc
 50
90.00000000000000
 51
154.3914678681869
  0
ARC
  5
E7
100
AcDbEntity
  8
A1
  6
CONTINUOUS
 62
7
100
AcDbCircle
 10
219.7967090623749
 20
152.7099585914343
 30
0.000000000000000
 40
1.497058823526377
100
AcDbArc
 50
25.60853213018619
 51
90.00000000000000
  0
LINE
  5
E8
100
AcDbEntity
  8
A1
  6
CONTINUOUS
 62
7
100
AcDbLine
 10
218.5467090625469
 20
113.3570174149650
 30
0.000000000000000
 11
218.5967090624015
 21
113.3570174149650
 31
0.000000000000000
  0
LINE
  5
E9
100
AcDbEntity
  8
A1
  6
CONTINUOUS
 62
7
100
AcDbLine
 10
218.5467090625470
 20
153.3570174149533
 30
0.000000000000000
 11
218.5967090624016
 21
153.3570174149533
 31
0.000000000000000
  0
LINE
  5
EA
100
AcDbEntity
  8
A4
  6
CENTER
 62
1
100
AcDbLine
 10
215.6467090624076
 20
143.3570174149782
 30
0.000000000000000
 11
209.4467090624076
 21
143.3570174149782
 31
0.000000000000000
  0
LINE
  5
EB
100
AcDbEntity
  8
A4
  6
CENTER
 62
1
100
AcDbLine
 10
212.5467090624076
 20
146.4570174149782
 30
0.000000000000000
 11
212.5467090624076
 21
140.2570174149782
 31
0.000000000000000
  0
LINE
  5
EC
100
AcDbEntity
  8
A4
  6
CENTER
 62
1
100
AcDbLine
 10
215.6467090624076
 20
123.3570174149783
 30
0.000000000000000
 11
209.4467090624076
 21
123.3570174149783
 31
0.000000000000000
  0
LINE
  5
ED
100
AcDbEntity
  8
A4
  6
CENTER
 62
1
100
AcDbLine
 10
212.5467090624076
 20
126.4570174149783
 30
0.000000000000000
 11
212.5467090624076
 21
120.2570174149783
 31
0.000000000000000
  0
LINE
  5
EE
100
AcDbEntity
  8
A4
  6
CENTER
 62
1
100
AcDbLine
 10
235.8967090624016
 20
123.3570174150063
 30
0.000000000000000
 11
229.6967090624016
 21
123.3570174150063
 31
0.000000000000000
  0
LINE
  5
EF
100
AcDbEntity
  8
A4
  6
CENTER
 62
1
100
AcDbLine
 10
232.7967090624016
 20
126.4570174150063
 30
0.000000000000000
 11
232.7967090624016
 21
120.2570174150063
 31
0.000000000000000
  0
LINE
  5
F0
100
AcDbEntity
  8
A4
  6
CENTER
 62
1
100
AcDbLine
 10
235.8967090624016
 20
143.3570174150063
 30
0.000000000000000
 11
229.6967090624016
 21
143.3570174150063
 31
0.000000000000000
  0
LINE
  5
F1
100
AcDbEntity
  8
A4
  6
CENTER
 62
1
100
AcDbLine
 10
232.7967090624016
 20
146.4570174150063
 30
0.000000000000000
 11
232.7967090624016
 21
140.2570174150063
 31
0.000000000000000
  0
LINE
  5
F2
100
AcDbEntity
  8
A4
  6
CENTER
 62
1
100
AcDbLine
 10
219.7967090623299
 20
111.0070174149608
 30
0.000000000000000
 11
219.7967090623749
 21
155.7070174149607
 31
0.000000000000000
  0
LINE
  5
F3
100
AcDbEntity
  8
A1
  6
CENTER
 62
1
100
AcDbLine
 10
156.0727790763152
 20
133.3570174149845
 30
0.000000000000000
 11
173.1838809265867
 21
133.3570174149845
 31
0.000000000000000
  0
ENDSEC
  0
SECTION
  2
OBJECTS
  0
DICTIONARY
  5
123
100
AcDbDictionary
  3
ACAD_GROUP
350
124
  3
ACAD_LAYOUT
350
125
  3
ACAD_MLINESTYLE
350
126
  0
DICTIONARY
  5
124
102
{ACAD_REACTORS
330
123
102
}
330
123
100
AcDbDictionary
  0
DICTIONARY
  5
125
102
{ACAD_REACTORS
330
123
102
}
330
123
100
AcDbDictionary
  3
Model
350
127
  3
ﾚｲｱｳﾄ1
350
128
  3
ﾚｲｱｳﾄ2
350
129
  0
DICTIONARY
  5
126
102
{ACAD_REACTORS
330
123
102
}
330
123
100
AcDbDictionary
  3
STANDARD
350
12A
  0
LAYOUT
  5
127
102
{ACAD_REACTORS
330
125
102
}
330
125
100
AcDbPlotSettings
 70
11952
  4
A3
 44
297.000000
 45
420.000000
 73
  1
 72
  1
100
AcDbLayout
  1
Model
 71
0
330
11A
  0
LAYOUT
  5
128
102
{ACAD_REACTORS
330
125
102
}
330
125
100
AcDbPlotSettings
100
AcDbLayout
  1
ﾚｲｱｳﾄ1
 71
1
330
11B
  0
LAYOUT
  5
129
102
{ACAD_REACTORS
330
125
102
}
330
125
100
AcDbPlotSettings
100
AcDbLayout
  1
ﾚｲｱｳﾄ2
 71
2
330
11C
  0
MLINESTYLE
  5
12A
102
{ACAD_REACTORS
330
126
102
}
330
126
100
AcDbMlineStyle
  2
STANDARD
 70
     0
  3

 62
   256
 51
90.00
 52
90.00
 71
     2
 49
0.50
 62
   256
  6
BYLAYER
 49
-0.50
 62
   256
  6
BYLAYER
  0
ENDSEC
  0
EOF
