  0
SECTION
  2
HEADER
  9
$ACADVER
  1
AC1027
  9
$DWGCODEPAGE
  3
ANSI_932
  9
$LTSCALE
 40
20.0
  9
$FILLMODE
 70
     1
  9
$CLAYER
  8
0
  9
$PDMODE
 70
     0
  9
$SPLFRAME
 70
     0
  9
$SPLINETYPE
 70
     6
  9
$SPLINESEGS
 70
     8
  9
$DIMASZ
 40
2.000000
  9
$DIMEXE
 40
1.500000
  9
$DIMEXO
 40
0.800000
  9
$DIMTAD
 70
     1
  9
$DIMTIH
 70
     0
  9
$DIMTOH
 70
     0
  9
$DIMTVP
 40
0.500000
  9
$DIMTXT
 40
3.100000
  9
$EXTMIN
 10
0.000000
 20
0.000000
 30
0.000000
  9
$EXTMAX
 10
297.000000
 20
420.000000
 30
0.000000
  9
$MEASUREMENT
 70
  1
  9
$LIMMIN
 10
0.000000
 20
0.000000
  9
$LIMMAX
 10
297.000000
 20
420.000000
  9
$HANDSEED
  5
1B4
  9
$LWDISPLAY
290
     0
  9
$DIMBLK
  1
_OPEN
  9
$DIMDEC
 70
     2
  9
$DIMADEC
 70
     2
  9
$DIMAUNIT
 70
     0
  9
$DIMZIN
 70
     8
  9
$DIMAZIN
 70
     2
  9
$DIMTOFL
 70
     1
  0
ENDSEC
  0
SECTION
  2
CLASSES
  0
ENDSEC
  0
SECTION
  2
TABLES
  0
TABLE
  2
VPORT
  5
181
100
AcDbSymbolTable
 70
     1
  0
VPORT
  5
182
100
AcDbSymbolTableRecord
100
AcDbViewportTableRecord
  2
*ACTIVE
 70
     0
 12
161.034082
 22
126.640132
 40
217.280263
 41
1.390224
  0
ENDTAB
  0
TABLE
  2
LTYPE
  5
183
100
AcDbSymbolTable
 70
     3
  0
LTYPE
  5
184
100
AcDbSymbolTableRecord
100
AcDbLinetypeTableRecord
  2
BYBLOCK
 70
     0
  3

 72
    65
 73
     0
 40
0.0
  0
LTYPE
  5
185
100
AcDbSymbolTableRecord
100
AcDbLinetypeTableRecord
  2
BYLAYER
 70
     0
  3

 72
    65
 73
     0
 40
0.0
  0
LTYPE
  5
186
100
AcDbSymbolTableRecord
100
AcDbLinetypeTableRecord
  2
CONTINUOUS
 70
     0
  3
Solid line (NEC CAE2D for Win R18.0 : 2024.05.01)
 72
    65
 73
     0
 40
0.0
  0
LTYPE
  5
187
100
AcDbSymbolTableRecord
100
AcDbLinetypeTableRecord
  2
CENTER
 70
     0
  3
____ _ ____ _ ____ _ ____ _ ____ _ ____
 72
    65
 73
     4
 40
2.0
 49
1.25
 74
     0
 49
-0.25
 74
     0
 49
0.25
 74
     0
 49
-0.25
 74
     0
  0
LTYPE
  5
188
100
AcDbSymbolTableRecord
100
AcDbLinetypeTableRecord
  2
PHANTOM
 70
     0
  3
______  __  __  ______  __  __  ______ 
 72
    65
 73
     6
 40
2.5
 49
1.25
 74
     0
 49
-0.25
 74
     0
 49
0.25
 74
     0
 49
-0.25
 74
     0
 49
0.25
 74
     0
 49
-0.25
 74
     0
  0
ENDTAB
  0
TABLE
  2
LAYER
  5
189
100
AcDbSymbolTable
 70
    12
  0
LAYER
  5
18A
100
AcDbSymbolTableRecord
100
AcDbLayerTableRecord
  2
0
 70
     0
 62
     7
  6
CONTINUOUS
370
    -3
390

  0
LAYER
  5
18B
100
AcDbSymbolTableRecord
100
AcDbLayerTableRecord
  2
DXF0
 70
     0
 62
     7
  6
CONTINUOUS
370
    -3
390

  0
LAYER
  5
18C
100
AcDbSymbolTableRecord
100
AcDbLayerTableRecord
  2
DXF0
 70
     0
 62
     7
  6
CONTINUOUS
370
    -3
390

  0
LAYER
  5
18D
100
AcDbSymbolTableRecord
100
AcDbLayerTableRecord
  2
4
 70
     0
 62
     1
  6
CONTINUOUS
370
    -3
390

  0
LAYER
  5
18E
100
AcDbSymbolTableRecord
100
AcDbLayerTableRecord
  2
5
 70
     0
 62
     6
  6
CONTINUOUS
370
    -3
390

  0
LAYER
  5
18F
100
AcDbSymbolTableRecord
100
AcDbLayerTableRecord
  2
1
 70
     0
 62
     7
  6
CONTINUOUS
370
    -3
390

  0
LAYER
  5
190
100
AcDbSymbolTableRecord
100
AcDbLayerTableRecord
  2
2
 70
     0
 62
     4
  6
CONTINUOUS
370
    -3
390

  0
LAYER
  5
191
100
AcDbSymbolTableRecord
100
AcDbLayerTableRecord
  2
3
 70
     0
 62
     2
  6
CONTINUOUS
370
    -3
390

  0
LAYER
  5
192
100
AcDbSymbolTableRecord
100
AcDbLayerTableRecord
  2
6
 70
     0
 62
     5
  6
CONTINUOUS
370
    -3
390

  0
LAYER
  5
193
100
AcDbSymbolTableRecord
100
AcDbLayerTableRecord
  2
7
 70
     0
 62
     3
  6
CONTINUOUS
370
    -3
390

  0
LAYER
  5
194
100
AcDbSymbolTableRecord
100
AcDbLayerTableRecord
  2
DXF1023
 70
     0
 62
     8
  6
CONTINUOUS
370
    -3
390

  0
LAYER
  5
195
100
AcDbSymbolTableRecord
100
AcDbLayerTableRecord
  2
DXF1023
 70
     0
 62
    16
  6
CONTINUOUS
370
    -3
390

  0
ENDTAB
  0
TABLE
  2
STYLE
  5
196
100
AcDbSymbolTable
 70
     4
  0
STYLE
  5
197
100
AcDbSymbolTableRecord
100
AcDbTextStyleTableRecord
  2
STANDARD
 70
    64
 40
0.0
 41
1.0
 50
0.0
 71
     0
 42
3.000000000000000
  3
TXT
  4

  0
STYLE
  5
198
100
AcDbSymbolTableRecord
100
AcDbTextStyleTableRecord
  2
ANKTATE
 70
    68
 40
0.0
 41
1.0
 50
0.0
 71
     0
 42
3.000000000000000
  3
TXT
  4

  0
STYLE
  5
199
100
AcDbSymbolTableRecord
100
AcDbTextStyleTableRecord
  2
KNJYOKO
 70
    64
 40
0.0
 41
1.0
 50
0.0
 71
     0
 42
3.000000000000000
  3
TXT
  4
BIGFONT
  0
STYLE
  5
19A
100
AcDbSymbolTableRecord
100
AcDbTextStyleTableRecord
  2
KNJTATE
 70
    68
 40
0.0
 41
1.0
 50
0.0
 71
     0
 42
3.000000000000000
  3
TXT
  4
BIGFONT
  0
ENDTAB
  0
TABLE
  2
VIEW
  5
19B
100
AcDbSymbolTable
 70
     0
  0
ENDTAB
  0
TABLE
  2
UCS
  5
19C
100
AcDbSymbolTable
 70
     0
  0
ENDTAB
  0
TABLE
  2
APPID
  5
19D
100
AcDbSymbolTable
 70
     1
  0
APPID
  5
19E
100
AcDbSymbolTableRecord
100
AcDbRegAppTableRecord
  2
ACAD
 70
     0
  0
ENDTAB
  0
TABLE
  2
DIMSTYLE
  5
19F
100
AcDbSymbolTable
 70
     2
100
AcDbDimStyleTable
  0
DIMSTYLE
105
1A0
100
AcDbSymbolTableRecord
100
AcDbDimStyleTableRecord
  2
STANDARD
 70
     0
 41
2.000000
 44
1.500000
 42
0.800000
145
0.661290
140
3.100000
144
1.000000
146
0.645161
340
197
  0
DIMSTYLE
105
1A1
100
AcDbSymbolTableRecord
100
AcDbDimStyleTableRecord
  2
DXF001
 70
     0
 41
2.000000
 44
1.500000
 42
0.800000
145
0.661290
140
3.100000
144
1.000000
146
0.645161
 77
     1
 73
     0
 74
     0
271
     2
179
     2
275
     0
 78
     8
 79
     2
172
     1
340
197
  0
ENDTAB
  0
TABLE
  2
BLOCK_RECORD
  5
1A2
100
AcDbSymbolTable
 70
    12
  0
BLOCK_RECORD
  5
1A3
100
AcDbSymbolTableRecord
100
AcDbBlockTableRecord
  2
*MODEL_SPACE
  0
BLOCK_RECORD
  5
1A4
100
AcDbSymbolTableRecord
100
AcDbBlockTableRecord
  2
*PAPER_SPACE
  0
BLOCK_RECORD
  5
1A5
100
AcDbSymbolTableRecord
100
AcDbBlockTableRecord
  2
*PAPER_SPACE0
  0
BLOCK_RECORD
  5
1
100
AcDbSymbolTableRecord
100
AcDbBlockTableRecord
  2
_NONE
  0
BLOCK_RECORD
  5
4
100
AcDbSymbolTableRecord
100
AcDbBlockTableRecord
  2
_CLOSED
  0
BLOCK_RECORD
  5
B
100
AcDbSymbolTableRecord
100
AcDbBlockTableRecord
  2
_DOT
  0
BLOCK_RECORD
  5
13
100
AcDbSymbolTableRecord
100
AcDbBlockTableRecord
  2
_OPEN
  0
BLOCK_RECORD
  5
19
100
AcDbSymbolTableRecord
100
AcDbBlockTableRecord
  2
_ORIGIN
  0
BLOCK_RECORD
  5
1E
100
AcDbSymbolTableRecord
100
AcDbBlockTableRecord
  2
_OPEN30
  0
BLOCK_RECORD
  5
24
100
AcDbSymbolTableRecord
100
AcDbBlockTableRecord
  2
_BOXFILLED
  0
BLOCK_RECORD
  5
29
100
AcDbSymbolTableRecord
100
AcDbBlockTableRecord
  2
_BOXBLANK
  0
BLOCK_RECORD
  5
31
100
AcDbSymbolTableRecord
100
AcDbBlockTableRecord
  2
_OBLIQUE
  0
BLOCK_RECORD
  5
35
100
AcDbSymbolTableRecord
100
AcDbBlockTableRecord
  2
_OPEN90
  0
BLOCK_RECORD
  5
3B
100
AcDbSymbolTableRecord
100
AcDbBlockTableRecord
  2
_CLOSEDBLANK
  0
BLOCK_RECORD
  5
41
100
AcDbSymbolTableRecord
100
AcDbBlockTableRecord
  2
_DOTBLANK
  0
ENDTAB
  0
ENDSEC
  0
SECTION
  2
BLOCKS
  0
BLOCK
  5
1A6
100
AcDbEntity
  8
0
100
AcDbBlockBegin
  2
*MODEL_SPACE
 70
     0
 10
0.0
 20
0.0
 30
0.0
  3
*MODEL_SPACE
  1

  0
ENDBLK
  5
1A7
100
AcDbEntity
  8
0
100
AcDbBlockEnd
  0
BLOCK
  5
1A8
100
AcDbEntity
  8
0
100
AcDbBlockBegin
  2
*PAPER_SPACE
 70
     0
 10
0.0
 20
0.0
 30
0.0
  3
*PAPER_SPACE
  1

  0
ENDBLK
  5
1A9
100
AcDbEntity
  8
0
100
AcDbBlockEnd
  0
BLOCK
  5
1AA
100
AcDbEntity
  8
0
100
AcDbBlockBegin
  2
*PAPER_SPACE0
 70
     0
 10
0.0
 20
0.0
 30
0.0
  3
*PAPER_SPACE0
  1

  0
ENDBLK
  5
1AB
100
AcDbEntity
  8
0
100
AcDbBlockEnd
  0
BLOCK
  5
2
330
1
100
AcDbEntity
  8
0
100
AcDbBlockBegin
  2
_NONE
 70
     0
 10
0.0
 20
0.0
 30
0.0
  3
_NONE
  1

  0
ENDBLK
  5
3
330
1
100
AcDbEntity
  8
0
100
AcDbBlockEnd
  0
BLOCK
  5
5
330
4
100
AcDbEntity
  8
0
100
AcDbBlockBegin
  2
_CLOSED
 70
     0
 10
0.0
 20
0.0
 30
0.0
  3
_CLOSED
  1

  0
LINE
  5
6
330
4
100
AcDbEntity
  8
0
  6
BYBLOCK
 62
     0
370
    -2
100
AcDbLine
 10
-1.0
 20
0.166667
 30
0.0
 11
0.0
 21
0.0
 31
0.0
  0
LINE
  5
7
330
4
100
AcDbEntity
  8
0
  6
BYBLOCK
 62
     0
370
    -2
100
AcDbLine
 10
0.0
 20
0.0
 30
0.0
 11
-1.0
 21
-0.166667
 31
0.0
  0
LINE
  5
8
330
4
100
AcDbEntity
  8
0
  6
BYBLOCK
 62
     0
370
    -2
100
AcDbLine
 10
-1.0
 20
0.166667
 30
0.0
 11
-1.0
 21
-0.166667
 31
0.0
  0
LINE
  5
9
330
4
100
AcDbEntity
  8
0
  6
BYBLOCK
 62
     0
370
    -2
100
AcDbLine
 10
0.0
 20
0.0
 30
0.0
 11
-1.0
 21
0.0
 31
0.0
  0
ENDBLK
  5
A
330
4
100
AcDbEntity
  8
0
100
AcDbBlockEnd
  0
BLOCK
  5
C
330
B
100
AcDbEntity
  8
0
100
AcDbBlockBegin
  2
_DOT
 70
     0
 10
0.0
 20
0.0
 30
0.0
  3
_DOT
  1

  0
POLYLINE
  5
D
330
B
100
AcDbEntity
  8
0
  6
BYBLOCK
 62
     0
370
    -2
100
AcDb2dPolyline
 66
     1
 10
0.0
 20
0.0
 30
0.0
 70
     1
 40
0.5
 41
0.5
  0
VERTEX
  5
E
330
B
100
AcDbEntity
  8
0
  6
BYBLOCK
 62
     0
370
    -2
100
AcDbVertex
100
AcDb2dVertex
 10
-0.25
 20
0.0
 30
0.0
 42
1.0
  0
VERTEX
  5
F
330
B
100
AcDbEntity
  8
0
  6
BYBLOCK
 62
     0
370
    -2
100
AcDbVertex
100
AcDb2dVertex
 10
0.25
 20
0.0
 30
0.0
 42
1.0
  0
SEQEND
  5
10
330
B
100
AcDbEntity
  8
0
  6
BYBLOCK
 62
     0
370
    -2
  0
LINE
  5
11
330
B
100
AcDbEntity
  8
0
  6
BYBLOCK
 62
     0
370
    -2
100
AcDbLine
 10
-0.5
 20
0.0
 30
0.0
 11
-1.0
 21
0.0
 31
0.0
  0
ENDBLK
  5
12
330
B
100
AcDbEntity
  8
0
100
AcDbBlockEnd
  0
BLOCK
  5
14
330
13
100
AcDbEntity
  8
0
100
AcDbBlockBegin
  2
_OPEN
 70
     0
 10
0.0
 20
0.0
 30
0.0
  3
_OPEN
  1

  0
LINE
  5
15
330
13
100
AcDbEntity
  8
0
  6
BYBLOCK
 62
     0
370
    -2
100
AcDbLine
 10
-1.0
 20
0.166667
 30
0.0
 11
0.0
 21
0.0
 31
0.0
  0
LINE
  5
16
330
13
100
AcDbEntity
  8
0
  6
BYBLOCK
 62
     0
370
    -2
100
AcDbLine
 10
0.0
 20
0.0
 30
0.0
 11
-1.0
 21
-0.166667
 31
0.0
  0
LINE
  5
17
330
13
100
AcDbEntity
  8
0
  6
BYBLOCK
 62
     0
370
    -2
100
AcDbLine
 10
0.0
 20
0.0
 30
0.0
 11
-1.0
 21
0.0
 31
0.0
  0
ENDBLK
  5
18
330
13
100
AcDbEntity
  8
0
100
AcDbBlockEnd
  0
BLOCK
  5
1A
330
19
100
AcDbEntity
  8
0
100
AcDbBlockBegin
  2
_ORIGIN
 70
     0
 10
0.0
 20
0.0
 30
0.0
  3
_ORIGIN
  1

  0
CIRCLE
  5
1B
330
19
100
AcDbEntity
  8
0
  6
BYBLOCK
 62
     0
370
    -2
100
AcDbCircle
 10
0.0
 20
0.0
 30
0.0
 40
0.5
  0
LINE
  5
1C
330
19
100
AcDbEntity
  8
0
  6
BYBLOCK
 62
     0
370
    -2
100
AcDbLine
 10
0.0
 20
0.0
 30
0.0
 11
-1.0
 21
0.0
 31
0.0
  0
ENDBLK
  5
1D
330
19
100
AcDbEntity
  8
0
100
AcDbBlockEnd
  0
BLOCK
  5
1F
330
1E
100
AcDbEntity
  8
0
100
AcDbBlockBegin
  2
_OPEN30
 70
     0
 10
0.0
 20
0.0
 30
0.0
  3
_OPEN30
  1

  0
LINE
  5
20
330
1E
100
AcDbEntity
  8
0
  6
BYBLOCK
 62
     0
370
    -2
100
AcDbLine
 10
-1.0
 20
0.267949
 30
0.0
 11
0.0
 21
0.0
 31
0.0
  0
LINE
  5
21
330
1E
100
AcDbEntity
  8
0
  6
BYBLOCK
 62
     0
370
    -2
100
AcDbLine
 10
0.0
 20
0.0
 30
0.0
 11
-1.0
 21
-0.267949
 31
0.0
  0
LINE
  5
22
330
1E
100
AcDbEntity
  8
0
  6
BYBLOCK
 62
     0
370
    -2
100
AcDbLine
 10
0.0
 20
0.0
 30
0.0
 11
-1.0
 21
0.0
 31
0.0
  0
ENDBLK
  5
23
330
1E
100
AcDbEntity
  8
0
100
AcDbBlockEnd
  0
BLOCK
  5
25
330
24
100
AcDbEntity
  8
0
100
AcDbBlockBegin
  2
_BOXFILLED
 70
     0
 10
0.0
 20
0.0
 30
0.0
  3
_BOXFILLED
  1

  0
SOLID
  5
26
330
24
100
AcDbEntity
  8
0
  6
BYBLOCK
 62
     0
370
    -2
100
AcDbTrace
 10
-0.5
 20
0.5
 30
0.0
 11
0.5
 21
0.5
 31
0.0
 12
-0.5
 22
-0.5
 32
0.0
 13
0.5
 23
-0.5
 33
0.0
  0
LINE
  5
27
330
24
100
AcDbEntity
  8
0
  6
BYBLOCK
 62
     0
370
    -2
100
AcDbLine
 10
-0.5
 20
0.0
 30
0.0
 11
-1.0
 21
0.0
 31
0.0
  0
ENDBLK
  5
28
330
24
100
AcDbEntity
  8
0
100
AcDbBlockEnd
  0
BLOCK
  5
2A
330
29
100
AcDbEntity
  8
0
100
AcDbBlockBegin
  2
_BOXBLANK
 70
     0
 10
0.0
 20
0.0
 30
0.0
  3
_BOXBLANK
  1

  0
LINE
  5
2B
330
29
100
AcDbEntity
  8
0
  6
BYBLOCK
 62
     0
370
    -2
100
AcDbLine
 10
-0.5
 20
-0.5
 30
0.0
 11
0.5
 21
-0.5
 31
0.0
  0
LINE
  5
2C
330
29
100
AcDbEntity
  8
0
  6
BYBLOCK
 62
     0
370
    -2
100
AcDbLine
 10
0.5
 20
-0.5
 30
0.0
 11
0.5
 21
0.5
 31
0.0
  0
LINE
  5
2D
330
29
100
AcDbEntity
  8
0
  6
BYBLOCK
 62
     0
370
    -2
100
AcDbLine
 10
0.5
 20
0.5
 30
0.0
 11
-0.5
 21
0.5
 31
0.0
  0
LINE
  5
2E
330
29
100
AcDbEntity
  8
0
  6
BYBLOCK
 62
     0
370
    -2
100
AcDbLine
 10
-0.5
 20
0.5
 30
0.0
 11
-0.5
 21
-0.5
 31
0.0
  0
LINE
  5
2F
330
29
100
AcDbEntity
  8
0
  6
BYBLOCK
 62
     0
370
    -2
100
AcDbLine
 10
-0.5
 20
0.0
 30
0.0
 11
-1.0
 21
0.0
 31
0.0
  0
ENDBLK
  5
30
330
29
100
AcDbEntity
  8
0
100
AcDbBlockEnd
  0
BLOCK
  5
32
330
31
100
AcDbEntity
  8
0
100
AcDbBlockBegin
  2
_OBLIQUE
 70
     0
 10
0.0
 20
0.0
 30
0.0
  3
_OBLIQUE
  1

  0
LINE
  5
33
330
31
100
AcDbEntity
  8
0
  6
BYBLOCK
 62
     0
370
    -2
100
AcDbLine
 10
-0.5
 20
-0.5
 30
0.0
 11
0.5
 21
0.5
 31
0.0
  0
ENDBLK
  5
34
330
31
100
AcDbEntity
  8
0
100
AcDbBlockEnd
  0
BLOCK
  5
36
330
35
100
AcDbEntity
  8
0
100
AcDbBlockBegin
  2
_OPEN90
 70
     0
 10
0.0
 20
0.0
 30
0.0
  3
_OPEN90
  1

  0
LINE
  5
37
330
35
100
AcDbEntity
  8
0
  6
BYBLOCK
 62
     0
370
    -2
100
AcDbLine
 10
-0.5
 20
0.5
 30
0.0
 11
0.0
 21
0.0
 31
0.0
  0
LINE
  5
38
330
35
100
AcDbEntity
  8
0
  6
BYBLOCK
 62
     0
370
    -2
100
AcDbLine
 10
0.0
 20
0.0
 30
0.0
 11
-0.5
 21
-0.5
 31
0.0
  0
LINE
  5
39
330
35
100
AcDbEntity
  8
0
  6
BYBLOCK
 62
     0
370
    -2
100
AcDbLine
 10
0.0
 20
0.0
 30
0.0
 11
-1.0
 21
0.0
 31
0.0
  0
ENDBLK
  5
3A
330
35
100
AcDbEntity
  8
0
100
AcDbBlockEnd
  0
BLOCK
  5
3C
330
3B
100
AcDbEntity
  8
0
100
AcDbBlockBegin
  2
_CLOSEDBLANK
 70
     0
 10
0.0
 20
0.0
 30
0.0
  3
_CLOSEDBLANK
  1

  0
LINE
  5
3D
330
3B
100
AcDbEntity
  8
0
  6
BYBLOCK
 62
     0
370
    -2
100
AcDbLine
 10
-1.0
 20
0.1666666666666666
 30
0.0
 11
0.0
 21
0.0
 31
0.0
  0
LINE
  5
3E
330
3B
100
AcDbEntity
  8
0
  6
BYBLOCK
 62
     0
370
    -2
100
AcDbLine
 10
0.0
 20
0.0
 30
0.0
 11
-1.0
 21
-0.1666666666666666
 31
0.0
  0
LINE
  5
3F
330
3B
100
AcDbEntity
  8
0
  6
BYBLOCK
 62
     0
370
    -2
100
AcDbLine
 10
-1.0
 20
0.1666666666666666
 30
0.0
 11
-1.0
 21
-0.1666666666666666
 31
0.0
  0
ENDBLK
  5
40
330
3B
100
AcDbEntity
  8
0
100
AcDbBlockEnd
  0
BLOCK
  5
42
330
41
100
AcDbEntity
  8
0
100
AcDbBlockBegin
  2
_DOTBLANK
 70
     0
 10
0.0
 20
0.0
 30
0.0
  3
_DOTBLANK
  1

  0
CIRCLE
  5
43
330
41
100
AcDbEntity
  8
0
  6
BYBLOCK
 62
     0
370
    -2
100
AcDbCircle
 10
0.0
 20
0.0
 30
0.0
 40
0.5
  0
LINE
  5
44
330
41
100
AcDbEntity
  8
0
  6
BYBLOCK
 62
     0
370
    -2
100
AcDbLine
 10
-0.5
 20
0.0
 30
0.0
 11
-1.0
 21
0.0
 31
0.0
  0
ENDBLK
  5
45
330
41
100
AcDbEntity
  8
0
100
AcDbBlockEnd
  0
ENDSEC
  0
SECTION
  2
ENTITIES
  0
MTEXT
  5
46
100
AcDbEntity
  8
7
  6
CONTINUOUS
 62
3
100
AcDbMText
 10
9.999997526638502
 20
18.00000076076889
 30
0.000000000000000
 40
3.000000000000000
 41
0.000000000000000
 44
0.6739999771118164
 71
     7
 72
     1
  1
{\H0.94x;{TYPE No.TH-189SUS-1}}
 11
1.000000000000000
 21
0.000000000000000
 31
0.000000000000000
  7
STANDARD
  0
LINE
  5
47
100
AcDbEntity
  8
4
  6
CENTER
 62
1
100
AcDbLine
 10
41.06816679493774
 20
162.4431179746147
 30
0.000000000000000
 11
35.06816679493775
 21
162.4431179746147
 31
0.000000000000000
  0
LINE
  5
48
100
AcDbEntity
  8
4
  6
CENTER
 62
1
100
AcDbLine
 10
41.06816679493771
 20
106.4431179746146
 30
0.000000000000000
 11
35.06816679493772
 21
106.4431179746146
 31
0.000000000000000
  0
LINE
  5
49
100
AcDbEntity
  8
1
  6
CONTINUOUS
 62
7
100
AcDbLine
 10
140.0681908824892
 20
152.2551652535399
 30
0.000000000000000
 11
140.0681908824892
 21
151.3366755044502
 31
0.000000000000000
  0
LINE
  5
4A
100
AcDbEntity
  8
1
  6
CONTINUOUS
 62
7
100
AcDbLine
 10
140.8998768839138
 20
151.1138259120115
 30
0.000000000000000
 11
139.0261437249772
 21
151.6158911987816
 31
0.000000000000000
  0
LINE
  5
4B
100
AcDbEntity
  8
1
  6
CONTINUOUS
 62
7
100
AcDbLine
 10
140.0681908824893
 20
150.6653134328951
 30
0.000000000000000
 11
141.1342273862476
 21
150.6653134328951
 31
0.000000000000000
  0
LINE
  5
4C
100
AcDbEntity
  8
1
  6
CONTINUOUS
 62
7
100
AcDbLine
 10
139.8459713366611
 20
150.8875329787231
 30
0.000000000000000
 11
138.8965144478140
 21
150.8875329787231
 31
0.000000000000000
  0
ARC
  5
4D
100
AcDbEntity
  8
1
  6
CONTINUOUS
 62
7
100
AcDbCircle
 10
139.8459713366611
 20
150.6653134328949
 30
0.000000000000000
 40
0.2222195458280311
100
AcDbArc
 50
270.0000000000000
 51
450.0000000000000
  0
LINE
  5
4E
100
AcDbEntity
  8
1
  6
CONTINUOUS
 62
7
100
AcDbLine
 10
138.8166237721481
 20
150.4430938870671
 30
0.000000000000000
 11
139.8459713366611
 21
150.4430938870671
 31
0.000000000000000
  0
LINE
  5
4F
100
AcDbEntity
  8
1
  6
CONTINUOUS
 62
7
100
AcDbLine
 10
138.6072429423337
 20
149.9986547954111
 30
0.000000000000000
 11
141.3897988613640
 21
149.9986547954111
 31
0.000000000000000
  0
LINE
  5
50
100
AcDbEntity
  8
1
  6
CONTINUOUS
 62
7
100
AcDbLine
 10
140.0681908824891
 20
149.5542157037548
 30
0.000000000000000
 11
140.0681908824891
 21
149.3319961579268
 31
0.000000000000000
  0
LINE
  5
51
100
AcDbEntity
  8
1
  6
CONTINUOUS
 62
7
100
AcDbLine
 10
141.3229270048914
 20
149.5542157037550
 30
0.000000000000000
 11
140.0681908824892
 21
149.5542157037550
 31
0.000000000000000
  0
ARC
  5
52
100
AcDbEntity
  8
1
  6
CONTINUOUS
 62
7
100
AcDbCircle
 10
141.3229270048914
 20
149.3319961579268
 30
0.000000000000000
 40
0.2222195458280301
100
AcDbArc
 50
10.10418271612528
 51
89.99999999999918
  0
ARC
  5
53
100
AcDbEntity
  8
1
  6
CONTINUOUS
 62
7
100
AcDbCircle
 10
136.3349025125747
 20
148.4431179746147
 30
0.000000000000000
 40
5.288825190707117
100
AcDbArc
 50
7.792924335422743
 51
10.10418271612528
  0
ARC
  5
54
100
AcDbEntity
  8
1
  6
CONTINUOUS
 62
7
100
AcDbCircle
 10
141.5308497981359
 20
149.1542205212643
 30
0.000000000000000
 40
0.04444390916560600
100
AcDbArc
 50
270.0000000000000
 51
367.7929243354228
  0
LINE
  5
55
100
AcDbEntity
  8
1
  6
CONTINUOUS
 62
7
100
AcDbLine
 10
138.6055319668352
 20
149.1097766120989
 30
0.000000000000000
 11
141.5308497981359
 21
149.1097766120989
 31
0.000000000000000
  0
ARC
  5
56
100
AcDbEntity
  8
1
  6
CONTINUOUS
 62
7
100
AcDbCircle
 10
138.6055319668352
 20
149.1542205212645
 30
0.000000000000000
 40
0.04444390916560600
100
AcDbArc
 50
172.2070756645772
 51
270.0000000000000
  0
ARC
  5
57
100
AcDbEntity
  8
1
  6
CONTINUOUS
 62
7
100
AcDbCircle
 10
143.8014792523964
 20
148.4431179746147
 30
0.000000000000000
 40
5.288825190707117
100
AcDbArc
 50
169.8958172838745
 51
172.2070756645772
  0
ARC
  5
58
100
AcDbEntity
  8
1
  6
CONTINUOUS
 62
7
100
AcDbCircle
 10
138.8134547600796
 20
149.3319961579269
 30
0.000000000000000
 40
0.2222195458280301
100
AcDbArc
 50
89.99999999999999
 51
169.8958172838745
  0
LINE
  5
59
100
AcDbEntity
  8
1
  6
CONTINUOUS
 62
7
100
AcDbLine
 10
139.5348639725019
 20
149.5542157037550
 30
0.000000000000000
 11
138.8134547600796
 21
149.5542157037550
 31
0.000000000000000
  0
LINE
  5
5A
100
AcDbEntity
  8
1
  6
CONTINUOUS
 62
7
100
AcDbLine
 10
138.5173246018103
 20
148.6653375204428
 30
0.000000000000000
 11
141.6190571631607
 21
148.6653375204428
 31
0.000000000000000
  0
LINE
  5
5B
100
AcDbEntity
  8
1
  6
CONTINUOUS
 62
7
100
AcDbLine
 10
140.0681908824891
 20
148.2208984287868
 30
0.000000000000000
 11
140.0681908824891
 21
147.7764593371307
 31
0.000000000000000
  0
LINE
  5
5C
100
AcDbEntity
  8
1
  6
CONTINUOUS
 62
7
100
AcDbLine
 10
138.5173246018103
 20
148.2208984287868
 30
0.000000000000000
 11
141.6190571631607
 21
148.2208984287868
 31
0.000000000000000
  0
LINE
  5
5D
100
AcDbEntity
  8
1
  6
CONTINUOUS
 62
7
100
AcDbLine
 10
138.5548385977559
 20
147.7764593371305
 30
0.000000000000000
 11
141.5815431672150
 21
147.7764593371305
 31
0.000000000000000
  0
LINE
  5
5E
100
AcDbEntity
  8
1
  6
CONTINUOUS
 62
7
100
AcDbLine
 10
141.4503945268704
 20
147.3320202454746
 30
0.000000000000000
 11
140.6015177924764
 21
147.3320202454746
 31
0.000000000000000
  0
ARC
  5
5F
100
AcDbEntity
  8
1
  6
CONTINUOUS
 62
7
100
AcDbCircle
 10
141.4503945268705
 20
147.2875763363090
 30
0.000000000000000
 40
0.04444390916560600
100
AcDbArc
 50
347.2710561268771
 51
449.9999999999992
  0
ARC
  5
60
100
AcDbEntity
  8
1
  6
CONTINUOUS
 62
7
100
AcDbCircle
 10
136.3349025125747
 20
148.4431179746147
 30
0.000000000000000
 40
5.288825190707117
100
AcDbArc
 50
344.7937121239422
 51
347.2710561268771
  0
ARC
  5
61
100
AcDbEntity
  8
1
  6
CONTINUOUS
 62
7
100
AcDbCircle
 10
136.3349025125747
 20
148.4431179746147
 30
0.000000000000000
 40
5.288825190707117
100
AcDbArc
 50
344.7424767095430
 51
344.7937121239422
  0
ARC
  5
62
100
AcDbEntity
  8
1
  6
CONTINUOUS
 62
7
100
AcDbCircle
 10
141.2229243829218
 20
147.1098006996466
 30
0.000000000000000
 40
0.2222195458280301
100
AcDbArc
 50
270.0000000000000
 51
344.7424767095430
  0
LINE
  5
63
100
AcDbEntity
  8
1
  6
CONTINUOUS
 62
7
100
AcDbLine
 10
138.9134573820493
 20
146.8875811538186
 30
0.000000000000000
 11
141.2229243829218
 21
146.8875811538186
 31
0.000000000000000
  0
ARC
  5
64
100
AcDbEntity
  8
1
  6
CONTINUOUS
 62
7
100
AcDbCircle
 10
138.9134573820493
 20
147.1098006996466
 30
0.000000000000000
 40
0.2222195458280301
100
AcDbArc
 50
195.2575232904568
 51
270.0000000000000
  0
ARC
  5
65
100
AcDbEntity
  8
1
  6
CONTINUOUS
 62
7
100
AcDbCircle
 10
143.8014792523964
 20
148.4431179746147
 30
0.000000000000000
 40
5.288825190707117
100
AcDbArc
 50
193.2681189705554
 51
195.2575232904568
  0
ARC
  5
66
100
AcDbEntity
  8
1
  6
CONTINUOUS
 62
7
100
AcDbCircle
 10
143.8014792523964
 20
148.4431179746147
 30
0.000000000000000
 40
5.288825190707117
100
AcDbArc
 50
192.7289438731229
 51
193.2681189705554
  0
ARC
  5
67
100
AcDbEntity
  8
1
  6
CONTINUOUS
 62
7
100
AcDbCircle
 10
138.6859872381006
 20
147.2875763363090
 30
0.000000000000000
 40
0.04444390916560600
100
AcDbArc
 50
89.99999999999999
 51
192.7289438731229
  0
LINE
  5
68
100
AcDbEntity
  8
1
  6
CONTINUOUS
 62
7
100
AcDbLine
 10
139.5348639725019
 20
147.3320202454746
 30
0.000000000000000
 11
138.6859872381006
 21
147.3320202454746
 31
0.000000000000000
  0
ARC
  5
69
100
AcDbEntity
  8
1
  6
CONTINUOUS
 62
7
100
AcDbCircle
 10
140.8881804643275
 20
146.2209225163344
 30
0.000000000000000
 40
0.2222195458280301
100
AcDbArc
 50
270.0000000000000
 51
333.9856340003628
  0
ARC
  5
6A
100
AcDbEntity
  8
1
  6
CONTINUOUS
 62
7
100
AcDbCircle
 10
136.3349025125747
 20
148.4431179746147
 30
0.000000000000000
 40
5.288825190707117
100
AcDbArc
 50
333.9856340003628
 51
337.0560464434622
  0
ARC
  5
6B
100
AcDbEntity
  8
1
  6
CONTINUOUS
 62
7
100
AcDbCircle
 10
141.1643830870423
 20
146.3986981529968
 30
0.000000000000000
 40
0.04444390916560600
100
AcDbArc
 50
337.0560464434622
 51
449.9999999999992
  0
LINE
  5
6C
100
AcDbEntity
  8
1
  6
CONTINUOUS
 62
7
100
AcDbLine
 10
138.9719986779289
 20
146.4431420621625
 30
0.000000000000000
 11
141.1643830870422
 21
146.4431420621625
 31
0.000000000000000
  0
ARC
  5
6D
100
AcDbEntity
  8
1
  6
CONTINUOUS
 62
7
100
AcDbCircle
 10
138.9719986779289
 20
146.3986981529968
 30
0.000000000000000
 40
0.04444390916560600
100
AcDbArc
 50
89.99999999999999
 51
202.9439535565374
  0
ARC
  5
6E
100
AcDbEntity
  8
1
  6
CONTINUOUS
 62
7
100
AcDbCircle
 10
143.8014792523964
 20
148.4431179746147
 30
0.000000000000000
 40
5.288825190707117
100
AcDbArc
 50
202.9439535565377
 51
206.0143659996357
  0
ARC
  5
6F
100
AcDbEntity
  8
1
  6
CONTINUOUS
 62
7
100
AcDbCircle
 10
139.2482013006437
 20
146.2209225163344
 30
0.000000000000000
 40
0.2222195458280301
100
AcDbArc
 50
206.0143659996357
 51
270.0000000000000
  0
LINE
  5
70
100
AcDbEntity
  8
1
  6
CONTINUOUS
 62
7
100
AcDbLine
 10
140.8881804643274
 20
145.9987029705064
 30
0.000000000000000
 11
139.2482013006435
 21
145.9987029705064
 31
0.000000000000000
  0
LINE
  5
71
100
AcDbEntity
  8
1
  6
CONTINUOUS
 62
7
100
AcDbLine
 10
138.8492230650806
 20
145.5542638788504
 30
0.000000000000000
 11
140.7650485498112
 21
145.5542638788504
 31
0.000000000000000
  0
ARC
  5
72
100
AcDbEntity
  8
1
  6
CONTINUOUS
 62
7
100
AcDbCircle
 10
140.0681908824893
 20
151.1097525245510
 30
0.000000000000000
 40
1.145412728988864
100
AcDbArc
 50
35.53767779194785
 51
45.69883927961591
  0
ARC
  5
73
100
AcDbEntity
  8
1
  6
CONTINUOUS
 62
7
100
AcDbCircle
 10
136.3349025125747
 20
148.4431179746147
 30
0.000000000000000
 40
5.733264282363177
100
AcDbArc
 50
324.4623222080522
 51
395.5376777919478
  0
ARC
  5
74
100
AcDbEntity
  8
1
  6
CONTINUOUS
 62
7
100
AcDbCircle
 10
140.0681908824892
 20
145.7764834246784
 30
0.000000000000000
 40
1.145412728988863
100
AcDbArc
 50
270.0000000000000
 51
324.4623222080522
  0
ARC
  5
75
100
AcDbEntity
  8
1
  6
CONTINUOUS
 62
7
100
AcDbCircle
 10
140.0681908824893
 20
151.1097525245510
 30
0.000000000000000
 40
1.145412728988864
100
AcDbArc
 50
62.24965455462765
 51
144.4623222079983
  0
ARC
  5
76
100
AcDbEntity
  8
1
  6
CONTINUOUS
 62
7
100
AcDbCircle
 10
143.8014792523964
 20
148.4431179746147
 30
0.000000000000000
 40
5.733264282363177
100
AcDbArc
 50
144.4623222079983
 51
215.5376777919998
  0
ARC
  5
77
100
AcDbEntity
  8
1
  6
CONTINUOUS
 62
7
100
AcDbCircle
 10
140.0681908824892
 20
145.7764834246784
 30
0.000000000000000
 40
1.145412728988863
100
AcDbArc
 50
215.5376777919998
 51
256.5374393917323
  0
LINE
  5
78
100
AcDbEntity
  8
1
  6
CONTINUOUS
 62
7
100
AcDbLine
 10
116.0681667949377
 20
151.9431179746146
 30
0.000000000000000
 11
128.5681667949387
 21
151.9431179746146
 31
0.000000000000000
  0
LINE
  5
79
100
AcDbEntity
  8
1
  6
CONTINUOUS
 62
7
100
AcDbLine
 10
116.0681667949377
 20
116.9431179746146
 30
0.000000000000000
 11
128.5681667949387
 21
116.9431179746146
 31
0.000000000000000
  0
LINE
  5
7A
100
AcDbEntity
  8
1
  6
CONTINUOUS
 62
7
100
AcDbLine
 10
117.5681667949387
 20
113.8431179746147
 30
0.000000000000000
 11
130.0681667949377
 21
113.8431179746147
 31
0.000000000000000
  0
LINE
  5
7B
100
AcDbEntity
  8
1
  6
CONTINUOUS
 62
7
100
AcDbLine
 10
117.5681667949387
 20
155.0431179746146
 30
0.000000000000000
 11
130.0681667949377
 21
155.0431179746146
 31
0.000000000000000
  0
LINE
  5
7C
100
AcDbEntity
  8
4
  6
CENTER
 62
1
100
AcDbLine
 10
34.06816679493772
 20
134.4431179746375
 30
0.000000000000000
 11
51.06816679493769
 21
134.4431179746375
 31
0.000000000000000
  0
LINE
  5
7D
100
AcDbEntity
  8
4
  6
CENTER
 62
1
100
AcDbLine
 10
42.56816679493774
 20
176.9431179746374
 30
0.000000000000000
 11
42.56816679493772
 21
91.94311797463759
 31
0.000000000000000
  0
LINE
  5
7E
100
AcDbEntity
  8
1
  6
CONTINUOUS
 62
7
100
AcDbLine
 10
37.06816679493775
 20
173.4431179746375
 30
0.000000000000000
 11
48.06816679493784
 21
173.4431179746374
 31
0.000000000000000
  0
LINE
  5
7F
100
AcDbEntity
  8
1
  6
CONTINUOUS
 62
7
100
AcDbLine
 10
37.06816679493772
 20
95.44311797463754
 30
0.000000000000000
 11
48.06816679493771
 21
95.44311797463754
 31
0.000000000000000
  0
LINE
  5
80
100
AcDbEntity
  8
1
  6
CONTINUOUS
 62
7
100
AcDbLine
 10
41.51816679493774
 20
151.9431179746375
 30
0.000000000000000
 11
48.06816679493775
 21
151.9431179746375
 31
0.000000000000000
  0
LINE
  5
81
100
AcDbEntity
  8
1
  6
CONTINUOUS
 62
7
100
AcDbLine
 10
41.51816679493790
 20
116.9431179746374
 30
0.000000000000000
 11
48.06816679493771
 21
116.9431179746374
 31
0.000000000000000
  0
LINE
  5
82
100
AcDbEntity
  8
1
  6
CONTINUOUS
 62
7
100
AcDbLine
 10
39.06816679493775
 20
173.4431179746375
 30
0.000000000000000
 11
39.06816679493772
 21
95.44311797463747
 31
0.000000000000000
  0
LINE
  5
83
100
AcDbEntity
  8
1
  6
CONTINUOUS
 62
7
100
AcDbLine
 10
37.06816679493775
 20
173.4431179746375
 30
0.000000000000000
 11
37.06816679493772
 21
95.44311797463747
 31
0.000000000000000
  0
LINE
  5
84
100
AcDbEntity
  8
4
  6
CENTER
 62
1
100
AcDbLine
 10
140.0681667949378
 20
166.9431179746147
 30
0.000000000000000
 11
140.0681667949378
 21
101.9431179746146
 31
0.000000000000000
  0
LINE
  5
85
100
AcDbEntity
  8
4
  6
CENTER
 62
1
100
AcDbLine
 10
106.0681667949377
 20
166.5931179746147
 30
0.000000000000000
 11
106.0681667949377
 21
102.2931179746146
 31
0.000000000000000
  0
LINE
  5
86
100
AcDbEntity
  8
4
  6
CENTER
 62
1
100
AcDbLine
 10
95.06816679493772
 20
134.4431179746146
 30
0.000000000000000
 11
151.0681667949377
 21
134.4431179746147
 31
0.000000000000000
  0
LINE
  5
87
100
AcDbEntity
  8
4
  6
CENTER
 62
1
100
AcDbLine
 10
135.9181667949377
 20
106.4431179746146
 30
0.000000000000000
 11
144.2181667949378
 21
106.4431179746146
 31
0.000000000000000
  0
LINE
  5
88
100
AcDbEntity
  8
4
  6
CENTER
 62
1
100
AcDbLine
 10
135.9181667949378
 20
162.4431179746147
 30
0.000000000000000
 11
144.2181667949378
 21
162.4431179746147
 31
0.000000000000000
  0
LINE
  5
89
100
AcDbEntity
  8
4
  6
CENTER
 62
1
100
AcDbLine
 10
110.2181667949377
 20
162.4431179746146
 30
0.000000000000000
 11
101.9181667949377
 21
162.4431179746146
 31
0.000000000000000
  0
LINE
  5
8A
100
AcDbEntity
  8
4
  6
CENTER
 62
1
100
AcDbLine
 10
110.2181667949376
 20
106.4431179746146
 30
0.000000000000000
 11
101.9181667949377
 21
106.4431179746146
 31
0.000000000000000
  0
LINE
  5
8B
100
AcDbEntity
  8
4
  6
CENTER
 62
1
100
AcDbLine
 10
123.0681667949387
 20
176.9431179746146
 30
0.000000000000000
 11
123.0681667949387
 21
91.94311797461467
 31
0.000000000000000
  0
LINE
  5
8C
100
AcDbEntity
  8
1
  6
CONTINUOUS
 62
7
100
AcDbLine
 10
117.5681667949387
 20
95.44311797461467
 30
0.000000000000000
 11
145.0681667949377
 21
95.44311797461474
 31
0.000000000000000
  0
LINE
  5
8D
100
AcDbEntity
  8
1
  6
CONTINUOUS
 62
7
100
AcDbLine
 10
117.5681667949387
 20
173.4431179746146
 30
0.000000000000000
 11
145.0681667949377
 21
173.4431179746146
 31
0.000000000000000
  0
LINE
  5
8E
100
AcDbEntity
  8
1
  6
CONTINUOUS
 62
7
100
AcDbLine
 10
128.4681667949387
 20
113.8431179746147
 30
0.000000000000000
 11
128.4681667949387
 21
116.9431179746146
 31
0.000000000000000
  0
LINE
  5
8F
100
AcDbEntity
  8
1
  6
CONTINUOUS
 62
7
100
AcDbLine
 10
117.6681667949388
 20
113.8431179746147
 30
0.000000000000000
 11
117.6681667949388
 21
116.9431179746146
 31
0.000000000000000
  0
LINE
  5
90
100
AcDbEntity
  8
1
  6
CONTINUOUS
 62
7
100
AcDbLine
 10
117.6681667949388
 20
155.0431179746146
 30
0.000000000000000
 11
117.6681667949388
 21
151.9431179746146
 31
0.000000000000000
  0
LINE
  5
91
100
AcDbEntity
  8
1
  6
CONTINUOUS
 62
7
100
AcDbLine
 10
128.4681667949387
 20
155.0431179746146
 30
0.000000000000000
 11
128.4681667949387
 21
151.9431179746146
 31
0.000000000000000
  0
LINE
  5
92
100
AcDbEntity
  8
1
  6
CONTINUOUS
 62
7
100
AcDbLine
 10
126.5681667949387
 20
95.24311797461471
 30
0.000000000000000
 11
126.5681667949387
 21
95.44311797461467
 31
0.000000000000000
  0
LINE
  5
93
100
AcDbEntity
  8
1
  6
CONTINUOUS
 62
7
100
AcDbLine
 10
119.5681667949387
 20
95.24311797461471
 30
0.000000000000000
 11
119.5681667949387
 21
95.44311797461467
 31
0.000000000000000
  0
LINE
  5
94
100
AcDbEntity
  8
1
  6
CONTINUOUS
 62
7
100
AcDbLine
 10
126.2681667949387
 20
94.94311797461472
 30
0.000000000000000
 11
126.5681667949387
 21
95.24311797461471
 31
0.000000000000000
  0
LINE
  5
95
100
AcDbEntity
  8
1
  6
CONTINUOUS
 62
7
100
AcDbLine
 10
119.8681667949387
 20
94.94311797461471
 30
0.000000000000000
 11
119.5681667949387
 21
95.24311797461472
 31
0.000000000000000
  0
LINE
  5
96
100
AcDbEntity
  8
1
  6
CONTINUOUS
 62
7
100
AcDbLine
 10
126.2681667949387
 20
94.94311797461472
 30
0.000000000000000
 11
119.8681667949387
 21
94.94311797461469
 31
0.000000000000000
  0
LINE
  5
97
100
AcDbEntity
  8
1
  6
CONTINUOUS
 62
7
100
AcDbLine
 10
119.5681667949387
 20
95.24311797461471
 30
0.000000000000000
 11
126.5681667949387
 21
95.24311797461471
 31
0.000000000000000
  0
LINE
  5
98
100
AcDbEntity
  8
1
  6
CONTINUOUS
 62
7
100
AcDbLine
 10
119.5681667949386
 20
173.6431179746146
 30
0.000000000000000
 11
119.5681667949386
 21
173.4431179746146
 31
0.000000000000000
  0
LINE
  5
99
100
AcDbEntity
  8
1
  6
CONTINUOUS
 62
7
100
AcDbLine
 10
126.5681667949387
 20
173.6431179746146
 30
0.000000000000000
 11
126.5681667949387
 21
173.4431179746146
 31
0.000000000000000
  0
LINE
  5
9A
100
AcDbEntity
  8
1
  6
CONTINUOUS
 62
7
100
AcDbLine
 10
119.8681667949386
 20
173.9431179746146
 30
0.000000000000000
 11
119.5681667949386
 21
173.6431179746146
 31
0.000000000000000
  0
LINE
  5
9B
100
AcDbEntity
  8
1
  6
CONTINUOUS
 62
7
100
AcDbLine
 10
126.2681667949387
 20
173.9431179746146
 30
0.000000000000000
 11
126.5681667949387
 21
173.6431179746147
 31
0.000000000000000
  0
LINE
  5
9C
100
AcDbEntity
  8
1
  6
CONTINUOUS
 62
7
100
AcDbLine
 10
119.8681667949386
 20
173.9431179746146
 30
0.000000000000000
 11
126.2681667949387
 21
173.9431179746146
 31
0.000000000000000
  0
LINE
  5
9D
100
AcDbEntity
  8
1
  6
CONTINUOUS
 62
7
100
AcDbLine
 10
126.5681667949387
 20
173.6431179746146
 30
0.000000000000000
 11
119.5681667949386
 21
173.6431179746146
 31
0.000000000000000
  0
LINE
  5
9E
100
AcDbEntity
  8
1
  6
CONTINUOUS
 62
7
100
AcDbLine
 10
131.0681667949377
 20
154.0431179746146
 30
0.000000000000000
 11
131.0681667949377
 21
114.8431179746147
 31
0.000000000000000
  0
LINE
  5
9F
100
AcDbEntity
  8
1
  6
CONTINUOUS
 62
7
100
AcDbLine
 10
128.5681667949387
 20
95.44311797461474
 30
0.000000000000000
 11
128.5681667949387
 21
113.8431179746147
 31
0.000000000000000
  0
LINE
  5
A0
100
AcDbEntity
  8
1
  6
CONTINUOUS
 62
7
100
AcDbLine
 10
117.5681667949387
 20
95.44311797461467
 30
0.000000000000000
 11
117.5681667949387
 21
113.8431179746147
 31
0.000000000000000
  0
LINE
  5
A1
100
AcDbEntity
  8
1
  6
CONTINUOUS
 62
7
100
AcDbLine
 10
128.5681667949387
 20
155.0431179746146
 30
0.000000000000000
 11
128.5681667949387
 21
173.4431179746146
 31
0.000000000000000
  0
LINE
  5
A2
100
AcDbEntity
  8
1
  6
CONTINUOUS
 62
7
100
AcDbLine
 10
117.5681667949387
 20
155.0431179746146
 30
0.000000000000000
 11
117.5681667949387
 21
173.4431179746146
 31
0.000000000000000
  0
LINE
  5
A3
100
AcDbEntity
  8
1
  6
CONTINUOUS
 62
7
100
AcDbLine
 10
148.0681667949377
 20
170.4431179746147
 30
0.000000000000000
 11
148.0681667949377
 21
98.44311797461472
 31
0.000000000000000
  0
ARC
  5
A4
100
AcDbEntity
  8
1
  6
CONTINUOUS
 62
7
100
AcDbCircle
 10
145.0681667949377
 20
98.44311797461472
 30
0.000000000000000
 40
2.999999999999996
100
AcDbArc
 50
270.0000000000000
 51
360.0000000000000
  0
ARC
  5
A5
100
AcDbEntity
  8
1
  6
CONTINUOUS
 62
7
100
AcDbCircle
 10
130.0681667949377
 20
114.8431179746147
 30
0.000000000000000
 40
1.000000000000001
100
AcDbArc
 50
270.0000000000000
 51
359.9999999999983
  0
ARC
  5
A6
100
AcDbEntity
  8
1
  6
CONTINUOUS
 62
7
100
AcDbCircle
 10
130.0681667949377
 20
154.0431179746146
 30
0.000000000000000
 40
0.9999999999999971
100
AcDbArc
 50
0.000000000000000
 51
89.99999999999999
  0
ARC
  5
A7
100
AcDbEntity
  8
1
  6
CONTINUOUS
 62
7
100
AcDbCircle
 10
145.0681667949377
 20
170.4431179746146
 30
0.000000000000000
 40
2.999999999999996
100
AcDbArc
 50
0.000000000000000
 51
89.99999999999999
  0
ARC
  5
A8
100
AcDbEntity
  8
1
  6
CONTINUOUS
 62
7
100
AcDbCircle
 10
140.0681667949378
 20
106.0931179746146
 30
0.000000000000000
 40
2.149999999999999
100
AcDbArc
 50
180.0000000000000
 51
360.0000000000000
  0
LINE
  5
A9
100
AcDbEntity
  8
1
  6
CONTINUOUS
 62
7
100
AcDbLine
 10
142.2181667949378
 20
106.7931179746147
 30
0.000000000000000
 11
142.2181667949378
 21
106.0931179746147
 31
0.000000000000000
  0
ARC
  5
AA
100
AcDbEntity
  8
1
  6
CONTINUOUS
 62
7
100
AcDbCircle
 10
140.0681667949378
 20
106.7931179746146
 30
0.000000000000000
 40
2.150000000000002
100
AcDbArc
 50
0.000000000000000
 51
180.0000000000000
  0
LINE
  5
AB
100
AcDbEntity
  8
1
  6
CONTINUOUS
 62
7
100
AcDbLine
 10
137.9181667949377
 20
106.0931179746147
 30
0.000000000000000
 11
137.9181667949377
 21
106.7931179746147
 31
0.000000000000000
  0
ARC
  5
AC
100
AcDbEntity
  8
1
  6
CONTINUOUS
 62
7
100
AcDbCircle
 10
140.0681667949378
 20
162.0931179746146
 30
0.000000000000000
 40
2.149999999999999
100
AcDbArc
 50
180.0000000000000
 51
360.0000000000000
  0
LINE
  5
AD
100
AcDbEntity
  8
1
  6
CONTINUOUS
 62
7
100
AcDbLine
 10
142.2181667949378
 20
162.7931179746146
 30
0.000000000000000
 11
142.2181667949378
 21
162.0931179746146
 31
0.000000000000000
  0
ARC
  5
AE
100
AcDbEntity
  8
1
  6
CONTINUOUS
 62
7
100
AcDbCircle
 10
140.0681667949378
 20
162.7931179746146
 30
0.000000000000000
 40
2.150000000000002
100
AcDbArc
 50
0.000000000000000
 51
180.0000000000000
  0
LINE
  5
AF
100
AcDbEntity
  8
1
  6
CONTINUOUS
 62
7
100
AcDbLine
 10
137.9181667949377
 20
162.0931179746146
 30
0.000000000000000
 11
137.9181667949377
 21
162.7931179746146
 31
0.000000000000000
  0
ARC
  5
B0
100
AcDbEntity
  8
1
  6
CONTINUOUS
 62
7
100
AcDbCircle
 10
140.0681667949378
 20
134.7931179746146
 30
0.000000000000000
 40
2.150000000000002
100
AcDbArc
 50
0.000000000000000
 51
180.0000000000000
  0
LINE
  5
B1
100
AcDbEntity
  8
1
  6
CONTINUOUS
 62
7
100
AcDbLine
 10
137.9181667949377
 20
134.0931179746147
 30
0.000000000000000
 11
137.9181667949377
 21
134.7931179746147
 31
0.000000000000000
  0
ARC
  5
B2
100
AcDbEntity
  8
1
  6
CONTINUOUS
 62
7
100
AcDbCircle
 10
140.0681667949378
 20
134.0931179746146
 30
0.000000000000000
 40
2.149999999999999
100
AcDbArc
 50
180.0000000000000
 51
360.0000000000000
  0
LINE
  5
B3
100
AcDbEntity
  8
1
  6
CONTINUOUS
 62
7
100
AcDbLine
 10
142.2181667949378
 20
134.7931179746147
 30
0.000000000000000
 11
142.2181667949378
 21
134.0931179746147
 31
0.000000000000000
  0
CIRCLE
  5
B4
100
AcDbEntity
  8
1
  6
CONTINUOUS
 62
7
100
AcDbCircle
 10
106.0681667949377
 20
162.4431179746146
 30
0.000000000000000
 40
2.149999999999999
  0
CIRCLE
  5
B5
100
AcDbEntity
  8
1
  6
CONTINUOUS
 62
7
100
AcDbCircle
 10
106.0681667949377
 20
134.4431179746146
 30
0.000000000000000
 40
2.149999999999999
  0
CIRCLE
  5
B6
100
AcDbEntity
  8
1
  6
CONTINUOUS
 62
7
100
AcDbCircle
 10
106.0681667949377
 20
106.4431179746146
 30
0.000000000000000
 40
2.149999999999999
  0
LINE
  5
B7
100
AcDbEntity
  8
1
  6
CONTINUOUS
 62
7
100
AcDbLine
 10
115.0681667949377
 20
152.9431179746146
 30
0.000000000000000
 11
115.0681667949377
 21
172.4431179746146
 31
0.000000000000000
  0
LINE
  5
B8
100
AcDbEntity
  8
1
  6
CONTINUOUS
 62
7
100
AcDbLine
 10
115.0681667949377
 20
96.44311797461469
 30
0.000000000000000
 11
115.0681667949377
 21
115.9431179746146
 31
0.000000000000000
  0
LINE
  5
B9
100
AcDbEntity
  8
1
  6
CONTINUOUS
 62
7
100
AcDbLine
 10
101.0681667949377
 20
95.44311797461467
 30
0.000000000000000
 11
114.0681667949377
 21
95.44311797461467
 31
0.000000000000000
  0
LINE
  5
BA
100
AcDbEntity
  8
1
  6
CONTINUOUS
 62
7
100
AcDbLine
 10
98.06816679493772
 20
170.4431179746146
 30
0.000000000000000
 11
98.06816679493772
 21
98.44311797461467
 31
0.000000000000000
  0
LINE
  5
BB
100
AcDbEntity
  8
1
  6
CONTINUOUS
 62
7
100
AcDbLine
 10
114.0681667949377
 20
173.4431179746146
 30
0.000000000000000
 11
101.0681667949377
 21
173.4431179746146
 31
0.000000000000000
  0
ARC
  5
BC
100
AcDbEntity
  8
1
  6
CONTINUOUS
 62
7
100
AcDbCircle
 10
114.0681667949377
 20
172.4431179746146
 30
0.000000000000000
 40
1.000000000000005
100
AcDbArc
 50
0.000000000000000
 51
89.99999999999999
  0
ARC
  5
BD
100
AcDbEntity
  8
1
  6
CONTINUOUS
 62
7
100
AcDbCircle
 10
116.0681667949377
 20
152.9431179746146
 30
0.000000000000000
 40
0.9999999999999974
100
AcDbArc
 50
180.0000000000000
 51
270.0000000000000
  0
ARC
  5
BE
100
AcDbEntity
  8
1
  6
CONTINUOUS
 62
7
100
AcDbCircle
 10
116.0681667949377
 20
115.9431179746146
 30
0.000000000000000
 40
0.9999999999999984
100
AcDbArc
 50
89.99999999999999
 51
180.0000000000000
  0
ARC
  5
BF
100
AcDbEntity
  8
1
  6
CONTINUOUS
 62
7
100
AcDbCircle
 10
114.0681667949377
 20
96.44311797461462
 30
0.000000000000000
 40
1.000000000000007
100
AcDbArc
 50
270.0000000000000
 51
360.0000000000000
  0
ARC
  5
C0
100
AcDbEntity
  8
1
  6
CONTINUOUS
 62
7
100
AcDbCircle
 10
101.0681667949377
 20
98.44311797461467
 30
0.000000000000000
 40
2.999999999999998
100
AcDbArc
 50
180.0000000000000
 51
270.0000000000000
  0
ARC
  5
C1
100
AcDbEntity
  8
1
  6
CONTINUOUS
 62
7
100
AcDbCircle
 10
101.0681667949377
 20
170.4431179746146
 30
0.000000000000000
 40
2.999999999999998
100
AcDbArc
 50
89.99999999999999
 51
180.0000000000000
  0
LINE
  5
C2
100
AcDbEntity
  8
1
  6
CONTINUOUS
 62
7
100
AcDbLine
 10
117.5681667949387
 20
151.9431179746146
 30
0.000000000000000
 11
117.5681667949387
 21
116.9431179746146
 31
0.000000000000000
  0
LINE
  5
C3
100
AcDbEntity
  8
1
  6
CONTINUOUS
 62
7
100
AcDbLine
 10
128.5681667949387
 20
151.9431179746146
 30
0.000000000000000
 11
128.5681667949387
 21
116.9431179746146
 31
0.000000000000000
  0
LINE
  5
C4
100
AcDbEntity
  8
1
  6
CONTINUOUS
 62
7
100
AcDbLine
 10
47.96816679493783
 20
113.8431179746375
 30
0.000000000000000
 11
47.96816679493783
 21
116.9431179746374
 31
0.000000000000000
  0
LINE
  5
C5
100
AcDbEntity
  8
1
  6
CONTINUOUS
 62
7
100
AcDbLine
 10
39.56816679493772
 20
132.9431179746375
 30
0.000000000000000
 11
39.06816679493772
 21
132.9431179746375
 31
0.000000000000000
  0
LINE
  5
C6
100
AcDbEntity
  8
1
  6
CONTINUOUS
 62
7
100
AcDbLine
 10
41.51816679493774
 20
116.9431179746374
 30
0.000000000000000
 11
41.51816679493774
 21
128.7431179746374
 31
0.000000000000000
  0
LINE
  5
C7
100
AcDbEntity
  8
1
  6
CONTINUOUS
 62
7
100
AcDbLine
 10
39.06816679493772
 20
129.4431179746374
 30
0.000000000000000
 11
40.81816679493772
 21
129.4431179746374
 31
0.000000000000000
  0
LINE
  5
C8
100
AcDbEntity
  8
1
  6
CONTINUOUS
 62
7
100
AcDbLine
 10
47.96816679493783
 20
155.0431179746374
 30
0.000000000000000
 11
47.96816679493783
 21
151.9431179746375
 31
0.000000000000000
  0
LINE
  5
C9
100
AcDbEntity
  8
1
  6
CONTINUOUS
 62
7
100
AcDbLine
 10
39.06816679493772
 20
135.9431179746375
 30
0.000000000000000
 11
39.56816679493793
 21
135.9431179746375
 31
0.000000000000000
  0
LINE
  5
CA
100
AcDbEntity
  8
1
  6
CONTINUOUS
 62
7
100
AcDbLine
 10
40.81816679493772
 20
139.4431179746375
 30
0.000000000000000
 11
39.06816679493772
 21
139.4431179746375
 31
0.000000000000000
  0
LINE
  5
CB
100
AcDbEntity
  8
1
  6
CONTINUOUS
 62
7
100
AcDbLine
 10
41.51816679493774
 20
151.9431179746375
 30
0.000000000000000
 11
41.51816679493774
 21
140.1431179746376
 31
0.000000000000000
  0
LINE
  5
CC
100
AcDbEntity
  8
1
  6
CONTINUOUS
 62
7
100
AcDbLine
 10
46.06816679493771
 20
95.24311797463758
 30
0.000000000000000
 11
46.06816679493771
 21
95.44311797463747
 31
0.000000000000000
  0
LINE
  5
CD
100
AcDbEntity
  8
1
  6
CONTINUOUS
 62
7
100
AcDbLine
 10
39.06816679493772
 20
95.24311797463758
 30
0.000000000000000
 11
39.06816679493772
 21
95.44311797463747
 31
0.000000000000000
  0
LINE
  5
CE
100
AcDbEntity
  8
1
  6
CONTINUOUS
 62
7
100
AcDbLine
 10
45.76816679493786
 20
94.94311797463760
 30
0.000000000000000
 11
46.06816679493772
 21
95.24311797463763
 31
0.000000000000000
  0
LINE
  5
CF
100
AcDbEntity
  8
1
  6
CONTINUOUS
 62
7
100
AcDbLine
 10
39.36816679493781
 20
94.94311797463743
 30
0.000000000000000
 11
39.06816679493781
 21
95.24311797463758
 31
0.000000000000000
  0
LINE
  5
D0
100
AcDbEntity
  8
1
  6
CONTINUOUS
 62
7
100
AcDbLine
 10
45.76816679493774
 20
94.94311797463756
 30
0.000000000000000
 11
39.36816679493782
 21
94.94311797463756
 31
0.000000000000000
  0
LINE
  5
D1
100
AcDbEntity
  8
1
  6
CONTINUOUS
 62
7
100
AcDbLine
 10
39.06816679493772
 20
95.24311797463758
 30
0.000000000000000
 11
46.06816679493771
 21
95.24311797463758
 31
0.000000000000000
  0
LINE
  5
D2
100
AcDbEntity
  8
1
  6
CONTINUOUS
 62
7
100
AcDbLine
 10
39.06816679493792
 20
173.6431179746374
 30
0.000000000000000
 11
39.06816679493792
 21
173.4431179746375
 31
0.000000000000000
  0
LINE
  5
D3
100
AcDbEntity
  8
1
  6
CONTINUOUS
 62
7
100
AcDbLine
 10
46.06816679493792
 20
173.6431179746374
 30
0.000000000000000
 11
46.06816679493792
 21
173.4431179746374
 31
0.000000000000000
  0
LINE
  5
D4
100
AcDbEntity
  8
1
  6
CONTINUOUS
 62
7
100
AcDbLine
 10
39.36816679493781
 20
173.9431179746375
 30
0.000000000000000
 11
39.06816679493782
 21
173.6431179746374
 31
0.000000000000000
  0
LINE
  5
D5
100
AcDbEntity
  8
1
  6
CONTINUOUS
 62
7
100
AcDbLine
 10
45.76816679493795
 20
173.9431179746375
 30
0.000000000000000
 11
46.06816679493785
 21
173.6431179746374
 31
0.000000000000000
  0
LINE
  5
D6
100
AcDbEntity
  8
1
  6
CONTINUOUS
 62
7
100
AcDbLine
 10
39.36816679493782
 20
173.9431179746374
 30
0.000000000000000
 11
45.76816679493793
 21
173.9431179746374
 31
0.000000000000000
  0
LINE
  5
D7
100
AcDbEntity
  8
1
  6
CONTINUOUS
 62
7
100
AcDbLine
 10
46.06816679493792
 20
173.6431179746374
 30
0.000000000000000
 11
39.06816679493792
 21
173.6431179746374
 31
0.000000000000000
  0
LINE
  5
D8
100
AcDbEntity
  8
1
  6
CONTINUOUS
 62
7
100
AcDbLine
 10
39.06816679493772
 20
113.8431179746375
 30
0.000000000000000
 11
48.06816679493771
 21
113.8431179746375
 31
0.000000000000000
  0
LINE
  5
D9
100
AcDbEntity
  8
1
  6
CONTINUOUS
 62
7
100
AcDbLine
 10
48.06816679493775
 20
155.0431179746374
 30
0.000000000000000
 11
39.06816679493775
 21
155.0431179746374
 31
0.000000000000000
  0
LINE
  5
DA
100
AcDbEntity
  8
1
  6
CONTINUOUS
 62
7
100
AcDbLine
 10
48.06816679493771
 20
95.44311797463754
 30
0.000000000000000
 11
48.06816679493771
 21
113.8431179746375
 31
0.000000000000000
  0
LINE
  5
DB
100
AcDbEntity
  8
1
  6
CONTINUOUS
 62
7
100
AcDbLine
 10
48.06816679493775
 20
155.0431179746374
 30
0.000000000000000
 11
48.06816679493784
 21
173.4431179746374
 31
0.000000000000000
  0
LINE
  5
DC
100
AcDbEntity
  8
1
  6
CONTINUOUS
 62
7
100
AcDbLine
 10
41.06816679493769
 20
129.5431179746375
 30
0.000000000000000
 11
40.06816679493772
 21
129.5431179746375
 31
0.000000000000000
  0
LINE
  5
DD
100
AcDbEntity
  8
1
  6
CONTINUOUS
 62
7
100
AcDbLine
 10
39.56816679493772
 20
130.0431179746375
 30
0.000000000000000
 11
39.56816679493769
 21
138.8431179746375
 31
0.000000000000000
  0
LINE
  5
DE
100
AcDbEntity
  8
1
  6
CONTINUOUS
 62
7
100
AcDbLine
 10
40.06816679493769
 20
139.3431179746376
 30
0.000000000000000
 11
41.06816679493771
 21
139.3431179746375
 31
0.000000000000000
  0
LINE
  5
DF
100
AcDbEntity
  8
1
  6
CONTINUOUS
 62
7
100
AcDbLine
 10
48.06816679493775
 20
151.9431179746375
 30
0.000000000000000
 11
48.06816679493771
 21
116.9431179746374
 31
0.000000000000000
  0
LINE
  5
E0
100
AcDbEntity
  8
1
  6
CONTINUOUS
 62
7
100
AcDbLine
 10
41.56816679493771
 20
139.8431179746375
 30
0.000000000000000
 11
41.56816679493775
 21
150.9431179746375
 31
0.000000000000000
  0
LINE
  5
E1
100
AcDbEntity
  8
1
  6
CONTINUOUS
 62
7
100
AcDbLine
 10
41.56816679493771
 20
117.9431179746374
 30
0.000000000000000
 11
41.56816679493771
 21
129.0431179746375
 31
0.000000000000000
  0
LINE
  5
E2
100
AcDbEntity
  8
4
  6
CENTER
 62
1
100
AcDbLine
 10
106.0681667949387
 20
42.60597209176603
 30
0.000000000000000
 11
106.0681667949387
 21
48.60597209176603
 31
0.000000000000000
  0
LINE
  5
E3
100
AcDbEntity
  8
5
  6
PHANTOM
 62
6
100
AcDbLine
 10
123.0681667949387
 20
46.60597209176603
 30
0.000000000000000
 11
98.06816679493966
 21
46.60597209176603
 31
0.000000000000000
  0
LINE
  5
E4
100
AcDbEntity
  8
5
  6
PHANTOM
 62
6
100
AcDbLine
 10
123.0681667949387
 20
44.60597209176603
 30
0.000000000000000
 11
98.06816679493966
 21
44.60597209176603
 31
0.000000000000000
  0
LINE
  5
E5
100
AcDbEntity
  8
5
  6
PHANTOM
 62
6
100
AcDbLine
 10
98.06816679493966
 20
46.60597209176603
 30
0.000000000000000
 11
98.06816679493966
 21
44.60597209176603
 31
0.000000000000000
  0
LINE
  5
E6
100
AcDbEntity
  8
4
  6
CENTER
 62
1
100
AcDbLine
 10
140.0681667949387
 20
39.60597209176593
 30
0.000000000000000
 11
140.0681667949387
 21
33.60597209176593
 31
0.000000000000000
  0
LINE
  5
E7
100
AcDbEntity
  8
4
  6
CENTER
 62
1
100
AcDbLine
 10
106.0681667949387
 20
39.60597209176593
 30
0.000000000000000
 11
106.0681667949387
 21
33.60597209176593
 31
0.000000000000000
  0
ARC
  5
E8
100
AcDbEntity
  8
1
  6
CONTINUOUS
 62
7
100
AcDbCircle
 10
123.0681667949387
 20
41.10597209176592
 30
0.000000000000000
 40
5.500000000000002
100
AcDbArc
 50
320.4788036413573
 51
630.0000000000000
  0
LINE
  5
E9
100
AcDbEntity
  8
1
  6
CONTINUOUS
 62
7
100
AcDbLine
 10
123.0681667949387
 20
35.60597209176593
 30
0.000000000000000
 11
148.0681667949377
 21
35.60597209176593
 31
0.000000000000000
  0
LINE
  5
EA
100
AcDbEntity
  8
1
  6
CONTINUOUS
 62
7
100
AcDbLine
 10
123.0681667949387
 20
37.60597209176593
 30
0.000000000000000
 11
148.0681667949377
 21
37.60597209176593
 31
0.000000000000000
  0
LINE
  5
EB
100
AcDbEntity
  8
1
  6
CONTINUOUS
 62
7
100
AcDbLine
 10
98.06816679493772
 20
37.60597209176593
 30
0.000000000000000
 11
118.8255261078129
 21
37.60597209176593
 31
0.000000000000000
  0
LINE
  5
EC
100
AcDbEntity
  8
1
  6
CONTINUOUS
 62
7
100
AcDbLine
 10
98.06816679493772
 20
35.60597209176593
 30
0.000000000000000
 11
123.0681667949322
 21
35.60597209176593
 31
0.000000000000000
  0
LINE
  5
ED
100
AcDbEntity
  8
4
  6
CENTER
 62
1
100
AcDbLine
 10
123.0681667949387
 20
48.10597209176592
 30
0.000000000000000
 11
123.0681667949387
 21
34.10597209176593
 31
0.000000000000000
  0
LINE
  5
EE
100
AcDbEntity
  8
4
  6
CENTER
 62
1
100
AcDbLine
 10
130.0681667949387
 20
41.10597209176592
 30
0.000000000000000
 11
116.0681667949387
 21
41.10597209176592
 31
0.000000000000000
  0
ARC
  5
EF
100
AcDbEntity
  8
1
  6
CONTINUOUS
 62
7
100
AcDbCircle
 10
123.0681667949333
 20
41.10597209176592
 30
0.000000000000000
 40
5.399999999999915
100
AcDbArc
 50
319.5978747434164
 51
326.9442688491456
  0
CIRCLE
  5
F0
100
AcDbEntity
  8
1
  6
CONTINUOUS
 62
7
100
AcDbCircle
 10
123.0681667949388
 20
41.10597209176592
 30
0.000000000000000
 40
0.9999999999999998
  0
CIRCLE
  5
F1
100
AcDbEntity
  8
1
  6
CONTINUOUS
 62
7
100
AcDbCircle
 10
123.0681667949388
 20
41.10597209176592
 30
0.000000000000000
 40
3.200000000000001
  0
CIRCLE
  5
F2
100
AcDbEntity
  8
1
  6
CONTINUOUS
 62
7
100
AcDbCircle
 10
123.0681667949388
 20
41.10597209176592
 30
0.000000000000000
 40
3.500000000000001
  0
LINE
  5
F3
100
AcDbEntity
  8
1
  6
CONTINUOUS
 62
7
100
AcDbLine
 10
128.1465586509190
 20
38.99411599886741
 30
0.000000000000000
 11
126.4248297214961
 21
40.11460233356541
 31
0.000000000000000
  0
LINE
  5
F4
100
AcDbEntity
  8
1
  6
CONTINUOUS
 62
7
100
AcDbLine
 10
126.0016582131679
 20
39.19688118267513
 30
0.000000000000000
 11
127.6779390235849
 21
38.10597209176603
 31
0.000000000000000
  0
LINE
  5
F5
100
AcDbEntity
  8
1
  6
CONTINUOUS
 62
7
100
AcDbLine
 10
148.0681667949377
 20
35.60597209176593
 30
0.000000000000000
 11
148.0681667949377
 21
37.60597209176593
 31
0.000000000000000
  0
LINE
  5
F6
100
AcDbEntity
  8
1
  6
CONTINUOUS
 62
7
100
AcDbLine
 10
115.0681667949384
 20
35.60597209176593
 30
0.000000000000000
 11
115.0681667949384
 21
37.60597209176593
 31
0.000000000000000
  0
LINE
  5
F7
100
AcDbEntity
  8
1
  6
CONTINUOUS
 62
7
100
AcDbLine
 10
98.06816679493772
 20
37.60597209176593
 30
0.000000000000000
 11
98.06816679493772
 21
35.60597209176593
 31
0.000000000000000
  0
LINE
  5
F8
100
AcDbEntity
  8
1
  6
CONTINUOUS
 62
7
100
AcDbLine
 10
41.56816679493770
 20
117.9431179746374
 30
0.000000000000000
 11
42.56816679493768
 21
116.9431179746374
 31
0.000000000000000
  0
LINE
  5
F9
100
AcDbEntity
  8
1
  6
CONTINUOUS
 62
7
100
AcDbLine
 10
41.56816679493772
 20
150.9431179746376
 30
0.000000000000000
 11
42.56816679493769
 21
151.9431179746375
 31
0.000000000000000
  0
ARC
  5
FA
100
AcDbEntity
  8
1
  6
CONTINUOUS
 62
7
100
AcDbCircle
 10
41.06816679493771
 20
139.8431179746375
 30
0.000000000000000
 40
0.5000000000000000
100
AcDbArc
 50
270.0000000000000
 51
360.0000000000000
  0
ARC
  5
FB
100
AcDbEntity
  8
1
  6
CONTINUOUS
 62
7
100
AcDbCircle
 10
40.06816679493772
 20
138.8431179746375
 30
0.000000000000000
 40
0.5000000000000000
100
AcDbArc
 50
89.99999999999999
 51
180.0000000000000
  0
ARC
  5
FC
100
AcDbEntity
  8
1
  6
CONTINUOUS
 62
7
100
AcDbCircle
 10
40.06816679493772
 20
130.0431179746374
 30
0.000000000000000
 40
0.5000000000000000
100
AcDbArc
 50
180.0000000000001
 51
270.0000000000000
  0
ARC
  5
FD
100
AcDbEntity
  8
1
  6
CONTINUOUS
 62
7
100
AcDbCircle
 10
41.06816679493771
 20
129.0431179746375
 30
0.000000000000000
 40
0.5000000000000000
100
AcDbArc
 50
0.000000000000000
 51
90.00000000000161
  0
ARC
  5
FE
100
AcDbEntity
  8
1
  6
CONTINUOUS
 62
7
100
AcDbCircle
 10
40.81816679493772
 20
140.1431179746375
 30
0.000000000000000
 40
0.7000000000000000
100
AcDbArc
 50
270.0000000000000
 51
360.0000000000000
  0
ARC
  5
FF
100
AcDbEntity
  8
1
  6
CONTINUOUS
 62
7
100
AcDbCircle
 10
40.81816679493772
 20
128.7431179746374
 30
0.000000000000000
 40
0.7000000000000000
100
AcDbArc
 50
0.000000000000000
 51
89.99999999999999
  0
LINE
  5
100
100
AcDbEntity
  8
1
  6
CONTINUOUS
 62
7
100
AcDbLine
 10
198.0681667949396
 20
95.44311797463754
 30
0.000000000000000
 11
198.0681667949396
 21
113.8431179746375
 31
0.000000000000000
  0
LINE
  5
101
100
AcDbEntity
  8
1
  6
CONTINUOUS
 62
7
100
AcDbLine
 10
207.0681667949397
 20
173.6431179746374
 30
0.000000000000000
 11
207.0681667949397
 21
95.44311797463747
 31
0.000000000000000
  0
LINE
  5
102
100
AcDbEntity
  8
1
  6
CONTINUOUS
 62
7
100
AcDbLine
 10
209.0681667949397
 20
173.4431179746375
 30
0.000000000000000
 11
209.0681667949397
 21
95.44311797463747
 31
0.000000000000000
  0
LINE
  5
103
100
AcDbEntity
  8
4
  6
CENTER
 62
1
100
AcDbLine
 10
203.5681667949397
 20
176.9431179746374
 30
0.000000000000000
 11
203.5681667949397
 21
91.94311797463759
 31
0.000000000000000
  0
LINE
  5
104
100
AcDbEntity
  8
1
  6
CONTINUOUS
 62
7
100
AcDbLine
 10
200.3681667949396
 20
94.94311797463757
 30
0.000000000000000
 11
200.0681667949397
 21
95.24311797463761
 31
0.000000000000000
  0
LINE
  5
105
100
AcDbEntity
  8
1
  6
CONTINUOUS
 62
7
100
AcDbLine
 10
209.0681667949397
 20
95.44311797463754
 30
0.000000000000000
 11
207.0681667949397
 21
95.44311797463754
 31
0.000000000000000
  0
LINE
  5
106
100
AcDbEntity
  8
1
  6
CONTINUOUS
 62
7
100
AcDbLine
 10
207.0681667949397
 20
95.24311797463758
 30
0.000000000000000
 11
200.0681667949397
 21
95.24311797463758
 31
0.000000000000000
  0
LINE
  5
107
100
AcDbEntity
  8
1
  6
CONTINUOUS
 62
7
100
AcDbLine
 10
207.0681667949397
 20
95.24311797463758
 30
0.000000000000000
 11
207.0681667949397
 21
95.44311797463747
 31
0.000000000000000
  0
LINE
  5
108
100
AcDbEntity
  8
1
  6
CONTINUOUS
 62
7
100
AcDbLine
 10
206.7681667949396
 20
94.94311797463745
 30
0.000000000000000
 11
207.0681667949396
 21
95.24311797463757
 31
0.000000000000000
  0
LINE
  5
109
100
AcDbEntity
  8
1
  6
CONTINUOUS
 62
7
100
AcDbLine
 10
200.3681667949397
 20
94.94311797463756
 30
0.000000000000000
 11
206.7681667949396
 21
94.94311797463756
 31
0.000000000000000
  0
LINE
  5
10A
100
AcDbEntity
  8
1
  6
CONTINUOUS
 62
7
100
AcDbLine
 10
200.0681667949397
 20
95.24311797463758
 30
0.000000000000000
 11
200.0681667949397
 21
95.44311797463747
 31
0.000000000000000
  0
LINE
  5
10B
100
AcDbEntity
  8
1
  6
CONTINUOUS
 62
7
100
AcDbLine
 10
198.0681667949396
 20
151.9431179746375
 30
0.000000000000000
 11
198.0681667949396
 21
116.9431179746374
 31
0.000000000000000
  0
LINE
  5
10C
100
AcDbEntity
  8
1
  6
CONTINUOUS
 62
7
100
AcDbLine
 10
207.0681667949397
 20
113.8431179746375
 30
0.000000000000000
 11
198.0681667949396
 21
113.8431179746375
 31
0.000000000000000
  0
LINE
  5
10D
100
AcDbEntity
  8
1
  6
CONTINUOUS
 62
7
100
AcDbLine
 10
207.0681667949397
 20
116.9431179746374
 30
0.000000000000000
 11
198.0681667949396
 21
116.9431179746374
 31
0.000000000000000
  0
LINE
  5
10E
100
AcDbEntity
  8
4
  6
CENTER
 62
1
100
AcDbLine
 10
205.0681667949397
 20
106.4431179746146
 30
0.000000000000000
 11
211.0681667949397
 21
106.4431179746146
 31
0.000000000000000
  0
LINE
  5
10F
100
AcDbEntity
  8
1
  6
CONTINUOUS
 62
7
100
AcDbLine
 10
198.1681667949395
 20
113.8431179746375
 30
0.000000000000000
 11
198.1681667949395
 21
116.9431179746374
 31
0.000000000000000
  0
LINE
  5
110
100
AcDbEntity
  8
4
  6
CENTER
 62
1
100
AcDbLine
 10
212.0681667949397
 20
134.4431179746375
 30
0.000000000000000
 11
195.0681667949398
 21
134.4431179746375
 31
0.000000000000000
  0
LINE
  5
111
100
AcDbEntity
  8
1
  6
CONTINUOUS
 62
7
100
AcDbLine
 10
198.0681667949396
 20
155.0431179746374
 30
0.000000000000000
 11
198.0681667949395
 21
173.4431179746374
 31
0.000000000000000
  0
LINE
  5
112
100
AcDbEntity
  8
1
  6
CONTINUOUS
 62
7
100
AcDbLine
 10
198.0681667949396
 20
155.0431179746374
 30
0.000000000000000
 11
207.0681667949397
 21
155.0431179746374
 31
0.000000000000000
  0
LINE
  5
113
100
AcDbEntity
  8
1
  6
CONTINUOUS
 62
7
100
AcDbLine
 10
207.0681667949397
 20
151.9431179746374
 30
0.000000000000000
 11
198.0681667949396
 21
151.9431179746375
 31
0.000000000000000
  0
LINE
  5
114
100
AcDbEntity
  8
4
  6
CENTER
 62
1
100
AcDbLine
 10
205.0681667949397
 20
162.4431179746147
 30
0.000000000000000
 11
211.0681667949397
 21
162.4431179746147
 31
0.000000000000000
  0
LINE
  5
115
100
AcDbEntity
  8
1
  6
CONTINUOUS
 62
7
100
AcDbLine
 10
198.1681667949395
 20
155.0431179746374
 30
0.000000000000000
 11
198.1681667949395
 21
151.9431179746375
 31
0.000000000000000
  0
LINE
  5
116
100
AcDbEntity
  8
1
  6
CONTINUOUS
 62
7
100
AcDbLine
 10
200.3681667949395
 20
173.9431179746374
 30
0.000000000000000
 11
200.0681667949396
 21
173.6431179746374
 31
0.000000000000000
  0
LINE
  5
117
100
AcDbEntity
  8
1
  6
CONTINUOUS
 62
7
100
AcDbLine
 10
209.0681667949397
 20
173.4431179746375
 30
0.000000000000000
 11
207.0681667949397
 21
173.4431179746375
 31
0.000000000000000
  0
LINE
  5
118
100
AcDbEntity
  8
1
  6
CONTINUOUS
 62
7
100
AcDbLine
 10
200.0681667949395
 20
173.6431179746374
 30
0.000000000000000
 11
207.0681667949395
 21
173.6431179746374
 31
0.000000000000000
  0
LINE
  5
119
100
AcDbEntity
  8
1
  6
CONTINUOUS
 62
7
100
AcDbLine
 10
206.7681667949396
 20
173.9431179746375
 30
0.000000000000000
 11
207.0681667949396
 21
173.6431179746374
 31
0.000000000000000
  0
LINE
  5
11A
100
AcDbEntity
  8
1
  6
CONTINUOUS
 62
7
100
AcDbLine
 10
206.7681667949396
 20
173.9431179746374
 30
0.000000000000000
 11
200.3681667949395
 21
173.9431179746374
 31
0.000000000000000
  0
LINE
  5
11B
100
AcDbEntity
  8
1
  6
CONTINUOUS
 62
7
100
AcDbLine
 10
200.0681667949395
 20
173.6431179746374
 30
0.000000000000000
 11
200.0681667949395
 21
173.4431179746374
 31
0.000000000000000
  0
LINE
  5
11C
100
AcDbEntity
  8
4
  6
CENTER
 62
1
100
AcDbLine
 10
130.0681667949387
 20
227.7802638574633
 30
0.000000000000000
 11
116.0681667949387
 21
227.7802638574633
 31
0.000000000000000
  0
CIRCLE
  5
11D
100
AcDbEntity
  8
1
  6
CONTINUOUS
 62
7
100
AcDbCircle
 10
123.0681667949388
 20
227.7802638574633
 30
0.000000000000000
 40
0.9999999999999998
  0
ARC
  5
11E
100
AcDbEntity
  8
1
  6
CONTINUOUS
 62
7
100
AcDbCircle
 10
123.0681667949387
 20
227.7802638574633
 30
0.000000000000000
 40
5.500000000000002
100
AcDbArc
 50
90.00000000000006
 51
399.5211963586427
  0
CIRCLE
  5
11F
100
AcDbEntity
  8
1
  6
CONTINUOUS
 62
7
100
AcDbCircle
 10
123.0681667949388
 20
227.7802638574633
 30
0.000000000000000
 40
3.200000000000001
  0
CIRCLE
  5
120
100
AcDbEntity
  8
1
  6
CONTINUOUS
 62
7
100
AcDbCircle
 10
123.0681667949388
 20
227.7802638574633
 30
0.000000000000000
 40
3.500000000000001
  0
LINE
  5
121
100
AcDbEntity
  8
1
  6
CONTINUOUS
 62
7
100
AcDbLine
 10
123.0681667949387
 20
233.2802638574634
 30
0.000000000000000
 11
148.0681667949377
 21
233.2802638574634
 31
0.000000000000000
  0
LINE
  5
122
100
AcDbEntity
  8
1
  6
CONTINUOUS
 62
7
100
AcDbLine
 10
123.0681667949387
 20
231.2802638574634
 30
0.000000000000000
 11
148.0681667949377
 21
231.2802638574634
 31
0.000000000000000
  0
LINE
  5
123
100
AcDbEntity
  8
4
  6
CENTER
 62
1
100
AcDbLine
 10
123.0681667949387
 20
220.7802638574634
 30
0.000000000000000
 11
123.0681667949387
 21
234.7802638574634
 31
0.000000000000000
  0
LINE
  5
124
100
AcDbEntity
  8
4
  6
CENTER
 62
1
100
AcDbLine
 10
106.0681667949387
 20
229.2802638574634
 30
0.000000000000000
 11
106.0681667949387
 21
235.2802638574634
 31
0.000000000000000
  0
LINE
  5
125
100
AcDbEntity
  8
1
  6
CONTINUOUS
 62
7
100
AcDbLine
 10
98.06816679493772
 20
231.2802638574634
 30
0.000000000000000
 11
118.8255261078129
 21
231.2802638574634
 31
0.000000000000000
  0
LINE
  5
126
100
AcDbEntity
  8
1
  6
CONTINUOUS
 62
7
100
AcDbLine
 10
98.06816679493772
 20
233.2802638574634
 30
0.000000000000000
 11
123.0681667949322
 21
233.2802638574634
 31
0.000000000000000
  0
LINE
  5
127
100
AcDbEntity
  8
1
  6
CONTINUOUS
 62
7
100
AcDbLine
 10
98.06816679493772
 20
231.2802638574634
 30
0.000000000000000
 11
98.06816679493772
 21
233.2802638574634
 31
0.000000000000000
  0
LINE
  5
128
100
AcDbEntity
  8
1
  6
CONTINUOUS
 62
7
100
AcDbLine
 10
115.0681667949384
 20
233.2802638574634
 30
0.000000000000000
 11
115.0681667949384
 21
231.2802638574634
 31
0.000000000000000
  0
LINE
  5
129
100
AcDbEntity
  8
5
  6
PHANTOM
 62
6
100
AcDbLine
 10
123.0681667949387
 20
224.2802638574632
 30
0.000000000000000
 11
98.06816679493966
 21
224.2802638574632
 31
0.000000000000000
  0
LINE
  5
12A
100
AcDbEntity
  8
5
  6
PHANTOM
 62
6
100
AcDbLine
 10
123.0681667949387
 20
222.2802638574632
 30
0.000000000000000
 11
98.06816679493966
 21
222.2802638574632
 31
0.000000000000000
  0
LINE
  5
12B
100
AcDbEntity
  8
5
  6
PHANTOM
 62
6
100
AcDbLine
 10
98.06816679493966
 20
222.2802638574632
 30
0.000000000000000
 11
98.06816679493966
 21
224.2802638574632
 31
0.000000000000000
  0
LINE
  5
12C
100
AcDbEntity
  8
4
  6
CENTER
 62
1
100
AcDbLine
 10
106.0681667949387
 20
226.2802638574632
 30
0.000000000000000
 11
106.0681667949387
 21
220.2802638574632
 31
0.000000000000000
  0
LINE
  5
12D
100
AcDbEntity
  8
4
  6
CENTER
 62
1
100
AcDbLine
 10
140.0681667949387
 20
229.2802638574634
 30
0.000000000000000
 11
140.0681667949387
 21
235.2802638574634
 31
0.000000000000000
  0
LINE
  5
12E
100
AcDbEntity
  8
1
  6
CONTINUOUS
 62
7
100
AcDbLine
 10
126.0016582131679
 20
229.6893547665543
 30
0.000000000000000
 11
127.6779390235849
 21
230.7802638574634
 31
0.000000000000000
  0
ARC
  5
12F
100
AcDbEntity
  8
1
  6
CONTINUOUS
 62
7
100
AcDbCircle
 10
123.0681667949333
 20
227.7802638574633
 30
0.000000000000000
 40
5.399999999999915
100
AcDbArc
 50
33.05573115085439
 51
40.40212525658350
  0
LINE
  5
130
100
AcDbEntity
  8
1
  6
CONTINUOUS
 62
7
100
AcDbLine
 10
148.0681667949377
 20
233.2802638574634
 30
0.000000000000000
 11
148.0681667949377
 21
231.2802638574634
 31
0.000000000000000
  0
LINE
  5
131
100
AcDbEntity
  8
1
  6
CONTINUOUS
 62
7
100
AcDbLine
 10
128.1465586509190
 20
229.8921199503618
 30
0.000000000000000
 11
126.4248297214961
 21
228.7716336156639
 31
0.000000000000000
  0
LINE
  5
132
100
AcDbEntity
  8
1
  6
CONTINUOUS
 62
7
100
AcDbLine
 10
206.5674580947064
 20
172.4431179746375
 30
0.000000000000000
 11
205.6904396259925
 21
173.4431179746375
 31
0.000000000000000
  0
LINE
  5
133
100
AcDbEntity
  8
1
  6
CONTINUOUS
 62
7
100
AcDbLine
 10
206.5674580947064
 20
156.0431179746386
 30
0.000000000000000
 11
206.5674580947064
 21
172.4431179746375
 31
0.000000000000000
  0
LINE
  5
134
100
AcDbEntity
  8
1
  6
CONTINUOUS
 62
7
100
AcDbLine
 10
205.6904396259812
 20
155.0431179746382
 30
0.000000000000000
 11
206.5674580947064
 21
156.0431179746386
 31
0.000000000000000
  0
LINE
  5
135
100
AcDbEntity
  8
1
  6
CONTINUOUS
 62
7
100
AcDbLine
 10
205.6904396259926
 20
173.4431179746374
 30
0.000000000000000
 11
198.0681667949395
 21
173.4431179746374
 31
0.000000000000000
  0
LINE
  5
136
100
AcDbEntity
  8
1
  6
CONTINUOUS
 62
7
100
AcDbLine
 10
206.5674580947064
 20
96.44311797463749
 30
0.000000000000000
 11
205.6904396259925
 21
95.44311797463749
 31
0.000000000000000
  0
LINE
  5
137
100
AcDbEntity
  8
1
  6
CONTINUOUS
 62
7
100
AcDbLine
 10
206.5674580947064
 20
112.8431179746364
 30
0.000000000000000
 11
206.5674580947064
 21
96.44311797463750
 31
0.000000000000000
  0
LINE
  5
138
100
AcDbEntity
  8
1
  6
CONTINUOUS
 62
7
100
AcDbLine
 10
205.6904396259812
 20
113.8431179746368
 30
0.000000000000000
 11
206.5674580947064
 21
112.8431179746364
 31
0.000000000000000
  0
LINE
  5
139
100
AcDbEntity
  8
1
  6
CONTINUOUS
 62
7
100
AcDbLine
 10
205.6904396259926
 20
95.44311797463754
 30
0.000000000000000
 11
198.0681667949396
 21
95.44311797463754
 31
0.000000000000000
  0
LINE
  5
13A
100
AcDbEntity
  8
1
  6
CONTINUOUS
 62
7
100
AcDbLine
 10
206.7681667949395
 20
168.9431179746375
 30
0.000000000000000
 11
207.0681667949396
 21
169.2431179746375
 31
0.000000000000000
  0
LINE
  5
13B
100
AcDbEntity
  8
1
  6
CONTINUOUS
 62
7
100
AcDbLine
 10
206.5674580947064
 20
168.9431179746374
 30
0.000000000000000
 11
206.7681667949396
 21
168.9431179746374
 31
0.000000000000000
  0
LINE
  5
13C
100
AcDbEntity
  8
1
  6
CONTINUOUS
 62
7
100
AcDbLine
 10
206.5674580947064
 20
169.2431179746374
 30
0.000000000000000
 11
207.0681667949396
 21
169.2431179746374
 31
0.000000000000000
  0
LINE
  5
13D
100
AcDbEntity
  8
1
  6
CONTINUOUS
 62
7
100
AcDbLine
 10
206.5674580947064
 20
99.64311797463768
 30
0.000000000000000
 11
207.0681667949396
 21
99.64311797463768
 31
0.000000000000000
  0
LINE
  5
13E
100
AcDbEntity
  8
1
  6
CONTINUOUS
 62
7
100
AcDbLine
 10
206.5674580947064
 20
99.94311797463769
 30
0.000000000000000
 11
206.7681667949396
 21
99.94311797463769
 31
0.000000000000000
  0
LINE
  5
13F
100
AcDbEntity
  8
1
  6
CONTINUOUS
 62
7
100
AcDbLine
 10
206.7681667949396
 20
99.94311797463766
 30
0.000000000000000
 11
207.0681667949395
 21
99.64311797463763
 31
0.000000000000000
  0
LINE
  5
140
100
AcDbEntity
  8
1
  6
CONTINUOUS
 62
7
100
AcDbLine
 10
289.5681667949407
 20
95.44311797461467
 30
0.000000000000000
 11
289.5681667949407
 21
113.8431179746147
 31
0.000000000000000
  0
LINE
  5
141
100
AcDbEntity
  8
1
  6
CONTINUOUS
 62
7
100
AcDbLine
 10
292.0681667949416
 20
96.44311797461469
 30
0.000000000000000
 11
292.0681667949416
 21
115.9431179746146
 31
0.000000000000000
  0
LINE
  5
142
100
AcDbEntity
  8
1
  6
CONTINUOUS
 62
7
100
AcDbLine
 10
259.0681667949417
 20
170.4431179746147
 30
0.000000000000000
 11
259.0681667949417
 21
98.44311797461472
 31
0.000000000000000
  0
LINE
  5
143
100
AcDbEntity
  8
1
  6
CONTINUOUS
 62
7
100
AcDbLine
 10
309.0681667949417
 20
170.4431179746146
 30
0.000000000000000
 11
309.0681667949417
 21
98.44311797461467
 31
0.000000000000000
  0
LINE
  5
144
100
AcDbEntity
  8
4
  6
CENTER
 62
1
100
AcDbLine
 10
284.0681667949407
 20
176.9431179746146
 30
0.000000000000000
 11
284.0681667949407
 21
91.94311797461467
 31
0.000000000000000
  0
LINE
  5
145
100
AcDbEntity
  8
4
  6
CENTER
 62
1
100
AcDbLine
 10
301.0681667949417
 20
166.5931179746147
 30
0.000000000000000
 11
301.0681667949417
 21
102.2931179746146
 31
0.000000000000000
  0
LINE
  5
146
100
AcDbEntity
  8
4
  6
CENTER
 62
1
100
AcDbLine
 10
267.0681667949416
 20
166.9431179746147
 30
0.000000000000000
 11
267.0681667949416
 21
101.9431179746146
 31
0.000000000000000
  0
LINE
  5
147
100
AcDbEntity
  8
1
  6
CONTINUOUS
 62
7
100
AcDbLine
 10
280.8681667949407
 20
94.94311797461472
 30
0.000000000000000
 11
287.2681667949407
 21
94.94311797461469
 31
0.000000000000000
  0
LINE
  5
148
100
AcDbEntity
  8
1
  6
CONTINUOUS
 62
7
100
AcDbLine
 10
287.5681667949407
 20
95.24311797461471
 30
0.000000000000000
 11
280.5681667949407
 21
95.24311797461471
 31
0.000000000000000
  0
LINE
  5
149
100
AcDbEntity
  8
1
  6
CONTINUOUS
 62
7
100
AcDbLine
 10
289.5681667949407
 20
95.44311797461467
 30
0.000000000000000
 11
262.0681667949416
 21
95.44311797461474
 31
0.000000000000000
  0
LINE
  5
14A
100
AcDbEntity
  8
1
  6
CONTINUOUS
 62
7
100
AcDbLine
 10
306.0681667949416
 20
95.44311797461467
 30
0.000000000000000
 11
293.0681667949416
 21
95.44311797461467
 31
0.000000000000000
  0
ARC
  5
14B
100
AcDbEntity
  8
1
  6
CONTINUOUS
 62
7
100
AcDbCircle
 10
306.0681667949416
 20
98.44311797461467
 30
0.000000000000000
 40
2.999999999999998
100
AcDbArc
 50
270.0000000000000
 51
360.0000000000000
  0
ARC
  5
14C
100
AcDbEntity
  8
1
  6
CONTINUOUS
 62
7
100
AcDbCircle
 10
293.0681667949416
 20
96.44311797461462
 30
0.000000000000000
 40
1.000000000000007
100
AcDbArc
 50
180.0000000000000
 51
270.0000000000000
  0
LINE
  5
14D
100
AcDbEntity
  8
1
  6
CONTINUOUS
 62
7
100
AcDbLine
 10
287.5681667949407
 20
95.24311797461471
 30
0.000000000000000
 11
287.5681667949407
 21
95.44311797461467
 31
0.000000000000000
  0
LINE
  5
14E
100
AcDbEntity
  8
1
  6
CONTINUOUS
 62
7
100
AcDbLine
 10
287.2681667949407
 20
94.94311797461469
 30
0.000000000000000
 11
287.5681667949407
 21
95.24311797461471
 31
0.000000000000000
  0
LINE
  5
14F
100
AcDbEntity
  8
1
  6
CONTINUOUS
 62
7
100
AcDbLine
 10
280.5681667949407
 20
95.24311797461471
 30
0.000000000000000
 11
280.5681667949407
 21
95.44311797461467
 31
0.000000000000000
  0
LINE
  5
150
100
AcDbEntity
  8
1
  6
CONTINUOUS
 62
7
100
AcDbLine
 10
280.8681667949405
 20
94.94311797461472
 30
0.000000000000000
 11
280.5681667949406
 21
95.24311797461472
 31
0.000000000000000
  0
ARC
  5
151
100
AcDbEntity
  8
1
  6
CONTINUOUS
 62
7
100
AcDbCircle
 10
262.0681667949416
 20
98.44311797461472
 30
0.000000000000000
 40
2.999999999999996
100
AcDbArc
 50
180.0000000000000
 51
270.0000000000000
  0
LINE
  5
152
100
AcDbEntity
  8
1
  6
CONTINUOUS
 62
7
100
AcDbLine
 10
276.0681667949417
 20
154.0431179746146
 30
0.000000000000000
 11
276.0681667949417
 21
114.8431179746147
 31
0.000000000000000
  0
LINE
  5
153
100
AcDbEntity
  8
1
  6
CONTINUOUS
 62
7
100
AcDbLine
 10
278.5681667949407
 20
151.9431179746146
 30
0.000000000000000
 11
278.5681667949407
 21
116.9431179746146
 31
0.000000000000000
  0
LINE
  5
154
100
AcDbEntity
  8
1
  6
CONTINUOUS
 62
7
100
AcDbLine
 10
291.0681667949416
 20
116.9431179746146
 30
0.000000000000000
 11
278.5681667949407
 21
116.9431179746146
 31
0.000000000000000
  0
LINE
  5
155
100
AcDbEntity
  8
1
  6
CONTINUOUS
 62
7
100
AcDbLine
 10
289.5681667949407
 20
113.8431179746147
 30
0.000000000000000
 11
277.0681667949416
 21
113.8431179746147
 31
0.000000000000000
  0
LINE
  5
156
100
AcDbEntity
  8
4
  6
CENTER
 62
1
100
AcDbLine
 10
312.0681667949416
 20
134.4431179746146
 30
0.000000000000000
 11
256.0681667949416
 21
134.4431179746147
 31
0.000000000000000
  0
LINE
  5
157
100
AcDbEntity
  8
4
  6
CENTER
 62
1
100
AcDbLine
 10
296.9181667949417
 20
106.4431179746146
 30
0.000000000000000
 11
305.2181667949417
 21
106.4431179746146
 31
0.000000000000000
  0
CIRCLE
  5
158
100
AcDbEntity
  8
1
  6
CONTINUOUS
 62
7
100
AcDbCircle
 10
301.0681667949417
 20
106.4431179746146
 30
0.000000000000000
 40
2.149999999999999
  0
ARC
  5
159
100
AcDbEntity
  8
1
  6
CONTINUOUS
 62
7
100
AcDbCircle
 10
291.0681667949416
 20
115.9431179746146
 30
0.000000000000000
 40
0.9999999999999984
100
AcDbArc
 50
6.999999999999999e-15
 51
90.00000000000006
  0
LINE
  5
15A
100
AcDbEntity
  8
1
  6
CONTINUOUS
 62
7
100
AcDbLine
 10
289.4681667949407
 20
113.8431179746147
 30
0.000000000000000
 11
289.4681667949407
 21
116.9431179746146
 31
0.000000000000000
  0
CIRCLE
  5
15B
100
AcDbEntity
  8
1
  6
CONTINUOUS
 62
7
100
AcDbCircle
 10
301.0681667949417
 20
134.4431179746146
 30
0.000000000000000
 40
2.149999999999999
  0
ARC
  5
15C
100
AcDbEntity
  8
1
  6
CONTINUOUS
 62
7
100
AcDbCircle
 10
267.0681667949416
 20
106.0931179746146
 30
0.000000000000000
 40
2.149999999999999
100
AcDbArc
 50
180.0000000000000
 51
360.0000000000000
  0
ARC
  5
15D
100
AcDbEntity
  8
1
  6
CONTINUOUS
 62
7
100
AcDbCircle
 10
267.0681667949416
 20
106.7931179746146
 30
0.000000000000000
 40
2.150000000000002
100
AcDbArc
 50
6.999999999999999e-15
 51
180.0000000000000
  0
LINE
  5
15E
100
AcDbEntity
  8
4
  6
CENTER
 62
1
100
AcDbLine
 10
271.2181667949417
 20
106.4431179746146
 30
0.000000000000000
 11
262.9181667949416
 21
106.4431179746146
 31
0.000000000000000
  0
LINE
  5
15F
100
AcDbEntity
  8
1
  6
CONTINUOUS
 62
7
100
AcDbLine
 10
269.2181667949417
 20
106.0931179746147
 30
0.000000000000000
 11
269.2181667949417
 21
106.7931179746147
 31
0.000000000000000
  0
ARC
  5
160
100
AcDbEntity
  8
1
  6
CONTINUOUS
 62
7
100
AcDbCircle
 10
277.0681667949416
 20
114.8431179746147
 30
0.000000000000000
 40
1.000000000000001
100
AcDbArc
 50
180.0000000000016
 51
270.0000000000000
  0
LINE
  5
161
100
AcDbEntity
  8
1
  6
CONTINUOUS
 62
7
100
AcDbLine
 10
278.6681667949407
 20
113.8431179746147
 30
0.000000000000000
 11
278.6681667949407
 21
116.9431179746146
 31
0.000000000000000
  0
LINE
  5
162
100
AcDbEntity
  8
1
  6
CONTINUOUS
 62
7
100
AcDbLine
 10
264.9181667949416
 20
106.7931179746147
 30
0.000000000000000
 11
264.9181667949416
 21
106.0931179746147
 31
0.000000000000000
  0
ARC
  5
163
100
AcDbEntity
  8
1
  6
CONTINUOUS
 62
7
100
AcDbCircle
 10
267.0681667949416
 20
134.7931179746146
 30
0.000000000000000
 40
2.150000000000002
100
AcDbArc
 50
6.999999999999999e-15
 51
180.0000000000000
  0
ARC
  5
164
100
AcDbEntity
  8
1
  6
CONTINUOUS
 62
7
100
AcDbCircle
 10
267.0681667949416
 20
134.0931179746146
 30
0.000000000000000
 40
2.149999999999999
100
AcDbArc
 50
180.0000000000000
 51
360.0000000000000
  0
LINE
  5
165
100
AcDbEntity
  8
1
  6
CONTINUOUS
 62
7
100
AcDbLine
 10
269.2181667949417
 20
134.0931179746147
 30
0.000000000000000
 11
269.2181667949417
 21
134.7931179746147
 31
0.000000000000000
  0
LINE
  5
166
100
AcDbEntity
  8
1
  6
CONTINUOUS
 62
7
100
AcDbLine
 10
264.9181667949416
 20
134.7931179746147
 30
0.000000000000000
 11
264.9181667949416
 21
134.0931179746147
 31
0.000000000000000
  0
LINE
  5
167
100
AcDbEntity
  8
1
  6
CONTINUOUS
 62
7
100
AcDbLine
 10
287.2681667949408
 20
173.9431179746146
 30
0.000000000000000
 11
280.8681667949406
 21
173.9431179746146
 31
0.000000000000000
  0
LINE
  5
168
100
AcDbEntity
  8
1
  6
CONTINUOUS
 62
7
100
AcDbLine
 10
280.5681667949407
 20
173.6431179746146
 30
0.000000000000000
 11
287.5681667949408
 21
173.6431179746146
 31
0.000000000000000
  0
LINE
  5
169
100
AcDbEntity
  8
1
  6
CONTINUOUS
 62
7
100
AcDbLine
 10
291.0681667949416
 20
151.9431179746146
 30
0.000000000000000
 11
278.5681667949407
 21
151.9431179746146
 31
0.000000000000000
  0
LINE
  5
16A
100
AcDbEntity
  8
1
  6
CONTINUOUS
 62
7
100
AcDbLine
 10
289.5681667949407
 20
155.0431179746146
 30
0.000000000000000
 11
277.0681667949416
 21
155.0431179746146
 31
0.000000000000000
  0
LINE
  5
16B
100
AcDbEntity
  8
1
  6
CONTINUOUS
 62
7
100
AcDbLine
 10
289.5681667949407
 20
173.4431179746146
 30
0.000000000000000
 11
262.0681667949416
 21
173.4431179746146
 31
0.000000000000000
  0
LINE
  5
16C
100
AcDbEntity
  8
1
  6
CONTINUOUS
 62
7
100
AcDbLine
 10
289.5681667949407
 20
155.0431179746146
 30
0.000000000000000
 11
289.5681667949407
 21
173.4431179746146
 31
0.000000000000000
  0
LINE
  5
16D
100
AcDbEntity
  8
1
  6
CONTINUOUS
 62
7
100
AcDbLine
 10
292.0681667949416
 20
152.9431179746146
 30
0.000000000000000
 11
292.0681667949416
 21
172.4431179746146
 31
0.000000000000000
  0
CIRCLE
  5
16E
100
AcDbEntity
  8
1
  6
CONTINUOUS
 62
7
100
AcDbCircle
 10
301.0681667949417
 20
162.4431179746146
 30
0.000000000000000
 40
2.149999999999999
  0
LINE
  5
16F
100
AcDbEntity
  8
4
  6
CENTER
 62
1
100
AcDbLine
 10
296.9181667949417
 20
162.4431179746146
 30
0.000000000000000
 11
305.2181667949417
 21
162.4431179746146
 31
0.000000000000000
  0
ARC
  5
170
100
AcDbEntity
  8
1
  6
CONTINUOUS
 62
7
100
AcDbCircle
 10
291.0681667949416
 20
152.9431179746146
 30
0.000000000000000
 40
0.9999999999999974
100
AcDbArc
 50
270.0000000000000
 51
360.0000000000000
  0
LINE
  5
171
100
AcDbEntity
  8
1
  6
CONTINUOUS
 62
7
100
AcDbLine
 10
289.4681667949407
 20
155.0431179746146
 30
0.000000000000000
 11
289.4681667949407
 21
151.9431179746146
 31
0.000000000000000
  0
LINE
  5
172
100
AcDbEntity
  8
1
  6
CONTINUOUS
 62
7
100
AcDbLine
 10
293.0681667949416
 20
173.4431179746146
 30
0.000000000000000
 11
306.0681667949416
 21
173.4431179746146
 31
0.000000000000000
  0
ARC
  5
173
100
AcDbEntity
  8
1
  6
CONTINUOUS
 62
7
100
AcDbCircle
 10
306.0681667949416
 20
170.4431179746146
 30
0.000000000000000
 40
2.999999999999998
100
AcDbArc
 50
6.999999999999999e-15
 51
90.00000000000006
  0
ARC
  5
174
100
AcDbEntity
  8
1
  6
CONTINUOUS
 62
7
100
AcDbCircle
 10
293.0681667949416
 20
172.4431179746146
 30
0.000000000000000
 40
1.000000000000005
100
AcDbArc
 50
90.00000000000006
 51
180.0000000000000
  0
LINE
  5
175
100
AcDbEntity
  8
1
  6
CONTINUOUS
 62
7
100
AcDbLine
 10
287.5681667949408
 20
173.6431179746146
 30
0.000000000000000
 11
287.5681667949408
 21
173.4431179746146
 31
0.000000000000000
  0
LINE
  5
176
100
AcDbEntity
  8
1
  6
CONTINUOUS
 62
7
100
AcDbLine
 10
287.2681667949407
 20
173.9431179746146
 30
0.000000000000000
 11
287.5681667949407
 21
173.6431179746146
 31
0.000000000000000
  0
ARC
  5
177
100
AcDbEntity
  8
1
  6
CONTINUOUS
 62
7
100
AcDbCircle
 10
267.0681667949416
 20
162.7931179746146
 30
0.000000000000000
 40
2.150000000000002
100
AcDbArc
 50
6.999999999999999e-15
 51
180.0000000000000
  0
ARC
  5
178
100
AcDbEntity
  8
1
  6
CONTINUOUS
 62
7
100
AcDbCircle
 10
267.0681667949416
 20
162.0931179746146
 30
0.000000000000000
 40
2.149999999999999
100
AcDbArc
 50
180.0000000000000
 51
360.0000000000000
  0
LINE
  5
179
100
AcDbEntity
  8
4
  6
CENTER
 62
1
100
AcDbLine
 10
271.2181667949416
 20
162.4431179746147
 30
0.000000000000000
 11
262.9181667949416
 21
162.4431179746147
 31
0.000000000000000
  0
ARC
  5
17A
100
AcDbEntity
  8
1
  6
CONTINUOUS
 62
7
100
AcDbCircle
 10
277.0681667949416
 20
154.0431179746146
 30
0.000000000000000
 40
0.9999999999999971
100
AcDbArc
 50
90.00000000000006
 51
180.0000000000000
  0
LINE
  5
17B
100
AcDbEntity
  8
1
  6
CONTINUOUS
 62
7
100
AcDbLine
 10
278.6681667949407
 20
155.0431179746146
 30
0.000000000000000
 11
278.6681667949407
 21
151.9431179746146
 31
0.000000000000000
  0
LINE
  5
17C
100
AcDbEntity
  8
1
  6
CONTINUOUS
 62
7
100
AcDbLine
 10
269.2181667949417
 20
162.0931179746146
 30
0.000000000000000
 11
269.2181667949417
 21
162.7931179746146
 31
0.000000000000000
  0
LINE
  5
17D
100
AcDbEntity
  8
1
  6
CONTINUOUS
 62
7
100
AcDbLine
 10
264.9181667949416
 20
162.7931179746146
 30
0.000000000000000
 11
264.9181667949416
 21
162.0931179746146
 31
0.000000000000000
  0
LINE
  5
17E
100
AcDbEntity
  8
1
  6
CONTINUOUS
 62
7
100
AcDbLine
 10
280.5681667949407
 20
173.6431179746146
 30
0.000000000000000
 11
280.5681667949407
 21
173.4431179746146
 31
0.000000000000000
  0
LINE
  5
17F
100
AcDbEntity
  8
1
  6
CONTINUOUS
 62
7
100
AcDbLine
 10
280.8681667949405
 20
173.9431179746146
 30
0.000000000000000
 11
280.5681667949406
 21
173.6431179746147
 31
0.000000000000000
  0
ARC
  5
180
100
AcDbEntity
  8
1
  6
CONTINUOUS
 62
7
100
AcDbCircle
 10
262.0681667949416
 20
170.4431179746146
 30
0.000000000000000
 40
2.999999999999996
100
AcDbArc
 50
90.00000000000006
 51
180.0000000000000
  0
ENDSEC
  0
SECTION
  2
OBJECTS
  0
DICTIONARY
  5
1AC
100
AcDbDictionary
  3
ACAD_GROUP
350
1AD
  3
ACAD_LAYOUT
350
1AE
  3
ACAD_MLINESTYLE
350
1AF
  0
DICTIONARY
  5
1AD
102
{ACAD_REACTORS
330
1AC
102
}
330
1AC
100
AcDbDictionary
  0
DICTIONARY
  5
1AE
102
{ACAD_REACTORS
330
1AC
102
}
330
1AC
100
AcDbDictionary
  3
Model
350
1B0
  3
ﾚｲｱｳﾄ1
350
1B1
  3
ﾚｲｱｳﾄ2
350
1B2
  0
DICTIONARY
  5
1AF
102
{ACAD_REACTORS
330
1AC
102
}
330
1AC
100
AcDbDictionary
  3
STANDARD
350
1B3
  0
LAYOUT
  5
1B0
102
{ACAD_REACTORS
330
1AE
102
}
330
1AE
100
AcDbPlotSettings
 70
11952
  4
A3
 44
297.000000
 45
420.000000
 73
  1
 72
  1
100
AcDbLayout
  1
Model
 71
0
330
1A3
  0
LAYOUT
  5
1B1
102
{ACAD_REACTORS
330
1AE
102
}
330
1AE
100
AcDbPlotSettings
100
AcDbLayout
  1
ﾚｲｱｳﾄ1
 71
1
330
1A4
  0
LAYOUT
  5
1B2
102
{ACAD_REACTORS
330
1AE
102
}
330
1AE
100
AcDbPlotSettings
100
AcDbLayout
  1
ﾚｲｱｳﾄ2
 71
2
330
1A5
  0
MLINESTYLE
  5
1B3
102
{ACAD_REACTORS
330
1AF
102
}
330
1AF
100
AcDbMlineStyle
  2
STANDARD
 70
     0
  3

 62
   256
 51
90.00
 52
90.00
 71
     2
 49
0.50
 62
   256
  6
BYLAYER
 49
-0.50
 62
   256
  6
BYLAYER
  0
ENDSEC
  0
EOF
