  0
SECTION
  2
HEADER
  9
$ACADVER
  1
AC1027
  9
$DWGCODEPAGE
  3
ANSI_932
  9
$LTSCALE
 40
20.0
  9
$FILLMODE
 70
     1
  9
$CLAYER
  8
0
  9
$PDMODE
 70
     0
  9
$SPLFRAME
 70
     0
  9
$SPLINETYPE
 70
     6
  9
$SPLINESEGS
 70
     8
  9
$DIMASZ
 40
2.000000
  9
$DIMEXE
 40
1.500000
  9
$DIMEXO
 40
0.800000
  9
$DIMTAD
 70
     1
  9
$DIMTIH
 70
     0
  9
$DIMTOH
 70
     0
  9
$DIMTVP
 40
0.500000
  9
$DIMTXT
 40
3.100000
  9
$EXTMIN
 10
0.000000
 20
0.000000
 30
0.000000
  9
$EXTMAX
 10
297.000000
 20
420.000000
 30
0.000000
  9
$MEASUREMENT
 70
  1
  9
$LIMMIN
 10
0.000000
 20
0.000000
  9
$LIMMAX
 10
297.000000
 20
420.000000
  9
$HANDSEED
  5
3A9
  9
$LWDISPLAY
290
     0
  9
$DIMBLK
  1
_OPEN
  9
$DIMDEC
 70
     2
  9
$DIMADEC
 70
     2
  9
$DIMAUNIT
 70
     0
  9
$DIMZIN
 70
     8
  9
$DIMAZIN
 70
     2
  9
$DIMTOFL
 70
     1
  0
ENDSEC
  0
SECTION
  2
CLASSES
  0
ENDSEC
  0
SECTION
  2
TABLES
  0
TABLE
  2
VPORT
  5
371
100
AcDbSymbolTable
 70
     1
  0
VPORT
  5
372
100
AcDbSymbolTableRecord
100
AcDbViewportTableRecord
  2
*ACTIVE
 70
     0
 12
175.286632
 22
144.006125
 40
252.012248
 41
1.311735
  0
ENDTAB
  0
TABLE
  2
LTYPE
  5
373
100
AcDbSymbolTable
 70
     3
  0
LTYPE
  5
374
100
AcDbSymbolTableRecord
100
AcDbLinetypeTableRecord
  2
BYBLOCK
 70
     0
  3

 72
    65
 73
     0
 40
0.0
  0
LTYPE
  5
375
100
AcDbSymbolTableRecord
100
AcDbLinetypeTableRecord
  2
BYLAYER
 70
     0
  3

 72
    65
 73
     0
 40
0.0
  0
LTYPE
  5
376
100
AcDbSymbolTableRecord
100
AcDbLinetypeTableRecord
  2
CONTINUOUS
 70
     0
  3
Solid line (NEC CAE2D for Win R18.0 : 2025.12.22)
 72
    65
 73
     0
 40
0.0
  0
LTYPE
  5
377
100
AcDbSymbolTableRecord
100
AcDbLinetypeTableRecord
  2
DASHED
 70
     0
  3
__ __ __ __ __ __ __ __ __ __ __ __ __ _
 72
    65
 73
     2
 40
0.75
 49
0.5
 74
     0
 49
-0.25
 74
     0
  0
LTYPE
  5
378
100
AcDbSymbolTableRecord
100
AcDbLinetypeTableRecord
  2
CENTER
 70
     0
  3
____ _ ____ _ ____ _ ____ _ ____ _ ____
 72
    65
 73
     4
 40
2.0
 49
1.25
 74
     0
 49
-0.25
 74
     0
 49
0.25
 74
     0
 49
-0.25
 74
     0
  0
ENDTAB
  0
TABLE
  2
LAYER
  5
379
100
AcDbSymbolTable
 70
    17
  0
LAYER
  5
37A
100
AcDbSymbolTableRecord
100
AcDbLayerTableRecord
  2
0
 70
     0
 62
     7
  6
CONTINUOUS
370
    -3
390

  0
LAYER
  5
37B
100
AcDbSymbolTableRecord
100
AcDbLayerTableRecord
  2
A0
 70
     0
 62
     9
  6
CONTINUOUS
370
    -3
390

  0
LAYER
  5
37C
100
AcDbSymbolTableRecord
100
AcDbLayerTableRecord
  2
A1
 70
     0
 62
     1
  6
CONTINUOUS
370
    -3
390

  0
LAYER
  5
37D
100
AcDbSymbolTableRecord
100
AcDbLayerTableRecord
  2
A2
 70
     0
 62
    12
  6
CONTINUOUS
370
    -3
390

  0
LAYER
  5
37E
100
AcDbSymbolTableRecord
100
AcDbLayerTableRecord
  2
A3
 70
     0
 62
    10
  6
CONTINUOUS
370
    -3
390

  0
LAYER
  5
37F
100
AcDbSymbolTableRecord
100
AcDbLayerTableRecord
  2
A4
 70
     0
 62
     9
  6
CONTINUOUS
370
    -3
390

  0
LAYER
  5
380
100
AcDbSymbolTableRecord
100
AcDbLayerTableRecord
  2
A5
 70
     0
 62
     8
  6
CONTINUOUS
370
    -3
390

  0
LAYER
  5
381
100
AcDbSymbolTableRecord
100
AcDbLayerTableRecord
  2
A6
 70
     0
 62
    12
  6
CONTINUOUS
370
    -3
390

  0
LAYER
  5
382
100
AcDbSymbolTableRecord
100
AcDbLayerTableRecord
  2
A7
 70
     0
 62
    12
  6
CONTINUOUS
370
    -3
390

  0
LAYER
  5
383
100
AcDbSymbolTableRecord
100
AcDbLayerTableRecord
  2
A8
 70
     0
 62
    10
  6
CONTINUOUS
370
    -3
390

  0
LAYER
  5
384
100
AcDbSymbolTableRecord
100
AcDbLayerTableRecord
  2
A9
 70
     0
 62
     9
  6
CONTINUOUS
370
    -3
390

  0
LAYER
  5
385
100
AcDbSymbolTableRecord
100
AcDbLayerTableRecord
  2
A10
 70
     0
 62
     6
  6
CONTINUOUS
370
    -3
390

  0
LAYER
  5
386
100
AcDbSymbolTableRecord
100
AcDbLayerTableRecord
  2
A20
 70
     0
 62
     1
  6
CONTINUOUS
370
    -3
390

  0
LAYER
  5
387
100
AcDbSymbolTableRecord
100
AcDbLayerTableRecord
  2
A30
 70
     0
 62
     1
  6
CONTINUOUS
370
    -3
390

  0
LAYER
  5
388
100
AcDbSymbolTableRecord
100
AcDbLayerTableRecord
  2
A40
 70
     0
 62
     9
  6
CONTINUOUS
370
    -3
390

  0
LAYER
  5
389
100
AcDbSymbolTableRecord
100
AcDbLayerTableRecord
  2
A50
 70
     0
 62
    12
  6
CONTINUOUS
370
    -3
390

  0
LAYER
  5
38A
100
AcDbSymbolTableRecord
100
AcDbLayerTableRecord
  2
A1023
 70
     0
 62
    16
  6
CONTINUOUS
370
    -3
390

  0
ENDTAB
  0
TABLE
  2
STYLE
  5
38B
100
AcDbSymbolTable
 70
     4
  0
STYLE
  5
38C
100
AcDbSymbolTableRecord
100
AcDbTextStyleTableRecord
  2
STANDARD
 70
    64
 40
0.0
 41
1.0
 50
0.0
 71
     0
 42
3.000000000000000
  3
TXT
  4

  0
STYLE
  5
38D
100
AcDbSymbolTableRecord
100
AcDbTextStyleTableRecord
  2
ANKTATE
 70
    68
 40
0.0
 41
1.0
 50
0.0
 71
     0
 42
3.000000000000000
  3
TXT
  4

  0
STYLE
  5
38E
100
AcDbSymbolTableRecord
100
AcDbTextStyleTableRecord
  2
KNJYOKO
 70
    64
 40
0.0
 41
1.0
 50
0.0
 71
     0
 42
3.000000000000000
  3
TXT
  4
BIGFONT
  0
STYLE
  5
38F
100
AcDbSymbolTableRecord
100
AcDbTextStyleTableRecord
  2
KNJTATE
 70
    68
 40
0.0
 41
1.0
 50
0.0
 71
     0
 42
3.000000000000000
  3
TXT
  4
BIGFONT
  0
ENDTAB
  0
TABLE
  2
VIEW
  5
390
100
AcDbSymbolTable
 70
     0
  0
ENDTAB
  0
TABLE
  2
UCS
  5
391
100
AcDbSymbolTable
 70
     0
  0
ENDTAB
  0
TABLE
  2
APPID
  5
392
100
AcDbSymbolTable
 70
     1
  0
APPID
  5
393
100
AcDbSymbolTableRecord
100
AcDbRegAppTableRecord
  2
ACAD
 70
     0
  0
ENDTAB
  0
TABLE
  2
DIMSTYLE
  5
394
100
AcDbSymbolTable
 70
     2
100
AcDbDimStyleTable
  0
DIMSTYLE
105
395
100
AcDbSymbolTableRecord
100
AcDbDimStyleTableRecord
  2
STANDARD
 70
     0
 41
2.000000
 44
1.500000
 42
0.800000
145
0.661290
140
3.100000
144
1.000000
146
0.645161
340
38C
  0
DIMSTYLE
105
396
100
AcDbSymbolTableRecord
100
AcDbDimStyleTableRecord
  2
A001
 70
     0
 41
2.000000
 44
1.500000
 42
0.800000
145
0.661290
140
3.100000
144
1.000000
146
0.645161
 77
     1
 73
     0
 74
     0
271
     2
179
     2
275
     0
 78
     8
 79
     2
172
     1
340
38C
  0
ENDTAB
  0
TABLE
  2
BLOCK_RECORD
  5
397
100
AcDbSymbolTable
 70
    12
  0
BLOCK_RECORD
  5
398
100
AcDbSymbolTableRecord
100
AcDbBlockTableRecord
  2
*MODEL_SPACE
  0
BLOCK_RECORD
  5
399
100
AcDbSymbolTableRecord
100
AcDbBlockTableRecord
  2
*PAPER_SPACE
  0
BLOCK_RECORD
  5
39A
100
AcDbSymbolTableRecord
100
AcDbBlockTableRecord
  2
*PAPER_SPACE0
  0
BLOCK_RECORD
  5
1
100
AcDbSymbolTableRecord
100
AcDbBlockTableRecord
  2
_NONE
  0
BLOCK_RECORD
  5
4
100
AcDbSymbolTableRecord
100
AcDbBlockTableRecord
  2
_CLOSED
  0
BLOCK_RECORD
  5
B
100
AcDbSymbolTableRecord
100
AcDbBlockTableRecord
  2
_DOT
  0
BLOCK_RECORD
  5
13
100
AcDbSymbolTableRecord
100
AcDbBlockTableRecord
  2
_OPEN
  0
BLOCK_RECORD
  5
19
100
AcDbSymbolTableRecord
100
AcDbBlockTableRecord
  2
_ORIGIN
  0
BLOCK_RECORD
  5
1E
100
AcDbSymbolTableRecord
100
AcDbBlockTableRecord
  2
_OPEN30
  0
BLOCK_RECORD
  5
24
100
AcDbSymbolTableRecord
100
AcDbBlockTableRecord
  2
_BOXFILLED
  0
BLOCK_RECORD
  5
29
100
AcDbSymbolTableRecord
100
AcDbBlockTableRecord
  2
_BOXBLANK
  0
BLOCK_RECORD
  5
31
100
AcDbSymbolTableRecord
100
AcDbBlockTableRecord
  2
_OBLIQUE
  0
BLOCK_RECORD
  5
35
100
AcDbSymbolTableRecord
100
AcDbBlockTableRecord
  2
_OPEN90
  0
BLOCK_RECORD
  5
3B
100
AcDbSymbolTableRecord
100
AcDbBlockTableRecord
  2
_CLOSEDBLANK
  0
BLOCK_RECORD
  5
41
100
AcDbSymbolTableRecord
100
AcDbBlockTableRecord
  2
_DOTBLANK
  0
ENDTAB
  0
ENDSEC
  0
SECTION
  2
BLOCKS
  0
BLOCK
  5
39B
100
AcDbEntity
  8
0
100
AcDbBlockBegin
  2
*MODEL_SPACE
 70
     0
 10
0.0
 20
0.0
 30
0.0
  3
*MODEL_SPACE
  1

  0
ENDBLK
  5
39C
100
AcDbEntity
  8
0
100
AcDbBlockEnd
  0
BLOCK
  5
39D
100
AcDbEntity
  8
0
100
AcDbBlockBegin
  2
*PAPER_SPACE
 70
     0
 10
0.0
 20
0.0
 30
0.0
  3
*PAPER_SPACE
  1

  0
ENDBLK
  5
39E
100
AcDbEntity
  8
0
100
AcDbBlockEnd
  0
BLOCK
  5
39F
100
AcDbEntity
  8
0
100
AcDbBlockBegin
  2
*PAPER_SPACE0
 70
     0
 10
0.0
 20
0.0
 30
0.0
  3
*PAPER_SPACE0
  1

  0
ENDBLK
  5
3A0
100
AcDbEntity
  8
0
100
AcDbBlockEnd
  0
BLOCK
  5
2
330
1
100
AcDbEntity
  8
0
100
AcDbBlockBegin
  2
_NONE
 70
     0
 10
0.0
 20
0.0
 30
0.0
  3
_NONE
  1

  0
ENDBLK
  5
3
330
1
100
AcDbEntity
  8
0
100
AcDbBlockEnd
  0
BLOCK
  5
5
330
4
100
AcDbEntity
  8
0
100
AcDbBlockBegin
  2
_CLOSED
 70
     0
 10
0.0
 20
0.0
 30
0.0
  3
_CLOSED
  1

  0
LINE
  5
6
330
4
100
AcDbEntity
  8
0
  6
BYBLOCK
 62
     0
370
    -2
100
AcDbLine
 10
-1.0
 20
0.166667
 30
0.0
 11
0.0
 21
0.0
 31
0.0
  0
LINE
  5
7
330
4
100
AcDbEntity
  8
0
  6
BYBLOCK
 62
     0
370
    -2
100
AcDbLine
 10
0.0
 20
0.0
 30
0.0
 11
-1.0
 21
-0.166667
 31
0.0
  0
LINE
  5
8
330
4
100
AcDbEntity
  8
0
  6
BYBLOCK
 62
     0
370
    -2
100
AcDbLine
 10
-1.0
 20
0.166667
 30
0.0
 11
-1.0
 21
-0.166667
 31
0.0
  0
LINE
  5
9
330
4
100
AcDbEntity
  8
0
  6
BYBLOCK
 62
     0
370
    -2
100
AcDbLine
 10
0.0
 20
0.0
 30
0.0
 11
-1.0
 21
0.0
 31
0.0
  0
ENDBLK
  5
A
330
4
100
AcDbEntity
  8
0
100
AcDbBlockEnd
  0
BLOCK
  5
C
330
B
100
AcDbEntity
  8
0
100
AcDbBlockBegin
  2
_DOT
 70
     0
 10
0.0
 20
0.0
 30
0.0
  3
_DOT
  1

  0
POLYLINE
  5
D
330
B
100
AcDbEntity
  8
0
  6
BYBLOCK
 62
     0
370
    -2
100
AcDb2dPolyline
 66
     1
 10
0.0
 20
0.0
 30
0.0
 70
     1
 40
0.5
 41
0.5
  0
VERTEX
  5
E
330
B
100
AcDbEntity
  8
0
  6
BYBLOCK
 62
     0
370
    -2
100
AcDbVertex
100
AcDb2dVertex
 10
-0.25
 20
0.0
 30
0.0
 42
1.0
  0
VERTEX
  5
F
330
B
100
AcDbEntity
  8
0
  6
BYBLOCK
 62
     0
370
    -2
100
AcDbVertex
100
AcDb2dVertex
 10
0.25
 20
0.0
 30
0.0
 42
1.0
  0
SEQEND
  5
10
330
B
100
AcDbEntity
  8
0
  6
BYBLOCK
 62
     0
370
    -2
  0
LINE
  5
11
330
B
100
AcDbEntity
  8
0
  6
BYBLOCK
 62
     0
370
    -2
100
AcDbLine
 10
-0.5
 20
0.0
 30
0.0
 11
-1.0
 21
0.0
 31
0.0
  0
ENDBLK
  5
12
330
B
100
AcDbEntity
  8
0
100
AcDbBlockEnd
  0
BLOCK
  5
14
330
13
100
AcDbEntity
  8
0
100
AcDbBlockBegin
  2
_OPEN
 70
     0
 10
0.0
 20
0.0
 30
0.0
  3
_OPEN
  1

  0
LINE
  5
15
330
13
100
AcDbEntity
  8
0
  6
BYBLOCK
 62
     0
370
    -2
100
AcDbLine
 10
-1.0
 20
0.166667
 30
0.0
 11
0.0
 21
0.0
 31
0.0
  0
LINE
  5
16
330
13
100
AcDbEntity
  8
0
  6
BYBLOCK
 62
     0
370
    -2
100
AcDbLine
 10
0.0
 20
0.0
 30
0.0
 11
-1.0
 21
-0.166667
 31
0.0
  0
LINE
  5
17
330
13
100
AcDbEntity
  8
0
  6
BYBLOCK
 62
     0
370
    -2
100
AcDbLine
 10
0.0
 20
0.0
 30
0.0
 11
-1.0
 21
0.0
 31
0.0
  0
ENDBLK
  5
18
330
13
100
AcDbEntity
  8
0
100
AcDbBlockEnd
  0
BLOCK
  5
1A
330
19
100
AcDbEntity
  8
0
100
AcDbBlockBegin
  2
_ORIGIN
 70
     0
 10
0.0
 20
0.0
 30
0.0
  3
_ORIGIN
  1

  0
CIRCLE
  5
1B
330
19
100
AcDbEntity
  8
0
  6
BYBLOCK
 62
     0
370
    -2
100
AcDbCircle
 10
0.0
 20
0.0
 30
0.0
 40
0.5
  0
LINE
  5
1C
330
19
100
AcDbEntity
  8
0
  6
BYBLOCK
 62
     0
370
    -2
100
AcDbLine
 10
0.0
 20
0.0
 30
0.0
 11
-1.0
 21
0.0
 31
0.0
  0
ENDBLK
  5
1D
330
19
100
AcDbEntity
  8
0
100
AcDbBlockEnd
  0
BLOCK
  5
1F
330
1E
100
AcDbEntity
  8
0
100
AcDbBlockBegin
  2
_OPEN30
 70
     0
 10
0.0
 20
0.0
 30
0.0
  3
_OPEN30
  1

  0
LINE
  5
20
330
1E
100
AcDbEntity
  8
0
  6
BYBLOCK
 62
     0
370
    -2
100
AcDbLine
 10
-1.0
 20
0.267949
 30
0.0
 11
0.0
 21
0.0
 31
0.0
  0
LINE
  5
21
330
1E
100
AcDbEntity
  8
0
  6
BYBLOCK
 62
     0
370
    -2
100
AcDbLine
 10
0.0
 20
0.0
 30
0.0
 11
-1.0
 21
-0.267949
 31
0.0
  0
LINE
  5
22
330
1E
100
AcDbEntity
  8
0
  6
BYBLOCK
 62
     0
370
    -2
100
AcDbLine
 10
0.0
 20
0.0
 30
0.0
 11
-1.0
 21
0.0
 31
0.0
  0
ENDBLK
  5
23
330
1E
100
AcDbEntity
  8
0
100
AcDbBlockEnd
  0
BLOCK
  5
25
330
24
100
AcDbEntity
  8
0
100
AcDbBlockBegin
  2
_BOXFILLED
 70
     0
 10
0.0
 20
0.0
 30
0.0
  3
_BOXFILLED
  1

  0
SOLID
  5
26
330
24
100
AcDbEntity
  8
0
  6
BYBLOCK
 62
     0
370
    -2
100
AcDbTrace
 10
-0.5
 20
0.5
 30
0.0
 11
0.5
 21
0.5
 31
0.0
 12
-0.5
 22
-0.5
 32
0.0
 13
0.5
 23
-0.5
 33
0.0
  0
LINE
  5
27
330
24
100
AcDbEntity
  8
0
  6
BYBLOCK
 62
     0
370
    -2
100
AcDbLine
 10
-0.5
 20
0.0
 30
0.0
 11
-1.0
 21
0.0
 31
0.0
  0
ENDBLK
  5
28
330
24
100
AcDbEntity
  8
0
100
AcDbBlockEnd
  0
BLOCK
  5
2A
330
29
100
AcDbEntity
  8
0
100
AcDbBlockBegin
  2
_BOXBLANK
 70
     0
 10
0.0
 20
0.0
 30
0.0
  3
_BOXBLANK
  1

  0
LINE
  5
2B
330
29
100
AcDbEntity
  8
0
  6
BYBLOCK
 62
     0
370
    -2
100
AcDbLine
 10
-0.5
 20
-0.5
 30
0.0
 11
0.5
 21
-0.5
 31
0.0
  0
LINE
  5
2C
330
29
100
AcDbEntity
  8
0
  6
BYBLOCK
 62
     0
370
    -2
100
AcDbLine
 10
0.5
 20
-0.5
 30
0.0
 11
0.5
 21
0.5
 31
0.0
  0
LINE
  5
2D
330
29
100
AcDbEntity
  8
0
  6
BYBLOCK
 62
     0
370
    -2
100
AcDbLine
 10
0.5
 20
0.5
 30
0.0
 11
-0.5
 21
0.5
 31
0.0
  0
LINE
  5
2E
330
29
100
AcDbEntity
  8
0
  6
BYBLOCK
 62
     0
370
    -2
100
AcDbLine
 10
-0.5
 20
0.5
 30
0.0
 11
-0.5
 21
-0.5
 31
0.0
  0
LINE
  5
2F
330
29
100
AcDbEntity
  8
0
  6
BYBLOCK
 62
     0
370
    -2
100
AcDbLine
 10
-0.5
 20
0.0
 30
0.0
 11
-1.0
 21
0.0
 31
0.0
  0
ENDBLK
  5
30
330
29
100
AcDbEntity
  8
0
100
AcDbBlockEnd
  0
BLOCK
  5
32
330
31
100
AcDbEntity
  8
0
100
AcDbBlockBegin
  2
_OBLIQUE
 70
     0
 10
0.0
 20
0.0
 30
0.0
  3
_OBLIQUE
  1

  0
LINE
  5
33
330
31
100
AcDbEntity
  8
0
  6
BYBLOCK
 62
     0
370
    -2
100
AcDbLine
 10
-0.5
 20
-0.5
 30
0.0
 11
0.5
 21
0.5
 31
0.0
  0
ENDBLK
  5
34
330
31
100
AcDbEntity
  8
0
100
AcDbBlockEnd
  0
BLOCK
  5
36
330
35
100
AcDbEntity
  8
0
100
AcDbBlockBegin
  2
_OPEN90
 70
     0
 10
0.0
 20
0.0
 30
0.0
  3
_OPEN90
  1

  0
LINE
  5
37
330
35
100
AcDbEntity
  8
0
  6
BYBLOCK
 62
     0
370
    -2
100
AcDbLine
 10
-0.5
 20
0.5
 30
0.0
 11
0.0
 21
0.0
 31
0.0
  0
LINE
  5
38
330
35
100
AcDbEntity
  8
0
  6
BYBLOCK
 62
     0
370
    -2
100
AcDbLine
 10
0.0
 20
0.0
 30
0.0
 11
-0.5
 21
-0.5
 31
0.0
  0
LINE
  5
39
330
35
100
AcDbEntity
  8
0
  6
BYBLOCK
 62
     0
370
    -2
100
AcDbLine
 10
0.0
 20
0.0
 30
0.0
 11
-1.0
 21
0.0
 31
0.0
  0
ENDBLK
  5
3A
330
35
100
AcDbEntity
  8
0
100
AcDbBlockEnd
  0
BLOCK
  5
3C
330
3B
100
AcDbEntity
  8
0
100
AcDbBlockBegin
  2
_CLOSEDBLANK
 70
     0
 10
0.0
 20
0.0
 30
0.0
  3
_CLOSEDBLANK
  1

  0
LINE
  5
3D
330
3B
100
AcDbEntity
  8
0
  6
BYBLOCK
 62
     0
370
    -2
100
AcDbLine
 10
-1.0
 20
0.1666666666666666
 30
0.0
 11
0.0
 21
0.0
 31
0.0
  0
LINE
  5
3E
330
3B
100
AcDbEntity
  8
0
  6
BYBLOCK
 62
     0
370
    -2
100
AcDbLine
 10
0.0
 20
0.0
 30
0.0
 11
-1.0
 21
-0.1666666666666666
 31
0.0
  0
LINE
  5
3F
330
3B
100
AcDbEntity
  8
0
  6
BYBLOCK
 62
     0
370
    -2
100
AcDbLine
 10
-1.0
 20
0.1666666666666666
 30
0.0
 11
-1.0
 21
-0.1666666666666666
 31
0.0
  0
ENDBLK
  5
40
330
3B
100
AcDbEntity
  8
0
100
AcDbBlockEnd
  0
BLOCK
  5
42
330
41
100
AcDbEntity
  8
0
100
AcDbBlockBegin
  2
_DOTBLANK
 70
     0
 10
0.0
 20
0.0
 30
0.0
  3
_DOTBLANK
  1

  0
CIRCLE
  5
43
330
41
100
AcDbEntity
  8
0
  6
BYBLOCK
 62
     0
370
    -2
100
AcDbCircle
 10
0.0
 20
0.0
 30
0.0
 40
0.5
  0
LINE
  5
44
330
41
100
AcDbEntity
  8
0
  6
BYBLOCK
 62
     0
370
    -2
100
AcDbLine
 10
-0.5
 20
0.0
 30
0.0
 11
-1.0
 21
0.0
 31
0.0
  0
ENDBLK
  5
45
330
41
100
AcDbEntity
  8
0
100
AcDbBlockEnd
  0
ENDSEC
  0
SECTION
  2
ENTITIES
  0
MTEXT
  5
46
100
AcDbEntity
  8
A8
  6
CONTINUOUS
 62
3
100
AcDbMText
 10
9.999997526638502
 20
18.00000076076889
 30
0.000000000000000
 40
3.000000000000000
 41
0.000000000000000
 44
0.6739999771118164
 71
     7
 72
     1
  1
{\H0.94x;{TYPE No.TH-190E-2-1.0}}
 11
1.000000000000000
 21
0.000000000000000
 31
0.000000000000000
  7
STANDARD
  0
POINT
  5
47
100
AcDbEntity
  8
A0
  6
CONTINUOUS
 62
3
100
AcDbPoint
 10
9.999997526638502
 20
18.00000076076889
 30
0.000000000000000
  0
LINE
  5
48
100
AcDbEntity
  8
A3
  6
DASHED
 62
2
100
AcDbLine
 10
192.5732663154855
 20
145.0122490370100
 30
0.000000000000000
 11
178.5732663154856
 21
145.0122490370100
 31
0.000000000000000
  0
ARC
  5
49
100
AcDbEntity
  8
A1
  6
CONTINUOUS
 62
7
100
AcDbCircle
 10
198.0732663154855
 20
140.5122490370100
 30
0.000000000000000
 40
5.500000000000008
100
AcDbArc
 50
255.0916652767878
 51
499.4641978886751
  0
LINE
  5
4A
100
AcDbEntity
  8
A1
  6
CONTINUOUS
 62
7
100
AcDbLine
 10
192.5732663154855
 20
144.5742682393291
 30
0.000000000000000
 11
192.5732663154855
 21
145.0122490370100
 31
0.000000000000000
  0
LINE
  5
4B
100
AcDbEntity
  8
A1
  6
CONTINUOUS
 62
7
100
AcDbLine
 10
183.5732663154855
 20
147.0122490370100
 30
0.000000000000000
 11
192.5732663154855
 21
147.0122490370100
 31
0.000000000000000
  0
LINE
  5
4C
100
AcDbEntity
  8
A1
  6
CONTINUOUS
 62
7
100
AcDbLine
 10
192.5732663154855
 20
147.0122490370100
 30
0.000000000000000
 11
192.5732663154855
 21
145.0122490370100
 31
0.000000000000000
  0
LINE
  5
4D
100
AcDbEntity
  8
A1
  6
CONTINUOUS
 62
7
100
AcDbLine
 10
178.5476421257189
 20
147.0122490370100
 30
0.000000000000000
 11
183.5732663154855
 21
147.0122490370100
 31
0.000000000000000
  0
LINE
  5
4E
100
AcDbEntity
  8
A1
  6
CONTINUOUS
 62
7
100
AcDbLine
 10
222.0732663154856
 20
139.0122490370100
 30
0.000000000000000
 11
222.0732663154856
 21
140.5122490370100
 31
0.000000000000000
  0
LINE
  5
4F
100
AcDbEntity
  8
A1
  6
CONTINUOUS
 62
7
100
AcDbLine
 10
224.0732663154856
 20
140.5122490370100
 30
0.000000000000000
 11
224.0732663154856
 21
139.0122490370100
 31
0.000000000000000
  0
ARC
  5
50
100
AcDbEntity
  8
A1
  6
CONTINUOUS
 62
7
100
AcDbCircle
 10
226.5732663154856
 20
139.0122490370100
 30
0.000000000000000
 40
2.500000000000000
100
AcDbArc
 50
180.0000000000000
 51
270.0000000000000
  0
ARC
  5
51
100
AcDbEntity
  8
A1
  6
CONTINUOUS
 62
7
100
AcDbCircle
 10
226.5732663154856
 20
139.0122490370100
 30
0.000000000000000
 40
4.500000000000000
100
AcDbArc
 50
180.0000000000000
 51
270.0000000000000
  0
LINE
  5
52
100
AcDbEntity
  8
A1
  6
CONTINUOUS
 62
7
100
AcDbLine
 10
183.0732663154855
 20
145.0122490370100
 30
0.000000000000000
 11
183.0649352956856
 21
145.0122490370100
 31
0.000000000000000
  0
LINE
  5
53
100
AcDbEntity
  8
A1
  6
CONTINUOUS
 62
7
100
AcDbLine
 10
183.0649352956856
 20
147.0122490370100
 30
0.000000000000000
 11
183.0732663154855
 21
147.0122490370100
 31
0.000000000000000
  0
LINE
  5
54
100
AcDbEntity
  8
A1
  6
CONTINUOUS
 62
7
100
AcDbLine
 10
225.0732663154856
 20
140.5122490370100
 30
0.000000000000000
 11
225.0732663154856
 21
139.0122490370100
 31
0.000000000000000
  0
SPLINE
  5
55
100
AcDbEntity
  8
A1
  6
CONTINUOUS
 62
7
100
AcDbSpline
210
0.000000000000000
220
0.000000000000000
230
1.000000000000000
 70
     8
 71
     3
 72
    19
 73
    15
 74
     0
 42
1.000000000000000e-07
 43
1.000000000000000e-07
 12
0.000000000000000
 22
-4.047833307065048
 32
0.000000000000000
 13
107.7559993519681
 23
5.051342074293643
 33
0.000000000000000
 40
0.000000000000000
 40
0.000000000000000
 40
0.000000000000000
 40
0.000000000000000
 40
0.1249999999999998
 40
0.1260999999999998
 40
0.2499999999999997
 40
0.2510999999999997
 40
0.3749999999999996
 40
0.3760999999999996
 40
0.4999999999999996
 40
0.5010999999999997
 40
0.6249999999999994
 40
0.6260999999999994
 40
0.7499999999999993
 40
0.7510999999999993
 40
1.000000000000000
 40
1.000000000000000
 40
1.000000000000000
 10
225.0732663154554
 20
139.0122490370441
 30
0.000000000000000
 10
225.0732663154554
 20
138.8435893159164
 30
0.000000000000000
 10
225.1009322583322
 20
138.6795880061985
 30
0.000000000000000
 10
225.2115322109269
 20
138.3610108580558
 30
0.000000000000000
 10
225.2914078470114
 20
138.2159708368499
 30
0.000000000000000
 10
225.4951241757443
 20
137.9563941077071
 30
0.000000000000000
 10
225.6131156997178
 20
137.8512664103481
 30
0.000000000000000
 10
225.8455997097568
 20
137.6930556564731
 30
0.000000000000000
 10
225.9522422140209
 20
137.6431095596805
 30
0.000000000000000
 10
226.1415147527232
 20
137.5721780557669
 30
0.000000000000000
 10
226.2207557666768
 20
137.5526755003128
 30
0.000000000000000
 10
226.3541863935597
 20
137.5267785445911
 30
0.000000000000000
 10
226.4076073717161
 20
137.5208277814597
 30
0.000000000000000
 10
226.5337557823596
 20
137.5103968782835
 30
0.000000000000000
 10
226.5732663154554
 20
137.5122490370441
 30
0.000000000000000
  0
ARC
  5
56
100
AcDbEntity
  8
A1
  6
CONTINUOUS
 62
7
100
AcDbCircle
 10
226.5732663154856
 20
136.5122490370100
 30
0.000000000000000
 40
1.000000000000000
100
AcDbArc
 50
0.000000000000000
 51
90.00000000000000
  0
LINE
  5
57
100
AcDbEntity
  8
A1
  6
CONTINUOUS
 62
7
100
AcDbLine
 10
227.5732663154856
 20
137.5122490370100
 30
0.000000000000000
 11
230.5732663154858
 21
137.5122490370100
 31
0.000000000000000
  0
LINE
  5
58
100
AcDbEntity
  8
A1
  6
CONTINUOUS
 62
7
100
AcDbLine
 10
226.5732663154856
 20
137.5122490370100
 30
0.000000000000000
 11
227.5732663154856
 21
137.5122490370100
 31
0.000000000000000
  0
CIRCLE
  5
59
100
AcDbEntity
  8
A1
  6
CONTINUOUS
 62
7
100
AcDbCircle
 10
198.0732663154855
 20
140.5122490370100
 30
0.000000000000000
 40
4.500000000000000
  0
CIRCLE
  5
5A
100
AcDbEntity
  8
A1
  6
CONTINUOUS
 62
7
100
AcDbCircle
 10
198.0732663154855
 20
140.5122490370100
 30
0.000000000000000
 40
4.999999999999972
  0
LINE
  5
5B
100
AcDbEntity
  8
A3
  6
DASHED
 62
2
100
AcDbLine
 10
177.0732663154855
 20
136.5122490370100
 30
0.000000000000000
 11
191.7195369818270
 21
136.5122490370100
 31
0.000000000000000
  0
LINE
  5
5C
100
AcDbEntity
  8
A1
  6
CONTINUOUS
 62
7
100
AcDbLine
 10
192.5732663154855
 20
134.5122490370100
 30
0.000000000000000
 11
177.0732663154855
 21
134.5122490370100
 31
0.000000000000000
  0
LINE
  5
5D
100
AcDbEntity
  8
A1
  6
CONTINUOUS
 62
7
100
AcDbLine
 10
177.0732663154855
 20
134.5122490370100
 30
0.000000000000000
 11
177.0732663154855
 21
136.0122490370100
 31
0.000000000000000
  0
LINE
  5
5E
100
AcDbEntity
  8
A1
  6
CONTINUOUS
 62
7
100
AcDbLine
 10
177.0732663154855
 20
139.8487925179360
 30
0.000000000000000
 11
177.0732663154855
 21
136.0122490370100
 31
0.000000000000000
  0
ARC
  5
5F
100
AcDbEntity
  8
A1
  6
CONTINUOUS
 62
7
100
AcDbCircle
 10
198.0732663154855
 20
140.5122490370100
 30
0.000000000000000
 40
26.00000000000003
100
AcDbArc
 50
0.000000000000000
 51
155.2534754130621
  0
ARC
  5
60
100
AcDbEntity
  8
A1
  6
CONTINUOUS
 62
7
100
AcDbCircle
 10
198.0732663154855
 20
140.5122490370100
 30
0.000000000000000
 40
24.00000000000003
100
AcDbArc
 50
0.000000000000000
 51
155.2534754130621
  0
ARC
  5
61
100
AcDbEntity
  8
A1
  6
CONTINUOUS
 62
7
100
AcDbCircle
 10
198.0732663154855
 20
140.5122490370100
 30
0.000000000000000
 40
27.00000000000003
100
AcDbArc
 50
0.000000000000000
 51
155.2534754130621
  0
ARC
  5
62
100
AcDbEntity
  8
A1
  6
CONTINUOUS
 62
7
100
AcDbCircle
 10
178.5476421257189
 20
149.5122490370100
 30
0.000000000000000
 40
5.500000000000000
100
AcDbArc
 50
155.2534754130621
 51
270.0000000000000
  0
ARC
  5
63
100
AcDbEntity
  8
A1
  6
CONTINUOUS
 62
7
100
AcDbCircle
 10
178.5476421257189
 20
149.5122490370100
 30
0.000000000000000
 40
4.500000000000000
100
AcDbArc
 50
155.2534754130622
 51
270.0000000000000
  0
ARC
  5
64
100
AcDbEntity
  8
A1
  6
CONTINUOUS
 62
7
100
AcDbCircle
 10
178.5476421257189
 20
149.5122490370100
 30
0.000000000000000
 40
2.500000000000000
100
AcDbArc
 50
155.2534754130621
 51
270.0000000000000
  0
LINE
  5
65
100
AcDbEntity
  8
A4
  6
CENTER
 62
1
100
AcDbLine
 10
184.5732663154769
 20
133.0122490370100
 30
0.000000000000000
 11
184.5732663154769
 21
138.0122490370100
 31
0.000000000000000
  0
LINE
  5
66
100
AcDbEntity
  8
A4
  6
CENTER
 62
1
100
AcDbLine
 10
233.0732663154855
 20
133.0122490370100
 30
0.000000000000000
 11
233.0732663154855
 21
138.0122490370100
 31
0.000000000000000
  0
LINE
  5
67
100
AcDbEntity
  8
A4
  6
CENTER
 62
1
100
AcDbLine
 10
191.0732663154855
 20
140.5122490370100
 30
0.000000000000000
 11
226.5732663154856
 21
140.5122490370100
 31
0.000000000000000
  0
LINE
  5
68
100
AcDbEntity
  8
A4
  6
CENTER
 62
1
100
AcDbLine
 10
198.0732663154855
 20
133.5122490370100
 30
0.000000000000000
 11
198.0732663154855
 21
169.0122490370100
 31
0.000000000000000
  0
LINE
  5
69
100
AcDbEntity
  8
A1
  6
CONTINUOUS
 62
7
100
AcDbLine
 10
226.5732663154856
 20
136.5122490370100
 30
0.000000000000000
 11
238.0732663154857
 21
136.5122490370100
 31
0.000000000000000
  0
LINE
  5
6A
100
AcDbEntity
  8
A1
  6
CONTINUOUS
 62
7
100
AcDbLine
 10
226.5732663154856
 20
134.5122490370100
 30
0.000000000000000
 11
238.0732663154857
 21
134.5122490370100
 31
0.000000000000000
  0
LINE
  5
6B
100
AcDbEntity
  8
A1
  6
CONTINUOUS
 62
7
100
AcDbLine
 10
203.5732663154855
 20
34.51224903700141
 30
0.000000000000000
 11
203.5732663154855
 21
36.51224903700141
 31
0.000000000000000
  0
LINE
  5
6C
100
AcDbEntity
  8
A1
  6
CONTINUOUS
 62
7
100
AcDbLine
 10
193.0732663154855
 20
33.01224903700144
 30
0.000000000000000
 11
193.5732663154855
 21
32.51224903700144
 31
0.000000000000000
  0
LINE
  5
6D
100
AcDbEntity
  8
A1
  6
CONTINUOUS
 62
7
100
AcDbLine
 10
202.5732663154855
 20
32.51224903700138
 30
0.000000000000000
 11
203.0732663154855
 21
33.01224903700138
 31
0.000000000000000
  0
LINE
  5
6E
100
AcDbEntity
  8
A1
  6
CONTINUOUS
 62
7
100
AcDbLine
 10
193.0732663154855
 20
34.51224903700141
 30
0.000000000000000
 11
193.0732663154855
 21
33.01224903700141
 31
0.000000000000000
  0
LINE
  5
6F
100
AcDbEntity
  8
A1
  6
CONTINUOUS
 62
7
100
AcDbLine
 10
203.0732663154855
 20
33.01224903700141
 30
0.000000000000000
 11
203.0732663154855
 21
34.51224903700141
 31
0.000000000000000
  0
LINE
  5
70
100
AcDbEntity
  8
A1
  6
CONTINUOUS
 62
7
100
AcDbLine
 10
238.0732663154855
 20
86.01224903700989
 30
0.000000000000000
 11
238.0732663154855
 21
41.01224903700989
 31
0.000000000000000
  0
ARC
  5
71
100
AcDbEntity
  8
A1
  6
CONTINUOUS
 62
7
100
AcDbCircle
 10
236.0732663154855
 20
41.01224903700989
 30
0.000000000000000
 40
2.000000000000000
100
AcDbArc
 50
270.0000000000000
 51
360.0000000000000
  0
LINE
  5
72
100
AcDbEntity
  8
A1
  6
CONTINUOUS
 62
7
100
AcDbLine
 10
223.0732663154855
 20
47.01224903700987
 30
0.000000000000000
 11
202.0384292913892
 21
47.01224903700987
 31
0.000000000000000
  0
LINE
  5
73
100
AcDbEntity
  8
A1
  6
CONTINUOUS
 62
7
100
AcDbLine
 10
223.0732663154855
 20
50.01224903700987
 30
0.000000000000000
 11
203.0232663154855
 21
50.01224903700987
 31
0.000000000000000
  0
LINE
  5
74
100
AcDbEntity
  8
A1
  6
CONTINUOUS
 62
7
100
AcDbLine
 10
192.5732663154855
 20
62.01224903700987
 30
0.000000000000000
 11
229.0732663167754
 21
62.01224903700987
 31
0.000000000000000
  0
LINE
  5
75
100
AcDbEntity
  8
A1
  6
CONTINUOUS
 62
7
100
AcDbLine
 10
192.5732663154855
 20
65.01224903700987
 30
0.000000000000000
 11
229.0732663167754
 21
65.01224903700987
 31
0.000000000000000
  0
LINE
  5
76
100
AcDbEntity
  8
A1
  6
CONTINUOUS
 62
7
100
AcDbLine
 10
202.5732663154855
 20
32.51224903700141
 30
0.000000000000000
 11
193.5732663154855
 21
32.51224903700141
 31
0.000000000000000
  0
LINE
  5
77
100
AcDbEntity
  8
A1
  6
CONTINUOUS
 62
7
100
AcDbLine
 10
193.0732663154855
 20
33.01224903700141
 30
0.000000000000000
 11
203.0732663154855
 21
33.01224903700141
 31
0.000000000000000
  0
LINE
  5
78
100
AcDbEntity
  8
A3
  6
DASHED
 62
2
100
AcDbLine
 10
192.5732663154855
 20
40.51224903700987
 30
0.000000000000000
 11
177.0732663154855
 21
40.51224903700987
 31
0.000000000000000
  0
LINE
  5
79
100
AcDbEntity
  8
A1
  6
CONTINUOUS
 62
7
100
AcDbLine
 10
177.0732663154855
 20
38.51224903700987
 30
0.000000000000000
 11
192.5732663154855
 21
38.51224903700987
 31
0.000000000000000
  0
CIRCLE
  5
7A
100
AcDbEntity
  8
A1
  6
CONTINUOUS
 62
7
100
AcDbCircle
 10
184.5732663154855
 20
48.51224903700987
 30
0.000000000000000
 40
2.149999999999999
  0
LINE
  5
7B
100
AcDbEntity
  8
A4
  6
CENTER
 62
1
100
AcDbLine
 10
171.5360027159544
 20
63.51224903700987
 30
0.000000000000000
 11
239.5732663154855
 21
63.51224903700987
 31
0.000000000000000
  0
LINE
  5
7C
100
AcDbEntity
  8
A1
  6
CONTINUOUS
 62
7
100
AcDbLine
 10
178.5732663154856
 20
36.51224903700141
 30
0.000000000000000
 11
203.5732663154855
 21
36.51224903700141
 31
0.000000000000000
  0
LINE
  5
7D
100
AcDbEntity
  8
A1
  6
CONTINUOUS
 62
7
100
AcDbLine
 10
203.5732663154855
 20
92.51224903701001
 30
0.000000000000000
 11
203.5732663154855
 21
90.51224903701001
 31
0.000000000000000
  0
LINE
  5
7E
100
AcDbEntity
  8
A1
  6
CONTINUOUS
 62
7
100
AcDbLine
 10
193.1232663154855
 20
82.11224903700995
 30
0.000000000000000
 11
193.1232663154855
 21
82.91224903700996
 31
0.000000000000000
  0
LINE
  5
7F
100
AcDbEntity
  8
A1
  6
CONTINUOUS
 62
7
100
AcDbLine
 10
203.0232663154855
 20
82.91224903700996
 30
0.000000000000000
 11
203.0232663154855
 21
82.11224903700995
 31
0.000000000000000
  0
ARC
  5
80
100
AcDbEntity
  8
A1
  6
CONTINUOUS
 62
7
100
AcDbCircle
 10
193.4232663154855
 20
83.01224903700992
 30
0.000000000000000
 40
0.1000000000000014
100
AcDbArc
 50
270.0000000000000
 51
294.3373400022000
  0
ARC
  5
81
100
AcDbEntity
  8
A1
  6
CONTINUOUS
 62
7
100
AcDbCircle
 10
202.7232663154855
 20
83.01224903700992
 30
0.000000000000000
 40
0.1000000000000067
100
AcDbArc
 50
245.6626599978000
 51
270.0000000000000
  0
LINE
  5
82
100
AcDbEntity
  8
A1
  6
CONTINUOUS
 62
7
100
AcDbLine
 10
193.4644771392856
 20
82.92113554740997
 30
0.000000000000000
 11
194.1523689010856
 21
83.23227044410996
 31
0.000000000000000
  0
LINE
  5
83
100
AcDbEntity
  8
A1
  6
CONTINUOUS
 62
7
100
AcDbLine
 10
201.9941637297856
 20
83.23227044410997
 30
0.000000000000000
 11
202.6820554916856
 21
82.92113554740997
 31
0.000000000000000
  0
ARC
  5
84
100
AcDbEntity
  8
A1
  6
CONTINUOUS
 62
7
100
AcDbCircle
 10
194.5232663154855
 20
82.41224903700996
 30
0.000000000000000
 40
0.9000000000000057
100
AcDbArc
 50
90.00000000000000
 51
114.3373400023000
  0
ARC
  5
85
100
AcDbEntity
  8
A1
  6
CONTINUOUS
 62
7
100
AcDbCircle
 10
201.6232663154855
 20
82.41224903700996
 30
0.000000000000000
 40
0.8999999999999986
100
AcDbArc
 50
65.66265999770005
 51
90.00000000000000
  0
LINE
  5
86
100
AcDbEntity
  8
A1
  6
CONTINUOUS
 62
7
100
AcDbLine
 10
203.0232663154855
 20
84.51224903700992
 30
0.000000000000000
 11
203.0232663154855
 21
83.71224903700991
 31
0.000000000000000
  0
LINE
  5
87
100
AcDbEntity
  8
A1
  6
CONTINUOUS
 62
7
100
AcDbLine
 10
193.1232663154855
 20
83.71224903700991
 30
0.000000000000000
 11
193.1232663154855
 21
84.51224903700992
 31
0.000000000000000
  0
ARC
  5
88
100
AcDbEntity
  8
A1
  6
CONTINUOUS
 62
7
100
AcDbCircle
 10
202.7232663154855
 20
83.61224903700995
 30
0.000000000000000
 40
0.1000000000000014
100
AcDbArc
 50
90.00000000000000
 51
114.3373400022000
  0
ARC
  5
89
100
AcDbEntity
  8
A1
  6
CONTINUOUS
 62
7
100
AcDbCircle
 10
193.4232663154855
 20
83.61224903700995
 30
0.000000000000000
 40
0.1000000000000014
100
AcDbArc
 50
65.66265999779999
 51
90.00000000000000
  0
LINE
  5
8A
100
AcDbEntity
  8
A1
  6
CONTINUOUS
 62
7
100
AcDbLine
 10
202.6820554916855
 20
83.70336252670995
 30
0.000000000000000
 11
201.9941637297854
 21
83.39222763000993
 31
0.000000000000000
  0
LINE
  5
8B
100
AcDbEntity
  8
A1
  6
CONTINUOUS
 62
7
100
AcDbLine
 10
194.1523689010854
 20
83.39222763000996
 30
0.000000000000000
 11
193.4644771392854
 21
83.70336252670997
 31
0.000000000000000
  0
ARC
  5
8C
100
AcDbEntity
  8
A1
  6
CONTINUOUS
 62
7
100
AcDbCircle
 10
201.6232663154855
 20
84.21224903700991
 30
0.000000000000000
 40
0.9000000000000057
100
AcDbArc
 50
270.0000000000000
 51
294.3373400023000
  0
ARC
  5
8D
100
AcDbEntity
  8
A1
  6
CONTINUOUS
 62
7
100
AcDbCircle
 10
194.5232663154855
 20
84.21224903700991
 30
0.000000000000000
 40
0.9000000000000057
100
AcDbArc
 50
245.6626599977000
 51
270.0000000000000
  0
LINE
  5
8E
100
AcDbEntity
  8
A1
  6
CONTINUOUS
 62
7
100
AcDbLine
 10
203.0232663154855
 20
82.11224903700995
 30
0.000000000000000
 11
203.0232663154855
 21
81.31224903700993
 31
0.000000000000000
  0
LINE
  5
8F
100
AcDbEntity
  8
A1
  6
CONTINUOUS
 62
7
100
AcDbLine
 10
193.1232663154855
 20
81.31224903700993
 30
0.000000000000000
 11
193.1232663154855
 21
82.11224903700995
 31
0.000000000000000
  0
ARC
  5
90
100
AcDbEntity
  8
A1
  6
CONTINUOUS
 62
7
100
AcDbCircle
 10
202.7232663154855
 20
81.21224903700991
 30
0.000000000000000
 40
0.1000000000000014
100
AcDbArc
 50
90.00000000000000
 51
114.3373400022000
  0
ARC
  5
91
100
AcDbEntity
  8
A1
  6
CONTINUOUS
 62
7
100
AcDbCircle
 10
193.4232663154855
 20
81.21224903700991
 30
0.000000000000000
 40
0.1000000000000014
100
AcDbArc
 50
65.66265999779999
 51
90.00000000000000
  0
LINE
  5
92
100
AcDbEntity
  8
A1
  6
CONTINUOUS
 62
7
100
AcDbLine
 10
202.6820554916855
 20
81.30336252671005
 30
0.000000000000000
 11
201.9941637297856
 21
80.99222763001008
 31
0.000000000000000
  0
LINE
  5
93
100
AcDbEntity
  8
A1
  6
CONTINUOUS
 62
7
100
AcDbLine
 10
194.1523689010855
 20
80.99222763000998
 30
0.000000000000000
 11
193.4644771392855
 21
81.30336252670996
 31
0.000000000000000
  0
ARC
  5
94
100
AcDbEntity
  8
A1
  6
CONTINUOUS
 62
7
100
AcDbCircle
 10
201.6232663154855
 20
81.81224903700993
 30
0.000000000000000
 40
0.9000000000000057
100
AcDbArc
 50
270.0000000000000
 51
294.3373400023000
  0
ARC
  5
95
100
AcDbEntity
  8
A1
  6
CONTINUOUS
 62
7
100
AcDbCircle
 10
194.5232663154855
 20
81.81224903700993
 30
0.000000000000000
 40
0.9000000000000057
100
AcDbArc
 50
245.6626599977000
 51
270.0000000000000
  0
LINE
  5
96
100
AcDbEntity
  8
A1
  6
CONTINUOUS
 62
7
100
AcDbLine
 10
193.1232663154855
 20
79.71224903700991
 30
0.000000000000000
 11
193.1232663154855
 21
80.51224903700992
 31
0.000000000000000
  0
LINE
  5
97
100
AcDbEntity
  8
A1
  6
CONTINUOUS
 62
7
100
AcDbLine
 10
203.0232663154855
 20
80.51224903700992
 30
0.000000000000000
 11
203.0232663154855
 21
79.71224903700991
 31
0.000000000000000
  0
ARC
  5
98
100
AcDbEntity
  8
A1
  6
CONTINUOUS
 62
7
100
AcDbCircle
 10
193.4232663154855
 20
80.61224903700995
 30
0.000000000000000
 40
0.09999999999999430
100
AcDbArc
 50
270.0000000000000
 51
294.3373400022000
  0
ARC
  5
99
100
AcDbEntity
  8
A1
  6
CONTINUOUS
 62
7
100
AcDbCircle
 10
202.7232663154855
 20
80.61224903700995
 30
0.000000000000000
 40
0.1000000000000003
100
AcDbArc
 50
245.6626599978000
 51
270.0000000000000
  0
LINE
  5
9A
100
AcDbEntity
  8
A1
  6
CONTINUOUS
 62
7
100
AcDbLine
 10
193.4644771392856
 20
80.52113554741000
 30
0.000000000000000
 11
194.1523689010856
 21
80.83227044411001
 31
0.000000000000000
  0
LINE
  5
9B
100
AcDbEntity
  8
A1
  6
CONTINUOUS
 62
7
100
AcDbLine
 10
201.9941637297855
 20
80.83227044410995
 30
0.000000000000000
 11
202.6820554916856
 21
80.52113554740993
 31
0.000000000000000
  0
ARC
  5
9C
100
AcDbEntity
  8
A1
  6
CONTINUOUS
 62
7
100
AcDbCircle
 10
194.5232663154855
 20
80.01224903700992
 30
0.000000000000000
 40
0.9000000000000057
100
AcDbArc
 50
90.00000000000000
 51
114.3373400023000
  0
ARC
  5
9D
100
AcDbEntity
  8
A1
  6
CONTINUOUS
 62
7
100
AcDbCircle
 10
201.6232663154855
 20
80.01224903700992
 30
0.000000000000000
 40
0.9000000000000057
100
AcDbArc
 50
65.66265999770005
 51
90.00000000000000
  0
LINE
  5
9E
100
AcDbEntity
  8
A1
  6
CONTINUOUS
 62
7
100
AcDbLine
 10
193.1732663154855
 20
84.51224903700992
 30
0.000000000000000
 11
193.1732663154855
 21
85.51224903700992
 31
0.000000000000000
  0
LINE
  5
9F
100
AcDbEntity
  8
A1
  6
CONTINUOUS
 62
7
100
AcDbLine
 10
202.9732663154855
 20
85.51224903700992
 30
0.000000000000000
 11
202.9732663154855
 21
84.51224903700992
 31
0.000000000000000
  0
LINE
  5
A0
100
AcDbEntity
  8
A1
  6
CONTINUOUS
 62
7
100
AcDbLine
 10
193.1732663154855
 20
78.71224903700991
 30
0.000000000000000
 11
193.1732663154855
 21
79.71224903700991
 31
0.000000000000000
  0
LINE
  5
A1
100
AcDbEntity
  8
A1
  6
CONTINUOUS
 62
7
100
AcDbLine
 10
202.9732663154855
 20
79.71224903700991
 30
0.000000000000000
 11
202.9732663154855
 21
78.71224903700991
 31
0.000000000000000
  0
LINE
  5
A2
100
AcDbEntity
  8
A1
  6
CONTINUOUS
 62
7
100
AcDbLine
 10
193.0732663154855
 20
94.01224903700998
 30
0.000000000000000
 11
193.5732663154855
 21
94.51224903701001
 31
0.000000000000000
  0
LINE
  5
A3
100
AcDbEntity
  8
A1
  6
CONTINUOUS
 62
7
100
AcDbLine
 10
202.5732663154855
 20
94.51224903701004
 30
0.000000000000000
 11
203.0732663154855
 21
94.01224903701004
 31
0.000000000000000
  0
LINE
  5
A4
100
AcDbEntity
  8
A1
  6
CONTINUOUS
 62
7
100
AcDbLine
 10
193.0732663154855
 20
92.51224903701001
 30
0.000000000000000
 11
193.0732663154855
 21
94.01224903701001
 31
0.000000000000000
  0
LINE
  5
A5
100
AcDbEntity
  8
A1
  6
CONTINUOUS
 62
7
100
AcDbLine
 10
203.0732663154855
 20
94.01224903701001
 30
0.000000000000000
 11
203.0732663154855
 21
92.51224903701001
 31
0.000000000000000
  0
LINE
  5
A6
100
AcDbEntity
  8
A1
  6
CONTINUOUS
 62
7
100
AcDbLine
 10
200.5732663154855
 20
73.71224903700607
 30
0.000000000000000
 11
200.5732663154855
 21
71.31224903700991
 31
0.000000000000000
  0
LINE
  5
A7
100
AcDbEntity
  8
A1
  6
CONTINUOUS
 62
7
100
AcDbLine
 10
195.5732663154855
 20
71.31224903700991
 30
0.000000000000000
 11
195.5732663154855
 21
73.71224903700607
 31
0.000000000000000
  0
LINE
  5
A8
100
AcDbEntity
  8
A1
  6
CONTINUOUS
 62
7
100
AcDbLine
 10
196.0732663154855
 20
70.81224903700988
 30
0.000000000000000
 11
195.5732663154855
 21
71.31224903700991
 31
0.000000000000000
  0
LINE
  5
A9
100
AcDbEntity
  8
A1
  6
CONTINUOUS
 62
7
100
AcDbLine
 10
200.5732663154855
 20
71.31224903700991
 30
0.000000000000000
 11
200.0732663154854
 21
70.81224903700988
 31
0.000000000000000
  0
LINE
  5
AA
100
AcDbEntity
  8
A1
  6
CONTINUOUS
 62
7
100
AcDbLine
 10
203.5732663154855
 20
88.51224903700987
 30
0.000000000000000
 11
203.5732663154855
 21
86.51224903700984
 31
0.000000000000000
  0
ARC
  5
AB
100
AcDbEntity
  8
A1
  6
CONTINUOUS
 62
7
100
AcDbCircle
 10
236.0732663154855
 20
86.01224903700989
 30
0.000000000000000
 40
2.000000000000000
100
AcDbArc
 50
0.000000000000000
 51
90.00000000000000
  0
LINE
  5
AC
100
AcDbEntity
  8
A1
  6
CONTINUOUS
 62
7
100
AcDbLine
 10
223.0732663154855
 20
80.01224903700987
 30
0.000000000000000
 11
203.0232663154855
 21
80.01224903700987
 31
0.000000000000000
  0
LINE
  5
AD
100
AcDbEntity
  8
A1
  6
CONTINUOUS
 62
7
100
AcDbLine
 10
193.1232663154855
 20
80.01224903700987
 30
0.000000000000000
 11
192.5732663154855
 21
80.01224903700987
 31
0.000000000000000
  0
LINE
  5
AE
100
AcDbEntity
  8
A1
  6
CONTINUOUS
 62
7
100
AcDbLine
 10
223.0732663154855
 20
77.01224903700987
 30
0.000000000000000
 11
202.6232663154931
 21
77.01224903700987
 31
0.000000000000000
  0
LINE
  5
AF
100
AcDbEntity
  8
A1
  6
CONTINUOUS
 62
7
100
AcDbLine
 10
193.5232663154778
 20
77.01224903700987
 30
0.000000000000000
 11
192.5732663154855
 21
77.01224903700987
 31
0.000000000000000
  0
LINE
  5
B0
100
AcDbEntity
  8
A1
  6
CONTINUOUS
 62
7
100
AcDbLine
 10
197.3989425039855
 20
82.11224903700995
 30
0.000000000000000
 11
203.0232663154855
 21
82.11224903700995
 31
0.000000000000000
  0
LINE
  5
B1
100
AcDbEntity
  8
A1
  6
CONTINUOUS
 62
7
100
AcDbLine
 10
193.1232663154855
 20
82.11224903700995
 30
0.000000000000000
 11
197.3989425039855
 21
82.11224903700995
 31
0.000000000000000
  0
LINE
  5
B2
100
AcDbEntity
  8
A1
  6
CONTINUOUS
 62
7
100
AcDbLine
 10
197.3989425039855
 20
82.91224903700996
 30
0.000000000000000
 11
193.1232663154855
 21
82.91224903700996
 31
0.000000000000000
  0
LINE
  5
B3
100
AcDbEntity
  8
A1
  6
CONTINUOUS
 62
7
100
AcDbLine
 10
203.0232663154855
 20
82.91224903700996
 30
0.000000000000000
 11
197.3989425039855
 21
82.91224903700996
 31
0.000000000000000
  0
SPLINE
  5
B4
100
AcDbEntity
  8
A1
  6
CONTINUOUS
 62
7
100
AcDbSpline
210
0.000000000000000
220
0.000000000000000
230
1.000000000000000
 70
     8
 71
     3
 72
    15
 73
    11
 74
     0
 42
1.000000000000000e-07
 43
1.000000000000000e-07
 12
-0.08448607604987046
 22
0.000000000000000
 32
0.000000000000000
 13
-6.052014924102878
 23
0.000000000000000
 33
0.000000000000000
 40
0.000000000000000
 40
0.000000000000000
 40
0.000000000000000
 40
0.000000000000000
 40
0.08006105741610750
 40
0.1950534252390940
 40
0.3100457930620805
 40
0.4250381608850669
 40
0.5400305287080536
 40
0.6550228965310403
 40
0.7700152643540269
 40
0.8850076321770135
 40
1.000000000000000
 40
1.000000000000000
 40
1.000000000000000
 10
201.6088103523588
 20
83.31224903703477
 30
0.000000000000000
 10
201.6065556708303
 20
83.31224903703477
 30
0.000000000000000
 10
201.4467351742467
 20
83.31224903703477
 30
0.000000000000000
 10
201.1579899831613
 20
83.31224903703477
 30
0.000000000000000
 10
200.7456776633589
 20
83.31224903703477
 30
0.000000000000000
 10
200.2320357878531
 20
83.31224903703477
 30
0.000000000000000
 10
199.6349776855111
 20
83.31224903703477
 30
0.000000000000000
 10
198.9783578840002
 20
83.31224903703477
 30
0.000000000000000
 10
198.2855958758970
 20
83.31224903703477
 30
0.000000000000000
 10
197.8216388584152
 20
83.31224903703477
 30
0.000000000000000
 10
197.5896603496744
 20
83.31224903703477
 30
0.000000000000000
  0
SPLINE
  5
B5
100
AcDbEntity
  8
A1
  6
CONTINUOUS
 62
7
100
AcDbSpline
210
0.000000000000000
220
0.000000000000000
230
1.000000000000000
 70
     8
 71
     3
 72
    15
 73
    11
 74
     0
 42
1.000000000000000e-07
 43
1.000000000000000e-07
 12
-5.004145999602770
 22
0.000000000000000
 32
0.000000000000000
 13
0.2978713074480765
 23
0.000000000000000
 33
0.000000000000000
 40
0.000000000000000
 40
0.000000000000000
 40
0.000000000000000
 40
0.000000000000000
 40
0.1369155800548466
 40
0.2738311601096932
 40
0.4107467401645399
 40
0.5476623202193860
 40
0.6845779002742329
 40
0.8214934803290794
 40
0.9584090603839259
 40
1.000000000000000
 40
1.000000000000000
 40
1.000000000000000
 40
1.000000000000000
 10
197.5896603496744
 20
83.31224903703477
 30
0.000000000000000
 10
197.3612784989361
 20
83.31224903703477
 30
0.000000000000000
 10
196.9045147974597
 20
83.31224903703477
 30
0.000000000000000
 10
196.2693111556498
 20
83.31224903703477
 30
0.000000000000000
 10
195.7019074249706
 20
83.31224903703477
 30
0.000000000000000
 10
195.2267065375317
 20
83.31224903703477
 30
0.000000000000000
 10
194.8581310161708
 20
83.31224903703477
 30
0.000000000000000
 10
194.6231038096145
 20
83.31224903703477
 30
0.000000000000000
 10
194.5158687058969
 20
83.31224903703477
 30
0.000000000000000
 10
194.5335926960314
 20
83.31224903703477
 30
0.000000000000000
 10
194.5377222785519
 20
83.31224903703477
 30
0.000000000000000
  0
LINE
  5
B6
100
AcDbEntity
  8
A1
  6
CONTINUOUS
 62
7
100
AcDbLine
 10
193.7924748659855
 20
84.51224903700992
 30
0.000000000000000
 11
203.0232663154855
 21
84.51224903700992
 31
0.000000000000000
  0
LINE
  5
B7
100
AcDbEntity
  8
A1
  6
CONTINUOUS
 62
7
100
AcDbLine
 10
193.1232663154855
 20
84.51224903700992
 30
0.000000000000000
 11
193.7924748659855
 21
84.51224903700992
 31
0.000000000000000
  0
LINE
  5
B8
100
AcDbEntity
  8
A1
  6
CONTINUOUS
 62
7
100
AcDbLine
 10
203.0232663154855
 20
84.51224903700992
 30
0.000000000000000
 11
193.1232663154855
 21
84.51224903700992
 31
0.000000000000000
  0
LINE
  5
B9
100
AcDbEntity
  8
A1
  6
CONTINUOUS
 62
7
100
AcDbLine
 10
193.1232663154855
 20
83.71224903700991
 30
0.000000000000000
 11
203.0232663154855
 21
83.71224903700991
 31
0.000000000000000
  0
SPLINE
  5
BA
100
AcDbEntity
  8
A1
  6
CONTINUOUS
 62
7
100
AcDbSpline
210
0.000000000000000
220
0.000000000000000
230
1.000000000000000
 70
     8
 71
     3
 72
    23
 73
    19
 74
     0
 42
1.000000000000000e-07
 43
1.000000000000000e-07
 12
0.6341796790529770
 22
0.000000000000000
 32
0.000000000000000
 13
0.6341796790493390
 23
-2.728484105318785e-12
 33
0.000000000000000
 40
0.000000000000000
 40
0.000000000000000
 40
0.000000000000000
 40
0.000000000000000
 40
0.06250000000000010
 40
0.1250000000000000
 40
0.1875000000000000
 40
0.2499999999999998
 40
0.3125000000000000
 40
0.3749999999999999
 40
0.4374999999999998
 40
0.4999999999999998
 40
0.5625000000000000
 40
0.6249999999999999
 40
0.6874999999999999
 40
0.7500000000000000
 40
0.8124999999999999
 40
0.8750000000000000
 40
0.9374999999999999
 40
1.000000000000000
 40
1.000000000000000
 40
1.000000000000000
 40
1.000000000000000
 10
194.5232663154553
 20
83.31224903703472
 30
0.000000000000000
 10
194.5364783921023
 20
83.31224903703472
 30
0.000000000000000
 10
194.5629025453960
 20
83.31224903703472
 30
0.000000000000000
 10
194.7739949231029
 20
83.31224903703472
 30
0.000000000000000
 10
195.1020816124325
 20
83.31224903703472
 30
0.000000000000000
 10
195.5469737778528
 20
83.31224903703472
 30
0.000000000000000
 10
196.0882467296126
 20
83.31224903703477
 30
0.000000000000000
 10
196.7059912331087
 20
83.31224903703472
 30
0.000000000000000
 10
197.3762291213056
 20
83.31224903703477
 30
0.000000000000000
 10
198.0732663154550
 20
83.31224903703472
 30
0.000000000000000
 10
198.7703035096043
 20
83.31224903703472
 30
0.000000000000000
 10
199.4405413978013
 20
83.31224903703477
 30
0.000000000000000
 10
200.0582859012974
 20
83.31224903703472
 30
0.000000000000000
 10
200.5995588530574
 20
83.31224903703472
 30
0.000000000000000
 10
201.0444510184777
 20
83.31224903703477
 30
0.000000000000000
 10
201.3725377078075
 20
83.31224903703472
 30
0.000000000000000
 10
201.5836300855145
 20
83.31224903703472
 30
0.000000000000000
 10
201.6100542388084
 20
83.31224903703477
 30
0.000000000000000
 10
201.6232663154553
 20
83.31224903703472
 30
0.000000000000000
  0
LINE
  5
BB
100
AcDbEntity
  8
A1
  6
CONTINUOUS
 62
7
100
AcDbLine
 10
203.0232663154855
 20
82.11224903700995
 30
0.000000000000000
 11
193.1232663154855
 21
82.11224903700995
 31
0.000000000000000
  0
LINE
  5
BC
100
AcDbEntity
  8
A1
  6
CONTINUOUS
 62
7
100
AcDbLine
 10
193.1232663154855
 20
81.31224903700993
 30
0.000000000000000
 11
203.0232663154855
 21
81.31224903700993
 31
0.000000000000000
  0
SPLINE
  5
BD
100
AcDbEntity
  8
A1
  6
CONTINUOUS
 62
7
100
AcDbSpline
210
0.000000000000000
220
0.000000000000000
230
1.000000000000000
 70
     8
 71
     3
 72
    23
 73
    19
 74
     0
 42
1.000000000000000e-07
 43
1.000000000000000e-07
 12
0.6341796790475200
 22
0.000000000000000
 32
0.000000000000000
 13
0.6341796790493390
 23
0.000000000000000
 33
0.000000000000000
 40
0.000000000000000
 40
0.000000000000000
 40
0.000000000000000
 40
0.000000000000000
 40
0.06250000000000010
 40
0.1250000000000000
 40
0.1875000000000000
 40
0.2499999999999998
 40
0.3125000000000000
 40
0.3749999999999999
 40
0.4374999999999998
 40
0.4999999999999998
 40
0.5625000000000000
 40
0.6249999999999999
 40
0.6874999999999999
 40
0.7500000000000000
 40
0.8124999999999999
 40
0.8750000000000000
 40
0.9374999999999999
 40
1.000000000000000
 40
1.000000000000000
 40
1.000000000000000
 40
1.000000000000000
 10
194.5232663154553
 20
80.91224903703474
 30
0.000000000000000
 10
194.5364783921022
 20
80.91224903703474
 30
0.000000000000000
 10
194.5629025453960
 20
80.91224903703474
 30
0.000000000000000
 10
194.7739949231029
 20
80.91224903703474
 30
0.000000000000000
 10
195.1020816124325
 20
80.91224903703474
 30
0.000000000000000
 10
195.5469737778528
 20
80.91224903703474
 30
0.000000000000000
 10
196.0882467296126
 20
80.91224903703474
 30
0.000000000000000
 10
196.7059912331087
 20
80.91224903703474
 30
0.000000000000000
 10
197.3762291213056
 20
80.91224903703474
 30
0.000000000000000
 10
198.0732663154550
 20
80.91224903703474
 30
0.000000000000000
 10
198.7703035096043
 20
80.91224903703474
 30
0.000000000000000
 10
199.4405413978013
 20
80.91224903703474
 30
0.000000000000000
 10
200.0582859012974
 20
80.91224903703474
 30
0.000000000000000
 10
200.5995588530574
 20
80.91224903703474
 30
0.000000000000000
 10
201.0444510184777
 20
80.91224903703474
 30
0.000000000000000
 10
201.3725377078075
 20
80.91224903703474
 30
0.000000000000000
 10
201.5836300855145
 20
80.91224903703474
 30
0.000000000000000
 10
201.6100542388084
 20
80.91224903703474
 30
0.000000000000000
 10
201.6232663154553
 20
80.91224903703474
 30
0.000000000000000
  0
LINE
  5
BE
100
AcDbEntity
  8
A1
  6
CONTINUOUS
 62
7
100
AcDbLine
 10
193.1232663154855
 20
79.71224903700991
 30
0.000000000000000
 11
203.0232663154855
 21
79.71224903700991
 31
0.000000000000000
  0
LINE
  5
BF
100
AcDbEntity
  8
A1
  6
CONTINUOUS
 62
7
100
AcDbLine
 10
203.0232663154855
 20
80.51224903700992
 30
0.000000000000000
 11
193.1232663154855
 21
80.51224903700992
 31
0.000000000000000
  0
SPLINE
  5
C0
100
AcDbEntity
  8
A1
  6
CONTINUOUS
 62
7
100
AcDbSpline
210
0.000000000000000
220
0.000000000000000
230
1.000000000000000
 70
     8
 71
     3
 72
    22
 73
    18
 74
     0
 42
1.000000000000000e-07
 43
1.000000000000000e-07
 12
-3.972675098575564
 22
0.000000000000000
 32
0.000000000000000
 13
0.7415885214795708
 23
0.000000000000000
 33
0.000000000000000
 40
0.000000000000000
 40
0.000000000000000
 40
0.000000000000000
 40
0.000000000000000
 40
0.07048637281951010
 40
0.1409727456390195
 40
0.2114591184585293
 40
0.2819454912780393
 40
0.3524318640975493
 40
0.4229182369170587
 40
0.4934046097365688
 40
0.5638909825560785
 40
0.6343773553755883
 40
0.7048637281950981
 40
0.7753501010146078
 40
0.8458364738341175
 40
0.9163228466536274
 40
0.9868092194731373
 40
1.000000000000000
 40
1.000000000000000
 40
1.000000000000000
 40
1.000000000000000
 10
201.4008065999659
 20
80.91224903703474
 30
0.000000000000000
 10
201.3074667806029
 20
80.91224903703474
 30
0.000000000000000
 10
201.1207871418770
 20
80.91224903703474
 30
0.000000000000000
 10
200.6893890228953
 20
80.91224903703474
 30
0.000000000000000
 10
200.1666358467887
 20
80.91224903703474
 30
0.000000000000000
 10
199.5609755126367
 20
80.91224903703474
 30
0.000000000000000
 10
198.8988028406964
 20
80.91224903703474
 30
0.000000000000000
 10
198.2047274346187
 20
80.91224903703474
 30
0.000000000000000
 10
197.5056518728680
 20
80.91224903703474
 30
0.000000000000000
 10
196.8283599586143
 20
80.91224903703474
 30
0.000000000000000
 10
196.1989751049289
 20
80.91224903703474
 30
0.000000000000000
 10
195.6413836388535
 20
80.91224903703474
 30
0.000000000000000
 10
195.1781203427817
 20
80.91224903703474
 30
0.000000000000000
 10
194.8228613250895
 20
80.91224903703474
 30
0.000000000000000
 10
194.6046594967064
 20
80.91224903703474
 30
0.000000000000000
 10
194.5097125297294
 20
80.91224903703474
 30
0.000000000000000
 10
194.5303972018730
 20
80.91224903703474
 30
0.000000000000000
 10
194.5336579123490
 20
80.91224903703474
 30
0.000000000000000
  0
LINE
  5
C1
100
AcDbEntity
  8
A1
  6
CONTINUOUS
 62
7
100
AcDbLine
 10
193.1732663154855
 20
78.71224903700991
 30
0.000000000000000
 11
202.9732663154855
 21
78.71224903700991
 31
0.000000000000000
  0
LINE
  5
C2
100
AcDbEntity
  8
A1
  6
CONTINUOUS
 62
7
100
AcDbLine
 10
202.5732663154855
 20
94.51224903701001
 30
0.000000000000000
 11
193.5732663154855
 21
94.51224903701001
 31
0.000000000000000
  0
LINE
  5
C3
100
AcDbEntity
  8
A1
  6
CONTINUOUS
 62
7
100
AcDbLine
 10
193.0732663154855
 20
94.01224903701001
 30
0.000000000000000
 11
203.0732663154855
 21
94.01224903701001
 31
0.000000000000000
  0
SPLINE
  5
C4
100
AcDbEntity
  8
A1
  6
CONTINUOUS
 62
7
100
AcDbSpline
210
0.000000000000000
220
0.000000000000000
230
1.000000000000000
 70
     8
 71
     3
 72
     9
 73
     5
 74
     0
 42
1.000000000000000e-07
 43
1.000000000000000e-07
 12
-0.9499426331526593
 22
-0.6006344118711695
 32
0.000000000000000
 13
-1.050420392866044
 23
-0.3998705782846059
 33
0.000000000000000
 40
0.000000000000000
 40
0.000000000000000
 40
0.000000000000000
 40
0.000000000000000
 40
0.4962269836136480
 40
1.000000000000000
 40
1.000000000000000
 40
1.000000000000000
 40
1.000000000000000
 10
199.6980739963824
 20
71.31224903703469
 30
0.000000000000000
 10
199.5409449405640
 20
71.21289870288223
 30
0.000000000000000
 10
199.2242973961798
 20
71.01268723225854
 30
0.000000000000000
 10
198.8741572652244
 20
70.87939703949689
 30
0.000000000000000
 10
198.6977661152951
 20
70.81224903703469
 30
0.000000000000000
  0
LINE
  5
C5
100
AcDbEntity
  8
A1
  6
CONTINUOUS
 62
7
100
AcDbLine
 10
199.6980739963855
 20
71.31224903700991
 30
0.000000000000000
 11
199.6980739963855
 21
73.71224903700607
 31
0.000000000000000
  0
LINE
  5
C6
100
AcDbEntity
  8
A1
  6
CONTINUOUS
 62
7
100
AcDbLine
 10
196.4484586344855
 20
71.31224903700991
 30
0.000000000000000
 11
196.4484586344855
 21
73.71224903700607
 31
0.000000000000000
  0
SPLINE
  5
C7
100
AcDbEntity
  8
A1
  6
CONTINUOUS
 62
7
100
AcDbSpline
210
0.000000000000000
220
0.000000000000000
230
1.000000000000000
 70
     8
 71
     3
 72
     9
 73
     5
 74
     0
 42
1.000000000000000e-07
 43
1.000000000000000e-07
 12
-1.050771086584746
 22
0.3988584450893882
 32
0.000000000000000
 13
-0.9502081963762521
 23
0.6004129635098820
 33
0.000000000000000
 40
0.000000000000000
 40
0.000000000000000
 40
0.000000000000000
 40
0.000000000000000
 40
0.4945777097449470
 40
1.000000000000000
 40
1.000000000000000
 40
1.000000000000000
 40
1.000000000000000
 10
197.4487665156154
 20
70.81224903703469
 30
0.000000000000000
 10
197.2755371964590
 20
70.87800453579626
 30
0.000000000000000
 10
196.9252801675974
 20
71.01095735082600
 30
0.000000000000000
 10
196.6085441021386
 20
71.21109500532935
 30
0.000000000000000
 10
196.4484586345281
 20
71.31224903703469
 30
0.000000000000000
  0
LINE
  5
C8
100
AcDbEntity
  8
A1
  6
CONTINUOUS
 62
7
100
AcDbLine
 10
197.4487665155855
 20
70.81224903700991
 30
0.000000000000000
 11
198.6977661152855
 21
70.81224903700991
 31
0.000000000000000
  0
LINE
  5
C9
100
AcDbEntity
  8
A1
  6
CONTINUOUS
 62
7
100
AcDbLine
 10
200.5732663154855
 20
71.31224903700991
 30
0.000000000000000
 11
199.6980739963855
 21
71.31224903700991
 31
0.000000000000000
  0
LINE
  5
CA
100
AcDbEntity
  8
A1
  6
CONTINUOUS
 62
7
100
AcDbLine
 10
196.4484586344855
 20
71.31224903700991
 30
0.000000000000000
 11
195.5732663154855
 21
71.31224903700991
 31
0.000000000000000
  0
LINE
  5
CB
100
AcDbEntity
  8
A1
  6
CONTINUOUS
 62
7
100
AcDbLine
 10
196.0732663154855
 20
70.81224903700991
 30
0.000000000000000
 11
197.4487665155855
 21
70.81224903700991
 31
0.000000000000000
  0
LINE
  5
CC
100
AcDbEntity
  8
A1
  6
CONTINUOUS
 62
7
100
AcDbLine
 10
198.6977661152855
 20
70.81224903700991
 30
0.000000000000000
 11
200.0732663154855
 21
70.81224903700991
 31
0.000000000000000
  0
LINE
  5
CD
100
AcDbEntity
  8
A3
  6
DASHED
 62
2
100
AcDbLine
 10
192.5732663154855
 20
86.51224903700987
 30
0.000000000000000
 11
177.0732663154855
 21
86.51224903700987
 31
0.000000000000000
  0
LINE
  5
CE
100
AcDbEntity
  8
A1
  6
CONTINUOUS
 62
7
100
AcDbLine
 10
177.0732663154855
 20
88.51224903700987
 30
0.000000000000000
 11
192.5732663154855
 21
88.51224903700987
 31
0.000000000000000
  0
CIRCLE
  5
CF
100
AcDbEntity
  8
A1
  6
CONTINUOUS
 62
7
100
AcDbCircle
 10
184.5732663154855
 20
78.51224903700987
 30
0.000000000000000
 40
2.149999999999999
  0
LINE
  5
D0
100
AcDbEntity
  8
A1
  6
CONTINUOUS
 62
7
100
AcDbLine
 10
194.1044529801855
 20
88.51224903700987
 30
0.000000000000000
 11
203.5732663154855
 21
88.51224903700987
 31
0.000000000000000
  0
LINE
  5
D1
100
AcDbEntity
  8
A1
  6
CONTINUOUS
 62
7
100
AcDbLine
 10
192.5732663154855
 20
88.51224903700987
 30
0.000000000000000
 11
193.0732663154855
 21
88.51224903700987
 31
0.000000000000000
  0
LINE
  5
D2
100
AcDbEntity
  8
A1
  6
CONTINUOUS
 62
7
100
AcDbLine
 10
193.3828505555855
 20
88.51224903700987
 30
0.000000000000000
 11
194.1044529801855
 21
88.51224903700987
 31
0.000000000000000
  0
LINE
  5
D3
100
AcDbEntity
  8
A1
  6
CONTINUOUS
 62
7
100
AcDbLine
 10
193.0732663154855
 20
88.51224903700987
 30
0.000000000000000
 11
193.3828505555855
 21
88.51224903700987
 31
0.000000000000000
  0
LINE
  5
D4
100
AcDbEntity
  8
A1
  6
CONTINUOUS
 62
7
100
AcDbLine
 10
193.1732663154855
 20
84.51224903700992
 30
0.000000000000000
 11
202.9732663154855
 21
84.51224903700992
 31
0.000000000000000
  0
LINE
  5
D5
100
AcDbEntity
  8
A1
  6
CONTINUOUS
 62
7
100
AcDbLine
 10
192.5732663154855
 20
86.51224903700987
 30
0.000000000000000
 11
203.5732663154855
 21
86.51224903700987
 31
0.000000000000000
  0
LINE
  5
D6
100
AcDbEntity
  8
A1
  6
CONTINUOUS
 62
7
100
AcDbLine
 10
178.5732663154856
 20
90.51224903701001
 30
0.000000000000000
 11
203.5732663154855
 21
90.51224903701001
 31
0.000000000000000
  0
LINE
  5
D7
100
AcDbEntity
  8
A4
  6
CENTER
 62
1
100
AcDbLine
 10
188.2232663154855
 20
78.51224903700987
 30
0.000000000000000
 11
180.9232663154855
 21
78.51224903700987
 31
0.000000000000000
  0
LINE
  5
D8
100
AcDbEntity
  8
A4
  6
CENTER
 62
1
100
AcDbLine
 10
184.5732663154855
 20
82.16224903700984
 30
0.000000000000000
 11
184.5732663154855
 21
74.86224903700983
 31
0.000000000000000
  0
LINE
  5
D9
100
AcDbEntity
  8
A4
  6
CENTER
 62
1
100
AcDbLine
 10
188.2232663154855
 20
48.51224903700987
 30
0.000000000000000
 11
180.9232663154855
 21
48.51224903700987
 31
0.000000000000000
  0
LINE
  5
DA
100
AcDbEntity
  8
A4
  6
CENTER
 62
1
100
AcDbLine
 10
184.5732663154855
 20
52.16224903700987
 30
0.000000000000000
 11
184.5732663154855
 21
44.86224903700986
 31
0.000000000000000
  0
LINE
  5
DB
100
AcDbEntity
  8
A4
  6
CENTER
 62
1
100
AcDbLine
 10
237.2232663154855
 20
78.51224903700987
 30
0.000000000000000
 11
228.9232663154856
 21
78.51224903700987
 31
0.000000000000000
  0
LINE
  5
DC
100
AcDbEntity
  8
A4
  6
CENTER
 62
1
100
AcDbLine
 10
233.0732663154855
 20
82.16224903700984
 30
0.000000000000000
 11
233.0732663154855
 21
74.86224903700989
 31
0.000000000000000
  0
LINE
  5
DD
100
AcDbEntity
  8
A1
  6
CONTINUOUS
 62
7
100
AcDbLine
 10
203.5732663154855
 20
88.01224903700989
 30
0.000000000000000
 11
236.0732663154855
 21
88.01224903700989
 31
0.000000000000000
  0
LINE
  5
DE
100
AcDbEntity
  8
A1
  6
CONTINUOUS
 62
7
100
AcDbLine
 10
203.5732663154855
 20
39.01224903700989
 30
0.000000000000000
 11
236.0732663154855
 21
39.01224903700989
 31
0.000000000000000
  0
LINE
  5
DF
100
AcDbEntity
  8
A1
  6
CONTINUOUS
 62
7
100
AcDbLine
 10
178.5732663154856
 20
92.51224903701001
 30
0.000000000000000
 11
203.5732663154855
 21
92.51224903701001
 31
0.000000000000000
  0
LINE
  5
E0
100
AcDbEntity
  8
A1
  6
CONTINUOUS
 62
7
100
AcDbLine
 10
178.5732663154856
 20
34.51224903700141
 30
0.000000000000000
 11
203.5732663154855
 21
34.51224903700141
 31
0.000000000000000
  0
LINE
  5
E1
100
AcDbEntity
  8
A1
  6
CONTINUOUS
 62
7
100
AcDbLine
 10
174.0476421257190
 20
88.01224903700989
 30
0.000000000000000
 11
174.0476421257190
 21
80.26224903633005
 31
0.000000000000000
  0
LINE
  5
E2
100
AcDbEntity
  8
A1
  6
CONTINUOUS
 62
7
100
AcDbLine
 10
174.0476421257190
 20
46.76224903851011
 30
0.000000000000000
 11
174.0476421257190
 21
39.01224903700989
 31
0.000000000000000
  0
LINE
  5
E3
100
AcDbEntity
  8
A1
  6
CONTINUOUS
 62
7
100
AcDbLine
 10
174.0476421257189
 20
88.01224903700991
 30
0.000000000000000
 11
177.0732663154852
 21
88.01224903701051
 31
0.000000000000000
  0
LINE
  5
E4
100
AcDbEntity
  8
A1
  6
CONTINUOUS
 62
7
100
AcDbLine
 10
174.0476421257189
 20
39.01224903700990
 30
0.000000000000000
 11
177.0732663154852
 21
39.01224903701050
 31
0.000000000000000
  0
LINE
  5
E5
100
AcDbEntity
  8
A1
  6
CONTINUOUS
 62
7
100
AcDbLine
 10
177.0732663154855
 20
38.51224903700987
 30
0.000000000000000
 11
177.0732663154855
 21
88.51224903700987
 31
0.000000000000000
  0
LINE
  5
E6
100
AcDbEntity
  8
A1
  6
CONTINUOUS
 62
7
100
AcDbLine
 10
178.5732663154856
 20
88.51224903700987
 30
0.000000000000000
 11
178.5732663154856
 21
92.51224903701001
 31
0.000000000000000
  0
LINE
  5
E7
100
AcDbEntity
  8
A1
  6
CONTINUOUS
 62
7
100
AcDbLine
 10
178.5732663154856
 20
34.51224903700142
 30
0.000000000000000
 11
178.5732663154856
 21
38.51224903700987
 31
0.000000000000000
  0
LINE
  5
E8
100
AcDbEntity
  8
A1
  6
CONTINUOUS
 62
7
100
AcDbLine
 10
284.5732663154639
 20
134.5122490370100
 30
0.000000000000000
 11
333.5732663154639
 21
134.5122490370100
 31
0.000000000000000
  0
LINE
  5
E9
100
AcDbEntity
  8
A1
  6
CONTINUOUS
 62
7
100
AcDbLine
 10
284.5732663154306
 20
166.5122490369501
 30
0.000000000000000
 11
284.5732663154639
 21
134.5122490371508
 31
0.000000000000000
  0
LINE
  5
EA
100
AcDbEntity
  8
A1
  6
CONTINUOUS
 62
7
100
AcDbLine
 10
333.5732663154306
 20
166.5122490369181
 30
0.000000000000000
 11
333.5732663154639
 21
134.5122490371508
 31
0.000000000000000
  0
LINE
  5
EB
100
AcDbEntity
  8
A1
  6
CONTINUOUS
 62
7
100
AcDbLine
 10
284.5732663154618
 20
136.5122490369672
 30
0.000000000000000
 11
333.5732663152310
 21
136.5122490369180
 31
0.000000000000000
  0
LINE
  5
EC
100
AcDbEntity
  8
A1
  6
CONTINUOUS
 62
7
100
AcDbLine
 10
327.5732663153613
 20
166.5122490369220
 30
0.000000000000000
 11
333.5732663156967
 21
166.5122490369180
 31
0.000000000000000
  0
LINE
  5
ED
100
AcDbEntity
  8
A1
  6
CONTINUOUS
 62
7
100
AcDbLine
 10
284.5732663154305
 20
166.5122490369501
 30
0.000000000000000
 11
292.3232663163554
 21
166.5122490369451
 31
0.000000000000000
  0
LINE
  5
EE
100
AcDbEntity
  8
A4
  6
CENTER
 62
1
100
AcDbLine
 10
294.0732663154131
 20
138.0122490369577
 30
0.000000000000000
 11
294.0732663154131
 21
133.0122490371508
 31
0.000000000000000
  0
LINE
  5
EF
100
AcDbEntity
  8
A4
  6
CENTER
 62
1
100
AcDbLine
 10
309.0732663154473
 20
133.0122490371508
 30
0.000000000000000
 11
309.0732663154473
 21
169.0122490369340
 31
0.000000000000000
  0
LINE
  5
F0
100
AcDbEntity
  8
A4
  6
CENTER
 62
1
100
AcDbLine
 10
324.0732663154812
 20
138.0122490369577
 30
0.000000000000000
 11
324.0732663154812
 21
133.0122490371508
 31
0.000000000000000
  0
LINE
  5
F1
100
AcDbEntity
  8
A4
  6
CENTER
 62
1
100
AcDbLine
 10
277.5732663154133
 20
140.5122490370097
 30
0.000000000000000
 11
340.5732663154809
 21
140.5122490370097
 31
0.000000000000000
  0
SPLINE
  5
F2
100
AcDbEntity
  8
A1
  6
CONTINUOUS
 62
7
100
AcDbSpline
210
0.000000000000000
220
0.000000000000000
230
1.000000000000000
 70
     8
 71
     3
 72
    11
 73
     7
 74
     0
 42
1.000000000000000e-07
 43
1.000000000000000e-07
 12
-0.9025984889435676
 22
-0.4304834117103837
 32
0.000000000000000
 13
-0.7033355859311996
 23
-0.7108579700350219
 33
0.000000000000000
 40
0.000000000000000
 40
0.000000000000000
 40
0.000000000000000
 40
0.000000000000000
 40
0.2048302467431619
 40
0.4319754993347258
 40
0.6277212863069461
 40
0.8396245040251320
 40
0.8396245040251320
 40
0.8396245040251320
 40
0.8396245040251320
 10
194.1928921336795
 20
78.71224903700838
 30
0.000000000000000
 10
194.1312656432794
 20
78.68285702919522
 30
0.000000000000000
 10
194.0043094270720
 20
78.61412558119943
 30
0.000000000000000
 10
193.8337280418171
 20
78.49219554366434
 30
0.000000000000000
 10
193.6717428926315
 20
78.35591269166744
 30
0.000000000000000
 10
193.5729460067402
 20
78.26246006737554
 30
0.000000000000000
 10
193.5232663154754
 20
78.21224903697853
 30
0.000000000000000
  0
SPLINE
  5
F3
100
AcDbEntity
  8
A1
  6
CONTINUOUS
 62
7
100
AcDbSpline
210
0.000000000000000
220
0.000000000000000
230
1.000000000000000
 70
     8
 71
     3
 72
    10
 73
     6
 74
     0
 42
1.000000000000000e-07
 43
1.000000000000000e-07
 12
-0.9022995464383712
 22
0.4311096478834315
 32
0.000000000000000
 13
-0.6956002207882648
 23
0.7184290729361464
 33
0.000000000000000
 40
0.000000000000000
 40
0.000000000000000
 40
0.000000000000000
 40
0.000000000000000
 40
0.2174644656294127
 40
0.4511524707122400
 40
0.8394555321993029
 40
0.8394555321993029
 40
0.8394555321993029
 40
0.8394555321993029
 10
194.1928904707288
 20
75.21224918357515
 30
0.000000000000000
 10
194.1274844411609
 20
75.24349952664338
 30
0.000000000000000
 10
193.9949855066177
 20
75.31563910221271
 30
0.000000000000000
 10
193.7686421978174
 20
75.48088040529970
 30
0.000000000000000
 10
193.6133008805792
 20
75.61925963420376
 30
0.000000000000000
 10
193.5232663154781
 20
75.71224903703123
 30
0.000000000000000
  0
SPLINE
  5
F4
100
AcDbEntity
  8
A1
  6
CONTINUOUS
 62
7
100
AcDbSpline
210
0.000000000000000
220
0.000000000000000
230
1.000000000000000
 70
     8
 71
     3
 72
    11
 73
     7
 74
     0
 42
1.000000000000000e-07
 43
1.000000000000000e-07
 12
0.9025956392379157
 22
0.4304893866615203
 32
0.000000000000000
 13
0.7033351811464854
 23
0.7108583705369256
 33
0.000000000000000
 40
0.000000000000000
 40
0.000000000000000
 40
0.000000000000000
 40
0.000000000000000
 40
0.2048318338689563
 40
0.4319770838121431
 40
0.6277216644585483
 40
0.8396225793836789
 40
0.8396225793836789
 40
0.8396225793836789
 40
0.8396225793836789
 10
195.1286427028129
 20
75.21224906230267
 30
0.000000000000000
 10
195.1902694761553
 20
75.24164170581301
 30
0.000000000000000
 10
195.3172257567236
 20
75.31037410062609
 30
0.000000000000000
 10
195.4878070702823
 20
75.43230441413093
 30
0.000000000000000
 10
195.6497912311825
 20
75.56858662828060
 30
0.000000000000000
 10
195.7485871926904
 20
75.66203852397339
 30
0.000000000000000
 10
195.7982663154851
 20
75.71224903700639
 30
0.000000000000000
  0
SPLINE
  5
F5
100
AcDbEntity
  8
A1
  6
CONTINUOUS
 62
7
100
AcDbSpline
210
0.000000000000000
220
0.000000000000000
230
1.000000000000000
 70
     8
 71
     3
 72
    10
 73
     6
 74
     0
 42
1.000000000000000e-07
 43
1.000000000000000e-07
 12
0.9023735003561342
 22
-0.4309548304113378
 32
0.000000000000000
 13
0.6956245186709111
 23
-0.7184055463478671
 33
0.000000000000000
 40
0.000000000000000
 40
0.000000000000000
 40
0.000000000000000
 40
0.000000000000000
 40
0.2174963075791749
 40
0.4511586077435847
 40
0.8394597061060243
 40
0.8394597061060243
 40
0.8394597061060243
 40
0.8394597061060243
 10
195.1286404972915
 20
78.71224903700832
 30
0.000000000000000
 10
195.1940614654198
 20
78.68100534222569
 30
0.000000000000000
 10
195.3265714809242
 20
78.60887803363264
 30
0.000000000000000
 10
195.5528932084875
 20
78.44360349777529
 30
0.000000000000000
 10
195.7082290606032
 20
78.30523492457885
 30
0.000000000000000
 10
195.7982663154858
 20
78.21224903700667
 30
0.000000000000000
  0
SPLINE
  5
F6
100
AcDbEntity
  8
A1
  6
CONTINUOUS
 62
7
100
AcDbSpline
210
0.000000000000000
220
0.000000000000000
230
1.000000000000000
 70
     8
 71
     3
 72
    10
 73
     6
 74
     0
 42
1.000000000000000e-07
 43
1.000000000000000e-07
 12
0.9023016305554847
 22
-0.4311052858611220
 32
0.000000000000000
 13
0.6956000833977214
 23
-0.7184292059605468
 33
0.000000000000000
 40
0.000000000000000
 40
0.000000000000000
 40
0.000000000000000
 40
0.000000000000000
 40
0.2174637900326777
 40
0.4511525689365019
 40
0.8394570599561373
 40
0.8394570599561373
 40
0.8394570599561373
 40
0.8394570599561373
 10
201.9536404972922
 20
78.71224903700627
 30
0.000000000000000
 10
202.0190464747366
 20
78.68099910721745
 30
0.000000000000000
 10
202.1515457433086
 20
78.60886002717720
 30
0.000000000000000
 10
202.3778894927023
 20
78.44361842696546
 30
0.000000000000000
 10
202.5332314367170
 20
78.30523879936104
 30
0.000000000000000
 10
202.6232663154960
 20
78.21224903697632
 30
0.000000000000000
  0
SPLINE
  5
F7
100
AcDbEntity
  8
A1
  6
CONTINUOUS
 62
7
100
AcDbSpline
210
0.000000000000000
220
0.000000000000000
230
1.000000000000000
 70
     8
 71
     3
 72
    11
 73
     7
 74
     0
 42
1.000000000000000e-07
 43
1.000000000000000e-07
 12
0.7011079569060712
 22
-0.7130551400582590
 32
0.000000000000000
 13
0.9045880611511166
 23
-0.4262868044218067
 33
0.000000000000000
 40
0.000000000000000
 40
0.000000000000000
 40
0.000000000000000
 40
0.000000000000000
 40
0.2668303962446633
 40
0.5078563955565069
 40
0.6804573420106339
 40
0.8396575145624169
 40
0.8396575145624169
 40
0.8396575145624169
 40
0.8396575145624169
 10
200.3482663154855
 20
75.71224903700713
 30
0.000000000000000
 10
200.4106252868026
 20
75.64882744181844
 30
0.000000000000000
 10
200.5347896027145
 20
75.53344224348993
 30
0.000000000000000
 10
200.7122251113672
 20
75.39172954821973
 30
0.000000000000000
 10
200.8717927800244
 20
75.28637663288501
 30
0.000000000000000
 10
200.9698864578680
 20
75.23487070698175
 30
0.000000000000000
 10
201.0178899830092
 20
75.21224906270825
 30
0.000000000000000
  0
SPLINE
  5
F8
100
AcDbEntity
  8
A1
  6
CONTINUOUS
 62
7
100
AcDbSpline
210
0.000000000000000
220
0.000000000000000
230
1.000000000000000
 70
     8
 71
     3
 72
    11
 73
     7
 74
     0
 42
1.000000000000000e-07
 43
1.000000000000000e-07
 12
-0.7017922576169440
 22
-0.7123816583469988
 32
0.000000000000000
 13
-0.9044164517690660
 23
-0.4266507726106283
 33
0.000000000000000
 40
0.000000000000000
 40
0.000000000000000
 40
0.000000000000000
 40
0.000000000000000
 40
0.2533907270208975
 40
0.4891386276431043
 40
0.6702557673717594
 40
0.8396717619167556
 40
0.8396717619167556
 40
0.8396717619167556
 40
0.8396717619167556
 10
202.6232663154927
 20
75.71224903703049
 30
0.000000000000000
 10
202.5639904320343
 20
75.65207873492218
 30
0.000000000000000
 10
202.4446506455643
 20
75.54072063268208
 30
0.000000000000000
 10
202.2707728649371
 20
75.40005519171612
 30
0.000000000000000
 10
202.1082261378251
 20
75.29103685425318
 30
0.000000000000000
 10
202.0047163137615
 20
75.23634300247684
 30
0.000000000000000
 10
201.9536421095417
 20
75.21224918082177
 30
0.000000000000000
  0
SPLINE
  5
F9
100
AcDbEntity
  8
A1
  6
CONTINUOUS
 62
7
100
AcDbSpline
210
0.000000000000000
220
0.000000000000000
230
1.000000000000000
 70
     8
 71
     3
 72
    11
 73
     7
 74
     0
 42
1.000000000000000e-07
 43
1.000000000000000e-07
 12
-0.9025984889440224
 22
-0.4304834117090195
 32
0.000000000000000
 13
-0.7033355859998665
 23
-0.7108579699684014
 33
0.000000000000000
 40
0.000000000000000
 40
0.000000000000000
 40
0.000000000000000
 40
0.000000000000000
 40
0.2048302466906688
 40
0.4319754992658829
 40
0.6277212862491580
 40
0.8396245039979877
 40
0.8396245039979877
 40
0.8396245039979877
 40
0.8396245039979877
 10
201.0178921336797
 20
78.71224903700696
 30
0.000000000000000
 10
200.9562656432954
 20
78.68285702920141
 30
0.000000000000000
 10
200.8293094271074
 20
78.61412558121796
 30
0.000000000000000
 10
200.6587280418684
 20
78.49219554369390
 30
0.000000000000000
 10
200.4967428926711
 20
78.35591269169825
 30
0.000000000000000
 10
200.3979460067623
 20
78.26246006740470
 30
0.000000000000000
 10
200.3482663154855
 20
78.21224903700514
 30
0.000000000000000
  0
SPLINE
  5
FA
100
AcDbEntity
  8
A1
  6
CONTINUOUS
 62
7
100
AcDbSpline
210
0.000000000000000
220
0.000000000000000
230
1.000000000000000
 70
     8
 71
     3
 72
    10
 73
     6
 74
     0
 42
1.000000000000000e-07
 43
1.000000000000000e-07
 12
0.9734522230735365
 22
-0.2288902999100628
 32
0.000000000000000
 13
0.8912822711139370
 23
-0.4534489091374212
 33
0.000000000000000
 40
0.000000000000000
 40
0.000000000000000
 40
0.000000000000000
 40
0.000000000000000
 40
0.3953804189174615
 40
0.7992463480719729
 40
1.432501735465575
 40
1.432501735465575
 40
1.432501735465575
 40
1.432501735465575
 10
199.0090146790972
 20
78.71224903700775
 30
0.000000000000000
 10
199.1373093283488
 20
78.68208278945289
 30
0.000000000000000
 10
199.3946410077866
 20
78.61181074343548
 30
0.000000000000000
 10
199.8439986651619
 20
78.44942147441523
 30
0.000000000000000
 10
200.1601298821950
 20
78.30796535854481
 30
0.000000000000000
 10
200.3482663154855
 20
78.21224903700514
 30
0.000000000000000
  0
SPLINE
  5
FB
100
AcDbEntity
  8
A1
  6
CONTINUOUS
 62
7
100
AcDbSpline
210
0.000000000000000
220
0.000000000000000
230
1.000000000000000
 70
     8
 71
     3
 72
    11
 73
     7
 74
     0
 42
1.000000000000000e-07
 43
1.000000000000000e-07
 12
-0.9734604970515193
 22
-0.2288551084870960
 32
0.000000000000000
 13
-0.8932794778941116
 23
-0.4495016956285554
 33
0.000000000000000
 40
0.000000000000000
 40
0.000000000000000
 40
0.000000000000000
 40
0.000000000000000
 40
0.3728529866877569
 40
0.7667582382072251
 40
1.092254104174117
 40
1.432652083084732
 40
1.432652083084732
 40
1.432652083084732
 40
1.432652083084732
 10
197.1375179518738
 20
78.71224903700798
 30
0.000000000000000
 10
197.0165320672911
 20
78.68380593343525
 30
0.000000000000000
 10
196.7696142902691
 20
78.61679245557954
 30
0.000000000000000
 10
196.4261721937970
 20
78.49501172442447
 30
0.000000000000000
 10
196.1003334011454
 20
78.35826096883974
 30
0.000000000000000
 10
195.8996231584449
 20
78.26325219324295
 30
0.000000000000000
 10
195.7982663154858
 20
78.21224903700667
 30
0.000000000000000
  0
SPLINE
  5
FC
100
AcDbEntity
  8
A1
  6
CONTINUOUS
 62
7
100
AcDbSpline
210
0.000000000000000
220
0.000000000000000
230
1.000000000000000
 70
     8
 71
     3
 72
    11
 73
     7
 74
     0
 42
1.000000000000000e-07
 43
1.000000000000000e-07
 12
0.8926998519705194
 22
-0.4506517217224655
 32
0.000000000000000
 13
0.9738156080554745
 23
-0.2273393091995786
 33
0.000000000000000
 40
0.000000000000000
 40
0.000000000000000
 40
0.000000000000000
 40
0.000000000000000
 40
0.4305906006679908
 40
0.8373712442210506
 40
1.141383164082402
 40
1.432665019331059
 40
1.432665019331059
 40
1.432665019331059
 40
1.432665019331059
 10
195.7982663154851
 20
75.71224903700639
 30
0.000000000000000
 10
195.9263957039771
 20
75.64756690515688
 30
0.000000000000000
 10
196.1796204831539
 20
75.52968668459599
 30
0.000000000000000
 10
196.5334127458725
 20
75.38910863816560
 30
0.000000000000000
 10
196.8509308726360
 20
75.28482772043120
 30
0.000000000000000
 10
197.0429642741738
 20
75.23432232365289
 30
0.000000000000000
 10
197.1375158798353
 20
75.21224905173469
 30
0.000000000000000
  0
SPLINE
  5
FD
100
AcDbEntity
  8
A1
  6
CONTINUOUS
 62
7
100
AcDbSpline
210
0.000000000000000
220
0.000000000000000
230
1.000000000000000
 70
     8
 71
     3
 72
    11
 73
     7
 74
     0
 42
1.000000000000000e-07
 43
1.000000000000000e-07
 12
0.9734603859915296
 22
0.2288555808921728
 32
0.000000000000000
 13
0.8932794483457656
 23
0.4495017543488302
 33
0.000000000000000
 40
0.000000000000000
 40
0.000000000000000
 40
0.000000000000000
 40
0.000000000000000
 40
0.3728533368427029
 40
0.7667585635535510
 40
1.092254143484062
 40
1.432651601661951
 40
1.432651601661951
 40
1.432651601661951
 40
1.432651601661951
 10
199.0090151787720
 20
75.21224904054711
 30
0.000000000000000
 10
199.1300011631724
 20
75.24069222954401
 30
0.000000000000000
 10
199.3769190158956
 20
75.30770583622481
 30
0.000000000000000
 10
199.7203611099361
 20
75.42948660788559
 30
0.000000000000000
 10
200.0461996390920
 20
75.56623727556487
 30
0.000000000000000
 10
200.2469096309323
 20
75.66124595213151
 30
0.000000000000000
 10
200.3482663154855
 20
75.71224903700713
 30
0.000000000000000
  0
SPLINE
  5
FE
100
AcDbEntity
  8
A1
  6
CONTINUOUS
 62
7
100
AcDbSpline
210
0.000000000000000
220
0.000000000000000
230
1.000000000000000
 70
     8
 71
     3
 72
     9
 73
     5
 74
     0
 42
1.000000000000000e-07
 43
1.000000000000000e-07
 12
-0.9983028954452493
 22
-0.05823511779931323
 32
0.000000000000000
 13
-0.9995408928125471
 23
-0.03029857414776416
 33
0.000000000000000
 40
0.000000000000000
 40
0.000000000000000
 40
0.000000000000000
 40
0.000000000000000
 40
0.2623091648021796
 40
0.4682825565631311
 40
0.4682825565631311
 40
0.4682825565631311
 40
0.4682825565631311
 10
201.9536421095417
 20
75.21224918082177
 30
0.000000000000000
 10
201.8663541099670
 20
75.20715731245107
 30
0.000000000000000
 10
201.7104507292176
 20
75.19928755694062
 30
0.000000000000000
 10
201.5544562264389
 20
75.19359841819036
 30
0.000000000000000
 10
201.4858299504735
 20
75.19151818482945
 30
0.000000000000000
  0
SPLINE
  5
FF
100
AcDbEntity
  8
A1
  6
CONTINUOUS
 62
7
100
AcDbSpline
210
0.000000000000000
220
0.000000000000000
230
1.000000000000000
 70
     8
 71
     3
 72
     9
 73
     5
 74
     0
 42
1.000000000000000e-07
 43
1.000000000000000e-07
 12
-0.9992542601726200
 22
0.03861247889597053
 32
0.000000000000000
 13
-0.9985882594173745
 23
0.05311768211663548
 33
0.000000000000000
 40
0.000000000000000
 40
0.000000000000000
 40
0.000000000000000
 40
0.000000000000000
 40
0.2622912315818502
 40
0.4494093750689625
 40
0.4494093750689625
 40
0.4494093750689625
 40
0.4494093750689625
 10
201.4858299504735
 20
75.19151818482945
 30
0.000000000000000
 10
201.3984647402854
 20
75.19489408971080
 30
0.000000000000000
 10
201.2487969754378
 20
75.20131270061526
 30
0.000000000000000
 10
201.0991810742260
 20
75.20881768485836
 30
0.000000000000000
 10
201.0368964138226
 20
75.21213077887970
 30
0.000000000000000
  0
SPLINE
  5
100
100
AcDbEntity
  8
A1
  6
CONTINUOUS
 62
7
100
AcDbSpline
210
0.000000000000000
220
0.000000000000000
230
1.000000000000000
 70
     8
 71
     3
 72
     9
 73
     5
 74
     0
 42
1.000000000000000e-07
 43
1.000000000000000e-07
 12
-0.9997888028749458
 22
0.02055114706587347
 32
0.000000000000000
 13
-0.9997179727261027
 23
0.02374815799657881
 33
0.000000000000000
 40
0.000000000000000
 40
0.000000000000000
 40
0.000000000000000
 40
0.000000000000000
 40
0.5241277721040760
 40
0.9359446104021638
 40
0.9359446104021638
 40
0.9359446104021638
 40
0.9359446104021638
 10
198.0732305762392
 20
75.19151818408560
 30
0.000000000000000
 10
197.8985582169640
 20
75.19510865972754
 30
0.000000000000000
 10
197.5866482346655
 20
75.20179952332458
 30
0.000000000000000
 10
197.2747494447413
 20
75.20898908795417
 30
0.000000000000000
 10
197.1375158798353
 20
75.21224905173469
 30
0.000000000000000
  0
SPLINE
  5
101
100
AcDbEntity
  8
A1
  6
CONTINUOUS
 62
7
100
AcDbSpline
210
0.000000000000000
220
0.000000000000000
230
1.000000000000000
 70
     8
 71
     3
 72
    11
 73
     7
 74
     0
 42
1.000000000000000e-07
 43
1.000000000000000e-07
 12
-0.9980411489918879
 22
-0.06256088969689699
 32
0.000000000000000
 13
-0.9990551438231705
 23
0.04346055221958522
 33
0.000000000000000
 40
0.000000000000000
 40
0.000000000000000
 40
0.000000000000000
 40
0.000000000000000
 40
0.2623246130713609
 40
0.5244625797323991
 40
0.7305761043691684
 40
0.9366645702141515
 40
0.9366645702141515
 40
0.9366645702141515
 40
0.9366645702141515
 10
195.1286427028129
 20
75.21224906230267
 30
0.000000000000000
 10
195.0413724500667
 20
75.20677864190830
 30
0.000000000000000
 10
194.8667870063481
 20
75.19945531300007
 30
0.000000000000000
 10
194.6231811188684
 20
75.18688386040654
 30
0.000000000000000
 10
194.3987982076922
 20
75.20409450455085
 30
0.000000000000000
 10
194.2615217180239
 20
75.20926361073126
 30
0.000000000000000
 10
194.1928904707288
 20
75.21224918357515
 30
0.000000000000000
  0
SPLINE
  5
102
100
AcDbEntity
  8
A1
  6
CONTINUOUS
 62
7
100
AcDbSpline
210
0.000000000000000
220
0.000000000000000
230
1.000000000000000
 70
     8
 71
     3
 72
     9
 73
     5
 74
     0
 42
1.000000000000000e-07
 43
1.000000000000000e-07
 12
-0.9994892412962599
 22
-0.03195710458908252
 32
0.000000000000000
 13
-0.9999004922797212
 23
-0.01410693230457127
 33
0.000000000000000
 40
0.000000000000000
 40
0.000000000000000
 40
0.000000000000000
 40
0.000000000000000
 40
0.4818574807119566
 40
0.8936915676167414
 40
0.8936915676167414
 40
0.8936915676167414
 40
0.8936915676167414
 10
198.9666762065440
 20
75.21210234614674
 30
0.000000000000000
 10
198.8061390839408
 20
75.20696942284403
 30
0.000000000000000
 10
198.5083462473677
 20
75.19888267748880
 30
0.000000000000000
 10
198.2104949449837
 20
75.19345475594716
 30
0.000000000000000
 10
198.0732305762392
 20
75.19151818408560
 30
0.000000000000000
  0
ARC
  5
103
100
AcDbEntity
  8
A1
  6
CONTINUOUS
 62
7
100
AcDbCircle
 10
194.8232663154859
 20
74.21224903700605
 30
0.000000000000000
 40
0.5000000000000017
100
AcDbArc
 50
180.0000000003279
 51
270.0000000000000
  0
ARC
  5
104
100
AcDbEntity
  8
A1
  6
CONTINUOUS
 62
7
100
AcDbCircle
 10
201.3232663154850
 20
74.21224903700605
 30
0.000000000000000
 40
0.5000000000000017
100
AcDbArc
 50
270.0000000000000
 51
359.9999999996721
  0
ARC
  5
105
100
AcDbEntity
  8
A1
  6
CONTINUOUS
 62
7
100
AcDbCircle
 10
194.0232663154850
 20
74.91224903700603
 30
0.000000000000000
 40
0.2999999999999958
100
AcDbArc
 50
359.9999999999993
 51
450.0000000000194
  0
ARC
  5
106
100
AcDbEntity
  8
A1
  6
CONTINUOUS
 62
7
100
AcDbCircle
 10
202.1232663154859
 20
74.91224903700603
 30
0.000000000000000
 40
0.2999999999999958
100
AcDbArc
 50
90.00000000000000
 51
180.0000000000003
  0
LINE
  5
107
100
AcDbEntity
  8
A1
  6
CONTINUOUS
 62
7
100
AcDbLine
 10
193.5232663154781
 20
75.71224903701810
 30
0.000000000000000
 11
194.0232663154816
 21
75.21224903700599
 31
0.000000000000000
  0
LINE
  5
108
100
AcDbEntity
  8
A1
  6
CONTINUOUS
 62
7
100
AcDbLine
 10
202.1232663154893
 20
75.21224903700606
 30
0.000000000000000
 11
202.6232663154927
 21
75.71224903701800
 31
0.000000000000000
  0
LINE
  5
109
100
AcDbEntity
  8
A1
  6
CONTINUOUS
 62
7
100
AcDbLine
 10
202.6232663154856
 20
78.21224903700485
 30
0.000000000000000
 11
202.1232663154854
 21
78.71224903700983
 31
0.000000000000000
  0
LINE
  5
10A
100
AcDbEntity
  8
A1
  6
CONTINUOUS
 62
7
100
AcDbLine
 10
194.0232663154854
 20
78.71224903700988
 30
0.000000000000000
 11
193.5232663154753
 21
78.21224903699502
 31
0.000000000000000
  0
LINE
  5
10B
100
AcDbEntity
  8
A1
  6
CONTINUOUS
 62
7
100
AcDbLine
 10
194.3232663154855
 20
74.91224903700603
 30
0.000000000000000
 11
194.3232663154855
 21
74.21224903700320
 31
0.000000000000000
  0
LINE
  5
10C
100
AcDbEntity
  8
A1
  6
CONTINUOUS
 62
7
100
AcDbLine
 10
201.8232663154855
 20
74.21224903700320
 30
0.000000000000000
 11
201.8232663154855
 21
74.91224903700603
 31
0.000000000000000
  0
LINE
  5
10D
100
AcDbEntity
  8
A1
  6
CONTINUOUS
 62
7
100
AcDbLine
 10
193.5232663154754
 20
78.21224903697853
 30
0.000000000000000
 11
193.5232663154782
 21
75.71224903703121
 31
0.000000000000000
  0
LINE
  5
10E
100
AcDbEntity
  8
A1
  6
CONTINUOUS
 62
7
100
AcDbLine
 10
202.6232663154960
 20
78.21224903697630
 30
0.000000000000000
 11
202.6232663154926
 21
75.71224903703042
 31
0.000000000000000
  0
LINE
  5
10F
100
AcDbEntity
  8
A1
  6
CONTINUOUS
 62
7
100
AcDbLine
 10
195.7982663154858
 20
78.21224903700666
 30
0.000000000000000
 11
195.7982663154851
 21
75.71224903700636
 31
0.000000000000000
  0
LINE
  5
110
100
AcDbEntity
  8
A1
  6
CONTINUOUS
 62
7
100
AcDbLine
 10
200.3482663154856
 20
78.21224903700512
 30
0.000000000000000
 11
200.3482663154856
 21
75.71224903700711
 31
0.000000000000000
  0
LINE
  5
111
100
AcDbEntity
  8
A1
  6
CONTINUOUS
 62
7
100
AcDbLine
 10
194.1928910278852
 20
75.21224903700605
 30
0.000000000000000
 11
194.0232663154849
 21
75.21224903700605
 31
0.000000000000000
  0
LINE
  5
112
100
AcDbEntity
  8
A1
  6
CONTINUOUS
 62
7
100
AcDbLine
 10
202.1232618441295
 20
75.21224903700605
 30
0.000000000000000
 11
201.9536415661917
 21
75.21224903700605
 31
0.000000000000000
  0
LINE
  5
113
100
AcDbEntity
  8
A1
  6
CONTINUOUS
 62
7
100
AcDbLine
 10
201.0178896558122
 20
75.21224903700605
 30
0.000000000000000
 11
199.0090151642765
 21
75.21224903700605
 31
0.000000000000000
  0
LINE
  5
114
100
AcDbEntity
  8
A1
  6
CONTINUOUS
 62
7
100
AcDbLine
 10
199.0090151787722
 20
75.21224904054701
 30
0.000000000000000
 11
198.9666762065441
 21
75.21210234614665
 31
0.000000000000000
  0
LINE
  5
115
100
AcDbEntity
  8
A1
  6
CONTINUOUS
 62
7
100
AcDbLine
 10
197.1375159394254
 20
75.21224903700605
 30
0.000000000000000
 11
195.1286430382710
 21
75.21224903700605
 31
0.000000000000000
  0
LINE
  5
116
100
AcDbEntity
  8
A1
  6
CONTINUOUS
 62
7
100
AcDbLine
 10
201.0368964138225
 20
75.21213077887973
 30
0.000000000000000
 11
201.0178899830091
 21
75.21224906270830
 31
0.000000000000000
  0
LINE
  5
117
100
AcDbEntity
  8
A1
  6
CONTINUOUS
 62
7
100
AcDbLine
 10
194.0232663154854
 20
78.71224903700991
 30
0.000000000000000
 11
202.1232663154856
 21
78.71224903700991
 31
0.000000000000000
  0
LINE
  5
118
100
AcDbEntity
  8
A1
  6
CONTINUOUS
 62
7
100
AcDbLine
 10
194.8232810508615
 20
73.71224903700605
 30
0.000000000000000
 11
201.3232661781720
 21
73.71224903700605
 31
0.000000000000000
  0
LINE
  5
119
100
AcDbEntity
  8
A2
  6
CONTINUOUS
 62
4
100
AcDbLine
 10
200.1402663154855
 20
73.71224903700596
 30
0.000000000000000
 11
200.1402663154855
 21
70.87924903701008
 31
0.000000000000000
  0
LINE
  5
11A
100
AcDbEntity
  8
A2
  6
CONTINUOUS
 62
4
100
AcDbLine
 10
196.0062663154855
 20
73.71224903700607
 30
0.000000000000000
 11
196.0062663154855
 21
70.87924903700991
 31
0.000000000000000
  0
LINE
  5
11B
100
AcDbEntity
  8
A2
  6
CONTINUOUS
 62
4
100
AcDbLine
 10
199.6980739964857
 20
71.31224903701001
 30
0.000000000000000
 11
198.7279346201104
 21
73.71224903700607
 31
0.000000000000000
  0
LINE
  5
11C
100
AcDbEntity
  8
A2
  6
CONTINUOUS
 62
4
100
AcDbLine
 10
196.4484586344855
 20
71.31224903700991
 30
0.000000000000000
 11
197.4185980108608
 21
73.71224903700605
 31
0.000000000000000
  0
LINE
  5
11D
100
AcDbEntity
  8
A4
  6
CENTER
 62
1
100
AcDbLine
 10
198.0732663154855
 20
31.01224903700140
 30
0.000000000000000
 11
198.0732663154855
 21
96.01224903701001
 31
0.000000000000000
  0
ARC
  5
11E
100
AcDbEntity
  8
A1
  6
CONTINUOUS
 62
7
100
AcDbCircle
 10
179.0732663154856
 20
139.8487925179360
 30
0.000000000000000
 40
2.000000000000002
100
AcDbArc
 50
104.4775121859328
 51
180.0000000000000
  0
ARC
  5
11F
100
AcDbEntity
  8
A1
  6
CONTINUOUS
 62
7
100
AcDbCircle
 10
180.5732663154856
 20
141.5494464187881
 30
0.000000000000000
 40
1.999999999999993
100
AcDbArc
 50
179.9999999999935
 51
255.0916652768869
  0
LINE
  5
120
100
AcDbEntity
  8
A1
  6
CONTINUOUS
 62
7
100
AcDbLine
 10
180.0587195803307
 20
139.6167690899666
 30
0.000000000000000
 11
196.6582627938000
 21
135.1973863827541
 31
0.000000000000000
  0
LINE
  5
121
100
AcDbEntity
  8
A1
  6
CONTINUOUS
 62
7
100
AcDbLine
 10
178.5732663154856
 20
141.5494464187883
 30
0.000000000000000
 11
178.5732663154856
 21
147.0122490370111
 31
0.000000000000000
  0
ARC
  5
122
100
AcDbEntity
  8
A1
  6
CONTINUOUS
 62
7
100
AcDbCircle
 10
193.3232663154856
 20
144.5742682393291
 30
0.000000000000000
 40
0.7499999999999998
100
AcDbArc
 50
179.9999999999964
 51
319.4641978887043
  0
ARC
  5
123
100
AcDbEntity
  8
A1
  6
CONTINUOUS
 62
7
100
AcDbCircle
 10
230.5732663154858
 20
136.5122490370111
 30
0.000000000000000
 40
1.000000000000000
100
AcDbArc
 50
359.9999999999999
 51
450.0000000000000
  0
LINE
  5
124
100
AcDbEntity
  8
A1
  6
CONTINUOUS
 62
7
100
AcDbLine
 10
238.0732663154857
 20
134.5122490370111
 30
0.000000000000000
 11
238.0732663154857
 21
136.5122490370111
 31
0.000000000000000
  0
LINE
  5
125
100
AcDbEntity
  8
A1
  6
CONTINUOUS
 62
7
100
AcDbLine
 10
192.5732663154855
 20
134.5122490370100
 30
0.000000000000000
 11
192.5732663154855
 21
136.2849562371244
 31
0.000000000000000
  0
ARC
  5
126
100
AcDbEntity
  8
A1
  6
CONTINUOUS
 62
7
100
AcDbCircle
 10
191.1732663154856
 20
88.51224903700987
 30
0.000000000000000
 40
1.000000000000001
100
AcDbArc
 50
89.99999999999994
 51
180.0000000000000
  0
LINE
  5
127
100
AcDbEntity
  8
A1
  6
CONTINUOUS
 62
7
100
AcDbLine
 10
191.1732663154856
 20
89.51224903700987
 30
0.000000000000000
 11
203.0732663154855
 21
89.51224903700987
 31
0.000000000000000
  0
LINE
  5
128
100
AcDbEntity
  8
A1
  6
CONTINUOUS
 62
7
100
AcDbLine
 10
192.5732663154855
 20
90.51224903700987
 30
0.000000000000000
 11
192.5732663154855
 21
89.51224903700987
 31
0.000000000000000
  0
LINE
  5
129
100
AcDbEntity
  8
A1
  6
CONTINUOUS
 62
7
100
AcDbLine
 10
193.1732663154856
 20
90.51224903700987
 30
0.000000000000000
 11
193.1732663154856
 21
89.51224903700992
 31
0.000000000000000
  0
LINE
  5
12A
100
AcDbEntity
  8
A1
  6
CONTINUOUS
 62
7
100
AcDbLine
 10
202.9732663154856
 20
89.51224903700992
 30
0.000000000000000
 11
202.9732663154856
 21
90.51224903700987
 31
0.000000000000000
  0
LINE
  5
12B
100
AcDbEntity
  8
A1
  6
CONTINUOUS
 62
7
100
AcDbLine
 10
203.0732663154855
 20
88.51224903700989
 30
0.000000000000000
 11
203.0732663154855
 21
89.51224903700987
 31
0.000000000000000
  0
LINE
  5
12C
100
AcDbEntity
  8
A1
  6
CONTINUOUS
 62
7
100
AcDbLine
 10
192.6189102581674
 20
85.51224903700987
 30
0.000000000000000
 11
203.0732663154855
 21
85.51224903700987
 31
0.000000000000000
  0
LINE
  5
12D
100
AcDbEntity
  8
A1
  6
CONTINUOUS
 62
7
100
AcDbLine
 10
203.0732663154855
 20
85.51224903700987
 30
0.000000000000000
 11
203.0732663154855
 21
86.51224903700984
 31
0.000000000000000
  0
LINE
  5
12E
100
AcDbEntity
  8
A1
  6
CONTINUOUS
 62
7
100
AcDbLine
 10
193.1232663154855
 20
44.91224903700979
 30
0.000000000000000
 11
193.1232663154855
 21
44.11224903700978
 31
0.000000000000000
  0
LINE
  5
12F
100
AcDbEntity
  8
A1
  6
CONTINUOUS
 62
7
100
AcDbLine
 10
203.0232663154855
 20
44.11224903700978
 30
0.000000000000000
 11
203.0232663154855
 21
44.91224903700979
 31
0.000000000000000
  0
ARC
  5
130
100
AcDbEntity
  8
A1
  6
CONTINUOUS
 62
7
100
AcDbCircle
 10
193.4232663154855
 20
44.01224903700981
 30
0.000000000000000
 40
0.1000000000000014
100
AcDbArc
 50
65.66265999779999
 51
90.00000000000000
  0
ARC
  5
131
100
AcDbEntity
  8
A1
  6
CONTINUOUS
 62
7
100
AcDbCircle
 10
202.7232663154855
 20
44.01224903700981
 30
0.000000000000000
 40
0.1000000000000067
100
AcDbArc
 50
90.00000000000000
 51
114.3373400022000
  0
LINE
  5
132
100
AcDbEntity
  8
A1
  6
CONTINUOUS
 62
7
100
AcDbLine
 10
193.4644771392855
 20
44.10336252660977
 30
0.000000000000000
 11
194.1523689010855
 21
43.79222762990979
 31
0.000000000000000
  0
LINE
  5
133
100
AcDbEntity
  8
A1
  6
CONTINUOUS
 62
7
100
AcDbLine
 10
201.9941637297855
 20
43.79222762990970
 30
0.000000000000000
 11
202.6820554916855
 21
44.10336252660971
 31
0.000000000000000
  0
ARC
  5
134
100
AcDbEntity
  8
A1
  6
CONTINUOUS
 62
7
100
AcDbCircle
 10
194.5232663154855
 20
44.61224903700978
 30
0.000000000000000
 40
0.9000000000000057
100
AcDbArc
 50
245.6626599977000
 51
270.0000000000000
  0
ARC
  5
135
100
AcDbEntity
  8
A1
  6
CONTINUOUS
 62
7
100
AcDbCircle
 10
201.6232663154855
 20
44.61224903700978
 30
0.000000000000000
 40
0.8999999999999986
100
AcDbArc
 50
270.0000000000000
 51
294.3373400022999
  0
LINE
  5
136
100
AcDbEntity
  8
A1
  6
CONTINUOUS
 62
7
100
AcDbLine
 10
203.0232663154855
 20
42.51224903700981
 30
0.000000000000000
 11
203.0232663154855
 21
43.31224903700982
 31
0.000000000000000
  0
LINE
  5
137
100
AcDbEntity
  8
A1
  6
CONTINUOUS
 62
7
100
AcDbLine
 10
193.1232663154855
 20
43.31224903700982
 30
0.000000000000000
 11
193.1232663154855
 21
42.51224903700981
 31
0.000000000000000
  0
ARC
  5
138
100
AcDbEntity
  8
A1
  6
CONTINUOUS
 62
7
100
AcDbCircle
 10
202.7232663154855
 20
43.41224903700979
 30
0.000000000000000
 40
0.1000000000000014
100
AcDbArc
 50
245.6626599978000
 51
270.0000000000000
  0
ARC
  5
139
100
AcDbEntity
  8
A1
  6
CONTINUOUS
 62
7
100
AcDbCircle
 10
193.4232663154855
 20
43.41224903700979
 30
0.000000000000000
 40
0.1000000000000014
100
AcDbArc
 50
270.0000000000000
 51
294.3373400022000
  0
LINE
  5
13A
100
AcDbEntity
  8
A1
  6
CONTINUOUS
 62
7
100
AcDbLine
 10
202.6820554916855
 20
43.32113554730971
 30
0.000000000000000
 11
201.9941637297855
 21
43.63227044400973
 31
0.000000000000000
  0
LINE
  5
13B
100
AcDbEntity
  8
A1
  6
CONTINUOUS
 62
7
100
AcDbLine
 10
194.1523689010855
 20
43.63227044400978
 30
0.000000000000000
 11
193.4644771392855
 21
43.32113554730977
 31
0.000000000000000
  0
ARC
  5
13C
100
AcDbEntity
  8
A1
  6
CONTINUOUS
 62
7
100
AcDbCircle
 10
201.6232663154855
 20
42.81224903700982
 30
0.000000000000000
 40
0.9000000000000057
100
AcDbArc
 50
65.66265999770000
 51
90.00000000000000
  0
ARC
  5
13D
100
AcDbEntity
  8
A1
  6
CONTINUOUS
 62
7
100
AcDbCircle
 10
194.5232663154855
 20
42.81224903700982
 30
0.000000000000000
 40
0.9000000000000057
100
AcDbArc
 50
90.00000000000000
 51
114.3373400023000
  0
LINE
  5
13E
100
AcDbEntity
  8
A1
  6
CONTINUOUS
 62
7
100
AcDbLine
 10
203.0232663154855
 20
44.91224903700979
 30
0.000000000000000
 11
203.0232663154855
 21
45.71224903700980
 31
0.000000000000000
  0
LINE
  5
13F
100
AcDbEntity
  8
A1
  6
CONTINUOUS
 62
7
100
AcDbLine
 10
193.1232663154855
 20
45.71224903700980
 30
0.000000000000000
 11
193.1232663154855
 21
44.91224903700979
 31
0.000000000000000
  0
ARC
  5
140
100
AcDbEntity
  8
A1
  6
CONTINUOUS
 62
7
100
AcDbCircle
 10
202.7232663154855
 20
45.81224903700982
 30
0.000000000000000
 40
0.1000000000000014
100
AcDbArc
 50
245.6626599978000
 51
270.0000000000000
  0
ARC
  5
141
100
AcDbEntity
  8
A1
  6
CONTINUOUS
 62
7
100
AcDbCircle
 10
193.4232663154855
 20
45.81224903700982
 30
0.000000000000000
 40
0.1000000000000014
100
AcDbArc
 50
270.0000000000000
 51
294.3373400022000
  0
LINE
  5
142
100
AcDbEntity
  8
A1
  6
CONTINUOUS
 62
7
100
AcDbLine
 10
202.6820554916855
 20
45.72113554730970
 30
0.000000000000000
 11
201.9941637297856
 21
46.03227044400967
 31
0.000000000000000
  0
LINE
  5
143
100
AcDbEntity
  8
A1
  6
CONTINUOUS
 62
7
100
AcDbLine
 10
194.1523689010855
 20
46.03227044400974
 30
0.000000000000000
 11
193.4644771392855
 21
45.72113554730974
 31
0.000000000000000
  0
ARC
  5
144
100
AcDbEntity
  8
A1
  6
CONTINUOUS
 62
7
100
AcDbCircle
 10
201.6232663154855
 20
45.21224903700980
 30
0.000000000000000
 40
0.9000000000000057
100
AcDbArc
 50
65.66265999770000
 51
90.00000000000000
  0
ARC
  5
145
100
AcDbEntity
  8
A1
  6
CONTINUOUS
 62
7
100
AcDbCircle
 10
194.5232663154855
 20
45.21224903700980
 30
0.000000000000000
 40
0.9000000000000057
100
AcDbArc
 50
90.00000000000000
 51
114.3373400023000
  0
LINE
  5
146
100
AcDbEntity
  8
A1
  6
CONTINUOUS
 62
7
100
AcDbLine
 10
193.1232663154855
 20
47.31224903700982
 30
0.000000000000000
 11
193.1232663154855
 21
46.51224903700981
 31
0.000000000000000
  0
LINE
  5
147
100
AcDbEntity
  8
A1
  6
CONTINUOUS
 62
7
100
AcDbLine
 10
203.0232663154855
 20
46.51224903700981
 30
0.000000000000000
 11
203.0232663154855
 21
47.31224903700982
 31
0.000000000000000
  0
ARC
  5
148
100
AcDbEntity
  8
A1
  6
CONTINUOUS
 62
7
100
AcDbCircle
 10
193.4232663154855
 20
46.41224903700979
 30
0.000000000000000
 40
0.09999999999999430
100
AcDbArc
 50
65.66265999779999
 51
90.00000000000000
  0
ARC
  5
149
100
AcDbEntity
  8
A1
  6
CONTINUOUS
 62
7
100
AcDbCircle
 10
202.7232663154855
 20
46.41224903700979
 30
0.000000000000000
 40
0.1000000000000003
100
AcDbArc
 50
90.00000000000000
 51
114.3373400022000
  0
LINE
  5
14A
100
AcDbEntity
  8
A1
  6
CONTINUOUS
 62
7
100
AcDbLine
 10
193.4644771392855
 20
46.50336252660975
 30
0.000000000000000
 11
194.1523689010855
 21
46.19222762990974
 31
0.000000000000000
  0
LINE
  5
14B
100
AcDbEntity
  8
A1
  6
CONTINUOUS
 62
7
100
AcDbLine
 10
201.9941637297854
 20
46.19222762990972
 30
0.000000000000000
 11
202.6820554916855
 21
46.50336252660975
 31
0.000000000000000
  0
ARC
  5
14C
100
AcDbEntity
  8
A1
  6
CONTINUOUS
 62
7
100
AcDbCircle
 10
194.5232663154855
 20
47.01224903700981
 30
0.000000000000000
 40
0.9000000000000057
100
AcDbArc
 50
245.6626599977000
 51
270.0000000000000
  0
ARC
  5
14D
100
AcDbEntity
  8
A1
  6
CONTINUOUS
 62
7
100
AcDbCircle
 10
201.6232663154855
 20
47.01224903700981
 30
0.000000000000000
 40
0.9000000000000057
100
AcDbArc
 50
270.0000000000000
 51
294.3373400022999
  0
LINE
  5
14E
100
AcDbEntity
  8
A1
  6
CONTINUOUS
 62
7
100
AcDbLine
 10
193.1732663154855
 20
42.51224903700981
 30
0.000000000000000
 11
193.1732663154855
 21
41.51224903700981
 31
0.000000000000000
  0
LINE
  5
14F
100
AcDbEntity
  8
A1
  6
CONTINUOUS
 62
7
100
AcDbLine
 10
202.9732663154855
 20
41.51224903700981
 30
0.000000000000000
 11
202.9732663154855
 21
42.51224903700981
 31
0.000000000000000
  0
LINE
  5
150
100
AcDbEntity
  8
A1
  6
CONTINUOUS
 62
7
100
AcDbLine
 10
193.1732663154855
 20
48.31224903700982
 30
0.000000000000000
 11
193.1732663154855
 21
47.31224903700982
 31
0.000000000000000
  0
LINE
  5
151
100
AcDbEntity
  8
A1
  6
CONTINUOUS
 62
7
100
AcDbLine
 10
202.9732663154855
 20
47.31224903700982
 30
0.000000000000000
 11
202.9732663154855
 21
48.31224903700982
 31
0.000000000000000
  0
LINE
  5
152
100
AcDbEntity
  8
A1
  6
CONTINUOUS
 62
7
100
AcDbLine
 10
200.5732663154855
 20
53.31224903701366
 30
0.000000000000000
 11
200.5732663154855
 21
55.71224903700983
 31
0.000000000000000
  0
LINE
  5
153
100
AcDbEntity
  8
A1
  6
CONTINUOUS
 62
7
100
AcDbLine
 10
195.5732663154855
 20
55.71224903700983
 30
0.000000000000000
 11
195.5732663154855
 21
53.31224903701366
 31
0.000000000000000
  0
LINE
  5
154
100
AcDbEntity
  8
A1
  6
CONTINUOUS
 62
7
100
AcDbLine
 10
196.0732663154855
 20
56.21224903700985
 30
0.000000000000000
 11
195.5732663154855
 21
55.71224903700981
 31
0.000000000000000
  0
LINE
  5
155
100
AcDbEntity
  8
A1
  6
CONTINUOUS
 62
7
100
AcDbLine
 10
200.5732663154855
 20
55.71224903700978
 30
0.000000000000000
 11
200.0732663154854
 21
56.21224903700980
 31
0.000000000000000
  0
LINE
  5
156
100
AcDbEntity
  8
A1
  6
CONTINUOUS
 62
7
100
AcDbLine
 10
203.5732663154855
 20
38.51224903700987
 30
0.000000000000000
 11
203.5732663154855
 21
40.51224903700989
 31
0.000000000000000
  0
LINE
  5
157
100
AcDbEntity
  8
A1
  6
CONTINUOUS
 62
7
100
AcDbLine
 10
193.1232663154855
 20
47.01224903700987
 30
0.000000000000000
 11
192.5732663154855
 21
47.01224903700987
 31
0.000000000000000
  0
LINE
  5
158
100
AcDbEntity
  8
A1
  6
CONTINUOUS
 62
7
100
AcDbLine
 10
193.5232663154778
 20
50.01224903700987
 30
0.000000000000000
 11
192.5732663154855
 21
50.01224903700987
 31
0.000000000000000
  0
LINE
  5
159
100
AcDbEntity
  8
A1
  6
CONTINUOUS
 62
7
100
AcDbLine
 10
197.3989425039855
 20
44.91224903700979
 30
0.000000000000000
 11
203.0232663154855
 21
44.91224903700979
 31
0.000000000000000
  0
LINE
  5
15A
100
AcDbEntity
  8
A1
  6
CONTINUOUS
 62
7
100
AcDbLine
 10
193.1232663154855
 20
44.91224903700979
 30
0.000000000000000
 11
197.3989425039855
 21
44.91224903700979
 31
0.000000000000000
  0
LINE
  5
15B
100
AcDbEntity
  8
A1
  6
CONTINUOUS
 62
7
100
AcDbLine
 10
197.3989425039855
 20
44.11224903700978
 30
0.000000000000000
 11
193.1232663154855
 21
44.11224903700978
 31
0.000000000000000
  0
LINE
  5
15C
100
AcDbEntity
  8
A1
  6
CONTINUOUS
 62
7
100
AcDbLine
 10
203.0232663154855
 20
44.11224903700978
 30
0.000000000000000
 11
197.3989425039855
 21
44.11224903700978
 31
0.000000000000000
  0
SPLINE
  5
15D
100
AcDbEntity
  8
A1
  6
CONTINUOUS
 62
7
100
AcDbSpline
210
0.000000000000000
220
0.000000000000000
230
1.000000000000000
 70
     8
 71
     3
 72
    15
 73
    11
 74
     0
 42
1.000000000000000e-07
 43
1.000000000000000e-07
 12
-0.08448607604987046
 22
0.000000000000000
 32
0.000000000000000
 13
-6.052014924102878
 23
0.000000000000000
 33
0.000000000000000
 40
0.000000000000000
 40
0.000000000000000
 40
0.000000000000000
 40
0.000000000000000
 40
0.08006105741610750
 40
0.1950534252390940
 40
0.3100457930620805
 40
0.4250381608850669
 40
0.5400305287080536
 40
0.6550228965310403
 40
0.7700152643540269
 40
0.8850076321770135
 40
1.000000000000000
 40
1.000000000000000
 40
1.000000000000000
 10
201.6088103523588
 20
43.71224903698496
 30
0.000000000000000
 10
201.6065556708303
 20
43.71224903698496
 30
0.000000000000000
 10
201.4467351742467
 20
43.71224903698496
 30
0.000000000000000
 10
201.1579899831613
 20
43.71224903698496
 30
0.000000000000000
 10
200.7456776633589
 20
43.71224903698496
 30
0.000000000000000
 10
200.2320357878531
 20
43.71224903698496
 30
0.000000000000000
 10
199.6349776855111
 20
43.71224903698496
 30
0.000000000000000
 10
198.9783578840002
 20
43.71224903698496
 30
0.000000000000000
 10
198.2855958758970
 20
43.71224903698496
 30
0.000000000000000
 10
197.8216388584152
 20
43.71224903698496
 30
0.000000000000000
 10
197.5896603496744
 20
43.71224903698496
 30
0.000000000000000
  0
SPLINE
  5
15E
100
AcDbEntity
  8
A1
  6
CONTINUOUS
 62
7
100
AcDbSpline
210
0.000000000000000
220
0.000000000000000
230
1.000000000000000
 70
     8
 71
     3
 72
    15
 73
    11
 74
     0
 42
1.000000000000000e-07
 43
1.000000000000000e-07
 12
-5.004145999602770
 22
0.000000000000000
 32
0.000000000000000
 13
0.2978713074480765
 23
0.000000000000000
 33
0.000000000000000
 40
0.000000000000000
 40
0.000000000000000
 40
0.000000000000000
 40
0.000000000000000
 40
0.1369155800548466
 40
0.2738311601096932
 40
0.4107467401645399
 40
0.5476623202193860
 40
0.6845779002742329
 40
0.8214934803290794
 40
0.9584090603839259
 40
1.000000000000000
 40
1.000000000000000
 40
1.000000000000000
 40
1.000000000000000
 10
197.5896603496744
 20
43.71224903698496
 30
0.000000000000000
 10
197.3612784989361
 20
43.71224903698496
 30
0.000000000000000
 10
196.9045147974597
 20
43.71224903698496
 30
0.000000000000000
 10
196.2693111556498
 20
43.71224903698496
 30
0.000000000000000
 10
195.7019074249706
 20
43.71224903698496
 30
0.000000000000000
 10
195.2267065375317
 20
43.71224903698496
 30
0.000000000000000
 10
194.8581310161708
 20
43.71224903698496
 30
0.000000000000000
 10
194.6231038096145
 20
43.71224903698496
 30
0.000000000000000
 10
194.5158687058969
 20
43.71224903698496
 30
0.000000000000000
 10
194.5335926960314
 20
43.71224903698496
 30
0.000000000000000
 10
194.5377222785519
 20
43.71224903698496
 30
0.000000000000000
  0
LINE
  5
15F
100
AcDbEntity
  8
A1
  6
CONTINUOUS
 62
7
100
AcDbLine
 10
193.7924748659855
 20
42.51224903700981
 30
0.000000000000000
 11
203.0232663154855
 21
42.51224903700981
 31
0.000000000000000
  0
LINE
  5
160
100
AcDbEntity
  8
A1
  6
CONTINUOUS
 62
7
100
AcDbLine
 10
193.1232663154855
 20
42.51224903700981
 30
0.000000000000000
 11
193.7924748659855
 21
42.51224903700981
 31
0.000000000000000
  0
LINE
  5
161
100
AcDbEntity
  8
A1
  6
CONTINUOUS
 62
7
100
AcDbLine
 10
203.0232663154855
 20
42.51224903700981
 30
0.000000000000000
 11
193.1232663154855
 21
42.51224903700981
 31
0.000000000000000
  0
LINE
  5
162
100
AcDbEntity
  8
A1
  6
CONTINUOUS
 62
7
100
AcDbLine
 10
193.1232663154855
 20
43.31224903700982
 30
0.000000000000000
 11
203.0232663154855
 21
43.31224903700982
 31
0.000000000000000
  0
SPLINE
  5
163
100
AcDbEntity
  8
A1
  6
CONTINUOUS
 62
7
100
AcDbSpline
210
0.000000000000000
220
0.000000000000000
230
1.000000000000000
 70
     8
 71
     3
 72
    23
 73
    19
 74
     0
 42
1.000000000000000e-07
 43
1.000000000000000e-07
 12
0.6341796790529770
 22
0.000000000000000
 32
0.000000000000000
 13
0.6341796790493390
 23
2.728484105318785e-12
 33
0.000000000000000
 40
0.000000000000000
 40
0.000000000000000
 40
0.000000000000000
 40
0.000000000000000
 40
0.06250000000000010
 40
0.1250000000000000
 40
0.1875000000000000
 40
0.2499999999999998
 40
0.3125000000000000
 40
0.3749999999999999
 40
0.4374999999999998
 40
0.4999999999999998
 40
0.5625000000000000
 40
0.6249999999999999
 40
0.6874999999999999
 40
0.7500000000000000
 40
0.8124999999999999
 40
0.8750000000000000
 40
0.9374999999999999
 40
1.000000000000000
 40
1.000000000000000
 40
1.000000000000000
 40
1.000000000000000
 10
194.5232663154553
 20
43.71224903698501
 30
0.000000000000000
 10
194.5364783921023
 20
43.71224903698501
 30
0.000000000000000
 10
194.5629025453960
 20
43.71224903698501
 30
0.000000000000000
 10
194.7739949231029
 20
43.71224903698501
 30
0.000000000000000
 10
195.1020816124325
 20
43.71224903698501
 30
0.000000000000000
 10
195.5469737778528
 20
43.71224903698501
 30
0.000000000000000
 10
196.0882467296126
 20
43.71224903698496
 30
0.000000000000000
 10
196.7059912331087
 20
43.71224903698501
 30
0.000000000000000
 10
197.3762291213056
 20
43.71224903698496
 30
0.000000000000000
 10
198.0732663154550
 20
43.71224903698501
 30
0.000000000000000
 10
198.7703035096043
 20
43.71224903698501
 30
0.000000000000000
 10
199.4405413978013
 20
43.71224903698496
 30
0.000000000000000
 10
200.0582859012974
 20
43.71224903698501
 30
0.000000000000000
 10
200.5995588530574
 20
43.71224903698501
 30
0.000000000000000
 10
201.0444510184777
 20
43.71224903698496
 30
0.000000000000000
 10
201.3725377078075
 20
43.71224903698501
 30
0.000000000000000
 10
201.5836300855145
 20
43.71224903698501
 30
0.000000000000000
 10
201.6100542388084
 20
43.71224903698496
 30
0.000000000000000
 10
201.6232663154553
 20
43.71224903698501
 30
0.000000000000000
  0
LINE
  5
164
100
AcDbEntity
  8
A1
  6
CONTINUOUS
 62
7
100
AcDbLine
 10
203.0232663154855
 20
44.91224903700979
 30
0.000000000000000
 11
193.1232663154855
 21
44.91224903700979
 31
0.000000000000000
  0
LINE
  5
165
100
AcDbEntity
  8
A1
  6
CONTINUOUS
 62
7
100
AcDbLine
 10
193.1232663154855
 20
45.71224903700980
 30
0.000000000000000
 11
203.0232663154855
 21
45.71224903700980
 31
0.000000000000000
  0
SPLINE
  5
166
100
AcDbEntity
  8
A1
  6
CONTINUOUS
 62
7
100
AcDbSpline
210
0.000000000000000
220
0.000000000000000
230
1.000000000000000
 70
     8
 71
     3
 72
    23
 73
    19
 74
     0
 42
1.000000000000000e-07
 43
1.000000000000000e-07
 12
0.6341796790475200
 22
0.000000000000000
 32
0.000000000000000
 13
0.6341796790493390
 23
0.000000000000000
 33
0.000000000000000
 40
0.000000000000000
 40
0.000000000000000
 40
0.000000000000000
 40
0.000000000000000
 40
0.06250000000000010
 40
0.1250000000000000
 40
0.1875000000000000
 40
0.2499999999999998
 40
0.3125000000000000
 40
0.3749999999999999
 40
0.4374999999999998
 40
0.4999999999999998
 40
0.5625000000000000
 40
0.6249999999999999
 40
0.6874999999999999
 40
0.7500000000000000
 40
0.8124999999999999
 40
0.8750000000000000
 40
0.9374999999999999
 40
1.000000000000000
 40
1.000000000000000
 40
1.000000000000000
 40
1.000000000000000
 10
194.5232663154553
 20
46.11224903698499
 30
0.000000000000000
 10
194.5364783921022
 20
46.11224903698499
 30
0.000000000000000
 10
194.5629025453960
 20
46.11224903698499
 30
0.000000000000000
 10
194.7739949231029
 20
46.11224903698499
 30
0.000000000000000
 10
195.1020816124325
 20
46.11224903698499
 30
0.000000000000000
 10
195.5469737778528
 20
46.11224903698499
 30
0.000000000000000
 10
196.0882467296126
 20
46.11224903698499
 30
0.000000000000000
 10
196.7059912331087
 20
46.11224903698499
 30
0.000000000000000
 10
197.3762291213056
 20
46.11224903698499
 30
0.000000000000000
 10
198.0732663154550
 20
46.11224903698499
 30
0.000000000000000
 10
198.7703035096043
 20
46.11224903698499
 30
0.000000000000000
 10
199.4405413978013
 20
46.11224903698499
 30
0.000000000000000
 10
200.0582859012974
 20
46.11224903698499
 30
0.000000000000000
 10
200.5995588530574
 20
46.11224903698499
 30
0.000000000000000
 10
201.0444510184777
 20
46.11224903698499
 30
0.000000000000000
 10
201.3725377078075
 20
46.11224903698499
 30
0.000000000000000
 10
201.5836300855145
 20
46.11224903698499
 30
0.000000000000000
 10
201.6100542388084
 20
46.11224903698499
 30
0.000000000000000
 10
201.6232663154553
 20
46.11224903698499
 30
0.000000000000000
  0
LINE
  5
167
100
AcDbEntity
  8
A1
  6
CONTINUOUS
 62
7
100
AcDbLine
 10
193.1232663154855
 20
47.31224903700982
 30
0.000000000000000
 11
203.0232663154855
 21
47.31224903700982
 31
0.000000000000000
  0
LINE
  5
168
100
AcDbEntity
  8
A1
  6
CONTINUOUS
 62
7
100
AcDbLine
 10
203.0232663154855
 20
46.51224903700981
 30
0.000000000000000
 11
193.1232663154855
 21
46.51224903700981
 31
0.000000000000000
  0
SPLINE
  5
169
100
AcDbEntity
  8
A1
  6
CONTINUOUS
 62
7
100
AcDbSpline
210
0.000000000000000
220
0.000000000000000
230
1.000000000000000
 70
     8
 71
     3
 72
    22
 73
    18
 74
     0
 42
1.000000000000000e-07
 43
1.000000000000000e-07
 12
-3.972675098575564
 22
0.000000000000000
 32
0.000000000000000
 13
0.7415885214795708
 23
0.000000000000000
 33
0.000000000000000
 40
0.000000000000000
 40
0.000000000000000
 40
0.000000000000000
 40
0.000000000000000
 40
0.07048637281951010
 40
0.1409727456390195
 40
0.2114591184585293
 40
0.2819454912780393
 40
0.3524318640975493
 40
0.4229182369170587
 40
0.4934046097365688
 40
0.5638909825560785
 40
0.6343773553755883
 40
0.7048637281950981
 40
0.7753501010146078
 40
0.8458364738341175
 40
0.9163228466536274
 40
0.9868092194731373
 40
1.000000000000000
 40
1.000000000000000
 40
1.000000000000000
 40
1.000000000000000
 10
201.4008065999659
 20
46.11224903698499
 30
0.000000000000000
 10
201.3074667806029
 20
46.11224903698499
 30
0.000000000000000
 10
201.1207871418770
 20
46.11224903698499
 30
0.000000000000000
 10
200.6893890228953
 20
46.11224903698499
 30
0.000000000000000
 10
200.1666358467887
 20
46.11224903698499
 30
0.000000000000000
 10
199.5609755126367
 20
46.11224903698499
 30
0.000000000000000
 10
198.8988028406964
 20
46.11224903698499
 30
0.000000000000000
 10
198.2047274346187
 20
46.11224903698499
 30
0.000000000000000
 10
197.5056518728680
 20
46.11224903698499
 30
0.000000000000000
 10
196.8283599586143
 20
46.11224903698499
 30
0.000000000000000
 10
196.1989751049289
 20
46.11224903698499
 30
0.000000000000000
 10
195.6413836388535
 20
46.11224903698499
 30
0.000000000000000
 10
195.1781203427817
 20
46.11224903698499
 30
0.000000000000000
 10
194.8228613250895
 20
46.11224903698499
 30
0.000000000000000
 10
194.6046594967064
 20
46.11224903698499
 30
0.000000000000000
 10
194.5097125297294
 20
46.11224903698499
 30
0.000000000000000
 10
194.5303972018730
 20
46.11224903698499
 30
0.000000000000000
 10
194.5336579123490
 20
46.11224903698499
 30
0.000000000000000
  0
LINE
  5
16A
100
AcDbEntity
  8
A1
  6
CONTINUOUS
 62
7
100
AcDbLine
 10
193.1732663154855
 20
48.31224903700982
 30
0.000000000000000
 11
202.9732663154855
 21
48.31224903700982
 31
0.000000000000000
  0
SPLINE
  5
16B
100
AcDbEntity
  8
A1
  6
CONTINUOUS
 62
7
100
AcDbSpline
210
0.000000000000000
220
0.000000000000000
230
1.000000000000000
 70
     8
 71
     3
 72
     9
 73
     5
 74
     0
 42
1.000000000000000e-07
 43
1.000000000000000e-07
 12
-0.9499426331526593
 22
0.6006344118711695
 32
0.000000000000000
 13
-1.050420392866044
 23
0.3998705782846059
 33
0.000000000000000
 40
0.000000000000000
 40
0.000000000000000
 40
0.000000000000000
 40
0.000000000000000
 40
0.4962269836136480
 40
1.000000000000000
 40
1.000000000000000
 40
1.000000000000000
 40
1.000000000000000
 10
199.6980739963824
 20
55.71224903698504
 30
0.000000000000000
 10
199.5409449405640
 20
55.81159937113750
 30
0.000000000000000
 10
199.2242973961798
 20
56.01181084176119
 30
0.000000000000000
 10
198.8741572652244
 20
56.14510103452284
 30
0.000000000000000
 10
198.6977661152951
 20
56.21224903698504
 30
0.000000000000000
  0
LINE
  5
16C
100
AcDbEntity
  8
A1
  6
CONTINUOUS
 62
7
100
AcDbLine
 10
199.6980739963855
 20
55.71224903700983
 30
0.000000000000000
 11
199.6980739963855
 21
53.31224903701366
 31
0.000000000000000
  0
LINE
  5
16D
100
AcDbEntity
  8
A1
  6
CONTINUOUS
 62
7
100
AcDbLine
 10
196.4484586344855
 20
55.71224903700983
 30
0.000000000000000
 11
196.4484586344855
 21
53.31224903701366
 31
0.000000000000000
  0
SPLINE
  5
16E
100
AcDbEntity
  8
A1
  6
CONTINUOUS
 62
7
100
AcDbSpline
210
0.000000000000000
220
0.000000000000000
230
1.000000000000000
 70
     8
 71
     3
 72
     9
 73
     5
 74
     0
 42
1.000000000000000e-07
 43
1.000000000000000e-07
 12
-1.050771086584746
 22
-0.3988584450893882
 32
0.000000000000000
 13
-0.9502081963762521
 23
-0.6004129635098820
 33
0.000000000000000
 40
0.000000000000000
 40
0.000000000000000
 40
0.000000000000000
 40
0.000000000000000
 40
0.4945777097449470
 40
1.000000000000000
 40
1.000000000000000
 40
1.000000000000000
 40
1.000000000000000
 10
197.4487665156154
 20
56.21224903698504
 30
0.000000000000000
 10
197.2755371964590
 20
56.14649353822347
 30
0.000000000000000
 10
196.9252801675974
 20
56.01354072319373
 30
0.000000000000000
 10
196.6085441021386
 20
55.81340306869038
 30
0.000000000000000
 10
196.4484586345281
 20
55.71224903698504
 30
0.000000000000000
  0
LINE
  5
16F
100
AcDbEntity
  8
A1
  6
CONTINUOUS
 62
7
100
AcDbLine
 10
197.4487665155855
 20
56.21224903700983
 30
0.000000000000000
 11
198.6977661152855
 21
56.21224903700983
 31
0.000000000000000
  0
LINE
  5
170
100
AcDbEntity
  8
A1
  6
CONTINUOUS
 62
7
100
AcDbLine
 10
200.5732663154855
 20
55.71224903700983
 30
0.000000000000000
 11
199.6980739963855
 21
55.71224903700983
 31
0.000000000000000
  0
LINE
  5
171
100
AcDbEntity
  8
A1
  6
CONTINUOUS
 62
7
100
AcDbLine
 10
196.4484586344855
 20
55.71224903700983
 30
0.000000000000000
 11
195.5732663154855
 21
55.71224903700983
 31
0.000000000000000
  0
LINE
  5
172
100
AcDbEntity
  8
A1
  6
CONTINUOUS
 62
7
100
AcDbLine
 10
196.0732663154855
 20
56.21224903700983
 30
0.000000000000000
 11
197.4487665155855
 21
56.21224903700983
 31
0.000000000000000
  0
LINE
  5
173
100
AcDbEntity
  8
A1
  6
CONTINUOUS
 62
7
100
AcDbLine
 10
198.6977661152855
 20
56.21224903700983
 30
0.000000000000000
 11
200.0732663154855
 21
56.21224903700983
 31
0.000000000000000
  0
LINE
  5
174
100
AcDbEntity
  8
A1
  6
CONTINUOUS
 62
7
100
AcDbLine
 10
194.1044529801855
 20
38.51224903700987
 30
0.000000000000000
 11
203.5732663154855
 21
38.51224903700987
 31
0.000000000000000
  0
LINE
  5
175
100
AcDbEntity
  8
A1
  6
CONTINUOUS
 62
7
100
AcDbLine
 10
192.5732663154855
 20
38.51224903700987
 30
0.000000000000000
 11
193.0732663154855
 21
38.51224903700987
 31
0.000000000000000
  0
LINE
  5
176
100
AcDbEntity
  8
A1
  6
CONTINUOUS
 62
7
100
AcDbLine
 10
193.3828505555855
 20
38.51224903700987
 30
0.000000000000000
 11
194.1044529801855
 21
38.51224903700987
 31
0.000000000000000
  0
LINE
  5
177
100
AcDbEntity
  8
A1
  6
CONTINUOUS
 62
7
100
AcDbLine
 10
193.0732663154855
 20
38.51224903700987
 30
0.000000000000000
 11
193.3828505555855
 21
38.51224903700987
 31
0.000000000000000
  0
LINE
  5
178
100
AcDbEntity
  8
A1
  6
CONTINUOUS
 62
7
100
AcDbLine
 10
193.1732663154855
 20
42.51224903700981
 30
0.000000000000000
 11
202.9732663154855
 21
42.51224903700981
 31
0.000000000000000
  0
LINE
  5
179
100
AcDbEntity
  8
A1
  6
CONTINUOUS
 62
7
100
AcDbLine
 10
192.5732663154855
 20
40.51224903700987
 30
0.000000000000000
 11
203.5732663154855
 21
40.51224903700987
 31
0.000000000000000
  0
SPLINE
  5
17A
100
AcDbEntity
  8
A1
  6
CONTINUOUS
 62
7
100
AcDbSpline
210
0.000000000000000
220
0.000000000000000
230
1.000000000000000
 70
     8
 71
     3
 72
    11
 73
     7
 74
     0
 42
1.000000000000000e-07
 43
1.000000000000000e-07
 12
-0.9025984889435676
 22
0.4304834117103837
 32
0.000000000000000
 13
-0.7033355859311996
 23
0.7108579700349082
 33
0.000000000000000
 40
0.000000000000000
 40
0.000000000000000
 40
0.000000000000000
 40
0.000000000000000
 40
0.2048302467431619
 40
0.4319754993347258
 40
0.6277212863069461
 40
0.8396245040251320
 40
0.8396245040251320
 40
0.8396245040251320
 40
0.8396245040251320
 10
194.1928921336795
 20
48.31224903701136
 30
0.000000000000000
 10
194.1312656432794
 20
48.34164104482451
 30
0.000000000000000
 10
194.0043094270720
 20
48.41037249282030
 30
0.000000000000000
 10
193.8337280418171
 20
48.53230253035539
 30
0.000000000000000
 10
193.6717428926315
 20
48.66858538235229
 30
0.000000000000000
 10
193.5729460067402
 20
48.76203800664419
 30
0.000000000000000
 10
193.5232663154754
 20
48.81224903704120
 30
0.000000000000000
  0
SPLINE
  5
17B
100
AcDbEntity
  8
A1
  6
CONTINUOUS
 62
7
100
AcDbSpline
210
0.000000000000000
220
0.000000000000000
230
1.000000000000000
 70
     8
 71
     3
 72
    10
 73
     6
 74
     0
 42
1.000000000000000e-07
 43
1.000000000000000e-07
 12
-0.9022995464383712
 22
-0.4311096478834315
 32
0.000000000000000
 13
-0.6956002207882648
 23
-0.7184290729361464
 33
0.000000000000000
 40
0.000000000000000
 40
0.000000000000000
 40
0.000000000000000
 40
0.000000000000000
 40
0.2174644656294127
 40
0.4511524707122400
 40
0.8394555321993029
 40
0.8394555321993029
 40
0.8394555321993029
 40
0.8394555321993029
 10
194.1928904707288
 20
51.81224889044458
 30
0.000000000000000
 10
194.1274844411609
 20
51.78099854737636
 30
0.000000000000000
 10
193.9949855066177
 20
51.70885897180702
 30
0.000000000000000
 10
193.7686421978174
 20
51.54361766872003
 30
0.000000000000000
 10
193.6133008805792
 20
51.40523843981597
 30
0.000000000000000
 10
193.5232663154781
 20
51.31224903698850
 30
0.000000000000000
  0
SPLINE
  5
17C
100
AcDbEntity
  8
A1
  6
CONTINUOUS
 62
7
100
AcDbSpline
210
0.000000000000000
220
0.000000000000000
230
1.000000000000000
 70
     8
 71
     3
 72
    11
 73
     7
 74
     0
 42
1.000000000000000e-07
 43
1.000000000000000e-07
 12
0.9025956392379157
 22
-0.4304893866615203
 32
0.000000000000000
 13
0.7033351811464854
 23
-0.7108583705370393
 33
0.000000000000000
 40
0.000000000000000
 40
0.000000000000000
 40
0.000000000000000
 40
0.000000000000000
 40
0.2048318338689563
 40
0.4319770838121431
 40
0.6277216644585483
 40
0.8396225793836789
 40
0.8396225793836789
 40
0.8396225793836789
 40
0.8396225793836789
 10
195.1286427028129
 20
51.81224901171706
 30
0.000000000000000
 10
195.1902694761553
 20
51.78285636820672
 30
0.000000000000000
 10
195.3172257567236
 20
51.71412397339364
 30
0.000000000000000
 10
195.4878070702823
 20
51.59219365988881
 30
0.000000000000000
 10
195.6497912311825
 20
51.45591144573913
 30
0.000000000000000
 10
195.7485871926904
 20
51.36245955004634
 30
0.000000000000000
 10
195.7982663154851
 20
51.31224903701334
 30
0.000000000000000
  0
SPLINE
  5
17D
100
AcDbEntity
  8
A1
  6
CONTINUOUS
 62
7
100
AcDbSpline
210
0.000000000000000
220
0.000000000000000
230
1.000000000000000
 70
     8
 71
     3
 72
    10
 73
     6
 74
     0
 42
1.000000000000000e-07
 43
1.000000000000000e-07
 12
0.9023735003561342
 22
0.4309548304113378
 32
0.000000000000000
 13
0.6956245186709111
 23
0.7184055463478671
 33
0.000000000000000
 40
0.000000000000000
 40
0.000000000000000
 40
0.000000000000000
 40
0.000000000000000
 40
0.2174963075791749
 40
0.4511586077435847
 40
0.8394597061060243
 40
0.8394597061060243
 40
0.8394597061060243
 40
0.8394597061060243
 10
195.1286404972915
 20
48.31224903701141
 30
0.000000000000000
 10
195.1940614654198
 20
48.34349273179404
 30
0.000000000000000
 10
195.3265714809242
 20
48.41562004038710
 30
0.000000000000000
 10
195.5528932084875
 20
48.58089457624445
 30
0.000000000000000
 10
195.7082290606032
 20
48.71926314944088
 30
0.000000000000000
 10
195.7982663154858
 20
48.81224903701306
 30
0.000000000000000
  0
SPLINE
  5
17E
100
AcDbEntity
  8
A1
  6
CONTINUOUS
 62
7
100
AcDbSpline
210
0.000000000000000
220
0.000000000000000
230
1.000000000000000
 70
     8
 71
     3
 72
    10
 73
     6
 74
     0
 42
1.000000000000000e-07
 43
1.000000000000000e-07
 12
0.9023016305554847
 22
0.4311052858611220
 32
0.000000000000000
 13
0.6956000833977214
 23
0.7184292059605468
 33
0.000000000000000
 40
0.000000000000000
 40
0.000000000000000
 40
0.000000000000000
 40
0.000000000000000
 40
0.2174637900326777
 40
0.4511525689365019
 40
0.8394570599561373
 40
0.8394570599561373
 40
0.8394570599561373
 40
0.8394570599561373
 10
201.9536404972922
 20
48.31224903701346
 30
0.000000000000000
 10
202.0190464747366
 20
48.34349896680229
 30
0.000000000000000
 10
202.1515457433086
 20
48.41563804684253
 30
0.000000000000000
 10
202.3778894927023
 20
48.58087964705427
 30
0.000000000000000
 10
202.5332314367170
 20
48.71925927465870
 30
0.000000000000000
 10
202.6232663154960
 20
48.81224903704342
 30
0.000000000000000
  0
SPLINE
  5
17F
100
AcDbEntity
  8
A1
  6
CONTINUOUS
 62
7
100
AcDbSpline
210
0.000000000000000
220
0.000000000000000
230
1.000000000000000
 70
     8
 71
     3
 72
    11
 73
     7
 74
     0
 42
1.000000000000000e-07
 43
1.000000000000000e-07
 12
0.7011079569060712
 22
0.7130551400582590
 32
0.000000000000000
 13
0.9045880611511166
 23
0.4262868044218067
 33
0.000000000000000
 40
0.000000000000000
 40
0.000000000000000
 40
0.000000000000000
 40
0.000000000000000
 40
0.2668303962446633
 40
0.5078563955565069
 40
0.6804573420106339
 40
0.8396575145624169
 40
0.8396575145624169
 40
0.8396575145624169
 40
0.8396575145624169
 10
200.3482663154855
 20
51.31224903701261
 30
0.000000000000000
 10
200.4106252868026
 20
51.37567063220129
 30
0.000000000000000
 10
200.5347896027145
 20
51.49105583052980
 30
0.000000000000000
 10
200.7122251113672
 20
51.63276852580000
 30
0.000000000000000
 10
200.8717927800244
 20
51.73812144113472
 30
0.000000000000000
 10
200.9698864578680
 20
51.78962736703798
 30
0.000000000000000
 10
201.0178899830092
 20
51.81224901131148
 30
0.000000000000000
  0
SPLINE
  5
180
100
AcDbEntity
  8
A1
  6
CONTINUOUS
 62
7
100
AcDbSpline
210
0.000000000000000
220
0.000000000000000
230
1.000000000000000
 70
     8
 71
     3
 72
    11
 73
     7
 74
     0
 42
1.000000000000000e-07
 43
1.000000000000000e-07
 12
-0.7017922576169440
 22
0.7123816583471125
 32
0.000000000000000
 13
-0.9044164517690660
 23
0.4266507726105147
 33
0.000000000000000
 40
0.000000000000000
 40
0.000000000000000
 40
0.000000000000000
 40
0.000000000000000
 40
0.2533907270208975
 40
0.4891386276431043
 40
0.6702557673717594
 40
0.8396717619167556
 40
0.8396717619167556
 40
0.8396717619167556
 40
0.8396717619167556
 10
202.6232663154927
 20
51.31224903698924
 30
0.000000000000000
 10
202.5639904320343
 20
51.37241933909755
 30
0.000000000000000
 10
202.4446506455643
 20
51.48377744133765
 30
0.000000000000000
 10
202.2707728649371
 20
51.62444288230361
 30
0.000000000000000
 10
202.1082261378251
 20
51.73346121976655
 30
0.000000000000000
 10
202.0047163137615
 20
51.78815507154289
 30
0.000000000000000
 10
201.9536421095417
 20
51.81224889319796
 30
0.000000000000000
  0
SPLINE
  5
181
100
AcDbEntity
  8
A1
  6
CONTINUOUS
 62
7
100
AcDbSpline
210
0.000000000000000
220
0.000000000000000
230
1.000000000000000
 70
     8
 71
     3
 72
    11
 73
     7
 74
     0
 42
1.000000000000000e-07
 43
1.000000000000000e-07
 12
-0.9025984889440224
 22
0.4304834117091332
 32
0.000000000000000
 13
-0.7033355859998665
 23
0.7108579699682878
 33
0.000000000000000
 40
0.000000000000000
 40
0.000000000000000
 40
0.000000000000000
 40
0.000000000000000
 40
0.2048302466906688
 40
0.4319754992658829
 40
0.6277212862491580
 40
0.8396245039979877
 40
0.8396245039979877
 40
0.8396245039979877
 40
0.8396245039979877
 10
201.0178921336797
 20
48.31224903701278
 30
0.000000000000000
 10
200.9562656432954
 20
48.34164104481832
 30
0.000000000000000
 10
200.8293094271074
 20
48.41037249280177
 30
0.000000000000000
 10
200.6587280418684
 20
48.53230253032584
 30
0.000000000000000
 10
200.4967428926711
 20
48.66858538232148
 30
0.000000000000000
 10
200.3979460067623
 20
48.76203800661503
 30
0.000000000000000
 10
200.3482663154855
 20
48.81224903701460
 30
0.000000000000000
  0
SPLINE
  5
182
100
AcDbEntity
  8
A1
  6
CONTINUOUS
 62
7
100
AcDbSpline
210
0.000000000000000
220
0.000000000000000
230
1.000000000000000
 70
     8
 71
     3
 72
    10
 73
     6
 74
     0
 42
1.000000000000000e-07
 43
1.000000000000000e-07
 12
0.9734522230735365
 22
0.2288902999100060
 32
0.000000000000000
 13
0.8912822711139370
 23
0.4534489091373928
 33
0.000000000000000
 40
0.000000000000000
 40
0.000000000000000
 40
0.000000000000000
 40
0.000000000000000
 40
0.3953804189174615
 40
0.7992463480719729
 40
1.432501735465575
 40
1.432501735465575
 40
1.432501735465575
 40
1.432501735465575
 10
199.0090146790972
 20
48.31224903701198
 30
0.000000000000000
 10
199.1373093283488
 20
48.34241528456684
 30
0.000000000000000
 10
199.3946410077866
 20
48.41268733058425
 30
0.000000000000000
 10
199.8439986651619
 20
48.57507659960450
 30
0.000000000000000
 10
200.1601298821950
 20
48.71653271547493
 30
0.000000000000000
 10
200.3482663154855
 20
48.81224903701460
 30
0.000000000000000
  0
SPLINE
  5
183
100
AcDbEntity
  8
A1
  6
CONTINUOUS
 62
7
100
AcDbSpline
210
0.000000000000000
220
0.000000000000000
230
1.000000000000000
 70
     8
 71
     3
 72
    11
 73
     7
 74
     0
 42
1.000000000000000e-07
 43
1.000000000000000e-07
 12
-0.9734604970515193
 22
0.2288551084871528
 32
0.000000000000000
 13
-0.8932794778941116
 23
0.4495016956284985
 33
0.000000000000000
 40
0.000000000000000
 40
0.000000000000000
 40
0.000000000000000
 40
0.000000000000000
 40
0.3728529866877569
 40
0.7667582382072251
 40
1.092254104174117
 40
1.432652083084732
 40
1.432652083084732
 40
1.432652083084732
 40
1.432652083084732
 10
197.1375179518738
 20
48.31224903701175
 30
0.000000000000000
 10
197.0165320672911
 20
48.34069214058448
 30
0.000000000000000
 10
196.7696142902691
 20
48.40770561844019
 30
0.000000000000000
 10
196.4261721937970
 20
48.52948634959526
 30
0.000000000000000
 10
196.1003334011454
 20
48.66623710517999
 30
0.000000000000000
 10
195.8996231584449
 20
48.76124588077678
 30
0.000000000000000
 10
195.7982663154858
 20
48.81224903701306
 30
0.000000000000000
  0
SPLINE
  5
184
100
AcDbEntity
  8
A1
  6
CONTINUOUS
 62
7
100
AcDbSpline
210
0.000000000000000
220
0.000000000000000
230
1.000000000000000
 70
     8
 71
     3
 72
    11
 73
     7
 74
     0
 42
1.000000000000000e-07
 43
1.000000000000000e-07
 12
0.8926998519705194
 22
0.4506517217224086
 32
0.000000000000000
 13
0.9738156080554745
 23
0.2273393091995786
 33
0.000000000000000
 40
0.000000000000000
 40
0.000000000000000
 40
0.000000000000000
 40
0.000000000000000
 40
0.4305906006679908
 40
0.8373712442210506
 40
1.141383164082402
 40
1.432665019331059
 40
1.432665019331059
 40
1.432665019331059
 40
1.432665019331059
 10
195.7982663154851
 20
51.31224903701334
 30
0.000000000000000
 10
195.9263957039771
 20
51.37693116886285
 30
0.000000000000000
 10
196.1796204831539
 20
51.49481138942375
 30
0.000000000000000
 10
196.5334127458725
 20
51.63538943585414
 30
0.000000000000000
 10
196.8509308726360
 20
51.73967035358854
 30
0.000000000000000
 10
197.0429642741738
 20
51.79017575036684
 30
0.000000000000000
 10
197.1375158798353
 20
51.81224902228504
 30
0.000000000000000
  0
SPLINE
  5
185
100
AcDbEntity
  8
A1
  6
CONTINUOUS
 62
7
100
AcDbSpline
210
0.000000000000000
220
0.000000000000000
230
1.000000000000000
 70
     8
 71
     3
 72
    11
 73
     7
 74
     0
 42
1.000000000000000e-07
 43
1.000000000000000e-07
 12
0.9734603859915296
 22
-0.2288555808921160
 32
0.000000000000000
 13
0.8932794483457656
 23
-0.4495017543488302
 33
0.000000000000000
 40
0.000000000000000
 40
0.000000000000000
 40
0.000000000000000
 40
0.000000000000000
 40
0.3728533368427029
 40
0.7667585635535510
 40
1.092254143484062
 40
1.432651601661951
 40
1.432651601661951
 40
1.432651601661951
 40
1.432651601661951
 10
199.0090151787720
 20
51.81224903347263
 30
0.000000000000000
 10
199.1300011631724
 20
51.78380584447572
 30
0.000000000000000
 10
199.3769190158956
 20
51.71679223779492
 30
0.000000000000000
 10
199.7203611099361
 20
51.59501146613414
 30
0.000000000000000
 10
200.0461996390920
 20
51.45826079845486
 30
0.000000000000000
 10
200.2469096309323
 20
51.36325212188822
 30
0.000000000000000
 10
200.3482663154855
 20
51.31224903701261
 30
0.000000000000000
  0
SPLINE
  5
186
100
AcDbEntity
  8
A1
  6
CONTINUOUS
 62
7
100
AcDbSpline
210
0.000000000000000
220
0.000000000000000
230
1.000000000000000
 70
     8
 71
     3
 72
     9
 73
     5
 74
     0
 42
1.000000000000000e-07
 43
1.000000000000000e-07
 12
-0.9983028954452493
 22
0.05823511779931323
 32
0.000000000000000
 13
-0.9995408928125471
 23
0.03029857414776416
 33
0.000000000000000
 40
0.000000000000000
 40
0.000000000000000
 40
0.000000000000000
 40
0.000000000000000
 40
0.2623091648021796
 40
0.4682825565631311
 40
0.4682825565631311
 40
0.4682825565631311
 40
0.4682825565631311
 10
201.9536421095417
 20
51.81224889319796
 30
0.000000000000000
 10
201.8663541099670
 20
51.81734076156866
 30
0.000000000000000
 10
201.7104507292176
 20
51.82521051707911
 30
0.000000000000000
 10
201.5544562264389
 20
51.83089965582937
 30
0.000000000000000
 10
201.4858299504735
 20
51.83297988919028
 30
0.000000000000000
  0
SPLINE
  5
187
100
AcDbEntity
  8
A1
  6
CONTINUOUS
 62
7
100
AcDbSpline
210
0.000000000000000
220
0.000000000000000
230
1.000000000000000
 70
     8
 71
     3
 72
     9
 73
     5
 74
     0
 42
1.000000000000000e-07
 43
1.000000000000000e-07
 12
-0.9992542601726200
 22
-0.03861247889597053
 32
0.000000000000000
 13
-0.9985882594173745
 23
-0.05311768211663548
 33
0.000000000000000
 40
0.000000000000000
 40
0.000000000000000
 40
0.000000000000000
 40
0.000000000000000
 40
0.2622912315818502
 40
0.4494093750689625
 40
0.4494093750689625
 40
0.4494093750689625
 40
0.4494093750689625
 10
201.4858299504735
 20
51.83297988919028
 30
0.000000000000000
 10
201.3984647402854
 20
51.82960398430893
 30
0.000000000000000
 10
201.2487969754378
 20
51.82318537340447
 30
0.000000000000000
 10
201.0991810742260
 20
51.81568038916137
 30
0.000000000000000
 10
201.0368964138226
 20
51.81236729514004
 30
0.000000000000000
  0
SPLINE
  5
188
100
AcDbEntity
  8
A1
  6
CONTINUOUS
 62
7
100
AcDbSpline
210
0.000000000000000
220
0.000000000000000
230
1.000000000000000
 70
     8
 71
     3
 72
     9
 73
     5
 74
     0
 42
1.000000000000000e-07
 43
1.000000000000000e-07
 12
-0.9997888028749458
 22
-0.02055114706587347
 32
0.000000000000000
 13
-0.9997179727261027
 23
-0.02374815799663565
 33
0.000000000000000
 40
0.000000000000000
 40
0.000000000000000
 40
0.000000000000000
 40
0.000000000000000
 40
0.5241277721040760
 40
0.9359446104021638
 40
0.9359446104021638
 40
0.9359446104021638
 40
0.9359446104021638
 10
198.0732305762392
 20
51.83297988993414
 30
0.000000000000000
 10
197.8985582169640
 20
51.82938941429219
 30
0.000000000000000
 10
197.5866482346655
 20
51.82269855069515
 30
0.000000000000000
 10
197.2747494447413
 20
51.81550898606557
 30
0.000000000000000
 10
197.1375158798353
 20
51.81224902228504
 30
0.000000000000000
  0
SPLINE
  5
189
100
AcDbEntity
  8
A1
  6
CONTINUOUS
 62
7
100
AcDbSpline
210
0.000000000000000
220
0.000000000000000
230
1.000000000000000
 70
     8
 71
     3
 72
    11
 73
     7
 74
     0
 42
1.000000000000000e-07
 43
1.000000000000000e-07
 12
-0.9980411489918879
 22
0.06256088969689699
 32
0.000000000000000
 13
-0.9990551438231705
 23
-0.04346055221947154
 33
0.000000000000000
 40
0.000000000000000
 40
0.000000000000000
 40
0.000000000000000
 40
0.000000000000000
 40
0.2623246130713609
 40
0.5244625797323991
 40
0.7305761043691684
 40
0.9366645702141515
 40
0.9366645702141515
 40
0.9366645702141515
 40
0.9366645702141515
 10
195.1286427028129
 20
51.81224901171706
 30
0.000000000000000
 10
195.0413724500667
 20
51.81771943211143
 30
0.000000000000000
 10
194.8667870063481
 20
51.82504276101966
 30
0.000000000000000
 10
194.6231811188684
 20
51.83761421361319
 30
0.000000000000000
 10
194.3987982076922
 20
51.82040356946888
 30
0.000000000000000
 10
194.2615217180239
 20
51.81523446328848
 30
0.000000000000000
 10
194.1928904707288
 20
51.81224889044458
 30
0.000000000000000
  0
SPLINE
  5
18A
100
AcDbEntity
  8
A1
  6
CONTINUOUS
 62
7
100
AcDbSpline
210
0.000000000000000
220
0.000000000000000
230
1.000000000000000
 70
     8
 71
     3
 72
     9
 73
     5
 74
     0
 42
1.000000000000000e-07
 43
1.000000000000000e-07
 12
-0.9994892412962599
 22
0.03195710458908252
 32
0.000000000000000
 13
-0.9999004922797212
 23
0.01410693230457127
 33
0.000000000000000
 40
0.000000000000000
 40
0.000000000000000
 40
0.000000000000000
 40
0.000000000000000
 40
0.4818574807119566
 40
0.8936915676167414
 40
0.8936915676167414
 40
0.8936915676167414
 40
0.8936915676167414
 10
198.9666762065440
 20
51.81239572787300
 30
0.000000000000000
 10
198.8061390839408
 20
51.81752865117571
 30
0.000000000000000
 10
198.5083462473677
 20
51.82561539653094
 30
0.000000000000000
 10
198.2104949449837
 20
51.83104331807257
 30
0.000000000000000
 10
198.0732305762392
 20
51.83297988993414
 30
0.000000000000000
  0
ARC
  5
18B
100
AcDbEntity
  8
A1
  6
CONTINUOUS
 62
7
100
AcDbCircle
 10
194.8232663154859
 20
52.81224903701369
 30
0.000000000000000
 40
0.5000000000000017
100
AcDbArc
 50
90.00000000000000
 51
179.9999999996721
  0
ARC
  5
18C
100
AcDbEntity
  8
A1
  6
CONTINUOUS
 62
7
100
AcDbCircle
 10
201.3232663154850
 20
52.81224903701369
 30
0.000000000000000
 40
0.5000000000000017
100
AcDbArc
 50
3.278261321278076e-10
 51
90.00000000000000
  0
ARC
  5
18D
100
AcDbEntity
  8
A1
  6
CONTINUOUS
 62
7
100
AcDbCircle
 10
194.0232663154850
 20
52.11224903701370
 30
0.000000000000000
 40
0.2999999999999958
100
AcDbArc
 50
269.9999999999806
 51
360.0000000000007
  0
ARC
  5
18E
100
AcDbEntity
  8
A1
  6
CONTINUOUS
 62
7
100
AcDbCircle
 10
202.1232663154859
 20
52.11224903701370
 30
0.000000000000000
 40
0.2999999999999958
100
AcDbArc
 50
179.9999999999997
 51
270.0000000000000
  0
LINE
  5
18F
100
AcDbEntity
  8
A1
  6
CONTINUOUS
 62
7
100
AcDbLine
 10
193.5232663154781
 20
51.31224903700156
 30
0.000000000000000
 11
194.0232663154816
 21
51.81224903701366
 31
0.000000000000000
  0
LINE
  5
190
100
AcDbEntity
  8
A1
  6
CONTINUOUS
 62
7
100
AcDbLine
 10
202.1232663154893
 20
51.81224903701367
 30
0.000000000000000
 11
202.6232663154927
 21
51.31224903700173
 31
0.000000000000000
  0
LINE
  5
191
100
AcDbEntity
  8
A1
  6
CONTINUOUS
 62
7
100
AcDbLine
 10
202.6232663154856
 20
48.81224903701494
 30
0.000000000000000
 11
202.1232663154854
 21
48.31224903700996
 31
0.000000000000000
  0
LINE
  5
192
100
AcDbEntity
  8
A1
  6
CONTINUOUS
 62
7
100
AcDbLine
 10
194.0232663154854
 20
48.31224903700993
 30
0.000000000000000
 11
193.5232663154753
 21
48.81224903702478
 31
0.000000000000000
  0
LINE
  5
193
100
AcDbEntity
  8
A1
  6
CONTINUOUS
 62
7
100
AcDbLine
 10
194.3232663154855
 20
52.11224903701370
 30
0.000000000000000
 11
194.3232663154855
 21
52.81224903701653
 31
0.000000000000000
  0
LINE
  5
194
100
AcDbEntity
  8
A1
  6
CONTINUOUS
 62
7
100
AcDbLine
 10
201.8232663154855
 20
52.81224903701653
 30
0.000000000000000
 11
201.8232663154855
 21
52.11224903701370
 31
0.000000000000000
  0
LINE
  5
195
100
AcDbEntity
  8
A1
  6
CONTINUOUS
 62
7
100
AcDbLine
 10
193.5232663154754
 20
48.81224903704121
 30
0.000000000000000
 11
193.5232663154782
 21
51.31224903698852
 31
0.000000000000000
  0
LINE
  5
196
100
AcDbEntity
  8
A1
  6
CONTINUOUS
 62
7
100
AcDbLine
 10
202.6232663154960
 20
48.81224903704342
 30
0.000000000000000
 11
202.6232663154926
 21
51.31224903698930
 31
0.000000000000000
  0
LINE
  5
197
100
AcDbEntity
  8
A1
  6
CONTINUOUS
 62
7
100
AcDbLine
 10
195.7982663154858
 20
48.81224903701307
 30
0.000000000000000
 11
195.7982663154850
 21
51.31224903701335
 31
0.000000000000000
  0
LINE
  5
198
100
AcDbEntity
  8
A1
  6
CONTINUOUS
 62
7
100
AcDbLine
 10
200.3482663154855
 20
48.81224903701462
 30
0.000000000000000
 11
200.3482663154855
 21
51.31224903701263
 31
0.000000000000000
  0
LINE
  5
199
100
AcDbEntity
  8
A1
  6
CONTINUOUS
 62
7
100
AcDbLine
 10
194.1928910278852
 20
51.81224903701369
 30
0.000000000000000
 11
194.0232663154849
 21
51.81224903701369
 31
0.000000000000000
  0
LINE
  5
19A
100
AcDbEntity
  8
A1
  6
CONTINUOUS
 62
7
100
AcDbLine
 10
202.1232618441295
 20
51.81224903701369
 30
0.000000000000000
 11
201.9536415661917
 21
51.81224903701369
 31
0.000000000000000
  0
LINE
  5
19B
100
AcDbEntity
  8
A1
  6
CONTINUOUS
 62
7
100
AcDbLine
 10
201.0178896558122
 20
51.81224903701369
 30
0.000000000000000
 11
199.0090151642765
 21
51.81224903701369
 31
0.000000000000000
  0
LINE
  5
19C
100
AcDbEntity
  8
A1
  6
CONTINUOUS
 62
7
100
AcDbLine
 10
199.0090151787721
 20
51.81224903347269
 30
0.000000000000000
 11
198.9666762065440
 21
51.81239572787305
 31
0.000000000000000
  0
LINE
  5
19D
100
AcDbEntity
  8
A1
  6
CONTINUOUS
 62
7
100
AcDbLine
 10
197.1375159394254
 20
51.81224903701369
 30
0.000000000000000
 11
195.1286430382710
 21
51.81224903701369
 31
0.000000000000000
  0
LINE
  5
19E
100
AcDbEntity
  8
A1
  6
CONTINUOUS
 62
7
100
AcDbLine
 10
201.0368964138225
 20
51.81236729514002
 30
0.000000000000000
 11
201.0178899830091
 21
51.81224901131146
 31
0.000000000000000
  0
LINE
  5
19F
100
AcDbEntity
  8
A1
  6
CONTINUOUS
 62
7
100
AcDbLine
 10
194.0232663154854
 20
48.31224903700982
 30
0.000000000000000
 11
202.1232663154856
 21
48.31224903700982
 31
0.000000000000000
  0
LINE
  5
1A0
100
AcDbEntity
  8
A1
  6
CONTINUOUS
 62
7
100
AcDbLine
 10
194.8232810508615
 20
53.31224903701369
 30
0.000000000000000
 11
201.3232661781720
 21
53.31224903701369
 31
0.000000000000000
  0
LINE
  5
1A1
100
AcDbEntity
  8
A2
  6
CONTINUOUS
 62
4
100
AcDbLine
 10
200.1402663154855
 20
53.31224903701377
 30
0.000000000000000
 11
200.1402663154855
 21
56.14524903700965
 31
0.000000000000000
  0
LINE
  5
1A2
100
AcDbEntity
  8
A2
  6
CONTINUOUS
 62
4
100
AcDbLine
 10
196.0062663154855
 20
53.31224903701366
 30
0.000000000000000
 11
196.0062663154855
 21
56.14524903700982
 31
0.000000000000000
  0
LINE
  5
1A3
100
AcDbEntity
  8
A2
  6
CONTINUOUS
 62
4
100
AcDbLine
 10
199.6980739964856
 20
55.71224903700976
 30
0.000000000000000
 11
198.7279346201104
 21
53.31224903701370
 31
0.000000000000000
  0
LINE
  5
1A4
100
AcDbEntity
  8
A2
  6
CONTINUOUS
 62
4
100
AcDbLine
 10
196.4484586344855
 20
55.71224903700982
 30
0.000000000000000
 11
197.4185980108608
 21
53.31224903701366
 31
0.000000000000000
  0
ARC
  5
1A5
100
AcDbEntity
  8
A1
  6
CONTINUOUS
 62
7
100
AcDbCircle
 10
191.1732663154856
 20
38.51224903700987
 30
0.000000000000000
 40
1.000000000000001
100
AcDbArc
 50
180.0000000000000
 51
270.0000000000001
  0
LINE
  5
1A6
100
AcDbEntity
  8
A1
  6
CONTINUOUS
 62
7
100
AcDbLine
 10
191.1732663154856
 20
37.51224903700987
 30
0.000000000000000
 11
203.0732663154855
 21
37.51224903700987
 31
0.000000000000000
  0
LINE
  5
1A7
100
AcDbEntity
  8
A1
  6
CONTINUOUS
 62
7
100
AcDbLine
 10
192.5732663154855
 20
36.51224903700987
 30
0.000000000000000
 11
192.5732663154855
 21
37.51224903700987
 31
0.000000000000000
  0
LINE
  5
1A8
100
AcDbEntity
  8
A1
  6
CONTINUOUS
 62
7
100
AcDbLine
 10
193.1732663154856
 20
36.51224903700987
 30
0.000000000000000
 11
193.1732663154856
 21
37.51224903700981
 31
0.000000000000000
  0
LINE
  5
1A9
100
AcDbEntity
  8
A1
  6
CONTINUOUS
 62
7
100
AcDbLine
 10
202.9732663154856
 20
37.51224903700981
 30
0.000000000000000
 11
202.9732663154856
 21
36.51224903700987
 31
0.000000000000000
  0
LINE
  5
1AA
100
AcDbEntity
  8
A1
  6
CONTINUOUS
 62
7
100
AcDbLine
 10
203.0732663154855
 20
38.51224903700984
 30
0.000000000000000
 11
203.0732663154855
 21
37.51224903700987
 31
0.000000000000000
  0
LINE
  5
1AB
100
AcDbEntity
  8
A1
  6
CONTINUOUS
 62
7
100
AcDbLine
 10
192.6189102581674
 20
41.51224903700987
 30
0.000000000000000
 11
203.0732663154855
 21
41.51224903700987
 31
0.000000000000000
  0
LINE
  5
1AC
100
AcDbEntity
  8
A1
  6
CONTINUOUS
 62
7
100
AcDbLine
 10
203.0732663154855
 20
41.51224903700987
 30
0.000000000000000
 11
203.0732663154855
 21
40.51224903700989
 31
0.000000000000000
  0
LINE
  5
1AD
100
AcDbEntity
  8
A1
  6
CONTINUOUS
 62
7
100
AcDbLine
 10
192.5732663154855
 20
38.51224903700987
 30
0.000000000000000
 11
192.5732663154855
 21
88.51224903700987
 31
0.000000000000000
  0
ARC
  5
1AE
100
AcDbEntity
  8
A1
  6
CONTINUOUS
 62
7
100
AcDbCircle
 10
232.5732663154855
 20
78.51224903700989
 30
0.000000000000000
 40
2.150000000000004
100
AcDbArc
 50
90.00000000000000
 51
270.0000000000000
  0
LINE
  5
1AF
100
AcDbEntity
  8
A1
  6
CONTINUOUS
 62
7
100
AcDbLine
 10
232.5732663154855
 20
76.36224903700989
 30
0.000000000000000
 11
233.5732663154855
 21
76.36224903700989
 31
0.000000000000000
  0
ARC
  5
1B0
100
AcDbEntity
  8
A1
  6
CONTINUOUS
 62
7
100
AcDbCircle
 10
233.5732663154855
 20
78.51224903700989
 30
0.000000000000000
 40
2.150000000000004
100
AcDbArc
 50
270.0000000000000
 51
450.0000000000000
  0
LINE
  5
1B1
100
AcDbEntity
  8
A1
  6
CONTINUOUS
 62
7
100
AcDbLine
 10
233.5732663154855
 20
80.66224903700990
 30
0.000000000000000
 11
232.5732663154855
 21
80.66224903700990
 31
0.000000000000000
  0
LINE
  5
1B2
100
AcDbEntity
  8
A1
  6
CONTINUOUS
 62
7
100
AcDbLine
 10
233.5732663154855
 20
50.66224903700990
 30
0.000000000000000
 11
232.5732663154855
 21
50.66224903700990
 31
0.000000000000000
  0
ARC
  5
1B3
100
AcDbEntity
  8
A1
  6
CONTINUOUS
 62
7
100
AcDbCircle
 10
233.5732663154855
 20
48.51224903700989
 30
0.000000000000000
 40
2.149999999999999
100
AcDbArc
 50
270.0000000000000
 51
450.0000000000000
  0
ARC
  5
1B4
100
AcDbEntity
  8
A1
  6
CONTINUOUS
 62
7
100
AcDbCircle
 10
232.5732663154855
 20
48.51224903700989
 30
0.000000000000000
 40
2.149999999999999
100
AcDbArc
 50
90.00000000000000
 51
270.0000000000000
  0
LINE
  5
1B5
100
AcDbEntity
  8
A1
  6
CONTINUOUS
 62
7
100
AcDbLine
 10
232.5732663154855
 20
46.36224903700992
 30
0.000000000000000
 11
233.5732663154855
 21
46.36224903700992
 31
0.000000000000000
  0
LINE
  5
1B6
100
AcDbEntity
  8
A4
  6
CENTER
 62
1
100
AcDbLine
 10
233.0732663154855
 20
44.86224903700989
 30
0.000000000000000
 11
233.0732663154855
 21
52.16224903700990
 31
0.000000000000000
  0
LINE
  5
1B7
100
AcDbEntity
  8
A4
  6
CENTER
 62
1
100
AcDbLine
 10
228.9232663154856
 20
48.51224903700989
 30
0.000000000000000
 11
237.2232663154855
 21
48.51224903700989
 31
0.000000000000000
  0
LINE
  5
1B8
100
AcDbEntity
  8
A1
  6
CONTINUOUS
 62
7
100
AcDbLine
 10
282.0732663154473
 20
135.6122490370100
 30
0.000000000000000
 11
283.0732663154473
 21
135.6122490370100
 31
0.000000000000000
  0
LINE
  5
1B9
100
AcDbEntity
  8
A1
  6
CONTINUOUS
 62
7
100
AcDbLine
 10
283.0732663154473
 20
145.4122490370100
 30
0.000000000000000
 11
282.0732663154473
 21
145.4122490370100
 31
0.000000000000000
  0
LINE
  5
1BA
100
AcDbEntity
  8
A1
  6
CONTINUOUS
 62
7
100
AcDbLine
 10
283.0732663154473
 20
135.5122490370100
 30
0.000000000000000
 11
284.0732663154473
 21
135.5122490370100
 31
0.000000000000000
  0
LINE
  5
1BB
100
AcDbEntity
  8
A1
  6
CONTINUOUS
 62
7
100
AcDbLine
 10
284.0732663154473
 20
145.5122490370100
 30
0.000000000000000
 11
283.0732663154473
 21
145.5122490370100
 31
0.000000000000000
  0
LINE
  5
1BC
100
AcDbEntity
  8
A1
  6
CONTINUOUS
 62
7
100
AcDbLine
 10
283.0732663154473
 20
135.5122490370100
 30
0.000000000000000
 11
283.0732663154473
 21
145.5122490370100
 31
0.000000000000000
  0
LINE
  5
1BD
100
AcDbEntity
  8
A1
  6
CONTINUOUS
 62
7
100
AcDbLine
 10
278.5732663154337
 20
135.5122490370090
 30
0.000000000000000
 11
280.0732663154383
 21
135.5122490370090
 31
0.000000000000000
  0
LINE
  5
1BE
100
AcDbEntity
  8
A1
  6
CONTINUOUS
 62
7
100
AcDbLine
 10
280.0732663154383
 20
145.5122490370090
 30
0.000000000000000
 11
278.5732663154337
 21
145.5122490370090
 31
0.000000000000000
  0
LINE
  5
1BF
100
AcDbEntity
  8
A1
  6
CONTINUOUS
 62
7
100
AcDbLine
 10
278.0732663154389
 20
140.5122490370083
 30
0.000000000000000
 11
278.0732663154374
 21
145.0122490370088
 31
0.000000000000000
  0
LINE
  5
1C0
100
AcDbEntity
  8
A1
  6
CONTINUOUS
 62
7
100
AcDbLine
 10
278.0732663154856
 20
136.0122490369632
 30
0.000000000000000
 11
278.5732663154335
 21
135.5122490370098
 31
0.000000000000000
  0
LINE
  5
1C1
100
AcDbEntity
  8
A1
  6
CONTINUOUS
 62
7
100
AcDbLine
 10
278.5732663154337
 20
145.5122490370081
 30
0.000000000000000
 11
278.0732663154857
 21
145.0122490370546
 31
0.000000000000000
  0
LINE
  5
1C2
100
AcDbEntity
  8
A1
  6
CONTINUOUS
 62
7
100
AcDbLine
 10
278.5732663154337
 20
135.5122490370090
 30
0.000000000000000
 11
278.5732663154337
 21
145.5122490370090
 31
0.000000000000000
  0
LINE
  5
1C3
100
AcDbEntity
  8
A1
  6
CONTINUOUS
 62
7
100
AcDbLine
 10
278.0732663154373
 20
136.0122490370092
 30
0.000000000000000
 11
278.0732663154388
 21
140.5122490370083
 31
0.000000000000000
  0
ARC
  5
1C4
100
AcDbEntity
  8
A1
  6
CONTINUOUS
 62
7
100
AcDbCircle
 10
282.0732663154473
 20
145.0122490370100
 30
0.000000000000000
 40
1.999999999999998
100
AcDbArc
 50
89.99999999999990
 51
150.0000000000000
  0
LINE
  5
1C5
100
AcDbEntity
  8
A1
  6
CONTINUOUS
 62
7
100
AcDbLine
 10
284.5732663154473
 20
147.0122490370102
 30
0.000000000000000
 11
282.0732663154473
 21
147.0122490370102
 31
0.000000000000000
  0
LINE
  5
1C6
100
AcDbEntity
  8
A1
  6
CONTINUOUS
 62
7
100
AcDbLine
 10
280.0732663154480
 20
135.0122490370100
 30
0.000000000000000
 11
282.0732663154466
 21
135.0122490370100
 31
0.000000000000000
  0
LINE
  5
1C7
100
AcDbEntity
  8
A1
  6
CONTINUOUS
 62
7
100
AcDbLine
 10
282.0732663154466
 20
146.0122490370100
 30
0.000000000000000
 11
280.0732663154480
 21
146.0122490370100
 31
0.000000000000000
  0
LINE
  5
1C8
100
AcDbEntity
  8
A1
  6
CONTINUOUS
 62
7
100
AcDbLine
 10
280.0732663154480
 20
135.0122490370100
 30
0.000000000000000
 11
280.0732663154480
 21
146.0122490370100
 31
0.000000000000000
  0
LINE
  5
1C9
100
AcDbEntity
  8
A1
  6
CONTINUOUS
 62
7
100
AcDbLine
 10
282.0732663154466
 20
135.0122490370100
 30
0.000000000000000
 11
282.0732663154466
 21
146.0122490370100
 31
0.000000000000000
  0
LINE
  5
1CA
100
AcDbEntity
  8
A1
  6
CONTINUOUS
 62
7
100
AcDbLine
 10
284.5732663154473
 20
140.5122490370073
 30
0.000000000000000
 11
284.5732663154473
 21
139.0122490370105
 31
0.000000000000000
  0
LINE
  5
1CB
100
AcDbEntity
  8
A1
  6
CONTINUOUS
 62
7
100
AcDbLine
 10
284.5732663154473
 20
136.5122490370100
 30
0.000000000000000
 11
284.5732663154473
 21
139.0122490370105
 31
0.000000000000000
  0
LINE
  5
1CC
100
AcDbEntity
  8
A1
  6
CONTINUOUS
 62
7
100
AcDbLine
 10
284.5732663154473
 20
134.5122490370100
 30
0.000000000000000
 11
284.5732663154473
 21
136.5122490370100
 31
0.000000000000000
  0
LINE
  5
1CD
100
AcDbEntity
  8
A1
  6
CONTINUOUS
 62
7
100
AcDbLine
 10
284.5732663154473
 20
146.0122490370100
 30
0.000000000000000
 11
284.0732663154444
 21
146.0122490370100
 31
0.000000000000000
  0
LINE
  5
1CE
100
AcDbEntity
  8
A1
  6
CONTINUOUS
 62
7
100
AcDbLine
 10
284.0732663154444
 20
135.0122490370100
 30
0.000000000000000
 11
284.5732663154473
 21
135.0122490370100
 31
0.000000000000000
  0
LINE
  5
1CF
100
AcDbEntity
  8
A1
  6
CONTINUOUS
 62
7
100
AcDbLine
 10
284.0732663154444
 20
146.0122490370100
 30
0.000000000000000
 11
284.0732663154444
 21
135.0122490370100
 31
0.000000000000000
  0
LINE
  5
1D0
100
AcDbEntity
  8
A1
  6
CONTINUOUS
 62
7
100
AcDbLine
 10
336.0732663154470
 20
135.6122490370100
 30
0.000000000000000
 11
335.0732663154470
 21
135.6122490370100
 31
0.000000000000000
  0
LINE
  5
1D1
100
AcDbEntity
  8
A1
  6
CONTINUOUS
 62
7
100
AcDbLine
 10
335.0732663154470
 20
145.4122490370100
 30
0.000000000000000
 11
336.0732663154470
 21
145.4122490370100
 31
0.000000000000000
  0
LINE
  5
1D2
100
AcDbEntity
  8
A1
  6
CONTINUOUS
 62
7
100
AcDbLine
 10
335.0732663154470
 20
135.5122490370100
 30
0.000000000000000
 11
334.0732663154470
 21
135.5122490370100
 31
0.000000000000000
  0
LINE
  5
1D3
100
AcDbEntity
  8
A1
  6
CONTINUOUS
 62
7
100
AcDbLine
 10
334.0732663154470
 20
145.5122490370100
 30
0.000000000000000
 11
335.0732663154470
 21
145.5122490370100
 31
0.000000000000000
  0
LINE
  5
1D4
100
AcDbEntity
  8
A1
  6
CONTINUOUS
 62
7
100
AcDbLine
 10
335.0732663154470
 20
135.5122490370100
 30
0.000000000000000
 11
335.0732663154470
 21
145.5122490370100
 31
0.000000000000000
  0
LINE
  5
1D5
100
AcDbEntity
  8
A1
  6
CONTINUOUS
 62
7
100
AcDbLine
 10
339.5732663154606
 20
135.5122490370090
 30
0.000000000000000
 11
338.0732663154560
 21
135.5122490370090
 31
0.000000000000000
  0
LINE
  5
1D6
100
AcDbEntity
  8
A1
  6
CONTINUOUS
 62
7
100
AcDbLine
 10
338.0732663154560
 20
145.5122490370090
 30
0.000000000000000
 11
339.5732663154606
 21
145.5122490370090
 31
0.000000000000000
  0
LINE
  5
1D7
100
AcDbEntity
  8
A1
  6
CONTINUOUS
 62
7
100
AcDbLine
 10
340.0732663154553
 20
140.5122490370082
 30
0.000000000000000
 11
340.0732663154568
 21
145.0122490370088
 31
0.000000000000000
  0
LINE
  5
1D8
100
AcDbEntity
  8
A1
  6
CONTINUOUS
 62
7
100
AcDbLine
 10
340.0732663154087
 20
136.0122490369633
 30
0.000000000000000
 11
339.5732663154607
 21
135.5122490370100
 31
0.000000000000000
  0
LINE
  5
1D9
100
AcDbEntity
  8
A1
  6
CONTINUOUS
 62
7
100
AcDbLine
 10
339.5732663154605
 20
145.5122490370080
 30
0.000000000000000
 11
340.0732663154085
 21
145.0122490370545
 31
0.000000000000000
  0
LINE
  5
1DA
100
AcDbEntity
  8
A1
  6
CONTINUOUS
 62
7
100
AcDbLine
 10
339.5732663154606
 20
135.5122490370090
 30
0.000000000000000
 11
339.5732663154606
 21
145.5122490370090
 31
0.000000000000000
  0
LINE
  5
1DB
100
AcDbEntity
  8
A1
  6
CONTINUOUS
 62
7
100
AcDbLine
 10
340.0732663154569
 20
136.0122490370092
 30
0.000000000000000
 11
340.0732663154554
 21
140.5122490370083
 31
0.000000000000000
  0
ARC
  5
1DC
100
AcDbEntity
  8
A1
  6
CONTINUOUS
 62
7
100
AcDbCircle
 10
336.0732663154470
 20
145.0122490370100
 30
0.000000000000000
 40
1.999999999999998
100
AcDbArc
 50
29.99999999999999
 51
90.00000000000010
  0
LINE
  5
1DD
100
AcDbEntity
  8
A1
  6
CONTINUOUS
 62
7
100
AcDbLine
 10
333.5732663154470
 20
147.0122490370102
 30
0.000000000000000
 11
336.0732663154470
 21
147.0122490370102
 31
0.000000000000000
  0
LINE
  5
1DE
100
AcDbEntity
  8
A1
  6
CONTINUOUS
 62
7
100
AcDbLine
 10
338.0732663154463
 20
135.0122490370100
 30
0.000000000000000
 11
336.0732663154477
 21
135.0122490370100
 31
0.000000000000000
  0
LINE
  5
1DF
100
AcDbEntity
  8
A1
  6
CONTINUOUS
 62
7
100
AcDbLine
 10
336.0732663154477
 20
146.0122490370100
 30
0.000000000000000
 11
338.0732663154463
 21
146.0122490370100
 31
0.000000000000000
  0
LINE
  5
1E0
100
AcDbEntity
  8
A1
  6
CONTINUOUS
 62
7
100
AcDbLine
 10
338.0732663154463
 20
135.0122490370100
 30
0.000000000000000
 11
338.0732663154463
 21
146.0122490370100
 31
0.000000000000000
  0
LINE
  5
1E1
100
AcDbEntity
  8
A1
  6
CONTINUOUS
 62
7
100
AcDbLine
 10
336.0732663154477
 20
135.0122490370100
 30
0.000000000000000
 11
336.0732663154477
 21
146.0122490370100
 31
0.000000000000000
  0
LINE
  5
1E2
100
AcDbEntity
  8
A1
  6
CONTINUOUS
 62
7
100
AcDbLine
 10
333.5732663154470
 20
140.5122490370073
 30
0.000000000000000
 11
333.5732663154470
 21
139.0122490370105
 31
0.000000000000000
  0
LINE
  5
1E3
100
AcDbEntity
  8
A1
  6
CONTINUOUS
 62
7
100
AcDbLine
 10
333.5732663154470
 20
136.5122490370100
 30
0.000000000000000
 11
333.5732663154470
 21
139.0122490370105
 31
0.000000000000000
  0
LINE
  5
1E4
100
AcDbEntity
  8
A1
  6
CONTINUOUS
 62
7
100
AcDbLine
 10
333.5732663154470
 20
134.5122490370100
 30
0.000000000000000
 11
333.5732663154470
 21
136.5122490370100
 31
0.000000000000000
  0
LINE
  5
1E5
100
AcDbEntity
  8
A1
  6
CONTINUOUS
 62
7
100
AcDbLine
 10
333.5732663154470
 20
146.0122490370100
 30
0.000000000000000
 11
334.0732663154499
 21
146.0122490370100
 31
0.000000000000000
  0
LINE
  5
1E6
100
AcDbEntity
  8
A1
  6
CONTINUOUS
 62
7
100
AcDbLine
 10
334.0732663154499
 20
135.0122490370100
 30
0.000000000000000
 11
333.5732663154470
 21
135.0122490370100
 31
0.000000000000000
  0
LINE
  5
1E7
100
AcDbEntity
  8
A1
  6
CONTINUOUS
 62
7
100
AcDbLine
 10
334.0732663154499
 20
146.0122490370100
 30
0.000000000000000
 11
334.0732663154499
 21
135.0122490370100
 31
0.000000000000000
  0
LINE
  5
1E8
100
AcDbEntity
  8
A1
  6
CONTINUOUS
 62
7
100
AcDbLine
 10
192.5966046305151
 20
144.3886266610227
 30
0.000000000000000
 11
194.5732663154837
 21
144.7548897241281
 31
0.000000000000000
  0
LINE
  5
1E9
100
AcDbEntity
  8
A1
  6
CONTINUOUS
 62
7
100
AcDbLine
 10
174.0476421257190
 20
263.0122490370184
 30
0.000000000000000
 11
174.0476421257190
 21
255.2622490363372
 31
0.000000000000000
  0
LINE
  5
1EA
100
AcDbEntity
  8
A1
  6
CONTINUOUS
 62
7
100
AcDbLine
 10
174.0476421257190
 20
221.7622490378971
 30
0.000000000000000
 11
174.0476421257190
 21
214.0122490370183
 31
0.000000000000000
  0
LINE
  5
1EB
100
AcDbEntity
  8
A1
  6
CONTINUOUS
 62
7
100
AcDbLine
 10
203.5732663154856
 20
265.5122490370269
 30
0.000000000000000
 11
203.5732663154856
 21
267.5122490370269
 31
0.000000000000000
  0
LINE
  5
1EC
100
AcDbEntity
  8
A1
  6
CONTINUOUS
 62
7
100
AcDbLine
 10
193.1732663154855
 20
265.5122490370269
 30
0.000000000000000
 11
193.1732663154855
 21
264.5122490370269
 31
0.000000000000000
  0
LINE
  5
1ED
100
AcDbEntity
  8
A1
  6
CONTINUOUS
 62
7
100
AcDbLine
 10
202.9732663154856
 20
264.5122490370269
 30
0.000000000000000
 11
202.9732663154856
 21
265.5122490370269
 31
0.000000000000000
  0
LINE
  5
1EE
100
AcDbEntity
  8
A1
  6
CONTINUOUS
 62
7
100
AcDbLine
 10
203.0732663154857
 20
269.0122490370269
 30
0.000000000000000
 11
202.5732663154856
 21
269.5122490370269
 31
0.000000000000000
  0
LINE
  5
1EF
100
AcDbEntity
  8
A1
  6
CONTINUOUS
 62
7
100
AcDbLine
 10
193.5732663154857
 20
269.5122490370269
 30
0.000000000000000
 11
193.0732663154857
 21
269.0122490370269
 31
0.000000000000000
  0
LINE
  5
1F0
100
AcDbEntity
  8
A1
  6
CONTINUOUS
 62
7
100
AcDbLine
 10
203.0732663154856
 20
267.5122490370269
 30
0.000000000000000
 11
203.0732663154856
 21
269.0122490370269
 31
0.000000000000000
  0
LINE
  5
1F1
100
AcDbEntity
  8
A1
  6
CONTINUOUS
 62
7
100
AcDbLine
 10
193.0732663154856
 20
269.0122490370269
 30
0.000000000000000
 11
193.0732663154856
 21
267.5122490370269
 31
0.000000000000000
  0
LINE
  5
1F2
100
AcDbEntity
  8
A1
  6
CONTINUOUS
 62
7
100
AcDbLine
 10
224.0732663154856
 20
263.0122490370184
 30
0.000000000000000
 11
224.0732663154856
 21
255.2622490363372
 31
0.000000000000000
  0
LINE
  5
1F3
100
AcDbEntity
  8
A1
  6
CONTINUOUS
 62
7
100
AcDbLine
 10
224.0732663154856
 20
214.0122490370183
 30
0.000000000000000
 11
224.0732663154856
 21
221.7622490378971
 31
0.000000000000000
  0
ARC
  5
1F4
100
AcDbEntity
  8
A1
  6
CONTINUOUS
 62
7
100
AcDbCircle
 10
236.0732663154856
 20
261.0122490370184
 30
0.000000000000000
 40
2.000000000000000
100
AcDbArc
 50
0.000000000000000
 51
90.00000000000000
  0
LINE
  5
1F5
100
AcDbEntity
  8
A1
  6
CONTINUOUS
 62
7
100
AcDbLine
 10
238.0732663154856
 20
216.0122490370183
 30
0.000000000000000
 11
238.0732663154856
 21
261.0122490370184
 31
0.000000000000000
  0
ARC
  5
1F6
100
AcDbEntity
  8
A1
  6
CONTINUOUS
 62
7
100
AcDbCircle
 10
236.0732663154856
 20
216.0122490370183
 30
0.000000000000000
 40
2.000000000000000
100
AcDbArc
 50
270.0000000000000
 51
360.0000000000000
  0
LINE
  5
1F7
100
AcDbEntity
  8
A1
  6
CONTINUOUS
 62
7
100
AcDbLine
 10
193.5732663154856
 20
269.5122490370269
 30
0.000000000000000
 11
202.5732663154856
 21
269.5122490370269
 31
0.000000000000000
  0
LINE
  5
1F8
100
AcDbEntity
  8
A1
  6
CONTINUOUS
 62
7
100
AcDbLine
 10
203.0732663154856
 20
269.0122490370269
 30
0.000000000000000
 11
193.0732663154856
 21
269.0122490370269
 31
0.000000000000000
  0
LINE
  5
1F9
100
AcDbEntity
  8
A4
  6
CENTER
 62
1
100
AcDbLine
 10
172.5282342368856
 20
238.5122490370184
 30
0.000000000000000
 11
238.6102790864856
 21
238.5122490370184
 31
0.000000000000000
  0
LINE
  5
1FA
100
AcDbEntity
  8
A4
  6
CENTER
 62
1
100
AcDbLine
 10
198.0732663154856
 20
270.0122490370184
 30
0.000000000000000
 11
198.0732663154856
 21
206.3947381489183
 31
0.000000000000000
  0
LINE
  5
1FB
100
AcDbEntity
  8
A1
  6
CONTINUOUS
 62
7
100
AcDbLine
 10
178.5732663154887
 20
267.5122490370269
 30
0.000000000000000
 11
203.5732663154856
 21
267.5122490370269
 31
0.000000000000000
  0
LINE
  5
1FC
100
AcDbEntity
  8
A1
  6
CONTINUOUS
 62
7
100
AcDbLine
 10
192.5732663154856
 20
263.0122490370184
 30
0.000000000000000
 11
192.5732663154856
 21
267.5122490370269
 31
0.000000000000000
  0
LINE
  5
1FD
100
AcDbEntity
  8
A1
  6
CONTINUOUS
 62
7
100
AcDbLine
 10
177.0732663154856
 20
263.5122490370184
 30
0.000000000000000
 11
178.5732663154890
 21
263.5122490370184
 31
0.000000000000000
  0
LINE
  5
1FE
100
AcDbEntity
  8
A3
  6
DASHED
 62
2
100
AcDbLine
 10
178.5732663154889
 20
265.5122490370269
 30
0.000000000000000
 11
192.5732663154856
 21
265.5122490370269
 31
0.000000000000000
  0
LINE
  5
1FF
100
AcDbEntity
  8
A1
  6
CONTINUOUS
 62
7
100
AcDbLine
 10
192.5732663154856
 20
265.5122490370269
 30
0.000000000000000
 11
203.5732663154856
 21
265.5122490370269
 31
0.000000000000000
  0
LINE
  5
200
100
AcDbEntity
  8
A1
  6
CONTINUOUS
 62
7
100
AcDbLine
 10
174.0476421257190
 20
263.0122490370184
 30
0.000000000000000
 11
236.0732663154856
 21
263.0122490370184
 31
0.000000000000000
  0
LINE
  5
201
100
AcDbEntity
  8
A1
  6
CONTINUOUS
 62
7
100
AcDbLine
 10
174.0476421257190
 20
214.0122490370183
 30
0.000000000000000
 11
236.0732663154856
 21
214.0122490370183
 31
0.000000000000000
  0
LINE
  5
202
100
AcDbEntity
  8
A1
  6
CONTINUOUS
 62
7
100
AcDbLine
 10
177.0732663154856
 20
263.0122490370184
 30
0.000000000000000
 11
177.0732663154856
 21
263.5122490370184
 31
0.000000000000000
  0
LINE
  5
203
100
AcDbEntity
  8
A1
  6
CONTINUOUS
 62
7
100
AcDbLine
 10
178.5732663154886
 20
267.5122490370268
 30
0.000000000000000
 11
178.5732663154890
 21
263.0122490370154
 31
0.000000000000000
  0
LINE
  5
204
100
AcDbEntity
  8
A1
  6
CONTINUOUS
 62
7
100
AcDbLine
 10
194.5732663154871
 20
263.0122490370185
 30
0.000000000000000
 11
194.5732663154871
 21
263.5122490370198
 31
0.000000000000000
  0
LINE
  5
205
100
AcDbEntity
  8
A1
  6
CONTINUOUS
 62
7
100
AcDbLine
 10
203.5732663154889
 20
263.0122490370185
 30
0.000000000000000
 11
203.5732663154889
 21
263.5122490370213
 31
0.000000000000000
  0
LINE
  5
206
100
AcDbEntity
  8
A1
  6
CONTINUOUS
 62
7
100
AcDbLine
 10
203.0732663154889
 20
263.5122490370185
 30
0.000000000000000
 11
203.0732663154889
 21
264.5122490370185
 31
0.000000000000000
  0
LINE
  5
207
100
AcDbEntity
  8
A1
  6
CONTINUOUS
 62
7
100
AcDbLine
 10
192.5732663154856
 20
264.5122490370185
 30
0.000000000000000
 11
203.0732663154889
 21
264.5122490370185
 31
0.000000000000000
  0
LINE
  5
208
100
AcDbEntity
  8
A1
  6
CONTINUOUS
 62
7
100
AcDbLine
 10
192.5732663154888
 20
263.5122490370199
 30
0.000000000000000
 11
203.5732663154890
 21
263.5122490370214
 31
0.000000000000000
  0
LINE
  5
209
100
AcDbEntity
  8
A1
  6
CONTINUOUS
 62
7
100
AcDbLine
 10
203.5732663154856
 20
211.5122490370100
 30
0.000000000000000
 11
203.5732663154856
 21
209.5122490370100
 31
0.000000000000000
  0
LINE
  5
20A
100
AcDbEntity
  8
A1
  6
CONTINUOUS
 62
7
100
AcDbLine
 10
193.1732663154855
 20
211.5122490370100
 30
0.000000000000000
 11
193.1732663154855
 21
212.5122490370100
 31
0.000000000000000
  0
LINE
  5
20B
100
AcDbEntity
  8
A1
  6
CONTINUOUS
 62
7
100
AcDbLine
 10
202.9732663154856
 20
212.5122490370100
 30
0.000000000000000
 11
202.9732663154856
 21
211.5122490370100
 31
0.000000000000000
  0
LINE
  5
20C
100
AcDbEntity
  8
A1
  6
CONTINUOUS
 62
7
100
AcDbLine
 10
203.0732663154857
 20
208.0122490370102
 30
0.000000000000000
 11
202.5732663154857
 21
207.5122490370102
 31
0.000000000000000
  0
LINE
  5
20D
100
AcDbEntity
  8
A1
  6
CONTINUOUS
 62
7
100
AcDbLine
 10
193.5732663154857
 20
207.5122490370102
 30
0.000000000000000
 11
193.0732663154857
 21
208.0122490370102
 31
0.000000000000000
  0
LINE
  5
20E
100
AcDbEntity
  8
A1
  6
CONTINUOUS
 62
7
100
AcDbLine
 10
203.0732663154856
 20
209.5122490370100
 30
0.000000000000000
 11
203.0732663154856
 21
208.0122490370100
 31
0.000000000000000
  0
LINE
  5
20F
100
AcDbEntity
  8
A1
  6
CONTINUOUS
 62
7
100
AcDbLine
 10
193.0732663154856
 20
208.0122490370100
 30
0.000000000000000
 11
193.0732663154856
 21
209.5122490370100
 31
0.000000000000000
  0
LINE
  5
210
100
AcDbEntity
  8
A1
  6
CONTINUOUS
 62
7
100
AcDbLine
 10
193.5732663154856
 20
207.5122490370100
 30
0.000000000000000
 11
202.5732663154856
 21
207.5122490370100
 31
0.000000000000000
  0
LINE
  5
211
100
AcDbEntity
  8
A1
  6
CONTINUOUS
 62
7
100
AcDbLine
 10
203.0732663154856
 20
208.0122490370100
 30
0.000000000000000
 11
193.0732663154856
 21
208.0122490370100
 31
0.000000000000000
  0
LINE
  5
212
100
AcDbEntity
  8
A1
  6
CONTINUOUS
 62
7
100
AcDbLine
 10
178.5732663154887
 20
209.5122490370100
 30
0.000000000000000
 11
203.5732663154856
 21
209.5122490370100
 31
0.000000000000000
  0
LINE
  5
213
100
AcDbEntity
  8
A1
  6
CONTINUOUS
 62
7
100
AcDbLine
 10
192.5732663154856
 20
214.0122490370186
 30
0.000000000000000
 11
192.5732663154856
 21
209.5122490370100
 31
0.000000000000000
  0
LINE
  5
214
100
AcDbEntity
  8
A1
  6
CONTINUOUS
 62
7
100
AcDbLine
 10
177.0732663154856
 20
213.5122490370186
 30
0.000000000000000
 11
178.5732663154890
 21
213.5122490370186
 31
0.000000000000000
  0
LINE
  5
215
100
AcDbEntity
  8
A3
  6
DASHED
 62
2
100
AcDbLine
 10
178.5732663154889
 20
211.5122490370100
 30
0.000000000000000
 11
192.5732663154856
 21
211.5122490370100
 31
0.000000000000000
  0
LINE
  5
216
100
AcDbEntity
  8
A1
  6
CONTINUOUS
 62
7
100
AcDbLine
 10
192.5732663154856
 20
211.5122490370100
 30
0.000000000000000
 11
203.5732663154856
 21
211.5122490370100
 31
0.000000000000000
  0
LINE
  5
217
100
AcDbEntity
  8
A1
  6
CONTINUOUS
 62
7
100
AcDbLine
 10
177.0732663154856
 20
214.0122490370186
 30
0.000000000000000
 11
177.0732663154856
 21
213.5122490370186
 31
0.000000000000000
  0
LINE
  5
218
100
AcDbEntity
  8
A1
  6
CONTINUOUS
 62
7
100
AcDbLine
 10
178.5732663154887
 20
209.5122490370100
 30
0.000000000000000
 11
178.5732663154891
 21
214.0122490370215
 31
0.000000000000000
  0
LINE
  5
219
100
AcDbEntity
  8
A1
  6
CONTINUOUS
 62
7
100
AcDbLine
 10
194.5732663154871
 20
214.0122490370184
 30
0.000000000000000
 11
194.5732663154871
 21
213.5122490370171
 31
0.000000000000000
  0
LINE
  5
21A
100
AcDbEntity
  8
A1
  6
CONTINUOUS
 62
7
100
AcDbLine
 10
203.5732663154889
 20
214.0122490370184
 30
0.000000000000000
 11
203.5732663154889
 21
213.5122490370156
 31
0.000000000000000
  0
LINE
  5
21B
100
AcDbEntity
  8
A1
  6
CONTINUOUS
 62
7
100
AcDbLine
 10
203.0732663154889
 20
213.5122490370184
 30
0.000000000000000
 11
203.0732663154889
 21
212.5122490370184
 31
0.000000000000000
  0
LINE
  5
21C
100
AcDbEntity
  8
A1
  6
CONTINUOUS
 62
7
100
AcDbLine
 10
192.5732663154856
 20
212.5122490370184
 30
0.000000000000000
 11
203.0732663154889
 21
212.5122490370184
 31
0.000000000000000
  0
LINE
  5
21D
100
AcDbEntity
  8
A1
  6
CONTINUOUS
 62
7
100
AcDbLine
 10
192.5732663154887
 20
213.5122490370171
 30
0.000000000000000
 11
203.5732663154888
 21
213.5122490370156
 31
0.000000000000000
  0
LINE
  5
21E
100
AcDbEntity
  8
A4
  6
CENTER
 62
1
100
AcDbLine
 10
233.0732663154855
 20
257.1622490370183
 30
0.000000000000000
 11
233.0732663154855
 21
249.8622490370184
 31
0.000000000000000
  0
LINE
  5
21F
100
AcDbEntity
  8
A1
  6
CONTINUOUS
 62
7
100
AcDbLine
 10
232.5732663154855
 20
251.3622490370184
 30
0.000000000000000
 11
233.5732663154855
 21
251.3622490370184
 31
0.000000000000000
  0
ARC
  5
220
100
AcDbEntity
  8
A1
  6
CONTINUOUS
 62
7
100
AcDbCircle
 10
233.5732663154855
 20
253.5122490370184
 30
0.000000000000000
 40
2.150000000000004
100
AcDbArc
 50
270.0000000000000
 51
450.0000000000000
  0
LINE
  5
221
100
AcDbEntity
  8
A4
  6
CENTER
 62
1
100
AcDbLine
 10
237.2232663154855
 20
253.5122490370184
 30
0.000000000000000
 11
228.9232663154855
 21
253.5122490370184
 31
0.000000000000000
  0
ARC
  5
222
100
AcDbEntity
  8
A1
  6
CONTINUOUS
 62
7
100
AcDbCircle
 10
232.5732663154855
 20
253.5122490370184
 30
0.000000000000000
 40
2.150000000000004
100
AcDbArc
 50
90.00000000000000
 51
270.0000000000000
  0
LINE
  5
223
100
AcDbEntity
  8
A1
  6
CONTINUOUS
 62
7
100
AcDbLine
 10
233.5732663154855
 20
255.6622490370183
 30
0.000000000000000
 11
232.5732663154855
 21
255.6622490370183
 31
0.000000000000000
  0
LINE
  5
224
100
AcDbEntity
  8
A1
  6
CONTINUOUS
 62
7
100
AcDbLine
 10
233.5732663154855
 20
225.6622490370184
 30
0.000000000000000
 11
232.5732663154855
 21
225.6622490370184
 31
0.000000000000000
  0
LINE
  5
225
100
AcDbEntity
  8
A4
  6
CENTER
 62
1
100
AcDbLine
 10
233.0732663154855
 20
219.8622490370184
 30
0.000000000000000
 11
233.0732663154855
 21
227.1622490370184
 31
0.000000000000000
  0
ARC
  5
226
100
AcDbEntity
  8
A1
  6
CONTINUOUS
 62
7
100
AcDbCircle
 10
233.5732663154855
 20
223.5122490370184
 30
0.000000000000000
 40
2.149999999999999
100
AcDbArc
 50
270.0000000000000
 51
450.0000000000000
  0
LINE
  5
227
100
AcDbEntity
  8
A1
  6
CONTINUOUS
 62
7
100
AcDbLine
 10
232.5732663154855
 20
221.3622490370184
 30
0.000000000000000
 11
233.5732663154855
 21
221.3622490370184
 31
0.000000000000000
  0
ARC
  5
228
100
AcDbEntity
  8
A1
  6
CONTINUOUS
 62
7
100
AcDbCircle
 10
232.5732663154855
 20
223.5122490370184
 30
0.000000000000000
 40
2.149999999999999
100
AcDbArc
 50
90.00000000000000
 51
270.0000000000000
  0
LINE
  5
229
100
AcDbEntity
  8
A4
  6
CENTER
 62
1
100
AcDbLine
 10
228.9232663154855
 20
223.5122490370184
 30
0.000000000000000
 11
237.2232663154855
 21
223.5122490370184
 31
0.000000000000000
  0
ARC
  5
22A
100
AcDbEntity
  8
A1
  6
CONTINUOUS
 62
7
100
AcDbCircle
 10
174.0476421257190
 20
237.7622490368170
 30
0.000000000000000
 40
0.9999999989799999
100
AcDbArc
 50
180.0000000000000
 51
270.0000000000000
  0
ARC
  5
22B
100
AcDbEntity
  8
A1
  6
CONTINUOUS
 62
7
100
AcDbCircle
 10
224.0732663160789
 20
237.7622490374371
 30
0.000000000000000
 40
0.9999999989799999
100
AcDbArc
 50
270.0000000000000
 51
360.0000000000000
  0
ARC
  5
22C
100
AcDbEntity
  8
A1
  6
CONTINUOUS
 62
7
100
AcDbCircle
 10
224.0732663160789
 20
239.2622490374171
 30
0.000000000000000
 40
0.9999999989799999
100
AcDbArc
 50
0.000000000000000
 51
90.00000000000000
  0
ARC
  5
22D
100
AcDbEntity
  8
A1
  6
CONTINUOUS
 62
7
100
AcDbCircle
 10
224.0732663160789
 20
224.2622490374771
 30
0.000000000000000
 40
0.9999999989799999
100
AcDbArc
 50
0.000000000000000
 51
90.00000000000000
  0
ARC
  5
22E
100
AcDbEntity
  8
A1
  6
CONTINUOUS
 62
7
100
AcDbCircle
 10
224.0732663160789
 20
222.7622490374980
 30
0.000000000000000
 40
0.9999999989799999
100
AcDbArc
 50
270.0000000000000
 51
360.0000000000000
  0
ARC
  5
22F
100
AcDbEntity
  8
A1
  6
CONTINUOUS
 62
7
100
AcDbCircle
 10
224.0732663160789
 20
254.2622490373579
 30
0.000000000000000
 40
0.9999999989799999
100
AcDbArc
 50
4.418950718900623e-08
 51
90.00000000000000
  0
ARC
  5
230
100
AcDbEntity
  8
A1
  6
CONTINUOUS
 62
7
100
AcDbCircle
 10
174.0476421257190
 20
254.2622490373579
 30
0.000000000000000
 40
0.9999999989799999
100
AcDbArc
 50
90.00000000000000
 51
180.0000000000000
  0
ARC
  5
231
100
AcDbEntity
  8
A1
  6
CONTINUOUS
 62
7
100
AcDbCircle
 10
224.0732663160789
 20
252.7622490373780
 30
0.000000000000000
 40
0.9999999989799999
100
AcDbArc
 50
270.0000000000000
 51
360.0000000000000
  0
ARC
  5
232
100
AcDbEntity
  8
A1
  6
CONTINUOUS
 62
7
100
AcDbCircle
 10
174.0476421257190
 20
252.7622490367579
 30
0.000000000000000
 40
0.9999999989799999
100
AcDbArc
 50
180.0000000000000
 51
270.0000000000000
  0
ARC
  5
233
100
AcDbEntity
  8
A1
  6
CONTINUOUS
 62
7
100
AcDbCircle
 10
174.0476421257190
 20
222.7622490368780
 30
0.000000000000000
 40
0.9999999989799999
100
AcDbArc
 50
180.0000000000000
 51
270.0000000000000
  0
ARC
  5
234
100
AcDbEntity
  8
A1
  6
CONTINUOUS
 62
7
100
AcDbCircle
 10
174.0476421257190
 20
224.2622490374771
 30
0.000000000000000
 40
0.9999999989799999
100
AcDbArc
 50
90.00000000000000
 51
180.0000000000000
  0
ARC
  5
235
100
AcDbEntity
  8
A1
  6
CONTINUOUS
 62
7
100
AcDbCircle
 10
174.0476421257190
 20
239.2622490374171
 30
0.000000000000000
 40
0.9999999989799999
100
AcDbArc
 50
90.00000000000000
 51
180.0000000000000
  0
LINE
  5
236
100
AcDbEntity
  8
A1
  6
CONTINUOUS
 62
7
100
AcDbLine
 10
173.0476421267389
 20
224.2622490374772
 30
0.000000000000000
 11
173.0476421267389
 21
222.7622490368780
 31
0.000000000000000
  0
LINE
  5
237
100
AcDbEntity
  8
A1
  6
CONTINUOUS
 62
7
100
AcDbLine
 10
173.0476421267389
 20
239.2622490374172
 30
0.000000000000000
 11
173.0476421267389
 21
237.7622490368171
 31
0.000000000000000
  0
LINE
  5
238
100
AcDbEntity
  8
A1
  6
CONTINUOUS
 62
7
100
AcDbLine
 10
173.0476421267389
 20
254.2622490373581
 30
0.000000000000000
 11
173.0476421267389
 21
252.7622490367580
 31
0.000000000000000
  0
LINE
  5
239
100
AcDbEntity
  8
A1
  6
CONTINUOUS
 62
7
100
AcDbLine
 10
174.0476421257189
 20
236.7622490378380
 30
0.000000000000000
 11
174.0476421257189
 21
225.2622490364571
 31
0.000000000000000
  0
LINE
  5
23A
100
AcDbEntity
  8
A1
  6
CONTINUOUS
 62
7
100
AcDbLine
 10
174.0476421257189
 20
251.7622490377771
 30
0.000000000000000
 11
174.0476421257189
 21
240.2622490363972
 31
0.000000000000000
  0
LINE
  5
23B
100
AcDbEntity
  8
A1
  6
CONTINUOUS
 62
7
100
AcDbLine
 10
174.0476421257189
 20
255.2622490363372
 30
0.000000000000000
 11
226.5732666966820
 21
255.2622490363372
 31
0.000000000000000
  0
LINE
  5
23C
100
AcDbEntity
  8
A1
  6
CONTINUOUS
 62
7
100
AcDbLine
 10
226.5732689483927
 20
251.7622490377771
 30
0.000000000000000
 11
174.0476421257189
 21
251.7622490377771
 31
0.000000000000000
  0
LINE
  5
23D
100
AcDbEntity
  8
A1
  6
CONTINUOUS
 62
7
100
AcDbLine
 10
174.0476421257189
 20
225.2622490364572
 30
0.000000000000000
 11
226.5732666058776
 21
225.2622490364572
 31
0.000000000000000
  0
LINE
  5
23E
100
AcDbEntity
  8
A1
  6
CONTINUOUS
 62
7
100
AcDbLine
 10
224.0732663160789
 20
236.7622490378380
 30
0.000000000000000
 11
224.0732663160789
 21
225.2622490364571
 31
0.000000000000000
  0
LINE
  5
23F
100
AcDbEntity
  8
A1
  6
CONTINUOUS
 62
7
100
AcDbLine
 10
224.0732663160789
 20
251.7622490377771
 30
0.000000000000000
 11
224.0732663160789
 21
240.2622490363972
 31
0.000000000000000
  0
LINE
  5
240
100
AcDbEntity
  8
A1
  6
CONTINUOUS
 62
7
100
AcDbLine
 10
225.0732663150589
 20
224.2622490374772
 30
0.000000000000000
 11
225.0732663150589
 21
222.7622490374981
 31
0.000000000000000
  0
LINE
  5
241
100
AcDbEntity
  8
A1
  6
CONTINUOUS
 62
7
100
AcDbLine
 10
225.0732663150589
 20
239.2622490374172
 30
0.000000000000000
 11
225.0732663150589
 21
237.7622490374372
 31
0.000000000000000
  0
LINE
  5
242
100
AcDbEntity
  8
A1
  6
CONTINUOUS
 62
7
100
AcDbLine
 10
225.0732663150589
 20
254.2622490373581
 30
0.000000000000000
 11
225.0732663150589
 21
252.7622490373781
 31
0.000000000000000
  0
LINE
  5
243
100
AcDbEntity
  8
A1
  6
CONTINUOUS
 62
7
100
AcDbLine
 10
226.5732685718384
 20
221.7622490378971
 30
0.000000000000000
 11
174.0476421257189
 21
221.7622490378971
 31
0.000000000000000
  0
LINE
  5
244
100
AcDbEntity
  8
A1
  6
CONTINUOUS
 62
7
100
AcDbLine
 10
227.5732685718369
 20
222.7622503485377
 30
0.000000000000000
 11
227.5732666058760
 21
224.2622503470978
 31
0.000000000000000
  0
LINE
  5
245
100
AcDbEntity
  8
A1
  6
CONTINUOUS
 62
7
100
AcDbLine
 10
227.5732689483906
 20
252.7622505389177
 30
0.000000000000000
 11
227.5732666966798
 21
254.2622505374777
 31
0.000000000000000
  0
ARC
  5
246
100
AcDbEntity
  8
A1
  6
CONTINUOUS
 62
7
100
AcDbCircle
 10
226.5732685718385
 20
222.7622490378971
 30
0.000000000000000
 40
1.000000000000000
100
AcDbArc
 50
270.0000000000000
 51
360.0000000000000
  0
ARC
  5
247
100
AcDbEntity
  8
A1
  6
CONTINUOUS
 62
7
100
AcDbCircle
 10
226.5732666058777
 20
224.2622490364571
 30
0.000000000000000
 40
1.000000000000000
100
AcDbArc
 50
0.000000000000000
 51
90.00000000000000
  0
ARC
  5
248
100
AcDbEntity
  8
A1
  6
CONTINUOUS
 62
7
100
AcDbCircle
 10
226.5732689483927
 20
252.7622490377771
 30
0.000000000000000
 40
1.000000000000000
100
AcDbArc
 50
270.0000000000000
 51
360.0000000000000
  0
ARC
  5
249
100
AcDbEntity
  8
A1
  6
CONTINUOUS
 62
7
100
AcDbCircle
 10
226.5732666966820
 20
254.2622490363372
 30
0.000000000000000
 40
1.000000000000000
100
AcDbArc
 50
0.000000000000000
 51
90.00000000000000
  0
LINE
  5
24A
100
AcDbEntity
  8
A1
  6
CONTINUOUS
 62
7
100
AcDbLine
 10
174.0476421254155
 20
240.2622490346573
 30
0.000000000000000
 11
229.8232663177358
 21
240.2622490346573
 31
0.000000000000000
  0
LINE
  5
24B
100
AcDbEntity
  8
A1
  6
CONTINUOUS
 62
7
100
AcDbLine
 10
229.8232663177358
 20
236.7622490360982
 30
0.000000000000000
 11
174.0476421254155
 21
236.7622490360982
 31
0.000000000000000
  0
ARC
  5
24C
100
AcDbEntity
  8
A1
  6
CONTINUOUS
 62
7
100
AcDbCircle
 10
229.8232663177358
 20
238.5122490353776
 30
0.000000000000000
 40
1.749999999279567
100
AcDbArc
 50
270.0000000000000
 51
450.0000000000000
  0
LINE
  5
24D
100
AcDbEntity
  8
A1
  6
CONTINUOUS
 62
7
100
AcDbLine
 10
77.54764212670791
 20
134.5122490370093
 30
0.000000000000000
 11
126.5476421267213
 21
134.5122490370093
 31
0.000000000000000
  0
LINE
  5
24E
100
AcDbEntity
  8
A1
  6
CONTINUOUS
 62
7
100
AcDbLine
 10
79.04764212667057
 20
136.5122490369652
 30
0.000000000000000
 11
125.0476421267388
 21
136.5122490369189
 31
0.000000000000000
  0
LINE
  5
24F
100
AcDbEntity
  8
A1
  6
CONTINUOUS
 62
7
100
AcDbLine
 10
103.7976421267048
 20
166.5122490369323
 30
0.000000000000000
 11
115.2976421258192
 21
166.5122490369248
 31
0.000000000000000
  0
LINE
  5
250
100
AcDbEntity
  8
A1
  6
CONTINUOUS
 62
7
100
AcDbLine
 10
118.7976421258198
 20
166.5122490369225
 30
0.000000000000000
 11
126.5476421269541
 21
166.5122490369174
 31
0.000000000000000
  0
LINE
  5
251
100
AcDbEntity
  8
A1
  6
CONTINUOUS
 62
7
100
AcDbLine
 10
77.54764212668796
 20
166.5122490369495
 30
0.000000000000000
 11
85.29764212758960
 21
166.5122490369445
 31
0.000000000000000
  0
LINE
  5
252
100
AcDbEntity
  8
A1
  6
CONTINUOUS
 62
7
100
AcDbLine
 10
88.79764212759014
 20
166.5122490369422
 30
0.000000000000000
 11
100.2976421267043
 21
166.5122490369347
 31
0.000000000000000
  0
LINE
  5
253
100
AcDbEntity
  8
A4
  6
CENTER
 62
1
100
AcDbLine
 10
102.0476421267047
 20
133.0122490371502
 30
0.000000000000000
 11
102.0476421267047
 21
169.0122490369334
 31
0.000000000000000
  0
LINE
  5
254
100
AcDbEntity
  8
A4
  6
CENTER
 62
1
100
AcDbLine
 10
117.0476421267386
 20
138.0122490369570
 30
0.000000000000000
 11
117.0476421267386
 21
133.0122490371502
 31
0.000000000000000
  0
LINE
  5
255
100
AcDbEntity
  8
A4
  6
CENTER
 62
1
100
AcDbLine
 10
70.54764212667074
 20
140.5122490370091
 30
0.000000000000000
 11
133.5476421267383
 21
140.5122490370091
 31
0.000000000000000
  0
LINE
  5
256
100
AcDbEntity
  8
A1
  6
CONTINUOUS
 62
7
100
AcDbLine
 10
100.2976421267043
 20
145.0122490370093
 30
0.000000000000000
 11
88.79764212759014
 21
145.0122490370093
 31
0.000000000000000
  0
LINE
  5
257
100
AcDbEntity
  8
A1
  6
CONTINUOUS
 62
7
100
AcDbLine
 10
115.2976421258192
 20
145.0122490370093
 30
0.000000000000000
 11
103.7976421267049
 21
145.0122490370093
 31
0.000000000000000
  0
LINE
  5
258
100
AcDbEntity
  8
A1
  6
CONTINUOUS
 62
7
100
AcDbLine
 10
77.54764212668796
 20
166.5122490369495
 30
0.000000000000000
 11
77.54764212671034
 21
145.0122490370094
 31
0.000000000000000
  0
LINE
  5
259
100
AcDbEntity
  8
A1
  6
CONTINUOUS
 62
7
100
AcDbLine
 10
129.0476421267389
 20
147.0122490370093
 30
0.000000000000000
 11
126.5476421267012
 21
147.0122490370093
 31
0.000000000000000
  0
LINE
  5
25A
100
AcDbEntity
  8
A1
  6
CONTINUOUS
 62
7
100
AcDbLine
 10
131.0476421267389
 20
146.0122490369208
 30
0.000000000000000
 11
131.0476421267389
 21
135.0122490369208
 31
0.000000000000000
  0
LINE
  5
25B
100
AcDbEntity
  8
A1
  6
CONTINUOUS
 62
7
100
AcDbLine
 10
131.0476421267390
 20
146.0122490369209
 30
0.000000000000000
 11
130.7796929343590
 21
146.0122490369206
 31
0.000000000000000
  0
LINE
  5
25C
100
AcDbEntity
  8
A1
  6
CONTINUOUS
 62
7
100
AcDbLine
 10
131.0476421267389
 20
135.0122490369208
 30
0.000000000000000
 11
129.0476421268959
 21
135.0122490369188
 31
0.000000000000000
  0
LINE
  5
25D
100
AcDbEntity
  8
A1
  6
CONTINUOUS
 62
7
100
AcDbLine
 10
129.0476421268959
 20
135.0122490369189
 30
0.000000000000000
 11
129.0476421269168
 21
145.0122490370094
 31
0.000000000000000
  0
ARC
  5
25E
100
AcDbEntity
  8
A1
  6
CONTINUOUS
 62
7
100
AcDbCircle
 10
129.0476421267389
 20
145.0122490370093
 30
0.000000000000000
 40
2.000000000000000
100
AcDbArc
 50
0.000000000000000
 51
90.00000000000000
  0
LINE
  5
25F
100
AcDbEntity
  8
A1
  6
CONTINUOUS
 62
7
100
AcDbLine
 10
131.0476421267389
 20
145.5122490370094
 30
0.000000000000000
 11
132.5476421267389
 21
145.5122490370094
 31
0.000000000000000
  0
LINE
  5
260
100
AcDbEntity
  8
A1
  6
CONTINUOUS
 62
7
100
AcDbLine
 10
132.5476421267389
 20
145.5122490370094
 30
0.000000000000000
 11
132.5476421267389
 21
135.5122490370094
 31
0.000000000000000
  0
LINE
  5
261
100
AcDbEntity
  8
A1
  6
CONTINUOUS
 62
7
100
AcDbLine
 10
132.5476421267389
 20
145.5122490370094
 30
0.000000000000000
 11
133.0476421267389
 21
145.0122490370094
 31
0.000000000000000
  0
LINE
  5
262
100
AcDbEntity
  8
A1
  6
CONTINUOUS
 62
7
100
AcDbLine
 10
133.0476421267389
 20
136.0122490370094
 30
0.000000000000000
 11
133.0476421267389
 21
145.0122490370094
 31
0.000000000000000
  0
LINE
  5
263
100
AcDbEntity
  8
A1
  6
CONTINUOUS
 62
7
100
AcDbLine
 10
133.0476421267389
 20
136.0122490370094
 30
0.000000000000000
 11
132.5476421267389
 21
135.5122490370094
 31
0.000000000000000
  0
LINE
  5
264
100
AcDbEntity
  8
A1
  6
CONTINUOUS
 62
7
100
AcDbLine
 10
132.5476421267389
 20
135.5122490370094
 30
0.000000000000000
 11
131.0476421267389
 21
135.5122490370094
 31
0.000000000000000
  0
LINE
  5
265
100
AcDbEntity
  8
A1
  6
CONTINUOUS
 62
7
100
AcDbLine
 10
118.7976421258197
 20
145.0122490370093
 30
0.000000000000000
 11
129.0476421269167
 21
145.0122490370093
 31
0.000000000000000
  0
ARC
  5
266
100
AcDbEntity
  8
A1
  6
CONTINUOUS
 62
7
100
AcDbCircle
 10
125.0476421267388
 20
136.5122490370093
 30
0.000000000000000
 40
2.000000000000000
100
AcDbArc
 50
270.0000000000000
 51
360.0000000000000
  0
LINE
  5
267
100
AcDbEntity
  8
A1
  6
CONTINUOUS
 62
7
100
AcDbLine
 10
126.5476421267014
 20
135.0122490370091
 30
0.000000000000000
 11
126.5476421267015
 21
134.5122490370047
 31
0.000000000000000
  0
LINE
  5
268
100
AcDbEntity
  8
A1
  6
CONTINUOUS
 62
7
100
AcDbLine
 10
126.5476421266880
 20
166.5122490369174
 30
0.000000000000000
 11
126.5476421267103
 21
145.0122490370093
 31
0.000000000000000
  0
LINE
  5
269
100
AcDbEntity
  8
A1
  6
CONTINUOUS
 62
7
100
AcDbLine
 10
100.5476421267047
 20
136.5122490369435
 30
0.000000000000000
 11
100.5476421267047
 21
144.3508112091610
 31
0.000000000000000
  0
LINE
  5
26A
100
AcDbEntity
  8
A1
  6
CONTINUOUS
 62
7
100
AcDbLine
 10
103.5476421267047
 20
136.5122490369405
 30
0.000000000000000
 11
103.5476421267047
 21
144.3508112091612
 31
0.000000000000000
  0
LINE
  5
26B
100
AcDbEntity
  8
A1
  6
CONTINUOUS
 62
7
100
AcDbLine
 10
125.0476421267388
 20
145.0122490370093
 30
0.000000000000000
 11
125.0476421267388
 21
136.5122490369651
 31
0.000000000000000
  0
LINE
  5
26C
100
AcDbEntity
  8
A1
  6
CONTINUOUS
 62
7
100
AcDbLine
 10
121.5030394004571
 20
145.0122490370104
 30
0.000000000000000
 11
121.7649687229976
 21
144.4331464514101
 31
0.000000000000000
  0
LINE
  5
26D
100
AcDbEntity
  8
A1
  6
CONTINUOUS
 62
7
100
AcDbLine
 10
121.7649687229976
 20
136.5913516227099
 30
0.000000000000000
 11
121.7291904564039
 21
136.5122490369637
 31
0.000000000000000
  0
ARC
  5
26E
100
AcDbEntity
  8
A1
  6
CONTINUOUS
 62
7
100
AcDbCircle
 10
120.9449473158976
 20
144.0622490370101
 30
0.000000000000000
 40
0.9000000000000057
100
AcDbArc
 50
0.000000000000000
 51
24.33734000230000
  0
ARC
  5
26F
100
AcDbEntity
  8
A1
  6
CONTINUOUS
 62
7
100
AcDbCircle
 10
120.9449473158976
 20
136.9622490370101
 30
0.000000000000000
 40
0.8999999999999986
100
AcDbArc
 50
335.6626599977000
 51
360.0000000000000
  0
LINE
  5
270
100
AcDbEntity
  8
A1
  6
CONTINUOUS
 62
7
100
AcDbLine
 10
121.9607041754913
 20
136.5122490369640
 30
0.000000000000000
 11
121.9249259088976
 21
136.5913516227101
 31
0.000000000000000
  0
LINE
  5
271
100
AcDbEntity
  8
A1
  6
CONTINUOUS
 62
7
100
AcDbLine
 10
121.9249259088976
 20
144.4331464514102
 30
0.000000000000000
 11
122.1868552314381
 21
145.0122490370104
 31
0.000000000000000
  0
ARC
  5
272
100
AcDbEntity
  8
A1
  6
CONTINUOUS
 62
7
100
AcDbCircle
 10
122.7449473158975
 20
136.9622490370101
 30
0.000000000000000
 40
0.9000000000000057
100
AcDbArc
 50
180.0000000000000
 51
204.3373400023000
  0
ARC
  5
273
100
AcDbEntity
  8
A1
  6
CONTINUOUS
 62
7
100
AcDbCircle
 10
122.7449473158975
 20
144.0622490370101
 30
0.000000000000000
 40
0.9000000000000057
100
AcDbArc
 50
155.6626599977000
 51
180.0000000000000
  0
LINE
  5
274
100
AcDbEntity
  8
A1
  6
CONTINUOUS
 62
7
100
AcDbLine
 10
121.4449473158976
 20
141.1865728485101
 30
0.000000000000000
 11
121.4449473158976
 21
145.0122490370103
 31
0.000000000000000
  0
SPLINE
  5
275
100
AcDbEntity
  8
A1
  6
CONTINUOUS
 62
7
100
AcDbSpline
210
0.000000000000000
220
0.000000000000000
230
1.000000000000000
 70
     8
 71
     3
 72
    15
 73
    11
 74
     0
 42
1.000000000000000e-07
 43
1.000000000000000e-07
 12
0.000000000000000
 22
0.08448607604896097
 32
0.000000000000000
 13
0.000000000000000
 23
6.052014924101968
 33
0.000000000000000
 40
0.000000000000000
 40
0.000000000000000
 40
0.000000000000000
 40
0.000000000000000
 40
0.08006105741610750
 40
0.1950534252390940
 40
0.3100457930620805
 40
0.4250381608850669
 40
0.5400305287080536
 40
0.6550228965310403
 40
0.7700152643540269
 40
0.8850076321770135
 40
1.000000000000000
 40
1.000000000000000
 40
1.000000000000000
 10
121.8449473159224
 20
136.9767050001368
 30
0.000000000000000
 10
121.8449473159224
 20
136.9789596816653
 30
0.000000000000000
 10
121.8449473159224
 20
137.1387801782489
 30
0.000000000000000
 10
121.8449473159224
 20
137.4275253693342
 30
0.000000000000000
 10
121.8449473159224
 20
137.8398376891367
 30
0.000000000000000
 10
121.8449473159224
 20
138.3534795646425
 30
0.000000000000000
 10
121.8449473159224
 20
138.9505376669844
 30
0.000000000000000
 10
121.8449473159224
 20
139.6071574684954
 30
0.000000000000000
 10
121.8449473159224
 20
140.2999194765985
 30
0.000000000000000
 10
121.8449473159224
 20
140.7638764940803
 30
0.000000000000000
 10
121.8449473159224
 20
140.9958550028212
 30
0.000000000000000
  0
SPLINE
  5
276
100
AcDbEntity
  8
A1
  6
CONTINUOUS
 62
7
100
AcDbSpline
210
0.000000000000000
220
0.000000000000000
230
1.000000000000000
 70
     8
 71
     3
 72
    15
 73
    11
 74
     0
 42
1.000000000000000e-07
 43
1.000000000000000e-07
 12
0.000000000000000
 22
5.004145999603679
 32
0.000000000000000
 13
0.000000000000000
 23
-0.2978713074480765
 33
0.000000000000000
 40
0.000000000000000
 40
0.000000000000000
 40
0.000000000000000
 40
0.000000000000000
 40
0.1369155800548466
 40
0.2738311601096932
 40
0.4107467401645399
 40
0.5476623202193860
 40
0.6845779002742329
 40
0.8214934803290794
 40
0.9584090603839259
 40
1.000000000000000
 40
1.000000000000000
 40
1.000000000000000
 40
1.000000000000000
 10
121.8449473159224
 20
140.9958550028212
 30
0.000000000000000
 10
121.8449473159224
 20
141.2242368535595
 30
0.000000000000000
 10
121.8449473159224
 20
141.6810005550359
 30
0.000000000000000
 10
121.8449473159224
 20
142.3162041968457
 30
0.000000000000000
 10
121.8449473159224
 20
142.8836079275249
 30
0.000000000000000
 10
121.8449473159224
 20
143.3588088149639
 30
0.000000000000000
 10
121.8449473159224
 20
143.7273843363248
 30
0.000000000000000
 10
121.8449473159224
 20
143.9624115428811
 30
0.000000000000000
 10
121.8449473159224
 20
144.0696466465987
 30
0.000000000000000
 10
121.8449473159224
 20
144.0519226564641
 30
0.000000000000000
 10
121.8449473159224
 20
144.0477930739437
 30
0.000000000000000
  0
LINE
  5
277
100
AcDbEntity
  8
A1
  6
CONTINUOUS
 62
7
100
AcDbLine
 10
123.0449473158976
 20
144.7930404865101
 30
0.000000000000000
 11
123.0449473158976
 21
136.5122490369651
 31
0.000000000000000
  0
LINE
  5
278
100
AcDbEntity
  8
A1
  6
CONTINUOUS
 62
7
100
AcDbLine
 10
123.0449473158976
 20
145.0122490370103
 30
0.000000000000000
 11
123.0449473158976
 21
144.7930404865101
 31
0.000000000000000
  0
LINE
  5
279
100
AcDbEntity
  8
A1
  6
CONTINUOUS
 62
7
100
AcDbLine
 10
123.0449473158976
 20
136.5122490369651
 30
0.000000000000000
 11
123.0449473158976
 21
145.0122490370103
 31
0.000000000000000
  0
SPLINE
  5
27A
100
AcDbEntity
  8
A1
  6
CONTINUOUS
 62
7
100
AcDbSpline
210
0.000000000000000
220
0.000000000000000
230
1.000000000000000
 70
     8
 71
     3
 72
    23
 73
    19
 74
     0
 42
1.000000000000000e-07
 43
1.000000000000000e-07
 12
0.000000000000000
 22
-0.6341796790529770
 32
0.000000000000000
 13
-2.728484105318785e-12
 23
-0.6341796790493390
 33
0.000000000000000
 40
0.000000000000000
 40
0.000000000000000
 40
0.000000000000000
 40
0.000000000000000
 40
0.06250000000000010
 40
0.1250000000000000
 40
0.1875000000000000
 40
0.2499999999999998
 40
0.3125000000000000
 40
0.3749999999999999
 40
0.4374999999999998
 40
0.4999999999999998
 40
0.5625000000000000
 40
0.6249999999999999
 40
0.6874999999999999
 40
0.7500000000000000
 40
0.8124999999999999
 40
0.8750000000000000
 40
0.9374999999999999
 40
1.000000000000000
 40
1.000000000000000
 40
1.000000000000000
 40
1.000000000000000
 10
121.8449473159224
 20
144.0622490370402
 30
0.000000000000000
 10
121.8449473159224
 20
144.0490369603933
 30
0.000000000000000
 10
121.8449473159224
 20
144.0226128070995
 30
0.000000000000000
 10
121.8449473159224
 20
143.8115204293927
 30
0.000000000000000
 10
121.8449473159224
 20
143.4834337400631
 30
0.000000000000000
 10
121.8449473159224
 20
143.0385415746428
 30
0.000000000000000
 10
121.8449473159224
 20
142.4972686228830
 30
0.000000000000000
 10
121.8449473159224
 20
141.8795241193869
 30
0.000000000000000
 10
121.8449473159224
 20
141.2092862311900
 30
0.000000000000000
 10
121.8449473159224
 20
140.5122490370406
 30
0.000000000000000
 10
121.8449473159224
 20
139.8152118428913
 30
0.000000000000000
 10
121.8449473159224
 20
139.1449739546943
 30
0.000000000000000
 10
121.8449473159224
 20
138.5272294511982
 30
0.000000000000000
 10
121.8449473159224
 20
137.9859564994382
 30
0.000000000000000
 10
121.8449473159224
 20
137.5410643340179
 30
0.000000000000000
 10
121.8449473159224
 20
137.2129776446880
 30
0.000000000000000
 10
121.8449473159224
 20
137.0018852669811
 30
0.000000000000000
 10
121.8449473159224
 20
136.9754611136871
 30
0.000000000000000
 10
121.8449473159224
 20
136.9622490370403
 30
0.000000000000000
  0
LINE
  5
27B
100
AcDbEntity
  8
A1
  6
CONTINUOUS
 62
7
100
AcDbLine
 10
122.2449473158976
 20
145.0122490370103
 30
0.000000000000000
 11
122.2449473158976
 21
136.5122490369643
 31
0.000000000000000
  0
LINE
  5
27C
100
AcDbEntity
  8
A1
  6
CONTINUOUS
 62
7
100
AcDbLine
 10
121.4449473158976
 20
136.5122490369635
 30
0.000000000000000
 11
121.4449473158976
 21
141.1865728485101
 31
0.000000000000000
  0
LINE
  5
27D
100
AcDbEntity
  8
A1
  6
CONTINUOUS
 62
7
100
AcDbLine
 10
128.0476421267047
 20
135.5122490370090
 30
0.000000000000000
 11
128.0476421267047
 21
145.0122490370091
 31
0.000000000000000
  0
LINE
  5
27E
100
AcDbEntity
  8
A1
  6
CONTINUOUS
 62
7
100
AcDbLine
 10
127.0476421267047
 20
135.5122490370090
 30
0.000000000000000
 11
128.0476421267047
 21
135.5122490370090
 31
0.000000000000000
  0
LINE
  5
27F
100
AcDbEntity
  8
A1
  6
CONTINUOUS
 62
7
100
AcDbLine
 10
128.0476421267047
 20
135.6122490370090
 30
0.000000000000000
 11
129.0476421267047
 21
135.6122490370090
 31
0.000000000000000
  0
LINE
  5
280
100
AcDbEntity
  8
A1
  6
CONTINUOUS
 62
7
100
AcDbLine
 10
125.0476421267046
 20
142.0122490370100
 30
0.000000000000000
 11
124.0476421267047
 21
142.0122490370100
 31
0.000000000000000
  0
LINE
  5
281
100
AcDbEntity
  8
A1
  6
CONTINUOUS
 62
7
100
AcDbLine
 10
124.0476421267047
 20
139.0122490370101
 30
0.000000000000000
 11
125.0476421267048
 21
139.0122490370101
 31
0.000000000000000
  0
LINE
  5
282
100
AcDbEntity
  8
A1
  6
CONTINUOUS
 62
7
100
AcDbLine
 10
124.0476421267047
 20
136.5122490369651
 30
0.000000000000000
 11
124.0476421267047
 21
145.0122490370103
 31
0.000000000000000
  0
LINE
  5
283
100
AcDbEntity
  8
A1
  6
CONTINUOUS
 62
7
100
AcDbLine
 10
126.3705177822370
 20
135.0122490370090
 30
0.000000000000000
 11
127.0476421267076
 21
135.0122490370090
 31
0.000000000000000
  0
LINE
  5
284
100
AcDbEntity
  8
A1
  6
CONTINUOUS
 62
7
100
AcDbLine
 10
126.5476421267018
 20
134.5122490370090
 30
0.000000000000000
 11
126.5476421267018
 21
135.0122490370090
 31
0.000000000000000
  0
LINE
  5
285
100
AcDbEntity
  8
A1
  6
CONTINUOUS
 62
7
100
AcDbLine
 10
127.0476421267076
 20
135.0122490370091
 30
0.000000000000000
 11
127.0476421267388
 21
145.0122490370093
 31
0.000000000000000
  0
LINE
  5
286
100
AcDbEntity
  8
A4
  6
CENTER
 62
1
100
AcDbLine
 10
87.04764212667082
 20
138.0122490369570
 30
0.000000000000000
 11
87.04764212667082
 21
133.0122490371502
 31
0.000000000000000
  0
LINE
  5
287
100
AcDbEntity
  8
A1
  6
CONTINUOUS
 62
7
100
AcDbLine
 10
75.04764212667044
 20
147.0122490370093
 30
0.000000000000000
 11
77.54764212670818
 21
147.0122490370093
 31
0.000000000000000
  0
LINE
  5
288
100
AcDbEntity
  8
A1
  6
CONTINUOUS
 62
7
100
AcDbLine
 10
73.04764212667044
 20
146.0122490369208
 30
0.000000000000000
 11
73.04764212667044
 21
135.0122490369208
 31
0.000000000000000
  0
LINE
  5
289
100
AcDbEntity
  8
A1
  6
CONTINUOUS
 62
7
100
AcDbLine
 10
73.04764212667037
 20
146.0122490369209
 30
0.000000000000000
 11
73.31559131905037
 21
146.0122490369207
 31
0.000000000000000
  0
LINE
  5
28A
100
AcDbEntity
  8
A1
  6
CONTINUOUS
 62
7
100
AcDbLine
 10
73.04764212667045
 20
135.0122490369208
 30
0.000000000000000
 11
75.04764212651345
 21
135.0122490369188
 31
0.000000000000000
  0
LINE
  5
28B
100
AcDbEntity
  8
A1
  6
CONTINUOUS
 62
7
100
AcDbLine
 10
75.04764212651345
 20
135.0122490369188
 30
0.000000000000000
 11
75.04764212649262
 21
145.0122490370093
 31
0.000000000000000
  0
ARC
  5
28C
100
AcDbEntity
  8
A1
  6
CONTINUOUS
 62
7
100
AcDbCircle
 10
75.04764212667044
 20
145.0122490370093
 30
0.000000000000000
 40
2.000000000000000
100
AcDbArc
 50
90.00000000000000
 51
180.0000000000000
  0
LINE
  5
28D
100
AcDbEntity
  8
A1
  6
CONTINUOUS
 62
7
100
AcDbLine
 10
73.04764212667043
 20
145.5122490370094
 30
0.000000000000000
 11
71.54764212667043
 21
145.5122490370094
 31
0.000000000000000
  0
LINE
  5
28E
100
AcDbEntity
  8
A1
  6
CONTINUOUS
 62
7
100
AcDbLine
 10
71.54764212667043
 20
145.5122490370094
 30
0.000000000000000
 11
71.54764212667043
 21
135.5122490370094
 31
0.000000000000000
  0
LINE
  5
28F
100
AcDbEntity
  8
A1
  6
CONTINUOUS
 62
7
100
AcDbLine
 10
71.54764212667048
 20
145.5122490370093
 30
0.000000000000000
 11
71.04764212667048
 21
145.0122490370093
 31
0.000000000000000
  0
LINE
  5
290
100
AcDbEntity
  8
A1
  6
CONTINUOUS
 62
7
100
AcDbLine
 10
71.04764212667043
 20
136.0122490370094
 30
0.000000000000000
 11
71.04764212667043
 21
145.0122490370094
 31
0.000000000000000
  0
LINE
  5
291
100
AcDbEntity
  8
A1
  6
CONTINUOUS
 62
7
100
AcDbLine
 10
71.04764212667048
 20
136.0122490370094
 30
0.000000000000000
 11
71.54764212667048
 21
135.5122490370094
 31
0.000000000000000
  0
LINE
  5
292
100
AcDbEntity
  8
A1
  6
CONTINUOUS
 62
7
100
AcDbLine
 10
71.54764212667043
 20
135.5122490370094
 30
0.000000000000000
 11
73.04764212667043
 21
135.5122490370094
 31
0.000000000000000
  0
LINE
  5
293
100
AcDbEntity
  8
A1
  6
CONTINUOUS
 62
7
100
AcDbLine
 10
85.29764212758957
 20
145.0122490370093
 30
0.000000000000000
 11
75.04764212649265
 21
145.0122490370093
 31
0.000000000000000
  0
ARC
  5
294
100
AcDbEntity
  8
A1
  6
CONTINUOUS
 62
7
100
AcDbCircle
 10
79.04764212667057
 20
136.5122490370093
 30
0.000000000000000
 40
2.000000000000000
100
AcDbArc
 50
180.0000000000000
 51
270.0000000000000
  0
LINE
  5
295
100
AcDbEntity
  8
A1
  6
CONTINUOUS
 62
7
100
AcDbLine
 10
77.54764212670801
 20
135.0122490370090
 30
0.000000000000000
 11
77.54764212670790
 21
134.5122490370046
 31
0.000000000000000
  0
LINE
  5
296
100
AcDbEntity
  8
A1
  6
CONTINUOUS
 62
7
100
AcDbLine
 10
79.04764212667057
 20
145.0122490370093
 30
0.000000000000000
 11
79.04764212667057
 21
136.5122490369651
 31
0.000000000000000
  0
LINE
  5
297
100
AcDbEntity
  8
A1
  6
CONTINUOUS
 62
7
100
AcDbLine
 10
94.24764212669410
 20
138.6122490370090
 30
0.000000000000000
 11
94.24764212669410
 21
142.4122490370090
 31
0.000000000000000
  0
SPLINE
  5
298
100
AcDbEntity
  8
A1
  6
CONTINUOUS
 62
7
100
AcDbSpline
210
0.000000000000000
220
0.000000000000000
230
1.000000000000000
 70
     8
 71
     3
 72
     9
 73
     5
 74
     0
 42
1.000000000000000e-07
 43
1.000000000000000e-07
 12
0.03649585780726738
 22
-0.9993338042728510
 32
0.000000000000000
 13
0.01646096591093738
 23
-0.9998645091211529
 33
0.000000000000000
 40
0.000000000000000
 40
0.000000000000000
 40
0.000000000000000
 40
0.000000000000000
 40
0.4220918469159522
 40
0.7787154512446485
 40
0.7787154512446485
 40
0.7787154512446485
 40
0.7787154512446485
 10
90.35044782996738
 20
139.3205841539928
 30
0.000000000000000
 10
90.35558269797627
 20
139.1799806036158
 30
0.000000000000000
 10
90.36364701688763
 20
138.9205280433804
 30
0.000000000000000
 10
90.36911100002754
 20
138.6610098907878
 30
0.000000000000000
 10
90.37106778969218
 20
138.5421514624267
 30
0.000000000000000
  0
SPLINE
  5
299
100
AcDbEntity
  8
A1
  6
CONTINUOUS
 62
7
100
AcDbSpline
210
0.000000000000000
220
0.000000000000000
230
1.000000000000000
 70
     8
 71
     3
 72
    10
 73
     6
 74
     0
 42
1.000000000000000e-07
 43
1.000000000000000e-07
 12
0.2625975204389306
 22
0.9649054576793787
 32
0.000000000000000
 13
0.4251395396204316
 23
0.9058196235855576
 33
0.000000000000000
 40
0.000000000000000
 40
0.000000000000000
 40
0.000000000000000
 40
0.000000000000000
 40
0.3463753664813331
 40
0.7026702804722820
 40
0.7685314884805285
 40
0.7685314884805285
 40
0.7685314884805285
 40
0.7685314884805285
 10
86.85033693751330
 20
143.2928386850519
 30
0.000000000000000
 10
86.88065604163967
 20
143.4042451788930
 30
0.000000000000000
 10
86.95117389814112
 20
143.6279943354889
 30
0.000000000000000
 10
87.05002411910291
 20
143.8645490037377
 30
0.000000000000000
 10
87.10909976820638
 20
143.9923629121286
 30
0.000000000000000
 10
87.11843316942353
 20
144.0122490370109
 30
0.000000000000000
  0
SPLINE
  5
29A
100
AcDbEntity
  8
A1
  6
CONTINUOUS
 62
7
100
AcDbSpline
210
0.000000000000000
220
0.000000000000000
230
1.000000000000000
 70
     8
 71
     3
 72
    10
 73
     6
 74
     0
 42
1.000000000000000e-07
 43
1.000000000000000e-07
 12
-0.2625630072479908
 22
-0.9649148497273927
 32
0.000000000000000
 13
-0.5073173780551201
 23
-0.8617592923336588
 33
0.000000000000000
 40
0.000000000000000
 40
0.000000000000000
 40
0.000000000000000
 40
0.000000000000000
 40
0.3463958569278622
 40
0.7026720071199912
 40
1.266229999885125
 40
1.266229999885125
 40
1.266229999885125
 40
1.266229999885125
 10
90.35033679094261
 20
141.6720714430022
 30
0.000000000000000
 10
90.32001987831154
 20
141.5606572742576
 30
0.000000000000000
 10
90.24950625608506
 20
141.3369056856898
 30
0.000000000000000
 10
90.08662743730122
 20
140.9471644881108
 30
0.000000000000000
 10
89.94563785858168
 20
140.6741328160197
 30
0.000000000000000
 10
89.85033693749114
 20
140.5122490370083
 30
0.000000000000000
  0
SPLINE
  5
29B
100
AcDbEntity
  8
A1
  6
CONTINUOUS
 62
7
100
AcDbSpline
210
0.000000000000000
220
0.000000000000000
230
1.000000000000000
 70
     8
 71
     3
 72
    11
 73
     7
 74
     0
 42
1.000000000000000e-07
 43
1.000000000000000e-07
 12
0.03615734733921272
 22
-0.9993461093301903
 32
0.000000000000000
 13
-0.02510986520110237
 23
-0.9996846976268898
 33
0.000000000000000
 40
0.000000000000000
 40
0.000000000000000
 40
0.000000000000000
 40
0.000000000000000
 40
0.4539807553011772
 40
0.9078983924375615
 40
1.264607902357299
 40
1.621297183207188
 40
1.621297183207188
 40
1.621297183207188
 40
1.621297183207188
 10
90.35033691221724
 20
143.2928416928608
 30
0.000000000000000
 10
90.35580849216882
 20
143.1416137256872
 30
0.000000000000000
 10
90.36313351637722
 20
142.8391169198686
 30
0.000000000000000
 10
90.37570352944840
 20
142.4175343471414
 30
0.000000000000000
 10
90.35849160932827
 20
142.0286582626075
 30
0.000000000000000
 10
90.35332226419621
 20
141.7909303816266
 30
0.000000000000000
 10
90.35033679094261
 20
141.6720714430022
 30
0.000000000000000
  0
SPLINE
  5
29C
100
AcDbEntity
  8
A1
  6
CONTINUOUS
 62
7
100
AcDbSpline
210
0.000000000000000
220
0.000000000000000
230
1.000000000000000
 70
     8
 71
     3
 72
    11
 73
     7
 74
     0
 42
1.000000000000000e-07
 43
1.000000000000000e-07
 12
0.2624855136282349
 22
-0.9649359331765481
 32
0.000000000000000
 13
0.5026399939659996
 23
-0.8644958279060120
 33
0.000000000000000
 40
0.000000000000000
 40
0.000000000000000
 40
0.000000000000000
 40
0.000000000000000
 40
0.3265956261599907
 40
0.6739271542583333
 40
0.9627244097129505
 40
1.266393407951192
 40
1.266393407951192
 40
1.266393407951192
 40
1.266393407951192
 10
86.85033693751467
 20
137.7316593889579
 30
0.000000000000000
 10
86.87891247774178
 20
137.6266114371912
 30
0.000000000000000
 10
86.94615238104171
 20
137.4119620115111
 30
0.000000000000000
 10
87.06799042674447
 20
137.1147124894117
 30
0.000000000000000
 10
87.20469845470114
 20
136.8327280220503
 30
0.000000000000000
 10
87.29945820970244
 20
136.6593403104667
 30
0.000000000000000
 10
87.35033693751649
 20
136.5718334497862
 30
0.000000000000000
  0
SPLINE
  5
29D
100
AcDbEntity
  8
A1
  6
CONTINUOUS
 62
7
100
AcDbSpline
210
0.000000000000000
220
0.000000000000000
230
1.000000000000000
 70
     8
 71
     3
 72
    11
 73
     7
 74
     0
 42
1.000000000000000e-07
 43
1.000000000000000e-07
 12
0.5040077518626731
 22
0.8636991293631127
 32
0.000000000000000
 13
0.2605932947556084
 23
0.9654486701672340
 33
0.000000000000000
 40
0.000000000000000
 40
0.000000000000000
 40
0.000000000000000
 40
0.000000000000000
 40
0.3838453388970219
 40
0.7439534033031969
 40
1.011434196452655
 40
1.266408838001686
 40
1.266408838001686
 40
1.266408838001686
 40
1.266408838001686
 10
89.85033693751450
 20
136.5718334497857
 30
0.000000000000000
 10
89.91482394628798
 20
136.6823424114574
 30
0.000000000000000
 10
90.03231036569366
 20
136.9009655276825
 30
0.000000000000000
 10
90.17310261801242
 20
137.2075845703378
 30
0.000000000000000
 10
90.27755206153500
 20
137.4828198672517
 30
0.000000000000000
 10
90.32818868450659
 20
137.6496014797409
 30
0.000000000000000
 10
90.35033691181337
 20
137.7316564559443
 30
0.000000000000000
  0
SPLINE
  5
29E
100
AcDbEntity
  8
A1
  6
CONTINUOUS
 62
7
100
AcDbSpline
210
0.000000000000000
220
0.000000000000000
230
1.000000000000000
 70
     8
 71
     3
 72
     9
 73
     5
 74
     0
 42
1.000000000000000e-07
 43
1.000000000000000e-07
 12
-0.02209328288199686
 22
-0.9997559136368181
 32
0.000000000000000
 13
-0.03114653408090362
 23
-0.9995148290120142
 33
0.000000000000000
 40
0.000000000000000
 40
0.000000000000000
 40
0.000000000000000
 40
0.000000000000000
 40
0.4540216310744697
 40
0.7728928597764788
 40
0.7728928597764788
 40
0.7728928597764788
 40
0.7728928597764788
 10
90.37106778969218
 20
138.5421514624267
 30
0.000000000000000
 10
90.36772418024890
 20
138.3908478588981
 30
0.000000000000000
 10
90.36134710994048
 20
138.1332943393794
 30
0.000000000000000
 10
90.35380387681744
 20
137.8757732604192
 30
0.000000000000000
 10
90.35049329895338
 20
137.7695344198749
 30
0.000000000000000
  0
SPLINE
  5
29F
100
AcDbEntity
  8
A1
  6
CONTINUOUS
 62
7
100
AcDbSpline
210
0.000000000000000
220
0.000000000000000
230
1.000000000000000
 70
     8
 71
     3
 72
    11
 73
     7
 74
     0
 42
1.000000000000000e-07
 43
1.000000000000000e-07
 12
0.5035322319737361
 22
-0.8639764414399451
 32
0.000000000000000
 13
0.2606607332254498
 23
-0.9654304646915080
 33
0.000000000000000
 40
0.000000000000000
 40
0.000000000000000
 40
0.000000000000000
 40
0.000000000000000
 40
0.3641718797287423
 40
0.7153859529367821
 40
0.9953347093561775
 40
1.266421992669669
 40
1.266421992669669
 40
1.266421992669669
 40
1.266421992669669
 10
89.85033693749114
 20
140.5122490370083
 30
0.000000000000000
 10
89.91146103063176
 20
140.4073703954348
 30
0.000000000000000
 10
90.02476588987741
 20
140.1973503329923
 30
0.000000000000000
 10
90.16484314191268
 20
139.8963375789571
 30
0.000000000000000
 10
90.27305042341703
 20
139.6154900241237
 30
0.000000000000000
 10
90.32678285702099
 20
139.4396651522358
 30
0.000000000000000
 10
90.35033679369985
 20
139.3524265116020
 30
0.000000000000000
  0
SPLINE
  5
2A0
100
AcDbEntity
  8
A1
  6
CONTINUOUS
 62
7
100
AcDbSpline
210
0.000000000000000
220
0.000000000000000
230
1.000000000000000
 70
     8
 71
     3
 72
    11
 73
     7
 74
     0
 42
1.000000000000000e-07
 43
1.000000000000000e-07
 12
0.2624855136311908
 22
-0.9649359331760934
 32
0.000000000000000
 13
0.5026399940468309
 23
-0.8644958278591730
 33
0.000000000000000
 40
0.000000000000000
 40
0.000000000000000
 40
0.000000000000000
 40
0.000000000000000
 40
0.3265956262265045
 40
0.6739271543414724
 40
0.9627244097742134
 40
1.266393407960287
 40
1.266393407960287
 40
1.266393407960287
 40
1.266393407960287
 10
86.85033693751325
 20
141.6720749761776
 30
0.000000000000000
 10
86.87891247774650
 20
141.5670270243896
 30
0.000000000000000
 10
86.94615238105729
 20
141.3523775986838
 30
0.000000000000000
 10
87.06799042676954
 20
141.0551280765661
 30
0.000000000000000
 10
87.20469845472888
 20
140.7731436092270
 30
0.000000000000000
 10
87.29945820973182
 20
140.5997558976723
 30
0.000000000000000
 10
87.35033693754531
 20
140.5122490370116
 30
0.000000000000000
  0
SPLINE
  5
2A1
100
AcDbEntity
  8
A1
  6
CONTINUOUS
 62
7
100
AcDbSpline
210
0.000000000000000
220
0.000000000000000
230
1.000000000000000
 70
     8
 71
     3
 72
    10
 73
     6
 74
     0
 42
1.000000000000000e-07
 43
1.000000000000000e-07
 12
0.2625590712377743
 22
0.9649159207467619
 32
0.000000000000000
 13
0.5073175760804247
 23
0.8617591757559921
 33
0.000000000000000
 40
0.000000000000000
 40
0.000000000000000
 40
0.000000000000000
 40
0.000000000000000
 40
0.3463957830093018
 40
0.7026733303774948
 40
1.266233411790275
 40
1.266233411790275
 40
1.266233411790275
 40
1.266233411790275
 10
86.85033693751535
 20
139.3524230978333
 30
0.000000000000000
 10
86.88065338920455
 20
139.4638373664684
 30
0.000000000000000
 10
86.95116642688214
 20
139.6875896260289
 30
0.000000000000000
 10
87.11404561833911
 20
140.0773319190058
 30
0.000000000000000
 10
87.25503562605263
 20
140.3503646799292
 30
0.000000000000000
 10
87.35033693754531
 20
140.5122490370116
 30
0.000000000000000
  0
ARC
  5
2A2
100
AcDbEntity
  8
A1
  6
CONTINUOUS
 62
7
100
AcDbCircle
 10
91.35033693751558
 20
137.2622490370052
 30
0.000000000000000
 40
0.5000000000000017
100
AcDbArc
 50
270.0000000003279
 51
360.0000000000000
  0
ARC
  5
2A3
100
AcDbEntity
  8
A1
  6
CONTINUOUS
 62
7
100
AcDbCircle
 10
91.35033693751558
 20
143.7622490370044
 30
0.000000000000000
 40
0.5000000000000017
100
AcDbArc
 50
1.923395915849521e-09
 51
89.99999999967218
  0
ARC
  5
2A4
100
AcDbEntity
  8
A1
  6
CONTINUOUS
 62
7
100
AcDbCircle
 10
90.65033693751559
 20
136.4622490370043
 30
0.000000000000000
 40
0.2999999999999958
100
AcDbArc
 50
89.99999999999930
 51
158.5553115445101
  0
LINE
  5
2A5
100
AcDbEntity
  8
A1
  6
CONTINUOUS
 62
7
100
AcDbLine
 10
91.85033693751556
 20
143.7622490370045
 30
0.000000000000000
 11
91.85033693751556
 21
137.2623020490596
 31
0.000000000000000
  0
LINE
  5
2A6
100
AcDbEntity
  8
A1
  6
CONTINUOUS
 62
7
100
AcDbLine
 10
90.65033693751558
 20
136.7622490370048
 30
0.000000000000000
 11
91.35033693751841
 21
136.7622490370048
 31
0.000000000000000
  0
LINE
  5
2A7
100
AcDbEntity
  8
A1
  6
CONTINUOUS
 62
7
100
AcDbLine
 10
91.35033693751842
 20
144.2622490370048
 30
0.000000000000000
 11
90.35033693751558
 21
144.2622490370048
 31
0.000000000000000
  0
LINE
  5
2A8
100
AcDbEntity
  8
A1
  6
CONTINUOUS
 62
7
100
AcDbLine
 10
90.35033693751558
 20
144.4526645700528
 30
0.000000000000000
 11
90.35033693751558
 21
143.2928413760727
 31
0.000000000000000
  0
LINE
  5
2A9
100
AcDbEntity
  8
A1
  6
CONTINUOUS
 62
7
100
AcDbLine
 10
90.35033693751556
 20
137.7316567649146
 30
0.000000000000000
 11
90.35033693751556
 21
136.5718335650030
 31
0.000000000000000
  0
LINE
  5
2AA
100
AcDbEntity
  8
A1
  6
CONTINUOUS
 62
7
100
AcDbLine
 10
90.37106779043613
 20
136.5718334497855
 30
0.000000000000000
 11
90.35033693397463
 21
136.5718335039627
 31
0.000000000000000
  0
LINE
  5
2AB
100
AcDbEntity
  8
A1
  6
CONTINUOUS
 62
7
100
AcDbLine
 10
90.35049329895340
 20
137.7695344198749
 30
0.000000000000000
 11
90.35033691181336
 21
137.7316564559443
 31
0.000000000000000
  0
LINE
  5
2AC
100
AcDbEntity
  8
A1
  6
CONTINUOUS
 62
7
100
AcDbLine
 10
90.35033693751556
 20
140.5062309004512
 30
0.000000000000000
 11
90.35033693751556
 21
139.3524266740063
 31
0.000000000000000
  0
LINE
  5
2AD
100
AcDbEntity
  8
A1
  6
CONTINUOUS
 62
7
100
AcDbLine
 10
90.35033693751556
 20
141.6720712764667
 30
0.000000000000000
 11
90.35033693751556
 21
140.5062309004512
 31
0.000000000000000
  0
LINE
  5
2AE
100
AcDbEntity
  8
A1
  6
CONTINUOUS
 62
7
100
AcDbLine
 10
90.35033679369980
 20
139.3524265116019
 30
0.000000000000000
 11
90.35044782996734
 21
139.3205841539927
 31
0.000000000000000
  0
LINE
  5
2AF
100
AcDbEntity
  8
A1
  6
CONTINUOUS
 62
7
100
AcDbLine
 10
87.35033693754526
 20
140.5122490370117
 30
0.000000000000000
 11
89.85033693749115
 21
140.5122490370083
 31
0.000000000000000
  0
LINE
  5
2B0
100
AcDbEntity
  8
A1
  6
CONTINUOUS
 62
7
100
AcDbLine
 10
86.85033693751387
 20
136.5718334497855
 30
0.000000000000000
 11
90.35033693397460
 21
136.5718335039626
 31
0.000000000000000
  0
LINE
  5
2B1
100
AcDbEntity
  8
A1
  6
CONTINUOUS
 62
7
100
AcDbLine
 10
91.85033693751558
 20
138.6122490370090
 30
0.000000000000000
 11
94.74764212669410
 21
138.6122490370090
 31
0.000000000000000
  0
LINE
  5
2B2
100
AcDbEntity
  8
A1
  6
CONTINUOUS
 62
7
100
AcDbLine
 10
91.85033693751558
 20
142.4122490370090
 30
0.000000000000000
 11
94.74764212669410
 21
142.4122490370090
 31
0.000000000000000
  0
LINE
  5
2B3
100
AcDbEntity
  8
A1
  6
CONTINUOUS
 62
7
100
AcDbLine
 10
82.59224485295225
 20
145.0122490370103
 30
0.000000000000000
 11
82.33031553041177
 21
144.4331464514100
 31
0.000000000000000
  0
LINE
  5
2B4
100
AcDbEntity
  8
A1
  6
CONTINUOUS
 62
7
100
AcDbLine
 10
82.33031553041171
 20
136.5913516227101
 30
0.000000000000000
 11
82.36609379700542
 21
136.5122490369638
 31
0.000000000000000
  0
ARC
  5
2B5
100
AcDbEntity
  8
A1
  6
CONTINUOUS
 62
7
100
AcDbCircle
 10
83.15033693751178
 20
144.0622490370101
 30
0.000000000000000
 40
0.9000000000000057
100
AcDbArc
 50
155.6626599977000
 51
180.0000000000000
  0
ARC
  5
2B6
100
AcDbEntity
  8
A1
  6
CONTINUOUS
 62
7
100
AcDbCircle
 10
83.15033693751178
 20
136.9622490370101
 30
0.000000000000000
 40
0.8999999999999986
100
AcDbArc
 50
180.0000000000000
 51
204.3373400023000
  0
LINE
  5
2B7
100
AcDbEntity
  8
A1
  6
CONTINUOUS
 62
7
100
AcDbLine
 10
82.13458007791814
 20
136.5122490369640
 30
0.000000000000000
 11
82.17035834451181
 21
136.5913516227102
 31
0.000000000000000
  0
LINE
  5
2B8
100
AcDbEntity
  8
A1
  6
CONTINUOUS
 62
7
100
AcDbLine
 10
82.17035834451184
 20
144.4331464514102
 30
0.000000000000000
 11
81.90842902197139
 21
145.0122490370104
 31
0.000000000000000
  0
ARC
  5
2B9
100
AcDbEntity
  8
A1
  6
CONTINUOUS
 62
7
100
AcDbCircle
 10
81.35033693751183
 20
136.9622490370101
 30
0.000000000000000
 40
0.9000000000000057
100
AcDbArc
 50
335.6626599977000
 51
360.0000000000000
  0
ARC
  5
2BA
100
AcDbEntity
  8
A1
  6
CONTINUOUS
 62
7
100
AcDbCircle
 10
81.35033693751183
 20
144.0622490370101
 30
0.000000000000000
 40
0.9000000000000057
100
AcDbArc
 50
0.000000000000000
 51
24.33734000230000
  0
LINE
  5
2BB
100
AcDbEntity
  8
A1
  6
CONTINUOUS
 62
7
100
AcDbLine
 10
84.53458007791701
 20
136.5122490369616
 30
0.000000000000000
 11
84.57035834451170
 21
136.5913516227101
 31
0.000000000000000
  0
ARC
  5
2BC
100
AcDbEntity
  8
A1
  6
CONTINUOUS
 62
7
100
AcDbCircle
 10
83.75033693751180
 20
136.9622490370101
 30
0.000000000000000
 40
0.9000000000000057
100
AcDbArc
 50
335.6626599977000
 51
360.0000000000000
  0
LINE
  5
2BD
100
AcDbEntity
  8
A1
  6
CONTINUOUS
 62
7
100
AcDbLine
 10
84.73031553041179
 20
136.5913516227101
 30
0.000000000000000
 11
84.76609379700656
 21
136.5122490369614
 31
0.000000000000000
  0
ARC
  5
2BE
100
AcDbEntity
  8
A1
  6
CONTINUOUS
 62
7
100
AcDbCircle
 10
85.55033693751180
 20
136.9622490370101
 30
0.000000000000000
 40
0.9000000000000057
100
AcDbArc
 50
180.0000000000000
 51
204.3373400023000
  0
LINE
  5
2BF
100
AcDbEntity
  8
A1
  6
CONTINUOUS
 62
7
100
AcDbLine
 10
83.45033693751178
 20
141.1865728485101
 30
0.000000000000000
 11
83.45033693751178
 21
136.5122490369627
 31
0.000000000000000
  0
LINE
  5
2C0
100
AcDbEntity
  8
A1
  6
CONTINUOUS
 62
7
100
AcDbLine
 10
83.45033693751178
 20
145.0122490370103
 30
0.000000000000000
 11
83.45033693751178
 21
141.1865728485101
 31
0.000000000000000
  0
LINE
  5
2C1
100
AcDbEntity
  8
A1
  6
CONTINUOUS
 62
7
100
AcDbLine
 10
82.65033693751177
 20
141.1865728485101
 30
0.000000000000000
 11
82.65033693751177
 21
145.0122490370103
 31
0.000000000000000
  0
SPLINE
  5
2C2
100
AcDbEntity
  8
A1
  6
CONTINUOUS
 62
7
100
AcDbSpline
210
0.000000000000000
220
0.000000000000000
230
1.000000000000000
 70
     8
 71
     3
 72
    15
 73
    11
 74
     0
 42
1.000000000000000e-07
 43
1.000000000000000e-07
 12
0.000000000000000
 22
0.08448607604896097
 32
0.000000000000000
 13
0.000000000000000
 23
6.052014924101968
 33
0.000000000000000
 40
0.000000000000000
 40
0.000000000000000
 40
0.000000000000000
 40
0.000000000000000
 40
0.08006105741610750
 40
0.1950534252390940
 40
0.3100457930620805
 40
0.4250381608850669
 40
0.5400305287080536
 40
0.6550228965310403
 40
0.7700152643540269
 40
0.8850076321770135
 40
1.000000000000000
 40
1.000000000000000
 40
1.000000000000000
 10
82.25033693748696
 20
136.9767050001368
 30
0.000000000000000
 10
82.25033693748696
 20
136.9789596816653
 30
0.000000000000000
 10
82.25033693748696
 20
137.1387801782489
 30
0.000000000000000
 10
82.25033693748696
 20
137.4275253693342
 30
0.000000000000000
 10
82.25033693748696
 20
137.8398376891367
 30
0.000000000000000
 10
82.25033693748696
 20
138.3534795646425
 30
0.000000000000000
 10
82.25033693748696
 20
138.9505376669844
 30
0.000000000000000
 10
82.25033693748696
 20
139.6071574684954
 30
0.000000000000000
 10
82.25033693748696
 20
140.2999194765985
 30
0.000000000000000
 10
82.25033693748696
 20
140.7638764940803
 30
0.000000000000000
 10
82.25033693748696
 20
140.9958550028212
 30
0.000000000000000
  0
LINE
  5
2C3
100
AcDbEntity
  8
A1
  6
CONTINUOUS
 62
7
100
AcDbLine
 10
81.05033693751180
 20
144.7930404865101
 30
0.000000000000000
 11
81.05033693751180
 21
136.5122490369651
 31
0.000000000000000
  0
LINE
  5
2C4
100
AcDbEntity
  8
A1
  6
CONTINUOUS
 62
7
100
AcDbLine
 10
81.05033693751180
 20
145.0122490370103
 30
0.000000000000000
 11
81.05033693751180
 21
144.7930404865101
 31
0.000000000000000
  0
LINE
  5
2C5
100
AcDbEntity
  8
A1
  6
CONTINUOUS
 62
7
100
AcDbLine
 10
81.05033693751180
 20
136.5122490369651
 30
0.000000000000000
 11
81.05033693751180
 21
145.0122490370103
 31
0.000000000000000
  0
SPLINE
  5
2C6
100
AcDbEntity
  8
A1
  6
CONTINUOUS
 62
7
100
AcDbSpline
210
0.000000000000000
220
0.000000000000000
230
1.000000000000000
 70
     8
 71
     3
 72
    23
 73
    19
 74
     0
 42
1.000000000000000e-07
 43
1.000000000000000e-07
 12
0.000000000000000
 22
-0.6341796790529770
 32
0.000000000000000
 13
2.728484105318785e-12
 23
-0.6341796790493390
 33
0.000000000000000
 40
0.000000000000000
 40
0.000000000000000
 40
0.000000000000000
 40
0.000000000000000
 40
0.06250000000000010
 40
0.1250000000000000
 40
0.1875000000000000
 40
0.2499999999999998
 40
0.3125000000000000
 40
0.3749999999999999
 40
0.4374999999999998
 40
0.4999999999999998
 40
0.5625000000000000
 40
0.6249999999999999
 40
0.6874999999999999
 40
0.7500000000000000
 40
0.8124999999999999
 40
0.8750000000000000
 40
0.9374999999999999
 40
1.000000000000000
 40
1.000000000000000
 40
1.000000000000000
 40
1.000000000000000
 10
82.25033693748702
 20
144.0622490370402
 30
0.000000000000000
 10
82.25033693748702
 20
144.0490369603933
 30
0.000000000000000
 10
82.25033693748702
 20
144.0226128070995
 30
0.000000000000000
 10
82.25033693748702
 20
143.8115204293927
 30
0.000000000000000
 10
82.25033693748702
 20
143.4834337400631
 30
0.000000000000000
 10
82.25033693748702
 20
143.0385415746428
 30
0.000000000000000
 10
82.25033693748696
 20
142.4972686228830
 30
0.000000000000000
 10
82.25033693748702
 20
141.8795241193869
 30
0.000000000000000
 10
82.25033693748696
 20
141.2092862311900
 30
0.000000000000000
 10
82.25033693748702
 20
140.5122490370406
 30
0.000000000000000
 10
82.25033693748702
 20
139.8152118428913
 30
0.000000000000000
 10
82.25033693748696
 20
139.1449739546943
 30
0.000000000000000
 10
82.25033693748702
 20
138.5272294511982
 30
0.000000000000000
 10
82.25033693748702
 20
137.9859564994382
 30
0.000000000000000
 10
82.25033693748696
 20
137.5410643340179
 30
0.000000000000000
 10
82.25033693748702
 20
137.2129776446880
 30
0.000000000000000
 10
82.25033693748702
 20
137.0018852669811
 30
0.000000000000000
 10
82.25033693748696
 20
136.9754611136871
 30
0.000000000000000
 10
82.25033693748702
 20
136.9622490370403
 30
0.000000000000000
  0
LINE
  5
2C7
100
AcDbEntity
  8
A1
  6
CONTINUOUS
 62
7
100
AcDbLine
 10
83.45033693751178
 20
136.5122490369627
 30
0.000000000000000
 11
83.45033693751178
 21
145.0122490370103
 31
0.000000000000000
  0
LINE
  5
2C8
100
AcDbEntity
  8
A1
  6
CONTINUOUS
 62
7
100
AcDbLine
 10
85.85033693751183
 20
144.1178676490730
 30
0.000000000000000
 11
85.85033693751183
 21
136.5122490369603
 31
0.000000000000000
  0
LINE
  5
2C9
100
AcDbEntity
  8
A1
  6
CONTINUOUS
 62
7
100
AcDbLine
 10
86.85033693751183
 20
144.0122490370104
 30
0.000000000000000
 11
86.85033693751183
 21
136.5122490369593
 31
0.000000000000000
  0
LINE
  5
2CA
100
AcDbEntity
  8
A1
  6
CONTINUOUS
 62
7
100
AcDbLine
 10
86.85033693751183
 20
144.0122490370103
 30
0.000000000000000
 11
86.85033693751183
 21
136.5122490369593
 31
0.000000000000000
  0
LINE
  5
2CB
100
AcDbEntity
  8
A1
  6
CONTINUOUS
 62
7
100
AcDbLine
 10
81.85033693751181
 20
145.0122490370103
 30
0.000000000000000
 11
81.85033693751181
 21
136.5122490369643
 31
0.000000000000000
  0
LINE
  5
2CC
100
AcDbEntity
  8
A1
  6
CONTINUOUS
 62
7
100
AcDbLine
 10
82.65033693751177
 20
136.5122490369635
 30
0.000000000000000
 11
82.65033693751177
 21
141.1865728485101
 31
0.000000000000000
  0
LINE
  5
2CD
100
AcDbEntity
  8
A1
  6
CONTINUOUS
 62
7
100
AcDbLine
 10
84.25033693751179
 20
145.0122490370093
 30
0.000000000000000
 11
84.25033693751179
 21
136.5122490369619
 31
0.000000000000000
  0
LINE
  5
2CE
100
AcDbEntity
  8
A1
  6
CONTINUOUS
 62
7
100
AcDbLine
 10
85.05033693751180
 20
136.5122490369611
 30
0.000000000000000
 11
85.05033693751180
 21
145.0122490370093
 31
0.000000000000000
  0
LINE
  5
2CF
100
AcDbEntity
  8
A1
  6
CONTINUOUS
 62
7
100
AcDbLine
 10
76.04764212670470
 20
135.5122490370090
 30
0.000000000000000
 11
76.04764212670470
 21
145.0122490370091
 31
0.000000000000000
  0
LINE
  5
2D0
100
AcDbEntity
  8
A1
  6
CONTINUOUS
 62
7
100
AcDbLine
 10
77.04764212670470
 20
135.5122490370090
 30
0.000000000000000
 11
76.04764212670470
 21
135.5122490370090
 31
0.000000000000000
  0
LINE
  5
2D1
100
AcDbEntity
  8
A1
  6
CONTINUOUS
 62
7
100
AcDbLine
 10
76.04764212670470
 20
135.6122490370090
 30
0.000000000000000
 11
75.04764212670470
 21
135.6122490370090
 31
0.000000000000000
  0
LINE
  5
2D2
100
AcDbEntity
  8
A1
  6
CONTINUOUS
 62
7
100
AcDbLine
 10
79.04764212670482
 20
142.0122490370100
 30
0.000000000000000
 11
80.04764212670470
 21
142.0122490370100
 31
0.000000000000000
  0
LINE
  5
2D3
100
AcDbEntity
  8
A1
  6
CONTINUOUS
 62
7
100
AcDbLine
 10
80.04764212670470
 20
139.0122490370101
 30
0.000000000000000
 11
79.04764212670459
 21
139.0122490370101
 31
0.000000000000000
  0
LINE
  5
2D4
100
AcDbEntity
  8
A1
  6
CONTINUOUS
 62
7
100
AcDbLine
 10
80.04764212670470
 20
136.5122490369651
 30
0.000000000000000
 11
80.04764212670470
 21
145.0122490370103
 31
0.000000000000000
  0
LINE
  5
2D5
100
AcDbEntity
  8
A1
  6
CONTINUOUS
 62
7
100
AcDbLine
 10
77.72476647117234
 20
135.0122490370090
 30
0.000000000000000
 11
77.04764212670175
 21
135.0122490370090
 31
0.000000000000000
  0
LINE
  5
2D6
100
AcDbEntity
  8
A1
  6
CONTINUOUS
 62
7
100
AcDbLine
 10
77.54764212670754
 20
134.5122490370090
 30
0.000000000000000
 11
77.54764212670754
 21
135.0122490370090
 31
0.000000000000000
  0
LINE
  5
2D7
100
AcDbEntity
  8
A1
  6
CONTINUOUS
 62
7
100
AcDbLine
 10
77.04764212670176
 20
135.0122490370090
 30
0.000000000000000
 11
77.04764212667057
 21
145.0122490370093
 31
0.000000000000000
  0
LINE
  5
2D8
100
AcDbEntity
  8
A1
  6
CONTINUOUS
 62
7
100
AcDbLine
 10
94.74764212669410
 20
138.6122490370090
 30
0.000000000000000
 11
94.74764212669410
 21
142.4122490370090
 31
0.000000000000000
  0
LINE
  5
2D9
100
AcDbEntity
  8
A1
  6
CONTINUOUS
 62
7
100
AcDbLine
 10
79.04764212674110
 20
144.7548897240388
 30
0.000000000000000
 11
77.04764212673811
 21
144.7548897240388
 31
0.000000000000000
  0
LINE
  5
2DA
100
AcDbEntity
  8
A1
  6
CONTINUOUS
 62
7
100
AcDbLine
 10
127.0476421267411
 20
144.7548897240388
 30
0.000000000000000
 11
125.0476421267381
 21
144.7548897240388
 31
0.000000000000000
  0
LINE
  5
2DB
100
AcDbEntity
  8
A1
  6
CONTINUOUS
 62
7
100
AcDbLine
 10
76.04764212673895
 20
142.0122490370100
 30
0.000000000000000
 11
77.04764212673884
 21
142.0122490370100
 31
0.000000000000000
  0
LINE
  5
2DC
100
AcDbEntity
  8
A1
  6
CONTINUOUS
 62
7
100
AcDbLine
 10
77.04764212673884
 20
139.0122490370101
 30
0.000000000000000
 11
76.04764212673872
 21
139.0122490370101
 31
0.000000000000000
  0
LINE
  5
2DD
100
AcDbEntity
  8
A1
  6
CONTINUOUS
 62
7
100
AcDbLine
 10
128.0476421266704
 20
142.0122490370100
 30
0.000000000000000
 11
127.0476421266706
 21
142.0122490370100
 31
0.000000000000000
  0
LINE
  5
2DE
100
AcDbEntity
  8
A1
  6
CONTINUOUS
 62
7
100
AcDbLine
 10
127.0476421266706
 20
139.0122490370101
 30
0.000000000000000
 11
128.0476421266707
 21
139.0122490370101
 31
0.000000000000000
  0
LINE
  5
2DF
100
AcDbEntity
  8
A1
  6
CONTINUOUS
 62
7
100
AcDbLine
 10
87.79764212758985
 20
167.5122490369208
 30
0.000000000000000
 11
86.29764212758985
 21
167.5122490369208
 31
0.000000000000000
  0
LINE
  5
2E0
100
AcDbEntity
  8
A1
  6
CONTINUOUS
 62
7
100
AcDbLine
 10
87.79764212758985
 20
144.0122490369207
 30
0.000000000000000
 11
86.29764212758985
 21
144.0122490369207
 31
0.000000000000000
  0
LINE
  5
2E1
100
AcDbEntity
  8
A1
  6
CONTINUOUS
 62
7
100
AcDbLine
 10
85.29764212758957
 20
166.5122490369213
 30
0.000000000000000
 11
85.29764212758957
 21
145.0122490369212
 31
0.000000000000000
  0
ARC
  5
2E2
100
AcDbEntity
  8
A1
  6
CONTINUOUS
 62
7
100
AcDbCircle
 10
86.29764212758987
 20
145.0122490369212
 30
0.000000000000000
 40
1.000000000000000
100
AcDbArc
 50
179.9999999999998
 51
270.0000000000092
  0
ARC
  5
2E3
100
AcDbEntity
  8
A1
  6
CONTINUOUS
 62
7
100
AcDbCircle
 10
87.79764212758987
 20
145.0122490369212
 30
0.000000000000000
 40
0.9999999999999983
100
AcDbArc
 50
270.0000000000089
 51
359.9999999999985
  0
LINE
  5
2E4
100
AcDbEntity
  8
A1
  6
CONTINUOUS
 62
7
100
AcDbLine
 10
88.79764212759014
 20
166.5122490369213
 30
0.000000000000000
 11
88.79764212759014
 21
145.0122490369212
 31
0.000000000000000
  0
ARC
  5
2E5
100
AcDbEntity
  8
A1
  6
CONTINUOUS
 62
7
100
AcDbCircle
 10
87.79764212758987
 20
166.5122490369212
 30
0.000000000000000
 40
1.000000000000001
100
AcDbArc
 50
0.000000000000000
 51
89.99999999998604
  0
ARC
  5
2E6
100
AcDbEntity
  8
A1
  6
CONTINUOUS
 62
7
100
AcDbCircle
 10
86.29764212758987
 20
166.5122490369212
 30
0.000000000000000
 40
1.000000000000006
100
AcDbArc
 50
89.99999999997945
 51
179.9999999999994
  0
LINE
  5
2E7
100
AcDbEntity
  8
A1
  6
CONTINUOUS
 62
7
100
AcDbLine
 10
84.99224485295221
 20
145.0122490370103
 30
0.000000000000000
 11
84.73031553041173
 21
144.4331464514100
 31
0.000000000000000
  0
ARC
  5
2E8
100
AcDbEntity
  8
A1
  6
CONTINUOUS
 62
7
100
AcDbCircle
 10
85.55033693751174
 20
144.0622490370101
 30
0.000000000000000
 40
0.9000000000000057
100
AcDbArc
 50
155.6626599977000
 51
180.0000000000000
  0
LINE
  5
2E9
100
AcDbEntity
  8
A1
  6
CONTINUOUS
 62
7
100
AcDbLine
 10
84.57035834451185
 20
144.4331464514101
 30
0.000000000000000
 11
84.30842902197134
 21
145.0122490370105
 31
0.000000000000000
  0
ARC
  5
2EA
100
AcDbEntity
  8
A1
  6
CONTINUOUS
 62
7
100
AcDbCircle
 10
83.75033693751179
 20
144.0622490370101
 30
0.000000000000000
 40
0.9000000000000057
100
AcDbArc
 50
0.000000000000000
 51
24.33734000230000
  0
SPLINE
  5
2EB
100
AcDbEntity
  8
A1
  6
CONTINUOUS
 62
7
100
AcDbSpline
210
0.000000000000000
220
0.000000000000000
230
1.000000000000000
 70
     8
 71
     3
 72
    23
 73
    19
 74
     0
 42
1.000000000000000e-07
 43
1.000000000000000e-07
 12
0.000000000000000
 22
-0.6341796790529770
 32
0.000000000000000
 13
2.728484105318785e-12
 23
-0.6341796790493390
 33
0.000000000000000
 40
0.000000000000000
 40
0.000000000000000
 40
0.000000000000000
 40
0.000000000000000
 40
0.06250000000000010
 40
0.1250000000000000
 40
0.1875000000000000
 40
0.2499999999999998
 40
0.3125000000000000
 40
0.3749999999999999
 40
0.4374999999999998
 40
0.4999999999999998
 40
0.5625000000000000
 40
0.6249999999999999
 40
0.6874999999999999
 40
0.7500000000000000
 40
0.8124999999999999
 40
0.8750000000000000
 40
0.9374999999999999
 40
1.000000000000000
 40
1.000000000000000
 40
1.000000000000000
 40
1.000000000000000
 10
84.65033693748705
 20
144.0622490370402
 30
0.000000000000000
 10
84.65033693748705
 20
144.0490369603933
 30
0.000000000000000
 10
84.65033693748705
 20
144.0226128070995
 30
0.000000000000000
 10
84.65033693748705
 20
143.8115204293927
 30
0.000000000000000
 10
84.65033693748705
 20
143.4834337400631
 30
0.000000000000000
 10
84.65033693748705
 20
143.0385415746428
 30
0.000000000000000
 10
84.65033693748700
 20
142.4972686228830
 30
0.000000000000000
 10
84.65033693748705
 20
141.8795241193869
 30
0.000000000000000
 10
84.65033693748700
 20
141.2092862311900
 30
0.000000000000000
 10
84.65033693748705
 20
140.5122490370406
 30
0.000000000000000
 10
84.65033693748705
 20
139.8152118428913
 30
0.000000000000000
 10
84.65033693748700
 20
139.1449739546943
 30
0.000000000000000
 10
84.65033693748705
 20
138.5272294511982
 30
0.000000000000000
 10
84.65033693748705
 20
137.9859564994382
 30
0.000000000000000
 10
84.65033693748700
 20
137.5410643340179
 30
0.000000000000000
 10
84.65033693748705
 20
137.2129776446880
 30
0.000000000000000
 10
84.65033693748705
 20
137.0018852669811
 30
0.000000000000000
 10
84.65033693748700
 20
136.9754611136871
 30
0.000000000000000
 10
84.65033693748705
 20
136.9622490370403
 30
0.000000000000000
  0
LINE
  5
2EC
100
AcDbEntity
  8
A1
  6
CONTINUOUS
 62
7
100
AcDbLine
 10
88.62641547073601
 20
144.4526645967424
 30
0.000000000000000
 11
90.35033693398505
 21
144.4526645700529
 31
0.000000000000000
  0
SPLINE
  5
2ED
100
AcDbEntity
  8
A1
  6
CONTINUOUS
 62
7
100
AcDbSpline
210
0.000000000000000
220
0.000000000000000
230
1.000000000000000
 70
     8
 71
     3
 72
    11
 73
     7
 74
     0
 42
1.000000000000000e-07
 43
1.000000000000000e-07
 12
0.5040077518626731
 22
-0.8636991293624305
 32
0.000000000000000
 13
0.2605932947556084
 23
-0.9654486701679161
 33
0.000000000000000
 40
0.000000000000000
 40
0.000000000000000
 40
0.000000000000000
 40
0.000000000000000
 40
0.3838453388970219
 40
0.7439534033031969
 40
1.011434196452655
 40
1.266408838001686
 40
1.266408838001686
 40
1.266408838001686
 40
1.266408838001686
 10
89.85033693751450
 20
144.4526646242325
 30
0.000000000000000
 10
89.91482394628798
 20
144.3421556625607
 30
0.000000000000000
 10
90.03231036569366
 20
144.1235325463357
 30
0.000000000000000
 10
90.17310261801242
 20
143.8169135036803
 30
0.000000000000000
 10
90.27755206153500
 20
143.5416782067665
 30
0.000000000000000
 10
90.32818868450659
 20
143.3748965942772
 30
0.000000000000000
 10
90.35033691181337
 20
143.2928416180739
 30
0.000000000000000
  0
LINE
  5
2EE
100
AcDbEntity
  8
A1
  6
CONTINUOUS
 62
7
100
AcDbLine
 10
109.8476421267152
 20
138.6122490370090
 30
0.000000000000000
 11
109.8476421267152
 21
142.4122490370090
 31
0.000000000000000
  0
SPLINE
  5
2EF
100
AcDbEntity
  8
A1
  6
CONTINUOUS
 62
7
100
AcDbSpline
210
0.000000000000000
220
0.000000000000000
230
1.000000000000000
 70
     8
 71
     3
 72
     9
 73
     5
 74
     0
 42
1.000000000000000e-07
 43
1.000000000000000e-07
 12
-0.03649585780738107
 22
-0.9993338042728510
 32
0.000000000000000
 13
-0.01646096591093738
 23
-0.9998645091211529
 33
0.000000000000000
 40
0.000000000000000
 40
0.000000000000000
 40
0.000000000000000
 40
0.000000000000000
 40
0.4220918469159522
 40
0.7787154512446485
 40
0.7787154512446485
 40
0.7787154512446485
 40
0.7787154512446485
 10
113.7448364234419
 20
139.3205841539928
 30
0.000000000000000
 10
113.7397015554330
 20
139.1799806036158
 30
0.000000000000000
 10
113.7316372365217
 20
138.9205280433804
 30
0.000000000000000
 10
113.7261732533818
 20
138.6610098907878
 30
0.000000000000000
 10
113.7242164637171
 20
138.5421514624267
 30
0.000000000000000
  0
SPLINE
  5
2F0
100
AcDbEntity
  8
A1
  6
CONTINUOUS
 62
7
100
AcDbSpline
210
0.000000000000000
220
0.000000000000000
230
1.000000000000000
 70
     8
 71
     3
 72
    10
 73
     6
 74
     0
 42
1.000000000000000e-07
 43
1.000000000000000e-07
 12
-0.2625975204388169
 22
0.9649054576793787
 32
0.000000000000000
 13
-0.4251395396204316
 23
0.9058196235855576
 33
0.000000000000000
 40
0.000000000000000
 40
0.000000000000000
 40
0.000000000000000
 40
0.000000000000000
 40
0.3463753664813331
 40
0.7026702804722820
 40
0.7685314884805285
 40
0.7685314884805285
 40
0.7685314884805285
 40
0.7685314884805285
 10
117.2449473158960
 20
143.2928386850519
 30
0.000000000000000
 10
117.2146282117697
 20
143.4042451788930
 30
0.000000000000000
 10
117.1441103552682
 20
143.6279943354889
 30
0.000000000000000
 10
117.0452601343064
 20
143.8645490037377
 30
0.000000000000000
 10
116.9861844852029
 20
143.9923629121286
 30
0.000000000000000
 10
116.9768510839858
 20
144.0122490370109
 30
0.000000000000000
  0
SPLINE
  5
2F1
100
AcDbEntity
  8
A1
  6
CONTINUOUS
 62
7
100
AcDbSpline
210
0.000000000000000
220
0.000000000000000
230
1.000000000000000
 70
     8
 71
     3
 72
    10
 73
     6
 74
     0
 42
1.000000000000000e-07
 43
1.000000000000000e-07
 12
0.2625630072478771
 22
-0.9649148497273927
 32
0.000000000000000
 13
0.5073173780551770
 23
-0.8617592923336588
 33
0.000000000000000
 40
0.000000000000000
 40
0.000000000000000
 40
0.000000000000000
 40
0.000000000000000
 40
0.3463958569278622
 40
0.7026720071199912
 40
1.266229999885125
 40
1.266229999885125
 40
1.266229999885125
 40
1.266229999885125
 10
113.7449474624667
 20
141.6720714430022
 30
0.000000000000000
 10
113.7752643750978
 20
141.5606572742576
 30
0.000000000000000
 10
113.8457779973243
 20
141.3369056856898
 30
0.000000000000000
 10
114.0086568161081
 20
140.9471644881108
 30
0.000000000000000
 10
114.1496463948276
 20
140.6741328160197
 30
0.000000000000000
 10
114.2449473159182
 20
140.5122490370083
 30
0.000000000000000
  0
SPLINE
  5
2F2
100
AcDbEntity
  8
A1
  6
CONTINUOUS
 62
7
100
AcDbSpline
210
0.000000000000000
220
0.000000000000000
230
1.000000000000000
 70
     8
 71
     3
 72
    11
 73
     7
 74
     0
 42
1.000000000000000e-07
 43
1.000000000000000e-07
 12
-0.03615734733921272
 22
-0.9993461093301903
 32
0.000000000000000
 13
0.02510986520110237
 23
-0.9996846976268898
 33
0.000000000000000
 40
0.000000000000000
 40
0.000000000000000
 40
0.000000000000000
 40
0.000000000000000
 40
0.4539807553011772
 40
0.9078983924375615
 40
1.264607902357299
 40
1.621297183207188
 40
1.621297183207188
 40
1.621297183207188
 40
1.621297183207188
 10
113.7449473411921
 20
143.2928416928608
 30
0.000000000000000
 10
113.7394757612405
 20
143.1416137256872
 30
0.000000000000000
 10
113.7321507370321
 20
142.8391169198686
 30
0.000000000000000
 10
113.7195807239609
 20
142.4175343471414
 30
0.000000000000000
 10
113.7367926440810
 20
142.0286582626075
 30
0.000000000000000
 10
113.7419619892131
 20
141.7909303816266
 30
0.000000000000000
 10
113.7449474624667
 20
141.6720714430022
 30
0.000000000000000
  0
SPLINE
  5
2F3
100
AcDbEntity
  8
A1
  6
CONTINUOUS
 62
7
100
AcDbSpline
210
0.000000000000000
220
0.000000000000000
230
1.000000000000000
 70
     8
 71
     3
 72
    11
 73
     7
 74
     0
 42
1.000000000000000e-07
 43
1.000000000000000e-07
 12
-0.2624855136282349
 22
-0.9649359331765481
 32
0.000000000000000
 13
-0.5026399939661133
 23
-0.8644958279060120
 33
0.000000000000000
 40
0.000000000000000
 40
0.000000000000000
 40
0.000000000000000
 40
0.000000000000000
 40
0.3265956261599907
 40
0.6739271542583333
 40
0.9627244097129505
 40
1.266393407951192
 40
1.266393407951192
 40
1.266393407951192
 40
1.266393407951192
 10
117.2449473158946
 20
137.7316593889579
 30
0.000000000000000
 10
117.2163717756675
 20
137.6266114371912
 30
0.000000000000000
 10
117.1491318723676
 20
137.4119620115111
 30
0.000000000000000
 10
117.0272938266648
 20
137.1147124894117
 30
0.000000000000000
 10
116.8905857987082
 20
136.8327280220503
 30
0.000000000000000
 10
116.7958260437069
 20
136.6593403104667
 30
0.000000000000000
 10
116.7449473158928
 20
136.5718334497862
 30
0.000000000000000
  0
SPLINE
  5
2F4
100
AcDbEntity
  8
A1
  6
CONTINUOUS
 62
7
100
AcDbSpline
210
0.000000000000000
220
0.000000000000000
230
1.000000000000000
 70
     8
 71
     3
 72
    11
 73
     7
 74
     0
 42
1.000000000000000e-07
 43
1.000000000000000e-07
 12
-0.5040077518626731
 22
0.8636991293631127
 32
0.000000000000000
 13
-0.2605932947553811
 23
0.9654486701672340
 33
0.000000000000000
 40
0.000000000000000
 40
0.000000000000000
 40
0.000000000000000
 40
0.000000000000000
 40
0.3838453388970219
 40
0.7439534033031969
 40
1.011434196452655
 40
1.266408838001686
 40
1.266408838001686
 40
1.266408838001686
 40
1.266408838001686
 10
114.2449473158948
 20
136.5718334497857
 30
0.000000000000000
 10
114.1804603071213
 20
136.6823424114574
 30
0.000000000000000
 10
114.0629738877157
 20
136.9009655276825
 30
0.000000000000000
 10
113.9221816353969
 20
137.2075845703378
 30
0.000000000000000
 10
113.8177321918743
 20
137.4828198672517
 30
0.000000000000000
 10
113.7670955689027
 20
137.6496014797409
 30
0.000000000000000
 10
113.7449473415959
 20
137.7316564559443
 30
0.000000000000000
  0
SPLINE
  5
2F5
100
AcDbEntity
  8
A1
  6
CONTINUOUS
 62
7
100
AcDbSpline
210
0.000000000000000
220
0.000000000000000
230
1.000000000000000
 70
     8
 71
     3
 72
     9
 73
     5
 74
     0
 42
1.000000000000000e-07
 43
1.000000000000000e-07
 12
0.02209328288188317
 22
-0.9997559136368181
 32
0.000000000000000
 13
0.03114653408101731
 23
-0.9995148290120142
 33
0.000000000000000
 40
0.000000000000000
 40
0.000000000000000
 40
0.000000000000000
 40
0.000000000000000
 40
0.4540216310744697
 40
0.7728928597764788
 40
0.7728928597764788
 40
0.7728928597764788
 40
0.7728928597764788
 10
113.7242164637171
 20
138.5421514624267
 30
0.000000000000000
 10
113.7275600731604
 20
138.3908478588981
 30
0.000000000000000
 10
113.7339371434688
 20
138.1332943393794
 30
0.000000000000000
 10
113.7414803765919
 20
137.8757732604192
 30
0.000000000000000
 10
113.7447909544559
 20
137.7695344198749
 30
0.000000000000000
  0
SPLINE
  5
2F6
100
AcDbEntity
  8
A1
  6
CONTINUOUS
 62
7
100
AcDbSpline
210
0.000000000000000
220
0.000000000000000
230
1.000000000000000
 70
     8
 71
     3
 72
    11
 73
     7
 74
     0
 42
1.000000000000000e-07
 43
1.000000000000000e-07
 12
-0.5035322319736224
 22
-0.8639764414399451
 32
0.000000000000000
 13
-0.2606607332254498
 23
-0.9654304646915080
 33
0.000000000000000
 40
0.000000000000000
 40
0.000000000000000
 40
0.000000000000000
 40
0.000000000000000
 40
0.3641718797287423
 40
0.7153859529367821
 40
0.9953347093561775
 40
1.266421992669669
 40
1.266421992669669
 40
1.266421992669669
 40
1.266421992669669
 10
114.2449473159182
 20
140.5122490370083
 30
0.000000000000000
 10
114.1838232227776
 20
140.4073703954348
 30
0.000000000000000
 10
114.0705183635319
 20
140.1973503329923
 30
0.000000000000000
 10
113.9304411114966
 20
139.8963375789571
 30
0.000000000000000
 10
113.8222338299923
 20
139.6154900241237
 30
0.000000000000000
 10
113.7685013963883
 20
139.4396651522358
 30
0.000000000000000
 10
113.7449474597095
 20
139.3524265116020
 30
0.000000000000000
  0
SPLINE
  5
2F7
100
AcDbEntity
  8
A1
  6
CONTINUOUS
 62
7
100
AcDbSpline
210
0.000000000000000
220
0.000000000000000
230
1.000000000000000
 70
     8
 71
     3
 72
    11
 73
     7
 74
     0
 42
1.000000000000000e-07
 43
1.000000000000000e-07
 12
-0.2624855136311908
 22
-0.9649359331760934
 32
0.000000000000000
 13
-0.5026399940468309
 23
-0.8644958278591730
 33
0.000000000000000
 40
0.000000000000000
 40
0.000000000000000
 40
0.000000000000000
 40
0.000000000000000
 40
0.3265956262265045
 40
0.6739271543414724
 40
0.9627244097742134
 40
1.266393407960287
 40
1.266393407960287
 40
1.266393407960287
 40
1.266393407960287
 10
117.2449473158961
 20
141.6720749761776
 30
0.000000000000000
 10
117.2163717756628
 20
141.5670270243896
 30
0.000000000000000
 10
117.1491318723520
 20
141.3523775986838
 30
0.000000000000000
 10
117.0272938266398
 20
141.0551280765661
 30
0.000000000000000
 10
116.8905857986804
 20
140.7731436092270
 30
0.000000000000000
 10
116.7958260436775
 20
140.5997558976723
 30
0.000000000000000
 10
116.7449473158640
 20
140.5122490370116
 30
0.000000000000000
  0
SPLINE
  5
2F8
100
AcDbEntity
  8
A1
  6
CONTINUOUS
 62
7
100
AcDbSpline
210
0.000000000000000
220
0.000000000000000
230
1.000000000000000
 70
     8
 71
     3
 72
    10
 73
     6
 74
     0
 42
1.000000000000000e-07
 43
1.000000000000000e-07
 12
-0.2625590712377743
 22
0.9649159207467619
 32
0.000000000000000
 13
-0.5073175760803679
 23
0.8617591757559921
 33
0.000000000000000
 40
0.000000000000000
 40
0.000000000000000
 40
0.000000000000000
 40
0.000000000000000
 40
0.3463957830093018
 40
0.7026733303774948
 40
1.266233411790275
 40
1.266233411790275
 40
1.266233411790275
 40
1.266233411790275
 10
117.2449473158940
 20
139.3524230978333
 30
0.000000000000000
 10
117.2146308642048
 20
139.4638373664684
 30
0.000000000000000
 10
117.1441178265272
 20
139.6875896260289
 30
0.000000000000000
 10
116.9812386350702
 20
140.0773319190058
 30
0.000000000000000
 10
116.8402486273567
 20
140.3503646799292
 30
0.000000000000000
 10
116.7449473158640
 20
140.5122490370116
 30
0.000000000000000
  0
ARC
  5
2F9
100
AcDbEntity
  8
A1
  6
CONTINUOUS
 62
7
100
AcDbCircle
 10
112.7449473158937
 20
137.2622490370052
 30
0.000000000000000
 40
0.5000000000000017
100
AcDbArc
 50
180.0000000000000
 51
269.9999999996721
  0
ARC
  5
2FA
100
AcDbEntity
  8
A1
  6
CONTINUOUS
 62
7
100
AcDbCircle
 10
112.7449473158937
 20
143.7622490370044
 30
0.000000000000000
 40
0.5000000000000017
100
AcDbArc
 50
90.00000000032783
 51
179.9999999980766
  0
ARC
  5
2FB
100
AcDbEntity
  8
A1
  6
CONTINUOUS
 62
7
100
AcDbCircle
 10
113.4449473158937
 20
136.4622490370043
 30
0.000000000000000
 40
0.2999999999999958
100
AcDbArc
 50
21.44468845548993
 51
90.00000000000071
  0
LINE
  5
2FC
100
AcDbEntity
  8
A1
  6
CONTINUOUS
 62
7
100
AcDbLine
 10
112.2449473158938
 20
143.7622490370045
 30
0.000000000000000
 11
112.2449473158938
 21
137.2623020490596
 31
0.000000000000000
  0
LINE
  5
2FD
100
AcDbEntity
  8
A1
  6
CONTINUOUS
 62
7
100
AcDbLine
 10
113.4449473158937
 20
136.7622490370048
 30
0.000000000000000
 11
112.7449473158909
 21
136.7622490370048
 31
0.000000000000000
  0
LINE
  5
2FE
100
AcDbEntity
  8
A1
  6
CONTINUOUS
 62
7
100
AcDbLine
 10
112.7449473158909
 20
144.2622490370048
 30
0.000000000000000
 11
113.7449473158937
 21
144.2622490370048
 31
0.000000000000000
  0
LINE
  5
2FF
100
AcDbEntity
  8
A1
  6
CONTINUOUS
 62
7
100
AcDbLine
 10
113.7449473158937
 20
144.4526645700528
 30
0.000000000000000
 11
113.7449473158937
 21
143.2928413760727
 31
0.000000000000000
  0
LINE
  5
300
100
AcDbEntity
  8
A1
  6
CONTINUOUS
 62
7
100
AcDbLine
 10
113.7449473158938
 20
137.7316567649146
 30
0.000000000000000
 11
113.7449473158938
 21
136.5718335650030
 31
0.000000000000000
  0
LINE
  5
301
100
AcDbEntity
  8
A1
  6
CONTINUOUS
 62
7
100
AcDbLine
 10
113.7242164629732
 20
136.5718334497855
 30
0.000000000000000
 11
113.7449473194347
 21
136.5718335039627
 31
0.000000000000000
  0
LINE
  5
302
100
AcDbEntity
  8
A1
  6
CONTINUOUS
 62
7
100
AcDbLine
 10
113.7447909544559
 20
137.7695344198749
 30
0.000000000000000
 11
113.7449473415959
 21
137.7316564559443
 31
0.000000000000000
  0
LINE
  5
303
100
AcDbEntity
  8
A1
  6
CONTINUOUS
 62
7
100
AcDbLine
 10
113.7449473158938
 20
140.5062309004512
 30
0.000000000000000
 11
113.7449473158938
 21
139.3524266740063
 31
0.000000000000000
  0
LINE
  5
304
100
AcDbEntity
  8
A1
  6
CONTINUOUS
 62
7
100
AcDbLine
 10
113.7449473158938
 20
141.6720712764667
 30
0.000000000000000
 11
113.7449473158938
 21
140.5062309004512
 31
0.000000000000000
  0
LINE
  5
305
100
AcDbEntity
  8
A1
  6
CONTINUOUS
 62
7
100
AcDbLine
 10
113.7449474597095
 20
139.3524265116020
 30
0.000000000000000
 11
113.7448364234419
 21
139.3205841539928
 31
0.000000000000000
  0
LINE
  5
306
100
AcDbEntity
  8
A1
  6
CONTINUOUS
 62
7
100
AcDbLine
 10
116.7449473158641
 20
140.5122490370117
 30
0.000000000000000
 11
114.2449473159182
 21
140.5122490370084
 31
0.000000000000000
  0
LINE
  5
307
100
AcDbEntity
  8
A1
  6
CONTINUOUS
 62
7
100
AcDbLine
 10
117.2449473158954
 20
136.5718334497855
 30
0.000000000000000
 11
113.7449473194347
 21
136.5718335039626
 31
0.000000000000000
  0
LINE
  5
308
100
AcDbEntity
  8
A1
  6
CONTINUOUS
 62
7
100
AcDbLine
 10
112.2449473158937
 20
138.6122490370090
 30
0.000000000000000
 11
109.3476421267152
 21
138.6122490370090
 31
0.000000000000000
  0
LINE
  5
309
100
AcDbEntity
  8
A1
  6
CONTINUOUS
 62
7
100
AcDbLine
 10
112.2449473158937
 20
142.4122490370090
 30
0.000000000000000
 11
109.3476421267152
 21
142.4122490370090
 31
0.000000000000000
  0
LINE
  5
30A
100
AcDbEntity
  8
A1
  6
CONTINUOUS
 62
7
100
AcDbLine
 10
119.5607041754922
 20
136.5122490369616
 30
0.000000000000000
 11
119.5249259088975
 21
136.5913516227101
 31
0.000000000000000
  0
ARC
  5
30B
100
AcDbEntity
  8
A1
  6
CONTINUOUS
 62
7
100
AcDbCircle
 10
120.3449473158975
 20
136.9622490370101
 30
0.000000000000000
 40
0.9000000000000057
100
AcDbArc
 50
180.0000000000000
 51
204.3373400023000
  0
LINE
  5
30C
100
AcDbEntity
  8
A1
  6
CONTINUOUS
 62
7
100
AcDbLine
 10
119.3649687229975
 20
136.5913516227101
 30
0.000000000000000
 11
119.3291904564028
 21
136.5122490369615
 31
0.000000000000000
  0
ARC
  5
30D
100
AcDbEntity
  8
A1
  6
CONTINUOUS
 62
7
100
AcDbCircle
 10
118.5449473158975
 20
136.9622490370101
 30
0.000000000000000
 40
0.9000000000000057
100
AcDbArc
 50
335.6626599977000
 51
360.0000000000000
  0
LINE
  5
30E
100
AcDbEntity
  8
A1
  6
CONTINUOUS
 62
7
100
AcDbLine
 10
120.6449473158975
 20
141.1865728485101
 30
0.000000000000000
 11
120.6449473158975
 21
136.5122490369627
 31
0.000000000000000
  0
LINE
  5
30F
100
AcDbEntity
  8
A1
  6
CONTINUOUS
 62
7
100
AcDbLine
 10
120.6449473158975
 20
145.0122490370103
 30
0.000000000000000
 11
120.6449473158975
 21
141.1865728485101
 31
0.000000000000000
  0
LINE
  5
310
100
AcDbEntity
  8
A1
  6
CONTINUOUS
 62
7
100
AcDbLine
 10
120.6449473158975
 20
136.5122490369627
 30
0.000000000000000
 11
120.6449473158975
 21
145.0122490370103
 31
0.000000000000000
  0
LINE
  5
311
100
AcDbEntity
  8
A1
  6
CONTINUOUS
 62
7
100
AcDbLine
 10
118.2449473158975
 20
144.1178676490730
 30
0.000000000000000
 11
118.2449473158975
 21
136.5122490369603
 31
0.000000000000000
  0
LINE
  5
312
100
AcDbEntity
  8
A1
  6
CONTINUOUS
 62
7
100
AcDbLine
 10
117.2449473158975
 20
144.0122490370104
 30
0.000000000000000
 11
117.2449473158975
 21
136.5122490369593
 31
0.000000000000000
  0
LINE
  5
313
100
AcDbEntity
  8
A1
  6
CONTINUOUS
 62
7
100
AcDbLine
 10
117.2449473158975
 20
144.0122490370103
 30
0.000000000000000
 11
117.2449473158975
 21
136.5122490369593
 31
0.000000000000000
  0
LINE
  5
314
100
AcDbEntity
  8
A1
  6
CONTINUOUS
 62
7
100
AcDbLine
 10
119.8449473158975
 20
145.0122490370093
 30
0.000000000000000
 11
119.8449473158975
 21
136.5122490369619
 31
0.000000000000000
  0
LINE
  5
315
100
AcDbEntity
  8
A1
  6
CONTINUOUS
 62
7
100
AcDbLine
 10
119.0449473158975
 20
136.5122490369611
 30
0.000000000000000
 11
119.0449473158975
 21
145.0122490370093
 31
0.000000000000000
  0
LINE
  5
316
100
AcDbEntity
  8
A1
  6
CONTINUOUS
 62
7
100
AcDbLine
 10
109.3476421267152
 20
138.6122490370090
 30
0.000000000000000
 11
109.3476421267152
 21
142.4122490370090
 31
0.000000000000000
  0
LINE
  5
317
100
AcDbEntity
  8
A1
  6
CONTINUOUS
 62
7
100
AcDbLine
 10
116.2976421258195
 20
144.0122490369208
 30
0.000000000000000
 11
117.7976421258195
 21
144.0122490369208
 31
0.000000000000000
  0
ARC
  5
318
100
AcDbEntity
  8
A1
  6
CONTINUOUS
 62
7
100
AcDbCircle
 10
117.7976421258195
 20
145.0122490369212
 30
0.000000000000000
 40
1.000000000000000
100
AcDbArc
 50
269.9999999999908
 51
360.0000000000002
  0
ARC
  5
319
100
AcDbEntity
  8
A1
  6
CONTINUOUS
 62
7
100
AcDbCircle
 10
116.2976421258195
 20
145.0122490369212
 30
0.000000000000000
 40
0.9999999999999983
100
AcDbArc
 50
180.0000000000015
 51
269.9999999999911
  0
LINE
  5
31A
100
AcDbEntity
  8
A1
  6
CONTINUOUS
 62
7
100
AcDbLine
 10
119.1030394004571
 20
145.0122490370103
 30
0.000000000000000
 11
119.3649687229976
 21
144.4331464514100
 31
0.000000000000000
  0
ARC
  5
31B
100
AcDbEntity
  8
A1
  6
CONTINUOUS
 62
7
100
AcDbCircle
 10
118.5449473158976
 20
144.0622490370101
 30
0.000000000000000
 40
0.9000000000000057
100
AcDbArc
 50
0.000000000000000
 51
24.33734000230000
  0
LINE
  5
31C
100
AcDbEntity
  8
A1
  6
CONTINUOUS
 62
7
100
AcDbLine
 10
119.5249259088976
 20
144.4331464514102
 30
0.000000000000000
 11
119.7868552314381
 21
145.0122490370105
 31
0.000000000000000
  0
ARC
  5
31D
100
AcDbEntity
  8
A1
  6
CONTINUOUS
 62
7
100
AcDbCircle
 10
120.3449473158975
 20
144.0622490370101
 30
0.000000000000000
 40
0.9000000000000057
100
AcDbArc
 50
155.6626599977000
 51
180.0000000000000
  0
SPLINE
  5
31E
100
AcDbEntity
  8
A1
  6
CONTINUOUS
 62
7
100
AcDbSpline
210
0.000000000000000
220
0.000000000000000
230
1.000000000000000
 70
     8
 71
     3
 72
    23
 73
    19
 74
     0
 42
1.000000000000000e-07
 43
1.000000000000000e-07
 12
0.000000000000000
 22
-0.6341796790529770
 32
0.000000000000000
 13
-2.728484105318785e-12
 23
-0.6341796790493390
 33
0.000000000000000
 40
0.000000000000000
 40
0.000000000000000
 40
0.000000000000000
 40
0.000000000000000
 40
0.06250000000000010
 40
0.1250000000000000
 40
0.1875000000000000
 40
0.2499999999999998
 40
0.3125000000000000
 40
0.3749999999999999
 40
0.4374999999999998
 40
0.4999999999999998
 40
0.5625000000000000
 40
0.6249999999999999
 40
0.6874999999999999
 40
0.7500000000000000
 40
0.8124999999999999
 40
0.8750000000000000
 40
0.9374999999999999
 40
1.000000000000000
 40
1.000000000000000
 40
1.000000000000000
 40
1.000000000000000
 10
119.4449473159223
 20
144.0622490370402
 30
0.000000000000000
 10
119.4449473159223
 20
144.0490369603933
 30
0.000000000000000
 10
119.4449473159223
 20
144.0226128070995
 30
0.000000000000000
 10
119.4449473159223
 20
143.8115204293927
 30
0.000000000000000
 10
119.4449473159223
 20
143.4834337400631
 30
0.000000000000000
 10
119.4449473159223
 20
143.0385415746428
 30
0.000000000000000
 10
119.4449473159223
 20
142.4972686228830
 30
0.000000000000000
 10
119.4449473159223
 20
141.8795241193869
 30
0.000000000000000
 10
119.4449473159223
 20
141.2092862311900
 30
0.000000000000000
 10
119.4449473159223
 20
140.5122490370406
 30
0.000000000000000
 10
119.4449473159223
 20
139.8152118428913
 30
0.000000000000000
 10
119.4449473159223
 20
139.1449739546943
 30
0.000000000000000
 10
119.4449473159223
 20
138.5272294511982
 30
0.000000000000000
 10
119.4449473159223
 20
137.9859564994382
 30
0.000000000000000
 10
119.4449473159223
 20
137.5410643340179
 30
0.000000000000000
 10
119.4449473159223
 20
137.2129776446880
 30
0.000000000000000
 10
119.4449473159223
 20
137.0018852669811
 30
0.000000000000000
 10
119.4449473159223
 20
136.9754611136871
 30
0.000000000000000
 10
119.4449473159223
 20
136.9622490370403
 30
0.000000000000000
  0
LINE
  5
31F
100
AcDbEntity
  8
A1
  6
CONTINUOUS
 62
7
100
AcDbLine
 10
115.4688687826733
 20
144.4526645967423
 30
0.000000000000000
 11
113.7449473194243
 21
144.4526645700528
 31
0.000000000000000
  0
SPLINE
  5
320
100
AcDbEntity
  8
A1
  6
CONTINUOUS
 62
7
100
AcDbSpline
210
0.000000000000000
220
0.000000000000000
230
1.000000000000000
 70
     8
 71
     3
 72
    11
 73
     7
 74
     0
 42
1.000000000000000e-07
 43
1.000000000000000e-07
 12
-0.5040077518626731
 22
-0.8636991293624305
 32
0.000000000000000
 13
-0.2605932947553811
 23
-0.9654486701679161
 33
0.000000000000000
 40
0.000000000000000
 40
0.000000000000000
 40
0.000000000000000
 40
0.000000000000000
 40
0.3838453388970219
 40
0.7439534033031969
 40
1.011434196452655
 40
1.266408838001686
 40
1.266408838001686
 40
1.266408838001686
 40
1.266408838001686
 10
114.2449473158948
 20
144.4526646242325
 30
0.000000000000000
 10
114.1804603071213
 20
144.3421556625607
 30
0.000000000000000
 10
114.0629738877157
 20
144.1235325463357
 30
0.000000000000000
 10
113.9221816353969
 20
143.8169135036803
 30
0.000000000000000
 10
113.8177321918743
 20
143.5416782067665
 30
0.000000000000000
 10
113.7670955689027
 20
143.3748965942772
 30
0.000000000000000
 10
113.7449473415959
 20
143.2928416180739
 30
0.000000000000000
  0
LINE
  5
321
100
AcDbEntity
  8
A1
  6
CONTINUOUS
 62
7
100
AcDbLine
 10
118.7976421258197
 20
166.5122490369213
 30
0.000000000000000
 11
118.7976421258197
 21
145.0122490369212
 31
0.000000000000000
  0
LINE
  5
322
100
AcDbEntity
  8
A1
  6
CONTINUOUS
 62
7
100
AcDbLine
 10
115.2976421258192
 20
166.5122490369213
 30
0.000000000000000
 11
115.2976421258192
 21
145.0122490369212
 31
0.000000000000000
  0
ARC
  5
323
100
AcDbEntity
  8
A1
  6
CONTINUOUS
 62
7
100
AcDbCircle
 10
116.2976421258195
 20
166.5122490369212
 30
0.000000000000000
 40
1.000000000000001
100
AcDbArc
 50
90.00000000001396
 51
180.0000000000000
  0
LINE
  5
324
100
AcDbEntity
  8
A1
  6
CONTINUOUS
 62
7
100
AcDbLine
 10
116.2976421258195
 20
167.5122490369209
 30
0.000000000000000
 11
117.7976421258195
 21
167.5122490369209
 31
0.000000000000000
  0
ARC
  5
325
100
AcDbEntity
  8
A1
  6
CONTINUOUS
 62
7
100
AcDbCircle
 10
117.7976421258195
 20
166.5122490369212
 30
0.000000000000000
 40
1.000000000000006
100
AcDbArc
 50
6.106664988409952e-13
 51
90.00000000002056
  0
ARC
  5
326
100
AcDbEntity
  8
A1
  6
CONTINUOUS
 62
7
100
AcDbCircle
 10
101.2976421267046
 20
166.5122490369273
 30
0.000000000000000
 40
1.000000000000006
100
AcDbArc
 50
89.99999999997945
 51
179.9999999999994
  0
ARC
  5
327
100
AcDbEntity
  8
A1
  6
CONTINUOUS
 62
7
100
AcDbCircle
 10
102.7976421267046
 20
166.5122490369273
 30
0.000000000000000
 40
1.000000000000001
100
AcDbArc
 50
0.000000000000000
 51
89.99999999998604
  0
ARC
  5
328
100
AcDbEntity
  8
A1
  6
CONTINUOUS
 62
7
100
AcDbCircle
 10
102.7976421267046
 20
145.0122490369272
 30
0.000000000000000
 40
0.9999999999999983
100
AcDbArc
 50
270.0000000000089
 51
359.9999999999985
  0
ARC
  5
329
100
AcDbEntity
  8
A1
  6
CONTINUOUS
 62
7
100
AcDbCircle
 10
101.2976421267046
 20
145.0122490369272
 30
0.000000000000000
 40
1.000000000000000
100
AcDbArc
 50
179.9999999999998
 51
270.0000000000092
  0
LINE
  5
32A
100
AcDbEntity
  8
A1
  6
CONTINUOUS
 62
7
100
AcDbLine
 10
102.7976421267046
 20
167.5122490369273
 30
0.000000000000000
 11
101.2976421267046
 21
167.5122490369273
 31
0.000000000000000
  0
LINE
  5
32B
100
AcDbEntity
  8
A1
  6
CONTINUOUS
 62
7
100
AcDbLine
 10
102.7976421267046
 20
144.0122490369272
 30
0.000000000000000
 11
101.2976421267046
 21
144.0122490369272
 31
0.000000000000000
  0
LINE
  5
32C
100
AcDbEntity
  8
A1
  6
CONTINUOUS
 62
7
100
AcDbLine
 10
103.7976421267049
 20
166.5122490369273
 30
0.000000000000000
 11
103.7976421267049
 21
145.0122490369273
 31
0.000000000000000
  0
LINE
  5
32D
100
AcDbEntity
  8
A1
  6
CONTINUOUS
 62
7
100
AcDbLine
 10
100.2976421267043
 20
166.5122490369273
 30
0.000000000000000
 11
100.2976421267043
 21
145.0122490369273
 31
0.000000000000000
  0
LINE
  5
32E
100
AcDbEntity
  8
A1
  6
CONTINUOUS
 62
7
100
AcDbLine
 10
222.0732663154855
 20
46.01224903700987
 30
0.000000000000000
 11
222.0732663154855
 21
39.01224903700989
 31
0.000000000000000
  0
LINE
  5
32F
100
AcDbEntity
  8
A1
  6
CONTINUOUS
 62
7
100
AcDbLine
 10
222.0732663154855
 20
61.01224903700987
 30
0.000000000000000
 11
222.0732663154855
 21
51.01224903700987
 31
0.000000000000000
  0
ARC
  5
330
100
AcDbEntity
  8
A1
  6
CONTINUOUS
 62
7
100
AcDbCircle
 10
223.0732663154855
 20
61.01224903700987
 30
0.000000000000000
 40
1.000000000000000
100
AcDbArc
 50
90.00000000000000
 51
180.0000000000000
  0
ARC
  5
331
100
AcDbEntity
  8
A1
  6
CONTINUOUS
 62
7
100
AcDbCircle
 10
223.0732663154855
 20
66.01224903700987
 30
0.000000000000000
 40
1.000000000000000
100
AcDbArc
 50
180.0000000000000
 51
270.0000000000000
  0
LINE
  5
332
100
AcDbEntity
  8
A1
  6
CONTINUOUS
 62
7
100
AcDbLine
 10
222.0732663154855
 20
66.01224903700987
 30
0.000000000000000
 11
222.0732663154855
 21
76.01224903700987
 31
0.000000000000000
  0
LINE
  5
333
100
AcDbEntity
  8
A1
  6
CONTINUOUS
 62
7
100
AcDbLine
 10
226.0732663155154
 20
47.01224903700987
 30
0.000000000000000
 11
223.0732663154855
 21
47.01224903700987
 31
0.000000000000000
  0
ARC
  5
334
100
AcDbEntity
  8
A1
  6
CONTINUOUS
 62
7
100
AcDbCircle
 10
223.0732663154855
 20
46.01224903700987
 30
0.000000000000000
 40
1.000000000000000
100
AcDbArc
 50
90.00000000000000
 51
180.0000000000000
  0
LINE
  5
335
100
AcDbEntity
  8
A1
  6
CONTINUOUS
 62
7
100
AcDbLine
 10
226.0732663155154
 20
50.01224903700987
 30
0.000000000000000
 11
223.0732663154855
 21
50.01224903700987
 31
0.000000000000000
  0
ARC
  5
336
100
AcDbEntity
  8
A1
  6
CONTINUOUS
 62
7
100
AcDbCircle
 10
223.0732663154855
 20
51.01224903700987
 30
0.000000000000000
 40
1.000000000000000
100
AcDbArc
 50
180.0000000000000
 51
270.0000000000000
  0
LINE
  5
337
100
AcDbEntity
  8
A1
  6
CONTINUOUS
 62
7
100
AcDbLine
 10
223.0732663154855
 20
47.01224903700987
 30
0.000000000000000
 11
223.0732663154855
 21
50.01224903700987
 31
0.000000000000000
  0
LINE
  5
338
100
AcDbEntity
  8
A1
  6
CONTINUOUS
 62
7
100
AcDbLine
 10
223.0732663154855
 20
65.01224903700987
 30
0.000000000000000
 11
223.0732663154855
 21
62.01224903700987
 31
0.000000000000000
  0
LINE
  5
339
100
AcDbEntity
  8
A1
  6
CONTINUOUS
 62
7
100
AcDbLine
 10
222.0732663154855
 20
81.01224903700987
 30
0.000000000000000
 11
222.0732663154855
 21
88.01224903700989
 31
0.000000000000000
  0
LINE
  5
33A
100
AcDbEntity
  8
A1
  6
CONTINUOUS
 62
7
100
AcDbLine
 10
226.0732663155154
 20
80.01224903700987
 30
0.000000000000000
 11
223.0732663154855
 21
80.01224903700987
 31
0.000000000000000
  0
ARC
  5
33B
100
AcDbEntity
  8
A1
  6
CONTINUOUS
 62
7
100
AcDbCircle
 10
223.0732663154855
 20
81.01224903700987
 30
0.000000000000000
 40
1.000000000000000
100
AcDbArc
 50
180.0000000000000
 51
270.0000000000000
  0
LINE
  5
33C
100
AcDbEntity
  8
A1
  6
CONTINUOUS
 62
7
100
AcDbLine
 10
226.0732663155154
 20
77.01224903700987
 30
0.000000000000000
 11
223.0732663154855
 21
77.01224903700987
 31
0.000000000000000
  0
ARC
  5
33D
100
AcDbEntity
  8
A1
  6
CONTINUOUS
 62
7
100
AcDbCircle
 10
223.0732663154855
 20
76.01224903700987
 30
0.000000000000000
 40
1.000000000000000
100
AcDbArc
 50
90.00000000000000
 51
180.0000000000000
  0
LINE
  5
33E
100
AcDbEntity
  8
A1
  6
CONTINUOUS
 62
7
100
AcDbLine
 10
223.0732663154855
 20
80.01224903700987
 30
0.000000000000000
 11
223.0732663154855
 21
77.01224903700987
 31
0.000000000000000
  0
LINE
  5
33F
100
AcDbEntity
  8
A1
  6
CONTINUOUS
 62
7
100
AcDbLine
 10
226.5732663155154
 20
77.51224903727000
 30
0.000000000000000
 11
226.5732663155154
 21
79.51276471948894
 31
0.000000000000000
  0
ARC
  5
340
100
AcDbEntity
  8
A1
  6
CONTINUOUS
 62
7
100
AcDbCircle
 10
226.0732663155154
 20
79.51224903928906
 30
0.000000000000000
 40
0.5000000000000000
100
AcDbArc
 50
0.000000000000000
 51
90.00000000000000
  0
ARC
  5
341
100
AcDbEntity
  8
A1
  6
CONTINUOUS
 62
7
100
AcDbCircle
 10
226.0732663155154
 20
77.51224903726998
 30
0.000000000000000
 40
0.5000000000000000
100
AcDbArc
 50
270.0000000000000
 51
360.0000000000000
  0
LINE
  5
342
100
AcDbEntity
  8
A1
  6
CONTINUOUS
 62
7
100
AcDbLine
 10
226.5732663155154
 20
49.51224903674968
 30
0.000000000000000
 11
226.5732663155154
 21
47.51173335453073
 31
0.000000000000000
  0
ARC
  5
343
100
AcDbEntity
  8
A1
  6
CONTINUOUS
 62
7
100
AcDbCircle
 10
226.0732663155154
 20
47.51224903473062
 30
0.000000000000000
 40
0.5000000000000000
100
AcDbArc
 50
270.0000000000000
 51
360.0000000000000
  0
ARC
  5
344
100
AcDbEntity
  8
A1
  6
CONTINUOUS
 62
7
100
AcDbCircle
 10
226.0732663155154
 20
49.51224903674969
 30
0.000000000000000
 40
0.5000000000000000
100
AcDbArc
 50
0.000000000000000
 51
90.00000000000000
  0
ARC
  5
345
100
AcDbEntity
  8
A1
  6
CONTINUOUS
 62
7
100
AcDbCircle
 10
229.0732663167754
 20
63.51224903440874
 30
0.000000000000000
 40
1.499999999739999
100
AcDbArc
 50
270.0000000000000
 51
450.0000000000000
  0
ARC
  5
346
100
AcDbEntity
  8
A1
  6
CONTINUOUS
 62
7
100
AcDbCircle
 10
174.0476421257189
 20
64.26224903741007
 30
0.000000000000000
 40
0.9999999989799999
100
AcDbArc
 50
90.00000000000000
 51
180.0000000000000
  0
ARC
  5
347
100
AcDbEntity
  8
A1
  6
CONTINUOUS
 62
7
100
AcDbCircle
 10
174.0476421257189
 20
79.26224903735005
 30
0.000000000000000
 40
0.9999999989799999
100
AcDbArc
 50
90.00000000000000
 51
180.0000000000000
  0
ARC
  5
348
100
AcDbEntity
  8
A1
  6
CONTINUOUS
 62
7
100
AcDbCircle
 10
174.0476421257189
 20
77.76224903737005
 30
0.000000000000000
 40
0.9999999989799999
100
AcDbArc
 50
180.0000000000000
 51
270.0000000000000
  0
ARC
  5
349
100
AcDbEntity
  8
A1
  6
CONTINUOUS
 62
7
100
AcDbCircle
 10
174.0476421257189
 20
47.76224903749011
 30
0.000000000000000
 40
0.9999999989799999
100
AcDbArc
 50
180.0000000000000
 51
270.0000000000000
  0
ARC
  5
34A
100
AcDbEntity
  8
A1
  6
CONTINUOUS
 62
7
100
AcDbCircle
 10
174.0476421257189
 20
49.26224903747010
 30
0.000000000000000
 40
0.9999999989799999
100
AcDbArc
 50
90.00000000000000
 51
180.0000000000000
  0
ARC
  5
34B
100
AcDbEntity
  8
A1
  6
CONTINUOUS
 62
7
100
AcDbCircle
 10
174.0476421257189
 20
62.76224903743008
 30
0.000000000000000
 40
0.9999999989799999
100
AcDbArc
 50
180.0000000000000
 51
270.0000000000000
  0
LINE
  5
34C
100
AcDbEntity
  8
A1
  6
CONTINUOUS
 62
7
100
AcDbLine
 10
173.0476421267389
 20
77.76224903737004
 30
0.000000000000000
 11
173.0476421267389
 21
79.26224903735003
 31
0.000000000000000
  0
LINE
  5
34D
100
AcDbEntity
  8
A1
  6
CONTINUOUS
 62
7
100
AcDbLine
 10
173.0476421267389
 20
62.76224903743007
 30
0.000000000000000
 11
173.0476421267389
 21
64.26224903741006
 31
0.000000000000000
  0
LINE
  5
34E
100
AcDbEntity
  8
A1
  6
CONTINUOUS
 62
7
100
AcDbLine
 10
173.0476421267389
 20
47.76224903749010
 30
0.000000000000000
 11
173.0476421267389
 21
49.26224903747009
 31
0.000000000000000
  0
LINE
  5
34F
100
AcDbEntity
  8
A1
  6
CONTINUOUS
 62
7
100
AcDbLine
 10
174.0476421257189
 20
65.26224903639006
 30
0.000000000000000
 11
174.0476421257189
 21
76.76224903839095
 31
0.000000000000000
  0
LINE
  5
350
100
AcDbEntity
  8
A1
  6
CONTINUOUS
 62
7
100
AcDbLine
 10
174.0476421257189
 20
50.26224903645009
 30
0.000000000000000
 11
174.0476421257189
 21
61.76224903845007
 31
0.000000000000000
  0
LINE
  5
351
100
AcDbEntity
  8
A1
  6
CONTINUOUS
 62
7
100
AcDbLine
 10
174.0476421257189
 20
80.26224903633005
 30
0.000000000000000
 11
177.0732663154855
 21
80.26224903633005
 31
0.000000000000000
  0
LINE
  5
352
100
AcDbEntity
  8
A1
  6
CONTINUOUS
 62
7
100
AcDbLine
 10
177.0732663154855
 20
76.76224903839096
 30
0.000000000000000
 11
174.0476421257189
 21
76.76224903839096
 31
0.000000000000000
  0
LINE
  5
353
100
AcDbEntity
  8
A1
  6
CONTINUOUS
 62
7
100
AcDbLine
 10
174.0476421257189
 20
65.26224903639007
 30
0.000000000000000
 11
177.0732663154855
 21
65.26224903639007
 31
0.000000000000000
  0
LINE
  5
354
100
AcDbEntity
  8
A1
  6
CONTINUOUS
 62
7
100
AcDbLine
 10
177.0732663154855
 20
61.76224903845008
 30
0.000000000000000
 11
174.0476421257189
 21
61.76224903845008
 31
0.000000000000000
  0
LINE
  5
355
100
AcDbEntity
  8
A1
  6
CONTINUOUS
 62
7
100
AcDbLine
 10
174.0476421257189
 20
50.26224903645010
 30
0.000000000000000
 11
177.0732663154855
 21
50.26224903645010
 31
0.000000000000000
  0
LINE
  5
356
100
AcDbEntity
  8
A1
  6
CONTINUOUS
 62
7
100
AcDbLine
 10
177.0732663154855
 20
46.76224903851011
 30
0.000000000000000
 11
174.0476421257189
 21
46.76224903851011
 31
0.000000000000000
  0
LINE
  5
357
100
AcDbEntity
  8
A1
  6
CONTINUOUS
 62
7
100
AcDbLine
 10
308.3232663154724
 20
137.5122490370100
 30
0.000000000000000
 11
309.8232663154225
 21
137.5122490370100
 31
0.000000000000000
  0
ARC
  5
358
100
AcDbEntity
  8
A1
  6
CONTINUOUS
 62
7
100
AcDbCircle
 10
309.8232663154225
 20
136.5122490370117
 30
0.000000000000000
 40
1.000000000000000
100
AcDbArc
 50
0.000000000000000
 51
90.00000000000000
  0
LINE
  5
359
100
AcDbEntity
  8
A1
  6
CONTINUOUS
 62
7
100
AcDbLine
 10
307.3232663154230
 20
166.5122490369207
 30
0.000000000000000
 11
307.3232663154230
 21
136.5122490370117
 31
0.000000000000000
  0
LINE
  5
35A
100
AcDbEntity
  8
A1
  6
CONTINUOUS
 62
7
100
AcDbLine
 10
310.8232663154236
 20
166.5122490369207
 30
0.000000000000000
 11
310.8232663154236
 21
136.5122490370117
 31
0.000000000000000
  0
ARC
  5
35B
100
AcDbEntity
  8
A1
  6
CONTINUOUS
 62
7
100
AcDbCircle
 10
309.8232663154233
 20
166.5122490369207
 30
0.000000000000000
 40
1.000000000000001
100
AcDbArc
 50
0.000000000000000
 51
89.99999999998604
  0
LINE
  5
35C
100
AcDbEntity
  8
A1
  6
CONTINUOUS
 62
7
100
AcDbLine
 10
309.8232663154232
 20
167.5122490369207
 30
0.000000000000000
 11
308.3232663154232
 21
167.5122490369207
 31
0.000000000000000
  0
ARC
  5
35D
100
AcDbEntity
  8
A1
  6
CONTINUOUS
 62
7
100
AcDbCircle
 10
308.3232663154233
 20
166.5122490369207
 30
0.000000000000000
 40
1.000000000000006
100
AcDbArc
 50
89.99999999997945
 51
179.9999999999994
  0
ARC
  5
35E
100
AcDbEntity
  8
A1
  6
CONTINUOUS
 62
7
100
AcDbCircle
 10
308.3232663154724
 20
136.5122490370117
 30
0.000000000000000
 40
1.000000000000000
100
AcDbArc
 50
90.00000000000000
 51
180.0000000000000
  0
LINE
  5
35F
100
AcDbEntity
  8
A1
  6
CONTINUOUS
 62
7
100
AcDbLine
 10
323.3232663145885
 20
137.5122490369949
 30
0.000000000000000
 11
324.8232663145386
 21
137.5122490369949
 31
0.000000000000000
  0
ARC
  5
360
100
AcDbEntity
  8
A1
  6
CONTINUOUS
 62
7
100
AcDbCircle
 10
324.8232663145386
 20
136.5122490369966
 30
0.000000000000000
 40
1.000000000000000
100
AcDbArc
 50
0.000000000000000
 51
90.00000000000000
  0
LINE
  5
361
100
AcDbEntity
  8
A1
  6
CONTINUOUS
 62
7
100
AcDbLine
 10
322.3232663145391
 20
166.5122490369056
 30
0.000000000000000
 11
322.3232663145391
 21
136.5122490369966
 31
0.000000000000000
  0
LINE
  5
362
100
AcDbEntity
  8
A1
  6
CONTINUOUS
 62
7
100
AcDbLine
 10
325.8232663145396
 20
166.5122490369056
 30
0.000000000000000
 11
325.8232663145396
 21
136.5122490369966
 31
0.000000000000000
  0
ARC
  5
363
100
AcDbEntity
  8
A1
  6
CONTINUOUS
 62
7
100
AcDbCircle
 10
324.8232663145394
 20
166.5122490369056
 30
0.000000000000000
 40
1.000000000000001
100
AcDbArc
 50
0.000000000000000
 51
89.99999999998604
  0
LINE
  5
364
100
AcDbEntity
  8
A1
  6
CONTINUOUS
 62
7
100
AcDbLine
 10
324.8232663145393
 20
167.5122490369056
 30
0.000000000000000
 11
323.3232663145393
 21
167.5122490369056
 31
0.000000000000000
  0
ARC
  5
365
100
AcDbEntity
  8
A1
  6
CONTINUOUS
 62
7
100
AcDbCircle
 10
323.3232663145394
 20
166.5122490369056
 30
0.000000000000000
 40
1.000000000000006
100
AcDbArc
 50
89.99999999997945
 51
179.9999999999994
  0
ARC
  5
366
100
AcDbEntity
  8
A1
  6
CONTINUOUS
 62
7
100
AcDbCircle
 10
323.3232663145885
 20
136.5122490369966
 30
0.000000000000000
 40
1.000000000000000
100
AcDbArc
 50
90.00000000000000
 51
180.0000000000000
  0
LINE
  5
367
100
AcDbEntity
  8
A1
  6
CONTINUOUS
 62
7
100
AcDbLine
 10
294.8232663163064
 20
137.5122490369949
 30
0.000000000000000
 11
293.3232663163564
 21
137.5122490369949
 31
0.000000000000000
  0
ARC
  5
368
100
AcDbEntity
  8
A1
  6
CONTINUOUS
 62
7
100
AcDbCircle
 10
293.3232663163564
 20
136.5122490369966
 30
0.000000000000000
 40
1.000000000000000
100
AcDbArc
 50
90.00000000000000
 51
180.0000000000000
  0
LINE
  5
369
100
AcDbEntity
  8
A1
  6
CONTINUOUS
 62
7
100
AcDbLine
 10
295.8232663163559
 20
166.5122490369056
 30
0.000000000000000
 11
295.8232663163559
 21
136.5122490369966
 31
0.000000000000000
  0
LINE
  5
36A
100
AcDbEntity
  8
A1
  6
CONTINUOUS
 62
7
100
AcDbLine
 10
292.3232663163553
 20
166.5122490369056
 30
0.000000000000000
 11
292.3232663163553
 21
136.5122490369966
 31
0.000000000000000
  0
ARC
  5
36B
100
AcDbEntity
  8
A1
  6
CONTINUOUS
 62
7
100
AcDbCircle
 10
293.3232663163557
 20
166.5122490369056
 30
0.000000000000000
 40
1.000000000000001
100
AcDbArc
 50
90.00000000001396
 51
180.0000000000000
  0
LINE
  5
36C
100
AcDbEntity
  8
A1
  6
CONTINUOUS
 62
7
100
AcDbLine
 10
293.3232663163557
 20
167.5122490369056
 30
0.000000000000000
 11
294.8232663163557
 21
167.5122490369056
 31
0.000000000000000
  0
ARC
  5
36D
100
AcDbEntity
  8
A1
  6
CONTINUOUS
 62
7
100
AcDbCircle
 10
294.8232663163557
 20
166.5122490369056
 30
0.000000000000000
 40
1.000000000000006
100
AcDbArc
 50
6.106664988409952e-13
 51
90.00000000002056
  0
ARC
  5
36E
100
AcDbEntity
  8
A1
  6
CONTINUOUS
 62
7
100
AcDbCircle
 10
294.8232663163064
 20
136.5122490369966
 30
0.000000000000000
 40
1.000000000000000
100
AcDbArc
 50
0.000000000000000
 51
90.00000000000000
  0
LINE
  5
36F
100
AcDbEntity
  8
A1
  6
CONTINUOUS
 62
7
100
AcDbLine
 10
295.8232663163559
 20
166.5122490369056
 30
0.000000000000000
 11
307.3232663154233
 21
166.5122490369056
 31
0.000000000000000
  0
LINE
  5
370
100
AcDbEntity
  8
A1
  6
CONTINUOUS
 62
7
100
AcDbLine
 10
310.8232663154233
 20
166.5122490369056
 30
0.000000000000000
 11
322.3232663145391
 21
166.5122490369056
 31
0.000000000000000
  0
ENDSEC
  0
SECTION
  2
OBJECTS
  0
DICTIONARY
  5
3A1
100
AcDbDictionary
  3
ACAD_GROUP
350
3A2
  3
ACAD_LAYOUT
350
3A3
  3
ACAD_MLINESTYLE
350
3A4
  0
DICTIONARY
  5
3A2
102
{ACAD_REACTORS
330
3A1
102
}
330
3A1
100
AcDbDictionary
  0
DICTIONARY
  5
3A3
102
{ACAD_REACTORS
330
3A1
102
}
330
3A1
100
AcDbDictionary
  3
Model
350
3A5
  3
ﾚｲｱｳﾄ1
350
3A6
  3
ﾚｲｱｳﾄ2
350
3A7
  0
DICTIONARY
  5
3A4
102
{ACAD_REACTORS
330
3A1
102
}
330
3A1
100
AcDbDictionary
  3
STANDARD
350
3A8
  0
LAYOUT
  5
3A5
102
{ACAD_REACTORS
330
3A3
102
}
330
3A3
100
AcDbPlotSettings
 70
11952
  4
A3
 44
297.000000
 45
420.000000
 73
  1
 72
  1
100
AcDbLayout
  1
Model
 71
0
330
398
  0
LAYOUT
  5
3A6
102
{ACAD_REACTORS
330
3A3
102
}
330
3A3
100
AcDbPlotSettings
100
AcDbLayout
  1
ﾚｲｱｳﾄ1
 71
1
330
399
  0
LAYOUT
  5
3A7
102
{ACAD_REACTORS
330
3A3
102
}
330
3A3
100
AcDbPlotSettings
100
AcDbLayout
  1
ﾚｲｱｳﾄ2
 71
2
330
39A
  0
MLINESTYLE
  5
3A8
102
{ACAD_REACTORS
330
3A4
102
}
330
3A4
100
AcDbMlineStyle
  2
STANDARD
 70
     0
  3

 62
   256
 51
90.00
 52
90.00
 71
     2
 49
0.50
 62
   256
  6
BYLAYER
 49
-0.50
 62
   256
  6
BYLAYER
  0
ENDSEC
  0
EOF
