  0
SECTION
  2
HEADER
  9
$ACADVER
  1
AC1014
  9
$DWGCODEPAGE
  3
ANSI_932
  9
$LTSCALE
 40
20.0
  9
$FILLMODE
 70
     1
  9
$CLAYER
  8
0
  9
$PDMODE
 70
     0
  9
$SPLFRAME
 70
     0
  9
$SPLINETYPE
 70
     6
  9
$SPLINESEGS
 70
     8
  9
$DIMASZ
 40
2.000000
  9
$DIMEXE
 40
1.500000
  9
$DIMEXO
 40
0.800000
  9
$DIMTAD
 70
     1
  9
$DIMTIH
 70
     0
  9
$DIMTOH
 70
     0
  9
$DIMTVP
 40
0.500000
  9
$DIMTXT
 40
3.100000
  9
$EXTMIN
 10
0.000000
 20
0.000000
 30
0.000000
  9
$EXTMAX
 10
297.000000
 20
420.000000
 30
0.000000
  9
$MEASUREMENT
 70
  1
  9
$LIMMIN
 10
0.000000
 20
0.000000
  9
$LIMMAX
 10
297.000000
 20
420.000000
  9
$HANDLING
 70
     1
  9
$HANDSEED
  5
F4
  9
$DIMBLK
  1
_OPEN
  9
$DIMDEC
 70
     2
  9
$DIMAUNIT
 70
     0
  9
$DIMZIN
 70
     8
  9
$DIMTOFL
 70
     1
  0
ENDSEC
  0
SECTION
  2
CLASSES
  0
ENDSEC
  0
SECTION
  2
TABLES
  0
TABLE
  2
VPORT
  5
BA
100
AcDbSymbolTable
 70
     1
  0
VPORT
  5
BB
100
AcDbSymbolTableRecord
100
AcDbViewportTableRecord
  2
*ACTIVE
 70
     0
 12
51.080468
 22
72.059872
 40
108.119742
 41
0.759907
  0
ENDTAB
  0
TABLE
  2
LTYPE
  5
BC
100
AcDbSymbolTable
 70
     3
  0
LTYPE
  5
BD
100
AcDbSymbolTableRecord
100
AcDbLinetypeTableRecord
  2
BYBLOCK
 70
     0
  3

 72
    65
 73
     0
 40
0.0
  0
LTYPE
  5
BE
100
AcDbSymbolTableRecord
100
AcDbLinetypeTableRecord
  2
BYLAYER
 70
     0
  3

 72
    65
 73
     0
 40
0.0
  0
LTYPE
  5
BF
100
AcDbSymbolTableRecord
100
AcDbLinetypeTableRecord
  2
CONTINUOUS
 70
     0
  3
Solid line (NEC CAE2D for Win R18.0 : 2025.07.14)
 72
    65
 73
     0
 40
0.0
  0
LTYPE
  5
C0
100
AcDbSymbolTableRecord
100
AcDbLinetypeTableRecord
  2
DASHED
 70
     0
  3
__ __ __ __ __ __ __ __ __ __ __ __ __ _
 72
    65
 73
     2
 40
0.75
 49
0.5
 74
     0
 49
-0.25
 74
     0
  0
LTYPE
  5
C1
100
AcDbSymbolTableRecord
100
AcDbLinetypeTableRecord
  2
CENTER
 70
     0
  3
____ _ ____ _ ____ _ ____ _ ____ _ ____
 72
    65
 73
     4
 40
2.0
 49
1.25
 74
     0
 49
-0.25
 74
     0
 49
0.25
 74
     0
 49
-0.25
 74
     0
  0
ENDTAB
  0
TABLE
  2
LAYER
  5
C2
100
AcDbSymbolTable
 70
    26
  0
LAYER
  5
C3
100
AcDbSymbolTableRecord
100
AcDbLayerTableRecord
  2
0
 70
     0
 62
     7
  6
CONTINUOUS
  0
LAYER
  5
C4
100
AcDbSymbolTableRecord
100
AcDbLayerTableRecord
  2
DXF0
 70
     0
 62
     7
  6
CONTINUOUS
  0
LAYER
  5
C5
100
AcDbSymbolTableRecord
100
AcDbLayerTableRecord
  2
A0
 70
     0
 62
     9
  6
CONTINUOUS
  0
LAYER
  5
C6
100
AcDbSymbolTableRecord
100
AcDbLayerTableRecord
  2
A1
 70
     0
 62
     1
  6
CONTINUOUS
  0
LAYER
  5
C7
100
AcDbSymbolTableRecord
100
AcDbLayerTableRecord
  2
A2
 70
     0
 62
     9
  6
CONTINUOUS
  0
LAYER
  5
C8
100
AcDbSymbolTableRecord
100
AcDbLayerTableRecord
  2
A3
 70
     0
 62
    12
  6
CONTINUOUS
  0
LAYER
  5
C9
100
AcDbSymbolTableRecord
100
AcDbLayerTableRecord
  2
A4
 70
     0
 62
     9
  6
CONTINUOUS
  0
LAYER
  5
CA
100
AcDbSymbolTableRecord
100
AcDbLayerTableRecord
  2
A5
 70
     0
 62
     8
  6
CONTINUOUS
  0
LAYER
  5
CB
100
AcDbSymbolTableRecord
100
AcDbLayerTableRecord
  2
A6
 70
     0
 62
    12
  6
CONTINUOUS
  0
LAYER
  5
CC
100
AcDbSymbolTableRecord
100
AcDbLayerTableRecord
  2
A7
 70
     0
 62
    12
  6
CONTINUOUS
  0
LAYER
  5
CD
100
AcDbSymbolTableRecord
100
AcDbLayerTableRecord
  2
A8
 70
     0
 62
    10
  6
CONTINUOUS
  0
LAYER
  5
CE
100
AcDbSymbolTableRecord
100
AcDbLayerTableRecord
  2
A9
 70
     0
 62
     9
  6
CONTINUOUS
  0
LAYER
  5
CF
100
AcDbSymbolTableRecord
100
AcDbLayerTableRecord
  2
A10
 70
     0
 62
     6
  6
CONTINUOUS
  0
LAYER
  5
D0
100
AcDbSymbolTableRecord
100
AcDbLayerTableRecord
  2
A11
 70
     0
 62
    10
  6
CONTINUOUS
  0
LAYER
  5
D1
100
AcDbSymbolTableRecord
100
AcDbLayerTableRecord
  2
A16
 70
     0
 62
     5
  6
CONTINUOUS
  0
LAYER
  5
D2
100
AcDbSymbolTableRecord
100
AcDbLayerTableRecord
  2
A17
 70
     0
 62
     9
  6
CONTINUOUS
  0
LAYER
  5
D3
100
AcDbSymbolTableRecord
100
AcDbLayerTableRecord
  2
A20
 70
     0
 62
     1
  6
CONTINUOUS
  0
LAYER
  5
D4
100
AcDbSymbolTableRecord
100
AcDbLayerTableRecord
  2
A23
 70
     0
 62
   121
  6
CONTINUOUS
  0
LAYER
  5
D5
100
AcDbSymbolTableRecord
100
AcDbLayerTableRecord
  2
A27
 70
     0
 62
   242
  6
CONTINUOUS
  0
LAYER
  5
D6
100
AcDbSymbolTableRecord
100
AcDbLayerTableRecord
  2
A28
 70
     0
 62
     2
  6
CONTINUOUS
  0
LAYER
  5
D7
100
AcDbSymbolTableRecord
100
AcDbLayerTableRecord
  2
A29
 70
     0
 62
    80
  6
CONTINUOUS
  0
LAYER
  5
D8
100
AcDbSymbolTableRecord
100
AcDbLayerTableRecord
  2
A30
 70
     0
 62
     1
  6
CONTINUOUS
  0
LAYER
  5
D9
100
AcDbSymbolTableRecord
100
AcDbLayerTableRecord
  2
A40
 70
     0
 62
     9
  6
CONTINUOUS
  0
LAYER
  5
DA
100
AcDbSymbolTableRecord
100
AcDbLayerTableRecord
  2
A50
 70
     0
 62
    12
  6
CONTINUOUS
  0
LAYER
  5
DB
100
AcDbSymbolTableRecord
100
AcDbLayerTableRecord
  2
A1023
 70
     0
 62
     8
  6
CONTINUOUS
  0
LAYER
  5
DC
100
AcDbSymbolTableRecord
100
AcDbLayerTableRecord
  2
DXF1023
 70
     0
 62
    16
  6
CONTINUOUS
  0
ENDTAB
  0
TABLE
  2
STYLE
  5
DD
100
AcDbSymbolTable
 70
     4
  0
STYLE
  5
DE
100
AcDbSymbolTableRecord
100
AcDbTextStyleTableRecord
  2
STANDARD
 70
    64
 40
0.0
 41
1.0
 50
0.0
 71
     0
 42
3.000000000000000
  3
TXT
  4

  0
STYLE
  5
DF
100
AcDbSymbolTableRecord
100
AcDbTextStyleTableRecord
  2
ANKTATE
 70
    68
 40
0.0
 41
1.0
 50
0.0
 71
     0
 42
3.000000000000000
  3
TXT
  4

  0
STYLE
  5
E0
100
AcDbSymbolTableRecord
100
AcDbTextStyleTableRecord
  2
KNJYOKO
 70
    64
 40
0.0
 41
1.0
 50
0.0
 71
     0
 42
3.000000000000000
  3
TXT
  4
BIGFONT
  0
STYLE
  5
E1
100
AcDbSymbolTableRecord
100
AcDbTextStyleTableRecord
  2
KNJTATE
 70
    68
 40
0.0
 41
1.0
 50
0.0
 71
     0
 42
3.000000000000000
  3
TXT
  4
BIGFONT
  0
ENDTAB
  0
TABLE
  2
VIEW
  5
E2
100
AcDbSymbolTable
 70
     0
  0
ENDTAB
  0
TABLE
  2
UCS
  5
E3
100
AcDbSymbolTable
 70
     0
  0
ENDTAB
  0
TABLE
  2
APPID
  5
E4
100
AcDbSymbolTable
 70
     1
  0
APPID
  5
E5
100
AcDbSymbolTableRecord
100
AcDbRegAppTableRecord
  2
ACAD
 70
     0
  0
ENDTAB
  0
TABLE
  2
DIMSTYLE
  5
E6
100
AcDbSymbolTable
 70
     2
  0
DIMSTYLE
105
E7
100
AcDbSymbolTableRecord
100
AcDbDimStyleTableRecord
  2
STANDARD
 70
     0
 41
2.000000
 44
1.500000
 42
0.800000
145
0.661290
140
3.100000
144
1.000000
146
0.645161
340
DE
  0
DIMSTYLE
105
E8
100
AcDbSymbolTableRecord
100
AcDbDimStyleTableRecord
  2
DXF001
 70
     0
 41
2.000000
 44
1.500000
 42
0.800000
145
0.661290
140
3.100000
144
1.000000
146
0.645161
 77
     1
 73
     0
 74
     0
271
     2
275
     0
 78
     8
172
     1
340
DE
  0
ENDTAB
  0
TABLE
  2
BLOCK_RECORD
  5
E9
100
AcDbSymbolTable
 70
    12
  0
BLOCK_RECORD
  5
EA
100
AcDbSymbolTableRecord
100
AcDbBlockTableRecord
  2
*MODEL_SPACE
  0
BLOCK_RECORD
  5
EB
100
AcDbSymbolTableRecord
100
AcDbBlockTableRecord
  2
*PAPER_SPACE
  0
BLOCK_RECORD
  5
1
100
AcDbSymbolTableRecord
100
AcDbBlockTableRecord
  2
_NONE
  0
BLOCK_RECORD
  5
4
100
AcDbSymbolTableRecord
100
AcDbBlockTableRecord
  2
_CLOSED
  0
BLOCK_RECORD
  5
B
100
AcDbSymbolTableRecord
100
AcDbBlockTableRecord
  2
_DOT
  0
BLOCK_RECORD
  5
13
100
AcDbSymbolTableRecord
100
AcDbBlockTableRecord
  2
_OPEN
  0
BLOCK_RECORD
  5
19
100
AcDbSymbolTableRecord
100
AcDbBlockTableRecord
  2
_ORIGIN
  0
BLOCK_RECORD
  5
1E
100
AcDbSymbolTableRecord
100
AcDbBlockTableRecord
  2
_OPEN30
  0
BLOCK_RECORD
  5
24
100
AcDbSymbolTableRecord
100
AcDbBlockTableRecord
  2
_BOXFILLED
  0
BLOCK_RECORD
  5
29
100
AcDbSymbolTableRecord
100
AcDbBlockTableRecord
  2
_BOXBLANK
  0
BLOCK_RECORD
  5
31
100
AcDbSymbolTableRecord
100
AcDbBlockTableRecord
  2
_OBLIQUE
  0
BLOCK_RECORD
  5
35
100
AcDbSymbolTableRecord
100
AcDbBlockTableRecord
  2
_OPEN90
  0
BLOCK_RECORD
  5
3B
100
AcDbSymbolTableRecord
100
AcDbBlockTableRecord
  2
_CLOSEDBLANK
  0
BLOCK_RECORD
  5
41
100
AcDbSymbolTableRecord
100
AcDbBlockTableRecord
  2
_DOTBLANK
  0
ENDTAB
  0
ENDSEC
  0
SECTION
  2
BLOCKS
  0
BLOCK
  5
EC
100
AcDbEntity
  8
0
100
AcDbBlockBegin
  2
*MODEL_SPACE
 70
     0
 10
0.0
 20
0.0
 30
0.0
  3
*MODEL_SPACE
  1

  0
ENDBLK
  5
ED
100
AcDbEntity
  8
0
100
AcDbBlockEnd
  0
BLOCK
  5
EE
100
AcDbEntity
  8
0
100
AcDbBlockBegin
  2
*PAPER_SPACE
 70
     0
 10
0.0
 20
0.0
 30
0.0
  3
*PAPER_SPACE
  1

  0
ENDBLK
  5
EF
100
AcDbEntity
  8
0
100
AcDbBlockEnd
  0
BLOCK
  5
2
100
AcDbEntity
  8
0
100
AcDbBlockBegin
  2
_NONE
 70
     0
 10
0.0
 20
0.0
 30
0.0
  3
_NONE
  1

  0
ENDBLK
  5
3
100
AcDbEntity
  8
0
100
AcDbBlockEnd
  0
BLOCK
  5
5
100
AcDbEntity
  8
0
100
AcDbBlockBegin
  2
_CLOSED
 70
     0
 10
0.0
 20
0.0
 30
0.0
  3
_CLOSED
  1

  0
LINE
  5
6
100
AcDbEntity
  8
0
  6
BYBLOCK
 62
     0
100
AcDbLine
 10
-1.0
 20
0.166667
 30
0.0
 11
0.0
 21
0.0
 31
0.0
  0
LINE
  5
7
100
AcDbEntity
  8
0
  6
BYBLOCK
 62
     0
100
AcDbLine
 10
0.0
 20
0.0
 30
0.0
 11
-1.0
 21
-0.166667
 31
0.0
  0
LINE
  5
8
100
AcDbEntity
  8
0
  6
BYBLOCK
 62
     0
100
AcDbLine
 10
-1.0
 20
0.166667
 30
0.0
 11
-1.0
 21
-0.166667
 31
0.0
  0
LINE
  5
9
100
AcDbEntity
  8
0
  6
BYBLOCK
 62
     0
100
AcDbLine
 10
0.0
 20
0.0
 30
0.0
 11
-1.0
 21
0.0
 31
0.0
  0
ENDBLK
  5
A
100
AcDbEntity
  8
0
100
AcDbBlockEnd
  0
BLOCK
  5
C
100
AcDbEntity
  8
0
100
AcDbBlockBegin
  2
_DOT
 70
     0
 10
0.0
 20
0.0
 30
0.0
  3
_DOT
  1

  0
POLYLINE
  5
D
100
AcDbEntity
  8
0
  6
BYBLOCK
 62
     0
100
AcDb2dPolyline
 66
     1
 10
0.0
 20
0.0
 30
0.0
 70
     1
 40
0.5
 41
0.5
  0
VERTEX
  5
E
100
AcDbEntity
  8
0
  6
BYBLOCK
 62
     0
100
AcDbVertex
100
AcDb2dVertex
 10
-0.25
 20
0.0
 30
0.0
 42
1.0
  0
VERTEX
  5
F
100
AcDbEntity
  8
0
  6
BYBLOCK
 62
     0
100
AcDbVertex
100
AcDb2dVertex
 10
0.25
 20
0.0
 30
0.0
 42
1.0
  0
SEQEND
  5
10
100
AcDbEntity
  8
0
  6
BYBLOCK
 62
     0
  0
LINE
  5
11
100
AcDbEntity
  8
0
  6
BYBLOCK
 62
     0
100
AcDbLine
 10
-0.5
 20
0.0
 30
0.0
 11
-1.0
 21
0.0
 31
0.0
  0
ENDBLK
  5
12
100
AcDbEntity
  8
0
100
AcDbBlockEnd
  0
BLOCK
  5
14
100
AcDbEntity
  8
0
100
AcDbBlockBegin
  2
_OPEN
 70
     0
 10
0.0
 20
0.0
 30
0.0
  3
_OPEN
  1

  0
LINE
  5
15
100
AcDbEntity
  8
0
  6
BYBLOCK
 62
     0
100
AcDbLine
 10
-1.0
 20
0.166667
 30
0.0
 11
0.0
 21
0.0
 31
0.0
  0
LINE
  5
16
100
AcDbEntity
  8
0
  6
BYBLOCK
 62
     0
100
AcDbLine
 10
0.0
 20
0.0
 30
0.0
 11
-1.0
 21
-0.166667
 31
0.0
  0
LINE
  5
17
100
AcDbEntity
  8
0
  6
BYBLOCK
 62
     0
100
AcDbLine
 10
0.0
 20
0.0
 30
0.0
 11
-1.0
 21
0.0
 31
0.0
  0
ENDBLK
  5
18
100
AcDbEntity
  8
0
100
AcDbBlockEnd
  0
BLOCK
  5
1A
100
AcDbEntity
  8
0
100
AcDbBlockBegin
  2
_ORIGIN
 70
     0
 10
0.0
 20
0.0
 30
0.0
  3
_ORIGIN
  1

  0
CIRCLE
  5
1B
100
AcDbEntity
  8
0
  6
BYBLOCK
 62
     0
100
AcDbCircle
 10
0.0
 20
0.0
 30
0.0
 40
0.5
  0
LINE
  5
1C
100
AcDbEntity
  8
0
  6
BYBLOCK
 62
     0
100
AcDbLine
 10
0.0
 20
0.0
 30
0.0
 11
-1.0
 21
0.0
 31
0.0
  0
ENDBLK
  5
1D
100
AcDbEntity
  8
0
100
AcDbBlockEnd
  0
BLOCK
  5
1F
100
AcDbEntity
  8
0
100
AcDbBlockBegin
  2
_OPEN30
 70
     0
 10
0.0
 20
0.0
 30
0.0
  3
_OPEN30
  1

  0
LINE
  5
20
100
AcDbEntity
  8
0
  6
BYBLOCK
 62
     0
100
AcDbLine
 10
-1.0
 20
0.267949
 30
0.0
 11
0.0
 21
0.0
 31
0.0
  0
LINE
  5
21
100
AcDbEntity
  8
0
  6
BYBLOCK
 62
     0
100
AcDbLine
 10
0.0
 20
0.0
 30
0.0
 11
-1.0
 21
-0.267949
 31
0.0
  0
LINE
  5
22
100
AcDbEntity
  8
0
  6
BYBLOCK
 62
     0
100
AcDbLine
 10
0.0
 20
0.0
 30
0.0
 11
-1.0
 21
0.0
 31
0.0
  0
ENDBLK
  5
23
100
AcDbEntity
  8
0
100
AcDbBlockEnd
  0
BLOCK
  5
25
100
AcDbEntity
  8
0
100
AcDbBlockBegin
  2
_BOXFILLED
 70
     0
 10
0.0
 20
0.0
 30
0.0
  3
_BOXFILLED
  1

  0
SOLID
  5
26
100
AcDbEntity
  8
0
  6
BYBLOCK
 62
     0
100
AcDbTrace
 10
-0.5
 20
0.5
 30
0.0
 11
0.5
 21
0.5
 31
0.0
 12
-0.5
 22
-0.5
 32
0.0
 13
0.5
 23
-0.5
 33
0.0
  0
LINE
  5
27
100
AcDbEntity
  8
0
  6
BYBLOCK
 62
     0
100
AcDbLine
 10
-0.5
 20
0.0
 30
0.0
 11
-1.0
 21
0.0
 31
0.0
  0
ENDBLK
  5
28
100
AcDbEntity
  8
0
100
AcDbBlockEnd
  0
BLOCK
  5
2A
100
AcDbEntity
  8
0
100
AcDbBlockBegin
  2
_BOXBLANK
 70
     0
 10
0.0
 20
0.0
 30
0.0
  3
_BOXBLANK
  1

  0
LINE
  5
2B
100
AcDbEntity
  8
0
  6
BYBLOCK
 62
     0
100
AcDbLine
 10
-0.5
 20
-0.5
 30
0.0
 11
0.5
 21
-0.5
 31
0.0
  0
LINE
  5
2C
100
AcDbEntity
  8
0
  6
BYBLOCK
 62
     0
100
AcDbLine
 10
0.5
 20
-0.5
 30
0.0
 11
0.5
 21
0.5
 31
0.0
  0
LINE
  5
2D
100
AcDbEntity
  8
0
  6
BYBLOCK
 62
     0
100
AcDbLine
 10
0.5
 20
0.5
 30
0.0
 11
-0.5
 21
0.5
 31
0.0
  0
LINE
  5
2E
100
AcDbEntity
  8
0
  6
BYBLOCK
 62
     0
100
AcDbLine
 10
-0.5
 20
0.5
 30
0.0
 11
-0.5
 21
-0.5
 31
0.0
  0
LINE
  5
2F
100
AcDbEntity
  8
0
  6
BYBLOCK
 62
     0
100
AcDbLine
 10
-0.5
 20
0.0
 30
0.0
 11
-1.0
 21
0.0
 31
0.0
  0
ENDBLK
  5
30
100
AcDbEntity
  8
0
100
AcDbBlockEnd
  0
BLOCK
  5
32
100
AcDbEntity
  8
0
100
AcDbBlockBegin
  2
_OBLIQUE
 70
     0
 10
0.0
 20
0.0
 30
0.0
  3
_OBLIQUE
  1

  0
LINE
  5
33
100
AcDbEntity
  8
0
  6
BYBLOCK
 62
     0
100
AcDbLine
 10
-0.5
 20
-0.5
 30
0.0
 11
0.5
 21
0.5
 31
0.0
  0
ENDBLK
  5
34
100
AcDbEntity
  8
0
100
AcDbBlockEnd
  0
BLOCK
  5
36
100
AcDbEntity
  8
0
100
AcDbBlockBegin
  2
_OPEN90
 70
     0
 10
0.0
 20
0.0
 30
0.0
  3
_OPEN90
  1

  0
LINE
  5
37
100
AcDbEntity
  8
0
  6
BYBLOCK
 62
     0
100
AcDbLine
 10
-0.5
 20
0.5
 30
0.0
 11
0.0
 21
0.0
 31
0.0
  0
LINE
  5
38
100
AcDbEntity
  8
0
  6
BYBLOCK
 62
     0
100
AcDbLine
 10
0.0
 20
0.0
 30
0.0
 11
-0.5
 21
-0.5
 31
0.0
  0
LINE
  5
39
100
AcDbEntity
  8
0
  6
BYBLOCK
 62
     0
100
AcDbLine
 10
0.0
 20
0.0
 30
0.0
 11
-1.0
 21
0.0
 31
0.0
  0
ENDBLK
  5
3A
100
AcDbEntity
  8
0
100
AcDbBlockEnd
  0
BLOCK
  5
3C
100
AcDbEntity
  8
0
100
AcDbBlockBegin
  2
_CLOSEDBLANK
 70
     0
 10
0.0
 20
0.0
 30
0.0
  3
_CLOSEDBLANK
  1

  0
LINE
  5
3D
100
AcDbEntity
  8
0
  6
BYBLOCK
 62
     0
100
AcDbLine
 10
-1.0
 20
0.1666666666666666
 30
0.0
 11
0.0
 21
0.0
 31
0.0
  0
LINE
  5
3E
100
AcDbEntity
  8
0
  6
BYBLOCK
 62
     0
100
AcDbLine
 10
0.0
 20
0.0
 30
0.0
 11
-1.0
 21
-0.1666666666666666
 31
0.0
  0
LINE
  5
3F
100
AcDbEntity
  8
0
  6
BYBLOCK
 62
     0
100
AcDbLine
 10
-1.0
 20
0.1666666666666666
 30
0.0
 11
-1.0
 21
-0.1666666666666666
 31
0.0
  0
ENDBLK
  5
40
100
AcDbEntity
  8
0
100
AcDbBlockEnd
  0
BLOCK
  5
42
100
AcDbEntity
  8
0
100
AcDbBlockBegin
  2
_DOTBLANK
 70
     0
 10
0.0
 20
0.0
 30
0.0
  3
_DOTBLANK
  1

  0
CIRCLE
  5
43
100
AcDbEntity
  8
0
  6
BYBLOCK
 62
     0
100
AcDbCircle
 10
0.0
 20
0.0
 30
0.0
 40
0.5
  0
LINE
  5
44
100
AcDbEntity
  8
0
  6
BYBLOCK
 62
     0
100
AcDbLine
 10
-0.5
 20
0.0
 30
0.0
 11
-1.0
 21
0.0
 31
0.0
  0
ENDBLK
  5
45
100
AcDbEntity
  8
0
100
AcDbBlockEnd
  0
ENDSEC
  0
SECTION
  2
ENTITIES
  0
MTEXT
  5
46
100
AcDbEntity
  8
A7
  6
CONTINUOUS
 62
3
100
AcDbMText
 10
9.999997526638502
 20
18.00000076076889
 30
0.000000000000000
 40
3.000000000000000
 41
0.000000000000000
 71
     7
 72
     1
  1
{\H0.94x;{TYPE No.TH-195SUS}}
 11
1.000000000000000
 21
0.000000000000000
 31
0.000000000000000
  7
STANDARD
  0
POINT
  5
47
100
AcDbEntity
  8
A10
  6
CONTINUOUS
 62
3
100
AcDbPoint
 10
9.999997526638502
 20
18.00000076076889
 30
0.000000000000000
  0
LINE
  5
48
100
AcDbEntity
  8
A1
  6
CONTINUOUS
 62
7
100
AcDbLine
 10
65.36635220729390
 20
123.6197423461375
 30
0.000000000000000
 11
65.36635220729390
 21
85.61974234613749
 31
0.000000000000000
  0
LINE
  5
49
100
AcDbEntity
  8
A1
  6
CONTINUOUS
 62
7
100
AcDbLine
 10
30.36635220729390
 20
123.6197423461375
 30
0.000000000000000
 11
30.36635220729390
 21
85.61974234613749
 31
0.000000000000000
  0
LINE
  5
4A
100
AcDbEntity
  8
A1
  6
CONTINUOUS
 62
7
100
AcDbLine
 10
52.26635220729391
 20
114.8697423461375
 30
0.000000000000000
 11
52.26635220729391
 21
94.36974234613751
 31
0.000000000000000
  0
LINE
  5
4B
100
AcDbEntity
  8
A4
  6
CENTER
 62
1
100
AcDbLine
 10
30.36635220729390
 20
117.6197423461375
 30
0.000000000000000
 11
65.36635220729390
 21
117.6197423461375
 31
0.000000000000000
  0
LINE
  5
4C
100
AcDbEntity
  8
A4
  6
CENTER
 62
1
100
AcDbLine
 10
30.36635220729390
 20
91.61974234613751
 30
0.000000000000000
 11
65.36635220729390
 21
91.61974234613751
 31
0.000000000000000
  0
LINE
  5
4D
100
AcDbEntity
  8
A1
  6
CONTINUOUS
 62
7
100
AcDbLine
 10
44.21635220729389
 20
115.6197423461375
 30
0.000000000000000
 11
51.51635220729391
 21
115.6197423461375
 31
0.000000000000000
  0
LINE
  5
4E
100
AcDbEntity
  8
A1
  6
CONTINUOUS
 62
7
100
AcDbLine
 10
44.21635220729389
 20
93.61974234613751
 30
0.000000000000000
 11
51.51635220729391
 21
93.61974234613751
 31
0.000000000000000
  0
LINE
  5
4F
100
AcDbEntity
  8
A4
  6
CENTER
 62
1
100
AcDbLine
 10
47.86635220729390
 20
83.11974234613749
 30
0.000000000000000
 11
47.86635220729390
 21
126.1197423461375
 31
0.000000000000000
  0
ARC
  5
50
100
AcDbEntity
  8
A1
  6
CONTINUOUS
 62
7
100
AcDbCircle
 10
31.36635220729390
 20
123.6197423461375
 30
0.000000000000000
 40
1.000000000000000
100
AcDbArc
 50
90.00000000000000
 51
180.0000000000000
  0
ARC
  5
51
100
AcDbEntity
  8
A1
  6
CONTINUOUS
 62
7
100
AcDbCircle
 10
64.36635220729390
 20
123.6197423461375
 30
0.000000000000000
 40
1.000000000000000
100
AcDbArc
 50
0.000000000000000
 51
90.00000000000000
  0
ARC
  5
52
100
AcDbEntity
  8
A1
  6
CONTINUOUS
 62
7
100
AcDbCircle
 10
64.36635220729390
 20
85.61974234613749
 30
0.000000000000000
 40
1.000000000000000
100
AcDbArc
 50
270.0000000000000
 51
360.0000000000000
  0
ARC
  5
53
100
AcDbEntity
  8
A1
  6
CONTINUOUS
 62
7
100
AcDbCircle
 10
31.36635220729393
 20
85.61974234613749
 30
0.000000000000000
 40
1.000000000000000
100
AcDbArc
 50
180.0000000000000
 51
270.0000000000000
  0
LINE
  5
54
100
AcDbEntity
  8
A1
  6
CONTINUOUS
 62
7
100
AcDbLine
 10
65.36635220729390
 20
44.61974234613749
 30
0.000000000000000
 11
30.36635220729387
 21
44.61974234613749
 31
0.000000000000000
  0
LINE
  5
55
100
AcDbEntity
  8
A1
  6
CONTINUOUS
 62
7
100
AcDbLine
 10
65.36635220729390
 20
46.11974234613751
 30
0.000000000000000
 11
65.36635220729390
 21
44.61974234613751
 31
0.000000000000000
  0
LINE
  5
56
100
AcDbEntity
  8
A1
  6
CONTINUOUS
 62
7
100
AcDbLine
 10
30.36635220729388
 20
46.11974234613749
 30
0.000000000000000
 11
30.36635220729388
 21
44.61974234613749
 31
0.000000000000000
  0
LINE
  5
57
100
AcDbEntity
  8
A4
  6
CENTER
 62
1
100
AcDbLine
 10
52.57325470836678
 20
47.66974234613750
 30
0.000000000000000
 11
43.50570354852012
 21
47.66974234613750
 31
0.000000000000000
  0
ARC
  5
58
100
AcDbEntity
  8
A1
  6
CONTINUOUS
 62
7
100
AcDbCircle
 10
47.86635220729390
 20
47.66974234613750
 30
0.000000000000000
 40
3.050000000000011
100
AcDbArc
 50
329.4562112647544
 51
630.0000000000000
  0
LINE
  5
59
100
AcDbEntity
  8
A1
  6
CONTINUOUS
 62
7
100
AcDbLine
 10
43.46635220729389
 20
46.11974234613749
 30
0.000000000000000
 11
43.46635220729389
 21
44.61974234613749
 31
0.000000000000000
  0
LINE
  5
5A
100
AcDbEntity
  8
A1
  6
CONTINUOUS
 62
7
100
AcDbLine
 10
45.23956709998116
 20
46.11974234613749
 30
0.000000000000000
 11
30.36635220729387
 21
46.11974234613749
 31
0.000000000000000
  0
LINE
  5
5B
100
AcDbEntity
  8
A1
  6
CONTINUOUS
 62
7
100
AcDbLine
 10
65.36635220729390
 20
46.11974234613749
 30
0.000000000000000
 11
49.18922786282620
 21
46.11974234613749
 31
0.000000000000000
  0
LINE
  5
5C
100
AcDbEntity
  8
A1
  6
CONTINUOUS
 62
7
100
AcDbLine
 10
49.60312894672327
 20
46.62797293877652
 30
0.000000000000000
 11
50.49313731460671
 21
46.11974234613741
 31
0.000000000000000
  0
LINE
  5
5D
100
AcDbEntity
  8
A1
  6
CONTINUOUS
 62
7
100
AcDbLine
 10
44.81635220729390
 20
124.6197423461375
 30
0.000000000000000
 11
44.81635220729390
 21
84.61974234613751
 31
0.000000000000000
  0
LINE
  5
5E
100
AcDbEntity
  8
A1
  6
CONTINUOUS
 62
7
100
AcDbLine
 10
50.91635220729392
 20
124.6197423461375
 30
0.000000000000000
 11
50.91635220729392
 21
84.61974234613751
 31
0.000000000000000
  0
LINE
  5
5F
100
AcDbEntity
  8
A1
  6
CONTINUOUS
 62
7
100
AcDbLine
 10
42.46635220729389
 20
84.61974234613749
 30
0.000000000000000
 11
31.36635220729393
 21
84.61974234613749
 31
0.000000000000000
  0
LINE
  5
60
100
AcDbEntity
  8
A1
  6
CONTINUOUS
 62
7
100
AcDbLine
 10
64.36635220729390
 20
84.61974234613749
 30
0.000000000000000
 11
44.81635220729389
 21
84.61974234613749
 31
0.000000000000000
  0
LINE
  5
61
100
AcDbEntity
  8
A1
  6
CONTINUOUS
 62
7
100
AcDbLine
 10
31.36635220729390
 20
124.6197423461375
 30
0.000000000000000
 11
42.46635220729389
 21
124.6197423461375
 31
0.000000000000000
  0
LINE
  5
62
100
AcDbEntity
  8
A1
  6
CONTINUOUS
 62
7
100
AcDbLine
 10
44.81635220729389
 20
124.6197423461375
 30
0.000000000000000
 11
64.36635220729390
 21
124.6197423461375
 31
0.000000000000000
  0
LINE
  5
63
100
AcDbEntity
  8
A1
  6
CONTINUOUS
 62
7
100
AcDbLine
 10
43.46635220729389
 20
92.86974234613751
 30
0.000000000000000
 11
43.46635220729389
 21
85.61974234613749
 31
0.000000000000000
  0
LINE
  5
64
100
AcDbEntity
  8
A1
  6
CONTINUOUS
 62
7
100
AcDbLine
 10
43.46635220729389
 20
123.6197423461375
 30
0.000000000000000
 11
43.46635220729389
 21
116.3697423461375
 31
0.000000000000000
  0
LINE
  5
65
100
AcDbEntity
  8
A1
  6
CONTINUOUS
 62
7
100
AcDbLine
 10
45.81635220729389
 20
84.61974234613749
 30
0.000000000000000
 11
49.91635220729388
 21
84.61974234613749
 31
0.000000000000000
  0
ARC
  5
66
100
AcDbEntity
  8
A2
  6
CONTINUOUS
 62
4
100
AcDbCircle
 10
36.86635220729390
 20
107.9530355336907
 30
0.000000000000000
 40
1.431765911236078
100
AcDbArc
 50
35.53767779200084
 51
76.53743939173309
  0
ARC
  5
67
100
AcDbEntity
  8
A2
  6
CONTINUOUS
 62
4
100
AcDbCircle
 10
32.19974174490990
 20
104.6197423462702
 30
0.000000000000000
 40
7.166580352953972
100
AcDbArc
 50
324.4623222079991
 51
395.5376777920009
  0
ARC
  5
68
100
AcDbEntity
  8
A2
  6
CONTINUOUS
 62
4
100
AcDbCircle
 10
36.86635220729390
 20
101.2864491588498
 30
0.000000000000000
 40
1.431765911236079
100
AcDbArc
 50
242.2496545546281
 51
324.4623222079992
  0
ARC
  5
69
100
AcDbEntity
  8
A2
  6
CONTINUOUS
 62
4
100
AcDbCircle
 10
36.86635220729390
 20
107.9530355336907
 30
0.000000000000000
 40
1.431765911236078
100
AcDbArc
 50
90.00000000000000
 51
144.4623222080521
  0
ARC
  5
6A
100
AcDbEntity
  8
A2
  6
CONTINUOUS
 62
4
100
AcDbCircle
 10
41.53296266968705
 20
104.6197423462702
 30
0.000000000000000
 40
7.166580352953972
100
AcDbArc
 50
144.4623222080520
 51
215.5376777919479
  0
ARC
  5
6B
100
AcDbEntity
  8
A2
  6
CONTINUOUS
 62
4
100
AcDbCircle
 10
36.86635220729390
 20
101.2864491588498
 30
0.000000000000000
 40
1.431765911236079
100
AcDbArc
 50
215.5376777919479
 51
225.6988392796171
  0
LINE
  5
6C
100
AcDbEntity
  8
A2
  6
CONTINUOUS
 62
4
100
AcDbLine
 10
38.39006197905454
 20
108.2308099659758
 30
0.000000000000000
 11
35.99528012314136
 21
108.2308099659758
 31
0.000000000000000
  0
LINE
  5
6D
100
AcDbEntity
  8
A2
  6
CONTINUOUS
 62
4
100
AcDbLine
 10
35.84136522999606
 20
107.6752611014057
 30
0.000000000000000
 11
37.89133918460093
 21
107.6752611014057
 31
0.000000000000000
  0
ARC
  5
6E
100
AcDbEntity
  8
A2
  6
CONTINUOUS
 62
4
100
AcDbCircle
 10
37.89133918460091
 20
107.3974866691206
 30
0.000000000000000
 40
0.2777744322850376
100
AcDbArc
 50
26.01436599963663
 51
90.00000000000000
  0
ARC
  5
6F
100
AcDbEntity
  8
A2
  6
CONTINUOUS
 62
4
100
AcDbCircle
 10
32.19974174490990
 20
104.6197423462702
 30
0.000000000000000
 40
6.611031488383896
100
AcDbArc
 50
22.94395355653779
 51
26.01436599963663
  0
ARC
  5
70
100
AcDbEntity
  8
A2
  6
CONTINUOUS
 62
4
100
AcDbCircle
 10
38.23659246299424
 20
107.1752671232926
 30
0.000000000000000
 40
0.05555488645700751
100
AcDbArc
 50
270.0000000000000
 51
382.9439535565375
  0
LINE
  5
71
100
AcDbEntity
  8
A2
  6
CONTINUOUS
 62
4
100
AcDbLine
 10
38.23659246299426
 20
107.1197122368356
 30
0.000000000000000
 11
35.49611195160265
 21
107.1197122368356
 31
0.000000000000000
  0
ARC
  5
72
100
AcDbEntity
  8
A2
  6
CONTINUOUS
 62
4
100
AcDbCircle
 10
35.49611195160263
 20
107.1752671232926
 30
0.000000000000000
 40
0.05555488645700751
100
AcDbArc
 50
157.0560464434623
 51
270.0000000000000
  0
ARC
  5
73
100
AcDbEntity
  8
A2
  6
CONTINUOUS
 62
4
100
AcDbCircle
 10
41.53296266968705
 20
104.6197423462702
 30
0.000000000000000
 40
6.611031488383896
100
AcDbArc
 50
153.9856340003634
 51
157.0560464434622
  0
ARC
  5
74
100
AcDbEntity
  8
A2
  6
CONTINUOUS
 62
4
100
AcDbCircle
 10
35.84136522999604
 20
107.3974866691206
 30
0.000000000000000
 40
0.2777744322850376
100
AcDbArc
 50
90.00000000000000
 51
153.9856340003634
  0
LINE
  5
75
100
AcDbEntity
  8
A2
  6
CONTINUOUS
 62
4
100
AcDbLine
 10
37.53301084477796
 20
106.0086145076954
 30
0.000000000000000
 11
38.59410676277967
 21
106.0086145076954
 31
0.000000000000000
  0
ARC
  5
76
100
AcDbEntity
  8
A2
  6
CONTINUOUS
 62
4
100
AcDbCircle
 10
38.59410676277965
 20
106.0641693941524
 30
0.000000000000000
 40
0.05555488645700751
100
AcDbArc
 50
270.0000000000000
 51
372.7289438731227
  0
ARC
  5
77
100
AcDbEntity
  8
A2
  6
CONTINUOUS
 62
4
100
AcDbCircle
 10
32.19974174490990
 20
104.6197423462702
 30
0.000000000000000
 40
6.611031488383896
100
AcDbArc
 50
12.72894387312263
 51
13.26811897055621
  0
ARC
  5
78
100
AcDbEntity
  8
A2
  6
CONTINUOUS
 62
4
100
AcDbCircle
 10
32.19974174490990
 20
104.6197423462702
 30
0.000000000000000
 40
6.611031488383896
100
AcDbArc
 50
13.26811897055625
 51
15.25752329045639
  0
ARC
  5
79
100
AcDbEntity
  8
A2
  6
CONTINUOUS
 62
4
100
AcDbCircle
 10
38.30976908284374
 20
106.2863889399805
 30
0.000000000000000
 40
0.2777744322850376
100
AcDbArc
 50
15.25752329045640
 51
90.00000000000000
  0
LINE
  5
7A
100
AcDbEntity
  8
A2
  6
CONTINUOUS
 62
4
100
AcDbLine
 10
38.30976908284376
 20
106.5641633722655
 30
0.000000000000000
 11
35.42293533175317
 21
106.5641633722655
 31
0.000000000000000
  0
ARC
  5
7B
100
AcDbEntity
  8
A2
  6
CONTINUOUS
 62
4
100
AcDbCircle
 10
35.42293533175315
 20
106.2863889399805
 30
0.000000000000000
 40
0.2777744322850376
100
AcDbArc
 50
90.00000000000000
 51
164.7424767095436
  0
ARC
  5
7C
100
AcDbEntity
  8
A2
  6
CONTINUOUS
 62
4
100
AcDbCircle
 10
41.53296266968705
 20
104.6197423462702
 30
0.000000000000000
 40
6.611031488383896
100
AcDbArc
 50
164.7424767095436
 51
164.7937121239420
  0
ARC
  5
7D
100
AcDbEntity
  8
A2
  6
CONTINUOUS
 62
4
100
AcDbCircle
 10
41.53296266968705
 20
104.6197423462702
 30
0.000000000000000
 40
6.611031488383896
100
AcDbArc
 50
164.7937121239420
 51
167.2710561268773
  0
ARC
  5
7E
100
AcDbEntity
  8
A2
  6
CONTINUOUS
 62
4
100
AcDbCircle
 10
35.13859765181725
 20
106.0641693941524
 30
0.000000000000000
 40
0.05555488645700751
100
AcDbArc
 50
167.2710561268775
 51
270.0000000000000
  0
LINE
  5
7F
100
AcDbEntity
  8
A2
  6
CONTINUOUS
 62
4
100
AcDbLine
 10
35.13859765181727
 20
106.0086145076954
 30
0.000000000000000
 11
36.19969356980986
 21
106.0086145076954
 31
0.000000000000000
  0
LINE
  5
80
100
AcDbEntity
  8
A2
  6
CONTINUOUS
 62
4
100
AcDbLine
 10
38.75804256321045
 20
105.4530656431254
 30
0.000000000000000
 11
34.97466185138661
 21
105.4530656431254
 31
0.000000000000000
  0
LINE
  5
81
100
AcDbEntity
  8
A2
  6
CONTINUOUS
 62
4
100
AcDbLine
 10
38.80493505814241
 20
104.8975167785552
 30
0.000000000000000
 11
34.92776935645458
 21
104.8975167785552
 31
0.000000000000000
  0
LINE
  5
82
100
AcDbEntity
  8
A2
  6
CONTINUOUS
 62
4
100
AcDbLine
 10
36.86635220729392
 20
104.8975167785552
 30
0.000000000000000
 11
36.86635220729392
 21
105.4530656431254
 31
0.000000000000000
  0
LINE
  5
83
100
AcDbEntity
  8
A2
  6
CONTINUOUS
 62
4
100
AcDbLine
 10
38.80493505814241
 20
104.3419679139852
 30
0.000000000000000
 11
34.92776935645458
 21
104.3419679139852
 31
0.000000000000000
  0
LINE
  5
84
100
AcDbEntity
  8
A2
  6
CONTINUOUS
 62
4
100
AcDbLine
 10
37.53301084477796
 20
103.2308701848451
 30
0.000000000000000
 11
38.43477236030592
 21
103.2308701848451
 31
0.000000000000000
  0
ARC
  5
85
100
AcDbEntity
  8
A2
  6
CONTINUOUS
 62
4
100
AcDbCircle
 10
38.43477236030590
 20
103.5086446171301
 30
0.000000000000000
 40
0.2777744322850376
100
AcDbArc
 50
270.0000000000000
 51
349.8958172838749
  0
ARC
  5
86
100
AcDbEntity
  8
A2
  6
CONTINUOUS
 62
4
100
AcDbCircle
 10
32.19974174490990
 20
104.6197423462702
 30
0.000000000000000
 40
6.611031488383896
100
AcDbArc
 50
349.8958172838750
 51
352.2070756645776
  0
ARC
  5
87
100
AcDbEntity
  8
A2
  6
CONTINUOUS
 62
4
100
AcDbCircle
 10
38.69467585186139
 20
103.7308641629581
 30
0.000000000000000
 40
0.05555488645700751
100
AcDbArc
 50
352.2070756645773
 51
450.0000000000000
  0
LINE
  5
88
100
AcDbEntity
  8
A2
  6
CONTINUOUS
 62
4
100
AcDbLine
 10
38.69467585186141
 20
103.7864190494151
 30
0.000000000000000
 11
35.03802856273558
 21
103.7864190494151
 31
0.000000000000000
  0
ARC
  5
89
100
AcDbEntity
  8
A2
  6
CONTINUOUS
 62
4
100
AcDbCircle
 10
35.03802856273556
 20
103.7308641629581
 30
0.000000000000000
 40
0.05555488645700751
100
AcDbArc
 50
90.00000000000000
 51
187.7929243354228
  0
ARC
  5
8A
100
AcDbEntity
  8
A2
  6
CONTINUOUS
 62
4
100
AcDbCircle
 10
41.53296266968705
 20
104.6197423462702
 30
0.000000000000000
 40
6.611031488383896
100
AcDbArc
 50
187.7929243354224
 51
190.1041827161250
  0
ARC
  5
8B
100
AcDbEntity
  8
A2
  6
CONTINUOUS
 62
4
100
AcDbCircle
 10
35.29793205429111
 20
103.5086446171301
 30
0.000000000000000
 40
0.2777744322850376
100
AcDbArc
 50
190.1041827161250
 51
270.0000000000000
  0
LINE
  5
8C
100
AcDbEntity
  8
A2
  6
CONTINUOUS
 62
4
100
AcDbLine
 10
35.29793205429113
 20
103.2308701848451
 30
0.000000000000000
 11
36.86635220729392
 21
103.2308701848451
 31
0.000000000000000
  0
LINE
  5
8D
100
AcDbEntity
  8
A2
  6
CONTINUOUS
 62
4
100
AcDbLine
 10
36.86635220729392
 20
103.2308701848451
 30
0.000000000000000
 11
36.86635220729392
 21
103.5086446171301
 31
0.000000000000000
  0
LINE
  5
8E
100
AcDbEntity
  8
A2
  6
CONTINUOUS
 62
4
100
AcDbLine
 10
38.69253713248830
 20
102.6753213202749
 30
0.000000000000000
 11
35.21434223370020
 21
102.6753213202749
 31
0.000000000000000
  0
LINE
  5
8F
100
AcDbEntity
  8
A2
  6
CONTINUOUS
 62
4
100
AcDbLine
 10
38.43081109522030
 20
102.1197724557049
 30
0.000000000000000
 11
37.14412663957899
 21
102.1197724557049
 31
0.000000000000000
  0
ARC
  5
90
100
AcDbEntity
  8
A2
  6
CONTINUOUS
 62
4
100
AcDbCircle
 10
37.14412663957897
 20
101.8419980234199
 30
0.000000000000000
 40
0.2777744322850389
100
AcDbArc
 50
90.00000000000000
 51
270.0000000000000
  0
LINE
  5
91
100
AcDbEntity
  8
A2
  6
CONTINUOUS
 62
4
100
AcDbLine
 10
37.14412663957899
 20
101.5642235911348
 30
0.000000000000000
 11
38.33094775063805
 21
101.5642235911348
 31
0.000000000000000
  0
LINE
  5
92
100
AcDbEntity
  8
A2
  6
CONTINUOUS
 62
4
100
AcDbLine
 10
36.86635220729392
 20
101.8419980234199
 30
0.000000000000000
 11
35.53380657759588
 21
101.8419980234199
 31
0.000000000000000
  0
LINE
  5
93
100
AcDbEntity
  8
A2
  6
CONTINUOUS
 62
4
100
AcDbLine
 10
35.82674470551323
 20
101.2813574245243
 30
0.000000000000000
 11
38.16891115418384
 21
100.6537758160616
 31
0.000000000000000
  0
LINE
  5
94
100
AcDbEntity
  8
A2
  6
CONTINUOUS
 62
4
100
AcDbLine
 10
36.86635220729392
 20
99.85468324761371
 30
0.000000000000000
 11
36.86635220729392
 21
101.0027954339758
 31
0.000000000000000
  0
ARC
  5
95
100
AcDbEntity
  8
A1
  6
CONTINUOUS
 62
7
100
AcDbCircle
 10
47.86635220729390
 20
86.84630484613751
 30
0.000000000000000
 40
3.026562500000029
100
AcDbArc
 50
227.3641754490771
 51
312.6358245509229
  0
LINE
  5
96
100
AcDbEntity
  8
A1
  6
CONTINUOUS
 62
7
100
AcDbLine
 10
50.11635220729386
 20
125.3197423461375
 30
0.000000000000000
 11
50.11635220729298
 21
124.6197423461374
 31
0.000000000000000
  0
LINE
  5
97
100
AcDbEntity
  8
A1
  6
CONTINUOUS
 62
7
100
AcDbLine
 10
45.61635220729385
 20
125.3197423461375
 30
0.000000000000000
 11
45.61635220729661
 21
124.6197423461374
 31
0.000000000000000
  0
ARC
  5
98
100
AcDbEntity
  8
A1
  6
CONTINUOUS
 62
7
100
AcDbCircle
 10
47.86635220729384
 20
117.0322423461376
 30
0.000000000000000
 40
8.587499999999933
100
AcDbArc
 50
74.81071326281679
 51
105.1892867371829
  0
CIRCLE
  5
99
100
AcDbEntity
  8
A1
  6
CONTINUOUS
 62
7
100
AcDbCircle
 10
47.86635220729390
 20
47.61974234613749
 30
0.000000000000000
 40
2.000000000000000
  0
LINE
  5
9A
100
AcDbEntity
  8
A4
  6
CENTER
 62
1
100
AcDbLine
 10
47.86635220729390
 20
43.75448046643740
 30
0.000000000000000
 11
47.86635220729390
 21
52.15653447788952
 31
0.000000000000000
  0
CIRCLE
  5
9B
100
AcDbEntity
  8
A1
  6
CONTINUOUS
 62
7
100
AcDbCircle
 10
58.86635220729390
 20
117.6197423461375
 30
0.000000000000000
 40
2.250000000000000
  0
CIRCLE
  5
9C
100
AcDbEntity
  8
A1
  6
CONTINUOUS
 62
7
100
AcDbCircle
 10
36.86635220729390
 20
117.6197423461375
 30
0.000000000000000
 40
2.250000000000000
  0
CIRCLE
  5
9D
100
AcDbEntity
  8
A1
  6
CONTINUOUS
 62
7
100
AcDbCircle
 10
36.86635220729390
 20
91.61974234613751
 30
0.000000000000000
 40
2.250000000000000
  0
CIRCLE
  5
9E
100
AcDbEntity
  8
A1
  6
CONTINUOUS
 62
7
100
AcDbCircle
 10
58.86635220729390
 20
91.61974234613751
 30
0.000000000000000
 40
2.250000000000000
  0
ARC
  5
9F
100
AcDbEntity
  8
A1
  6
CONTINUOUS
 62
7
100
AcDbCircle
 10
44.21635220729389
 20
92.86974234613751
 30
0.000000000000000
 40
0.7500000000000000
100
AcDbArc
 50
90.00000000000000
 51
180.0000000000000
  0
ARC
  5
A0
100
AcDbEntity
  8
A1
  6
CONTINUOUS
 62
7
100
AcDbCircle
 10
51.51635220729391
 20
94.36974234613751
 30
0.000000000000000
 40
0.7500000000000000
100
AcDbArc
 50
270.0000000000000
 51
360.0000000000000
  0
ARC
  5
A1
100
AcDbEntity
  8
A1
  6
CONTINUOUS
 62
7
100
AcDbCircle
 10
51.51635220729391
 20
114.8697423461375
 30
0.000000000000000
 40
0.7500000000000000
100
AcDbArc
 50
0.000000000000000
 51
90.00000000000000
  0
ARC
  5
A2
100
AcDbEntity
  8
A1
  6
CONTINUOUS
 62
7
100
AcDbCircle
 10
42.46635220729389
 20
85.61974234613749
 30
0.000000000000000
 40
1.000000000000000
100
AcDbArc
 50
270.0000000000000
 51
360.0000000000000
  0
ARC
  5
A3
100
AcDbEntity
  8
A1
  6
CONTINUOUS
 62
7
100
AcDbCircle
 10
42.46635220729389
 20
123.6197423461375
 30
0.000000000000000
 40
1.000000000000000
100
AcDbArc
 50
0.000000000000000
 51
90.00000000000000
  0
LINE
  5
A4
100
AcDbEntity
  8
A3
  6
DASHED
 62
2
100
AcDbLine
 10
46.36635220729390
 20
84.61974234613749
 30
0.000000000000000
 11
46.36635220729390
 21
124.6197423461375
 31
0.000000000000000
  0
LINE
  5
A5
100
AcDbEntity
  8
A3
  6
DASHED
 62
2
100
AcDbLine
 10
49.36635220729390
 20
84.61974234613749
 30
0.000000000000000
 11
49.36635220729390
 21
124.6197423461375
 31
0.000000000000000
  0
ARC
  5
A6
100
AcDbEntity
  8
A1
  6
CONTINUOUS
 62
7
100
AcDbCircle
 10
44.21635220729389
 20
116.3697423461375
 30
0.000000000000000
 40
0.7500000000000000
100
AcDbArc
 50
180.0000000000000
 51
270.0000000000000
  0
LINE
  5
A7
100
AcDbEntity
  8
A1
  6
CONTINUOUS
 62
7
100
AcDbLine
 10
86.06093874214199
 20
124.6197423461375
 30
0.000000000000000
 11
86.06093874214197
 21
84.61974234613751
 31
0.000000000000000
  0
LINE
  5
A8
100
AcDbEntity
  8
A1
  6
CONTINUOUS
 62
7
100
AcDbLine
 10
90.66093874214201
 20
124.6197423461375
 30
0.000000000000000
 11
90.66093874214199
 21
84.61974234613751
 31
0.000000000000000
  0
LINE
  5
A9
100
AcDbEntity
  8
A1
  6
CONTINUOUS
 62
7
100
AcDbLine
 10
92.16093874214201
 20
124.6197423461375
 30
0.000000000000000
 11
92.16093874214199
 21
84.61974234613751
 31
0.000000000000000
  0
LINE
  5
AA
100
AcDbEntity
  8
A1
  6
CONTINUOUS
 62
7
100
AcDbLine
 10
92.16093874214199
 20
84.61974234613750
 30
0.000000000000000
 11
86.06093874214197
 21
84.61974234613750
 31
0.000000000000000
  0
LINE
  5
AB
100
AcDbEntity
  8
A1
  6
CONTINUOUS
 62
7
100
AcDbLine
 10
92.16093874214199
 20
124.6197423461375
 30
0.000000000000000
 11
86.06093874214197
 21
124.6197423461375
 31
0.000000000000000
  0
LINE
  5
AC
100
AcDbEntity
  8
A1
  6
CONTINUOUS
 62
7
100
AcDbLine
 10
90.66093874214199
 20
115.6197423461375
 30
0.000000000000000
 11
86.06093874214197
 21
115.6197423461375
 31
0.000000000000000
  0
LINE
  5
AD
100
AcDbEntity
  8
A1
  6
CONTINUOUS
 62
7
100
AcDbLine
 10
90.66093874214199
 20
93.61974234613750
 30
0.000000000000000
 11
86.06093874214197
 21
93.61974234613750
 31
0.000000000000000
  0
LINE
  5
AE
100
AcDbEntity
  8
A4
  6
CENTER
 62
1
100
AcDbLine
 10
89.11093874214198
 20
126.1197423461375
 30
0.000000000000000
 11
89.11093874214198
 21
83.11974234613749
 31
0.000000000000000
  0
LINE
  5
AF
100
AcDbEntity
  8
A1
  6
CONTINUOUS
 62
7
100
AcDbLine
 10
87.06093874214197
 20
84.61974234613747
 30
0.000000000000000
 11
91.16093874214197
 21
84.61974234613747
 31
0.000000000000000
  0
ARC
  5
B0
100
AcDbEntity
  8
A1
  6
CONTINUOUS
 62
7
100
AcDbCircle
 10
89.11093874214198
 20
86.84630484613750
 30
0.000000000000000
 40
3.026562500000029
100
AcDbArc
 50
227.3641754490771
 51
312.6358245509229
  0
LINE
  5
B1
100
AcDbEntity
  8
A1
  6
CONTINUOUS
 62
7
100
AcDbLine
 10
91.36093874214195
 20
125.3197423461375
 30
0.000000000000000
 11
91.36093874214107
 21
124.6197423461374
 31
0.000000000000000
  0
LINE
  5
B2
100
AcDbEntity
  8
A1
  6
CONTINUOUS
 62
7
100
AcDbLine
 10
86.86093874214194
 20
125.3197423461375
 30
0.000000000000000
 11
86.86093874214470
 21
124.6197423461374
 31
0.000000000000000
  0
ARC
  5
B3
100
AcDbEntity
  8
A1
  6
CONTINUOUS
 62
7
100
AcDbCircle
 10
89.11093874214193
 20
117.0322423461376
 30
0.000000000000000
 40
8.587499999999933
100
AcDbArc
 50
74.81071326281679
 51
105.1892867371829
  0
LINE
  5
B4
100
AcDbEntity
  8
A3
  6
DASHED
 62
2
100
AcDbLine
 10
87.61093874214198
 20
84.61974234613747
 30
0.000000000000000
 11
87.61093874214198
 21
124.6197423461375
 31
0.000000000000000
  0
LINE
  5
B5
100
AcDbEntity
  8
A3
  6
DASHED
 62
2
100
AcDbLine
 10
90.61093874214198
 20
84.61974234613747
 30
0.000000000000000
 11
90.61093874214198
 21
124.6197423461375
 31
0.000000000000000
  0
LINE
  5
B6
100
AcDbEntity
  8
A4
  6
CENTER
 62
1
100
AcDbLine
 10
58.86635220729390
 20
40.66833030384939
 30
0.000000000000000
 11
58.86635220729390
 21
48.85879312315031
 31
0.000000000000000
  0
LINE
  5
B7
100
AcDbEntity
  8
A4
  6
CENTER
 62
1
100
AcDbLine
 10
58.86635220729390
 20
84.61974234613749
 30
0.000000000000000
 11
58.86635220729390
 21
124.6197423461375
 31
0.000000000000000
  0
LINE
  5
B8
100
AcDbEntity
  8
A4
  6
CENTER
 62
1
100
AcDbLine
 10
36.86635220729390
 20
40.66833030384939
 30
0.000000000000000
 11
36.86635220729390
 21
48.85879312315031
 31
0.000000000000000
  0
LINE
  5
B9
100
AcDbEntity
  8
A4
  6
CENTER
 62
1
100
AcDbLine
 10
36.86635220729390
 20
84.61974234613749
 30
0.000000000000000
 11
36.86635220729390
 21
124.6197423461375
 31
0.000000000000000
  0
ENDSEC
  0
SECTION
  2
OBJECTS
  0
DICTIONARY
  5
F0
100
AcDbDictionary
  3
ACAD_GROUP
350
F1
  3
ACAD_MLINESTYLE
350
F2
  0
DICTIONARY
  5
F1
102
{ACAD_REACTORS
330
F0
102
}
100
AcDbDictionary
  0
DICTIONARY
  5
F2
102
{ACAD_REACTORS
330
F0
102
}
100
AcDbDictionary
  3
STANDARD
350
F3
  0
MLINESTYLE
  5
F3
102
{ACAD_REACTORS
330
F2
102
}
100
AcDbMlineStyle
  2
STANDARD
 70
     0
  3

 62
   256
 51
90.00
 52
90.00
 71
     2
 49
0.50
 62
   256
  6
BYLAYER
 49
-0.50
 62
   256
  6
BYLAYER
  0
ENDSEC
  0
EOF
