  0
SECTION
  2
HEADER
  9
$ACADVER
  1
AC1014
  9
$DWGCODEPAGE
  3
ANSI_932
  9
$LTSCALE
 40
20.0
  9
$FILLMODE
 70
     1
  9
$CLAYER
  8
0
  9
$PDMODE
 70
     0
  9
$SPLFRAME
 70
     0
  9
$SPLINETYPE
 70
     6
  9
$SPLINESEGS
 70
     8
  9
$DIMASZ
 40
2.000000
  9
$DIMEXE
 40
1.500000
  9
$DIMEXO
 40
0.800000
  9
$DIMTAD
 70
     1
  9
$DIMTIH
 70
     0
  9
$DIMTOH
 70
     0
  9
$DIMTVP
 40
0.500000
  9
$DIMTXT
 40
3.100000
  9
$EXTMIN
 10
0.000000
 20
0.000000
 30
0.000000
  9
$EXTMAX
 10
297.000000
 20
420.000000
 30
0.000000
  9
$MEASUREMENT
 70
  1
  9
$LIMMIN
 10
0.000000
 20
0.000000
  9
$LIMMAX
 10
297.000000
 20
420.000000
  9
$HANDLING
 70
     1
  9
$HANDSEED
  5
132
  9
$DIMBLK
  1
_OPEN
  9
$DIMDEC
 70
     2
  9
$DIMAUNIT
 70
     0
  9
$DIMZIN
 70
     8
  9
$DIMTOFL
 70
     1
  0
ENDSEC
  0
SECTION
  2
CLASSES
  0
ENDSEC
  0
SECTION
  2
TABLES
  0
TABLE
  2
VPORT
  5
109
100
AcDbSymbolTable
 70
     1
  0
VPORT
  5
10A
100
AcDbSymbolTableRecord
100
AcDbViewportTableRecord
  2
*ACTIVE
 70
     0
 12
226.750025
 22
118.749954
 40
201.499908
 41
2.151365
  0
ENDTAB
  0
TABLE
  2
LTYPE
  5
10B
100
AcDbSymbolTable
 70
     2
  0
LTYPE
  5
10C
100
AcDbSymbolTableRecord
100
AcDbLinetypeTableRecord
  2
BYBLOCK
 70
     0
  3

 72
    65
 73
     0
 40
0.0
  0
LTYPE
  5
10D
100
AcDbSymbolTableRecord
100
AcDbLinetypeTableRecord
  2
BYLAYER
 70
     0
  3

 72
    65
 73
     0
 40
0.0
  0
LTYPE
  5
10E
100
AcDbSymbolTableRecord
100
AcDbLinetypeTableRecord
  2
CONTINUOUS
 70
     0
  3
Solid line (NEC CAE2D for Win R18.0 : 2025.08.25)
 72
    65
 73
     0
 40
0.0
  0
LTYPE
  5
10F
100
AcDbSymbolTableRecord
100
AcDbLinetypeTableRecord
  2
CENTER
 70
     0
  3
____ _ ____ _ ____ _ ____ _ ____ _ ____
 72
    65
 73
     4
 40
2.0
 49
1.25
 74
     0
 49
-0.25
 74
     0
 49
0.25
 74
     0
 49
-0.25
 74
     0
  0
ENDTAB
  0
TABLE
  2
LAYER
  5
110
100
AcDbSymbolTable
 70
    10
  0
LAYER
  5
111
100
AcDbSymbolTableRecord
100
AcDbLayerTableRecord
  2
0
 70
     0
 62
     7
  6
CONTINUOUS
  0
LAYER
  5
112
100
AcDbSymbolTableRecord
100
AcDbLayerTableRecord
  2
DXF0
 70
     0
 62
     7
  6
CONTINUOUS
  0
LAYER
  5
113
100
AcDbSymbolTableRecord
100
AcDbLayerTableRecord
  2
4
 70
     0
 62
     1
  6
CONTINUOUS
  0
LAYER
  5
114
100
AcDbSymbolTableRecord
100
AcDbLayerTableRecord
  2
5
 70
     0
 62
     6
  6
CONTINUOUS
  0
LAYER
  5
115
100
AcDbSymbolTableRecord
100
AcDbLayerTableRecord
  2
1
 70
     0
 62
     7
  6
CONTINUOUS
  0
LAYER
  5
116
100
AcDbSymbolTableRecord
100
AcDbLayerTableRecord
  2
2
 70
     0
 62
     4
  6
CONTINUOUS
  0
LAYER
  5
117
100
AcDbSymbolTableRecord
100
AcDbLayerTableRecord
  2
3
 70
     0
 62
     2
  6
CONTINUOUS
  0
LAYER
  5
118
100
AcDbSymbolTableRecord
100
AcDbLayerTableRecord
  2
6
 70
     0
 62
     5
  6
CONTINUOUS
  0
LAYER
  5
119
100
AcDbSymbolTableRecord
100
AcDbLayerTableRecord
  2
7
 70
     0
 62
     3
  6
CONTINUOUS
  0
LAYER
  5
11A
100
AcDbSymbolTableRecord
100
AcDbLayerTableRecord
  2
DXF1023
 70
     0
 62
    16
  6
CONTINUOUS
  0
ENDTAB
  0
TABLE
  2
STYLE
  5
11B
100
AcDbSymbolTable
 70
     4
  0
STYLE
  5
11C
100
AcDbSymbolTableRecord
100
AcDbTextStyleTableRecord
  2
STANDARD
 70
    64
 40
0.0
 41
1.0
 50
0.0
 71
     0
 42
3.000000000000000
  3
TXT
  4

  0
STYLE
  5
11D
100
AcDbSymbolTableRecord
100
AcDbTextStyleTableRecord
  2
ANKTATE
 70
    68
 40
0.0
 41
1.0
 50
0.0
 71
     0
 42
3.000000000000000
  3
TXT
  4

  0
STYLE
  5
11E
100
AcDbSymbolTableRecord
100
AcDbTextStyleTableRecord
  2
KNJYOKO
 70
    64
 40
0.0
 41
1.0
 50
0.0
 71
     0
 42
3.000000000000000
  3
TXT
  4
BIGFONT
  0
STYLE
  5
11F
100
AcDbSymbolTableRecord
100
AcDbTextStyleTableRecord
  2
KNJTATE
 70
    68
 40
0.0
 41
1.0
 50
0.0
 71
     0
 42
3.000000000000000
  3
TXT
  4
BIGFONT
  0
ENDTAB
  0
TABLE
  2
VIEW
  5
120
100
AcDbSymbolTable
 70
     0
  0
ENDTAB
  0
TABLE
  2
UCS
  5
121
100
AcDbSymbolTable
 70
     0
  0
ENDTAB
  0
TABLE
  2
APPID
  5
122
100
AcDbSymbolTable
 70
     1
  0
APPID
  5
123
100
AcDbSymbolTableRecord
100
AcDbRegAppTableRecord
  2
ACAD
 70
     0
  0
ENDTAB
  0
TABLE
  2
DIMSTYLE
  5
124
100
AcDbSymbolTable
 70
     2
  0
DIMSTYLE
105
125
100
AcDbSymbolTableRecord
100
AcDbDimStyleTableRecord
  2
STANDARD
 70
     0
 41
2.000000
 44
1.500000
 42
0.800000
145
0.661290
140
3.100000
144
1.000000
146
0.645161
340
11C
  0
DIMSTYLE
105
126
100
AcDbSymbolTableRecord
100
AcDbDimStyleTableRecord
  2
DXF001
 70
     0
 41
2.000000
 44
1.500000
 42
0.800000
145
0.661290
140
3.100000
144
1.000000
146
0.645161
 77
     1
 73
     0
 74
     0
271
     2
275
     0
 78
     8
172
     1
340
11C
  0
ENDTAB
  0
TABLE
  2
BLOCK_RECORD
  5
127
100
AcDbSymbolTable
 70
    12
  0
BLOCK_RECORD
  5
128
100
AcDbSymbolTableRecord
100
AcDbBlockTableRecord
  2
*MODEL_SPACE
  0
BLOCK_RECORD
  5
129
100
AcDbSymbolTableRecord
100
AcDbBlockTableRecord
  2
*PAPER_SPACE
  0
BLOCK_RECORD
  5
1
100
AcDbSymbolTableRecord
100
AcDbBlockTableRecord
  2
_NONE
  0
BLOCK_RECORD
  5
4
100
AcDbSymbolTableRecord
100
AcDbBlockTableRecord
  2
_CLOSED
  0
BLOCK_RECORD
  5
B
100
AcDbSymbolTableRecord
100
AcDbBlockTableRecord
  2
_DOT
  0
BLOCK_RECORD
  5
13
100
AcDbSymbolTableRecord
100
AcDbBlockTableRecord
  2
_OPEN
  0
BLOCK_RECORD
  5
19
100
AcDbSymbolTableRecord
100
AcDbBlockTableRecord
  2
_ORIGIN
  0
BLOCK_RECORD
  5
1E
100
AcDbSymbolTableRecord
100
AcDbBlockTableRecord
  2
_OPEN30
  0
BLOCK_RECORD
  5
24
100
AcDbSymbolTableRecord
100
AcDbBlockTableRecord
  2
_BOXFILLED
  0
BLOCK_RECORD
  5
29
100
AcDbSymbolTableRecord
100
AcDbBlockTableRecord
  2
_BOXBLANK
  0
BLOCK_RECORD
  5
31
100
AcDbSymbolTableRecord
100
AcDbBlockTableRecord
  2
_OBLIQUE
  0
BLOCK_RECORD
  5
35
100
AcDbSymbolTableRecord
100
AcDbBlockTableRecord
  2
_OPEN90
  0
BLOCK_RECORD
  5
3B
100
AcDbSymbolTableRecord
100
AcDbBlockTableRecord
  2
_CLOSEDBLANK
  0
BLOCK_RECORD
  5
41
100
AcDbSymbolTableRecord
100
AcDbBlockTableRecord
  2
_DOTBLANK
  0
ENDTAB
  0
ENDSEC
  0
SECTION
  2
BLOCKS
  0
BLOCK
  5
12A
100
AcDbEntity
  8
0
100
AcDbBlockBegin
  2
*MODEL_SPACE
 70
     0
 10
0.0
 20
0.0
 30
0.0
  3
*MODEL_SPACE
  1

  0
ENDBLK
  5
12B
100
AcDbEntity
  8
0
100
AcDbBlockEnd
  0
BLOCK
  5
12C
100
AcDbEntity
  8
0
100
AcDbBlockBegin
  2
*PAPER_SPACE
 70
     0
 10
0.0
 20
0.0
 30
0.0
  3
*PAPER_SPACE
  1

  0
ENDBLK
  5
12D
100
AcDbEntity
  8
0
100
AcDbBlockEnd
  0
BLOCK
  5
2
100
AcDbEntity
  8
0
100
AcDbBlockBegin
  2
_NONE
 70
     0
 10
0.0
 20
0.0
 30
0.0
  3
_NONE
  1

  0
ENDBLK
  5
3
100
AcDbEntity
  8
0
100
AcDbBlockEnd
  0
BLOCK
  5
5
100
AcDbEntity
  8
0
100
AcDbBlockBegin
  2
_CLOSED
 70
     0
 10
0.0
 20
0.0
 30
0.0
  3
_CLOSED
  1

  0
LINE
  5
6
100
AcDbEntity
  8
0
  6
BYBLOCK
 62
     0
100
AcDbLine
 10
-1.0
 20
0.166667
 30
0.0
 11
0.0
 21
0.0
 31
0.0
  0
LINE
  5
7
100
AcDbEntity
  8
0
  6
BYBLOCK
 62
     0
100
AcDbLine
 10
0.0
 20
0.0
 30
0.0
 11
-1.0
 21
-0.166667
 31
0.0
  0
LINE
  5
8
100
AcDbEntity
  8
0
  6
BYBLOCK
 62
     0
100
AcDbLine
 10
-1.0
 20
0.166667
 30
0.0
 11
-1.0
 21
-0.166667
 31
0.0
  0
LINE
  5
9
100
AcDbEntity
  8
0
  6
BYBLOCK
 62
     0
100
AcDbLine
 10
0.0
 20
0.0
 30
0.0
 11
-1.0
 21
0.0
 31
0.0
  0
ENDBLK
  5
A
100
AcDbEntity
  8
0
100
AcDbBlockEnd
  0
BLOCK
  5
C
100
AcDbEntity
  8
0
100
AcDbBlockBegin
  2
_DOT
 70
     0
 10
0.0
 20
0.0
 30
0.0
  3
_DOT
  1

  0
POLYLINE
  5
D
100
AcDbEntity
  8
0
  6
BYBLOCK
 62
     0
100
AcDb2dPolyline
 66
     1
 10
0.0
 20
0.0
 30
0.0
 70
     1
 40
0.5
 41
0.5
  0
VERTEX
  5
E
100
AcDbEntity
  8
0
  6
BYBLOCK
 62
     0
100
AcDbVertex
100
AcDb2dVertex
 10
-0.25
 20
0.0
 30
0.0
 42
1.0
  0
VERTEX
  5
F
100
AcDbEntity
  8
0
  6
BYBLOCK
 62
     0
100
AcDbVertex
100
AcDb2dVertex
 10
0.25
 20
0.0
 30
0.0
 42
1.0
  0
SEQEND
  5
10
100
AcDbEntity
  8
0
  6
BYBLOCK
 62
     0
  0
LINE
  5
11
100
AcDbEntity
  8
0
  6
BYBLOCK
 62
     0
100
AcDbLine
 10
-0.5
 20
0.0
 30
0.0
 11
-1.0
 21
0.0
 31
0.0
  0
ENDBLK
  5
12
100
AcDbEntity
  8
0
100
AcDbBlockEnd
  0
BLOCK
  5
14
100
AcDbEntity
  8
0
100
AcDbBlockBegin
  2
_OPEN
 70
     0
 10
0.0
 20
0.0
 30
0.0
  3
_OPEN
  1

  0
LINE
  5
15
100
AcDbEntity
  8
0
  6
BYBLOCK
 62
     0
100
AcDbLine
 10
-1.0
 20
0.166667
 30
0.0
 11
0.0
 21
0.0
 31
0.0
  0
LINE
  5
16
100
AcDbEntity
  8
0
  6
BYBLOCK
 62
     0
100
AcDbLine
 10
0.0
 20
0.0
 30
0.0
 11
-1.0
 21
-0.166667
 31
0.0
  0
LINE
  5
17
100
AcDbEntity
  8
0
  6
BYBLOCK
 62
     0
100
AcDbLine
 10
0.0
 20
0.0
 30
0.0
 11
-1.0
 21
0.0
 31
0.0
  0
ENDBLK
  5
18
100
AcDbEntity
  8
0
100
AcDbBlockEnd
  0
BLOCK
  5
1A
100
AcDbEntity
  8
0
100
AcDbBlockBegin
  2
_ORIGIN
 70
     0
 10
0.0
 20
0.0
 30
0.0
  3
_ORIGIN
  1

  0
CIRCLE
  5
1B
100
AcDbEntity
  8
0
  6
BYBLOCK
 62
     0
100
AcDbCircle
 10
0.0
 20
0.0
 30
0.0
 40
0.5
  0
LINE
  5
1C
100
AcDbEntity
  8
0
  6
BYBLOCK
 62
     0
100
AcDbLine
 10
0.0
 20
0.0
 30
0.0
 11
-1.0
 21
0.0
 31
0.0
  0
ENDBLK
  5
1D
100
AcDbEntity
  8
0
100
AcDbBlockEnd
  0
BLOCK
  5
1F
100
AcDbEntity
  8
0
100
AcDbBlockBegin
  2
_OPEN30
 70
     0
 10
0.0
 20
0.0
 30
0.0
  3
_OPEN30
  1

  0
LINE
  5
20
100
AcDbEntity
  8
0
  6
BYBLOCK
 62
     0
100
AcDbLine
 10
-1.0
 20
0.267949
 30
0.0
 11
0.0
 21
0.0
 31
0.0
  0
LINE
  5
21
100
AcDbEntity
  8
0
  6
BYBLOCK
 62
     0
100
AcDbLine
 10
0.0
 20
0.0
 30
0.0
 11
-1.0
 21
-0.267949
 31
0.0
  0
LINE
  5
22
100
AcDbEntity
  8
0
  6
BYBLOCK
 62
     0
100
AcDbLine
 10
0.0
 20
0.0
 30
0.0
 11
-1.0
 21
0.0
 31
0.0
  0
ENDBLK
  5
23
100
AcDbEntity
  8
0
100
AcDbBlockEnd
  0
BLOCK
  5
25
100
AcDbEntity
  8
0
100
AcDbBlockBegin
  2
_BOXFILLED
 70
     0
 10
0.0
 20
0.0
 30
0.0
  3
_BOXFILLED
  1

  0
SOLID
  5
26
100
AcDbEntity
  8
0
  6
BYBLOCK
 62
     0
100
AcDbTrace
 10
-0.5
 20
0.5
 30
0.0
 11
0.5
 21
0.5
 31
0.0
 12
-0.5
 22
-0.5
 32
0.0
 13
0.5
 23
-0.5
 33
0.0
  0
LINE
  5
27
100
AcDbEntity
  8
0
  6
BYBLOCK
 62
     0
100
AcDbLine
 10
-0.5
 20
0.0
 30
0.0
 11
-1.0
 21
0.0
 31
0.0
  0
ENDBLK
  5
28
100
AcDbEntity
  8
0
100
AcDbBlockEnd
  0
BLOCK
  5
2A
100
AcDbEntity
  8
0
100
AcDbBlockBegin
  2
_BOXBLANK
 70
     0
 10
0.0
 20
0.0
 30
0.0
  3
_BOXBLANK
  1

  0
LINE
  5
2B
100
AcDbEntity
  8
0
  6
BYBLOCK
 62
     0
100
AcDbLine
 10
-0.5
 20
-0.5
 30
0.0
 11
0.5
 21
-0.5
 31
0.0
  0
LINE
  5
2C
100
AcDbEntity
  8
0
  6
BYBLOCK
 62
     0
100
AcDbLine
 10
0.5
 20
-0.5
 30
0.0
 11
0.5
 21
0.5
 31
0.0
  0
LINE
  5
2D
100
AcDbEntity
  8
0
  6
BYBLOCK
 62
     0
100
AcDbLine
 10
0.5
 20
0.5
 30
0.0
 11
-0.5
 21
0.5
 31
0.0
  0
LINE
  5
2E
100
AcDbEntity
  8
0
  6
BYBLOCK
 62
     0
100
AcDbLine
 10
-0.5
 20
0.5
 30
0.0
 11
-0.5
 21
-0.5
 31
0.0
  0
LINE
  5
2F
100
AcDbEntity
  8
0
  6
BYBLOCK
 62
     0
100
AcDbLine
 10
-0.5
 20
0.0
 30
0.0
 11
-1.0
 21
0.0
 31
0.0
  0
ENDBLK
  5
30
100
AcDbEntity
  8
0
100
AcDbBlockEnd
  0
BLOCK
  5
32
100
AcDbEntity
  8
0
100
AcDbBlockBegin
  2
_OBLIQUE
 70
     0
 10
0.0
 20
0.0
 30
0.0
  3
_OBLIQUE
  1

  0
LINE
  5
33
100
AcDbEntity
  8
0
  6
BYBLOCK
 62
     0
100
AcDbLine
 10
-0.5
 20
-0.5
 30
0.0
 11
0.5
 21
0.5
 31
0.0
  0
ENDBLK
  5
34
100
AcDbEntity
  8
0
100
AcDbBlockEnd
  0
BLOCK
  5
36
100
AcDbEntity
  8
0
100
AcDbBlockBegin
  2
_OPEN90
 70
     0
 10
0.0
 20
0.0
 30
0.0
  3
_OPEN90
  1

  0
LINE
  5
37
100
AcDbEntity
  8
0
  6
BYBLOCK
 62
     0
100
AcDbLine
 10
-0.5
 20
0.5
 30
0.0
 11
0.0
 21
0.0
 31
0.0
  0
LINE
  5
38
100
AcDbEntity
  8
0
  6
BYBLOCK
 62
     0
100
AcDbLine
 10
0.0
 20
0.0
 30
0.0
 11
-0.5
 21
-0.5
 31
0.0
  0
LINE
  5
39
100
AcDbEntity
  8
0
  6
BYBLOCK
 62
     0
100
AcDbLine
 10
0.0
 20
0.0
 30
0.0
 11
-1.0
 21
0.0
 31
0.0
  0
ENDBLK
  5
3A
100
AcDbEntity
  8
0
100
AcDbBlockEnd
  0
BLOCK
  5
3C
100
AcDbEntity
  8
0
100
AcDbBlockBegin
  2
_CLOSEDBLANK
 70
     0
 10
0.0
 20
0.0
 30
0.0
  3
_CLOSEDBLANK
  1

  0
LINE
  5
3D
100
AcDbEntity
  8
0
  6
BYBLOCK
 62
     0
100
AcDbLine
 10
-1.0
 20
0.1666666666666666
 30
0.0
 11
0.0
 21
0.0
 31
0.0
  0
LINE
  5
3E
100
AcDbEntity
  8
0
  6
BYBLOCK
 62
     0
100
AcDbLine
 10
0.0
 20
0.0
 30
0.0
 11
-1.0
 21
-0.1666666666666666
 31
0.0
  0
LINE
  5
3F
100
AcDbEntity
  8
0
  6
BYBLOCK
 62
     0
100
AcDbLine
 10
-1.0
 20
0.1666666666666666
 30
0.0
 11
-1.0
 21
-0.1666666666666666
 31
0.0
  0
ENDBLK
  5
40
100
AcDbEntity
  8
0
100
AcDbBlockEnd
  0
BLOCK
  5
42
100
AcDbEntity
  8
0
100
AcDbBlockBegin
  2
_DOTBLANK
 70
     0
 10
0.0
 20
0.0
 30
0.0
  3
_DOTBLANK
  1

  0
CIRCLE
  5
43
100
AcDbEntity
  8
0
  6
BYBLOCK
 62
     0
100
AcDbCircle
 10
0.0
 20
0.0
 30
0.0
 40
0.5
  0
LINE
  5
44
100
AcDbEntity
  8
0
  6
BYBLOCK
 62
     0
100
AcDbLine
 10
-0.5
 20
0.0
 30
0.0
 11
-1.0
 21
0.0
 31
0.0
  0
ENDBLK
  5
45
100
AcDbEntity
  8
0
100
AcDbBlockEnd
  0
ENDSEC
  0
SECTION
  2
ENTITIES
  0
LINE
  5
46
100
AcDbEntity
  8
1
  6
CENTER
 62
1
100
AcDbLine
 10
118.5000000000000
 20
99.49995400000000
 30
0.000000000000000
 11
118.5000000000000
 21
159.4999540000000
 31
0.000000000000000
  0
LINE
  5
47
100
AcDbEntity
  8
0
  6
CONTINUOUS
 62
7
100
AcDbLine
 10
138.0000000000000
 20
104.4999540000000
 30
0.000000000000000
 11
115.0000000000000
 21
104.4999540000000
 31
0.000000000000000
  0
LINE
  5
48
100
AcDbEntity
  8
0
  6
CONTINUOUS
 62
7
100
AcDbLine
 10
138.0000000000000
 20
154.4999540000000
 30
0.000000000000000
 11
115.0000000000000
 21
154.4999540000000
 31
0.000000000000000
  0
LINE
  5
49
100
AcDbEntity
  8
0
  6
CONTINUOUS
 62
7
100
AcDbLine
 10
98.50000000000001
 20
104.9999539999999
 30
0.000000000000000
 11
98.50000000000001
 21
153.9999540000000
 31
0.000000000000000
  0
LINE
  5
4A
100
AcDbEntity
  8
0
  6
CONTINUOUS
 62
7
100
AcDbLine
 10
138.5000000000000
 20
104.9999539999999
 30
0.000000000000000
 11
138.5000000000000
 21
153.9999540000000
 31
0.000000000000000
  0
LINE
  5
4B
100
AcDbEntity
  8
1
  6
CENTER
 62
1
100
AcDbLine
 10
132.4999999999998
 20
107.2499540000000
 30
0.000000000000000
 11
132.4999999999998
 21
115.7499540000000
 31
0.000000000000000
  0
LINE
  5
4C
100
AcDbEntity
  8
1
  6
CENTER
 62
1
100
AcDbLine
 10
136.7499999999998
 20
111.4999540000000
 30
0.000000000000000
 11
128.2499999999998
 21
111.4999540000000
 31
0.000000000000000
  0
LINE
  5
4D
100
AcDbEntity
  8
1
  6
CENTER
 62
1
100
AcDbLine
 10
132.4999999999998
 20
125.2499540000000
 30
0.000000000000000
 11
132.4999999999998
 21
133.7499540000000
 31
0.000000000000000
  0
LINE
  5
4E
100
AcDbEntity
  8
1
  6
CENTER
 62
1
100
AcDbLine
 10
136.7499999999998
 20
129.4999540000000
 30
0.000000000000000
 11
128.2499999999998
 21
129.4999540000000
 31
0.000000000000000
  0
LINE
  5
4F
100
AcDbEntity
  8
1
  6
CENTER
 62
1
100
AcDbLine
 10
132.4999999999998
 20
143.2499540000000
 30
0.000000000000000
 11
132.4999999999998
 21
151.7499540000000
 31
0.000000000000000
  0
LINE
  5
50
100
AcDbEntity
  8
1
  6
CENTER
 62
1
100
AcDbLine
 10
136.7499999999998
 20
147.4999539999998
 30
0.000000000000000
 11
128.2499999999998
 21
147.4999539999998
 31
0.000000000000000
  0
LINE
  5
51
100
AcDbEntity
  8
1
  6
CENTER
 62
1
100
AcDbLine
 10
104.4999999999999
 20
143.2499540000000
 30
0.000000000000000
 11
104.4999999999999
 21
151.7499540000000
 31
0.000000000000000
  0
LINE
  5
52
100
AcDbEntity
  8
1
  6
CENTER
 62
1
100
AcDbLine
 10
108.7500000000000
 20
147.4999539999998
 30
0.000000000000000
 11
100.2499999999999
 21
147.4999539999998
 31
0.000000000000000
  0
LINE
  5
53
100
AcDbEntity
  8
1
  6
CENTER
 62
1
100
AcDbLine
 10
104.4999999999999
 20
125.2499540000000
 30
0.000000000000000
 11
104.4999999999999
 21
133.7499540000000
 31
0.000000000000000
  0
LINE
  5
54
100
AcDbEntity
  8
1
  6
CENTER
 62
1
100
AcDbLine
 10
108.7500000000000
 20
129.4999540000000
 30
0.000000000000000
 11
100.2499999999999
 21
129.4999540000000
 31
0.000000000000000
  0
LINE
  5
55
100
AcDbEntity
  8
1
  6
CENTER
 62
1
100
AcDbLine
 10
104.4999999999999
 20
107.2499540000000
 30
0.000000000000000
 11
104.4999999999999
 21
115.7499540000000
 31
0.000000000000000
  0
LINE
  5
56
100
AcDbEntity
  8
1
  6
CENTER
 62
1
100
AcDbLine
 10
108.7500000000000
 20
111.4999540000000
 30
0.000000000000000
 11
100.2499999999999
 21
111.4999540000000
 31
0.000000000000000
  0
LINE
  5
57
100
AcDbEntity
  8
0
  6
CONTINUOUS
 62
7
100
AcDbLine
 10
122.0000000000000
 20
104.4999540000000
 30
0.000000000000000
 11
122.0000000000000
 21
154.4999540000000
 31
0.000000000000000
  0
LINE
  5
58
100
AcDbEntity
  8
0
  6
CONTINUOUS
 62
7
100
AcDbLine
 10
115.0000000000000
 20
104.4999540000000
 30
0.000000000000000
 11
115.0000000000000
 21
116.9999540000000
 31
0.000000000000000
  0
LINE
  5
59
100
AcDbEntity
  8
0
  6
CONTINUOUS
 62
7
100
AcDbLine
 10
123.5000000000000
 20
116.9999540000000
 30
0.000000000000000
 11
123.5000000000000
 21
141.9999540000000
 31
0.000000000000000
  0
LINE
  5
5A
100
AcDbEntity
  8
0
  6
CONTINUOUS
 62
7
100
AcDbLine
 10
112.5000000000000
 20
104.9999539999999
 30
0.000000000000000
 11
112.5000000000000
 21
116.9999540000000
 31
0.000000000000000
  0
LINE
  5
5B
100
AcDbEntity
  8
0
  6
CONTINUOUS
 62
7
100
AcDbLine
 10
112.0000000000000
 20
154.4999540000000
 30
0.000000000000000
 11
99.00000000000000
 21
154.4999540000000
 31
0.000000000000000
  0
LINE
  5
5C
100
AcDbEntity
  8
0
  6
CONTINUOUS
 62
7
100
AcDbLine
 10
123.5000000000000
 20
116.9999540000000
 30
0.000000000000000
 11
112.5000000000000
 21
116.9999540000000
 31
0.000000000000000
  0
LINE
  5
5D
100
AcDbEntity
  8
0
  6
CONTINUOUS
 62
7
100
AcDbLine
 10
123.5000000000000
 20
141.9999540000000
 30
0.000000000000000
 11
112.5000000000000
 21
141.9999540000000
 31
0.000000000000000
  0
LINE
  5
5E
100
AcDbEntity
  8
0
  6
CONTINUOUS
 62
7
100
AcDbLine
 10
115.0000000000000
 20
141.9999540000000
 30
0.000000000000000
 11
115.0000000000000
 21
154.4999540000000
 31
0.000000000000000
  0
LINE
  5
5F
100
AcDbEntity
  8
0
  6
CONTINUOUS
 62
7
100
AcDbLine
 10
112.5000000000000
 20
141.9999540000000
 30
0.000000000000000
 11
112.5000000000000
 21
153.9999540000000
 31
0.000000000000000
  0
LINE
  5
60
100
AcDbEntity
  8
0
  6
CONTINUOUS
 62
7
100
AcDbLine
 10
112.0000000000000
 20
104.4999540000000
 30
0.000000000000000
 11
99.00000000000000
 21
104.4999540000000
 31
0.000000000000000
  0
LINE
  5
61
100
AcDbEntity
  8
0
  6
CONTINUOUS
 62
7
100
AcDbLine
 10
138.5000000000000
 20
41.00000000000000
 30
0.000000000000000
 11
98.50000000000001
 21
41.00000000000000
 31
0.000000000000000
  0
LINE
  5
62
100
AcDbEntity
  8
0
  6
CONTINUOUS
 62
7
100
AcDbLine
 10
138.5000000000000
 20
43.00000000000000
 30
0.000000000000000
 11
118.5000000000000
 21
43.00000000000000
 31
0.000000000000000
  0
LINE
  5
63
100
AcDbEntity
  8
0
  6
CONTINUOUS
 62
7
100
AcDbLine
 10
138.5000000000000
 20
43.00000000000000
 30
0.000000000000000
 11
138.5000000000000
 21
41.00000000000000
 31
0.000000000000000
  0
LINE
  5
64
100
AcDbEntity
  8
0
  6
CONTINUOUS
 62
7
100
AcDbLine
 10
98.50000000000001
 20
43.00000000000000
 30
0.000000000000000
 11
98.50000000000001
 21
41.00000000000000
 31
0.000000000000000
  0
LINE
  5
65
100
AcDbEntity
  8
0
  6
CONTINUOUS
 62
7
100
AcDbLine
 10
121.6622770000000
 20
43.00000000000001
 30
0.000000000000000
 11
119.8552630000000
 21
43.85714300000001
 31
0.000000000000000
  0
LINE
  5
66
100
AcDbEntity
  8
1
  6
CENTER
 62
1
100
AcDbLine
 10
114.0000000000000
 20
44.50000000000000
 30
0.000000000000000
 11
123.0000000000000
 21
44.50000000000000
 31
0.000000000000000
  0
LINE
  5
67
100
AcDbEntity
  8
1
  6
CENTER
 62
1
100
AcDbLine
 10
118.5000000000000
 20
49.00000000000000
 30
0.000000000000000
 11
118.5000000000000
 21
40.00000000000000
 31
0.000000000000000
  0
LINE
  5
68
100
AcDbEntity
  8
0
  6
CONTINUOUS
 62
7
100
AcDbLine
 10
115.3377230000000
 20
43.00000000000000
 30
0.000000000000000
 11
98.50000000000001
 21
43.00000000000000
 31
0.000000000000000
  0
LINE
  5
69
100
AcDbEntity
  8
1
  6
CENTER
 62
1
100
AcDbLine
 10
104.4999999999999
 20
44.50000000000000
 30
0.000000000000000
 11
104.4999999999999
 21
39.50000000000000
 31
0.000000000000000
  0
LINE
  5
6A
100
AcDbEntity
  8
1
  6
CENTER
 62
1
100
AcDbLine
 10
132.4999999999998
 20
44.50000000000000
 30
0.000000000000000
 11
132.4999999999998
 21
39.50000000000000
 31
0.000000000000000
  0
LINE
  5
6B
100
AcDbEntity
  8
0
  6
CONTINUOUS
 62
7
100
AcDbLine
 10
112.5000000000000
 20
43.00000000000000
 30
0.000000000000000
 11
112.5000000000000
 21
41.00000000000000
 31
0.000000000000000
  0
LINE
  5
6C
100
AcDbEntity
  8
0
  6
CONTINUOUS
 62
7
100
AcDbLine
 10
25.00000000000000
 20
154.4999540000000
 30
0.000000000000000
 11
25.00000000000000
 21
104.4999540000000
 31
0.000000000000000
  0
LINE
  5
6D
100
AcDbEntity
  8
0
  6
CONTINUOUS
 62
7
100
AcDbLine
 10
27.00000000000000
 20
154.4999540000000
 30
0.000000000000000
 11
27.00000000000000
 21
104.4999540000000
 31
0.000000000000000
  0
LINE
  5
6E
100
AcDbEntity
  8
0
  6
CONTINUOUS
 62
7
100
AcDbLine
 10
32.00000000000000
 20
154.4999540000000
 30
0.000000000000000
 11
32.00000000000000
 21
141.9999540000000
 31
0.000000000000000
  0
LINE
  5
6F
100
AcDbEntity
  8
0
  6
CONTINUOUS
 62
7
100
AcDbLine
 10
25.00000000000000
 20
154.4999540000000
 30
0.000000000000000
 11
32.00000000000000
 21
154.4999540000000
 31
0.000000000000000
  0
LINE
  5
70
100
AcDbEntity
  8
0
  6
CONTINUOUS
 62
7
100
AcDbLine
 10
25.00000000000000
 20
104.4999540000000
 30
0.000000000000000
 11
32.00000000000000
 21
104.4999540000000
 31
0.000000000000000
  0
LINE
  5
71
100
AcDbEntity
  8
0
  6
CONTINUOUS
 62
7
100
AcDbLine
 10
27.00000000000000
 20
141.9999540000000
 30
0.000000000000000
 11
33.50000000000000
 21
141.9999540000000
 31
0.000000000000000
  0
LINE
  5
72
100
AcDbEntity
  8
0
  6
CONTINUOUS
 62
7
100
AcDbLine
 10
27.00000000000000
 20
116.9999540000000
 30
0.000000000000000
 11
33.50000000000000
 21
116.9999540000000
 31
0.000000000000000
  0
LINE
  5
73
100
AcDbEntity
  8
0
  6
CONTINUOUS
 62
7
100
AcDbLine
 10
32.00000000000000
 20
116.9999540000000
 30
0.000000000000000
 11
32.00000000000000
 21
104.4999540000000
 31
0.000000000000000
  0
LINE
  5
74
100
AcDbEntity
  8
1
  6
CENTER
 62
1
100
AcDbLine
 10
28.50000000000000
 20
159.4999540000000
 30
0.000000000000000
 11
28.50000000000000
 21
99.49995400000000
 31
0.000000000000000
  0
LINE
  5
75
100
AcDbEntity
  8
0
  6
CONTINUOUS
 62
7
100
AcDbLine
 10
30.00000000000000
 20
141.9999540000000
 30
0.000000000000000
 11
30.00000000000000
 21
116.9999540000000
 31
0.000000000000000
  0
LINE
  5
76
100
AcDbEntity
  8
1
  6
CENTER
 62
1
100
AcDbLine
 10
23.50000000000000
 20
147.4999539999998
 30
0.000000000000000
 11
28.50000000000000
 21
147.4999539999998
 31
0.000000000000000
  0
LINE
  5
77
100
AcDbEntity
  8
1
  6
CENTER
 62
1
100
AcDbLine
 10
23.50000000000000
 20
129.4999540000000
 30
0.000000000000000
 11
28.50000000000000
 21
129.4999540000000
 31
0.000000000000000
  0
LINE
  5
78
100
AcDbEntity
  8
1
  6
CENTER
 62
1
100
AcDbLine
 10
23.50000000000000
 20
111.4999540000000
 30
0.000000000000000
 11
28.50000000000000
 21
111.4999540000000
 31
0.000000000000000
  0
LINE
  5
79
100
AcDbEntity
  8
1
  6
CENTER
 62
1
100
AcDbLine
 10
213.5000000000000
 20
147.4999539999998
 30
0.000000000000000
 11
208.4999999999999
 21
147.4999539999998
 31
0.000000000000000
  0
LINE
  5
7A
100
AcDbEntity
  8
1
  6
CENTER
 62
1
100
AcDbLine
 10
213.5000000000000
 20
129.4999540000000
 30
0.000000000000000
 11
208.4999999999999
 21
129.4999540000000
 31
0.000000000000000
  0
LINE
  5
7B
100
AcDbEntity
  8
1
  6
CENTER
 62
1
100
AcDbLine
 10
213.5000000000000
 20
111.4999540000000
 30
0.000000000000000
 11
208.4999999999999
 21
111.4999540000000
 31
0.000000000000000
  0
LINE
  5
7C
100
AcDbEntity
  8
1
  6
CENTER
 62
1
100
AcDbLine
 10
208.4999999999999
 20
159.4999540000000
 30
0.000000000000000
 11
208.4999999999999
 21
99.49995400000000
 31
0.000000000000000
  0
LINE
  5
7D
100
AcDbEntity
  8
0
  6
CONTINUOUS
 62
7
100
AcDbLine
 10
205.0000000000000
 20
116.9999540000000
 30
0.000000000000000
 11
205.0000000000000
 21
104.4999540000000
 31
0.000000000000000
  0
LINE
  5
7E
100
AcDbEntity
  8
0
  6
CONTINUOUS
 62
7
100
AcDbLine
 10
210.0000000000000
 20
116.9999540000000
 30
0.000000000000000
 11
203.5000000000000
 21
116.9999540000000
 31
0.000000000000000
  0
LINE
  5
7F
100
AcDbEntity
  8
0
  6
CONTINUOUS
 62
7
100
AcDbLine
 10
210.0000000000000
 20
141.9999540000000
 30
0.000000000000000
 11
203.5000000000000
 21
141.9999540000000
 31
0.000000000000000
  0
LINE
  5
80
100
AcDbEntity
  8
0
  6
CONTINUOUS
 62
7
100
AcDbLine
 10
212.0000000000000
 20
104.4999540000000
 30
0.000000000000000
 11
205.0000000000000
 21
104.4999540000000
 31
0.000000000000000
  0
LINE
  5
81
100
AcDbEntity
  8
0
  6
CONTINUOUS
 62
7
100
AcDbLine
 10
212.0000000000000
 20
154.4999540000000
 30
0.000000000000000
 11
205.0000000000000
 21
154.4999540000000
 31
0.000000000000000
  0
LINE
  5
82
100
AcDbEntity
  8
0
  6
CONTINUOUS
 62
7
100
AcDbLine
 10
205.0000000000000
 20
154.4999540000000
 30
0.000000000000000
 11
205.0000000000000
 21
141.9999540000000
 31
0.000000000000000
  0
LINE
  5
83
100
AcDbEntity
  8
0
  6
CONTINUOUS
 62
7
100
AcDbLine
 10
210.0000000000000
 20
154.4999540000000
 30
0.000000000000000
 11
210.0000000000000
 21
104.4999540000000
 31
0.000000000000000
  0
LINE
  5
84
100
AcDbEntity
  8
0
  6
CONTINUOUS
 62
7
100
AcDbLine
 10
212.0000000000000
 20
154.4999540000000
 30
0.000000000000000
 11
212.0000000000000
 21
104.4999540000000
 31
0.000000000000000
  0
LINE
  5
85
100
AcDbEntity
  8
1
  6
CENTER
 62
1
100
AcDbLine
 10
298.4999999999999
 20
99.49995400000000
 30
0.000000000000000
 11
298.4999999999999
 21
159.4999540000000
 31
0.000000000000000
  0
LINE
  5
86
100
AcDbEntity
  8
0
  6
CONTINUOUS
 62
7
100
AcDbLine
 10
278.5000000000000
 20
104.4999540000000
 30
0.000000000000000
 11
302.0000000000000
 21
104.4999540000000
 31
0.000000000000000
  0
LINE
  5
87
100
AcDbEntity
  8
0
  6
CONTINUOUS
 62
7
100
AcDbLine
 10
278.5000000000000
 20
154.4999540000000
 30
0.000000000000000
 11
302.0000000000000
 21
154.4999540000000
 31
0.000000000000000
  0
LINE
  5
88
100
AcDbEntity
  8
0
  6
CONTINUOUS
 62
7
100
AcDbLine
 10
318.5000000000000
 20
104.4999540000000
 30
0.000000000000000
 11
318.5000000000000
 21
154.4999540000000
 31
0.000000000000000
  0
LINE
  5
89
100
AcDbEntity
  8
0
  6
CONTINUOUS
 62
7
100
AcDbLine
 10
278.5000000000000
 20
104.4999540000000
 30
0.000000000000000
 11
278.5000000000000
 21
154.4999540000000
 31
0.000000000000000
  0
LINE
  5
8A
100
AcDbEntity
  8
1
  6
CENTER
 62
1
100
AcDbLine
 10
284.5000000000000
 20
107.2499540000000
 30
0.000000000000000
 11
284.5000000000000
 21
115.7499540000000
 31
0.000000000000000
  0
LINE
  5
8B
100
AcDbEntity
  8
1
  6
CENTER
 62
1
100
AcDbLine
 10
280.2500000000000
 20
111.4999540000000
 30
0.000000000000000
 11
288.7500000000000
 21
111.4999540000000
 31
0.000000000000000
  0
LINE
  5
8C
100
AcDbEntity
  8
1
  6
CENTER
 62
1
100
AcDbLine
 10
284.5000000000000
 20
125.2499540000000
 30
0.000000000000000
 11
284.5000000000000
 21
133.7499540000000
 31
0.000000000000000
  0
LINE
  5
8D
100
AcDbEntity
  8
1
  6
CENTER
 62
1
100
AcDbLine
 10
280.2500000000000
 20
129.4999540000000
 30
0.000000000000000
 11
288.7500000000000
 21
129.4999540000000
 31
0.000000000000000
  0
LINE
  5
8E
100
AcDbEntity
  8
1
  6
CENTER
 62
1
100
AcDbLine
 10
284.5000000000000
 20
143.2499540000000
 30
0.000000000000000
 11
284.5000000000000
 21
151.7499540000000
 31
0.000000000000000
  0
LINE
  5
8F
100
AcDbEntity
  8
1
  6
CENTER
 62
1
100
AcDbLine
 10
280.2500000000000
 20
147.4999539999998
 30
0.000000000000000
 11
288.7500000000000
 21
147.4999539999998
 31
0.000000000000000
  0
LINE
  5
90
100
AcDbEntity
  8
1
  6
CENTER
 62
1
100
AcDbLine
 10
312.5000000000000
 20
143.2499540000000
 30
0.000000000000000
 11
312.5000000000000
 21
151.7499540000000
 31
0.000000000000000
  0
LINE
  5
91
100
AcDbEntity
  8
1
  6
CENTER
 62
1
100
AcDbLine
 10
308.2500000000000
 20
147.4999539999998
 30
0.000000000000000
 11
316.7499999999999
 21
147.4999539999998
 31
0.000000000000000
  0
LINE
  5
92
100
AcDbEntity
  8
1
  6
CENTER
 62
1
100
AcDbLine
 10
312.5000000000000
 20
125.2499540000000
 30
0.000000000000000
 11
312.5000000000000
 21
133.7499540000000
 31
0.000000000000000
  0
LINE
  5
93
100
AcDbEntity
  8
1
  6
CENTER
 62
1
100
AcDbLine
 10
308.2500000000000
 20
129.4999540000000
 30
0.000000000000000
 11
316.7499999999999
 21
129.4999540000000
 31
0.000000000000000
  0
LINE
  5
94
100
AcDbEntity
  8
1
  6
CENTER
 62
1
100
AcDbLine
 10
312.5000000000000
 20
107.2499540000000
 30
0.000000000000000
 11
312.5000000000000
 21
115.7499540000000
 31
0.000000000000000
  0
LINE
  5
95
100
AcDbEntity
  8
1
  6
CENTER
 62
1
100
AcDbLine
 10
308.2500000000000
 20
111.4999540000000
 30
0.000000000000000
 11
316.7499999999999
 21
111.4999540000000
 31
0.000000000000000
  0
LINE
  5
96
100
AcDbEntity
  8
0
  6
CONTINUOUS
 62
7
100
AcDbLine
 10
302.0000000000000
 20
104.4999540000000
 30
0.000000000000000
 11
302.0000000000000
 21
116.9999540000000
 31
0.000000000000000
  0
LINE
  5
97
100
AcDbEntity
  8
0
  6
CONTINUOUS
 62
7
100
AcDbLine
 10
293.5000000000000
 20
116.9999540000000
 30
0.000000000000000
 11
293.5000000000000
 21
141.9999540000000
 31
0.000000000000000
  0
LINE
  5
98
100
AcDbEntity
  8
0
  6
CONTINUOUS
 62
7
100
AcDbLine
 10
304.4999999999999
 20
104.4999540000000
 30
0.000000000000000
 11
304.4999999999999
 21
116.9999540000000
 31
0.000000000000000
  0
LINE
  5
99
100
AcDbEntity
  8
0
  6
CONTINUOUS
 62
7
100
AcDbLine
 10
304.4999999999999
 20
154.4999540000000
 30
0.000000000000000
 11
318.5000000000000
 21
154.4999540000000
 31
0.000000000000000
  0
LINE
  5
9A
100
AcDbEntity
  8
0
  6
CONTINUOUS
 62
7
100
AcDbLine
 10
293.5000000000000
 20
141.9999540000000
 30
0.000000000000000
 11
304.4999999999999
 21
141.9999540000000
 31
0.000000000000000
  0
LINE
  5
9B
100
AcDbEntity
  8
0
  6
CONTINUOUS
 62
7
100
AcDbLine
 10
293.5000000000000
 20
116.9999540000000
 30
0.000000000000000
 11
304.4999999999999
 21
116.9999540000000
 31
0.000000000000000
  0
LINE
  5
9C
100
AcDbEntity
  8
0
  6
CONTINUOUS
 62
7
100
AcDbLine
 10
302.0000000000000
 20
141.9999540000000
 30
0.000000000000000
 11
302.0000000000000
 21
154.4999540000000
 31
0.000000000000000
  0
LINE
  5
9D
100
AcDbEntity
  8
0
  6
CONTINUOUS
 62
7
100
AcDbLine
 10
304.4999999999999
 20
141.9999540000000
 30
0.000000000000000
 11
304.4999999999999
 21
154.4999540000000
 31
0.000000000000000
  0
LINE
  5
9E
100
AcDbEntity
  8
0
  6
CONTINUOUS
 62
7
100
AcDbLine
 10
295.0000000000000
 20
116.9999540000000
 30
0.000000000000000
 11
295.0000000000000
 21
141.9999540000000
 31
0.000000000000000
  0
LINE
  5
9F
100
AcDbEntity
  8
0
  6
CONTINUOUS
 62
7
100
AcDbLine
 10
304.4999999999999
 20
104.4999540000000
 30
0.000000000000000
 11
318.5000000000000
 21
104.4999540000000
 31
0.000000000000000
  0
CIRCLE
  5
A0
100
AcDbEntity
  8
0
  6
CONTINUOUS
 62
7
100
AcDbCircle
 10
132.4999999999998
 20
111.4999540000000
 30
0.000000000000000
 40
1.600000000000000
  0
CIRCLE
  5
A1
100
AcDbEntity
  8
0
  6
CONTINUOUS
 62
7
100
AcDbCircle
 10
132.4999999999998
 20
111.4999540000000
 30
0.000000000000000
 40
3.250000000000000
  0
CIRCLE
  5
A2
100
AcDbEntity
  8
0
  6
CONTINUOUS
 62
7
100
AcDbCircle
 10
132.4999999999998
 20
129.4999540000000
 30
0.000000000000000
 40
1.600000000000000
  0
CIRCLE
  5
A3
100
AcDbEntity
  8
0
  6
CONTINUOUS
 62
7
100
AcDbCircle
 10
132.4999999999998
 20
129.4999540000000
 30
0.000000000000000
 40
3.250000000000000
  0
CIRCLE
  5
A4
100
AcDbEntity
  8
0
  6
CONTINUOUS
 62
7
100
AcDbCircle
 10
132.4999999999998
 20
147.4999539999998
 30
0.000000000000000
 40
1.600000000000000
  0
CIRCLE
  5
A5
100
AcDbEntity
  8
0
  6
CONTINUOUS
 62
7
100
AcDbCircle
 10
132.4999999999998
 20
147.4999539999998
 30
0.000000000000000
 40
3.250000000000000
  0
CIRCLE
  5
A6
100
AcDbEntity
  8
0
  6
CONTINUOUS
 62
7
100
AcDbCircle
 10
104.4999999999999
 20
147.4999539999998
 30
0.000000000000000
 40
1.600000000000000
  0
CIRCLE
  5
A7
100
AcDbEntity
  8
0
  6
CONTINUOUS
 62
7
100
AcDbCircle
 10
104.4999999999999
 20
147.4999539999998
 30
0.000000000000000
 40
3.250000000000000
  0
CIRCLE
  5
A8
100
AcDbEntity
  8
0
  6
CONTINUOUS
 62
7
100
AcDbCircle
 10
104.4999999999999
 20
129.4999540000000
 30
0.000000000000000
 40
1.600000000000000
  0
CIRCLE
  5
A9
100
AcDbEntity
  8
0
  6
CONTINUOUS
 62
7
100
AcDbCircle
 10
104.4999999999999
 20
129.4999540000000
 30
0.000000000000000
 40
3.250000000000000
  0
CIRCLE
  5
AA
100
AcDbEntity
  8
0
  6
CONTINUOUS
 62
7
100
AcDbCircle
 10
104.4999999999999
 20
111.4999540000000
 30
0.000000000000000
 40
1.600000000000000
  0
CIRCLE
  5
AB
100
AcDbEntity
  8
0
  6
CONTINUOUS
 62
7
100
AcDbCircle
 10
104.4999999999999
 20
111.4999540000000
 30
0.000000000000000
 40
3.250000000000000
  0
ARC
  5
AC
100
AcDbEntity
  8
0
  6
CONTINUOUS
 62
7
100
AcDbCircle
 10
118.5000000000000
 20
44.50000000000000
 30
0.000000000000000
 40
3.500000000000000
100
AcDbArc
 50
334.6230659999998
 51
630.0000010000000
  0
CIRCLE
  5
AD
100
AcDbEntity
  8
0
  6
CONTINUOUS
 62
7
100
AcDbCircle
 10
118.5000000000000
 20
44.50000000000000
 30
0.000000000000000
 40
1.500000000000000
  0
CIRCLE
  5
AE
100
AcDbEntity
  8
0
  6
CONTINUOUS
 62
7
100
AcDbCircle
 10
284.5000000000000
 20
111.4999540000000
 30
0.000000000000000
 40
1.600000000000000
  0
CIRCLE
  5
AF
100
AcDbEntity
  8
0
  6
CONTINUOUS
 62
7
100
AcDbCircle
 10
284.5000000000000
 20
129.4999540000000
 30
0.000000000000000
 40
1.600000000000000
  0
CIRCLE
  5
B0
100
AcDbEntity
  8
0
  6
CONTINUOUS
 62
7
100
AcDbCircle
 10
284.5000000000000
 20
147.4999539999998
 30
0.000000000000000
 40
1.600000000000000
  0
CIRCLE
  5
B1
100
AcDbEntity
  8
0
  6
CONTINUOUS
 62
7
100
AcDbCircle
 10
312.5000000000000
 20
147.4999539999998
 30
0.000000000000000
 40
1.600000000000000
  0
CIRCLE
  5
B2
100
AcDbEntity
  8
0
  6
CONTINUOUS
 62
7
100
AcDbCircle
 10
312.5000000000000
 20
129.4999540000000
 30
0.000000000000000
 40
1.600000000000000
  0
CIRCLE
  5
B3
100
AcDbEntity
  8
0
  6
CONTINUOUS
 62
7
100
AcDbCircle
 10
312.5000000000000
 20
111.4999540000000
 30
0.000000000000000
 40
1.600000000000000
  0
ARC
  5
B4
100
AcDbEntity
  8
0
  6
CONTINUOUS
 62
7
100
AcDbCircle
 10
138.0000000000000
 20
153.9999540000000
 30
0.000000000000000
 40
0.5000000000000000
100
AcDbArc
 50
0.000000000000000
 51
90.00000300000002
  0
ARC
  5
B5
100
AcDbEntity
  8
0
  6
CONTINUOUS
 62
7
100
AcDbCircle
 10
138.0000000000000
 20
104.9999539999999
 30
0.000000000000000
 40
0.5000000000000000
100
AcDbArc
 50
269.9999969999999
 51
360.0000000000000
  0
ARC
  5
B6
100
AcDbEntity
  8
0
  6
CONTINUOUS
 62
7
100
AcDbCircle
 10
99.00000000000000
 20
153.9999540000000
 30
0.000000000000000
 40
0.5000000000000000
100
AcDbArc
 50
90.00000300000002
 51
180.0000050000000
  0
ARC
  5
B7
100
AcDbEntity
  8
0
  6
CONTINUOUS
 62
7
100
AcDbCircle
 10
99.00000000000000
 20
104.9999539999999
 30
0.000000000000000
 40
0.5000000000000000
100
AcDbArc
 50
180.0000050000000
 51
270.0000010000000
  0
ARC
  5
B8
100
AcDbEntity
  8
0
  6
CONTINUOUS
 62
7
100
AcDbCircle
 10
112.0000000000000
 20
153.9999540000000
 30
0.000000000000000
 40
0.5000000000000000
100
AcDbArc
 50
0.000000000000000
 51
90.00000300000002
  0
ARC
  5
B9
100
AcDbEntity
  8
0
  6
CONTINUOUS
 62
7
100
AcDbCircle
 10
112.0000000000000
 20
104.9999539999999
 30
0.000000000000000
 40
0.5000000000000000
100
AcDbArc
 50
269.9999969999999
 51
360.0000000000000
  0
MTEXT
  5
BA
100
AcDbEntity
  8
7
  6
CONTINUOUS
 62
3
100
AcDbMText
 10
10.00005000000000
 20
18.00000000000000
 30
0.000000000000000
 40
3.000000000000000
 41
0.000000000000000
 71
     7
 72
     1
  1
{\H0.94x;{TYPE No.TH-20SUS}}
 11
1.000000000000000
 21
0.000000000000000
 31
0.000000000000000
  7
STANDARD
  0
LINE
  5
BB
100
AcDbEntity
  8
0
  6
CONTINUOUS
 62
7
100
AcDbLine
 10
117.9862650000000
 20
49.50000000000001
 30
0.000000000000000
 11
120.7497570000000
 21
47.18115600000000
 31
0.000000000000000
  0
LINE
  5
BC
100
AcDbEntity
  8
0
  6
CONTINUOUS
 62
7
100
AcDbLine
 10
117.9862650000000
 20
49.50000000000003
 30
0.000000000000000
 11
116.7006900000000
 21
47.96791100000002
 31
0.000000000000000
  0
LINE
  5
BD
100
AcDbEntity
  8
0
  6
CONTINUOUS
 62
7
100
AcDbLine
 10
116.7006900000000
 20
47.96791100000000
 30
0.000000000000000
 11
117.0417360000000
 21
47.68174000000000
 31
0.000000000000000
  0
LINE
  5
BE
100
AcDbEntity
  8
0
  6
CONTINUOUS
 62
7
100
AcDbLine
 10
138.5000000000000
 20
215.9999079999999
 30
0.000000000000000
 11
118.5000000000000
 21
215.9999079999999
 31
0.000000000000000
  0
LINE
  5
BF
100
AcDbEntity
  8
0
  6
CONTINUOUS
 62
7
100
AcDbLine
 10
138.5000000000000
 20
217.9999079999999
 30
0.000000000000000
 11
98.50000000000001
 21
217.9999079999999
 31
0.000000000000000
  0
CIRCLE
  5
C0
100
AcDbEntity
  8
0
  6
CONTINUOUS
 62
7
100
AcDbCircle
 10
118.5000000000000
 20
214.4999080000000
 30
0.000000000000000
 40
1.500000000000000
  0
ARC
  5
C1
100
AcDbEntity
  8
0
  6
CONTINUOUS
 62
7
100
AcDbCircle
 10
118.5000000000000
 20
214.4999080000000
 30
0.000000000000000
 40
3.500000000000000
100
AcDbArc
 50
89.99999900000002
 51
385.3769340000000
  0
LINE
  5
C2
100
AcDbEntity
  8
1
  6
CENTER
 62
1
100
AcDbLine
 10
104.4999999999999
 20
214.4999080000000
 30
0.000000000000000
 11
104.4999999999999
 21
219.4999080000000
 31
0.000000000000000
  0
LINE
  5
C3
100
AcDbEntity
  8
1
  6
CENTER
 62
1
100
AcDbLine
 10
118.5000000000000
 20
209.9999079999999
 30
0.000000000000000
 11
118.5000000000000
 21
218.9999080000000
 31
0.000000000000000
  0
LINE
  5
C4
100
AcDbEntity
  8
0
  6
CONTINUOUS
 62
7
100
AcDbLine
 10
115.3377230000000
 20
215.9999079999999
 30
0.000000000000000
 11
98.50000000000001
 21
215.9999079999999
 31
0.000000000000000
  0
LINE
  5
C5
100
AcDbEntity
  8
0
  6
CONTINUOUS
 62
7
100
AcDbLine
 10
98.50000000000001
 20
215.9999079999999
 30
0.000000000000000
 11
98.50000000000001
 21
217.9999079999999
 31
0.000000000000000
  0
LINE
  5
C6
100
AcDbEntity
  8
0
  6
CONTINUOUS
 62
7
100
AcDbLine
 10
112.5000000000000
 20
215.9999079999999
 30
0.000000000000000
 11
112.5000000000000
 21
217.9999079999999
 31
0.000000000000000
  0
LINE
  5
C7
100
AcDbEntity
  8
0
  6
CONTINUOUS
 62
7
100
AcDbLine
 10
121.6622770000000
 20
215.9999079999999
 30
0.000000000000000
 11
119.8552630000000
 21
215.1427650000000
 31
0.000000000000000
  0
LINE
  5
C8
100
AcDbEntity
  8
0
  6
CONTINUOUS
 62
7
100
AcDbLine
 10
116.7006900000000
 20
211.0319969999999
 30
0.000000000000000
 11
117.0417360000000
 21
211.3181689999999
 31
0.000000000000000
  0
LINE
  5
C9
100
AcDbEntity
  8
0
  6
CONTINUOUS
 62
7
100
AcDbLine
 10
117.9862650000000
 20
209.4999080000000
 30
0.000000000000000
 11
120.7497570000000
 21
211.8187529999999
 31
0.000000000000000
  0
LINE
  5
CA
100
AcDbEntity
  8
0
  6
CONTINUOUS
 62
7
100
AcDbLine
 10
117.9862650000000
 20
209.4999080000000
 30
0.000000000000000
 11
116.7006900000000
 21
211.0319969999999
 31
0.000000000000000
  0
LINE
  5
CB
100
AcDbEntity
  8
1
  6
CENTER
 62
1
100
AcDbLine
 10
114.0000000000000
 20
214.4999080000000
 30
0.000000000000000
 11
123.0000000000000
 21
214.4999080000000
 31
0.000000000000000
  0
LINE
  5
CC
100
AcDbEntity
  8
1
  6
CENTER
 62
1
100
AcDbLine
 10
132.4999999999998
 20
214.4999080000000
 30
0.000000000000000
 11
132.4999999999998
 21
219.4999080000000
 31
0.000000000000000
  0
LINE
  5
CD
100
AcDbEntity
  8
0
  6
CONTINUOUS
 62
7
100
AcDbLine
 10
138.5000000000000
 20
215.9999079999999
 30
0.000000000000000
 11
138.5000000000000
 21
217.9999079999999
 31
0.000000000000000
  0
LINE
  5
CE
100
AcDbEntity
  8
0
  6
CONTINUOUS
 62
7
100
AcDbLine
 10
117.9862650000000
 20
116.9999540000000
 30
0.000000000000000
 11
117.9862650000000
 21
141.9999540000000
 31
0.000000000000000
  0
LINE
  5
CF
100
AcDbEntity
  8
0
  6
CONTINUOUS
 62
7
100
AcDbLine
 10
116.7006900000000
 20
116.9999540000000
 30
0.000000000000000
 11
116.7006900000000
 21
141.9999540000000
 31
0.000000000000000
  0
LINE
  5
D0
100
AcDbEntity
  8
0
  6
CONTINUOUS
 62
7
100
AcDbLine
 10
203.5000000000000
 20
141.9999540000000
 30
0.000000000000000
 11
203.5000000000000
 21
116.9999540000000
 31
0.000000000000000
  0
LINE
  5
D1
100
AcDbEntity
  8
0
  6
CONTINUOUS
 62
7
100
AcDbLine
 10
33.50000000000000
 20
116.9999540000000
 30
0.000000000000000
 11
33.50000000000000
 21
141.9999540000000
 31
0.000000000000000
  0
LINE
  5
D2
100
AcDbEntity
  8
0
  6
CONTINUOUS
 62
7
100
AcDbLine
 10
31.96791099999999
 20
116.9999540000000
 30
0.000000000000000
 11
31.96791099999999
 21
141.9999540000000
 31
0.000000000000000
  0
LINE
  5
D3
100
AcDbEntity
  8
0
  6
CONTINUOUS
 62
7
100
AcDbLine
 10
443.0000000000000
 20
154.4999540000000
 30
0.000000000000000
 11
420.0000000000000
 21
154.4999540000000
 31
0.000000000000000
  0
LINE
  5
D4
100
AcDbEntity
  8
0
  6
CONTINUOUS
 62
7
100
AcDbLine
 10
443.0000000000000
 20
104.4999540000000
 30
0.000000000000000
 11
420.0000000000000
 21
104.4999540000000
 31
0.000000000000000
  0
LINE
  5
D5
100
AcDbEntity
  8
0
  6
CONTINUOUS
 62
7
100
AcDbLine
 10
428.5000000000000
 20
116.9999540000000
 30
0.000000000000000
 11
428.5000000000000
 21
141.9999540000000
 31
0.000000000000000
  0
LINE
  5
D6
100
AcDbEntity
  8
0
  6
CONTINUOUS
 62
7
100
AcDbLine
 10
402.0000000000000
 20
116.9999540000000
 30
0.000000000000000
 11
402.0000000000000
 21
141.9999540000000
 31
0.000000000000000
  0
LINE
  5
D7
100
AcDbEntity
  8
0
  6
CONTINUOUS
 62
7
100
AcDbLine
 10
396.7006900000000
 20
116.9999540000000
 30
0.000000000000000
 11
396.7006900000000
 21
141.9999540000000
 31
0.000000000000000
  0
LINE
  5
D8
100
AcDbEntity
  8
0
  6
CONTINUOUS
 62
7
100
AcDbLine
 10
397.9862650000000
 20
116.9999540000000
 30
0.000000000000000
 11
397.9862650000000
 21
141.9999540000000
 31
0.000000000000000
  0
CIRCLE
  5
D9
100
AcDbEntity
  8
0
  6
CONTINUOUS
 62
7
100
AcDbCircle
 10
384.5000000000000
 20
129.4999540000000
 30
0.000000000000000
 40
3.250000000000000
  0
LINE
  5
DA
100
AcDbEntity
  8
1
  6
CENTER
 62
1
100
AcDbLine
 10
384.5000000000000
 20
125.2499540000000
 30
0.000000000000000
 11
384.5000000000000
 21
133.7499540000000
 31
0.000000000000000
  0
LINE
  5
DB
100
AcDbEntity
  8
0
  6
CONTINUOUS
 62
7
100
AcDbLine
 10
378.5000000000000
 20
104.9999539999999
 30
0.000000000000000
 11
378.5000000000000
 21
153.9999540000000
 31
0.000000000000000
  0
LINE
  5
DC
100
AcDbEntity
  8
1
  6
CENTER
 62
1
100
AcDbLine
 10
398.4999999999999
 20
111.9999540000000
 30
0.000000000000000
 11
398.4999999999999
 21
146.9999540000000
 31
0.000000000000000
  0
LINE
  5
DD
100
AcDbEntity
  8
0
  6
CONTINUOUS
 62
7
100
AcDbLine
 10
420.0000000000000
 20
104.4999540000000
 30
0.000000000000000
 11
420.0000000000000
 21
116.9999540000000
 31
0.000000000000000
  0
CIRCLE
  5
DE
100
AcDbEntity
  8
0
  6
CONTINUOUS
 62
7
100
AcDbCircle
 10
384.5000000000000
 20
111.4999540000000
 30
0.000000000000000
 40
3.250000000000000
  0
CIRCLE
  5
DF
100
AcDbEntity
  8
0
  6
CONTINUOUS
 62
7
100
AcDbCircle
 10
384.5000000000000
 20
111.4999540000000
 30
0.000000000000000
 40
1.600000000000000
  0
LINE
  5
E0
100
AcDbEntity
  8
0
  6
CONTINUOUS
 62
7
100
AcDbLine
 10
392.5000000000000
 20
104.9999539999999
 30
0.000000000000000
 11
392.5000000000000
 21
116.9999540000000
 31
0.000000000000000
  0
LINE
  5
E1
100
AcDbEntity
  8
1
  6
CENTER
 62
1
100
AcDbLine
 10
384.5000000000000
 20
107.2499540000000
 30
0.000000000000000
 11
384.5000000000000
 21
115.7499540000000
 31
0.000000000000000
  0
LINE
  5
E2
100
AcDbEntity
  8
0
  6
CONTINUOUS
 62
7
100
AcDbLine
 10
392.0000000000000
 20
104.4999540000000
 30
0.000000000000000
 11
379.0000000000000
 21
104.4999540000000
 31
0.000000000000000
  0
ARC
  5
E3
100
AcDbEntity
  8
0
  6
CONTINUOUS
 62
7
100
AcDbCircle
 10
379.0000000000000
 20
104.9999539999999
 30
0.000000000000000
 40
0.5000000000000000
100
AcDbArc
 50
180.0000050000000
 51
270.0000010000000
  0
ARC
  5
E4
100
AcDbEntity
  8
0
  6
CONTINUOUS
 62
7
100
AcDbCircle
 10
392.0000000000000
 20
104.9999539999999
 30
0.000000000000000
 40
0.5000000000000000
100
AcDbArc
 50
269.9999969999999
 51
360.0000000000000
  0
CIRCLE
  5
E5
100
AcDbEntity
  8
0
  6
CONTINUOUS
 62
7
100
AcDbCircle
 10
384.5000000000000
 20
129.4999540000000
 30
0.000000000000000
 40
1.600000000000000
  0
LINE
  5
E6
100
AcDbEntity
  8
1
  6
CENTER
 62
1
100
AcDbLine
 10
388.7500000000000
 20
111.4999540000000
 30
0.000000000000000
 11
380.2500000000000
 21
111.4999540000000
 31
0.000000000000000
  0
LINE
  5
E7
100
AcDbEntity
  8
1
  6
CENTER
 62
1
100
AcDbLine
 10
388.7500000000000
 20
129.4999540000000
 30
0.000000000000000
 11
380.2500000000000
 21
129.4999540000000
 31
0.000000000000000
  0
LINE
  5
E8
100
AcDbEntity
  8
0
  6
CONTINUOUS
 62
7
100
AcDbLine
 10
402.0000000000000
 20
116.9999540000000
 30
0.000000000000000
 11
392.5000000000000
 21
116.9999540000000
 31
0.000000000000000
  0
LINE
  5
E9
100
AcDbEntity
  8
0
  6
CONTINUOUS
 62
7
100
AcDbLine
 10
420.0000000000000
 20
141.9999540000000
 30
0.000000000000000
 11
420.0000000000000
 21
154.4999540000000
 31
0.000000000000000
  0
ARC
  5
EA
100
AcDbEntity
  8
0
  6
CONTINUOUS
 62
7
100
AcDbCircle
 10
392.0000000000000
 20
153.9999540000000
 30
0.000000000000000
 40
0.5000000000000000
100
AcDbArc
 50
0.000000000000000
 51
90.00000300000002
  0
ARC
  5
EB
100
AcDbEntity
  8
0
  6
CONTINUOUS
 62
7
100
AcDbCircle
 10
379.0000000000000
 20
153.9999540000000
 30
0.000000000000000
 40
0.5000000000000000
100
AcDbArc
 50
90.00000300000002
 51
180.0000050000000
  0
CIRCLE
  5
EC
100
AcDbEntity
  8
0
  6
CONTINUOUS
 62
7
100
AcDbCircle
 10
384.5000000000000
 20
147.4999539999998
 30
0.000000000000000
 40
3.250000000000000
  0
CIRCLE
  5
ED
100
AcDbEntity
  8
0
  6
CONTINUOUS
 62
7
100
AcDbCircle
 10
384.5000000000000
 20
147.4999539999998
 30
0.000000000000000
 40
1.600000000000000
  0
LINE
  5
EE
100
AcDbEntity
  8
1
  6
CENTER
 62
1
100
AcDbLine
 10
388.7500000000000
 20
147.4999539999998
 30
0.000000000000000
 11
380.2500000000000
 21
147.4999539999998
 31
0.000000000000000
  0
LINE
  5
EF
100
AcDbEntity
  8
1
  6
CENTER
 62
1
100
AcDbLine
 10
384.5000000000000
 20
143.2499540000000
 30
0.000000000000000
 11
384.5000000000000
 21
151.7499540000000
 31
0.000000000000000
  0
LINE
  5
F0
100
AcDbEntity
  8
0
  6
CONTINUOUS
 62
7
100
AcDbLine
 10
402.0000000000000
 20
141.9999540000000
 30
0.000000000000000
 11
392.5000000000000
 21
141.9999540000000
 31
0.000000000000000
  0
LINE
  5
F1
100
AcDbEntity
  8
0
  6
CONTINUOUS
 62
7
100
AcDbLine
 10
392.5000000000000
 20
141.9999540000000
 30
0.000000000000000
 11
392.5000000000000
 21
153.9999540000000
 31
0.000000000000000
  0
LINE
  5
F2
100
AcDbEntity
  8
0
  6
CONTINUOUS
 62
7
100
AcDbLine
 10
392.0000000000000
 20
154.4999540000000
 30
0.000000000000000
 11
379.0000000000000
 21
154.4999540000000
 31
0.000000000000000
  0
CIRCLE
  5
F3
100
AcDbEntity
  8
0
  6
CONTINUOUS
 62
7
100
AcDbCircle
 10
437.5000000000000
 20
129.4999540000000
 30
0.000000000000000
 40
3.250000000000000
  0
LINE
  5
F4
100
AcDbEntity
  8
1
  6
CENTER
 62
1
100
AcDbLine
 10
437.5000000000000
 20
125.2499540000000
 30
0.000000000000000
 11
437.5000000000000
 21
133.7499540000000
 31
0.000000000000000
  0
LINE
  5
F5
100
AcDbEntity
  8
0
  6
CONTINUOUS
 62
7
100
AcDbLine
 10
443.5000000000000
 20
104.9999539999999
 30
0.000000000000000
 11
443.5000000000000
 21
153.9999540000000
 31
0.000000000000000
  0
CIRCLE
  5
F6
100
AcDbEntity
  8
0
  6
CONTINUOUS
 62
7
100
AcDbCircle
 10
437.5000000000000
 20
111.4999540000000
 30
0.000000000000000
 40
3.250000000000000
  0
CIRCLE
  5
F7
100
AcDbEntity
  8
0
  6
CONTINUOUS
 62
7
100
AcDbCircle
 10
437.5000000000000
 20
111.4999540000000
 30
0.000000000000000
 40
1.600000000000000
  0
LINE
  5
F8
100
AcDbEntity
  8
1
  6
CENTER
 62
1
100
AcDbLine
 10
437.5000000000000
 20
107.2499540000000
 30
0.000000000000000
 11
437.5000000000000
 21
115.7499540000000
 31
0.000000000000000
  0
ARC
  5
F9
100
AcDbEntity
  8
0
  6
CONTINUOUS
 62
7
100
AcDbCircle
 10
443.0000000000000
 20
104.9999539999999
 30
0.000000000000000
 40
0.5000000000000000
100
AcDbArc
 50
269.9999969999999
 51
360.0000000000000
  0
CIRCLE
  5
FA
100
AcDbEntity
  8
0
  6
CONTINUOUS
 62
7
100
AcDbCircle
 10
437.5000000000000
 20
129.4999540000000
 30
0.000000000000000
 40
1.600000000000000
  0
LINE
  5
FB
100
AcDbEntity
  8
1
  6
CENTER
 62
1
100
AcDbLine
 10
441.7500000000000
 20
129.4999540000000
 30
0.000000000000000
 11
433.2500000000000
 21
129.4999540000000
 31
0.000000000000000
  0
LINE
  5
FC
100
AcDbEntity
  8
1
  6
CENTER
 62
1
100
AcDbLine
 10
441.7500000000000
 20
111.4999540000000
 30
0.000000000000000
 11
433.2500000000000
 21
111.4999540000000
 31
0.000000000000000
  0
ARC
  5
FD
100
AcDbEntity
  8
0
  6
CONTINUOUS
 62
7
100
AcDbCircle
 10
443.0000000000000
 20
153.9999540000000
 30
0.000000000000000
 40
0.5000000000000000
100
AcDbArc
 50
0.000000000000000
 51
90.00000300000002
  0
CIRCLE
  5
FE
100
AcDbEntity
  8
0
  6
CONTINUOUS
 62
7
100
AcDbCircle
 10
437.5000000000000
 20
147.4999539999998
 30
0.000000000000000
 40
3.250000000000000
  0
CIRCLE
  5
FF
100
AcDbEntity
  8
0
  6
CONTINUOUS
 62
7
100
AcDbCircle
 10
437.5000000000000
 20
147.4999539999998
 30
0.000000000000000
 40
1.600000000000000
  0
LINE
  5
100
100
AcDbEntity
  8
1
  6
CENTER
 62
1
100
AcDbLine
 10
441.7500000000000
 20
147.4999539999998
 30
0.000000000000000
 11
433.2500000000000
 21
147.4999539999998
 31
0.000000000000000
  0
LINE
  5
101
100
AcDbEntity
  8
1
  6
CENTER
 62
1
100
AcDbLine
 10
437.5000000000000
 20
143.2499540000000
 30
0.000000000000000
 11
437.5000000000000
 21
151.7499540000000
 31
0.000000000000000
  0
LINE
  5
102
100
AcDbEntity
  8
0
  6
CONTINUOUS
 62
7
100
AcDbLine
 10
427.0000000000000
 20
104.4999540000000
 30
0.000000000000000
 11
427.0000000000000
 21
116.9999540000000
 31
0.000000000000000
  0
LINE
  5
103
100
AcDbEntity
  8
0
  6
CONTINUOUS
 62
7
100
AcDbLine
 10
428.5000000000000
 20
141.9999540000000
 30
0.000000000000000
 11
420.0000000000000
 21
141.9999540000000
 31
0.000000000000000
  0
LINE
  5
104
100
AcDbEntity
  8
1
  6
CENTER
 62
1
100
AcDbLine
 10
423.5000000000000
 20
99.49995400000000
 30
0.000000000000000
 11
423.5000000000000
 21
159.4999540000000
 31
0.000000000000000
  0
LINE
  5
105
100
AcDbEntity
  8
0
  6
CONTINUOUS
 62
7
100
AcDbLine
 10
428.5000000000000
 20
116.9999540000000
 30
0.000000000000000
 11
420.0000000000000
 21
116.9999540000000
 31
0.000000000000000
  0
LINE
  5
106
100
AcDbEntity
  8
0
  6
CONTINUOUS
 62
7
100
AcDbLine
 10
427.0000000000000
 20
141.9999540000000
 30
0.000000000000000
 11
427.0000000000000
 21
154.4999540000000
 31
0.000000000000000
  0
LINE
  5
107
100
AcDbEntity
  8
0
  6
CONTINUOUS
 62
7
100
AcDbLine
 10
425.0000000000000
 20
116.9999540000000
 30
0.000000000000000
 11
425.0000000000000
 21
141.9999540000000
 31
0.000000000000000
  0
LINE
  5
108
100
AcDbEntity
  8
0
  6
CONTINUOUS
 62
7
100
AcDbLine
 10
422.0000000000000
 20
116.9999540000000
 30
0.000000000000000
 11
422.0000000000000
 21
141.9999540000000
 31
0.000000000000000
  0
ENDSEC
  0
SECTION
  2
OBJECTS
  0
DICTIONARY
  5
12E
100
AcDbDictionary
  3
ACAD_GROUP
350
12F
  3
ACAD_MLINESTYLE
350
130
  0
DICTIONARY
  5
12F
102
{ACAD_REACTORS
330
12E
102
}
100
AcDbDictionary
  0
DICTIONARY
  5
130
102
{ACAD_REACTORS
330
12E
102
}
100
AcDbDictionary
  3
STANDARD
350
131
  0
MLINESTYLE
  5
131
102
{ACAD_REACTORS
330
130
102
}
100
AcDbMlineStyle
  2
STANDARD
 70
     0
  3

 62
   256
 51
90.00
 52
90.00
 71
     2
 49
0.50
 62
   256
  6
BYLAYER
 49
-0.50
 62
   256
  6
BYLAYER
  0
ENDSEC
  0
EOF
