  0
SECTION
  2
HEADER
  9
$ACADVER
  1
AC1014
  9
$DWGCODEPAGE
  3
ANSI_932
  9
$LTSCALE
 40
20.0
  9
$FILLMODE
 70
     1
  9
$CLAYER
  8
0
  9
$PDMODE
 70
     0
  9
$SPLFRAME
 70
     0
  9
$SPLINETYPE
 70
     6
  9
$SPLINESEGS
 70
     8
  9
$DIMASZ
 40
2.000000
  9
$DIMEXE
 40
1.500000
  9
$DIMEXO
 40
0.800000
  9
$DIMTAD
 70
     1
  9
$DIMTIH
 70
     0
  9
$DIMTOH
 70
     0
  9
$DIMTVP
 40
0.500000
  9
$DIMTXT
 40
3.100000
  9
$EXTMIN
 10
0.000000
 20
0.000000
 30
0.000000
  9
$EXTMAX
 10
297.000000
 20
420.000000
 30
0.000000
  9
$MEASUREMENT
 70
  1
  9
$LIMMIN
 10
0.000000
 20
0.000000
  9
$LIMMAX
 10
297.000000
 20
420.000000
  9
$HANDLING
 70
     1
  9
$HANDSEED
  5
1FC
  9
$DIMBLK
  1
_OPEN
  9
$DIMDEC
 70
     2
  9
$DIMAUNIT
 70
     0
  9
$DIMZIN
 70
     8
  9
$DIMTOFL
 70
     1
  0
ENDSEC
  0
SECTION
  2
CLASSES
  0
ENDSEC
  0
SECTION
  2
TABLES
  0
TABLE
  2
VPORT
  5
1CA
100
AcDbSymbolTable
 70
     1
  0
VPORT
  5
1CB
100
AcDbSymbolTableRecord
100
AcDbViewportTableRecord
  2
*ACTIVE
 70
     0
 12
158.602308
 22
119.287601
 40
202.575201
 41
1.467132
  0
ENDTAB
  0
TABLE
  2
LTYPE
  5
1CC
100
AcDbSymbolTable
 70
     4
  0
LTYPE
  5
1CD
100
AcDbSymbolTableRecord
100
AcDbLinetypeTableRecord
  2
BYBLOCK
 70
     0
  3

 72
    65
 73
     0
 40
0.0
  0
LTYPE
  5
1CE
100
AcDbSymbolTableRecord
100
AcDbLinetypeTableRecord
  2
BYLAYER
 70
     0
  3

 72
    65
 73
     0
 40
0.0
  0
LTYPE
  5
1CF
100
AcDbSymbolTableRecord
100
AcDbLinetypeTableRecord
  2
CONTINUOUS
 70
     0
  3
Solid line (NEC CAE2D for Win R18.0 : 2025.03.14)
 72
    65
 73
     0
 40
0.0
  0
LTYPE
  5
1D0
100
AcDbSymbolTableRecord
100
AcDbLinetypeTableRecord
  2
DASHED
 70
     0
  3
__ __ __ __ __ __ __ __ __ __ __ __ __ _
 72
    65
 73
     2
 40
0.75
 49
0.5
 74
     0
 49
-0.25
 74
     0
  0
LTYPE
  5
1D1
100
AcDbSymbolTableRecord
100
AcDbLinetypeTableRecord
  2
CENTER
 70
     0
  3
____ _ ____ _ ____ _ ____ _ ____ _ ____
 72
    65
 73
     4
 40
2.0
 49
1.25
 74
     0
 49
-0.25
 74
     0
 49
0.25
 74
     0
 49
-0.25
 74
     0
  0
LTYPE
  5
1D2
100
AcDbSymbolTableRecord
100
AcDbLinetypeTableRecord
  2
PHANTOM
 70
     0
  3
______  __  __  ______  __  __  ______ 
 72
    65
 73
     6
 40
2.5
 49
1.25
 74
     0
 49
-0.25
 74
     0
 49
0.25
 74
     0
 49
-0.25
 74
     0
 49
0.25
 74
     0
 49
-0.25
 74
     0
  0
ENDTAB
  0
TABLE
  2
LAYER
  5
1D3
100
AcDbSymbolTable
 70
    17
  0
LAYER
  5
1D4
100
AcDbSymbolTableRecord
100
AcDbLayerTableRecord
  2
0
 70
     0
 62
     7
  6
CONTINUOUS
  0
LAYER
  5
1D5
100
AcDbSymbolTableRecord
100
AcDbLayerTableRecord
  2
A0
 70
     0
 62
     9
  6
CONTINUOUS
  0
LAYER
  5
1D6
100
AcDbSymbolTableRecord
100
AcDbLayerTableRecord
  2
A1
 70
     0
 62
    12
  6
CONTINUOUS
  0
LAYER
  5
1D7
100
AcDbSymbolTableRecord
100
AcDbLayerTableRecord
  2
A2
 70
     0
 62
     9
  6
CONTINUOUS
  0
LAYER
  5
1D8
100
AcDbSymbolTableRecord
100
AcDbLayerTableRecord
  2
A3
 70
     0
 62
    10
  6
CONTINUOUS
  0
LAYER
  5
1D9
100
AcDbSymbolTableRecord
100
AcDbLayerTableRecord
  2
A4
 70
     0
 62
     9
  6
CONTINUOUS
  0
LAYER
  5
1DA
100
AcDbSymbolTableRecord
100
AcDbLayerTableRecord
  2
A5
 70
     0
 62
     8
  6
CONTINUOUS
  0
LAYER
  5
1DB
100
AcDbSymbolTableRecord
100
AcDbLayerTableRecord
  2
A6
 70
     0
 62
    12
  6
CONTINUOUS
  0
LAYER
  5
1DC
100
AcDbSymbolTableRecord
100
AcDbLayerTableRecord
  2
A7
 70
     0
 62
    12
  6
CONTINUOUS
  0
LAYER
  5
1DD
100
AcDbSymbolTableRecord
100
AcDbLayerTableRecord
  2
A8
 70
     0
 62
    10
  6
CONTINUOUS
  0
LAYER
  5
1DE
100
AcDbSymbolTableRecord
100
AcDbLayerTableRecord
  2
A9
 70
     0
 62
     9
  6
CONTINUOUS
  0
LAYER
  5
1DF
100
AcDbSymbolTableRecord
100
AcDbLayerTableRecord
  2
A10
 70
     0
 62
     6
  6
CONTINUOUS
  0
LAYER
  5
1E0
100
AcDbSymbolTableRecord
100
AcDbLayerTableRecord
  2
A20
 70
     0
 62
     1
  6
CONTINUOUS
  0
LAYER
  5
1E1
100
AcDbSymbolTableRecord
100
AcDbLayerTableRecord
  2
A30
 70
     0
 62
     1
  6
CONTINUOUS
  0
LAYER
  5
1E2
100
AcDbSymbolTableRecord
100
AcDbLayerTableRecord
  2
A40
 70
     0
 62
     9
  6
CONTINUOUS
  0
LAYER
  5
1E3
100
AcDbSymbolTableRecord
100
AcDbLayerTableRecord
  2
A50
 70
     0
 62
    12
  6
CONTINUOUS
  0
LAYER
  5
1E4
100
AcDbSymbolTableRecord
100
AcDbLayerTableRecord
  2
A1023
 70
     0
 62
    16
  6
CONTINUOUS
  0
ENDTAB
  0
TABLE
  2
STYLE
  5
1E5
100
AcDbSymbolTable
 70
     4
  0
STYLE
  5
1E6
100
AcDbSymbolTableRecord
100
AcDbTextStyleTableRecord
  2
STANDARD
 70
    64
 40
0.0
 41
1.0
 50
0.0
 71
     0
 42
3.000000000000000
  3
TXT
  4

  0
STYLE
  5
1E7
100
AcDbSymbolTableRecord
100
AcDbTextStyleTableRecord
  2
ANKTATE
 70
    68
 40
0.0
 41
1.0
 50
0.0
 71
     0
 42
3.000000000000000
  3
TXT
  4

  0
STYLE
  5
1E8
100
AcDbSymbolTableRecord
100
AcDbTextStyleTableRecord
  2
KNJYOKO
 70
    64
 40
0.0
 41
1.0
 50
0.0
 71
     0
 42
3.000000000000000
  3
TXT
  4
BIGFONT
  0
STYLE
  5
1E9
100
AcDbSymbolTableRecord
100
AcDbTextStyleTableRecord
  2
KNJTATE
 70
    68
 40
0.0
 41
1.0
 50
0.0
 71
     0
 42
3.000000000000000
  3
TXT
  4
BIGFONT
  0
ENDTAB
  0
TABLE
  2
VIEW
  5
1EA
100
AcDbSymbolTable
 70
     0
  0
ENDTAB
  0
TABLE
  2
UCS
  5
1EB
100
AcDbSymbolTable
 70
     0
  0
ENDTAB
  0
TABLE
  2
APPID
  5
1EC
100
AcDbSymbolTable
 70
     1
  0
APPID
  5
1ED
100
AcDbSymbolTableRecord
100
AcDbRegAppTableRecord
  2
ACAD
 70
     0
  0
ENDTAB
  0
TABLE
  2
DIMSTYLE
  5
1EE
100
AcDbSymbolTable
 70
     2
  0
DIMSTYLE
105
1EF
100
AcDbSymbolTableRecord
100
AcDbDimStyleTableRecord
  2
STANDARD
 70
     0
 41
2.000000
 44
1.500000
 42
0.800000
145
0.661290
140
3.100000
144
1.000000
146
0.645161
340
1E6
  0
DIMSTYLE
105
1F0
100
AcDbSymbolTableRecord
100
AcDbDimStyleTableRecord
  2
A001
 70
     0
 41
2.000000
 44
1.500000
 42
0.800000
145
0.661290
140
3.100000
144
1.000000
146
0.645161
 77
     1
 73
     0
 74
     0
271
     2
275
     0
 78
     8
172
     1
340
1E6
  0
ENDTAB
  0
TABLE
  2
BLOCK_RECORD
  5
1F1
100
AcDbSymbolTable
 70
    12
  0
BLOCK_RECORD
  5
1F2
100
AcDbSymbolTableRecord
100
AcDbBlockTableRecord
  2
*MODEL_SPACE
  0
BLOCK_RECORD
  5
1F3
100
AcDbSymbolTableRecord
100
AcDbBlockTableRecord
  2
*PAPER_SPACE
  0
BLOCK_RECORD
  5
1
100
AcDbSymbolTableRecord
100
AcDbBlockTableRecord
  2
_NONE
  0
BLOCK_RECORD
  5
4
100
AcDbSymbolTableRecord
100
AcDbBlockTableRecord
  2
_CLOSED
  0
BLOCK_RECORD
  5
B
100
AcDbSymbolTableRecord
100
AcDbBlockTableRecord
  2
_DOT
  0
BLOCK_RECORD
  5
13
100
AcDbSymbolTableRecord
100
AcDbBlockTableRecord
  2
_OPEN
  0
BLOCK_RECORD
  5
19
100
AcDbSymbolTableRecord
100
AcDbBlockTableRecord
  2
_ORIGIN
  0
BLOCK_RECORD
  5
1E
100
AcDbSymbolTableRecord
100
AcDbBlockTableRecord
  2
_OPEN30
  0
BLOCK_RECORD
  5
24
100
AcDbSymbolTableRecord
100
AcDbBlockTableRecord
  2
_BOXFILLED
  0
BLOCK_RECORD
  5
29
100
AcDbSymbolTableRecord
100
AcDbBlockTableRecord
  2
_BOXBLANK
  0
BLOCK_RECORD
  5
31
100
AcDbSymbolTableRecord
100
AcDbBlockTableRecord
  2
_OBLIQUE
  0
BLOCK_RECORD
  5
35
100
AcDbSymbolTableRecord
100
AcDbBlockTableRecord
  2
_OPEN90
  0
BLOCK_RECORD
  5
3B
100
AcDbSymbolTableRecord
100
AcDbBlockTableRecord
  2
_CLOSEDBLANK
  0
BLOCK_RECORD
  5
41
100
AcDbSymbolTableRecord
100
AcDbBlockTableRecord
  2
_DOTBLANK
  0
ENDTAB
  0
ENDSEC
  0
SECTION
  2
BLOCKS
  0
BLOCK
  5
1F4
100
AcDbEntity
  8
0
100
AcDbBlockBegin
  2
*MODEL_SPACE
 70
     0
 10
0.0
 20
0.0
 30
0.0
  3
*MODEL_SPACE
  1

  0
ENDBLK
  5
1F5
100
AcDbEntity
  8
0
100
AcDbBlockEnd
  0
BLOCK
  5
1F6
100
AcDbEntity
  8
0
100
AcDbBlockBegin
  2
*PAPER_SPACE
 70
     0
 10
0.0
 20
0.0
 30
0.0
  3
*PAPER_SPACE
  1

  0
ENDBLK
  5
1F7
100
AcDbEntity
  8
0
100
AcDbBlockEnd
  0
BLOCK
  5
2
100
AcDbEntity
  8
0
100
AcDbBlockBegin
  2
_NONE
 70
     0
 10
0.0
 20
0.0
 30
0.0
  3
_NONE
  1

  0
ENDBLK
  5
3
100
AcDbEntity
  8
0
100
AcDbBlockEnd
  0
BLOCK
  5
5
100
AcDbEntity
  8
0
100
AcDbBlockBegin
  2
_CLOSED
 70
     0
 10
0.0
 20
0.0
 30
0.0
  3
_CLOSED
  1

  0
LINE
  5
6
100
AcDbEntity
  8
0
  6
BYBLOCK
 62
     0
100
AcDbLine
 10
-1.0
 20
0.166667
 30
0.0
 11
0.0
 21
0.0
 31
0.0
  0
LINE
  5
7
100
AcDbEntity
  8
0
  6
BYBLOCK
 62
     0
100
AcDbLine
 10
0.0
 20
0.0
 30
0.0
 11
-1.0
 21
-0.166667
 31
0.0
  0
LINE
  5
8
100
AcDbEntity
  8
0
  6
BYBLOCK
 62
     0
100
AcDbLine
 10
-1.0
 20
0.166667
 30
0.0
 11
-1.0
 21
-0.166667
 31
0.0
  0
LINE
  5
9
100
AcDbEntity
  8
0
  6
BYBLOCK
 62
     0
100
AcDbLine
 10
0.0
 20
0.0
 30
0.0
 11
-1.0
 21
0.0
 31
0.0
  0
ENDBLK
  5
A
100
AcDbEntity
  8
0
100
AcDbBlockEnd
  0
BLOCK
  5
C
100
AcDbEntity
  8
0
100
AcDbBlockBegin
  2
_DOT
 70
     0
 10
0.0
 20
0.0
 30
0.0
  3
_DOT
  1

  0
POLYLINE
  5
D
100
AcDbEntity
  8
0
  6
BYBLOCK
 62
     0
100
AcDb2dPolyline
 66
     1
 10
0.0
 20
0.0
 30
0.0
 70
     1
 40
0.5
 41
0.5
  0
VERTEX
  5
E
100
AcDbEntity
  8
0
  6
BYBLOCK
 62
     0
100
AcDbVertex
100
AcDb2dVertex
 10
-0.25
 20
0.0
 30
0.0
 42
1.0
  0
VERTEX
  5
F
100
AcDbEntity
  8
0
  6
BYBLOCK
 62
     0
100
AcDbVertex
100
AcDb2dVertex
 10
0.25
 20
0.0
 30
0.0
 42
1.0
  0
SEQEND
  5
10
100
AcDbEntity
  8
0
  6
BYBLOCK
 62
     0
  0
LINE
  5
11
100
AcDbEntity
  8
0
  6
BYBLOCK
 62
     0
100
AcDbLine
 10
-0.5
 20
0.0
 30
0.0
 11
-1.0
 21
0.0
 31
0.0
  0
ENDBLK
  5
12
100
AcDbEntity
  8
0
100
AcDbBlockEnd
  0
BLOCK
  5
14
100
AcDbEntity
  8
0
100
AcDbBlockBegin
  2
_OPEN
 70
     0
 10
0.0
 20
0.0
 30
0.0
  3
_OPEN
  1

  0
LINE
  5
15
100
AcDbEntity
  8
0
  6
BYBLOCK
 62
     0
100
AcDbLine
 10
-1.0
 20
0.166667
 30
0.0
 11
0.0
 21
0.0
 31
0.0
  0
LINE
  5
16
100
AcDbEntity
  8
0
  6
BYBLOCK
 62
     0
100
AcDbLine
 10
0.0
 20
0.0
 30
0.0
 11
-1.0
 21
-0.166667
 31
0.0
  0
LINE
  5
17
100
AcDbEntity
  8
0
  6
BYBLOCK
 62
     0
100
AcDbLine
 10
0.0
 20
0.0
 30
0.0
 11
-1.0
 21
0.0
 31
0.0
  0
ENDBLK
  5
18
100
AcDbEntity
  8
0
100
AcDbBlockEnd
  0
BLOCK
  5
1A
100
AcDbEntity
  8
0
100
AcDbBlockBegin
  2
_ORIGIN
 70
     0
 10
0.0
 20
0.0
 30
0.0
  3
_ORIGIN
  1

  0
CIRCLE
  5
1B
100
AcDbEntity
  8
0
  6
BYBLOCK
 62
     0
100
AcDbCircle
 10
0.0
 20
0.0
 30
0.0
 40
0.5
  0
LINE
  5
1C
100
AcDbEntity
  8
0
  6
BYBLOCK
 62
     0
100
AcDbLine
 10
0.0
 20
0.0
 30
0.0
 11
-1.0
 21
0.0
 31
0.0
  0
ENDBLK
  5
1D
100
AcDbEntity
  8
0
100
AcDbBlockEnd
  0
BLOCK
  5
1F
100
AcDbEntity
  8
0
100
AcDbBlockBegin
  2
_OPEN30
 70
     0
 10
0.0
 20
0.0
 30
0.0
  3
_OPEN30
  1

  0
LINE
  5
20
100
AcDbEntity
  8
0
  6
BYBLOCK
 62
     0
100
AcDbLine
 10
-1.0
 20
0.267949
 30
0.0
 11
0.0
 21
0.0
 31
0.0
  0
LINE
  5
21
100
AcDbEntity
  8
0
  6
BYBLOCK
 62
     0
100
AcDbLine
 10
0.0
 20
0.0
 30
0.0
 11
-1.0
 21
-0.267949
 31
0.0
  0
LINE
  5
22
100
AcDbEntity
  8
0
  6
BYBLOCK
 62
     0
100
AcDbLine
 10
0.0
 20
0.0
 30
0.0
 11
-1.0
 21
0.0
 31
0.0
  0
ENDBLK
  5
23
100
AcDbEntity
  8
0
100
AcDbBlockEnd
  0
BLOCK
  5
25
100
AcDbEntity
  8
0
100
AcDbBlockBegin
  2
_BOXFILLED
 70
     0
 10
0.0
 20
0.0
 30
0.0
  3
_BOXFILLED
  1

  0
SOLID
  5
26
100
AcDbEntity
  8
0
  6
BYBLOCK
 62
     0
100
AcDbTrace
 10
-0.5
 20
0.5
 30
0.0
 11
0.5
 21
0.5
 31
0.0
 12
-0.5
 22
-0.5
 32
0.0
 13
0.5
 23
-0.5
 33
0.0
  0
LINE
  5
27
100
AcDbEntity
  8
0
  6
BYBLOCK
 62
     0
100
AcDbLine
 10
-0.5
 20
0.0
 30
0.0
 11
-1.0
 21
0.0
 31
0.0
  0
ENDBLK
  5
28
100
AcDbEntity
  8
0
100
AcDbBlockEnd
  0
BLOCK
  5
2A
100
AcDbEntity
  8
0
100
AcDbBlockBegin
  2
_BOXBLANK
 70
     0
 10
0.0
 20
0.0
 30
0.0
  3
_BOXBLANK
  1

  0
LINE
  5
2B
100
AcDbEntity
  8
0
  6
BYBLOCK
 62
     0
100
AcDbLine
 10
-0.5
 20
-0.5
 30
0.0
 11
0.5
 21
-0.5
 31
0.0
  0
LINE
  5
2C
100
AcDbEntity
  8
0
  6
BYBLOCK
 62
     0
100
AcDbLine
 10
0.5
 20
-0.5
 30
0.0
 11
0.5
 21
0.5
 31
0.0
  0
LINE
  5
2D
100
AcDbEntity
  8
0
  6
BYBLOCK
 62
     0
100
AcDbLine
 10
0.5
 20
0.5
 30
0.0
 11
-0.5
 21
0.5
 31
0.0
  0
LINE
  5
2E
100
AcDbEntity
  8
0
  6
BYBLOCK
 62
     0
100
AcDbLine
 10
-0.5
 20
0.5
 30
0.0
 11
-0.5
 21
-0.5
 31
0.0
  0
LINE
  5
2F
100
AcDbEntity
  8
0
  6
BYBLOCK
 62
     0
100
AcDbLine
 10
-0.5
 20
0.0
 30
0.0
 11
-1.0
 21
0.0
 31
0.0
  0
ENDBLK
  5
30
100
AcDbEntity
  8
0
100
AcDbBlockEnd
  0
BLOCK
  5
32
100
AcDbEntity
  8
0
100
AcDbBlockBegin
  2
_OBLIQUE
 70
     0
 10
0.0
 20
0.0
 30
0.0
  3
_OBLIQUE
  1

  0
LINE
  5
33
100
AcDbEntity
  8
0
  6
BYBLOCK
 62
     0
100
AcDbLine
 10
-0.5
 20
-0.5
 30
0.0
 11
0.5
 21
0.5
 31
0.0
  0
ENDBLK
  5
34
100
AcDbEntity
  8
0
100
AcDbBlockEnd
  0
BLOCK
  5
36
100
AcDbEntity
  8
0
100
AcDbBlockBegin
  2
_OPEN90
 70
     0
 10
0.0
 20
0.0
 30
0.0
  3
_OPEN90
  1

  0
LINE
  5
37
100
AcDbEntity
  8
0
  6
BYBLOCK
 62
     0
100
AcDbLine
 10
-0.5
 20
0.5
 30
0.0
 11
0.0
 21
0.0
 31
0.0
  0
LINE
  5
38
100
AcDbEntity
  8
0
  6
BYBLOCK
 62
     0
100
AcDbLine
 10
0.0
 20
0.0
 30
0.0
 11
-0.5
 21
-0.5
 31
0.0
  0
LINE
  5
39
100
AcDbEntity
  8
0
  6
BYBLOCK
 62
     0
100
AcDbLine
 10
0.0
 20
0.0
 30
0.0
 11
-1.0
 21
0.0
 31
0.0
  0
ENDBLK
  5
3A
100
AcDbEntity
  8
0
100
AcDbBlockEnd
  0
BLOCK
  5
3C
100
AcDbEntity
  8
0
100
AcDbBlockBegin
  2
_CLOSEDBLANK
 70
     0
 10
0.0
 20
0.0
 30
0.0
  3
_CLOSEDBLANK
  1

  0
LINE
  5
3D
100
AcDbEntity
  8
0
  6
BYBLOCK
 62
     0
100
AcDbLine
 10
-1.0
 20
0.1666666666666666
 30
0.0
 11
0.0
 21
0.0
 31
0.0
  0
LINE
  5
3E
100
AcDbEntity
  8
0
  6
BYBLOCK
 62
     0
100
AcDbLine
 10
0.0
 20
0.0
 30
0.0
 11
-1.0
 21
-0.1666666666666666
 31
0.0
  0
LINE
  5
3F
100
AcDbEntity
  8
0
  6
BYBLOCK
 62
     0
100
AcDbLine
 10
-1.0
 20
0.1666666666666666
 30
0.0
 11
-1.0
 21
-0.1666666666666666
 31
0.0
  0
ENDBLK
  5
40
100
AcDbEntity
  8
0
100
AcDbBlockEnd
  0
BLOCK
  5
42
100
AcDbEntity
  8
0
100
AcDbBlockBegin
  2
_DOTBLANK
 70
     0
 10
0.0
 20
0.0
 30
0.0
  3
_DOTBLANK
  1

  0
CIRCLE
  5
43
100
AcDbEntity
  8
0
  6
BYBLOCK
 62
     0
100
AcDbCircle
 10
0.0
 20
0.0
 30
0.0
 40
0.5
  0
LINE
  5
44
100
AcDbEntity
  8
0
  6
BYBLOCK
 62
     0
100
AcDbLine
 10
-0.5
 20
0.0
 30
0.0
 11
-1.0
 21
0.0
 31
0.0
  0
ENDBLK
  5
45
100
AcDbEntity
  8
0
100
AcDbBlockEnd
  0
ENDSEC
  0
SECTION
  2
ENTITIES
  0
MTEXT
  5
46
100
AcDbEntity
  8
A7
  6
CONTINUOUS
 62
3
100
AcDbMText
 10
9.999997526638502
 20
18.00000076076889
 30
0.000000000000000
 40
3.000000000000000
 41
0.000000000000000
 71
     7
 72
     1
  1
{\H0.94x;{TYPE No.TH-61SUS-1-0.8}}
 11
1.000000000000000
 21
0.000000000000000
 31
0.000000000000000
  7
STANDARD
  0
POINT
  5
47
100
AcDbEntity
  8
A7
  6
CONTINUOUS
 62
3
100
AcDbPoint
 10
9.999997526638502
 20
18.00000076076889
 30
0.000000000000000
  0
LINE
  5
48
100
AcDbEntity
  8
A1
  6
CONTINUOUS
 62
7
100
AcDbLine
 10
104.8134909336454
 20
104.9800394418317
 30
0.000000000000000
 11
122.7634799336454
 21
104.9800394418317
 31
0.000000000000000
  0
LINE
  5
49
100
AcDbEntity
  8
A1
  6
CONTINUOUS
 62
7
100
AcDbLine
 10
136.0634829336454
 20
105.7300394418317
 30
0.000000000000000
 11
136.0634829336454
 21
129.2300314418318
 31
0.000000000000000
  0
LINE
  5
4A
100
AcDbEntity
  8
A1
  6
CONTINUOUS
 62
7
100
AcDbLine
 10
104.0634909336454
 20
105.7300394418317
 30
0.000000000000000
 11
104.0634909336454
 21
129.2300314418318
 31
0.000000000000000
  0
LINE
  5
4B
100
AcDbEntity
  8
A1
  6
CONTINUOUS
 62
7
100
AcDbLine
 10
104.8134909336454
 20
129.9800314418318
 30
0.000000000000000
 11
122.7634799336454
 21
129.9800314418318
 31
0.000000000000000
  0
LINE
  5
4C
100
AcDbEntity
  8
A1
  6
CONTINUOUS
 62
7
100
AcDbLine
 10
123.5634759336454
 20
105.7300394418317
 30
0.000000000000000
 11
123.5634759336454
 21
109.8800334418317
 31
0.000000000000000
  0
LINE
  5
4D
100
AcDbEntity
  8
A1
  6
CONTINUOUS
 62
7
100
AcDbLine
 10
124.3134759336454
 20
129.9800314418318
 30
0.000000000000000
 11
135.3134829336454
 21
129.9800314418318
 31
0.000000000000000
  0
LINE
  5
4E
100
AcDbEntity
  8
A1
  6
CONTINUOUS
 62
7
100
AcDbLine
 10
124.3134759336454
 20
104.9800394418317
 30
0.000000000000000
 11
135.3134829336454
 21
104.9800394418317
 31
0.000000000000000
  0
LINE
  5
4F
100
AcDbEntity
  8
A1
  6
CONTINUOUS
 62
7
100
AcDbLine
 10
117.3634789336454
 20
120.7300314418318
 30
0.000000000000000
 11
123.5634759336454
 21
120.7300314418318
 31
0.000000000000000
  0
LINE
  5
50
100
AcDbEntity
  8
A1
  6
CONTINUOUS
 62
7
100
AcDbLine
 10
117.3634789336454
 20
114.2300314418318
 30
0.000000000000000
 11
123.5634759336454
 21
114.2300314418318
 31
0.000000000000000
  0
LINE
  5
51
100
AcDbEntity
  8
A1
  6
CONTINUOUS
 62
7
100
AcDbLine
 10
123.5634759336454
 20
125.0800224418317
 30
0.000000000000000
 11
123.5634759336454
 21
129.2300314418318
 31
0.000000000000000
  0
LINE
  5
52
100
AcDbEntity
  8
A1
  6
CONTINUOUS
 62
7
100
AcDbLine
 10
117.3634789336454
 20
104.9800394418317
 30
0.000000000000000
 11
117.3634789336454
 21
114.2300314418318
 31
0.000000000000000
  0
LINE
  5
53
100
AcDbEntity
  8
A1
  6
CONTINUOUS
 62
7
100
AcDbLine
 10
122.7634799336454
 20
104.9800394418317
 30
0.000000000000000
 11
122.7634799336454
 21
114.2300314418318
 31
0.000000000000000
  0
LINE
  5
54
100
AcDbEntity
  8
A1
  6
CONTINUOUS
 62
7
100
AcDbLine
 10
117.3634789336454
 20
120.7300314418318
 30
0.000000000000000
 11
117.3634789336454
 21
129.9800314418318
 31
0.000000000000000
  0
LINE
  5
55
100
AcDbEntity
  8
A1
  6
CONTINUOUS
 62
7
100
AcDbLine
 10
123.5634829336454
 20
51.78003944183240
 30
0.000000000000000
 11
123.5634829336454
 21
52.98003644183240
 31
0.000000000000000
  0
LINE
  5
56
100
AcDbEntity
  8
A1
  6
CONTINUOUS
 62
7
100
AcDbLine
 10
117.8184879336454
 20
52.98004744183176
 30
0.000000000000000
 11
118.8162599336454
 21
53.64671144183177
 31
0.000000000000000
  0
LINE
  5
57
100
AcDbEntity
  8
A1
  6
CONTINUOUS
 62
7
100
AcDbLine
 10
104.0634759336454
 20
52.98003944183176
 30
0.000000000000000
 11
120.0634759336454
 21
52.98003944183176
 31
0.000000000000000
  0
LINE
  5
58
100
AcDbEntity
  8
A1
  6
CONTINUOUS
 62
7
100
AcDbLine
 10
104.0634909336454
 20
52.98003944183176
 30
0.000000000000000
 11
104.0634909336454
 21
51.78004244183177
 31
0.000000000000000
  0
LINE
  5
59
100
AcDbEntity
  8
A1
  6
CONTINUOUS
 62
7
100
AcDbLine
 10
116.5634759336454
 20
109.8800334418317
 30
0.000000000000000
 11
123.5634759336454
 21
109.8800334418317
 31
0.000000000000000
  0
LINE
  5
5A
100
AcDbEntity
  8
A1
  6
CONTINUOUS
 62
7
100
AcDbLine
 10
116.5634759336454
 20
125.0800374418317
 30
0.000000000000000
 11
123.5634759336454
 21
125.0800374418317
 31
0.000000000000000
  0
LINE
  5
5B
100
AcDbEntity
  8
A1
  6
CONTINUOUS
 62
7
100
AcDbLine
 10
120.0634759336453
 20
51.78003944183240
 30
0.000000000000000
 11
136.0634829336454
 21
51.78003944183240
 31
0.000000000000000
  0
LINE
  5
5C
100
AcDbEntity
  8
A1
  6
CONTINUOUS
 62
7
100
AcDbLine
 10
122.3674813349522
 20
52.98003644183240
 30
0.000000000000000
 11
136.0634829336454
 21
52.98003644183240
 31
0.000000000000000
  0
LINE
  5
5D
100
AcDbEntity
  8
A1
  6
CONTINUOUS
 62
7
100
AcDbLine
 10
136.0634829336454
 20
51.78003944183240
 30
0.000000000000000
 11
136.0634829336454
 21
52.98003644183240
 31
0.000000000000000
  0
LINE
  5
5E
100
AcDbEntity
  8
A1
  6
CONTINUOUS
 62
7
100
AcDbLine
 10
122.7634799336454
 20
120.7300314418318
 30
0.000000000000000
 11
122.7634799336454
 21
129.9800314418318
 31
0.000000000000000
  0
LINE
  5
5F
100
AcDbEntity
  8
A4
  6
CENTER
 62
1
100
AcDbLine
 10
126.9634829336454
 20
124.4800314418318
 30
0.000000000000000
 11
133.1634829336454
 21
124.4800314418318
 31
0.000000000000000
  0
LINE
  5
60
100
AcDbEntity
  8
A4
  6
CENTER
 62
1
100
AcDbLine
 10
130.0634829336454
 20
127.5800314418318
 30
0.000000000000000
 11
130.0634829336454
 21
121.3800314418318
 31
0.000000000000000
  0
LINE
  5
61
100
AcDbEntity
  8
A4
  6
CENTER
 62
1
100
AcDbLine
 10
106.9634829336454
 20
124.4800314418318
 30
0.000000000000000
 11
113.1634829336454
 21
124.4800314418318
 31
0.000000000000000
  0
LINE
  5
62
100
AcDbEntity
  8
A4
  6
CENTER
 62
1
100
AcDbLine
 10
110.0634829336454
 20
127.5800314418318
 30
0.000000000000000
 11
110.0634829336454
 21
121.3800314418318
 31
0.000000000000000
  0
LINE
  5
63
100
AcDbEntity
  8
A4
  6
CENTER
 62
1
100
AcDbLine
 10
126.9634829336454
 20
110.4800394418317
 30
0.000000000000000
 11
133.1634829336454
 21
110.4800394418317
 31
0.000000000000000
  0
LINE
  5
64
100
AcDbEntity
  8
A4
  6
CENTER
 62
1
100
AcDbLine
 10
130.0634829336454
 20
113.5800394418318
 30
0.000000000000000
 11
130.0634829336454
 21
107.3800394418318
 31
0.000000000000000
  0
CIRCLE
  5
65
100
AcDbEntity
  8
A1
  6
CONTINUOUS
 62
7
100
AcDbCircle
 10
110.0634829336454
 20
124.4800314418318
 30
0.000000000000000
 40
1.600000000000000
  0
CIRCLE
  5
66
100
AcDbEntity
  8
A1
  6
CONTINUOUS
 62
7
100
AcDbCircle
 10
110.0634679336454
 20
110.4800394418317
 30
0.000000000000000
 40
1.600000000000000
  0
CIRCLE
  5
67
100
AcDbEntity
  8
A1
  6
CONTINUOUS
 62
7
100
AcDbCircle
 10
130.0634829336454
 20
124.4800314418318
 30
0.000000000000000
 40
1.600000000000000
  0
CIRCLE
  5
68
100
AcDbEntity
  8
A1
  6
CONTINUOUS
 62
7
100
AcDbCircle
 10
130.0634829336454
 20
110.4800394418317
 30
0.000000000000000
 40
1.600000000000000
  0
CIRCLE
  5
69
100
AcDbEntity
  8
A1
  6
CONTINUOUS
 62
7
100
AcDbCircle
 10
120.0634759336454
 20
54.48003944183176
 30
0.000000000000000
 40
1.500000000000000
  0
ARC
  5
6A
100
AcDbEntity
  8
A1
  6
CONTINUOUS
 62
7
100
AcDbCircle
 10
120.0634759336454
 20
54.48003944183176
 30
0.000000000000000
 40
2.700000000000000
100
AcDbArc
 50
269.9999990000001
 51
573.7489720000000
  0
ARC
  5
6B
100
AcDbEntity
  8
A1
  6
CONTINUOUS
 62
7
100
AcDbCircle
 10
124.3134759336454
 20
129.2300314418318
 30
0.000000000000000
 40
0.7500000000000000
100
AcDbArc
 50
90.00000000000000
 51
180.0000000000000
  0
ARC
  5
6C
100
AcDbEntity
  8
A1
  6
CONTINUOUS
 62
7
100
AcDbCircle
 10
135.3134829336454
 20
129.2300314418318
 30
0.000000000000000
 40
0.7500000000000000
100
AcDbArc
 50
0.000000000000000
 51
90.00000000000000
  0
ARC
  5
6D
100
AcDbEntity
  8
A1
  6
CONTINUOUS
 62
7
100
AcDbCircle
 10
135.3134829336454
 20
105.7300394418317
 30
0.000000000000000
 40
0.7500000000000000
100
AcDbArc
 50
270.0000000000000
 51
360.0000000000000
  0
ARC
  5
6E
100
AcDbEntity
  8
A1
  6
CONTINUOUS
 62
7
100
AcDbCircle
 10
124.3134759336454
 20
105.7300394418317
 30
0.000000000000000
 40
0.7500000000000000
100
AcDbArc
 50
180.0000000000000
 51
270.0000000000000
  0
ARC
  5
6F
100
AcDbEntity
  8
A1
  6
CONTINUOUS
 62
7
100
AcDbCircle
 10
104.8134909336454
 20
105.7300394418317
 30
0.000000000000000
 40
0.7500000000000000
100
AcDbArc
 50
180.0000000000000
 51
270.0000000000000
  0
ARC
  5
70
100
AcDbEntity
  8
A1
  6
CONTINUOUS
 62
7
100
AcDbCircle
 10
104.8134909336454
 20
129.2300314418318
 30
0.000000000000000
 40
0.7500000000000000
100
AcDbArc
 50
90.00000000000000
 51
180.0000000000000
  0
LINE
  5
71
100
AcDbEntity
  8
A1
  6
CONTINUOUS
 62
7
100
AcDbLine
 10
120.0634759336453
 20
51.78003944183178
 30
0.000000000000000
 11
104.0634909336640
 21
51.78003944185322
 31
0.000000000000000
  0
LINE
  5
72
100
AcDbEntity
  8
A4
  6
CENTER
 62
1
100
AcDbLine
 10
120.0634869336709
 20
103.4800394418317
 30
0.000000000000000
 11
120.0634869336709
 21
131.4800314418318
 31
0.000000000000000
  0
LINE
  5
73
100
AcDbEntity
  8
A4
  6
CENTER
 62
1
100
AcDbLine
 10
113.1634679336454
 20
110.4800394418317
 30
0.000000000000000
 11
106.9634679336454
 21
110.4800394418317
 31
0.000000000000000
  0
LINE
  5
74
100
AcDbEntity
  8
A4
  6
CENTER
 62
1
100
AcDbLine
 10
110.0634679336454
 20
113.5800394418318
 30
0.000000000000000
 11
110.0634679336454
 21
107.3800394418318
 31
0.000000000000000
  0
LINE
  5
75
100
AcDbEntity
  8
A1
  6
CONTINUOUS
 62
7
100
AcDbLine
 10
118.5634869336709
 20
114.2300314418317
 30
0.000000000000000
 11
118.5634869336709
 21
115.0631590895452
 31
0.000000000000000
  0
LINE
  5
76
100
AcDbEntity
  8
A1
  6
CONTINUOUS
 62
7
100
AcDbLine
 10
118.5634869336709
 20
120.0639301000263
 30
0.000000000000000
 11
118.5634869336709
 21
120.7300314418317
 31
0.000000000000000
  0
LINE
  5
77
100
AcDbEntity
  8
A1
  6
CONTINUOUS
 62
7
100
AcDbLine
 10
121.5634869336709
 20
114.2300314418318
 30
0.000000000000000
 11
121.5634869336709
 21
114.8964924228785
 31
0.000000000000000
  0
LINE
  5
78
100
AcDbEntity
  8
A1
  6
CONTINUOUS
 62
7
100
AcDbLine
 10
121.5634869336709
 20
119.8972634333596
 30
0.000000000000000
 11
121.5634869336709
 21
120.7300314418317
 31
0.000000000000000
  0
LINE
  5
79
100
AcDbEntity
  8
A3
  6
DASHED
 62
2
100
AcDbLine
 10
121.5634869336709
 20
114.2300314418318
 30
0.000000000000000
 11
121.5634869336709
 21
104.9800394418435
 31
0.000000000000000
  0
LINE
  5
7A
100
AcDbEntity
  8
A3
  6
DASHED
 62
2
100
AcDbLine
 10
118.5634869336709
 20
114.2300314418317
 30
0.000000000000000
 11
118.5634869336709
 21
104.9800394418435
 31
0.000000000000000
  0
LINE
  5
7B
100
AcDbEntity
  8
A3
  6
DASHED
 62
2
100
AcDbLine
 10
118.5634869336709
 20
120.7300314418317
 30
0.000000000000000
 11
118.5634869336709
 21
129.9800314418317
 31
0.000000000000000
  0
LINE
  5
7C
100
AcDbEntity
  8
A3
  6
DASHED
 62
2
100
AcDbLine
 10
121.5634869336709
 20
120.7300314418317
 30
0.000000000000000
 11
121.5634869336709
 21
129.9800314418317
 31
0.000000000000000
  0
LINE
  5
7D
100
AcDbEntity
  8
A4
  6
CENTER
 62
1
100
AcDbLine
 10
124.2634759336454
 20
54.48003944183176
 30
0.000000000000000
 11
115.8634759336454
 21
54.48003944183176
 31
0.000000000000000
  0
ARC
  5
7E
100
AcDbEntity
  8
A1
  6
CONTINUOUS
 62
7
100
AcDbCircle
 10
120.0634759336454
 20
54.98003944183176
 30
0.000000000000000
 40
2.500000000000000
100
AcDbArc
 50
18.42119343217554
 51
161.5788065678244
  0
LINE
  5
7F
100
AcDbEntity
  8
A1
  6
CONTINUOUS
 62
7
100
AcDbLine
 10
111.9790172591102
 20
53.00734383943065
 30
0.000000000000000
 11
110.0882348495059
 21
53.65921950206169
 31
0.000000000000000
  0
LINE
  5
80
100
AcDbEntity
  8
A1
  6
CONTINUOUS
 62
7
100
AcDbLine
 10
110.0882348495059
 20
53.65921950206169
 30
0.000000000000000
 11
110.2512037651636
 21
54.13191510446279
 31
0.000000000000000
  0
LINE
  5
81
100
AcDbEntity
  8
A1
  6
CONTINUOUS
 62
7
100
AcDbLine
 10
112.1419861747680
 20
53.48003944183168
 30
0.000000000000000
 11
110.2512037651637
 21
54.13191510446272
 31
0.000000000000000
  0
LINE
  5
82
100
AcDbEntity
  8
A1
  6
CONTINUOUS
 62
7
100
AcDbLine
 10
112.1419861747681
 20
53.48003944183177
 30
0.000000000000000
 11
114.2763416579279
 21
54.68192407502506
 31
0.000000000000000
  0
ARC
  5
83
100
AcDbEntity
  8
A1
  6
CONTINUOUS
 62
7
100
AcDbCircle
 10
114.5216753313456
 20
54.24625058640396
 30
0.000000000000000
 40
0.5000000000000000
100
AcDbArc
 50
70.97759710831443
 51
119.3844537869734
  0
LINE
  5
84
100
AcDbEntity
  8
A1
  6
CONTINUOUS
 62
7
100
AcDbLine
 10
117.4607478474404
 20
53.76184273529545
 30
0.000000000000000
 11
114.6846442470033
 21
54.71894618880498
 31
0.000000000000000
  0
LINE
  5
85
100
AcDbEntity
  8
A1
  6
CONTINUOUS
 62
7
100
AcDbLine
 10
117.7168169407365
 20
53.14467747929125
 30
0.000000000000000
 11
114.5216753313456
 21
54.24625058640391
 31
0.000000000000000
  0
LINE
  5
86
100
AcDbEntity
  8
A1
  6
CONTINUOUS
 62
7
100
AcDbLine
 10
112.3873198481860
 20
53.04436595321079
 30
0.000000000000000
 11
114.5216753313457
 21
54.24625058640404
 31
0.000000000000000
  0
ARC
  5
87
100
AcDbEntity
  8
A1
  6
CONTINUOUS
 62
7
100
AcDbCircle
 10
112.1419861747680
 20
53.48003944183176
 30
0.000000000000000
 40
0.5000000000000000
100
AcDbArc
 50
250.9775971083144
 51
299.3844537869735
  0
LINE
  5
88
100
AcDbEntity
  8
A1
  6
CONTINUOUS
 62
7
100
AcDbLine
 10
128.1479346081806
 20
53.00734383943075
 30
0.000000000000000
 11
130.0387170177849
 21
53.65921950206180
 31
0.000000000000000
  0
LINE
  5
89
100
AcDbEntity
  8
A1
  6
CONTINUOUS
 62
7
100
AcDbLine
 10
130.0387170177849
 20
53.65921950206180
 30
0.000000000000000
 11
129.8757481021271
 21
54.13191510446288
 31
0.000000000000000
  0
LINE
  5
8A
100
AcDbEntity
  8
A1
  6
CONTINUOUS
 62
7
100
AcDbLine
 10
127.9849656925229
 20
53.48003944183183
 30
0.000000000000000
 11
129.8757481021271
 21
54.13191510446288
 31
0.000000000000000
  0
LINE
  5
8B
100
AcDbEntity
  8
A1
  6
CONTINUOUS
 62
7
100
AcDbLine
 10
127.9849656925227
 20
53.48003944183179
 30
0.000000000000000
 11
125.8506102093630
 21
54.68192407502504
 31
0.000000000000000
  0
ARC
  5
8C
100
AcDbEntity
  8
A1
  6
CONTINUOUS
 62
7
100
AcDbCircle
 10
125.6052765359452
 20
54.24625058640396
 30
0.000000000000000
 40
0.5000000000000000
100
AcDbArc
 50
60.61554621302713
 51
109.0224028916862
  0
LINE
  5
8D
100
AcDbEntity
  8
A1
  6
CONTINUOUS
 62
7
100
AcDbLine
 10
127.7396320191048
 20
53.04436595321071
 30
0.000000000000000
 11
125.6052765359451
 21
54.24625058640397
 31
0.000000000000000
  0
ARC
  5
8E
100
AcDbEntity
  8
A1
  6
CONTINUOUS
 62
7
100
AcDbCircle
 10
127.9849656925228
 20
53.48003944183182
 30
0.000000000000000
 40
0.5000000000000000
100
AcDbArc
 50
240.6155462130271
 51
289.0224028916862
  0
LINE
  5
8F
100
AcDbEntity
  8
A1
  6
CONTINUOUS
 62
7
100
AcDbLine
 10
122.4101349265543
 20
53.14467747929130
 30
0.000000000000000
 11
125.6052765359452
 21
54.24625058640396
 31
0.000000000000000
  0
LINE
  5
90
100
AcDbEntity
  8
A1
  6
CONTINUOUS
 62
7
100
AcDbLine
 10
122.6662040198503
 20
53.76184273529549
 30
0.000000000000000
 11
125.4423076202872
 21
54.71894618880501
 31
0.000000000000000
  0
ARC
  5
91
100
AcDbEntity
  8
A1
  6
CONTINUOUS
 62
7
100
AcDbCircle
 10
117.8134869336927
 20
119.8552112614512
 30
0.000000000000000
 40
0.2500000000000000
100
AcDbArc
 50
86.82016988013524
 51
270.0000000000000
  0
LINE
  5
92
100
AcDbEntity
  8
A1
  6
CONTINUOUS
 62
7
100
AcDbLine
 10
122.3273544385983
 20
119.8548263497525
 30
0.000000000000000
 11
117.8273544385984
 21
120.1048263497525
 31
0.000000000000000
  0
ARC
  5
93
100
AcDbEntity
  8
A1
  6
CONTINUOUS
 62
7
100
AcDbCircle
 10
122.3134869336927
 20
119.6052112614512
 30
0.000000000000000
 40
0.2500000000000000
100
AcDbArc
 50
271.3177062652471
 51
446.8201698801353
  0
LINE
  5
94
100
AcDbEntity
  8
A1
  6
CONTINUOUS
 62
7
100
AcDbLine
 10
122.3204260280229
 20
119.8552112614513
 30
0.000000000000000
 11
129.9587252739077
 21
120.2795612195560
 31
0.000000000000000
  0
ARC
  5
95
100
AcDbEntity
  8
A1
  6
CONTINUOUS
 62
7
100
AcDbCircle
 10
117.8134869336927
 20
119.3552112614512
 30
0.000000000000000
 40
0.2500000000000000
100
AcDbArc
 50
86.82016988013524
 51
270.0000000000000
  0
ARC
  5
96
100
AcDbEntity
  8
A1
  6
CONTINUOUS
 62
7
100
AcDbCircle
 10
122.3134869336927
 20
119.1052112614512
 30
0.000000000000000
 40
0.2500000000000000
100
AcDbArc
 50
271.3177062652471
 51
446.8201698801353
  0
LINE
  5
97
100
AcDbEntity
  8
A1
  6
CONTINUOUS
 62
7
100
AcDbLine
 10
122.3273544385984
 20
119.3548263497525
 30
0.000000000000000
 11
117.8273544385984
 21
119.6048263497525
 31
0.000000000000000
  0
ARC
  5
98
100
AcDbEntity
  8
A1
  6
CONTINUOUS
 62
7
100
AcDbCircle
 10
117.8134869336927
 20
118.8552112614512
 30
0.000000000000000
 40
0.2500000000000000
100
AcDbArc
 50
86.82016988013524
 51
270.0000000000000
  0
ARC
  5
99
100
AcDbEntity
  8
A1
  6
CONTINUOUS
 62
7
100
AcDbCircle
 10
122.3134869336927
 20
118.6052112614512
 30
0.000000000000000
 40
0.2500000000000000
100
AcDbArc
 50
271.3177062652471
 51
446.8201698801353
  0
LINE
  5
9A
100
AcDbEntity
  8
A1
  6
CONTINUOUS
 62
7
100
AcDbLine
 10
122.3273544385984
 20
118.8548263497525
 30
0.000000000000000
 11
117.8273544385984
 21
119.1048263497525
 31
0.000000000000000
  0
ARC
  5
9B
100
AcDbEntity
  8
A1
  6
CONTINUOUS
 62
7
100
AcDbCircle
 10
117.8134869336927
 20
118.3552112614512
 30
0.000000000000000
 40
0.2500000000000000
100
AcDbArc
 50
86.82016988013524
 51
270.0000000000000
  0
ARC
  5
9C
100
AcDbEntity
  8
A1
  6
CONTINUOUS
 62
7
100
AcDbCircle
 10
122.3134869336927
 20
118.1052112614512
 30
0.000000000000000
 40
0.2500000000000000
100
AcDbArc
 50
271.3177062652471
 51
446.8201698801353
  0
LINE
  5
9D
100
AcDbEntity
  8
A1
  6
CONTINUOUS
 62
7
100
AcDbLine
 10
122.3273544385984
 20
118.3548263497525
 30
0.000000000000000
 11
117.8273544385984
 21
118.6048263497525
 31
0.000000000000000
  0
ARC
  5
9E
100
AcDbEntity
  8
A1
  6
CONTINUOUS
 62
7
100
AcDbCircle
 10
117.8134869336927
 20
117.8552112614512
 30
0.000000000000000
 40
0.2500000000000000
100
AcDbArc
 50
86.82016988013524
 51
270.0000000000000
  0
ARC
  5
9F
100
AcDbEntity
  8
A1
  6
CONTINUOUS
 62
7
100
AcDbCircle
 10
122.3134869336927
 20
117.6052112614512
 30
0.000000000000000
 40
0.2500000000000000
100
AcDbArc
 50
271.3177062652504
 51
446.8201698801353
  0
LINE
  5
A0
100
AcDbEntity
  8
A1
  6
CONTINUOUS
 62
7
100
AcDbLine
 10
122.3273544385984
 20
117.8548263497525
 30
0.000000000000000
 11
117.8273544385984
 21
118.1048263497525
 31
0.000000000000000
  0
ARC
  5
A1
100
AcDbEntity
  8
A1
  6
CONTINUOUS
 62
7
100
AcDbCircle
 10
117.8134869336927
 20
117.3552112614512
 30
0.000000000000000
 40
0.2500000000000000
100
AcDbArc
 50
86.82016988013524
 51
270.0000000000000
  0
ARC
  5
A2
100
AcDbEntity
  8
A1
  6
CONTINUOUS
 62
7
100
AcDbCircle
 10
122.3134869336927
 20
117.1052112614512
 30
0.000000000000000
 40
0.2500000000000000
100
AcDbArc
 50
271.3177062652601
 51
446.8201698801353
  0
LINE
  5
A3
100
AcDbEntity
  8
A1
  6
CONTINUOUS
 62
7
100
AcDbLine
 10
122.3273544385984
 20
117.3548263497525
 30
0.000000000000000
 11
117.8273544385984
 21
117.6048263497525
 31
0.000000000000000
  0
ARC
  5
A4
100
AcDbEntity
  8
A1
  6
CONTINUOUS
 62
7
100
AcDbCircle
 10
117.8134869336927
 20
116.8552112614512
 30
0.000000000000000
 40
0.2500000000000000
100
AcDbArc
 50
86.82016988013524
 51
270.0000000000000
  0
ARC
  5
A5
100
AcDbEntity
  8
A1
  6
CONTINUOUS
 62
7
100
AcDbCircle
 10
122.3134869336927
 20
116.6052112614512
 30
0.000000000000000
 40
0.2500000000000000
100
AcDbArc
 50
271.3177062652732
 51
446.8201698801353
  0
LINE
  5
A6
100
AcDbEntity
  8
A1
  6
CONTINUOUS
 62
7
100
AcDbLine
 10
122.3273544385984
 20
116.8548263497525
 30
0.000000000000000
 11
117.8273544385984
 21
117.1048263497525
 31
0.000000000000000
  0
ARC
  5
A7
100
AcDbEntity
  8
A1
  6
CONTINUOUS
 62
7
100
AcDbCircle
 10
117.8134869336927
 20
116.3552112614512
 30
0.000000000000000
 40
0.2500000000000000
100
AcDbArc
 50
86.82016988013524
 51
270.0000000000000
  0
ARC
  5
A8
100
AcDbEntity
  8
A1
  6
CONTINUOUS
 62
7
100
AcDbCircle
 10
122.3134869336927
 20
116.1052112614512
 30
0.000000000000000
 40
0.2500000000000000
100
AcDbArc
 50
271.3177062652732
 51
446.8201698801353
  0
LINE
  5
A9
100
AcDbEntity
  8
A1
  6
CONTINUOUS
 62
7
100
AcDbLine
 10
122.3273544385984
 20
116.3548263497525
 30
0.000000000000000
 11
117.8273544385984
 21
116.6048263497525
 31
0.000000000000000
  0
ARC
  5
AA
100
AcDbEntity
  8
A1
  6
CONTINUOUS
 62
7
100
AcDbCircle
 10
117.8134869336927
 20
115.8552112614512
 30
0.000000000000000
 40
0.2500000000000000
100
AcDbArc
 50
86.82016988013524
 51
270.0000000000000
  0
ARC
  5
AB
100
AcDbEntity
  8
A1
  6
CONTINUOUS
 62
7
100
AcDbCircle
 10
122.3134869336927
 20
115.6052112614512
 30
0.000000000000000
 40
0.2500000000000000
100
AcDbArc
 50
271.3177062652732
 51
446.8201698801353
  0
LINE
  5
AC
100
AcDbEntity
  8
A1
  6
CONTINUOUS
 62
7
100
AcDbLine
 10
122.3273544385984
 20
115.8548263497525
 30
0.000000000000000
 11
117.8273544385984
 21
116.1048263497525
 31
0.000000000000000
  0
ARC
  5
AD
100
AcDbEntity
  8
A1
  6
CONTINUOUS
 62
7
100
AcDbCircle
 10
117.8134869336927
 20
115.3552112614512
 30
0.000000000000000
 40
0.2500000000000000
100
AcDbArc
 50
86.82016988013524
 51
266.8201698801352
  0
LINE
  5
AE
100
AcDbEntity
  8
A1
  6
CONTINUOUS
 62
7
100
AcDbLine
 10
122.2996194287872
 20
114.8555961731499
 30
0.000000000000000
 11
117.7996194287871
 21
115.1055961731499
 31
0.000000000000000
  0
LINE
  5
AF
100
AcDbEntity
  8
A1
  6
CONTINUOUS
 62
7
100
AcDbLine
 10
122.3273544385984
 20
115.3548263497525
 30
0.000000000000000
 11
117.8273544385983
 21
115.6048263497525
 31
0.000000000000000
  0
LINE
  5
B0
100
AcDbEntity
  8
A4
  6
CENTER
 62
1
100
AcDbLine
 10
124.0634759336454
 20
54.98003944183176
 30
0.000000000000000
 11
116.0634759336454
 21
54.98003944183176
 31
0.000000000000000
  0
LINE
  5
B1
100
AcDbEntity
  8
A4
  6
CENTER
 62
1
100
AcDbLine
 10
120.0634759336454
 20
50.28003944183178
 30
0.000000000000000
 11
120.0634759336454
 21
58.98003944183176
 31
0.000000000000000
  0
ARC
  5
B2
100
AcDbEntity
  8
A1
  6
CONTINUOUS
 62
7
100
AcDbCircle
 10
122.3134869336927
 20
115.1052112614512
 30
0.000000000000000
 40
0.2499999999999500
100
AcDbArc
 50
266.8201698801347
 51
446.8201698801347
  0
LINE
  5
B3
100
AcDbEntity
  8
A1
  6
CONTINUOUS
 62
7
100
AcDbLine
 10
127.9849876925738
 20
120.1699091317040
 30
0.000000000000000
 11
127.9849876925738
 21
120.6706801421851
 31
0.000000000000000
  0
LINE
  5
B4
100
AcDbEntity
  8
A1
  6
CONTINUOUS
 62
7
100
AcDbLine
 10
125.6548014450764
 20
120.1301176192410
 30
0.000000000000000
 11
125.6548014450764
 21
120.4305802255297
 31
0.000000000000000
  0
ELLIPSE
  5
B5
100
AcDbEntity
  8
A1
  6
CONTINUOUS
 62
7
100
AcDbEllipse
 10
129.9572545600383
 20
120.5298650184704
 30
0.000000000000000
 11
0.000000000000000
 21
-0.2503855052405726
 31
0.000000000000000
210
0.000000000000000
220
0.000000000000000
230
1.000000000000000
 40
0.3254360023026233
 41
0.000000000000000
 42
6.283185307179586
  0
LINE
  5
B6
100
AcDbEntity
  8
A1
  6
CONTINUOUS
 62
7
100
AcDbLine
 10
112.1419861747697
 20
114.7901764186117
 30
0.000000000000000
 11
112.1419861747697
 21
114.2894044877663
 31
0.000000000000000
  0
LINE
  5
B7
100
AcDbEntity
  8
A1
  6
CONTINUOUS
 62
7
100
AcDbLine
 10
114.4721724222671
 20
114.8299425504089
 30
0.000000000000000
 11
114.4721724222671
 21
114.5294799441203
 31
0.000000000000000
  0
ELLIPSE
  5
B8
100
AcDbEntity
  8
A1
  6
CONTINUOUS
 62
7
100
AcDbEllipse
 10
110.1697193073053
 20
114.4301951511795
 30
0.000000000000000
 11
0.000000000000000
 21
0.2503855052405726
 31
0.000000000000000
210
0.000000000000000
220
0.000000000000000
230
1.000000000000000
 40
0.3254360023026233
 41
0.000000000000000
 42
6.283185307179586
  0
LINE
  5
B9
100
AcDbEntity
  8
A1
  6
CONTINUOUS
 62
7
100
AcDbLine
 10
117.8078889296534
 20
115.1051367564352
 30
0.000000000000000
 11
110.1703181153321
 21
114.6805738954232
 31
0.000000000000000
  0
LINE
  5
BA
100
AcDbEntity
  8
A1
  6
CONTINUOUS
 62
7
100
AcDbLine
 10
118.5634869336708
 20
114.6463675589405
 30
0.000000000000000
 11
110.1711931667679
 21
114.1798506075757
 31
0.000000000000000
  0
LINE
  5
BB
100
AcDbEntity
  8
A1
  6
CONTINUOUS
 62
7
100
AcDbLine
 10
122.3273626939105
 20
114.8555966319153
 30
0.000000000000000
 11
121.5634869336709
 21
114.8131337486100
 31
0.000000000000000
  0
LINE
  5
BC
100
AcDbEntity
  8
A1
  6
CONTINUOUS
 62
7
100
AcDbLine
 10
118.5634869336709
 20
120.1472634333574
 30
0.000000000000000
 11
117.7996194287871
 21
120.1048263497527
 31
0.000000000000000
  0
LINE
  5
BD
100
AcDbEntity
  8
A1
  6
CONTINUOUS
 62
7
100
AcDbLine
 10
129.9557838461690
 20
120.7801688173849
 30
0.000000000000000
 11
121.5634869336709
 21
120.3139301000239
 31
0.000000000000000
  0
LINE
  5
BE
100
AcDbEntity
  8
A1
  6
CONTINUOUS
 62
7
100
AcDbLine
 10
123.5634759336454
 20
114.2300314418318
 30
0.000000000000000
 11
123.5634759336454
 21
119.9242695895414
 31
0.000000000000000
  0
LINE
  5
BF
100
AcDbEntity
  8
A1
  6
CONTINUOUS
 62
7
100
AcDbLine
 10
123.5634759336454
 20
120.4250406000225
 30
0.000000000000000
 11
123.5634759336454
 21
120.7300314418318
 31
0.000000000000000
  0
LINE
  5
C0
100
AcDbEntity
  8
A1
  6
CONTINUOUS
 62
7
100
AcDbLine
 10
116.5634759336454
 20
109.8800334418317
 30
0.000000000000000
 11
116.5634759336454
 21
114.5351894876833
 31
0.000000000000000
  0
LINE
  5
C1
100
AcDbEntity
  8
A1
  6
CONTINUOUS
 62
7
100
AcDbLine
 10
116.5634759336454
 20
115.0359614185287
 30
0.000000000000000
 11
116.5634759336454
 21
125.0800374418317
 31
0.000000000000000
  0
LINE
  5
C2
100
AcDbEntity
  8
A4
  6
CENTER
 62
1
100
AcDbLine
 10
110.0634679336454
 20
54.48003644183240
 30
0.000000000000000
 11
110.0634679336454
 21
50.28003944183240
 31
0.000000000000000
  0
LINE
  5
C3
100
AcDbEntity
  8
A4
  6
CENTER
 62
1
100
AcDbLine
 10
130.0634829336454
 20
54.48003644183240
 30
0.000000000000000
 11
130.0634829336454
 21
50.28003944183234
 31
0.000000000000000
  0
LINE
  5
C4
100
AcDbEntity
  8
A5
  6
PHANTOM
 62
6
100
AcDbLine
 10
125.5757876326038
 20
39.38486075015904
 30
0.000000000000000
 11
121.5143452073058
 21
54.86079966920330
 31
0.000000000000000
  0
LINE
  5
C5
100
AcDbEntity
  8
A5
  6
PHANTOM
 62
6
100
AcDbLine
 10
125.5757838250016
 20
39.38487525885179
 30
0.000000000000000
 11
126.7364763421913
 21
39.68948267922870
 31
0.000000000000000
  0
LINE
  5
C6
100
AcDbEntity
  8
A5
  6
PHANTOM
 62
6
100
AcDbLine
 10
122.6750406262340
 20
55.16540785110054
 30
0.000000000000000
 11
126.7364792439043
 21
39.68948344076168
 31
0.000000000000000
  0
ARC
  5
C7
100
AcDbEntity
  8
A2
  6
CONTINUOUS
 62
4
100
AcDbCircle
 10
110.0634829336454
 20
119.2133438992903
 30
0.000000000000000
 40
0.7445182738427609
100
AcDbArc
 50
35.53767779200064
 51
76.53743939173283
  0
ARC
  5
C8
100
AcDbEntity
  8
A2
  6
CONTINUOUS
 62
4
100
AcDbCircle
 10
107.6368454932057
 20
117.4800314418317
 30
0.000000000000000
 40
3.726621783536066
100
AcDbArc
 50
324.4623222079989
 51
395.5376777920006
  0
ARC
  5
C9
100
AcDbEntity
  8
A2
  6
CONTINUOUS
 62
4
100
AcDbCircle
 10
110.0634829336454
 20
115.7467189843730
 30
0.000000000000000
 40
0.7445182738427615
100
AcDbArc
 50
242.2496545546279
 51
324.4623222079989
  0
ARC
  5
CA
100
AcDbEntity
  8
A2
  6
CONTINUOUS
 62
4
100
AcDbCircle
 10
110.0634829336454
 20
119.2133438992903
 30
0.000000000000000
 40
0.7445182738427609
100
AcDbArc
 50
89.99999999999974
 51
144.4623222080519
  0
ARC
  5
CB
100
AcDbEntity
  8
A2
  6
CONTINUOUS
 62
4
100
AcDbCircle
 10
112.4901203740899
 20
117.4800314418317
 30
0.000000000000000
 40
3.726621783536066
100
AcDbArc
 50
144.4623222080519
 51
215.5376777919477
  0
ARC
  5
CC
100
AcDbEntity
  8
A2
  6
CONTINUOUS
 62
4
100
AcDbCircle
 10
110.0634829336454
 20
115.7467189843730
 30
0.000000000000000
 40
0.7445182738427615
100
AcDbArc
 50
215.5376777919477
 51
225.6988392796169
  0
LINE
  5
CD
100
AcDbEntity
  8
A2
  6
CONTINUOUS
 62
4
100
AcDbLine
 10
110.8558120149610
 20
119.3577866040785
 30
0.000000000000000
 11
109.6105254498861
 21
119.3577866040786
 31
0.000000000000000
  0
LINE
  5
CE
100
AcDbEntity
  8
A2
  6
CONTINUOUS
 62
4
100
AcDbLine
 10
109.5304897054505
 20
119.0689011945021
 30
0.000000000000000
 11
110.5964761618451
 21
119.0689011945021
 31
0.000000000000000
  0
ARC
  5
CF
100
AcDbEntity
  8
A2
  6
CONTINUOUS
 62
4
100
AcDbCircle
 10
110.5964761618451
 20
118.9244584897139
 30
0.000000000000000
 40
0.1444427047882196
100
AcDbArc
 50
26.01436599963642
 51
89.99999999999974
  0
ARC
  5
D0
100
AcDbEntity
  8
A2
  6
CONTINUOUS
 62
4
100
AcDbCircle
 10
107.6368454932057
 20
117.4800314418317
 30
0.000000000000000
 40
3.437736373959627
100
AcDbArc
 50
22.94395355653756
 51
26.01436599963642
  0
ARC
  5
D1
100
AcDbEntity
  8
A2
  6
CONTINUOUS
 62
4
100
AcDbCircle
 10
110.7760078666096
 20
118.8089043258833
 30
0.000000000000000
 40
0.02888854095764391
100
AcDbArc
 50
269.9999999999998
 51
382.9439535565373
  0
LINE
  5
D2
100
AcDbEntity
  8
A2
  6
CONTINUOUS
 62
4
100
AcDbLine
 10
110.7760078666096
 20
118.7800157849257
 30
0.000000000000000
 11
109.3509580006859
 21
118.7800157849257
 31
0.000000000000000
  0
ARC
  5
D3
100
AcDbEntity
  8
A2
  6
CONTINUOUS
 62
4
100
AcDbCircle
 10
109.3509580006859
 20
118.8089043258833
 30
0.000000000000000
 40
0.02888854095764391
100
AcDbArc
 50
157.0560464434622
 51
269.9999999999997
  0
ARC
  5
D4
100
AcDbEntity
  8
A2
  6
CONTINUOUS
 62
4
100
AcDbCircle
 10
112.4901203740899
 20
117.4800314418317
 30
0.000000000000000
 40
3.437736373959627
100
AcDbArc
 50
153.9856340003631
 51
157.0560464434619
  0
ARC
  5
D5
100
AcDbEntity
  8
A2
  6
CONTINUOUS
 62
4
100
AcDbCircle
 10
109.5304897054505
 20
118.9244584897139
 30
0.000000000000000
 40
0.1444427047882196
100
AcDbArc
 50
89.99999999999974
 51
153.9856340003631
  0
LINE
  5
D6
100
AcDbEntity
  8
A2
  6
CONTINUOUS
 62
4
100
AcDbLine
 10
110.4101454251371
 20
118.2022449657728
 30
0.000000000000000
 11
110.9619153024980
 21
118.2022449657728
 31
0.000000000000000
  0
ARC
  5
D7
100
AcDbEntity
  8
A2
  6
CONTINUOUS
 62
4
100
AcDbCircle
 10
110.9619153024980
 20
118.2311335067304
 30
0.000000000000000
 40
0.02888854095764391
100
AcDbArc
 50
269.9999999999998
 51
372.7289438731224
  0
ARC
  5
D8
100
AcDbEntity
  8
A2
  6
CONTINUOUS
 62
4
100
AcDbCircle
 10
107.6368454932057
 20
117.4800314418317
 30
0.000000000000000
 40
3.437736373959627
100
AcDbArc
 50
12.72894387312240
 51
13.26811897055596
  0
ARC
  5
D9
100
AcDbEntity
  8
A2
  6
CONTINUOUS
 62
4
100
AcDbCircle
 10
107.6368454932057
 20
117.4800314418317
 30
0.000000000000000
 40
3.437736373959627
100
AcDbArc
 50
13.26811897055601
 51
15.25752329045616
  0
ARC
  5
DA
100
AcDbEntity
  8
A2
  6
CONTINUOUS
 62
4
100
AcDbCircle
 10
110.8140597089313
 20
118.3466876705610
 30
0.000000000000000
 40
0.1444427047882196
100
AcDbArc
 50
15.25752329045616
 51
89.99999999999974
  0
LINE
  5
DB
100
AcDbEntity
  8
A2
  6
CONTINUOUS
 62
4
100
AcDbLine
 10
110.8140597089313
 20
118.4911303753492
 30
0.000000000000000
 11
109.3129061583642
 21
118.4911303753492
 31
0.000000000000000
  0
ARC
  5
DC
100
AcDbEntity
  8
A2
  6
CONTINUOUS
 62
4
100
AcDbCircle
 10
109.3129061583642
 20
118.3466876705610
 30
0.000000000000000
 40
0.1444427047882196
100
AcDbArc
 50
89.99999999999974
 51
164.7424767095433
  0
ARC
  5
DD
100
AcDbEntity
  8
A2
  6
CONTINUOUS
 62
4
100
AcDbCircle
 10
112.4901203740899
 20
117.4800314418317
 30
0.000000000000000
 40
3.437736373959627
100
AcDbArc
 50
164.7424767095433
 51
164.7937121239418
  0
ARC
  5
DE
100
AcDbEntity
  8
A2
  6
CONTINUOUS
 62
4
100
AcDbCircle
 10
112.4901203740899
 20
117.4800314418317
 30
0.000000000000000
 40
3.437736373959627
100
AcDbArc
 50
164.7937121239418
 51
167.2710561268772
  0
ARC
  5
DF
100
AcDbEntity
  8
A2
  6
CONTINUOUS
 62
4
100
AcDbCircle
 10
109.1650505647976
 20
118.2311335067304
 30
0.000000000000000
 40
0.02888854095764391
100
AcDbArc
 50
167.2710561268772
 51
269.9999999999997
  0
LINE
  5
E0
100
AcDbEntity
  8
A2
  6
CONTINUOUS
 62
4
100
AcDbLine
 10
109.1650505647976
 20
118.2022449657728
 30
0.000000000000000
 11
109.7168204421537
 21
118.2022449657728
 31
0.000000000000000
  0
LINE
  5
E1
100
AcDbEntity
  8
A2
  6
CONTINUOUS
 62
4
100
AcDbLine
 10
111.0471619187220
 20
117.9133595561964
 30
0.000000000000000
 11
109.0798039485736
 21
117.9133595561964
 31
0.000000000000000
  0
LINE
  5
E2
100
AcDbEntity
  8
A2
  6
CONTINUOUS
 62
4
100
AcDbLine
 10
111.0715460160867
 20
117.6244741466199
 30
0.000000000000000
 11
109.0554198512090
 21
117.6244741466199
 31
0.000000000000000
  0
LINE
  5
E3
100
AcDbEntity
  8
A2
  6
CONTINUOUS
 62
4
100
AcDbLine
 10
110.0634829336455
 20
117.6244741466199
 30
0.000000000000000
 11
110.0634829336455
 21
117.9133595561964
 31
0.000000000000000
  0
LINE
  5
E4
100
AcDbEntity
  8
A2
  6
CONTINUOUS
 62
4
100
AcDbLine
 10
111.0715460160867
 20
117.3355887370435
 30
0.000000000000000
 11
109.0554198512090
 21
117.3355887370435
 31
0.000000000000000
  0
LINE
  5
E5
100
AcDbEntity
  8
A2
  6
CONTINUOUS
 62
4
100
AcDbLine
 10
110.4101454251371
 20
116.7578179178906
 30
0.000000000000000
 11
110.8790614132117
 21
116.7578179178906
 31
0.000000000000000
  0
ARC
  5
E6
100
AcDbEntity
  8
A2
  6
CONTINUOUS
 62
4
100
AcDbCircle
 10
110.8790614132117
 20
116.9022606226788
 30
0.000000000000000
 40
0.1444427047882196
100
AcDbArc
 50
269.9999999999998
 51
349.8958172838747
  0
ARC
  5
E7
100
AcDbEntity
  8
A2
  6
CONTINUOUS
 62
4
100
AcDbCircle
 10
107.6368454932057
 20
117.4800314418317
 30
0.000000000000000
 40
3.437736373959627
100
AcDbArc
 50
349.8958172838747
 51
352.2070756645774
  0
ARC
  5
E8
100
AcDbEntity
  8
A2
  6
CONTINUOUS
 62
4
100
AcDbCircle
 10
111.0142112288205
 20
117.0178147865094
 30
0.000000000000000
 40
0.02888854095764391
100
AcDbArc
 50
352.2070756645770
 51
449.9999999999998
  0
LINE
  5
E9
100
AcDbEntity
  8
A2
  6
CONTINUOUS
 62
4
100
AcDbLine
 10
111.0142112288205
 20
117.0467033274670
 30
0.000000000000000
 11
109.1127546384751
 21
117.0467033274670
 31
0.000000000000000
  0
ARC
  5
EA
100
AcDbEntity
  8
A2
  6
CONTINUOUS
 62
4
100
AcDbCircle
 10
109.1127546384751
 20
117.0178147865094
 30
0.000000000000000
 40
0.02888854095764391
100
AcDbArc
 50
89.99999999999974
 51
187.7929243354226
  0
ARC
  5
EB
100
AcDbEntity
  8
A2
  6
CONTINUOUS
 62
4
100
AcDbCircle
 10
112.4901203740899
 20
117.4800314418317
 30
0.000000000000000
 40
3.437736373959627
100
AcDbArc
 50
187.7929243354221
 51
190.1041827161248
  0
ARC
  5
EC
100
AcDbEntity
  8
A2
  6
CONTINUOUS
 62
4
100
AcDbCircle
 10
109.2479044540840
 20
116.9022606226788
 30
0.000000000000000
 40
0.1444427047882196
100
AcDbArc
 50
190.1041827161248
 51
269.9999999999997
  0
LINE
  5
ED
100
AcDbEntity
  8
A2
  6
CONTINUOUS
 62
4
100
AcDbLine
 10
109.2479044540840
 20
116.7578179178906
 30
0.000000000000000
 11
110.0634829336454
 21
116.7578179178906
 31
0.000000000000000
  0
LINE
  5
EE
100
AcDbEntity
  8
A2
  6
CONTINUOUS
 62
4
100
AcDbLine
 10
110.0634829336454
 20
116.7578179178906
 30
0.000000000000000
 11
110.0634829336454
 21
116.9022606226788
 31
0.000000000000000
  0
LINE
  5
EF
100
AcDbEntity
  8
A2
  6
CONTINUOUS
 62
4
100
AcDbLine
 10
111.0130990947465
 20
116.4689325083141
 30
0.000000000000000
 11
109.2044377473767
 21
116.4689325083141
 31
0.000000000000000
  0
LINE
  5
F0
100
AcDbEntity
  8
A2
  6
CONTINUOUS
 62
4
100
AcDbLine
 10
110.8770015553671
 20
116.1800470987377
 30
0.000000000000000
 11
110.2079256384337
 21
116.1800470987377
 31
0.000000000000000
  0
ARC
  5
F1
100
AcDbEntity
  8
A2
  6
CONTINUOUS
 62
4
100
AcDbCircle
 10
110.2079256384337
 20
116.0356043939495
 30
0.000000000000000
 40
0.1444427047882203
100
AcDbArc
 50
89.99999999999974
 51
269.9999999999997
  0
LINE
  5
F2
100
AcDbEntity
  8
A2
  6
CONTINUOUS
 62
4
100
AcDbLine
 10
110.2079256384337
 20
115.8911616891613
 30
0.000000000000000
 11
110.8250726161844
 21
115.8911616891612
 31
0.000000000000000
  0
LINE
  5
F3
100
AcDbEntity
  8
A2
  6
CONTINUOUS
 62
4
100
AcDbLine
 10
110.0634829336454
 20
116.0356043939495
 30
0.000000000000000
 11
109.3705592062024
 21
116.0356043939495
 31
0.000000000000000
  0
LINE
  5
F4
100
AcDbEntity
  8
A2
  6
CONTINUOUS
 62
4
100
AcDbLine
 10
109.5228870327195
 20
115.7440712825238
 30
0.000000000000000
 11
110.7408135860282
 21
115.4177288461232
 31
0.000000000000000
  0
LINE
  5
F5
100
AcDbEntity
  8
A2
  6
CONTINUOUS
 62
4
100
AcDbLine
 10
110.0634829336454
 20
115.0022007105303
 30
0.000000000000000
 11
110.0634829336454
 21
115.5992190474386
 31
0.000000000000000
  0
LINE
  5
F6
100
AcDbEntity
  8
A1
  6
CONTINUOUS
 62
7
100
AcDbLine
 10
123.5634829336454
 20
208.1800234418312
 30
0.000000000000000
 11
123.5634829336454
 21
206.9800264418312
 31
0.000000000000000
  0
LINE
  5
F7
100
AcDbEntity
  8
A1
  6
CONTINUOUS
 62
7
100
AcDbLine
 10
117.8184879336454
 20
206.9800154418318
 30
0.000000000000000
 11
118.8162599336454
 21
206.3133514418318
 31
0.000000000000000
  0
LINE
  5
F8
100
AcDbEntity
  8
A1
  6
CONTINUOUS
 62
7
100
AcDbLine
 10
104.0634759336454
 20
206.9800234418318
 30
0.000000000000000
 11
120.0634759336454
 21
206.9800234418318
 31
0.000000000000000
  0
LINE
  5
F9
100
AcDbEntity
  8
A1
  6
CONTINUOUS
 62
7
100
AcDbLine
 10
104.0634909336454
 20
206.9800234418318
 30
0.000000000000000
 11
104.0634909336454
 21
208.1800204418318
 31
0.000000000000000
  0
LINE
  5
FA
100
AcDbEntity
  8
A1
  6
CONTINUOUS
 62
7
100
AcDbLine
 10
120.0634759336453
 20
208.1800234418312
 30
0.000000000000000
 11
136.0634829336454
 21
208.1800234418312
 31
0.000000000000000
  0
LINE
  5
FB
100
AcDbEntity
  8
A1
  6
CONTINUOUS
 62
7
100
AcDbLine
 10
122.3674813349522
 20
206.9800264418312
 30
0.000000000000000
 11
136.0634829336454
 21
206.9800264418312
 31
0.000000000000000
  0
LINE
  5
FC
100
AcDbEntity
  8
A1
  6
CONTINUOUS
 62
7
100
AcDbLine
 10
136.0634829336454
 20
208.1800234418312
 30
0.000000000000000
 11
136.0634829336454
 21
206.9800264418312
 31
0.000000000000000
  0
CIRCLE
  5
FD
100
AcDbEntity
  8
A1
  6
CONTINUOUS
 62
7
100
AcDbCircle
 10
120.0634759336454
 20
205.4800234418318
 30
0.000000000000000
 40
1.500000000000000
  0
ARC
  5
FE
100
AcDbEntity
  8
A1
  6
CONTINUOUS
 62
7
100
AcDbCircle
 10
120.0634759336454
 20
205.4800234418318
 30
0.000000000000000
 40
2.700000000000000
100
AcDbArc
 50
146.2510280000000
 51
450.0000009999999
  0
LINE
  5
FF
100
AcDbEntity
  8
A1
  6
CONTINUOUS
 62
7
100
AcDbLine
 10
120.0634759336453
 20
208.1800234418318
 30
0.000000000000000
 11
104.0634909336640
 21
208.1800234418103
 31
0.000000000000000
  0
LINE
  5
100
100
AcDbEntity
  8
A4
  6
CENTER
 62
1
100
AcDbLine
 10
124.2634759336454
 20
205.4800234418318
 30
0.000000000000000
 11
115.8634759336454
 21
205.4800234418318
 31
0.000000000000000
  0
ARC
  5
101
100
AcDbEntity
  8
A1
  6
CONTINUOUS
 62
7
100
AcDbCircle
 10
120.0634759336454
 20
204.9800234418318
 30
0.000000000000000
 40
2.500000000000000
100
AcDbArc
 50
198.4211934321756
 51
341.5788065678245
  0
LINE
  5
102
100
AcDbEntity
  8
A1
  6
CONTINUOUS
 62
7
100
AcDbLine
 10
111.9790172591102
 20
206.9527190442329
 30
0.000000000000000
 11
110.0882348495058
 21
206.3008433816018
 31
0.000000000000000
  0
LINE
  5
103
100
AcDbEntity
  8
A1
  6
CONTINUOUS
 62
7
100
AcDbLine
 10
110.0882348495058
 20
206.3008433816018
 30
0.000000000000000
 11
110.2512037651636
 21
205.8281477792007
 31
0.000000000000000
  0
LINE
  5
104
100
AcDbEntity
  8
A1
  6
CONTINUOUS
 62
7
100
AcDbLine
 10
112.1419861747680
 20
206.4800234418319
 30
0.000000000000000
 11
110.2512037651637
 21
205.8281477792009
 31
0.000000000000000
  0
LINE
  5
105
100
AcDbEntity
  8
A1
  6
CONTINUOUS
 62
7
100
AcDbLine
 10
112.1419861747681
 20
206.4800234418318
 30
0.000000000000000
 11
114.2763416579279
 21
205.2781388086385
 31
0.000000000000000
  0
ARC
  5
106
100
AcDbEntity
  8
A1
  6
CONTINUOUS
 62
7
100
AcDbCircle
 10
114.5216753313456
 20
205.7138122972596
 30
0.000000000000000
 40
0.5000000000000000
100
AcDbArc
 50
240.6155462130266
 51
289.0224028916855
  0
LINE
  5
107
100
AcDbEntity
  8
A1
  6
CONTINUOUS
 62
7
100
AcDbLine
 10
117.4607478474403
 20
206.1982201483681
 30
0.000000000000000
 11
114.6846442470033
 21
205.2411166948586
 31
0.000000000000000
  0
LINE
  5
108
100
AcDbEntity
  8
A1
  6
CONTINUOUS
 62
7
100
AcDbLine
 10
117.7168169407365
 20
206.8153854043723
 30
0.000000000000000
 11
114.5216753313456
 21
205.7138122972597
 31
0.000000000000000
  0
LINE
  5
109
100
AcDbEntity
  8
A1
  6
CONTINUOUS
 62
7
100
AcDbLine
 10
112.3873198481860
 20
206.9156969304528
 30
0.000000000000000
 11
114.5216753313457
 21
205.7138122972596
 31
0.000000000000000
  0
ARC
  5
10A
100
AcDbEntity
  8
A1
  6
CONTINUOUS
 62
7
100
AcDbCircle
 10
112.1419861747680
 20
206.4800234418318
 30
0.000000000000000
 40
0.5000000000000000
100
AcDbArc
 50
60.61554621302653
 51
109.0224028916856
  0
LINE
  5
10B
100
AcDbEntity
  8
A1
  6
CONTINUOUS
 62
7
100
AcDbLine
 10
128.1479346081807
 20
206.9527190442327
 30
0.000000000000000
 11
130.0387170177849
 21
206.3008433816017
 31
0.000000000000000
  0
LINE
  5
10C
100
AcDbEntity
  8
A1
  6
CONTINUOUS
 62
7
100
AcDbLine
 10
130.0387170177849
 20
206.3008433816017
 30
0.000000000000000
 11
129.8757481021271
 21
205.8281477792006
 31
0.000000000000000
  0
LINE
  5
10D
100
AcDbEntity
  8
A1
  6
CONTINUOUS
 62
7
100
AcDbLine
 10
127.9849656925229
 20
206.4800234418316
 30
0.000000000000000
 11
129.8757481021271
 21
205.8281477792006
 31
0.000000000000000
  0
LINE
  5
10E
100
AcDbEntity
  8
A1
  6
CONTINUOUS
 62
7
100
AcDbLine
 10
127.9849656925228
 20
206.4800234418317
 30
0.000000000000000
 11
125.8506102093630
 21
205.2781388086384
 31
0.000000000000000
  0
ARC
  5
10F
100
AcDbEntity
  8
A1
  6
CONTINUOUS
 62
7
100
AcDbCircle
 10
125.6052765359452
 20
205.7138122972596
 30
0.000000000000000
 40
0.5000000000000000
100
AcDbArc
 50
250.9775971083138
 51
299.3844537869729
  0
LINE
  5
110
100
AcDbEntity
  8
A1
  6
CONTINUOUS
 62
7
100
AcDbLine
 10
127.7396320191048
 20
206.9156969304528
 30
0.000000000000000
 11
125.6052765359451
 21
205.7138122972595
 31
0.000000000000000
  0
ARC
  5
111
100
AcDbEntity
  8
A1
  6
CONTINUOUS
 62
7
100
AcDbCircle
 10
127.9849656925228
 20
206.4800234418317
 30
0.000000000000000
 40
0.5000000000000000
100
AcDbArc
 50
70.97759710831382
 51
119.3844537869729
  0
LINE
  5
112
100
AcDbEntity
  8
A1
  6
CONTINUOUS
 62
7
100
AcDbLine
 10
122.4101349265543
 20
206.8153854043723
 30
0.000000000000000
 11
125.6052765359452
 21
205.7138122972596
 31
0.000000000000000
  0
LINE
  5
113
100
AcDbEntity
  8
A1
  6
CONTINUOUS
 62
7
100
AcDbLine
 10
122.6662040198503
 20
206.1982201483680
 30
0.000000000000000
 11
125.4423076202872
 21
205.2411166948585
 31
0.000000000000000
  0
LINE
  5
114
100
AcDbEntity
  8
A4
  6
CENTER
 62
1
100
AcDbLine
 10
124.0634759336454
 20
204.9800234418318
 30
0.000000000000000
 11
116.0634759336454
 21
204.9800234418318
 31
0.000000000000000
  0
LINE
  5
115
100
AcDbEntity
  8
A4
  6
CENTER
 62
1
100
AcDbLine
 10
120.0634759336454
 20
209.6800234418318
 30
0.000000000000000
 11
120.0634759336454
 21
200.9800234418318
 31
0.000000000000000
  0
LINE
  5
116
100
AcDbEntity
  8
A4
  6
CENTER
 62
1
100
AcDbLine
 10
110.0634679336454
 20
205.4800264418312
 30
0.000000000000000
 11
110.0634679336454
 21
209.6800234418312
 31
0.000000000000000
  0
LINE
  5
117
100
AcDbEntity
  8
A4
  6
CENTER
 62
1
100
AcDbLine
 10
130.0634829336454
 20
205.4800264418312
 30
0.000000000000000
 11
130.0634829336454
 21
209.6800234418312
 31
0.000000000000000
  0
LINE
  5
118
100
AcDbEntity
  8
A5
  6
PHANTOM
 62
6
100
AcDbLine
 10
125.5757876326038
 20
220.5752021335045
 30
0.000000000000000
 11
121.5143452073058
 21
205.0992632144603
 31
0.000000000000000
  0
LINE
  5
119
100
AcDbEntity
  8
A5
  6
PHANTOM
 62
6
100
AcDbLine
 10
125.5757838250016
 20
220.5751876248117
 30
0.000000000000000
 11
126.7364763421913
 21
220.2705802044349
 31
0.000000000000000
  0
LINE
  5
11A
100
AcDbEntity
  8
A5
  6
PHANTOM
 62
6
100
AcDbLine
 10
122.6750406262340
 20
204.7946550325630
 30
0.000000000000000
 11
126.7364792439043
 21
220.2705794429019
 31
0.000000000000000
  0
LINE
  5
11B
100
AcDbEntity
  8
A1
  6
CONTINUOUS
 62
7
100
AcDbLine
 10
211.0340489336454
 20
129.9800314418318
 30
0.000000000000000
 11
211.0340489336454
 21
104.9800394418316
 31
0.000000000000000
  0
LINE
  5
11C
100
AcDbEntity
  8
A1
  6
CONTINUOUS
 62
7
100
AcDbLine
 10
209.8340519336455
 20
129.9800314418318
 30
0.000000000000000
 11
209.8340519336455
 21
104.9800394418316
 31
0.000000000000000
  0
LINE
  5
11D
100
AcDbEntity
  8
A1
  6
CONTINUOUS
 62
7
100
AcDbLine
 10
211.0340489336454
 20
129.9800314418318
 30
0.000000000000000
 11
205.6340549336455
 21
129.9800314418318
 31
0.000000000000000
  0
LINE
  5
11E
100
AcDbEntity
  8
A1
  6
CONTINUOUS
 62
7
100
AcDbLine
 10
211.0340489336454
 20
104.9800394418316
 30
0.000000000000000
 11
205.6340549336455
 21
104.9800394418316
 31
0.000000000000000
  0
LINE
  5
11F
100
AcDbEntity
  8
A4
  6
CENTER
 62
1
100
AcDbLine
 10
208.3340519336454
 20
133.4266714418316
 30
0.000000000000000
 11
208.3340519336454
 21
100.9314174418317
 31
0.000000000000000
  0
LINE
  5
120
100
AcDbEntity
  8
A4
  6
CENTER
 62
1
100
AcDbLine
 10
212.8931639336454
 20
124.4800314418318
 30
0.000000000000000
 11
207.9984649336454
 21
124.4800314418318
 31
0.000000000000000
  0
LINE
  5
121
100
AcDbEntity
  8
A4
  6
CENTER
 62
1
100
AcDbLine
 10
212.8931639336454
 20
110.4800314418317
 30
0.000000000000000
 11
207.9126039336454
 21
110.4800314418317
 31
0.000000000000000
  0
LINE
  5
122
100
AcDbEntity
  8
A1
  6
CONTINUOUS
 62
7
100
AcDbLine
 10
209.8340519336455
 20
125.0800374418316
 30
0.000000000000000
 11
205.6340549336455
 21
125.0800374418316
 31
0.000000000000000
  0
LINE
  5
123
100
AcDbEntity
  8
A1
  6
CONTINUOUS
 62
7
100
AcDbLine
 10
209.8340519336455
 20
114.2300314418317
 30
0.000000000000000
 11
205.6340549336455
 21
114.2300314418317
 31
0.000000000000000
  0
LINE
  5
124
100
AcDbEntity
  8
A1
  6
CONTINUOUS
 62
7
100
AcDbLine
 10
209.8340519336455
 20
109.8800334418317
 30
0.000000000000000
 11
205.6340549336455
 21
109.8800334418317
 31
0.000000000000000
  0
LINE
  5
125
100
AcDbEntity
  8
A1
  6
CONTINUOUS
 62
7
100
AcDbLine
 10
206.8340519336454
 20
120.7300314418317
 30
0.000000000000000
 11
206.8340519336454
 21
119.9333792666928
 31
0.000000000000000
  0
LINE
  5
126
100
AcDbEntity
  8
A1
  6
CONTINUOUS
 62
7
100
AcDbLine
 10
206.8340519336454
 20
114.9326082562119
 30
0.000000000000000
 11
206.8340519336454
 21
114.2300314418317
 31
0.000000000000000
  0
LINE
  5
127
100
AcDbEntity
  8
A1
  6
CONTINUOUS
 62
7
100
AcDbLine
 10
205.6340549336455
 20
129.9800314418318
 30
0.000000000000000
 11
205.6340549336455
 21
120.7300314418317
 31
0.000000000000000
  0
LINE
  5
128
100
AcDbEntity
  8
A1
  6
CONTINUOUS
 62
7
100
AcDbLine
 10
205.6340549336455
 20
114.2300314418317
 30
0.000000000000000
 11
205.6340549336455
 21
104.9800394418316
 31
0.000000000000000
  0
ARC
  5
129
100
AcDbEntity
  8
A1
  6
CONTINUOUS
 62
7
100
AcDbCircle
 10
205.9980044385510
 20
119.7294408445132
 30
0.000000000000000
 40
0.2500000000000000
100
AcDbArc
 50
86.82016988013524
 51
270.0000000000000
  0
LINE
  5
12A
100
AcDbEntity
  8
A1
  6
CONTINUOUS
 62
7
100
AcDbLine
 10
209.8340519336455
 20
119.7667126000262
 30
0.000000000000000
 11
206.0118719434566
 21
119.9790559328144
 31
0.000000000000000
  0
LINE
  5
12B
100
AcDbEntity
  8
A1
  6
CONTINUOUS
 62
7
100
AcDbLine
 10
209.8340519336455
 20
119.2667126000262
 30
0.000000000000000
 11
206.0118719434566
 21
119.4790559328145
 31
0.000000000000000
  0
LINE
  5
12C
100
AcDbEntity
  8
A1
  6
CONTINUOUS
 62
7
100
AcDbLine
 10
209.8340519336454
 20
118.7667126000262
 30
0.000000000000000
 11
206.0118719434566
 21
118.9790559328145
 31
0.000000000000000
  0
ARC
  5
12D
100
AcDbEntity
  8
A1
  6
CONTINUOUS
 62
7
100
AcDbCircle
 10
205.9980044385510
 20
119.2294408445132
 30
0.000000000000000
 40
0.2500000000000000
100
AcDbArc
 50
86.82016988013524
 51
270.0000000000000
  0
ARC
  5
12E
100
AcDbEntity
  8
A1
  6
CONTINUOUS
 62
7
100
AcDbCircle
 10
205.9980044385510
 20
118.7294408445132
 30
0.000000000000000
 40
0.2500000000000000
100
AcDbArc
 50
86.82016988013524
 51
270.0000000000000
  0
LINE
  5
12F
100
AcDbEntity
  8
A1
  6
CONTINUOUS
 62
7
100
AcDbLine
 10
209.8340519336454
 20
118.2667126000262
 30
0.000000000000000
 11
206.0118719434567
 21
118.4790559328145
 31
0.000000000000000
  0
LINE
  5
130
100
AcDbEntity
  8
A1
  6
CONTINUOUS
 62
7
100
AcDbLine
 10
209.8340519336454
 20
117.7667126000262
 30
0.000000000000000
 11
206.0118719434566
 21
117.9790559328145
 31
0.000000000000000
  0
ARC
  5
131
100
AcDbEntity
  8
A1
  6
CONTINUOUS
 62
7
100
AcDbCircle
 10
205.9980044385510
 20
118.2294408445132
 30
0.000000000000000
 40
0.2500000000000000
100
AcDbArc
 50
86.82016988013524
 51
270.0000000000000
  0
ARC
  5
132
100
AcDbEntity
  8
A1
  6
CONTINUOUS
 62
7
100
AcDbCircle
 10
205.9980044385510
 20
117.7294408445132
 30
0.000000000000000
 40
0.2500000000000000
100
AcDbArc
 50
86.82016988013524
 51
270.0000000000000
  0
LINE
  5
133
100
AcDbEntity
  8
A1
  6
CONTINUOUS
 62
7
100
AcDbLine
 10
209.8340519336455
 20
117.2667126000262
 30
0.000000000000000
 11
206.0118719434566
 21
117.4790559328145
 31
0.000000000000000
  0
ARC
  5
134
100
AcDbEntity
  8
A1
  6
CONTINUOUS
 62
7
100
AcDbCircle
 10
205.9980044385510
 20
117.2294408445132
 30
0.000000000000000
 40
0.2500000000000000
100
AcDbArc
 50
86.82016988013524
 51
270.0000000000000
  0
LINE
  5
135
100
AcDbEntity
  8
A1
  6
CONTINUOUS
 62
7
100
AcDbLine
 10
209.8340519336454
 20
116.7667126000262
 30
0.000000000000000
 11
206.0118719434567
 21
116.9790559328145
 31
0.000000000000000
  0
ARC
  5
136
100
AcDbEntity
  8
A1
  6
CONTINUOUS
 62
7
100
AcDbCircle
 10
205.9980044385510
 20
116.7294408445132
 30
0.000000000000000
 40
0.2500000000000000
100
AcDbArc
 50
86.82016988013524
 51
270.0000000000000
  0
LINE
  5
137
100
AcDbEntity
  8
A1
  6
CONTINUOUS
 62
7
100
AcDbLine
 10
209.8340519336455
 20
116.2667126000262
 30
0.000000000000000
 11
206.0118719434567
 21
116.4790559328145
 31
0.000000000000000
  0
ARC
  5
138
100
AcDbEntity
  8
A1
  6
CONTINUOUS
 62
7
100
AcDbCircle
 10
205.9980044385510
 20
116.2294408445132
 30
0.000000000000000
 40
0.2500000000000000
100
AcDbArc
 50
86.82016988013524
 51
270.0000000000000
  0
LINE
  5
139
100
AcDbEntity
  8
A1
  6
CONTINUOUS
 62
7
100
AcDbLine
 10
209.8340519336455
 20
115.7667126000262
 30
0.000000000000000
 11
206.0118719434567
 21
115.9790559328145
 31
0.000000000000000
  0
ARC
  5
13A
100
AcDbEntity
  8
A1
  6
CONTINUOUS
 62
7
100
AcDbCircle
 10
205.9980044385510
 20
115.7294408445132
 30
0.000000000000000
 40
0.2500000000000000
100
AcDbArc
 50
86.82016988013524
 51
270.0000000000000
  0
LINE
  5
13B
100
AcDbEntity
  8
A1
  6
CONTINUOUS
 62
7
100
AcDbLine
 10
209.8340519336454
 20
115.2667126000263
 30
0.000000000000000
 11
206.0118719434566
 21
115.4790559328145
 31
0.000000000000000
  0
ARC
  5
13C
100
AcDbEntity
  8
A1
  6
CONTINUOUS
 62
7
100
AcDbCircle
 10
205.9980044385510
 20
115.2294408445132
 30
0.000000000000000
 40
0.2500000000000000
100
AcDbArc
 50
86.82016988013524
 51
266.8201698801352
  0
LINE
  5
13D
100
AcDbEntity
  8
A1
  6
CONTINUOUS
 62
7
100
AcDbLine
 10
209.8340519336455
 20
114.7659415895453
 30
0.000000000000000
 11
205.9841369336454
 21
114.9798257562119
 31
0.000000000000000
  0
POINT
  5
13E
100
AcDbEntity
  8
A10
  6
CONTINUOUS
 62
3
100
AcDbPoint
 10
125.6548014450764
 20
120.5412253506576
 30
0.000000000000000
  0
ARC
  5
13F
100
AcDbEntity
  8
A1
  6
CONTINUOUS
 62
7
100
AcDbCircle
 10
208.9324770699292
 20
120.5298650184704
 30
0.000000000000000
 40
0.2503037989144730
100
AcDbArc
 50
93.19625453578674
 51
260.4902523211808
  0
ARC
  5
140
100
AcDbEntity
  8
A1
  6
CONTINUOUS
 62
7
100
AcDbCircle
 10
208.9045650745013
 20
120.5298650184705
 30
0.000000000000000
 40
0.2503037989144588
100
AcDbArc
 50
273.1962545357283
 51
446.8037454642131
  0
ARC
  5
141
100
AcDbEntity
  8
A1
  6
CONTINUOUS
 62
7
100
AcDbCircle
 10
208.3181415879882
 20
120.2913109215446
 30
0.000000000000000
 40
0.2503037989144730
100
AcDbArc
 50
93.19625453578674
 51
275.8402879332136
  0
ARC
  5
142
100
AcDbEntity
  8
A1
  6
CONTINUOUS
 62
7
100
AcDbCircle
 10
209.5837481347310
 20
120.4207657130723
 30
0.000000000000000
 40
0.2503037989144588
100
AcDbArc
 50
260.4902523211808
 51
440.8743559996328
  0
LINE
  5
143
100
AcDbEntity
  8
A1
  6
CONTINUOUS
 62
7
100
AcDbLine
 10
208.3436114586889
 20
120.0423063484189
 30
0.000000000000000
 11
209.6092180054317
 21
120.1717611399466
 31
0.000000000000000
  0
LINE
  5
144
100
AcDbEntity
  8
A1
  6
CONTINUOUS
 62
7
100
AcDbLine
 10
208.2926717172876
 20
120.5403154946704
 30
0.000000000000000
 11
208.6873876105691
 21
120.5806897040239
 31
0.000000000000000
  0
LINE
  5
145
100
AcDbEntity
  8
A1
  6
CONTINUOUS
 62
7
100
AcDbLine
 10
209.6234463148379
 20
120.6679013969530
 30
0.000000000000000
 11
208.9442632546082
 21
120.7770007023512
 31
0.000000000000000
  0
LINE
  5
146
100
AcDbEntity
  8
A1
  6
CONTINUOUS
 62
7
100
AcDbLine
 10
208.8911230278345
 20
120.2830010175439
 30
0.000000000000000
 11
209.5423940926362
 21
120.1739017121457
 31
0.000000000000000
  0
LINE
  5
147
100
AcDbEntity
  8
A1
  6
CONTINUOUS
 62
7
100
AcDbLine
 10
208.7821926904689
 20
120.7300314418317
 30
0.000000000000000
 11
205.6340549336455
 21
120.7300314418317
 31
0.000000000000000
  0
LINE
  5
148
100
AcDbEntity
  8
A1
  6
CONTINUOUS
 62
7
100
AcDbLine
 10
209.8340519336455
 20
120.7300314418317
 30
0.000000000000000
 11
209.2366640721930
 21
120.7300314418317
 31
0.000000000000000
  0
LINE
  5
149
100
AcDbEntity
  8
A1
  6
CONTINUOUS
 62
7
100
AcDbLine
 10
209.8340519336454
 20
119.7667126000262
 30
0.000000000000000
 11
206.0118719434566
 21
119.9790559328145
 31
0.000000000000000
  0
LINE
  5
14A
100
AcDbEntity
  8
A1
  6
CONTINUOUS
 62
7
100
AcDbLine
 10
209.8340519336455
 20
119.8217975374581
 30
0.000000000000000
 11
208.2826919221209
 21
120.0435301455734
 31
0.000000000000000
  0
LINE
  5
14B
100
AcDbEntity
  8
A1
  6
CONTINUOUS
 62
7
100
AcDbLine
 10
209.8340519336455
 20
120.3270757272723
 30
0.000000000000000
 11
209.8168362623986
 21
120.3295411742056
 31
0.000000000000000
  0
LINE
  5
14C
100
AcDbEntity
  8
A1
  6
CONTINUOUS
 62
7
100
AcDbLine
 10
29.09292493369648
 20
104.9800394418317
 30
0.000000000000000
 11
29.09292493369648
 21
129.9800314418320
 31
0.000000000000000
  0
LINE
  5
14D
100
AcDbEntity
  8
A1
  6
CONTINUOUS
 62
7
100
AcDbLine
 10
30.29292193369639
 20
104.9800394418317
 30
0.000000000000000
 11
30.29292193369639
 21
129.9800314418320
 31
0.000000000000000
  0
LINE
  5
14E
100
AcDbEntity
  8
A1
  6
CONTINUOUS
 62
7
100
AcDbLine
 10
29.09292493369648
 20
104.9800394418317
 30
0.000000000000000
 11
34.49291893369639
 21
104.9800394418317
 31
0.000000000000000
  0
LINE
  5
14F
100
AcDbEntity
  8
A1
  6
CONTINUOUS
 62
7
100
AcDbLine
 10
29.09292493369648
 20
129.9800314418320
 30
0.000000000000000
 11
34.49291893369639
 21
129.9800314418320
 31
0.000000000000000
  0
LINE
  5
150
100
AcDbEntity
  8
A4
  6
CENTER
 62
1
100
AcDbLine
 10
31.79292193369648
 20
101.5333994418319
 30
0.000000000000000
 11
31.79292193369648
 21
134.0286534418318
 31
0.000000000000000
  0
LINE
  5
151
100
AcDbEntity
  8
A4
  6
CENTER
 62
1
100
AcDbLine
 10
27.23380993369648
 20
110.4800394418317
 30
0.000000000000000
 11
32.12850893369648
 21
110.4800394418317
 31
0.000000000000000
  0
LINE
  5
152
100
AcDbEntity
  8
A4
  6
CENTER
 62
1
100
AcDbLine
 10
27.23380993369648
 20
124.4800394418317
 30
0.000000000000000
 11
32.21436993369647
 21
124.4800394418317
 31
0.000000000000000
  0
LINE
  5
153
100
AcDbEntity
  8
A1
  6
CONTINUOUS
 62
7
100
AcDbLine
 10
30.29292193369639
 20
109.8800334418318
 30
0.000000000000000
 11
34.49291893369639
 21
109.8800334418318
 31
0.000000000000000
  0
LINE
  5
154
100
AcDbEntity
  8
A1
  6
CONTINUOUS
 62
7
100
AcDbLine
 10
30.29292193369639
 20
120.7300394418317
 30
0.000000000000000
 11
34.49291893369639
 21
120.7300394418317
 31
0.000000000000000
  0
LINE
  5
155
100
AcDbEntity
  8
A1
  6
CONTINUOUS
 62
7
100
AcDbLine
 10
30.29292193369639
 20
125.0800374418317
 30
0.000000000000000
 11
34.49291893369639
 21
125.0800374418317
 31
0.000000000000000
  0
LINE
  5
156
100
AcDbEntity
  8
A1
  6
CONTINUOUS
 62
7
100
AcDbLine
 10
33.29292193369648
 20
114.2300394418317
 30
0.000000000000000
 11
33.29292193369648
 21
115.0266916169707
 31
0.000000000000000
  0
LINE
  5
157
100
AcDbEntity
  8
A1
  6
CONTINUOUS
 62
7
100
AcDbLine
 10
33.29292193369648
 20
120.0274626274516
 30
0.000000000000000
 11
33.29292193369648
 21
120.7300394418317
 31
0.000000000000000
  0
LINE
  5
158
100
AcDbEntity
  8
A1
  6
CONTINUOUS
 62
7
100
AcDbLine
 10
34.49291893369639
 20
104.9800394418317
 30
0.000000000000000
 11
34.49291893369639
 21
114.2300394418317
 31
0.000000000000000
  0
LINE
  5
159
100
AcDbEntity
  8
A1
  6
CONTINUOUS
 62
7
100
AcDbLine
 10
34.49291893369639
 20
120.7300394418317
 30
0.000000000000000
 11
34.49291893369639
 21
129.9800314418320
 31
0.000000000000000
  0
ARC
  5
15A
100
AcDbEntity
  8
A1
  6
CONTINUOUS
 62
7
100
AcDbCircle
 10
34.12896942879084
 20
115.2306300391503
 30
0.000000000000000
 40
0.2500000000000000
100
AcDbArc
 50
266.8201698801352
 51
450.0000000000000
  0
LINE
  5
15B
100
AcDbEntity
  8
A1
  6
CONTINUOUS
 62
7
100
AcDbLine
 10
30.29292193369638
 20
115.1933582836373
 30
0.000000000000000
 11
34.11510192388521
 21
114.9810149508491
 31
0.000000000000000
  0
LINE
  5
15C
100
AcDbEntity
  8
A1
  6
CONTINUOUS
 62
7
100
AcDbLine
 10
30.29292193369638
 20
115.6933582836373
 30
0.000000000000000
 11
34.11510192388518
 21
115.4810149508490
 31
0.000000000000000
  0
LINE
  5
15D
100
AcDbEntity
  8
A1
  6
CONTINUOUS
 62
7
100
AcDbLine
 10
30.29292193369637
 20
116.1933582836373
 30
0.000000000000000
 11
34.11510192388521
 21
115.9810149508490
 31
0.000000000000000
  0
ARC
  5
15E
100
AcDbEntity
  8
A1
  6
CONTINUOUS
 62
7
100
AcDbCircle
 10
34.12896942879084
 20
115.7306300391503
 30
0.000000000000000
 40
0.2500000000000000
100
AcDbArc
 50
266.8201698801352
 51
450.0000000000000
  0
ARC
  5
15F
100
AcDbEntity
  8
A1
  6
CONTINUOUS
 62
7
100
AcDbCircle
 10
34.12896942879084
 20
116.2306300391503
 30
0.000000000000000
 40
0.2500000000000000
100
AcDbArc
 50
266.8201698801352
 51
450.0000000000000
  0
LINE
  5
160
100
AcDbEntity
  8
A1
  6
CONTINUOUS
 62
7
100
AcDbLine
 10
30.29292193369641
 20
116.6933582836373
 30
0.000000000000000
 11
34.11510192388516
 21
116.4810149508490
 31
0.000000000000000
  0
LINE
  5
161
100
AcDbEntity
  8
A1
  6
CONTINUOUS
 62
7
100
AcDbLine
 10
30.29292193369639
 20
117.1933582836373
 30
0.000000000000000
 11
34.11510192388520
 21
116.9810149508490
 31
0.000000000000000
  0
ARC
  5
162
100
AcDbEntity
  8
A1
  6
CONTINUOUS
 62
7
100
AcDbCircle
 10
34.12896942879084
 20
116.7306300391503
 30
0.000000000000000
 40
0.2500000000000000
100
AcDbArc
 50
266.8201698801352
 51
450.0000000000000
  0
ARC
  5
163
100
AcDbEntity
  8
A1
  6
CONTINUOUS
 62
7
100
AcDbCircle
 10
34.12896942879084
 20
117.2306300391503
 30
0.000000000000000
 40
0.2500000000000000
100
AcDbArc
 50
266.8201698801352
 51
450.0000000000000
  0
LINE
  5
164
100
AcDbEntity
  8
A1
  6
CONTINUOUS
 62
7
100
AcDbLine
 10
30.29292193369637
 20
117.6933582836373
 30
0.000000000000000
 11
34.11510192388518
 21
117.4810149508490
 31
0.000000000000000
  0
ARC
  5
165
100
AcDbEntity
  8
A1
  6
CONTINUOUS
 62
7
100
AcDbCircle
 10
34.12896942879084
 20
117.7306300391503
 30
0.000000000000000
 40
0.2500000000000000
100
AcDbArc
 50
266.8201698801352
 51
450.0000000000000
  0
LINE
  5
166
100
AcDbEntity
  8
A1
  6
CONTINUOUS
 62
7
100
AcDbLine
 10
30.29292193369638
 20
118.1933582836373
 30
0.000000000000000
 11
34.11510192388516
 21
117.9810149508490
 31
0.000000000000000
  0
ARC
  5
167
100
AcDbEntity
  8
A1
  6
CONTINUOUS
 62
7
100
AcDbCircle
 10
34.12896942879084
 20
118.2306300391503
 30
0.000000000000000
 40
0.2500000000000000
100
AcDbArc
 50
266.8201698801352
 51
450.0000000000000
  0
LINE
  5
168
100
AcDbEntity
  8
A1
  6
CONTINUOUS
 62
7
100
AcDbLine
 10
30.29292193369636
 20
118.6933582836373
 30
0.000000000000000
 11
34.11510192388516
 21
118.4810149508490
 31
0.000000000000000
  0
ARC
  5
169
100
AcDbEntity
  8
A1
  6
CONTINUOUS
 62
7
100
AcDbCircle
 10
34.12896942879084
 20
118.7306300391503
 30
0.000000000000000
 40
0.2500000000000000
100
AcDbArc
 50
266.8201698801352
 51
450.0000000000000
  0
LINE
  5
16A
100
AcDbEntity
  8
A1
  6
CONTINUOUS
 62
7
100
AcDbLine
 10
30.29292193369637
 20
119.1933582836373
 30
0.000000000000000
 11
34.11510192388518
 21
118.9810149508490
 31
0.000000000000000
  0
ARC
  5
16B
100
AcDbEntity
  8
A1
  6
CONTINUOUS
 62
7
100
AcDbCircle
 10
34.12896942879084
 20
119.2306300391503
 30
0.000000000000000
 40
0.2500000000000000
100
AcDbArc
 50
266.8201698801352
 51
450.0000000000000
  0
LINE
  5
16C
100
AcDbEntity
  8
A1
  6
CONTINUOUS
 62
7
100
AcDbLine
 10
30.29292193369637
 20
119.6933582836372
 30
0.000000000000000
 11
34.11510192388523
 21
119.4810149508489
 31
0.000000000000000
  0
ARC
  5
16D
100
AcDbEntity
  8
A1
  6
CONTINUOUS
 62
7
100
AcDbCircle
 10
34.12896942879084
 20
119.7306300391503
 30
0.000000000000000
 40
0.2500000000000000
100
AcDbArc
 50
266.8201698801352
 51
446.8201698801353
  0
LINE
  5
16E
100
AcDbEntity
  8
A1
  6
CONTINUOUS
 62
7
100
AcDbLine
 10
30.29292193369639
 20
120.1941292941183
 30
0.000000000000000
 11
34.14283693369645
 21
119.9802451274516
 31
0.000000000000000
  0
ARC
  5
16F
100
AcDbEntity
  8
A1
  6
CONTINUOUS
 62
7
100
AcDbCircle
 10
31.19449679741265
 20
114.4302058651930
 30
0.000000000000000
 40
0.2503037989144730
100
AcDbArc
 50
273.1962545357867
 51
440.4902523211807
  0
ARC
  5
170
100
AcDbEntity
  8
A1
  6
CONTINUOUS
 62
7
100
AcDbCircle
 10
31.22240879284053
 20
114.4302058651930
 30
0.000000000000000
 40
0.2503037989144588
100
AcDbArc
 50
93.19625453572826
 51
266.8037454642131
  0
ARC
  5
171
100
AcDbEntity
  8
A1
  6
CONTINUOUS
 62
7
100
AcDbCircle
 10
31.80883227935362
 20
114.6687599621188
 30
0.000000000000000
 40
0.2503037989144730
100
AcDbArc
 50
273.1962545357867
 51
455.8402879332135
  0
ARC
  5
172
100
AcDbEntity
  8
A1
  6
CONTINUOUS
 62
7
100
AcDbCircle
 10
30.54322573261086
 20
114.5393051705912
 30
0.000000000000000
 40
0.2503037989144588
100
AcDbArc
 50
80.49025232118076
 51
260.8743559996328
  0
LINE
  5
173
100
AcDbEntity
  8
A1
  6
CONTINUOUS
 62
7
100
AcDbLine
 10
31.78336240865300
 20
114.9177645352446
 30
0.000000000000000
 11
30.51775586191025
 21
114.7883097437169
 31
0.000000000000000
  0
LINE
  5
174
100
AcDbEntity
  8
A1
  6
CONTINUOUS
 62
7
100
AcDbLine
 10
31.83430215005423
 20
114.4197553889931
 30
0.000000000000000
 11
31.43958625677272
 21
114.3793811796396
 31
0.000000000000000
  0
LINE
  5
175
100
AcDbEntity
  8
A1
  6
CONTINUOUS
 62
7
100
AcDbLine
 10
30.50352755250403
 20
114.2921694867105
 30
0.000000000000000
 11
31.18271061273366
 21
114.1830701813123
 31
0.000000000000000
  0
LINE
  5
176
100
AcDbEntity
  8
A1
  6
CONTINUOUS
 62
7
100
AcDbLine
 10
31.23585083950738
 20
114.6770698661196
 30
0.000000000000000
 11
30.58457977470562
 21
114.7861691715177
 31
0.000000000000000
  0
LINE
  5
177
100
AcDbEntity
  8
A1
  6
CONTINUOUS
 62
7
100
AcDbLine
 10
31.34478117687294
 20
114.2300394418317
 30
0.000000000000000
 11
34.49291893369639
 21
114.2300394418317
 31
0.000000000000000
  0
LINE
  5
178
100
AcDbEntity
  8
A1
  6
CONTINUOUS
 62
7
100
AcDbLine
 10
30.29292193369639
 20
114.2300394418317
 30
0.000000000000000
 11
30.89030979514888
 21
114.2300394418317
 31
0.000000000000000
  0
LINE
  5
179
100
AcDbEntity
  8
A1
  6
CONTINUOUS
 62
7
100
AcDbLine
 10
30.29292193369638
 20
115.1933582836373
 30
0.000000000000000
 11
34.11510192388519
 21
114.9810149508490
 31
0.000000000000000
  0
LINE
  5
17A
100
AcDbEntity
  8
A1
  6
CONTINUOUS
 62
7
100
AcDbLine
 10
30.29292193369641
 20
115.1382733462055
 30
0.000000000000000
 11
31.84428194522101
 21
114.9165407380902
 31
0.000000000000000
  0
LINE
  5
17B
100
AcDbEntity
  8
A1
  6
CONTINUOUS
 62
7
100
AcDbLine
 10
30.29292193369640
 20
114.6329951563912
 30
0.000000000000000
 11
30.31013760494330
 21
114.6305297094579
 31
0.000000000000000
  0
LINE
  5
17C
100
AcDbEntity
  8
A1
  6
CONTINUOUS
 62
7
100
AcDbLine
 10
306.4546189336457
 20
104.9800394418317
 30
0.000000000000000
 11
288.5046299336457
 21
104.9800394418317
 31
0.000000000000000
  0
LINE
  5
17D
100
AcDbEntity
  8
A1
  6
CONTINUOUS
 62
7
100
AcDbLine
 10
275.2046269336458
 20
105.7300394418317
 30
0.000000000000000
 11
275.2046269336458
 21
129.2300314418318
 31
0.000000000000000
  0
LINE
  5
17E
100
AcDbEntity
  8
A1
  6
CONTINUOUS
 62
7
100
AcDbLine
 10
307.2046189336457
 20
105.7300394418317
 30
0.000000000000000
 11
307.2046189336457
 21
129.2300314418318
 31
0.000000000000000
  0
LINE
  5
17F
100
AcDbEntity
  8
A1
  6
CONTINUOUS
 62
7
100
AcDbLine
 10
306.4546189336457
 20
129.9800314418318
 30
0.000000000000000
 11
288.5046299336457
 21
129.9800314418318
 31
0.000000000000000
  0
LINE
  5
180
100
AcDbEntity
  8
A1
  6
CONTINUOUS
 62
7
100
AcDbLine
 10
287.7046339336458
 20
105.7300394418317
 30
0.000000000000000
 11
287.7046339336458
 21
109.8800334418317
 31
0.000000000000000
  0
LINE
  5
181
100
AcDbEntity
  8
A1
  6
CONTINUOUS
 62
7
100
AcDbLine
 10
286.9546339336458
 20
129.9800314418318
 30
0.000000000000000
 11
275.9546269336458
 21
129.9800314418318
 31
0.000000000000000
  0
LINE
  5
182
100
AcDbEntity
  8
A1
  6
CONTINUOUS
 62
7
100
AcDbLine
 10
286.9546339336458
 20
104.9800394418317
 30
0.000000000000000
 11
275.9546269336458
 21
104.9800394418317
 31
0.000000000000000
  0
LINE
  5
183
100
AcDbEntity
  8
A1
  6
CONTINUOUS
 62
7
100
AcDbLine
 10
293.9046309336458
 20
120.7300314418318
 30
0.000000000000000
 11
287.7046339336458
 21
120.7300314418318
 31
0.000000000000000
  0
LINE
  5
184
100
AcDbEntity
  8
A1
  6
CONTINUOUS
 62
7
100
AcDbLine
 10
293.9046309336458
 20
114.2300314418318
 30
0.000000000000000
 11
287.7046339336458
 21
114.2300314418318
 31
0.000000000000000
  0
LINE
  5
185
100
AcDbEntity
  8
A1
  6
CONTINUOUS
 62
7
100
AcDbLine
 10
287.7046339336458
 20
125.0800224418317
 30
0.000000000000000
 11
287.7046339336458
 21
129.2300314418318
 31
0.000000000000000
  0
LINE
  5
186
100
AcDbEntity
  8
A1
  6
CONTINUOUS
 62
7
100
AcDbLine
 10
293.9046309336458
 20
109.8800334418317
 30
0.000000000000000
 11
293.9046309336458
 21
114.2300314418318
 31
0.000000000000000
  0
LINE
  5
187
100
AcDbEntity
  8
A1
  6
CONTINUOUS
 62
7
100
AcDbLine
 10
288.5046299336457
 20
104.9800394418317
 30
0.000000000000000
 11
288.5046299336457
 21
109.8800334418317
 31
0.000000000000000
  0
LINE
  5
188
100
AcDbEntity
  8
A1
  6
CONTINUOUS
 62
7
100
AcDbLine
 10
293.9046309336458
 20
120.7300314418318
 30
0.000000000000000
 11
293.9046309336458
 21
125.0800374418317
 31
0.000000000000000
  0
LINE
  5
189
100
AcDbEntity
  8
A1
  6
CONTINUOUS
 62
7
100
AcDbLine
 10
294.7046339336458
 20
109.8800334418317
 30
0.000000000000000
 11
287.7046339336458
 21
109.8800334418317
 31
0.000000000000000
  0
LINE
  5
18A
100
AcDbEntity
  8
A1
  6
CONTINUOUS
 62
7
100
AcDbLine
 10
294.7046339336458
 20
125.0800374418317
 30
0.000000000000000
 11
287.7046339336458
 21
125.0800374418317
 31
0.000000000000000
  0
LINE
  5
18B
100
AcDbEntity
  8
A1
  6
CONTINUOUS
 62
7
100
AcDbLine
 10
288.5046299336457
 20
125.0800374418317
 30
0.000000000000000
 11
288.5046299336457
 21
129.9800314418318
 31
0.000000000000000
  0
LINE
  5
18C
100
AcDbEntity
  8
A4
  6
CENTER
 62
1
100
AcDbLine
 10
284.3046269336457
 20
124.4800314418318
 30
0.000000000000000
 11
278.1046269336458
 21
124.4800314418318
 31
0.000000000000000
  0
LINE
  5
18D
100
AcDbEntity
  8
A4
  6
CENTER
 62
1
100
AcDbLine
 10
281.2046269336458
 20
127.5800314418318
 30
0.000000000000000
 11
281.2046269336458
 21
121.3800314418318
 31
0.000000000000000
  0
LINE
  5
18E
100
AcDbEntity
  8
A4
  6
CENTER
 62
1
100
AcDbLine
 10
304.3046269336457
 20
124.4800314418318
 30
0.000000000000000
 11
298.1046269336458
 21
124.4800314418318
 31
0.000000000000000
  0
LINE
  5
18F
100
AcDbEntity
  8
A4
  6
CENTER
 62
1
100
AcDbLine
 10
301.2046269336458
 20
127.5800314418318
 30
0.000000000000000
 11
301.2046269336458
 21
121.3800314418318
 31
0.000000000000000
  0
LINE
  5
190
100
AcDbEntity
  8
A4
  6
CENTER
 62
1
100
AcDbLine
 10
284.3046269336457
 20
110.4800394418317
 30
0.000000000000000
 11
278.1046269336458
 21
110.4800394418317
 31
0.000000000000000
  0
LINE
  5
191
100
AcDbEntity
  8
A4
  6
CENTER
 62
1
100
AcDbLine
 10
281.2046269336458
 20
113.5800394418318
 30
0.000000000000000
 11
281.2046269336458
 21
107.3800394418318
 31
0.000000000000000
  0
CIRCLE
  5
192
100
AcDbEntity
  8
A1
  6
CONTINUOUS
 62
7
100
AcDbCircle
 10
301.2046269336458
 20
124.4800314418318
 30
0.000000000000000
 40
1.600000000000000
  0
CIRCLE
  5
193
100
AcDbEntity
  8
A1
  6
CONTINUOUS
 62
7
100
AcDbCircle
 10
301.2046419336457
 20
110.4800394418317
 30
0.000000000000000
 40
1.600000000000000
  0
CIRCLE
  5
194
100
AcDbEntity
  8
A1
  6
CONTINUOUS
 62
7
100
AcDbCircle
 10
281.2046269336458
 20
124.4800314418318
 30
0.000000000000000
 40
1.600000000000000
  0
CIRCLE
  5
195
100
AcDbEntity
  8
A1
  6
CONTINUOUS
 62
7
100
AcDbCircle
 10
281.2046269336458
 20
110.4800394418317
 30
0.000000000000000
 40
1.600000000000000
  0
ARC
  5
196
100
AcDbEntity
  8
A1
  6
CONTINUOUS
 62
7
100
AcDbCircle
 10
286.9546339336458
 20
129.2300314418318
 30
0.000000000000000
 40
0.7500000000000000
100
AcDbArc
 50
0.000000000000000
 51
90.00000000000000
  0
ARC
  5
197
100
AcDbEntity
  8
A1
  6
CONTINUOUS
 62
7
100
AcDbCircle
 10
275.9546269336458
 20
129.2300314418318
 30
0.000000000000000
 40
0.7500000000000000
100
AcDbArc
 50
90.00000000000000
 51
180.0000000000000
  0
ARC
  5
198
100
AcDbEntity
  8
A1
  6
CONTINUOUS
 62
7
100
AcDbCircle
 10
275.9546269336458
 20
105.7300394418317
 30
0.000000000000000
 40
0.7500000000000000
100
AcDbArc
 50
180.0000000000000
 51
270.0000000000000
  0
ARC
  5
199
100
AcDbEntity
  8
A1
  6
CONTINUOUS
 62
7
100
AcDbCircle
 10
286.9546339336458
 20
105.7300394418317
 30
0.000000000000000
 40
0.7500000000000000
100
AcDbArc
 50
270.0000000000000
 51
360.0000000000000
  0
ARC
  5
19A
100
AcDbEntity
  8
A1
  6
CONTINUOUS
 62
7
100
AcDbCircle
 10
306.4546189336457
 20
105.7300394418317
 30
0.000000000000000
 40
0.7500000000000000
100
AcDbArc
 50
270.0000000000000
 51
360.0000000000000
  0
ARC
  5
19B
100
AcDbEntity
  8
A1
  6
CONTINUOUS
 62
7
100
AcDbCircle
 10
306.4546189336457
 20
129.2300314418318
 30
0.000000000000000
 40
0.7500000000000000
100
AcDbArc
 50
0.000000000000000
 51
90.00000000000000
  0
LINE
  5
19C
100
AcDbEntity
  8
A4
  6
CENTER
 62
1
100
AcDbLine
 10
291.2046229336203
 20
103.4800394418317
 30
0.000000000000000
 11
291.2046229336203
 21
131.4800314418318
 31
0.000000000000000
  0
LINE
  5
19D
100
AcDbEntity
  8
A4
  6
CENTER
 62
1
100
AcDbLine
 10
298.1046419336458
 20
110.4800394418317
 30
0.000000000000000
 11
304.3046419336458
 21
110.4800394418317
 31
0.000000000000000
  0
LINE
  5
19E
100
AcDbEntity
  8
A4
  6
CENTER
 62
1
100
AcDbLine
 10
301.2046419336457
 20
113.5800394418318
 30
0.000000000000000
 11
301.2046419336457
 21
107.3800394418318
 31
0.000000000000000
  0
LINE
  5
19F
100
AcDbEntity
  8
A1
  6
CONTINUOUS
 62
7
100
AcDbLine
 10
292.7046229336203
 20
114.2300314418317
 30
0.000000000000000
 11
292.7046229336203
 21
114.6463675589405
 31
0.000000000000000
  0
LINE
  5
1A0
100
AcDbEntity
  8
A1
  6
CONTINUOUS
 62
7
100
AcDbLine
 10
292.7046229336203
 20
120.1472634333574
 30
0.000000000000000
 11
292.7046229336203
 21
120.7300314418317
 31
0.000000000000000
  0
LINE
  5
1A1
100
AcDbEntity
  8
A1
  6
CONTINUOUS
 62
7
100
AcDbLine
 10
289.7046229336203
 20
114.2300314418318
 30
0.000000000000000
 11
289.7046229336203
 21
114.8131337486100
 31
0.000000000000000
  0
LINE
  5
1A2
100
AcDbEntity
  8
A1
  6
CONTINUOUS
 62
7
100
AcDbLine
 10
289.7046229336203
 20
120.3139301000240
 30
0.000000000000000
 11
289.7046229336203
 21
120.7300314418317
 31
0.000000000000000
  0
LINE
  5
1A3
100
AcDbEntity
  8
A3
  6
DASHED
 62
2
100
AcDbLine
 10
289.7046229336203
 20
114.2300314418318
 30
0.000000000000000
 11
289.7046229336203
 21
104.9800394418435
 31
0.000000000000000
  0
LINE
  5
1A4
100
AcDbEntity
  8
A3
  6
DASHED
 62
2
100
AcDbLine
 10
292.7046229336203
 20
114.2300314418317
 30
0.000000000000000
 11
292.7046229336203
 21
104.9800394418435
 31
0.000000000000000
  0
LINE
  5
1A5
100
AcDbEntity
  8
A3
  6
DASHED
 62
2
100
AcDbLine
 10
292.7046229336203
 20
120.7300314418317
 30
0.000000000000000
 11
292.7046229336203
 21
129.9800314418317
 31
0.000000000000000
  0
LINE
  5
1A6
100
AcDbEntity
  8
A3
  6
DASHED
 62
2
100
AcDbLine
 10
289.7046229336203
 20
120.7300314418317
 30
0.000000000000000
 11
289.7046229336203
 21
129.9800314418317
 31
0.000000000000000
  0
ARC
  5
1A7
100
AcDbEntity
  8
A1
  6
CONTINUOUS
 62
7
100
AcDbCircle
 10
293.4546229335984
 20
119.8552112614512
 30
0.000000000000000
 40
0.2500000000000000
100
AcDbArc
 50
270.0000000000000
 51
453.1798301198648
  0
ARC
  5
1A8
100
AcDbEntity
  8
A1
  6
CONTINUOUS
 62
7
100
AcDbCircle
 10
288.9546229335984
 20
119.6052112614512
 30
0.000000000000000
 40
0.2500000000000000
100
AcDbArc
 50
93.17983011986477
 51
268.6822937347529
  0
ARC
  5
1A9
100
AcDbEntity
  8
A1
  6
CONTINUOUS
 62
7
100
AcDbCircle
 10
293.4546229335984
 20
119.3552112614512
 30
0.000000000000000
 40
0.2500000000000000
100
AcDbArc
 50
270.0000000000000
 51
453.1798301198648
  0
ARC
  5
1AA
100
AcDbEntity
  8
A1
  6
CONTINUOUS
 62
7
100
AcDbCircle
 10
288.9546229335984
 20
119.1052112614512
 30
0.000000000000000
 40
0.2500000000000000
100
AcDbArc
 50
93.17983011986477
 51
268.6822937347529
  0
ARC
  5
1AB
100
AcDbEntity
  8
A1
  6
CONTINUOUS
 62
7
100
AcDbCircle
 10
293.4546229335984
 20
118.8552112614512
 30
0.000000000000000
 40
0.2500000000000000
100
AcDbArc
 50
270.0000000000000
 51
453.1798301198648
  0
ARC
  5
1AC
100
AcDbEntity
  8
A1
  6
CONTINUOUS
 62
7
100
AcDbCircle
 10
288.9546229335984
 20
118.6052112614512
 30
0.000000000000000
 40
0.2500000000000000
100
AcDbArc
 50
93.17983011986477
 51
268.6822937347529
  0
ARC
  5
1AD
100
AcDbEntity
  8
A1
  6
CONTINUOUS
 62
7
100
AcDbCircle
 10
293.4546229335984
 20
118.3552112614512
 30
0.000000000000000
 40
0.2500000000000000
100
AcDbArc
 50
270.0000000000000
 51
453.1798301198648
  0
ARC
  5
1AE
100
AcDbEntity
  8
A1
  6
CONTINUOUS
 62
7
100
AcDbCircle
 10
288.9546229335984
 20
118.1052112614512
 30
0.000000000000000
 40
0.2500000000000000
100
AcDbArc
 50
93.17983011986477
 51
268.6822937347529
  0
ARC
  5
1AF
100
AcDbEntity
  8
A1
  6
CONTINUOUS
 62
7
100
AcDbCircle
 10
293.4546229335984
 20
117.8552112614512
 30
0.000000000000000
 40
0.2500000000000000
100
AcDbArc
 50
270.0000000000000
 51
453.1798301198648
  0
ARC
  5
1B0
100
AcDbEntity
  8
A1
  6
CONTINUOUS
 62
7
100
AcDbCircle
 10
288.9546229335984
 20
117.6052112614512
 30
0.000000000000000
 40
0.2500000000000000
100
AcDbArc
 50
93.17983011986477
 51
268.6822937347496
  0
ARC
  5
1B1
100
AcDbEntity
  8
A1
  6
CONTINUOUS
 62
7
100
AcDbCircle
 10
293.4546229335984
 20
117.3552112614512
 30
0.000000000000000
 40
0.2500000000000000
100
AcDbArc
 50
270.0000000000000
 51
453.1798301198648
  0
ARC
  5
1B2
100
AcDbEntity
  8
A1
  6
CONTINUOUS
 62
7
100
AcDbCircle
 10
288.9546229335984
 20
117.1052112614512
 30
0.000000000000000
 40
0.2500000000000000
100
AcDbArc
 50
93.17983011986477
 51
268.6822937347399
  0
ARC
  5
1B3
100
AcDbEntity
  8
A1
  6
CONTINUOUS
 62
7
100
AcDbCircle
 10
293.4546229335984
 20
116.8552112614512
 30
0.000000000000000
 40
0.2500000000000000
100
AcDbArc
 50
270.0000000000000
 51
453.1798301198648
  0
ARC
  5
1B4
100
AcDbEntity
  8
A1
  6
CONTINUOUS
 62
7
100
AcDbCircle
 10
288.9546229335984
 20
116.6052112614512
 30
0.000000000000000
 40
0.2500000000000000
100
AcDbArc
 50
93.17983011986477
 51
268.6822937347268
  0
ARC
  5
1B5
100
AcDbEntity
  8
A1
  6
CONTINUOUS
 62
7
100
AcDbCircle
 10
293.4546229335984
 20
116.3552112614512
 30
0.000000000000000
 40
0.2500000000000000
100
AcDbArc
 50
270.0000000000000
 51
453.1798301198648
  0
ARC
  5
1B6
100
AcDbEntity
  8
A1
  6
CONTINUOUS
 62
7
100
AcDbCircle
 10
288.9546229335984
 20
116.1052112614512
 30
0.000000000000000
 40
0.2500000000000000
100
AcDbArc
 50
93.17983011986477
 51
268.6822937347268
  0
ARC
  5
1B7
100
AcDbEntity
  8
A1
  6
CONTINUOUS
 62
7
100
AcDbCircle
 10
293.4546229335984
 20
115.8552112614512
 30
0.000000000000000
 40
0.2500000000000000
100
AcDbArc
 50
270.0000000000000
 51
453.1798301198648
  0
ARC
  5
1B8
100
AcDbEntity
  8
A1
  6
CONTINUOUS
 62
7
100
AcDbCircle
 10
288.9546229335984
 20
115.6052112614512
 30
0.000000000000000
 40
0.2500000000000000
100
AcDbArc
 50
93.17983011986477
 51
268.6822937347268
  0
ARC
  5
1B9
100
AcDbEntity
  8
A1
  6
CONTINUOUS
 62
7
100
AcDbCircle
 10
293.4546229335984
 20
115.3552112614512
 30
0.000000000000000
 40
0.2500000000000000
100
AcDbArc
 50
273.1798301198647
 51
453.1798301198648
  0
ARC
  5
1BA
100
AcDbEntity
  8
A1
  6
CONTINUOUS
 62
7
100
AcDbCircle
 10
288.9546229335984
 20
115.1052112614512
 30
0.000000000000000
 40
0.2499999999999500
100
AcDbArc
 50
93.17983011986533
 51
273.1798301198654
  0
LINE
  5
1BB
100
AcDbEntity
  8
A1
  6
CONTINUOUS
 62
7
100
AcDbLine
 10
287.7046339336458
 20
114.2300314418318
 30
0.000000000000000
 11
287.7046339336458
 21
120.7300314418318
 31
0.000000000000000
  0
LINE
  5
1BC
100
AcDbEntity
  8
A1
  6
CONTINUOUS
 62
7
100
AcDbLine
 10
294.7046339336458
 20
109.8800334418317
 30
0.000000000000000
 11
294.7046339336458
 21
125.0800374418317
 31
0.000000000000000
  0
LINE
  5
1BD
100
AcDbEntity
  8
A1
  6
CONTINUOUS
 62
7
100
AcDbLine
 10
288.9408408688261
 20
115.3563633543500
 30
0.000000000000000
 11
294.7046339336457
 21
115.0359614185287
 31
0.000000000000000
  0
LINE
  5
1BE
100
AcDbEntity
  8
A1
  6
CONTINUOUS
 62
7
100
AcDbLine
 10
288.9476838392684
 20
119.8552112614513
 30
0.000000000000000
 11
287.7046339336458
 21
119.9242695895415
 31
0.000000000000000
  0
LINE
  5
1BF
100
AcDbEntity
  8
A1
  6
CONTINUOUS
 62
7
100
AcDbLine
 10
288.9407471733807
 20
114.8555966319154
 30
0.000000000000000
 11
294.7046339336458
 21
114.5351894876833
 31
0.000000000000000
  0
LINE
  5
1C0
100
AcDbEntity
  8
A1
  6
CONTINUOUS
 62
7
100
AcDbLine
 10
293.4684904385040
 20
115.6048263497526
 30
0.000000000000000
 11
288.9684904385041
 21
115.8548263497526
 31
0.000000000000000
  0
LINE
  5
1C1
100
AcDbEntity
  8
A1
  6
CONTINUOUS
 62
7
100
AcDbLine
 10
293.4407554286929
 20
116.1048263497525
 30
0.000000000000000
 11
288.9407554286929
 21
116.3548263497525
 31
0.000000000000000
  0
LINE
  5
1C2
100
AcDbEntity
  8
A1
  6
CONTINUOUS
 62
7
100
AcDbLine
 10
293.4407554286929
 20
116.6048263497524
 30
0.000000000000000
 11
288.9407554286929
 21
116.8548263497524
 31
0.000000000000000
  0
LINE
  5
1C3
100
AcDbEntity
  8
A1
  6
CONTINUOUS
 62
7
100
AcDbLine
 10
293.4407554286929
 20
117.1048263497525
 30
0.000000000000000
 11
288.9407554286929
 21
117.3548263497525
 31
0.000000000000000
  0
LINE
  5
1C4
100
AcDbEntity
  8
A1
  6
CONTINUOUS
 62
7
100
AcDbLine
 10
293.4407554286929
 20
117.6048263497524
 30
0.000000000000000
 11
288.9407554286929
 21
117.8548263497524
 31
0.000000000000000
  0
LINE
  5
1C5
100
AcDbEntity
  8
A1
  6
CONTINUOUS
 62
7
100
AcDbLine
 10
293.4407554286929
 20
118.1048263497525
 30
0.000000000000000
 11
288.9407554286930
 21
118.3548263497525
 31
0.000000000000000
  0
LINE
  5
1C6
100
AcDbEntity
  8
A1
  6
CONTINUOUS
 62
7
100
AcDbLine
 10
293.4407554286929
 20
118.6048263497524
 30
0.000000000000000
 11
288.9407554286929
 21
118.8548263497524
 31
0.000000000000000
  0
LINE
  5
1C7
100
AcDbEntity
  8
A1
  6
CONTINUOUS
 62
7
100
AcDbLine
 10
293.4407554286929
 20
119.1048263497525
 30
0.000000000000000
 11
288.9407554286929
 21
119.3548263497525
 31
0.000000000000000
  0
LINE
  5
1C8
100
AcDbEntity
  8
A1
  6
CONTINUOUS
 62
7
100
AcDbLine
 10
293.4407554286929
 20
119.6048263497524
 30
0.000000000000000
 11
288.9407554286929
 21
119.8548263497524
 31
0.000000000000000
  0
LINE
  5
1C9
100
AcDbEntity
  8
A1
  6
CONTINUOUS
 62
7
100
AcDbLine
 10
287.7046339336459
 20
120.4250406000225
 30
0.000000000000000
 11
293.4684904385042
 21
120.1048263497527
 31
0.000000000000000
  0
ENDSEC
  0
SECTION
  2
OBJECTS
  0
DICTIONARY
  5
1F8
100
AcDbDictionary
  3
ACAD_GROUP
350
1F9
  3
ACAD_MLINESTYLE
350
1FA
  0
DICTIONARY
  5
1F9
102
{ACAD_REACTORS
330
1F8
102
}
100
AcDbDictionary
  0
DICTIONARY
  5
1FA
102
{ACAD_REACTORS
330
1F8
102
}
100
AcDbDictionary
  3
STANDARD
350
1FB
  0
MLINESTYLE
  5
1FB
102
{ACAD_REACTORS
330
1FA
102
}
100
AcDbMlineStyle
  2
STANDARD
 70
     0
  3

 62
   256
 51
90.00
 52
90.00
 71
     2
 49
0.50
 62
   256
  6
BYLAYER
 49
-0.50
 62
   256
  6
BYLAYER
  0
ENDSEC
  0
EOF
