  0
SECTION
  2
HEADER
  9
$ACADVER
  1
AC1027
  9
$DWGCODEPAGE
  3
ANSI_932
  9
$LTSCALE
 40
20.0
  9
$FILLMODE
 70
     1
  9
$CLAYER
  8
0
  9
$PDMODE
 70
     0
  9
$SPLFRAME
 70
     0
  9
$SPLINETYPE
 70
     6
  9
$SPLINESEGS
 70
     8
  9
$DIMASZ
 40
2.000000
  9
$DIMEXE
 40
1.500000
  9
$DIMEXO
 40
0.800000
  9
$DIMTAD
 70
     1
  9
$DIMTIH
 70
     0
  9
$DIMTOH
 70
     0
  9
$DIMTVP
 40
0.500000
  9
$DIMTXT
 40
3.100000
  9
$EXTMIN
 10
0.000000
 20
0.000000
 30
0.000000
  9
$EXTMAX
 10
297.000000
 20
420.000000
 30
0.000000
  9
$MEASUREMENT
 70
  1
  9
$LIMMIN
 10
0.000000
 20
0.000000
  9
$LIMMAX
 10
297.000000
 20
420.000000
  9
$HANDSEED
  5
106
  9
$LWDISPLAY
290
     0
  9
$DIMBLK
  1
_OPEN
  9
$DIMDEC
 70
     2
  9
$DIMADEC
 70
     2
  9
$DIMAUNIT
 70
     0
  9
$DIMZIN
 70
     8
  9
$DIMAZIN
 70
     2
  9
$DIMTOFL
 70
     1
  0
ENDSEC
  0
SECTION
  2
CLASSES
  0
ENDSEC
  0
SECTION
  2
TABLES
  0
TABLE
  2
VPORT
  5
D4
100
AcDbSymbolTable
 70
     1
  0
VPORT
  5
D5
100
AcDbSymbolTableRecord
100
AcDbViewportTableRecord
  2
*ACTIVE
 70
     0
 12
179.250025
 22
141.250000
 40
246.500000
 41
1.373225
  0
ENDTAB
  0
TABLE
  2
LTYPE
  5
D6
100
AcDbSymbolTable
 70
     4
  0
LTYPE
  5
D7
100
AcDbSymbolTableRecord
100
AcDbLinetypeTableRecord
  2
BYBLOCK
 70
     0
  3

 72
    65
 73
     0
 40
0.0
  0
LTYPE
  5
D8
100
AcDbSymbolTableRecord
100
AcDbLinetypeTableRecord
  2
BYLAYER
 70
     0
  3

 72
    65
 73
     0
 40
0.0
  0
LTYPE
  5
D9
100
AcDbSymbolTableRecord
100
AcDbLinetypeTableRecord
  2
CONTINUOUS
 70
     0
  3
Solid line (NEC CAE2D for Win R17.0 : 2022.04.28)
 72
    65
 73
     0
 40
0.0
  0
LTYPE
  5
DA
100
AcDbSymbolTableRecord
100
AcDbLinetypeTableRecord
  2
DASHED
 70
     0
  3
__ __ __ __ __ __ __ __ __ __ __ __ __ _
 72
    65
 73
     2
 40
0.75
 49
0.5
 74
     0
 49
-0.25
 74
     0
  0
LTYPE
  5
DB
100
AcDbSymbolTableRecord
100
AcDbLinetypeTableRecord
  2
CENTER
 70
     0
  3
____ _ ____ _ ____ _ ____ _ ____ _ ____
 72
    65
 73
     4
 40
2.0
 49
1.25
 74
     0
 49
-0.25
 74
     0
 49
0.25
 74
     0
 49
-0.25
 74
     0
  0
LTYPE
  5
DC
100
AcDbSymbolTableRecord
100
AcDbLinetypeTableRecord
  2
PHANTOM
 70
     0
  3
______  __  __  ______  __  __  ______ 
 72
    65
 73
     6
 40
2.5
 49
1.25
 74
     0
 49
-0.25
 74
     0
 49
0.25
 74
     0
 49
-0.25
 74
     0
 49
0.25
 74
     0
 49
-0.25
 74
     0
  0
ENDTAB
  0
TABLE
  2
LAYER
  5
DD
100
AcDbSymbolTable
 70
    10
  0
LAYER
  5
DE
100
AcDbSymbolTableRecord
100
AcDbLayerTableRecord
  2
0
 70
     0
 62
     7
  6
CONTINUOUS
370
    -3
390

  0
LAYER
  5
DF
100
AcDbSymbolTableRecord
100
AcDbLayerTableRecord
  2
DXF0
 70
     0
 62
     7
  6
CONTINUOUS
370
    -3
390

  0
LAYER
  5
E0
100
AcDbSymbolTableRecord
100
AcDbLayerTableRecord
  2
4
 70
     0
 62
     1
  6
CONTINUOUS
370
    -3
390

  0
LAYER
  5
E1
100
AcDbSymbolTableRecord
100
AcDbLayerTableRecord
  2
5
 70
     0
 62
     6
  6
CONTINUOUS
370
    -3
390

  0
LAYER
  5
E2
100
AcDbSymbolTableRecord
100
AcDbLayerTableRecord
  2
1
 70
     0
 62
     7
  6
CONTINUOUS
370
    -3
390

  0
LAYER
  5
E3
100
AcDbSymbolTableRecord
100
AcDbLayerTableRecord
  2
2
 70
     0
 62
     4
  6
CONTINUOUS
370
    -3
390

  0
LAYER
  5
E4
100
AcDbSymbolTableRecord
100
AcDbLayerTableRecord
  2
3
 70
     0
 62
     2
  6
CONTINUOUS
370
    -3
390

  0
LAYER
  5
E5
100
AcDbSymbolTableRecord
100
AcDbLayerTableRecord
  2
6
 70
     0
 62
     5
  6
CONTINUOUS
370
    -3
390

  0
LAYER
  5
E6
100
AcDbSymbolTableRecord
100
AcDbLayerTableRecord
  2
7
 70
     0
 62
     3
  6
CONTINUOUS
370
    -3
390

  0
LAYER
  5
E7
100
AcDbSymbolTableRecord
100
AcDbLayerTableRecord
  2
DXF1023
 70
     0
 62
    16
  6
CONTINUOUS
370
    -3
390

  0
ENDTAB
  0
TABLE
  2
STYLE
  5
E8
100
AcDbSymbolTable
 70
     4
  0
STYLE
  5
E9
100
AcDbSymbolTableRecord
100
AcDbTextStyleTableRecord
  2
STANDARD
 70
    64
 40
0.0
 41
1.0
 50
0.0
 71
     0
 42
3.000000000000000
  3
TXT
  4

  0
STYLE
  5
EA
100
AcDbSymbolTableRecord
100
AcDbTextStyleTableRecord
  2
ANKTATE
 70
    68
 40
0.0
 41
1.0
 50
0.0
 71
     0
 42
3.000000000000000
  3
TXT
  4

  0
STYLE
  5
EB
100
AcDbSymbolTableRecord
100
AcDbTextStyleTableRecord
  2
KNJYOKO
 70
    64
 40
0.0
 41
1.0
 50
0.0
 71
     0
 42
3.000000000000000
  3
TXT
  4
BIGFONT
  0
STYLE
  5
EC
100
AcDbSymbolTableRecord
100
AcDbTextStyleTableRecord
  2
KNJTATE
 70
    68
 40
0.0
 41
1.0
 50
0.0
 71
     0
 42
3.000000000000000
  3
TXT
  4
BIGFONT
  0
ENDTAB
  0
TABLE
  2
VIEW
  5
ED
100
AcDbSymbolTable
 70
     0
  0
ENDTAB
  0
TABLE
  2
UCS
  5
EE
100
AcDbSymbolTable
 70
     0
  0
ENDTAB
  0
TABLE
  2
APPID
  5
EF
100
AcDbSymbolTable
 70
     1
  0
APPID
  5
F0
100
AcDbSymbolTableRecord
100
AcDbRegAppTableRecord
  2
ACAD
 70
     0
  0
ENDTAB
  0
TABLE
  2
DIMSTYLE
  5
F1
100
AcDbSymbolTable
 70
     2
100
AcDbDimStyleTable
  0
DIMSTYLE
105
F2
100
AcDbSymbolTableRecord
100
AcDbDimStyleTableRecord
  2
STANDARD
 70
     0
 41
2.000000
 44
1.500000
 42
0.800000
145
0.661290
140
3.100000
144
1.000000
146
0.645161
340
E9
  0
DIMSTYLE
105
F3
100
AcDbSymbolTableRecord
100
AcDbDimStyleTableRecord
  2
DXF001
 70
     0
 41
2.000000
 44
1.500000
 42
0.800000
145
0.661290
140
3.100000
144
1.000000
146
0.645161
 77
     1
 73
     0
 74
     0
271
     2
179
     2
275
     0
 78
     8
 79
     2
172
     1
340
E9
  0
ENDTAB
  0
TABLE
  2
BLOCK_RECORD
  5
F4
100
AcDbSymbolTable
 70
    12
  0
BLOCK_RECORD
  5
F5
100
AcDbSymbolTableRecord
100
AcDbBlockTableRecord
  2
*MODEL_SPACE
  0
BLOCK_RECORD
  5
F6
100
AcDbSymbolTableRecord
100
AcDbBlockTableRecord
  2
*PAPER_SPACE
  0
BLOCK_RECORD
  5
F7
100
AcDbSymbolTableRecord
100
AcDbBlockTableRecord
  2
*PAPER_SPACE0
  0
BLOCK_RECORD
  5
1
100
AcDbSymbolTableRecord
100
AcDbBlockTableRecord
  2
_NONE
  0
BLOCK_RECORD
  5
4
100
AcDbSymbolTableRecord
100
AcDbBlockTableRecord
  2
_CLOSED
  0
BLOCK_RECORD
  5
B
100
AcDbSymbolTableRecord
100
AcDbBlockTableRecord
  2
_DOT
  0
BLOCK_RECORD
  5
13
100
AcDbSymbolTableRecord
100
AcDbBlockTableRecord
  2
_OPEN
  0
BLOCK_RECORD
  5
19
100
AcDbSymbolTableRecord
100
AcDbBlockTableRecord
  2
_ORIGIN
  0
BLOCK_RECORD
  5
1E
100
AcDbSymbolTableRecord
100
AcDbBlockTableRecord
  2
_OPEN30
  0
BLOCK_RECORD
  5
24
100
AcDbSymbolTableRecord
100
AcDbBlockTableRecord
  2
_BOXFILLED
  0
BLOCK_RECORD
  5
29
100
AcDbSymbolTableRecord
100
AcDbBlockTableRecord
  2
_BOXBLANK
  0
BLOCK_RECORD
  5
31
100
AcDbSymbolTableRecord
100
AcDbBlockTableRecord
  2
_OBLIQUE
  0
BLOCK_RECORD
  5
35
100
AcDbSymbolTableRecord
100
AcDbBlockTableRecord
  2
_OPEN90
  0
BLOCK_RECORD
  5
3B
100
AcDbSymbolTableRecord
100
AcDbBlockTableRecord
  2
_CLOSEDBLANK
  0
BLOCK_RECORD
  5
41
100
AcDbSymbolTableRecord
100
AcDbBlockTableRecord
  2
_DOTBLANK
  0
ENDTAB
  0
ENDSEC
  0
SECTION
  2
BLOCKS
  0
BLOCK
  5
F8
100
AcDbEntity
  8
0
100
AcDbBlockBegin
  2
*MODEL_SPACE
 70
     0
 10
0.0
 20
0.0
 30
0.0
  3
*MODEL_SPACE
  1

  0
ENDBLK
  5
F9
100
AcDbEntity
  8
0
100
AcDbBlockEnd
  0
BLOCK
  5
FA
100
AcDbEntity
  8
0
100
AcDbBlockBegin
  2
*PAPER_SPACE
 70
     0
 10
0.0
 20
0.0
 30
0.0
  3
*PAPER_SPACE
  1

  0
ENDBLK
  5
FB
100
AcDbEntity
  8
0
100
AcDbBlockEnd
  0
BLOCK
  5
FC
100
AcDbEntity
  8
0
100
AcDbBlockBegin
  2
*PAPER_SPACE0
 70
     0
 10
0.0
 20
0.0
 30
0.0
  3
*PAPER_SPACE0
  1

  0
ENDBLK
  5
FD
100
AcDbEntity
  8
0
100
AcDbBlockEnd
  0
BLOCK
  5
2
330
1
100
AcDbEntity
  8
0
100
AcDbBlockBegin
  2
_NONE
 70
     0
 10
0.0
 20
0.0
 30
0.0
  3
_NONE
  1

  0
ENDBLK
  5
3
330
1
100
AcDbEntity
  8
0
100
AcDbBlockEnd
  0
BLOCK
  5
5
330
4
100
AcDbEntity
  8
0
100
AcDbBlockBegin
  2
_CLOSED
 70
     0
 10
0.0
 20
0.0
 30
0.0
  3
_CLOSED
  1

  0
LINE
  5
6
330
4
100
AcDbEntity
  8
0
  6
BYBLOCK
 62
     0
370
    -2
100
AcDbLine
 10
-1.0
 20
0.166667
 30
0.0
 11
0.0
 21
0.0
 31
0.0
  0
LINE
  5
7
330
4
100
AcDbEntity
  8
0
  6
BYBLOCK
 62
     0
370
    -2
100
AcDbLine
 10
0.0
 20
0.0
 30
0.0
 11
-1.0
 21
-0.166667
 31
0.0
  0
LINE
  5
8
330
4
100
AcDbEntity
  8
0
  6
BYBLOCK
 62
     0
370
    -2
100
AcDbLine
 10
-1.0
 20
0.166667
 30
0.0
 11
-1.0
 21
-0.166667
 31
0.0
  0
LINE
  5
9
330
4
100
AcDbEntity
  8
0
  6
BYBLOCK
 62
     0
370
    -2
100
AcDbLine
 10
0.0
 20
0.0
 30
0.0
 11
-1.0
 21
0.0
 31
0.0
  0
ENDBLK
  5
A
330
4
100
AcDbEntity
  8
0
100
AcDbBlockEnd
  0
BLOCK
  5
C
330
B
100
AcDbEntity
  8
0
100
AcDbBlockBegin
  2
_DOT
 70
     0
 10
0.0
 20
0.0
 30
0.0
  3
_DOT
  1

  0
POLYLINE
  5
D
330
B
100
AcDbEntity
  8
0
  6
BYBLOCK
 62
     0
370
    -2
100
AcDb2dPolyline
 66
     1
 10
0.0
 20
0.0
 30
0.0
 70
     1
 40
0.5
 41
0.5
  0
VERTEX
  5
E
330
B
100
AcDbEntity
  8
0
  6
BYBLOCK
 62
     0
370
    -2
100
AcDbVertex
100
AcDb2dVertex
 10
-0.25
 20
0.0
 30
0.0
 42
1.0
  0
VERTEX
  5
F
330
B
100
AcDbEntity
  8
0
  6
BYBLOCK
 62
     0
370
    -2
100
AcDbVertex
100
AcDb2dVertex
 10
0.25
 20
0.0
 30
0.0
 42
1.0
  0
SEQEND
  5
10
330
B
100
AcDbEntity
  8
0
  6
BYBLOCK
 62
     0
370
    -2
  0
LINE
  5
11
330
B
100
AcDbEntity
  8
0
  6
BYBLOCK
 62
     0
370
    -2
100
AcDbLine
 10
-0.5
 20
0.0
 30
0.0
 11
-1.0
 21
0.0
 31
0.0
  0
ENDBLK
  5
12
330
B
100
AcDbEntity
  8
0
100
AcDbBlockEnd
  0
BLOCK
  5
14
330
13
100
AcDbEntity
  8
0
100
AcDbBlockBegin
  2
_OPEN
 70
     0
 10
0.0
 20
0.0
 30
0.0
  3
_OPEN
  1

  0
LINE
  5
15
330
13
100
AcDbEntity
  8
0
  6
BYBLOCK
 62
     0
370
    -2
100
AcDbLine
 10
-1.0
 20
0.166667
 30
0.0
 11
0.0
 21
0.0
 31
0.0
  0
LINE
  5
16
330
13
100
AcDbEntity
  8
0
  6
BYBLOCK
 62
     0
370
    -2
100
AcDbLine
 10
0.0
 20
0.0
 30
0.0
 11
-1.0
 21
-0.166667
 31
0.0
  0
LINE
  5
17
330
13
100
AcDbEntity
  8
0
  6
BYBLOCK
 62
     0
370
    -2
100
AcDbLine
 10
0.0
 20
0.0
 30
0.0
 11
-1.0
 21
0.0
 31
0.0
  0
ENDBLK
  5
18
330
13
100
AcDbEntity
  8
0
100
AcDbBlockEnd
  0
BLOCK
  5
1A
330
19
100
AcDbEntity
  8
0
100
AcDbBlockBegin
  2
_ORIGIN
 70
     0
 10
0.0
 20
0.0
 30
0.0
  3
_ORIGIN
  1

  0
CIRCLE
  5
1B
330
19
100
AcDbEntity
  8
0
  6
BYBLOCK
 62
     0
370
    -2
100
AcDbCircle
 10
0.0
 20
0.0
 30
0.0
 40
0.5
  0
LINE
  5
1C
330
19
100
AcDbEntity
  8
0
  6
BYBLOCK
 62
     0
370
    -2
100
AcDbLine
 10
0.0
 20
0.0
 30
0.0
 11
-1.0
 21
0.0
 31
0.0
  0
ENDBLK
  5
1D
330
19
100
AcDbEntity
  8
0
100
AcDbBlockEnd
  0
BLOCK
  5
1F
330
1E
100
AcDbEntity
  8
0
100
AcDbBlockBegin
  2
_OPEN30
 70
     0
 10
0.0
 20
0.0
 30
0.0
  3
_OPEN30
  1

  0
LINE
  5
20
330
1E
100
AcDbEntity
  8
0
  6
BYBLOCK
 62
     0
370
    -2
100
AcDbLine
 10
-1.0
 20
0.267949
 30
0.0
 11
0.0
 21
0.0
 31
0.0
  0
LINE
  5
21
330
1E
100
AcDbEntity
  8
0
  6
BYBLOCK
 62
     0
370
    -2
100
AcDbLine
 10
0.0
 20
0.0
 30
0.0
 11
-1.0
 21
-0.267949
 31
0.0
  0
LINE
  5
22
330
1E
100
AcDbEntity
  8
0
  6
BYBLOCK
 62
     0
370
    -2
100
AcDbLine
 10
0.0
 20
0.0
 30
0.0
 11
-1.0
 21
0.0
 31
0.0
  0
ENDBLK
  5
23
330
1E
100
AcDbEntity
  8
0
100
AcDbBlockEnd
  0
BLOCK
  5
25
330
24
100
AcDbEntity
  8
0
100
AcDbBlockBegin
  2
_BOXFILLED
 70
     0
 10
0.0
 20
0.0
 30
0.0
  3
_BOXFILLED
  1

  0
SOLID
  5
26
330
24
100
AcDbEntity
  8
0
  6
BYBLOCK
 62
     0
370
    -2
100
AcDbTrace
 10
-0.5
 20
0.5
 30
0.0
 11
0.5
 21
0.5
 31
0.0
 12
-0.5
 22
-0.5
 32
0.0
 13
0.5
 23
-0.5
 33
0.0
  0
LINE
  5
27
330
24
100
AcDbEntity
  8
0
  6
BYBLOCK
 62
     0
370
    -2
100
AcDbLine
 10
-0.5
 20
0.0
 30
0.0
 11
-1.0
 21
0.0
 31
0.0
  0
ENDBLK
  5
28
330
24
100
AcDbEntity
  8
0
100
AcDbBlockEnd
  0
BLOCK
  5
2A
330
29
100
AcDbEntity
  8
0
100
AcDbBlockBegin
  2
_BOXBLANK
 70
     0
 10
0.0
 20
0.0
 30
0.0
  3
_BOXBLANK
  1

  0
LINE
  5
2B
330
29
100
AcDbEntity
  8
0
  6
BYBLOCK
 62
     0
370
    -2
100
AcDbLine
 10
-0.5
 20
-0.5
 30
0.0
 11
0.5
 21
-0.5
 31
0.0
  0
LINE
  5
2C
330
29
100
AcDbEntity
  8
0
  6
BYBLOCK
 62
     0
370
    -2
100
AcDbLine
 10
0.5
 20
-0.5
 30
0.0
 11
0.5
 21
0.5
 31
0.0
  0
LINE
  5
2D
330
29
100
AcDbEntity
  8
0
  6
BYBLOCK
 62
     0
370
    -2
100
AcDbLine
 10
0.5
 20
0.5
 30
0.0
 11
-0.5
 21
0.5
 31
0.0
  0
LINE
  5
2E
330
29
100
AcDbEntity
  8
0
  6
BYBLOCK
 62
     0
370
    -2
100
AcDbLine
 10
-0.5
 20
0.5
 30
0.0
 11
-0.5
 21
-0.5
 31
0.0
  0
LINE
  5
2F
330
29
100
AcDbEntity
  8
0
  6
BYBLOCK
 62
     0
370
    -2
100
AcDbLine
 10
-0.5
 20
0.0
 30
0.0
 11
-1.0
 21
0.0
 31
0.0
  0
ENDBLK
  5
30
330
29
100
AcDbEntity
  8
0
100
AcDbBlockEnd
  0
BLOCK
  5
32
330
31
100
AcDbEntity
  8
0
100
AcDbBlockBegin
  2
_OBLIQUE
 70
     0
 10
0.0
 20
0.0
 30
0.0
  3
_OBLIQUE
  1

  0
LINE
  5
33
330
31
100
AcDbEntity
  8
0
  6
BYBLOCK
 62
     0
370
    -2
100
AcDbLine
 10
-0.5
 20
-0.5
 30
0.0
 11
0.5
 21
0.5
 31
0.0
  0
ENDBLK
  5
34
330
31
100
AcDbEntity
  8
0
100
AcDbBlockEnd
  0
BLOCK
  5
36
330
35
100
AcDbEntity
  8
0
100
AcDbBlockBegin
  2
_OPEN90
 70
     0
 10
0.0
 20
0.0
 30
0.0
  3
_OPEN90
  1

  0
LINE
  5
37
330
35
100
AcDbEntity
  8
0
  6
BYBLOCK
 62
     0
370
    -2
100
AcDbLine
 10
-0.5
 20
0.5
 30
0.0
 11
0.0
 21
0.0
 31
0.0
  0
LINE
  5
38
330
35
100
AcDbEntity
  8
0
  6
BYBLOCK
 62
     0
370
    -2
100
AcDbLine
 10
0.0
 20
0.0
 30
0.0
 11
-0.5
 21
-0.5
 31
0.0
  0
LINE
  5
39
330
35
100
AcDbEntity
  8
0
  6
BYBLOCK
 62
     0
370
    -2
100
AcDbLine
 10
0.0
 20
0.0
 30
0.0
 11
-1.0
 21
0.0
 31
0.0
  0
ENDBLK
  5
3A
330
35
100
AcDbEntity
  8
0
100
AcDbBlockEnd
  0
BLOCK
  5
3C
330
3B
100
AcDbEntity
  8
0
100
AcDbBlockBegin
  2
_CLOSEDBLANK
 70
     0
 10
0.0
 20
0.0
 30
0.0
  3
_CLOSEDBLANK
  1

  0
LINE
  5
3D
330
3B
100
AcDbEntity
  8
0
  6
BYBLOCK
 62
     0
370
    -2
100
AcDbLine
 10
-1.0
 20
0.1666666666666666
 30
0.0
 11
0.0
 21
0.0
 31
0.0
  0
LINE
  5
3E
330
3B
100
AcDbEntity
  8
0
  6
BYBLOCK
 62
     0
370
    -2
100
AcDbLine
 10
0.0
 20
0.0
 30
0.0
 11
-1.0
 21
-0.1666666666666666
 31
0.0
  0
LINE
  5
3F
330
3B
100
AcDbEntity
  8
0
  6
BYBLOCK
 62
     0
370
    -2
100
AcDbLine
 10
-1.0
 20
0.1666666666666666
 30
0.0
 11
-1.0
 21
-0.1666666666666666
 31
0.0
  0
ENDBLK
  5
40
330
3B
100
AcDbEntity
  8
0
100
AcDbBlockEnd
  0
BLOCK
  5
42
330
41
100
AcDbEntity
  8
0
100
AcDbBlockBegin
  2
_DOTBLANK
 70
     0
 10
0.0
 20
0.0
 30
0.0
  3
_DOTBLANK
  1

  0
CIRCLE
  5
43
330
41
100
AcDbEntity
  8
0
  6
BYBLOCK
 62
     0
370
    -2
100
AcDbCircle
 10
0.0
 20
0.0
 30
0.0
 40
0.5
  0
LINE
  5
44
330
41
100
AcDbEntity
  8
0
  6
BYBLOCK
 62
     0
370
    -2
100
AcDbLine
 10
-0.5
 20
0.0
 30
0.0
 11
-1.0
 21
0.0
 31
0.0
  0
ENDBLK
  5
45
330
41
100
AcDbEntity
  8
0
100
AcDbBlockEnd
  0
ENDSEC
  0
SECTION
  2
ENTITIES
  0
LINE
  5
46
100
AcDbEntity
  8
4
  6
CENTER
 62
1
100
AcDbLine
 10
128.4999999999998
 20
179.4999999999998
 30
0.000000000000000
 11
128.4999999999998
 21
109.4999999999999
 31
0.000000000000000
  0
LINE
  5
47
100
AcDbEntity
  8
3
  6
DASHED
 62
2
100
AcDbLine
 10
130.4999999999998
 20
174.5000000000000
 30
0.000000000000000
 11
130.4999999999998
 21
114.5000000000000
 31
0.000000000000000
  0
LINE
  5
48
100
AcDbEntity
  8
3
  6
DASHED
 62
2
100
AcDbLine
 10
126.5000000000000
 20
174.5000000000000
 30
0.000000000000000
 11
126.5000000000000
 21
114.5000000000000
 31
0.000000000000000
  0
LINE
  5
49
100
AcDbEntity
  8
1
  6
CONTINUOUS
 62
7
100
AcDbLine
 10
132.0000000000000
 20
174.5000000000000
 30
0.000000000000000
 11
132.0000000000000
 21
114.5000000000000
 31
0.000000000000000
  0
LINE
  5
4A
100
AcDbEntity
  8
1
  6
CONTINUOUS
 62
7
100
AcDbLine
 10
125.0000000000000
 20
174.5000000000000
 30
0.000000000000000
 11
125.0000000000000
 21
114.5000000000000
 31
0.000000000000000
  0
LINE
  5
4B
100
AcDbEntity
  8
1
  6
CONTINUOUS
 62
7
100
AcDbLine
 10
148.5000000000000
 20
174.5000000000000
 30
0.000000000000000
 11
148.5000000000000
 21
114.5000000000000
 31
0.000000000000000
  0
LINE
  5
4C
100
AcDbEntity
  8
1
  6
CONTINUOUS
 62
7
100
AcDbLine
 10
108.4999999999999
 20
174.5000000000000
 30
0.000000000000000
 11
108.4999999999999
 21
114.5000000000000
 31
0.000000000000000
  0
LINE
  5
4D
100
AcDbEntity
  8
1
  6
CONTINUOUS
 62
7
100
AcDbLine
 10
132.4999999999998
 20
162.5000000000000
 30
0.000000000000000
 11
132.4999999999998
 21
150.5000000000000
 31
0.000000000000000
  0
LINE
  5
4E
100
AcDbEntity
  8
1
  6
CONTINUOUS
 62
7
100
AcDbLine
 10
124.5000000000000
 20
174.5000000000000
 30
0.000000000000000
 11
124.5000000000000
 21
162.5000000000000
 31
0.000000000000000
  0
LINE
  5
4F
100
AcDbEntity
  8
1
  6
CONTINUOUS
 62
7
100
AcDbLine
 10
108.4999999999999
 20
174.5000000000000
 30
0.000000000000000
 11
124.5000000000000
 21
174.5000000000000
 31
0.000000000000000
  0
LINE
  5
50
100
AcDbEntity
  8
1
  6
CONTINUOUS
 62
7
100
AcDbLine
 10
124.5000000000000
 20
162.5000000000000
 30
0.000000000000000
 11
132.4999999999998
 21
162.5000000000000
 31
0.000000000000000
  0
LINE
  5
51
100
AcDbEntity
  8
1
  6
CONTINUOUS
 62
7
100
AcDbLine
 10
124.5000000000000
 20
150.5000000000000
 30
0.000000000000000
 11
132.4999999999998
 21
150.5000000000000
 31
0.000000000000000
  0
LINE
  5
52
100
AcDbEntity
  8
1
  6
CONTINUOUS
 62
7
100
AcDbLine
 10
124.5000000000000
 20
138.5000000000000
 30
0.000000000000000
 11
132.4999999999998
 21
138.5000000000000
 31
0.000000000000000
  0
LINE
  5
53
100
AcDbEntity
  8
1
  6
CONTINUOUS
 62
7
100
AcDbLine
 10
124.5000000000000
 20
126.5000000000000
 30
0.000000000000000
 11
132.4999999999998
 21
126.5000000000000
 31
0.000000000000000
  0
LINE
  5
54
100
AcDbEntity
  8
1
  6
CONTINUOUS
 62
7
100
AcDbLine
 10
108.4999999999999
 20
114.5000000000000
 30
0.000000000000000
 11
124.5000000000000
 21
114.5000000000000
 31
0.000000000000000
  0
LINE
  5
55
100
AcDbEntity
  8
1
  6
CONTINUOUS
 62
7
100
AcDbLine
 10
124.5000000000000
 20
150.5000000000000
 30
0.000000000000000
 11
124.5000000000000
 21
138.5000000000000
 31
0.000000000000000
  0
LINE
  5
56
100
AcDbEntity
  8
1
  6
CONTINUOUS
 62
7
100
AcDbLine
 10
124.5000000000000
 20
126.5000000000000
 30
0.000000000000000
 11
124.5000000000000
 21
114.5000000000000
 31
0.000000000000000
  0
LINE
  5
57
100
AcDbEntity
  8
1
  6
CONTINUOUS
 62
7
100
AcDbLine
 10
132.4999999999998
 20
138.5000000000000
 30
0.000000000000000
 11
132.4999999999998
 21
126.5000000000000
 31
0.000000000000000
  0
LINE
  5
58
100
AcDbEntity
  8
1
  6
CONTINUOUS
 62
7
100
AcDbLine
 10
125.0000000000000
 20
174.5000000000000
 30
0.000000000000000
 11
148.5000000000000
 21
174.5000000000000
 31
0.000000000000000
  0
LINE
  5
59
100
AcDbEntity
  8
1
  6
CONTINUOUS
 62
7
100
AcDbLine
 10
125.0000000000000
 20
114.5000000000000
 30
0.000000000000000
 11
148.5000000000000
 21
114.5000000000000
 31
0.000000000000000
  0
LINE
  5
5A
100
AcDbEntity
  8
4
  6
CENTER
 62
1
100
AcDbLine
 10
115.5000000000000
 20
168.6499940000000
 30
0.000000000000000
 11
115.5000000000000
 21
160.3500060000000
 31
0.000000000000000
  0
LINE
  5
5B
100
AcDbEntity
  8
4
  6
CENTER
 62
1
100
AcDbLine
 10
111.3499980000000
 20
164.5000000000000
 30
0.000000000000000
 11
119.6500020000000
 21
164.5000000000000
 31
0.000000000000000
  0
LINE
  5
5C
100
AcDbEntity
  8
4
  6
CENTER
 62
1
100
AcDbLine
 10
141.5000000000000
 20
168.6499940000000
 30
0.000000000000000
 11
141.5000000000000
 21
160.3500060000000
 31
0.000000000000000
  0
LINE
  5
5D
100
AcDbEntity
  8
4
  6
CENTER
 62
1
100
AcDbLine
 10
137.3500060000000
 20
164.5000000000000
 30
0.000000000000000
 11
145.6499940000000
 21
164.5000000000000
 31
0.000000000000000
  0
LINE
  5
5E
100
AcDbEntity
  8
4
  6
CENTER
 62
1
100
AcDbLine
 10
115.5000000000000
 20
148.6499939999999
 30
0.000000000000000
 11
115.5000000000000
 21
140.3500060000000
 31
0.000000000000000
  0
LINE
  5
5F
100
AcDbEntity
  8
4
  6
CENTER
 62
1
100
AcDbLine
 10
111.3499980000000
 20
144.5000000000000
 30
0.000000000000000
 11
119.6500020000000
 21
144.5000000000000
 31
0.000000000000000
  0
LINE
  5
60
100
AcDbEntity
  8
4
  6
CENTER
 62
1
100
AcDbLine
 10
141.5000000000000
 20
148.6499939999999
 30
0.000000000000000
 11
141.5000000000000
 21
140.3500060000000
 31
0.000000000000000
  0
LINE
  5
61
100
AcDbEntity
  8
4
  6
CENTER
 62
1
100
AcDbLine
 10
137.3500060000000
 20
144.5000000000000
 30
0.000000000000000
 11
145.6499940000000
 21
144.5000000000000
 31
0.000000000000000
  0
LINE
  5
62
100
AcDbEntity
  8
4
  6
CENTER
 62
1
100
AcDbLine
 10
115.5000000000000
 20
128.6499939999999
 30
0.000000000000000
 11
115.5000000000000
 21
120.3499979999999
 31
0.000000000000000
  0
LINE
  5
63
100
AcDbEntity
  8
4
  6
CENTER
 62
1
100
AcDbLine
 10
111.3499980000000
 20
124.5000000000000
 30
0.000000000000000
 11
119.6500020000000
 21
124.5000000000000
 31
0.000000000000000
  0
LINE
  5
64
100
AcDbEntity
  8
4
  6
CENTER
 62
1
100
AcDbLine
 10
141.5000000000000
 20
128.6499939999999
 30
0.000000000000000
 11
141.5000000000000
 21
120.3499979999999
 31
0.000000000000000
  0
LINE
  5
65
100
AcDbEntity
  8
4
  6
CENTER
 62
1
100
AcDbLine
 10
137.3500060000000
 20
124.5000000000000
 30
0.000000000000000
 11
145.6499940000000
 21
124.5000000000000
 31
0.000000000000000
  0
LINE
  5
66
100
AcDbEntity
  8
1
  6
CONTINUOUS
 62
7
100
AcDbLine
 10
25.00000000000000
 20
114.5000000000000
 30
0.000000000000000
 11
32.00000000000000
 21
114.5000000000000
 31
0.000000000000000
  0
LINE
  5
67
100
AcDbEntity
  8
4
  6
CENTER
 62
1
100
AcDbLine
 10
22.00000000000000
 20
124.5000000000000
 30
0.000000000000000
 11
29.50000000000000
 21
124.5000000000000
 31
0.000000000000000
  0
LINE
  5
68
100
AcDbEntity
  8
1
  6
CONTINUOUS
 62
7
100
AcDbLine
 10
26.50000000000000
 20
126.5000000000000
 30
0.000000000000000
 11
32.00000000000000
 21
126.5000000000000
 31
0.000000000000000
  0
LINE
  5
69
100
AcDbEntity
  8
1
  6
CONTINUOUS
 62
7
100
AcDbLine
 10
26.50000000000000
 20
138.5000000000000
 30
0.000000000000000
 11
32.00000000000000
 21
138.5000000000000
 31
0.000000000000000
  0
LINE
  5
6A
100
AcDbEntity
  8
4
  6
CENTER
 62
1
100
AcDbLine
 10
22.00000000000000
 20
144.5000000000000
 30
0.000000000000000
 11
29.50000000000000
 21
144.5000000000000
 31
0.000000000000000
  0
LINE
  5
6B
100
AcDbEntity
  8
1
  6
CONTINUOUS
 62
7
100
AcDbLine
 10
26.50000000000000
 20
150.5000000000000
 30
0.000000000000000
 11
32.00000000000000
 21
150.5000000000000
 31
0.000000000000000
  0
LINE
  5
6C
100
AcDbEntity
  8
1
  6
CONTINUOUS
 62
7
100
AcDbLine
 10
26.50000000000000
 20
162.5000000000000
 30
0.000000000000000
 11
32.00000000000000
 21
162.5000000000000
 31
0.000000000000000
  0
LINE
  5
6D
100
AcDbEntity
  8
4
  6
CENTER
 62
1
100
AcDbLine
 10
22.00000000000000
 20
164.5000000000000
 30
0.000000000000000
 11
29.50000000000000
 21
164.5000000000000
 31
0.000000000000000
  0
LINE
  5
6E
100
AcDbEntity
  8
1
  6
CONTINUOUS
 62
7
100
AcDbLine
 10
25.00000000000000
 20
174.5000000000000
 30
0.000000000000000
 11
32.00000000000000
 21
174.5000000000000
 31
0.000000000000000
  0
LINE
  5
6F
100
AcDbEntity
  8
4
  6
CENTER
 62
1
100
AcDbLine
 10
28.50000000000000
 20
179.4999999999998
 30
0.000000000000000
 11
28.50000000000000
 21
109.4999999999999
 31
0.000000000000000
  0
LINE
  5
70
100
AcDbEntity
  8
1
  6
CONTINUOUS
 62
7
100
AcDbLine
 10
26.50000000000000
 20
174.5000000000000
 30
0.000000000000000
 11
26.50000000000000
 21
114.5000000000000
 31
0.000000000000000
  0
LINE
  5
71
100
AcDbEntity
  8
3
  6
DASHED
 62
2
100
AcDbLine
 10
30.50000000000000
 20
174.5000000000000
 30
0.000000000000000
 11
30.50000000000000
 21
114.5000000000000
 31
0.000000000000000
  0
LINE
  5
72
100
AcDbEntity
  8
1
  6
CONTINUOUS
 62
7
100
AcDbLine
 10
25.00000000000000
 20
174.5000000000000
 30
0.000000000000000
 11
25.00000000000000
 21
114.5000000000000
 31
0.000000000000000
  0
LINE
  5
73
100
AcDbEntity
  8
1
  6
CONTINUOUS
 62
7
100
AcDbLine
 10
32.00000000000000
 20
174.5000000000000
 30
0.000000000000000
 11
32.00000000000000
 21
114.5000000000000
 31
0.000000000000000
  0
LINE
  5
74
100
AcDbEntity
  8
4
  6
CENTER
 62
1
100
AcDbLine
 10
115.5000000000000
 20
45.49999999999999
 30
0.000000000000000
 11
115.5000000000000
 21
38.00000000000000
 31
0.000000000000000
  0
LINE
  5
75
100
AcDbEntity
  8
4
  6
CENTER
 62
1
100
AcDbLine
 10
141.5000000000000
 20
45.49999999999999
 30
0.000000000000000
 11
141.5000000000000
 21
38.00000000000000
 31
0.000000000000000
  0
LINE
  5
76
100
AcDbEntity
  8
1
  6
CONTINUOUS
 62
7
100
AcDbLine
 10
148.5000000000000
 20
42.50000000000000
 30
0.000000000000000
 11
148.5000000000000
 21
41.00000000000000
 31
0.000000000000000
  0
LINE
  5
77
100
AcDbEntity
  8
5
  6
PHANTOM
 62
6
100
AcDbLine
 10
130.4999999999998
 20
24.50000000000000
 30
0.000000000000000
 11
132.0000000000000
 21
24.50000000000000
 31
0.000000000000000
  0
LINE
  5
78
100
AcDbEntity
  8
5
  6
PHANTOM
 62
6
100
AcDbLine
 10
132.0000000000000
 20
24.50000000000000
 30
0.000000000000000
 11
132.0000000000000
 21
44.50000000000000
 31
0.000000000000000
  0
LINE
  5
79
100
AcDbEntity
  8
5
  6
PHANTOM
 62
6
100
AcDbLine
 10
130.4999999999998
 20
24.50000000000000
 30
0.000000000000000
 11
130.4999999999998
 21
44.50000000000000
 31
0.000000000000000
  0
LINE
  5
7A
100
AcDbEntity
  8
4
  6
CENTER
 62
1
100
AcDbLine
 10
135.0000000000000
 20
44.50000000000000
 30
0.000000000000000
 11
122.0000000000000
 21
44.50000000000000
 31
0.000000000000000
  0
LINE
  5
7B
100
AcDbEntity
  8
4
  6
CENTER
 62
1
100
AcDbLine
 10
128.4999999999998
 20
51.00000000000000
 30
0.000000000000000
 11
128.4999999999998
 21
38.00000000000000
 31
0.000000000000000
  0
LINE
  5
7C
100
AcDbEntity
  8
5
  6
PHANTOM
 62
6
100
AcDbLine
 10
130.4999999999998
 20
40.49999999999999
 30
0.000000000000000
 11
132.0000000000000
 21
40.49999999999999
 31
0.000000000000000
  0
LINE
  5
7D
100
AcDbEntity
  8
1
  6
CONTINUOUS
 62
7
100
AcDbLine
 10
128.4999999999998
 20
42.50000000000000
 30
0.000000000000000
 11
148.5000000000000
 21
42.50000000000000
 31
0.000000000000000
  0
LINE
  5
7E
100
AcDbEntity
  8
1
  6
CONTINUOUS
 62
7
100
AcDbLine
 10
130.1412959999999
 20
43.35714300000000
 30
0.000000000000000
 11
131.3722840000000
 21
42.50000000000001
 31
0.000000000000000
  0
LINE
  5
7F
100
AcDbEntity
  8
1
  6
CONTINUOUS
 62
7
100
AcDbLine
 10
124.5000000000000
 20
42.50000000000000
 30
0.000000000000000
 11
124.5000000000000
 21
41.00000000000000
 31
0.000000000000000
  0
LINE
  5
80
100
AcDbEntity
  8
1
  6
CONTINUOUS
 62
7
100
AcDbLine
 10
108.4999999999999
 20
42.50000000000000
 30
0.000000000000000
 11
108.4999999999999
 21
41.00000000000000
 31
0.000000000000000
  0
LINE
  5
81
100
AcDbEntity
  8
1
  6
CONTINUOUS
 62
7
100
AcDbLine
 10
108.4999999999999
 20
41.00000000000000
 30
0.000000000000000
 11
148.5000000000000
 21
41.00000000000000
 31
0.000000000000000
  0
LINE
  5
82
100
AcDbEntity
  8
1
  6
CONTINUOUS
 62
7
100
AcDbLine
 10
108.4999999999999
 20
42.50000000000000
 30
0.000000000000000
 11
125.6277160000000
 21
42.50000000000000
 31
0.000000000000000
  0
LINE
  5
83
100
AcDbEntity
  8
4
  6
CENTER
 62
1
100
AcDbLine
 10
115.5000000000000
 20
243.5000000000000
 30
0.000000000000000
 11
115.5000000000000
 21
251.0000000000000
 31
0.000000000000000
  0
LINE
  5
84
100
AcDbEntity
  8
4
  6
CENTER
 62
1
100
AcDbLine
 10
141.5000000000000
 20
243.5000000000000
 30
0.000000000000000
 11
141.5000000000000
 21
251.0000000000000
 31
0.000000000000000
  0
LINE
  5
85
100
AcDbEntity
  8
1
  6
CONTINUOUS
 62
7
100
AcDbLine
 10
148.5000000000000
 20
246.4999999999998
 30
0.000000000000000
 11
148.5000000000000
 21
248.0000000000000
 31
0.000000000000000
  0
LINE
  5
86
100
AcDbEntity
  8
5
  6
PHANTOM
 62
6
100
AcDbLine
 10
130.4999999999998
 20
264.5000000000000
 30
0.000000000000000
 11
132.0000000000000
 21
264.5000000000000
 31
0.000000000000000
  0
LINE
  5
87
100
AcDbEntity
  8
5
  6
PHANTOM
 62
6
100
AcDbLine
 10
132.0000000000000
 20
264.5000000000000
 30
0.000000000000000
 11
132.0000000000000
 21
244.4999999999998
 31
0.000000000000000
  0
LINE
  5
88
100
AcDbEntity
  8
5
  6
PHANTOM
 62
6
100
AcDbLine
 10
130.4999999999998
 20
264.5000000000000
 30
0.000000000000000
 11
130.4999999999998
 21
244.4999999999998
 31
0.000000000000000
  0
LINE
  5
89
100
AcDbEntity
  8
4
  6
CENTER
 62
1
100
AcDbLine
 10
135.0000000000000
 20
244.4999999999998
 30
0.000000000000000
 11
122.0000000000000
 21
244.4999999999998
 31
0.000000000000000
  0
LINE
  5
8A
100
AcDbEntity
  8
4
  6
CENTER
 62
1
100
AcDbLine
 10
128.4999999999998
 20
238.0000000000000
 30
0.000000000000000
 11
128.4999999999998
 21
251.0000000000000
 31
0.000000000000000
  0
LINE
  5
8B
100
AcDbEntity
  8
5
  6
PHANTOM
 62
6
100
AcDbLine
 10
130.4999999999998
 20
248.4999999999998
 30
0.000000000000000
 11
132.0000000000000
 21
248.4999999999998
 31
0.000000000000000
  0
LINE
  5
8C
100
AcDbEntity
  8
1
  6
CONTINUOUS
 62
7
100
AcDbLine
 10
128.4999999999998
 20
246.4999999999998
 30
0.000000000000000
 11
148.5000000000000
 21
246.4999999999998
 31
0.000000000000000
  0
LINE
  5
8D
100
AcDbEntity
  8
1
  6
CONTINUOUS
 62
7
100
AcDbLine
 10
130.1412959999999
 20
245.6428529999998
 30
0.000000000000000
 11
131.3722840000000
 21
246.4999999999998
 31
0.000000000000000
  0
LINE
  5
8E
100
AcDbEntity
  8
1
  6
CONTINUOUS
 62
7
100
AcDbLine
 10
124.5000000000000
 20
246.4999999999998
 30
0.000000000000000
 11
124.5000000000000
 21
248.0000000000000
 31
0.000000000000000
  0
LINE
  5
8F
100
AcDbEntity
  8
1
  6
CONTINUOUS
 62
7
100
AcDbLine
 10
108.4999999999999
 20
246.4999999999998
 30
0.000000000000000
 11
108.4999999999999
 21
248.0000000000000
 31
0.000000000000000
  0
LINE
  5
90
100
AcDbEntity
  8
1
  6
CONTINUOUS
 62
7
100
AcDbLine
 10
108.4999999999999
 20
248.0000000000000
 30
0.000000000000000
 11
148.5000000000000
 21
248.0000000000000
 31
0.000000000000000
  0
LINE
  5
91
100
AcDbEntity
  8
1
  6
CONTINUOUS
 62
7
100
AcDbLine
 10
108.4999999999999
 20
246.4999999999998
 30
0.000000000000000
 11
125.6277160000000
 21
246.4999999999998
 31
0.000000000000000
  0
LINE
  5
92
100
AcDbEntity
  8
1
  6
CONTINUOUS
 62
7
100
AcDbLine
 10
232.0000000000000
 20
114.5000000000000
 30
0.000000000000000
 11
225.0000000000000
 21
114.5000000000000
 31
0.000000000000000
  0
LINE
  5
93
100
AcDbEntity
  8
4
  6
CENTER
 62
1
100
AcDbLine
 10
235.0000000000000
 20
124.5000000000000
 30
0.000000000000000
 11
227.4999999999999
 21
124.5000000000000
 31
0.000000000000000
  0
LINE
  5
94
100
AcDbEntity
  8
1
  6
CONTINUOUS
 62
7
100
AcDbLine
 10
230.5000000000000
 20
126.5000000000000
 30
0.000000000000000
 11
225.0000000000000
 21
126.5000000000000
 31
0.000000000000000
  0
LINE
  5
95
100
AcDbEntity
  8
1
  6
CONTINUOUS
 62
7
100
AcDbLine
 10
230.5000000000000
 20
138.5000000000000
 30
0.000000000000000
 11
225.0000000000000
 21
138.5000000000000
 31
0.000000000000000
  0
LINE
  5
96
100
AcDbEntity
  8
4
  6
CENTER
 62
1
100
AcDbLine
 10
235.0000000000000
 20
144.5000000000000
 30
0.000000000000000
 11
227.4999999999999
 21
144.5000000000000
 31
0.000000000000000
  0
LINE
  5
97
100
AcDbEntity
  8
1
  6
CONTINUOUS
 62
7
100
AcDbLine
 10
230.5000000000000
 20
150.5000000000000
 30
0.000000000000000
 11
225.0000000000000
 21
150.5000000000000
 31
0.000000000000000
  0
LINE
  5
98
100
AcDbEntity
  8
1
  6
CONTINUOUS
 62
7
100
AcDbLine
 10
230.5000000000000
 20
162.5000000000000
 30
0.000000000000000
 11
225.0000000000000
 21
162.5000000000000
 31
0.000000000000000
  0
LINE
  5
99
100
AcDbEntity
  8
4
  6
CENTER
 62
1
100
AcDbLine
 10
235.0000000000000
 20
164.5000000000000
 30
0.000000000000000
 11
227.4999999999999
 21
164.5000000000000
 31
0.000000000000000
  0
LINE
  5
9A
100
AcDbEntity
  8
1
  6
CONTINUOUS
 62
7
100
AcDbLine
 10
232.0000000000000
 20
174.5000000000000
 30
0.000000000000000
 11
225.0000000000000
 21
174.5000000000000
 31
0.000000000000000
  0
LINE
  5
9B
100
AcDbEntity
  8
4
  6
CENTER
 62
1
100
AcDbLine
 10
228.5000000000000
 20
179.4999999999998
 30
0.000000000000000
 11
228.5000000000000
 21
109.4999999999999
 31
0.000000000000000
  0
LINE
  5
9C
100
AcDbEntity
  8
1
  6
CONTINUOUS
 62
7
100
AcDbLine
 10
230.5000000000000
 20
174.5000000000000
 30
0.000000000000000
 11
230.5000000000000
 21
114.5000000000000
 31
0.000000000000000
  0
LINE
  5
9D
100
AcDbEntity
  8
3
  6
DASHED
 62
2
100
AcDbLine
 10
226.5000000000000
 20
174.5000000000000
 30
0.000000000000000
 11
226.5000000000000
 21
114.5000000000000
 31
0.000000000000000
  0
LINE
  5
9E
100
AcDbEntity
  8
1
  6
CONTINUOUS
 62
7
100
AcDbLine
 10
232.0000000000000
 20
174.5000000000000
 30
0.000000000000000
 11
232.0000000000000
 21
114.5000000000000
 31
0.000000000000000
  0
LINE
  5
9F
100
AcDbEntity
  8
1
  6
CONTINUOUS
 62
7
100
AcDbLine
 10
225.0000000000000
 20
174.5000000000000
 30
0.000000000000000
 11
225.0000000000000
 21
114.5000000000000
 31
0.000000000000000
  0
LINE
  5
A0
100
AcDbEntity
  8
4
  6
CENTER
 62
1
100
AcDbLine
 10
328.5000000000000
 20
179.4999999999998
 30
0.000000000000000
 11
328.5000000000000
 21
109.4999999999999
 31
0.000000000000000
  0
LINE
  5
A1
100
AcDbEntity
  8
3
  6
DASHED
 62
2
100
AcDbLine
 10
326.5000000000000
 20
174.5000000000000
 30
0.000000000000000
 11
326.5000000000000
 21
114.5000000000000
 31
0.000000000000000
  0
LINE
  5
A2
100
AcDbEntity
  8
3
  6
DASHED
 62
2
100
AcDbLine
 10
330.5000000000000
 20
174.5000000000000
 30
0.000000000000000
 11
330.5000000000000
 21
114.5000000000000
 31
0.000000000000000
  0
LINE
  5
A3
100
AcDbEntity
  8
1
  6
CONTINUOUS
 62
7
100
AcDbLine
 10
325.0000000000000
 20
162.5000000000000
 30
0.000000000000000
 11
325.0000000000000
 21
150.5000000000000
 31
0.000000000000000
  0
LINE
  5
A4
100
AcDbEntity
  8
1
  6
CONTINUOUS
 62
7
100
AcDbLine
 10
332.0000000000000
 20
174.5000000000000
 30
0.000000000000000
 11
332.0000000000000
 21
162.5000000000000
 31
0.000000000000000
  0
LINE
  5
A5
100
AcDbEntity
  8
1
  6
CONTINUOUS
 62
7
100
AcDbLine
 10
308.4999999999999
 20
174.5000000000000
 30
0.000000000000000
 11
308.4999999999999
 21
114.5000000000000
 31
0.000000000000000
  0
LINE
  5
A6
100
AcDbEntity
  8
1
  6
CONTINUOUS
 62
7
100
AcDbLine
 10
348.4999999999998
 20
174.5000000000000
 30
0.000000000000000
 11
348.4999999999998
 21
114.5000000000000
 31
0.000000000000000
  0
LINE
  5
A7
100
AcDbEntity
  8
1
  6
CONTINUOUS
 62
7
100
AcDbLine
 10
324.5000000000000
 20
162.5000000000000
 30
0.000000000000000
 11
324.5000000000000
 21
150.5000000000000
 31
0.000000000000000
  0
LINE
  5
A8
100
AcDbEntity
  8
1
  6
CONTINUOUS
 62
7
100
AcDbLine
 10
332.5000000000000
 20
174.5000000000000
 30
0.000000000000000
 11
332.5000000000000
 21
162.5000000000000
 31
0.000000000000000
  0
LINE
  5
A9
100
AcDbEntity
  8
1
  6
CONTINUOUS
 62
7
100
AcDbLine
 10
348.4999999999998
 20
174.5000000000000
 30
0.000000000000000
 11
332.5000000000000
 21
174.5000000000000
 31
0.000000000000000
  0
LINE
  5
AA
100
AcDbEntity
  8
1
  6
CONTINUOUS
 62
7
100
AcDbLine
 10
332.5000000000000
 20
162.5000000000000
 30
0.000000000000000
 11
324.5000000000000
 21
162.5000000000000
 31
0.000000000000000
  0
LINE
  5
AB
100
AcDbEntity
  8
1
  6
CONTINUOUS
 62
7
100
AcDbLine
 10
332.5000000000000
 20
150.5000000000000
 30
0.000000000000000
 11
324.5000000000000
 21
150.5000000000000
 31
0.000000000000000
  0
LINE
  5
AC
100
AcDbEntity
  8
1
  6
CONTINUOUS
 62
7
100
AcDbLine
 10
332.5000000000000
 20
138.5000000000000
 30
0.000000000000000
 11
324.5000000000000
 21
138.5000000000000
 31
0.000000000000000
  0
LINE
  5
AD
100
AcDbEntity
  8
1
  6
CONTINUOUS
 62
7
100
AcDbLine
 10
332.5000000000000
 20
126.5000000000000
 30
0.000000000000000
 11
324.5000000000000
 21
126.5000000000000
 31
0.000000000000000
  0
LINE
  5
AE
100
AcDbEntity
  8
1
  6
CONTINUOUS
 62
7
100
AcDbLine
 10
348.4999999999998
 20
114.5000000000000
 30
0.000000000000000
 11
332.5000000000000
 21
114.5000000000000
 31
0.000000000000000
  0
LINE
  5
AF
100
AcDbEntity
  8
1
  6
CONTINUOUS
 62
7
100
AcDbLine
 10
332.5000000000000
 20
150.5000000000000
 30
0.000000000000000
 11
332.5000000000000
 21
138.5000000000000
 31
0.000000000000000
  0
LINE
  5
B0
100
AcDbEntity
  8
1
  6
CONTINUOUS
 62
7
100
AcDbLine
 10
332.5000000000000
 20
126.5000000000000
 30
0.000000000000000
 11
332.5000000000000
 21
114.5000000000000
 31
0.000000000000000
  0
LINE
  5
B1
100
AcDbEntity
  8
1
  6
CONTINUOUS
 62
7
100
AcDbLine
 10
324.5000000000000
 20
138.5000000000000
 30
0.000000000000000
 11
324.5000000000000
 21
126.5000000000000
 31
0.000000000000000
  0
LINE
  5
B2
100
AcDbEntity
  8
1
  6
CONTINUOUS
 62
7
100
AcDbLine
 10
332.0000000000000
 20
174.5000000000000
 30
0.000000000000000
 11
308.4999999999999
 21
174.5000000000000
 31
0.000000000000000
  0
LINE
  5
B3
100
AcDbEntity
  8
1
  6
CONTINUOUS
 62
7
100
AcDbLine
 10
332.0000000000000
 20
114.5000000000000
 30
0.000000000000000
 11
308.4999999999999
 21
114.5000000000000
 31
0.000000000000000
  0
LINE
  5
B4
100
AcDbEntity
  8
4
  6
CENTER
 62
1
100
AcDbLine
 10
341.5000000000000
 20
168.6499940000000
 30
0.000000000000000
 11
341.5000000000000
 21
160.3500060000000
 31
0.000000000000000
  0
LINE
  5
B5
100
AcDbEntity
  8
4
  6
CENTER
 62
1
100
AcDbLine
 10
345.6499940000000
 20
164.5000000000000
 30
0.000000000000000
 11
337.3500060000000
 21
164.5000000000000
 31
0.000000000000000
  0
LINE
  5
B6
100
AcDbEntity
  8
4
  6
CENTER
 62
1
100
AcDbLine
 10
315.5000000000000
 20
168.6499940000000
 30
0.000000000000000
 11
315.5000000000000
 21
160.3500060000000
 31
0.000000000000000
  0
LINE
  5
B7
100
AcDbEntity
  8
4
  6
CENTER
 62
1
100
AcDbLine
 10
319.6499939999998
 20
164.5000000000000
 30
0.000000000000000
 11
311.3500060000000
 21
164.5000000000000
 31
0.000000000000000
  0
LINE
  5
B8
100
AcDbEntity
  8
4
  6
CENTER
 62
1
100
AcDbLine
 10
341.5000000000000
 20
148.6499939999999
 30
0.000000000000000
 11
341.5000000000000
 21
140.3500060000000
 31
0.000000000000000
  0
LINE
  5
B9
100
AcDbEntity
  8
4
  6
CENTER
 62
1
100
AcDbLine
 10
345.6499940000000
 20
144.5000000000000
 30
0.000000000000000
 11
337.3500060000000
 21
144.5000000000000
 31
0.000000000000000
  0
LINE
  5
BA
100
AcDbEntity
  8
4
  6
CENTER
 62
1
100
AcDbLine
 10
315.5000000000000
 20
148.6499939999999
 30
0.000000000000000
 11
315.5000000000000
 21
140.3500060000000
 31
0.000000000000000
  0
LINE
  5
BB
100
AcDbEntity
  8
4
  6
CENTER
 62
1
100
AcDbLine
 10
319.6499939999998
 20
144.5000000000000
 30
0.000000000000000
 11
311.3500060000000
 21
144.5000000000000
 31
0.000000000000000
  0
LINE
  5
BC
100
AcDbEntity
  8
4
  6
CENTER
 62
1
100
AcDbLine
 10
341.5000000000000
 20
128.6499939999999
 30
0.000000000000000
 11
341.5000000000000
 21
120.3499979999999
 31
0.000000000000000
  0
LINE
  5
BD
100
AcDbEntity
  8
4
  6
CENTER
 62
1
100
AcDbLine
 10
345.6499940000000
 20
124.5000000000000
 30
0.000000000000000
 11
337.3500060000000
 21
124.5000000000000
 31
0.000000000000000
  0
LINE
  5
BE
100
AcDbEntity
  8
4
  6
CENTER
 62
1
100
AcDbLine
 10
315.5000000000000
 20
128.6499939999999
 30
0.000000000000000
 11
315.5000000000000
 21
120.3499979999999
 31
0.000000000000000
  0
LINE
  5
BF
100
AcDbEntity
  8
4
  6
CENTER
 62
1
100
AcDbLine
 10
319.6499939999998
 20
124.5000000000000
 30
0.000000000000000
 11
311.3500060000000
 21
124.5000000000000
 31
0.000000000000000
  0
LINE
  5
C0
100
AcDbEntity
  8
1
  6
CONTINUOUS
 62
7
100
AcDbLine
 10
325.0000000000000
 20
138.5000000000000
 30
0.000000000000000
 11
325.0000000000000
 21
126.5000000000000
 31
0.000000000000000
  0
LINE
  5
C1
100
AcDbEntity
  8
1
  6
CONTINUOUS
 62
7
100
AcDbLine
 10
332.0000000000000
 20
126.5000000000000
 30
0.000000000000000
 11
332.0000000000000
 21
114.5000000000000
 31
0.000000000000000
  0
LINE
  5
C2
100
AcDbEntity
  8
1
  6
CONTINUOUS
 62
7
100
AcDbLine
 10
332.0000000000000
 20
150.5000000000000
 30
0.000000000000000
 11
332.0000000000000
 21
138.5000000000000
 31
0.000000000000000
  0
CIRCLE
  5
C3
100
AcDbEntity
  8
1
  6
CONTINUOUS
 62
7
100
AcDbCircle
 10
115.5000000000000
 20
164.5000000000000
 30
0.000000000000000
 40
2.149999999999999
  0
CIRCLE
  5
C4
100
AcDbEntity
  8
1
  6
CONTINUOUS
 62
7
100
AcDbCircle
 10
141.5000000000000
 20
164.5000000000000
 30
0.000000000000000
 40
2.149999999999999
  0
CIRCLE
  5
C5
100
AcDbEntity
  8
1
  6
CONTINUOUS
 62
7
100
AcDbCircle
 10
141.5000000000000
 20
144.5000000000000
 30
0.000000000000000
 40
2.149999999999999
  0
CIRCLE
  5
C6
100
AcDbEntity
  8
1
  6
CONTINUOUS
 62
7
100
AcDbCircle
 10
141.5000000000000
 20
124.5000000000000
 30
0.000000000000000
 40
2.149999999999999
  0
CIRCLE
  5
C7
100
AcDbEntity
  8
1
  6
CONTINUOUS
 62
7
100
AcDbCircle
 10
115.5000000000000
 20
124.5000000000000
 30
0.000000000000000
 40
2.149999999999999
  0
CIRCLE
  5
C8
100
AcDbEntity
  8
1
  6
CONTINUOUS
 62
7
100
AcDbCircle
 10
115.5000000000000
 20
144.5000000000000
 30
0.000000000000000
 40
2.149999999999999
  0
CIRCLE
  5
C9
100
AcDbEntity
  8
1
  6
CONTINUOUS
 62
7
100
AcDbCircle
 10
128.4999999999998
 20
44.50000000000000
 30
0.000000000000000
 40
2.000000000000000
  0
ARC
  5
CA
100
AcDbEntity
  8
1
  6
CONTINUOUS
 62
7
100
AcDbCircle
 10
128.4999999999998
 20
44.50000000000000
 30
0.000000000000000
 40
3.500000000000000
100
AcDbArc
 50
325.1500970000000
 51
630.0000010000000
  0
CIRCLE
  5
CB
100
AcDbEntity
  8
1
  6
CONTINUOUS
 62
7
100
AcDbCircle
 10
128.4999999999998
 20
244.4999999999998
 30
0.000000000000000
 40
2.000000000000000
  0
ARC
  5
CC
100
AcDbEntity
  8
1
  6
CONTINUOUS
 62
7
100
AcDbCircle
 10
128.4999999999998
 20
244.4999999999998
 30
0.000000000000000
 40
3.500000000000000
100
AcDbArc
 50
90.00000300000002
 51
394.8499030000000
  0
CIRCLE
  5
CD
100
AcDbEntity
  8
1
  6
CONTINUOUS
 62
7
100
AcDbCircle
 10
341.5000000000000
 20
164.5000000000000
 30
0.000000000000000
 40
2.149999999999999
  0
CIRCLE
  5
CE
100
AcDbEntity
  8
1
  6
CONTINUOUS
 62
7
100
AcDbCircle
 10
315.5000000000000
 20
164.5000000000000
 30
0.000000000000000
 40
2.149999999999999
  0
CIRCLE
  5
CF
100
AcDbEntity
  8
1
  6
CONTINUOUS
 62
7
100
AcDbCircle
 10
315.5000000000000
 20
144.5000000000000
 30
0.000000000000000
 40
2.149999999999999
  0
CIRCLE
  5
D0
100
AcDbEntity
  8
1
  6
CONTINUOUS
 62
7
100
AcDbCircle
 10
315.5000000000000
 20
124.5000000000000
 30
0.000000000000000
 40
2.149999999999999
  0
CIRCLE
  5
D1
100
AcDbEntity
  8
1
  6
CONTINUOUS
 62
7
100
AcDbCircle
 10
341.5000000000000
 20
124.5000000000000
 30
0.000000000000000
 40
2.149999999999999
  0
CIRCLE
  5
D2
100
AcDbEntity
  8
1
  6
CONTINUOUS
 62
7
100
AcDbCircle
 10
341.5000000000000
 20
144.5000000000000
 30
0.000000000000000
 40
2.149999999999999
  0
MTEXT
  5
D3
100
AcDbEntity
  8
7
  6
CONTINUOUS
 62
3
100
AcDbMText
 10
10.00005000000000
 20
18.00000000000000
 30
0.000000000000000
 40
3.000000000000000
 41
0.000000000000000
 44
0.6739999771118164
 71
     7
 72
     1
  1
{\H0.94x;{TYPE No.TH-TM-11SUS}}
 11
1.000000000000000
 21
0.000000000000000
 31
0.000000000000000
  7
STANDARD
  0
ENDSEC
  0
SECTION
  2
OBJECTS
  0
DICTIONARY
  5
FE
100
AcDbDictionary
  3
ACAD_GROUP
350
FF
  3
ACAD_LAYOUT
350
100
  3
ACAD_MLINESTYLE
350
101
  0
DICTIONARY
  5
FF
102
{ACAD_REACTORS
330
FE
102
}
330
FE
100
AcDbDictionary
  0
DICTIONARY
  5
100
102
{ACAD_REACTORS
330
FE
102
}
330
FE
100
AcDbDictionary
  3
Model
350
102
  3
ﾚｲｱｳﾄ1
350
103
  3
ﾚｲｱｳﾄ2
350
104
  0
DICTIONARY
  5
101
102
{ACAD_REACTORS
330
FE
102
}
330
FE
100
AcDbDictionary
  3
STANDARD
350
105
  0
LAYOUT
  5
102
102
{ACAD_REACTORS
330
100
102
}
330
100
100
AcDbPlotSettings
 70
11952
  4
A3
 44
297.000000
 45
420.000000
 73
  1
 72
  1
100
AcDbLayout
  1
Model
 71
0
330
F5
  0
LAYOUT
  5
103
102
{ACAD_REACTORS
330
100
102
}
330
100
100
AcDbPlotSettings
100
AcDbLayout
  1
ﾚｲｱｳﾄ1
 71
1
330
F6
  0
LAYOUT
  5
104
102
{ACAD_REACTORS
330
100
102
}
330
100
100
AcDbPlotSettings
100
AcDbLayout
  1
ﾚｲｱｳﾄ2
 71
2
330
F7
  0
MLINESTYLE
  5
105
102
{ACAD_REACTORS
330
101
102
}
330
101
100
AcDbMlineStyle
  2
STANDARD
 70
     0
  3

 62
   256
 51
90.00
 52
90.00
 71
     2
 49
0.50
 62
   256
  6
BYLAYER
 49
-0.50
 62
   256
  6
BYLAYER
  0
ENDSEC
  0
EOF
