  0
SECTION
  2
HEADER
  9
$ACADVER
  1
AC1015
  9
$ACADMAINTVER
 70
    20
  9
$DWGCODEPAGE
  3
ANSI_932
  9
$INSBASE
 10
0.0
 20
0.0
 30
0.0
  9
$EXTMIN
 10
10.0
 20
9.999999999999998
 30
0.0
  9
$EXTMAX
 10
336.3018759999998
 20
265.7203379999999
 30
0.0
  9
$LIMMIN
 10
0.0
 20
0.0
  9
$LIMMAX
 10
396.0
 20
273.0
  9
$ORTHOMODE
 70
     1
  9
$REGENMODE
 70
     1
  9
$FILLMODE
 70
     1
  9
$QTEXTMODE
 70
     0
  9
$MIRRTEXT
 70
     1
  9
$LTSCALE
 40
20.0
  9
$ATTMODE
 70
     1
  9
$TEXTSIZE
 40
5.0
  9
$TRACEWID
 40
1.0
  9
$TEXTSTYLE
  7
STANDARD
  9
$CLAYER
  8
0
  9
$CELTYPE
  6
BYLAYER
  9
$CECOLOR
 62
   256
  9
$CELTSCALE
 40
1.0
  9
$DISPSILH
 70
     0
  9
$DIMSCALE
 40
1.0
  9
$DIMASZ
 40
3.0
  9
$DIMEXO
 40
1.0
  9
$DIMDLI
 40
10.0
  9
$DIMRND
 40
0.0
  9
$DIMDLE
 40
0.0
  9
$DIMEXE
 40
1.0
  9
$DIMTP
 40
0.0
  9
$DIMTM
 40
0.0
  9
$DIMTXT
 40
3.2
  9
$DIMCEN
 40
0.0
  9
$DIMTSZ
 40
0.0
  9
$DIMTOL
 70
     0
  9
$DIMLIM
 70
     0
  9
$DIMTIH
 70
     0
  9
$DIMTOH
 70
     0
  9
$DIMSE1
 70
     0
  9
$DIMSE2
 70
     0
  9
$DIMTAD
 70
     3
  9
$DIMZIN
 70
     8
  9
$DIMBLK
  1

  9
$DIMASO
 70
     1
  9
$DIMSHO
 70
     1
  9
$DIMPOST
  1

  9
$DIMAPOST
  1

  9
$DIMALT
 70
     0
  9
$DIMALTD
 70
     2
  9
$DIMALTF
 40
25.4
  9
$DIMLFAC
 40
1.0
  9
$DIMTOFL
 70
     1
  9
$DIMTVP
 40
0.0
  9
$DIMTIX
 70
     0
  9
$DIMSOXD
 70
     0
  9
$DIMSAH
 70
     1
  9
$DIMBLK1
  1

  9
$DIMBLK2
  1

  9
$DIMSTYLE
  2
STANDARD
  9
$DIMCLRD
 70
     0
  9
$DIMCLRE
 70
     0
  9
$DIMCLRT
 70
     0
  9
$DIMTFAC
 40
1.0
  9
$DIMGAP
 40
1.0
  9
$DIMJUST
 70
     0
  9
$DIMSD1
 70
     0
  9
$DIMSD2
 70
     0
  9
$DIMTOLJ
 70
     1
  9
$DIMTZIN
 70
     0
  9
$DIMALTZ
 70
     0
  9
$DIMALTTZ
 70
     0
  9
$DIMUPT
 70
     0
  9
$DIMDEC
 70
     4
  9
$DIMTDEC
 70
     4
  9
$DIMALTU
 70
     2
  9
$DIMALTTD
 70
     2
  9
$DIMTXSTY
  7
STANDARD
  9
$DIMAUNIT
 70
     0
  9
$DIMADEC
 70
     0
  9
$DIMALTRND
 40
0.0
  9
$DIMAZIN
 70
     0
  9
$DIMDSEP
 70
    46
  9
$DIMATFIT
 70
     3
  9
$DIMFRAC
 70
     0
  9
$DIMLDRBLK
  1

  9
$DIMLUNIT
 70
     2
  9
$DIMLWD
 70
    -2
  9
$DIMLWE
 70
    -2
  9
$DIMTMOVE
 70
     0
  9
$LUNITS
 70
     2
  9
$LUPREC
 70
     4
  9
$SKETCHINC
 40
1.0
  9
$FILLETRAD
 40
0.0
  9
$AUNITS
 70
     0
  9
$AUPREC
 70
     2
  9
$MENU
  1
.
  9
$ELEVATION
 40
0.0
  9
$PELEVATION
 40
0.0
  9
$THICKNESS
 40
0.0
  9
$LIMCHECK
 70
     0
  9
$CHAMFERA
 40
10.0
  9
$CHAMFERB
 40
10.0
  9
$CHAMFERC
 40
0.0
  9
$CHAMFERD
 40
0.0
  9
$SKPOLY
 70
     0
  9
$TDCREATE
 40
2451066.399414468
  9
$TDUCREATE
 40
2451066.024414468
  9
$TDUPDATE
 40
2457192.598666841
  9
$TDUUPDATE
 40
2457192.223666840
  9
$TDINDWG
 40
0.0407917130
  9
$TDUSRTIMER
 40
0.0407910532
  9
$USRTIMER
 70
     1
  9
$ANGBASE
 50
0.0
  9
$ANGDIR
 70
     0
  9
$PDMODE
 70
     0
  9
$PDSIZE
 40
0.0
  9
$PLINEWID
 40
0.0
  9
$SPLFRAME
 70
     0
  9
$SPLINETYPE
 70
     6
  9
$SPLINESEGS
 70
     8
  9
$HANDSEED
  5
B303
  9
$SURFTAB1
 70
     6
  9
$SURFTAB2
 70
     6
  9
$SURFTYPE
 70
     6
  9
$SURFU
 70
     6
  9
$SURFV
 70
     6
  9
$UCSBASE
  2

  9
$UCSNAME
  2

  9
$UCSORG
 10
0.0
 20
0.0
 30
0.0
  9
$UCSXDIR
 10
1.0
 20
0.0
 30
0.0
  9
$UCSYDIR
 10
0.0
 20
1.0
 30
0.0
  9
$UCSORTHOREF
  2

  9
$UCSORTHOVIEW
 70
     0
  9
$UCSORGTOP
 10
0.0
 20
0.0
 30
0.0
  9
$UCSORGBOTTOM
 10
0.0
 20
0.0
 30
0.0
  9
$UCSORGLEFT
 10
0.0
 20
0.0
 30
0.0
  9
$UCSORGRIGHT
 10
0.0
 20
0.0
 30
0.0
  9
$UCSORGFRONT
 10
0.0
 20
0.0
 30
0.0
  9
$UCSORGBACK
 10
0.0
 20
0.0
 30
0.0
  9
$PUCSBASE
  2

  9
$PUCSNAME
  2

  9
$PUCSORG
 10
0.0
 20
0.0
 30
0.0
  9
$PUCSXDIR
 10
1.0
 20
0.0
 30
0.0
  9
$PUCSYDIR
 10
0.0
 20
1.0
 30
0.0
  9
$PUCSORTHOREF
  2

  9
$PUCSORTHOVIEW
 70
     0
  9
$PUCSORGTOP
 10
0.0
 20
0.0
 30
0.0
  9
$PUCSORGBOTTOM
 10
0.0
 20
0.0
 30
0.0
  9
$PUCSORGLEFT
 10
0.0
 20
0.0
 30
0.0
  9
$PUCSORGRIGHT
 10
0.0
 20
0.0
 30
0.0
  9
$PUCSORGFRONT
 10
0.0
 20
0.0
 30
0.0
  9
$PUCSORGBACK
 10
0.0
 20
0.0
 30
0.0
  9
$USERI1
 70
     0
  9
$USERI2
 70
     0
  9
$USERI3
 70
     0
  9
$USERI4
 70
     0
  9
$USERI5
 70
     0
  9
$USERR1
 40
0.0
  9
$USERR2
 40
0.0
  9
$USERR3
 40
0.0
  9
$USERR4
 40
0.0
  9
$USERR5
 40
0.0
  9
$WORLDVIEW
 70
     1
  9
$SHADEDGE
 70
     3
  9
$SHADEDIF
 70
    70
  9
$TILEMODE
 70
     1
  9
$MAXACTVP
 70
    16
  9
$PINSBASE
 10
0.0
 20
0.0
 30
0.0
  9
$PLIMCHECK
 70
     0
  9
$PEXTMIN
 10
1.000000000000000E+20
 20
1.000000000000000E+20
 30
1.000000000000000E+20
  9
$PEXTMAX
 10
-1.000000000000000E+20
 20
-1.000000000000000E+20
 30
-1.000000000000000E+20
  9
$PLIMMIN
 10
0.0
 20
0.0
  9
$PLIMMAX
 10
420.0
 20
297.0
  9
$UNITMODE
 70
     0
  9
$VISRETAIN
 70
     0
  9
$PLINEGEN
 70
     0
  9
$PSLTSCALE
 70
     0
  9
$TREEDEPTH
 70
  3020
  9
$CMLSTYLE
  2
STANDARD
  9
$CMLJUST
 70
     0
  9
$CMLSCALE
 40
1.0
  9
$PROXYGRAPHICS
 70
     1
  9
$MEASUREMENT
 70
     0
  9
$CELWEIGHT
370
    -1
  9
$ENDCAPS
280
     0
  9
$JOINSTYLE
280
     0
  9
$LWDISPLAY
290
     0
  9
$INSUNITS
 70
     0
  9
$HYPERLINKBASE
  1

  9
$STYLESHEET
  1

  9
$XEDIT
290
     1
  9
$CEPSNTYPE
380
     0
  9
$PSTYLEMODE
290
     1
  9
$FINGERPRINTGUID
  2
{2E6DFD5C-4779-41DF-8A30-BC9214761153}
  9
$VERSIONGUID
  2
{4497FF83-7800-4AAF-836B-860A03474149}
  9
$EXTNAMES
290
     1
  9
$PSVPSCALE
 40
0.0
  9
$OLESTARTUP
290
     0
  0
ENDSEC
  0
SECTION
  2
CLASSES
  0
CLASS
  1
ACDBDICTIONARYWDFLT
  2
AcDbDictionaryWithDefault
  3
ObjectDBX Classes
 90
        0
280
     0
281
     0
  0
CLASS
  1
ACDBPLACEHOLDER
  2
AcDbPlaceHolder
  3
ObjectDBX Classes
 90
        0
280
     0
281
     0
  0
CLASS
  1
LAYOUT
  2
AcDbLayout
  3
ObjectDBX Classes
 90
        0
280
     0
281
     0
  0
CLASS
  1
DICTIONARYVAR
  2
AcDbDictionaryVar
  3
ObjectDBX Classes
 90
        0
280
     0
281
     0
  0
CLASS
  1
MATERIAL
  2
AcDbMaterial
  3
ObjectDBX Classes
 90
     1153
280
     0
281
     0
  0
CLASS
  1
VISUALSTYLE
  2
AcDbVisualStyle
  3
ObjectDBX Classes
 90
     4095
280
     0
281
     0
  0
CLASS
  1
TABLESTYLE
  2
AcDbTableStyle
  3
ObjectDBX Classes
 90
     4095
280
     0
281
     0
  0
CLASS
  1
SCALE
  2
AcDbScale
  3
ObjectDBX Classes
 90
     1153
280
     0
281
     0
  0
CLASS
  1
MLEADERSTYLE
  2
AcDbMLeaderStyle
  3
ACDB_MLEADERSTYLE_CLASS
 90
     4095
280
     0
281
     0
  0
CLASS
  1
ACDBSECTIONVIEWSTYLE
  2
AcDbSectionViewStyle
  3
ObjectDBX Classes
 90
     1025
280
     0
281
     0
  0
CLASS
  1
ACDBDETAILVIEWSTYLE
  2
AcDbDetailViewStyle
  3
ObjectDBX Classes
 90
     1025
280
     0
281
     0
  0
CLASS
  1
CELLSTYLEMAP
  2
AcDbCellStyleMap
  3
ObjectDBX Classes
 90
     1152
280
     0
281
     0
  0
ENDSEC
  0
SECTION
  2
TABLES
  0
TABLE
  2
VPORT
  5
9CC5
330
0
100
AcDbSymbolTable
 70
     1
  0
VPORT
  5
B24E
330
9CC5
100
AcDbSymbolTableRecord
100
AcDbViewportTableRecord
  2
*ACTIVE
 70
     0
 10
0.0
 20
0.0
 11
1.0
 21
1.0
 12
278.4101938316694
 22
137.8642508203212
 13
0.0
 23
0.0
 14
10.0
 24
10.0
 15
10.0
 25
10.0
 16
0.0
 26
0.0
 36
1.0
 17
0.0
 27
0.0
 37
0.0
 40
257.739155091779
 41
1.899603698811096
 42
50.0
 43
0.0
 44
0.0
 50
0.0
 51
0.0
 71
     0
 72
   100
 73
     1
 74
     0
 75
     0
 76
     0
 77
     0
 78
     0
281
     0
 65
     1
110
0.0
120
0.0
130
0.0
111
1.0
121
0.0
131
0.0
112
0.0
122
1.0
132
0.0
 79
     0
146
0.0
1001
ACAD_NAV_VCDISPLAY
1070
     3
  0
ENDTAB
  0
TABLE
  2
LTYPE
  5
9CC2
330
0
100
AcDbSymbolTable
 70
     4
  0
LTYPE
  5
9CD0
330
9CC2
100
AcDbSymbolTableRecord
100
AcDbLinetypeTableRecord
  2
BYBLOCK
 70
     0
  3

 72
    65
 73
     0
 40
0.0
  0
LTYPE
  5
9CD1
330
9CC2
100
AcDbSymbolTableRecord
100
AcDbLinetypeTableRecord
  2
BYLAYER
 70
     0
  3

 72
    65
 73
     0
 40
0.0
  0
LTYPE
  5
9CD2
330
9CC2
100
AcDbSymbolTableRecord
100
AcDbLinetypeTableRecord
  2
CONTINUOUS
 70
     0
  3
Solid line
 72
    65
 73
     0
 40
0.0
  0
LTYPE
  5
9CE0
330
9CC2
100
AcDbSymbolTableRecord
100
AcDbLinetypeTableRecord
  2
DASHED
 70
     0
  3
__ __ __ __ __ __ __ __ __ __ __ __ __ __ __ __
 72
    65
 73
     2
 40
0.75
 49
0.5
 74
     0
 49
-0.25
 74
     0
  0
LTYPE
  5
9CE1
330
9CC2
100
AcDbSymbolTableRecord
100
AcDbLinetypeTableRecord
  2
CENTER
 70
     0
  3
____ _ ____ _ ____ _ ____ _ ____ _ ____ _ ____ 
 72
    65
 73
     4
 40
2.0
 49
1.25
 74
     0
 49
-0.25
 74
     0
 49
0.25
 74
     0
 49
-0.25
 74
     0
  0
LTYPE
  5
9CE2
330
9CC2
100
AcDbSymbolTableRecord
100
AcDbLinetypeTableRecord
  2
PHANTOM
 70
     0
  3
______  __  __  ______  __  __  ______  __  __ 
 72
    65
 73
     6
 40
2.5
 49
1.25
 74
     0
 49
-0.25
 74
     0
 49
0.25
 74
     0
 49
-0.25
 74
     0
 49
0.25
 74
     0
 49
-0.25
 74
     0
  0
ENDTAB
  0
TABLE
  2
LAYER
  5
9CBF
330
0
100
AcDbSymbolTable
 70
     8
  0
LAYER
  5
9CCD
102
{ACAD_XDICTIONARY
360
B2A7
102
}
330
9CBF
100
AcDbSymbolTableRecord
100
AcDbLayerTableRecord
  2
0
 70
     0
 62
     7
  6
CONTINUOUS
370
    -3
390
B255
  0
LAYER
  5
9CE3
102
{ACAD_XDICTIONARY
360
B2A9
102
}
330
9CBF
100
AcDbSymbolTableRecord
100
AcDbLayerTableRecord
  2
4
 70
     0
 62
     1
  6
CENTER
370
    -3
390
B255
  0
LAYER
  5
9CE4
102
{ACAD_XDICTIONARY
360
B2AB
102
}
330
9CBF
100
AcDbSymbolTableRecord
100
AcDbLayerTableRecord
  2
5
 70
     0
 62
     6
  6
PHANTOM
370
    -3
390
B255
  0
LAYER
  5
9CE5
102
{ACAD_XDICTIONARY
360
B2AD
102
}
330
9CBF
100
AcDbSymbolTableRecord
100
AcDbLayerTableRecord
  2
1
 70
     0
 62
     7
  6
CONTINUOUS
370
    -3
390
B255
  0
LAYER
  5
9CE6
102
{ACAD_XDICTIONARY
360
B2AF
102
}
330
9CBF
100
AcDbSymbolTableRecord
100
AcDbLayerTableRecord
  2
2
 70
     0
 62
     4
  6
CONTINUOUS
370
    -3
390
B255
  0
LAYER
  5
9CE7
102
{ACAD_XDICTIONARY
360
B2B1
102
}
330
9CBF
100
AcDbSymbolTableRecord
100
AcDbLayerTableRecord
  2
3
 70
     0
 62
     2
  6
DASHED
370
    -3
390
B255
  0
LAYER
  5
9CE8
102
{ACAD_XDICTIONARY
360
B2B3
102
}
330
9CBF
100
AcDbSymbolTableRecord
100
AcDbLayerTableRecord
  2
6
 70
     0
 62
     5
  6
CONTINUOUS
370
    -3
390
B255
  0
LAYER
  5
9CE9
102
{ACAD_XDICTIONARY
360
B2B5
102
}
330
9CBF
100
AcDbSymbolTableRecord
100
AcDbLayerTableRecord
  2
7
 70
     0
 62
     3
  6
CONTINUOUS
370
    -3
390
B255
  0
ENDTAB
  0
TABLE
  2
STYLE
  5
9CC0
330
0
100
AcDbSymbolTable
 70
     1
  0
STYLE
  5
9CCE
330
9CC0
100
AcDbSymbolTableRecord
100
AcDbTextStyleTableRecord
  2
STANDARD
 70
     0
 40
0.0
 41
1.0
 50
0.0
 71
     0
 42
5.0
  3
txt
  4

  0
ENDTAB
  0
TABLE
  2
VIEW
  5
9CC3
330
0
100
AcDbSymbolTable
 70
     0
  0
ENDTAB
  0
TABLE
  2
UCS
  5
9CC4
330
0
100
AcDbSymbolTable
 70
     0
  0
ENDTAB
  0
TABLE
  2
APPID
  5
9CC6
330
0
100
AcDbSymbolTable
 70
     3
  0
APPID
  5
9CCF
330
9CC6
100
AcDbSymbolTableRecord
100
AcDbRegAppTableRecord
  2
ACAD
 70
     0
  0
APPID
  5
B2C1
330
9CC6
100
AcDbSymbolTableRecord
100
AcDbRegAppTableRecord
  2
ACAD_NAV_VCDISPLAY
 70
     0
  0
APPID
  5
B2FA
330
9CC6
100
AcDbSymbolTableRecord
100
AcDbRegAppTableRecord
  2
ACAD_MLEADERVER
 70
     0
  0
ENDTAB
  0
TABLE
  2
DIMSTYLE
  5
9CC7
330
0
100
AcDbSymbolTable
 70
     1
100
AcDbDimStyleTable
 71
     0
  0
DIMSTYLE
105
9CEB
330
9CC7
100
AcDbSymbolTableRecord
100
AcDbDimStyleTableRecord
  2
STANDARD
 70
     0
 41
3.0
 42
1.0
 43
10.0
 44
1.0
 73
     0
 74
     0
 77
     3
 78
     8
140
3.2
141
0.0
147
1.0
172
     1
173
     1
284
     8
285
     8
286
     8
340
9CCE
  0
ENDTAB
  0
TABLE
  2
BLOCK_RECORD
  5
9CBE
330
0
100
AcDbSymbolTable
 70
     0
  0
BLOCK_RECORD
  5
9CDB
102
{ACAD_XDICTIONARY
360
9F34
102
}
330
9CBE
100
AcDbSymbolTableRecord
100
AcDbBlockTableRecord
  2
*MODEL_SPACE
340
B2A3
  0
BLOCK_RECORD
  5
9CD7
102
{ACAD_XDICTIONARY
360
9F32
102
}
330
9CBE
100
AcDbSymbolTableRecord
100
AcDbBlockTableRecord
  2
*PAPER_SPACE
340
B2A4
  0
ENDTAB
  0
ENDSEC
  0
SECTION
  2
BLOCKS
  0
BLOCK
  5
9CDC
330
9CDB
100
AcDbEntity
  8
0
100
AcDbBlockBegin
  2
*MODEL_SPACE
 70
     0
 10
0.0
 20
0.0
 30
0.0
  3
*MODEL_SPACE
  1

  0
ENDBLK
  5
9CDD
330
9CDB
100
AcDbEntity
  8
0
100
AcDbBlockEnd
  0
BLOCK
  5
9CD8
330
9CD7
100
AcDbEntity
 67
     1
  8
0
100
AcDbBlockBegin
  2
*PAPER_SPACE
 70
     0
 10
0.0
 20
0.0
 30
0.0
  3
*PAPER_SPACE
  1

  0
ENDBLK
  5
9CD9
330
9CD7
100
AcDbEntity
 67
     1
  8
0
100
AcDbBlockEnd
  0
ENDSEC
  0
SECTION
  2
ENTITIES
  0
TEXT
  5
9CF3
330
9CDB
100
AcDbEntity
  8
7
  6
Continuous
100
AcDbText
 10
10.0
 20
18.0
 30
0.0
 40
3.0
  1
TYPE No.TL-11-1
100
AcDbText
  0
TEXT
  5
9CF4
330
9CDB
100
AcDbEntity
  8
7
  6
Continuous
100
AcDbText
 10
10.0
 20
26.0
 30
0.0
 40
3.0
  1
CODE No.1017
100
AcDbText
  0
TEXT
  5
9CF5
330
9CDB
100
AcDbEntity
  8
1
  6
Continuous
100
AcDbText
 10
10.0
 20
10.0
 30
0.0
 40
1.399999999999999
  1
LAYER
100
AcDbText
  0
TEXT
  5
9CF6
330
9CDB
100
AcDbEntity
  8
1
  6
Continuous
100
AcDbText
 10
17.97951099999998
 20
10.04873699999998
 30
0.0
 40
1.399999999999999
  1
1
100
AcDbText
  0
TEXT
  5
9CF7
330
9CDB
100
AcDbEntity
  8
7
  6
Continuous
100
AcDbText
 10
29.97951099999999
 20
10.04873699999998
 30
0.0
 40
1.399999999999999
  1
7
100
AcDbText
  0
TEXT
  5
9CF8
330
9CDB
100
AcDbEntity
  8
4
  6
CENTER
100
AcDbText
 10
23.97951099999999
 20
10.04873699999998
 30
0.0
 40
1.399999999999999
  1
4
100
AcDbText
  0
TEXT
  5
9CF9
330
9CDB
100
AcDbEntity
  8
3
  6
DASHED
100
AcDbText
 10
21.979511
 20
10.04873699999998
 30
0.0
 40
1.399999999999999
  1
3
100
AcDbText
  0
TEXT
  5
9CFA
330
9CDB
100
AcDbEntity
  8
2
  6
Continuous
100
AcDbText
 10
19.97951099999998
 20
10.04873699999998
 30
0.0
 40
1.399999999999999
  1
2
100
AcDbText
  0
TEXT
  5
9CFB
330
9CDB
100
AcDbEntity
  8
6
  6
Continuous
100
AcDbText
 10
27.979511
 20
10.04873699999998
 30
0.0
 40
1.399999999999999
  1
6
100
AcDbText
  0
TEXT
  5
9CFC
330
9CDB
100
AcDbEntity
  8
5
  6
PHANTOM
100
AcDbText
 10
25.97951099999999
 20
10.04873699999998
 30
0.0
 40
1.399999999999999
  1
5
100
AcDbText
  0
LINE
  5
9D5C
330
9CDB
100
AcDbEntity
  8
1
  6
Continuous
100
AcDbLine
 10
48.814375
 20
41.315827
 30
0.0
 11
26.314375
 21
41.315827
 31
0.0
  0
LINE
  5
9D5D
330
9CDB
100
AcDbEntity
  8
4
  6
CENTER
 48
0.2
100
AcDbLine
 10
37.564375
 20
36.315827
 30
0.0
 11
37.564375
 21
63.015827
 31
0.0
  0
LINE
  5
9D5E
330
9CDB
100
AcDbEntity
  8
1
  6
Continuous
100
AcDbLine
 10
45.564375
 20
41.315827
 30
0.0
 11
45.564375
 21
44.515827
 31
0.0
  0
LINE
  5
9D5F
330
9CDB
100
AcDbEntity
  8
1
  6
Continuous
100
AcDbLine
 10
29.56437499999999
 20
41.315827
 30
0.0
 11
29.56437499999999
 21
44.515827
 31
0.0
  0
LINE
  5
9D60
330
9CDB
100
AcDbEntity
  8
1
  6
Continuous
100
AcDbLine
 10
48.814375
 20
41.715827
 30
0.0
 11
46.814375
 21
41.715827
 31
0.0
  0
LINE
  5
9D61
330
9CDB
100
AcDbEntity
  8
1
  6
Continuous
100
AcDbLine
 10
28.31437499999999
 20
41.715827
 30
0.0
 11
26.314375
 21
41.715827
 31
0.0
  0
LINE
  5
9D62
330
9CDB
100
AcDbEntity
  8
1
  6
Continuous
100
AcDbLine
 10
46.564347
 20
56.515827
 30
0.0
 11
42.50897499999999
 21
56.515827
 31
0.0
  0
LINE
  5
9D63
330
9CDB
100
AcDbEntity
  8
1
  6
Continuous
100
AcDbLine
 10
46.59817499999999
 20
54.515827
 30
0.0
 11
45.564375
 21
54.515827
 31
0.0
  0
LINE
  5
9D64
330
9CDB
100
AcDbEntity
  8
1
  6
Continuous
100
AcDbLine
 10
32.619675
 20
56.515827
 30
0.0
 11
28.564302
 21
56.515827
 31
0.0
  0
LINE
  5
9D65
330
9CDB
100
AcDbEntity
  8
1
  6
Continuous
100
AcDbLine
 10
29.56437499999999
 20
54.515827
 30
0.0
 11
28.564375
 21
54.515827
 31
0.0
  0
LINE
  5
9D66
330
9CDB
100
AcDbEntity
  8
1
  6
Continuous
100
AcDbLine
 10
45.564375
 20
51.015827
 30
0.0
 11
45.564375
 21
56.515827
 31
0.0
  0
LINE
  5
9D67
330
9CDB
100
AcDbEntity
  8
1
  6
Continuous
100
AcDbLine
 10
29.56437499999999
 20
51.015827
 30
0.0
 11
29.56437499999999
 21
56.515827
 31
0.0
  0
LINE
  5
9D68
330
9CDB
100
AcDbEntity
  8
1
  6
Continuous
100
AcDbLine
 10
48.814375
 20
41.315827
 30
0.0
 11
48.814375
 21
44.515827
 31
0.0
  0
LINE
  5
9D69
330
9CDB
100
AcDbEntity
  8
1
  6
Continuous
100
AcDbLine
 10
26.314375
 20
41.315827
 30
0.0
 11
26.314375
 21
44.515827
 31
0.0
  0
LINE
  5
9D6A
330
9CDB
100
AcDbEntity
  8
1
  6
Continuous
100
AcDbLine
 10
48.814375
 20
52.015827
 30
0.0
 11
48.814375
 21
51.21582700000001
 31
0.0
  0
LINE
  5
9D6B
330
9CDB
100
AcDbEntity
  8
1
  6
Continuous
100
AcDbLine
 10
26.314375
 20
52.015827
 30
0.0
 11
26.314375
 21
51.21582700000001
 31
0.0
  0
LINE
  5
9D6C
330
9CDB
100
AcDbEntity
  8
1
  6
Continuous
100
AcDbLine
 10
55.564375
 20
52.015827
 30
0.0
 11
49.56437499999999
 21
52.015827
 31
0.0
  0
LINE
  5
9D6D
330
9CDB
100
AcDbEntity
  8
1
  6
Continuous
100
AcDbLine
 10
55.564375
 20
46.41582699999999
 30
0.0
 11
49.56437499999999
 21
46.41582699999999
 31
0.0
  0
LINE
  5
9D6E
330
9CDB
100
AcDbEntity
  8
1
  6
Continuous
100
AcDbLine
 10
52.764375
 20
46.085327
 30
0.0
 11
52.764375
 21
46.41582699999999
 31
0.0
  0
LINE
  5
9D6F
330
9CDB
100
AcDbEntity
  8
1
  6
Continuous
100
AcDbLine
 10
49.56437499999999
 20
41.615988
 30
0.0
 11
49.56437499999999
 21
52.015827
 31
0.0
  0
LINE
  5
9D70
330
9CDB
100
AcDbEntity
  8
1
  6
Continuous
100
AcDbLine
 10
25.56437499999999
 20
41.615988
 30
0.0
 11
25.56437499999999
 21
52.015827
 31
0.0
  0
LINE
  5
9D71
330
9CDB
100
AcDbEntity
  8
1
  6
Continuous
100
AcDbLine
 10
58.364175
 20
55.56582699999999
 30
0.0
 11
52.764375
 21
55.56582699999999
 31
0.0
  0
LINE
  5
9D72
330
9CDB
100
AcDbEntity
  8
1
  6
Continuous
100
AcDbLine
 10
58.364175
 20
42.865827
 30
0.0
 11
52.764375
 21
42.865827
 31
0.0
  0
LINE
  5
9D73
330
9CDB
100
AcDbEntity
  8
1
  6
Continuous
100
AcDbLine
 10
16.764375
 20
42.865827
 30
0.0
 11
16.764375
 21
55.56582699999999
 31
0.0
  0
LINE
  5
9D74
330
9CDB
100
AcDbEntity
  8
1
  6
Continuous
100
AcDbLine
 10
58.364175
 20
42.865827
 30
0.0
 11
58.364175
 21
55.56582699999999
 31
0.0
  0
LINE
  5
9D75
330
9CDB
100
AcDbEntity
  8
1
  6
Continuous
100
AcDbLine
 10
55.564375
 20
42.865827
 30
0.0
 11
55.564375
 21
55.56582699999999
 31
0.0
  0
LINE
  5
9D76
330
9CDB
100
AcDbEntity
  8
1
  6
Continuous
100
AcDbLine
 10
19.56437499999998
 20
42.865827
 30
0.0
 11
19.56437499999998
 21
55.56582699999999
 31
0.0
  0
LINE
  5
9D77
330
9CDB
100
AcDbEntity
  8
1
  6
Continuous
100
AcDbLine
 10
22.364375
 20
55.56582699999999
 30
0.0
 11
16.764375
 21
55.56582699999999
 31
0.0
  0
LINE
  5
9D78
330
9CDB
100
AcDbEntity
  8
1
  6
Continuous
100
AcDbLine
 10
22.364375
 20
42.865827
 30
0.0
 11
16.764375
 21
42.865827
 31
0.0
  0
LINE
  5
9D79
330
9CDB
100
AcDbEntity
  8
1
  6
Continuous
100
AcDbLine
 10
25.56437499999999
 20
52.015827
 30
0.0
 11
19.56437499999998
 21
52.015827
 31
0.0
  0
LINE
  5
9D7A
330
9CDB
100
AcDbEntity
  8
1
  6
Continuous
100
AcDbLine
 10
25.56437499999999
 20
46.41582699999999
 30
0.0
 11
19.56437499999998
 21
46.41582699999999
 31
0.0
  0
LINE
  5
9D7B
330
9CDB
100
AcDbEntity
  8
1
  6
Continuous
100
AcDbLine
 10
49.56437499999999
 20
47.21582699999999
 30
0.0
 11
48.726475
 21
47.21582699999999
 31
0.0
  0
LINE
  5
9D7C
330
9CDB
100
AcDbEntity
  8
1
  6
Continuous
100
AcDbLine
 10
49.56437499999999
 20
51.21582700000001
 30
0.0
 11
48.635075
 21
51.21582700000001
 31
0.0
  0
LINE
  5
9D7D
330
9CDB
100
AcDbEntity
  8
1
  6
Continuous
100
AcDbLine
 10
26.499475
 20
51.21582700000001
 30
0.0
 11
25.56437499999999
 21
51.21582700000001
 31
0.0
  0
LINE
  5
9D7E
330
9CDB
100
AcDbEntity
  8
1
  6
Continuous
100
AcDbLine
 10
26.402175
 20
47.21582699999999
 30
0.0
 11
25.56437499999999
 21
47.21582699999999
 31
0.0
  0
LINE
  5
9D7F
330
9CDB
100
AcDbEntity
  8
1
  6
Continuous
100
AcDbLine
 10
53.31437499999999
 20
50.715827
 30
0.0
 11
52.364375
 21
50.715827
 31
0.0
  0
LINE
  5
9D80
330
9CDB
100
AcDbEntity
  8
1
  6
Continuous
100
AcDbLine
 10
53.31437499999999
 20
47.71582699999998
 30
0.0
 11
52.364375
 21
47.71582699999998
 31
0.0
  0
LINE
  5
9D81
330
9CDB
100
AcDbEntity
  8
1
  6
Continuous
100
AcDbLine
 10
53.31437499999999
 20
47.71582699999998
 30
0.0
 11
53.31437499999999
 21
50.715827
 31
0.0
  0
LINE
  5
9D82
330
9CDB
100
AcDbEntity
  8
1
  6
Continuous
100
AcDbLine
 10
21.81437499999999
 20
47.71582699999998
 30
0.0
 11
21.81437499999999
 21
50.715827
 31
0.0
  0
LINE
  5
9D83
330
9CDB
100
AcDbEntity
  8
1
  6
Continuous
100
AcDbLine
 10
22.764375
 20
50.715827
 30
0.0
 11
21.81437499999999
 21
50.715827
 31
0.0
  0
LINE
  5
9D84
330
9CDB
100
AcDbEntity
  8
1
  6
Continuous
100
AcDbLine
 10
22.764375
 20
47.71582699999998
 30
0.0
 11
21.81437499999999
 21
47.71582699999998
 31
0.0
  0
LINE
  5
9D85
330
9CDB
100
AcDbEntity
  8
1
  6
Continuous
100
AcDbLine
 10
52.764375
 20
42.865827
 30
0.0
 11
52.764375
 21
43.90922699999999
 31
0.0
  0
LINE
  5
9D86
330
9CDB
100
AcDbEntity
  8
1
  6
Continuous
100
AcDbLine
 10
52.764375
 20
54.522427
 30
0.0
 11
52.764375
 21
55.56582699999999
 31
0.0
  0
LINE
  5
9D87
330
9CDB
100
AcDbEntity
  8
1
  6
Continuous
100
AcDbLine
 10
22.764375
 20
41.615988
 30
0.0
 11
22.764375
 21
44.140427
 31
0.0
  0
LINE
  5
9D88
330
9CDB
100
AcDbEntity
  8
1
  6
Continuous
100
AcDbLine
 10
22.364375
 20
52.015827
 30
0.0
 11
22.364375
 21
52.346327
 31
0.0
  0
LINE
  5
9D89
330
9CDB
100
AcDbEntity
  8
1
  6
Continuous
100
AcDbLine
 10
22.764375
 20
46.41582699999999
 30
0.0
 11
22.764375
 21
52.015827
 31
0.0
  0
LINE
  5
9D8A
330
9CDB
100
AcDbEntity
  8
1
  6
Continuous
100
AcDbLine
 10
49.56437499999999
 20
44.515827
 30
0.0
 11
48.760075
 21
44.515827
 31
0.0
  0
LINE
  5
9D8B
330
9CDB
100
AcDbEntity
  8
1
  6
Continuous
100
AcDbLine
 10
26.368675
 20
44.515827
 30
0.0
 11
25.56437499999999
 21
44.515827
 31
0.0
  0
LINE
  5
9D8C
330
9CDB
100
AcDbEntity
  8
4
  6
CENTER
 48
0.2
100
AcDbLine
 10
37.564375
 20
265.7203379999999
 30
0.0
 11
37.564375
 21
243.320338
 31
0.0
  0
LINE
  5
9D8D
330
9CDB
100
AcDbEntity
  8
1
  6
Continuous
100
AcDbLine
 10
22.364375
 20
261.4703379999999
 30
0.0
 11
22.364375
 21
260.0203379999999
 31
0.0
  0
LINE
  5
9D8E
330
9CDB
100
AcDbEntity
  8
1
  6
Continuous
100
AcDbLine
 10
25.56437499999999
 20
262.7201769999999
 30
0.0
 11
25.56437499999999
 21
252.3203379999999
 31
0.0
  0
LINE
  5
9D8F
330
9CDB
100
AcDbEntity
  8
1
  6
Continuous
100
AcDbLine
 10
16.764375
 20
261.4703379999999
 30
0.0
 11
16.764375
 21
260.4273379999999
 31
0.0
  0
LINE
  5
9D90
330
9CDB
100
AcDbEntity
  8
1
  6
Continuous
100
AcDbLine
 10
19.56437499999998
 20
261.4703379999999
 30
0.0
 11
19.56437499999998
 21
257.920338
 31
0.0
  0
LINE
  5
9D91
330
9CDB
100
AcDbEntity
  8
1
  6
Continuous
100
AcDbLine
 10
22.364375
 20
248.7703379999999
 30
0.0
 11
16.764375
 21
248.7703379999999
 31
0.0
  0
LINE
  5
9D92
330
9CDB
100
AcDbEntity
  8
1
  6
Continuous
100
AcDbLine
 10
22.364375
 20
261.4703379999999
 30
0.0
 11
16.764375
 21
261.4703379999999
 31
0.0
  0
LINE
  5
9D93
330
9CDB
100
AcDbEntity
  8
1
  6
Continuous
100
AcDbLine
 10
25.56437499999999
 20
252.3203379999999
 30
0.0
 11
16.764375
 21
252.3203379999999
 31
0.0
  0
LINE
  5
9D94
330
9CDB
100
AcDbEntity
  8
1
  6
Continuous
100
AcDbLine
 10
21.81437499999999
 20
257.920338
 30
0.0
 11
16.764375
 21
257.920338
 31
0.0
  0
LINE
  5
9D95
330
9CDB
100
AcDbEntity
  8
1
  6
Continuous
100
AcDbLine
 10
26.314375
 20
253.120338
 30
0.0
 11
25.56437499999999
 21
253.120338
 31
0.0
  0
LINE
  5
9D96
330
9CDB
100
AcDbEntity
  8
1
  6
Continuous
100
AcDbLine
 10
22.764275
 20
262.7201769999999
 30
0.0
 11
22.764275
 21
252.3203379999999
 31
0.0
  0
LINE
  5
9D97
330
9CDB
100
AcDbEntity
  8
1
  6
Continuous
100
AcDbLine
 10
19.56437499999998
 20
252.3203379999999
 30
0.0
 11
19.56437499999998
 21
248.7703379999999
 31
0.0
  0
LINE
  5
9D98
330
9CDB
100
AcDbEntity
  8
1
  6
Continuous
100
AcDbLine
 10
16.764375
 20
249.813338
 30
0.0
 11
16.764375
 21
248.7703379999999
 31
0.0
  0
LINE
  5
9D99
330
9CDB
100
AcDbEntity
  8
1
  6
Continuous
100
AcDbLine
 10
16.764375
 20
258.2513379999999
 30
0.0
 11
16.764375
 21
251.9903379999998
 31
0.0
  0
LINE
  5
9D9A
330
9CDB
100
AcDbEntity
  8
1
  6
Continuous
100
AcDbLine
 10
49.56437499999999
 20
262.7201769999999
 30
0.0
 11
49.56437499999999
 21
252.3203379999999
 31
0.0
  0
LINE
  5
9D9B
330
9CDB
100
AcDbEntity
  8
1
  6
Continuous
100
AcDbLine
 10
58.364175
 20
261.4703379999999
 30
0.0
 11
58.364175
 21
260.4273379999999
 31
0.0
  0
LINE
  5
9D9C
330
9CDB
100
AcDbEntity
  8
1
  6
Continuous
100
AcDbLine
 10
55.564375
 20
261.4703379999999
 30
0.0
 11
55.564375
 21
257.920338
 31
0.0
  0
LINE
  5
9D9D
330
9CDB
100
AcDbEntity
  8
1
  6
Continuous
100
AcDbLine
 10
52.764375
 20
248.7703379999999
 30
0.0
 11
58.364175
 21
248.7703379999999
 31
0.0
  0
LINE
  5
9D9E
330
9CDB
100
AcDbEntity
  8
1
  6
Continuous
100
AcDbLine
 10
52.764375
 20
261.4703379999999
 30
0.0
 11
58.364175
 21
261.4703379999999
 31
0.0
  0
LINE
  5
9D9F
330
9CDB
100
AcDbEntity
  8
1
  6
Continuous
100
AcDbLine
 10
49.56437499999999
 20
252.3203379999999
 30
0.0
 11
58.364175
 21
252.3203379999999
 31
0.0
  0
LINE
  5
9DA0
330
9CDB
100
AcDbEntity
  8
1
  6
Continuous
100
AcDbLine
 10
53.31437499999999
 20
257.920338
 30
0.0
 11
58.364175
 21
257.920338
 31
0.0
  0
LINE
  5
9DA1
330
9CDB
100
AcDbEntity
  8
1
  6
Continuous
100
AcDbLine
 10
52.364375
 20
262.7201769999999
 30
0.0
 11
52.364375
 21
252.3203379999999
 31
0.0
  0
LINE
  5
9DA2
330
9CDB
100
AcDbEntity
  8
1
  6
Continuous
100
AcDbLine
 10
55.564375
 20
252.3203379999999
 30
0.0
 11
55.564375
 21
248.7703379999999
 31
0.0
  0
LINE
  5
9DA3
330
9CDB
100
AcDbEntity
  8
1
  6
Continuous
100
AcDbLine
 10
58.364175
 20
249.814338
 30
0.0
 11
58.364175
 21
248.7703379999999
 31
0.0
  0
LINE
  5
9DA4
330
9CDB
100
AcDbEntity
  8
1
  6
Continuous
100
AcDbLine
 10
58.364175
 20
258.2513379999999
 30
0.0
 11
58.364175
 21
251.9903379999998
 31
0.0
  0
LINE
  5
9DA5
330
9CDB
100
AcDbEntity
  8
1
  6
Continuous
100
AcDbLine
 10
48.814375
 20
253.120338
 30
0.0
 11
49.56437499999999
 21
253.120338
 31
0.0
  0
LINE
  5
9DA6
330
9CDB
100
AcDbEntity
  8
4
  6
CENTER
 48
0.2
100
AcDbLine
 10
55.764375
 20
258.5203379999999
 30
0.0
 11
19.364375
 21
258.5203379999999
 31
0.0
  0
LINE
  5
9DA7
330
9CDB
100
AcDbEntity
  8
1
  6
Continuous
100
AcDbLine
 10
49.56437499999999
 20
256.5203379999999
 30
0.0
 11
25.56437499999999
 21
256.5203379999999
 31
0.0
  0
LINE
  5
9DA8
330
9CDB
100
AcDbEntity
  8
1
  6
Continuous
100
AcDbLine
 10
49.56437499999999
 20
260.5203379999999
 30
0.0
 11
25.56437499999999
 21
260.5203379999999
 31
0.0
  0
LINE
  5
9DA9
330
9CDB
100
AcDbEntity
  8
1
  6
Continuous
100
AcDbLine
 10
53.31437499999999
 20
260.0203379999999
 30
0.0
 11
53.31437499999999
 21
257.0203379999999
 31
0.0
  0
LINE
  5
9DAA
330
9CDB
100
AcDbEntity
  8
1
  6
Continuous
100
AcDbLine
 10
21.81437499999999
 20
260.0203379999999
 30
0.0
 11
21.81437499999999
 21
257.0203379999999
 31
0.0
  0
LINE
  5
9DAB
330
9CDB
100
AcDbEntity
  8
1
  6
Continuous
100
AcDbLine
 10
21.81437499999999
 20
260.0203379999999
 30
0.0
 11
22.764275
 21
260.0203379999999
 31
0.0
  0
LINE
  5
9DAC
330
9CDB
100
AcDbEntity
  8
1
  6
Continuous
100
AcDbLine
 10
21.81437499999999
 20
257.0203379999999
 30
0.0
 11
22.764275
 21
257.0203379999999
 31
0.0
  0
LINE
  5
9DAD
330
9CDB
100
AcDbEntity
  8
1
  6
Continuous
100
AcDbLine
 10
52.364375
 20
260.0203379999999
 30
0.0
 11
53.31437499999999
 21
260.0203379999999
 31
0.0
  0
LINE
  5
9DAE
330
9CDB
100
AcDbEntity
  8
1
  6
Continuous
100
AcDbLine
 10
52.364375
 20
257.0203379999999
 30
0.0
 11
53.31437499999999
 21
257.0203379999999
 31
0.0
  0
LINE
  5
9DAF
330
9CDB
100
AcDbEntity
  8
4
  6
CENTER
 48
0.2
100
AcDbLine
 10
10.564375
 20
255.120338
 30
0.0
 11
64.564175
 21
255.120338
 31
0.0
  0
LINE
  5
9DB1
330
9CDB
100
AcDbEntity
  8
4
  6
CENTER
 48
0.2
100
AcDbLine
 10
64.564175
 20
49.215827
 30
0.0
 11
10.564375
 21
49.215827
 31
0.0
  0
LINE
  5
9DC0
330
9CDB
100
AcDbEntity
  8
1
  6
Continuous
100
AcDbLine
 10
22.364375
 20
252.3203379999999
 30
0.0
 11
22.364375
 21
248.7703379999999
 31
0.0
  0
LINE
  5
9DC1
330
9CDB
100
AcDbEntity
  8
1
  6
Continuous
100
AcDbLine
 10
52.764375
 20
248.7703379999999
 30
0.0
 11
52.764375
 21
252.3203379999999
 31
0.0
  0
LINE
  5
9DC2
330
9CDB
100
AcDbEntity
  8
1
  6
Continuous
100
AcDbLine
 10
52.764375
 20
260.0203379999999
 30
0.0
 11
52.764375
 21
261.4703379999999
 31
0.0
  0
LINE
  5
9DC3
330
9CDB
100
AcDbEntity
  8
1
  6
Continuous
100
AcDbLine
 10
26.314375
 20
263.0203379999999
 30
0.0
 11
48.814375
 21
263.0203379999999
 31
0.0
  0
LINE
  5
9DC4
330
9CDB
100
AcDbEntity
  8
1
  6
Continuous
100
AcDbLine
 10
48.31437499999999
 20
256.5203379999999
 30
0.0
 11
48.31437499999999
 21
249.820338
 31
0.0
  0
LINE
  5
9DC5
330
9CDB
100
AcDbEntity
  8
1
  6
Continuous
100
AcDbLine
 10
26.81437499999999
 20
256.5203379999999
 30
0.0
 11
26.81437499999999
 21
249.820338
 31
0.0
  0
LINE
  5
9DC6
330
9CDB
100
AcDbEntity
  8
1
  6
Continuous
100
AcDbLine
 10
28.814375
 20
247.820338
 30
0.0
 11
46.31437499999999
 21
247.820338
 31
0.0
  0
LINE
  5
9DC7
330
9CDB
100
AcDbEntity
  8
1
  6
Continuous
100
AcDbLine
 10
26.314375
 20
255.520338
 30
0.0
 11
26.314375
 21
252.3203379999999
 31
0.0
  0
LINE
  5
9DC8
330
9CDB
100
AcDbEntity
  8
1
  6
Continuous
100
AcDbLine
 10
48.814375
 20
255.520338
 30
0.0
 11
48.814375
 21
252.3203379999999
 31
0.0
  0
LINE
  5
9DC9
330
9CDB
100
AcDbEntity
  8
1
  6
Continuous
100
AcDbLine
 10
52.364375
 20
41.615988
 30
0.0
 11
52.364375
 21
44.140427
 31
0.0
  0
LINE
  5
9DCA
330
9CDB
100
AcDbEntity
  8
1
  6
Continuous
100
AcDbLine
 10
22.364375
 20
42.865827
 30
0.0
 11
22.364375
 21
43.90922699999999
 31
0.0
  0
LINE
  5
9DCB
330
9CDB
100
AcDbEntity
  8
1
  6
Continuous
100
AcDbLine
 10
22.364375
 20
46.085327
 30
0.0
 11
22.364375
 21
46.41582699999999
 31
0.0
  0
LINE
  5
9DCC
330
9CDB
100
AcDbEntity
  8
1
  6
Continuous
100
AcDbLine
 10
22.364375
 20
54.522427
 30
0.0
 11
22.364375
 21
55.56582699999999
 31
0.0
  0
LINE
  5
9DCD
330
9CDB
100
AcDbEntity
  8
1
  6
Continuous
100
AcDbLine
 10
52.364375
 20
46.41582699999999
 30
0.0
 11
52.364375
 21
52.015827
 31
0.0
  0
LINE
  5
9DCE
330
9CDB
100
AcDbEntity
  8
1
  6
Continuous
100
AcDbLine
 10
52.764375
 20
52.015827
 30
0.0
 11
52.764375
 21
52.346327
 31
0.0
  0
LINE
  5
9DCF
330
9CDB
100
AcDbEntity
  8
1
  6
Continuous
100
AcDbLine
 10
46.634675
 20
51.21582700000001
 30
0.0
 11
45.564375
 21
51.21582700000001
 31
0.0
  0
LINE
  5
9DD0
330
9CDB
100
AcDbEntity
  8
1
  6
Continuous
100
AcDbLine
 10
46.712775
 20
47.21582699999999
 30
0.0
 11
28.40217499999999
 21
47.21582699999999
 31
0.0
  0
LINE
  5
9DD1
330
9CDB
100
AcDbEntity
  8
1
  6
Continuous
100
AcDbLine
 10
29.56437499999999
 20
51.21582700000001
 30
0.0
 11
28.49407499999999
 21
51.21582700000001
 31
0.0
  0
LINE
  5
9DD2
330
9CDB
100
AcDbEntity
  8
1
  6
Continuous
100
AcDbLine
 10
46.564375
 20
54.515827
 30
0.0
 11
46.814375
 21
41.715827
 31
0.0
  0
LINE
  5
9DD3
330
9CDB
100
AcDbEntity
  8
1
  6
Continuous
100
AcDbLine
 10
28.564375
 20
54.515827
 30
0.0
 11
28.31437499999999
 21
41.715827
 31
0.0
  0
LINE
  5
9DD4
330
9CDB
100
AcDbEntity
  8
1
  6
Continuous
100
AcDbLine
 10
48.563966
 20
54.55487399999999
 30
0.0
 11
48.814675
 21
41.715827
 31
0.0
  0
LINE
  5
9DD5
330
9CDB
100
AcDbEntity
  8
1
  6
Continuous
100
AcDbLine
 10
26.564683
 20
54.55487399999999
 30
0.0
 11
26.313975
 21
41.715827
 31
0.0
  0
LINE
  5
9DD6
330
9CDB
100
AcDbEntity
  8
1
  6
Continuous
100
AcDbLine
 10
45.564375
 20
51.015827
 30
0.0
 11
29.56437499999999
 21
51.015827
 31
0.0
  0
LINE
  5
9DDB
330
9CDB
100
AcDbEntity
  8
1
  6
Continuous
100
AcDbLine
 10
26.314375
 20
252.3203379999999
 30
0.0
 11
26.81437499999999
 21
252.3203379999999
 31
0.0
  0
LINE
  5
9DDC
330
9CDB
100
AcDbEntity
  8
1
  6
Continuous
100
AcDbLine
 10
26.53048
 20
249.785854
 30
0.0
 11
26.486775
 21
252.3203379999999
 31
0.0
  0
LINE
  5
9DDD
330
9CDB
100
AcDbEntity
  8
1
  6
Continuous
100
AcDbLine
 10
28.302275
 20
263.0203379999999
 30
0.0
 11
28.34532199999999
 21
260.5203379999999
 31
0.0
  0
LINE
  5
9DDE
330
9CDB
100
AcDbEntity
  8
1
  6
Continuous
100
AcDbLine
 10
48.814375
 20
262.021338
 30
0.0
 11
48.78846
 21
260.5203379999999
 31
0.0
  0
LINE
  5
9DDF
330
9CDB
100
AcDbEntity
  8
1
  6
Continuous
100
AcDbLine
 10
46.778165
 20
260.5203379999999
 30
0.0
 11
46.820275
 21
263.0203379999999
 31
0.0
  0
LINE
  5
9DE0
330
9CDB
100
AcDbEntity
  8
1
  6
Continuous
100
AcDbLine
 10
26.340216
 20
260.5203379999999
 30
0.0
 11
26.314375
 21
262.0203379999999
 31
0.0
  0
LINE
  5
9DE1
330
9CDB
100
AcDbEntity
  8
1
  6
Continuous
100
AcDbLine
 10
48.31437499999999
 20
252.3203379999999
 30
0.0
 11
48.814375
 21
252.3203379999999
 31
0.0
  0
LINE
  5
9DE2
330
9CDB
100
AcDbEntity
  8
1
  6
Continuous
100
AcDbLine
 10
48.714408
 20
256.5203379999999
 30
0.0
 11
48.697075
 21
255.520338
 31
0.0
  0
LINE
  5
9DE5
330
9CDB
100
AcDbEntity
  8
1
  6
Continuous
100
AcDbLine
 10
48.814375
 20
52.015827
 30
0.0
 11
48.613575
 21
52.015827
 31
0.0
  0
LINE
  5
9DE6
330
9CDB
100
AcDbEntity
  8
1
  6
Continuous
100
AcDbLine
 10
26.515175
 20
52.015827
 30
0.0
 11
26.314375
 21
52.015827
 31
0.0
  0
LINE
  5
9DE7
330
9CDB
100
AcDbEntity
  8
1
  6
Continuous
100
AcDbLine
 10
48.814375
 20
260.5203379999999
 30
0.0
 11
48.814375
 21
263.0203379999999
 31
0.0
  0
LINE
  5
9DEA
330
9CDB
100
AcDbEntity
  8
1
  6
Continuous
100
AcDbLine
 10
26.314375
 20
255.520338
 30
0.0
 11
26.81437499999999
 21
255.520338
 31
0.0
  0
LINE
  5
9DEB
330
9CDB
100
AcDbEntity
  8
1
  6
Continuous
100
AcDbLine
 10
48.31437499999999
 20
255.520338
 30
0.0
 11
48.814375
 21
255.520338
 31
0.0
  0
LINE
  5
9DEC
330
9CDB
100
AcDbEntity
  8
1
  6
Continuous
100
AcDbLine
 10
26.431575
 20
255.520338
 30
0.0
 11
26.414241
 21
256.5203379999999
 31
0.0
  0
LINE
  5
9DED
330
9CDB
100
AcDbEntity
  8
1
  6
Continuous
100
AcDbLine
 10
48.641975
 20
252.3203379999999
 30
0.0
 11
48.598269
 21
249.785854
 31
0.0
  0
LINE
  5
9DF2
330
9CDB
100
AcDbEntity
  8
1
  6
Continuous
100
AcDbLine
 10
25.56437499999999
 20
44.015827
 30
0.0
 11
26.358875
 21
44.015827
 31
0.0
  0
LINE
  5
9DF3
330
9CDB
100
AcDbEntity
  8
1
  6
Continuous
100
AcDbLine
 10
48.814375
 20
44.015827
 30
0.0
 11
49.56437499999999
 21
44.015827
 31
0.0
  0
LINE
  5
9DFA
330
9CDB
100
AcDbEntity
  8
1
  6
Continuous
100
AcDbLine
 10
46.564375
 20
263.0203379999999
 30
0.0
 11
46.564375
 21
260.5203379999999
 31
0.0
  0
LINE
  5
9DFB
330
9CDB
100
AcDbEntity
  8
1
  6
Continuous
100
AcDbLine
 10
28.564375
 20
263.0203379999999
 30
0.0
 11
28.564375
 21
260.5203379999999
 31
0.0
  0
LINE
  5
9DFC
330
9CDB
100
AcDbEntity
  8
1
  6
Continuous
100
AcDbLine
 10
26.314375
 20
263.0203379999999
 30
0.0
 11
26.314375
 21
260.5203379999999
 31
0.0
  0
ARC
  5
9E0F
330
9CDB
100
AcDbEntity
  8
1
  6
Continuous
100
AcDbCircle
 10
55.564375
 20
49.215827
 30
0.0
 40
6.0
100
AcDbArc
 50
297.818
 51
62.18189999999999
  0
ARC
  5
9E10
330
9CDB
100
AcDbEntity
  8
1
  6
Continuous
100
AcDbCircle
 10
19.56437499999998
 20
49.215827
 30
0.0
 40
4.2
100
AcDbArc
 50
270.0
 51
318.19
  0
ARC
  5
9E11
330
9CDB
100
AcDbEntity
  8
1
  6
Continuous
100
AcDbCircle
 10
55.564375
 20
49.215827
 30
0.0
 40
4.2
100
AcDbArc
 50
311.81
 51
48.1897
  0
ARC
  5
9E12
330
9CDB
100
AcDbEntity
  8
1
  6
Continuous
100
AcDbCircle
 10
55.564375
 20
49.215827
 30
0.0
 40
4.2
100
AcDbArc
 50
221.81
 51
270.0
  0
ARC
  5
9E13
330
9CDB
100
AcDbEntity
  8
1
  6
Continuous
100
AcDbCircle
 10
55.564375
 20
49.215827
 30
0.0
 40
6.0
100
AcDbArc
 50
207.8179999999999
 51
270.0
  0
ARC
  5
9E14
330
9CDB
100
AcDbEntity
  8
1
  6
Continuous
100
AcDbCircle
 10
55.564375
 20
49.215827
 30
0.0
 40
6.0
100
AcDbArc
 50
90.0
 51
152.1819999999999
  0
ARC
  5
9E15
330
9CDB
100
AcDbEntity
  8
1
  6
Continuous
100
AcDbCircle
 10
55.564375
 20
49.215827
 30
0.0
 40
4.2
100
AcDbArc
 50
90.0
 51
138.1899999999999
  0
ARC
  5
9E16
330
9CDB
100
AcDbEntity
  8
1
  6
Continuous
100
AcDbCircle
 10
19.56437499999998
 20
49.215827
 30
0.0
 40
6.0
100
AcDbArc
 50
117.818
 51
242.1819999999999
  0
ARC
  5
9E17
330
9CDB
100
AcDbEntity
  8
1
  6
Continuous
100
AcDbCircle
 10
19.56437499999998
 20
49.215827
 30
0.0
 40
6.0
100
AcDbArc
 50
27.8181
 51
90.0
  0
ARC
  5
9E18
330
9CDB
100
AcDbEntity
  8
1
  6
Continuous
100
AcDbCircle
 10
19.56437499999998
 20
49.215827
 30
0.0
 40
6.0
100
AcDbArc
 50
270.0
 51
332.1819999999997
  0
ARC
  5
9E19
330
9CDB
100
AcDbEntity
  8
1
  6
Continuous
100
AcDbCircle
 10
19.56437499999998
 20
49.215827
 30
0.0
 40
4.2
100
AcDbArc
 50
131.81
 51
228.1899999999999
  0
ARC
  5
9E1A
330
9CDB
100
AcDbEntity
  8
1
  6
Continuous
100
AcDbCircle
 10
19.56437499999998
 20
49.215827
 30
0.0
 40
4.2
100
AcDbArc
 50
41.81009999999999
 51
90.0
  0
ARC
  5
9E1B
330
9CDB
100
AcDbEntity
  8
1
  6
Continuous
100
AcDbCircle
 10
19.56437499999998
 20
255.120338
 30
0.0
 40
6.0
100
AcDbArc
 50
57.7692
 51
62.18199999999998
  0
ARC
  5
9E1C
330
9CDB
100
AcDbEntity
  8
1
  6
Continuous
100
AcDbCircle
 10
19.56437499999998
 20
255.120338
 30
0.0
 40
4.2
100
AcDbArc
 50
90.0
 51
270.0
  0
ARC
  5
9E1D
330
9CDB
100
AcDbEntity
  8
1
  6
Continuous
100
AcDbCircle
 10
19.56437499999998
 20
255.120338
 30
0.0
 40
4.2
100
AcDbArc
 50
311.81
 51
318.19
  0
ARC
  5
9E1E
330
9CDB
100
AcDbEntity
  8
1
  6
Continuous
100
AcDbCircle
 10
19.56437499999998
 20
255.120338
 30
0.0
 40
6.0
100
AcDbArc
 50
297.818
 51
332.1819999999997
  0
ARC
  5
9E1F
330
9CDB
100
AcDbEntity
  8
1
  6
Continuous
100
AcDbCircle
 10
55.564375
 20
255.120338
 30
0.0
 40
6.0
100
AcDbArc
 50
270.0
 51
90.0
  0
ARC
  5
9E20
330
9CDB
100
AcDbEntity
  8
1
  6
Continuous
100
AcDbCircle
 10
55.564375
 20
255.120338
 30
0.0
 40
4.2
100
AcDbArc
 50
270.0
 51
90.0
  0
ARC
  5
9E21
330
9CDB
100
AcDbEntity
  8
1
  6
Continuous
100
AcDbCircle
 10
55.564375
 20
255.120338
 30
0.0
 40
4.2
100
AcDbArc
 50
221.81
 51
228.1899999999999
  0
ARC
  5
9E22
330
9CDB
100
AcDbEntity
  8
1
  6
Continuous
100
AcDbCircle
 10
55.564375
 20
255.120338
 30
0.0
 40
6.0
100
AcDbArc
 50
207.8179999999999
 51
242.1819999999999
  0
ARC
  5
9E29
330
9CDB
100
AcDbEntity
  8
1
  6
Continuous
100
AcDbCircle
 10
19.56437499999998
 20
255.120338
 30
0.0
 40
6.0
100
AcDbArc
 50
90.0
 51
270.0
  0
ARC
  5
9E2A
330
9CDB
100
AcDbEntity
  8
1
  6
Continuous
100
AcDbCircle
 10
55.564375
 20
255.120338
 30
0.0
 40
6.0
100
AcDbArc
 50
117.818
 51
122.231
  0
ARC
  5
9E2B
330
9CDB
100
AcDbEntity
  8
1
  6
Continuous
100
AcDbCircle
 10
37.564375
 20
49.115827
 30
0.0
 40
8.900009999999998
100
AcDbArc
 50
25.9894
 51
154.011
  0
ARC
  5
9E2C
330
9CDB
100
AcDbEntity
  8
1
  6
Continuous
100
AcDbCircle
 10
37.564375
 20
47.430427
 30
0.0
 40
8.766719999999997
100
AcDbArc
 50
24.141
 51
155.859
  0
ARC
  5
9F17
330
9CDB
100
AcDbEntity
  8
1
  6
Continuous
100
AcDbCircle
 10
28.530183
 20
249.820338
 30
0.0
 40
2.0
100
AcDbArc
 50
180.9879359999999
 51
270.0
  0
ARC
  5
9F18
330
9CDB
100
AcDbEntity
  8
1
  6
Continuous
100
AcDbCircle
 10
46.598566
 20
249.820338
 30
0.0
 40
2.0
100
AcDbArc
 50
270.0
 51
359.012064
  0
ARC
  5
9F19
330
9CDB
100
AcDbEntity
  8
1
  6
Continuous
100
AcDbCircle
 10
46.31437499999999
 20
249.820338
 30
0.0
 40
2.0
100
AcDbArc
 50
270.0
 51
0.0
  0
ARC
  5
9F1A
330
9CDB
100
AcDbEntity
  8
1
  6
Continuous
100
AcDbCircle
 10
28.814375
 20
249.820338
 30
0.0
 40
2.0
100
AcDbArc
 50
180.0
 51
270.0
  0
ARC
  5
9F1B
330
9CDB
100
AcDbEntity
  8
1
  6
Continuous
100
AcDbCircle
 10
28.564302
 20
54.515827
 30
0.0
 40
2.0
100
AcDbArc
 50
90.0
 51
178.8813259999997
  0
ARC
  5
9F1C
330
9CDB
100
AcDbEntity
  8
1
  6
Continuous
100
AcDbCircle
 10
46.564347
 20
54.515827
 30
0.0
 40
2.0
100
AcDbArc
 50
1.118673999999999
 51
90.0
  0
LINE
  5
9F1D
330
9CDB
100
AcDbEntity
  8
1
  6
Continuous
100
AcDbLine
 10
52.364375
 20
262.7201769999999
 30
0.0
 11
49.56437499999999
 21
262.7201769999999
 31
0.0
  0
LINE
  5
9F1E
330
9CDB
100
AcDbEntity
  8
1
  6
Continuous
100
AcDbLine
 10
22.764275
 20
262.7201769999999
 30
0.0
 11
25.56437499999999
 21
262.7201769999999
 31
0.0
  0
LINE
  5
9F1F
330
9CDB
100
AcDbEntity
  8
4
  6
CENTER
 48
0.2
100
AcDbLine
 10
55.764375
 20
45.815827
 30
0.0
 11
19.364375
 21
45.815827
 31
0.0
  0
LINE
  5
9F20
330
9CDB
100
AcDbEntity
  8
1
  6
Continuous
100
AcDbLine
 10
52.364375
 20
41.615988
 30
0.0
 11
49.56437499999999
 21
41.615988
 31
0.0
  0
LINE
  5
9F21
330
9CDB
100
AcDbEntity
  8
1
  6
Continuous
100
AcDbLine
 10
22.764375
 20
41.615988
 30
0.0
 11
25.56437499999999
 21
41.615988
 31
0.0
  0
LINE
  5
9F22
330
9CDB
100
AcDbEntity
  8
1
  6
Continuous
100
AcDbLine
 10
46.759687
 20
44.515827
 30
0.0
 11
28.36906199999999
 21
44.515827
 31
0.0
  0
ARC
  5
9F23
330
9CDB
100
AcDbEntity
  8
1
  6
Continuous
100
AcDbCircle
 10
37.564375
 20
255.2203379999999
 30
0.0
 40
8.900009999999998
100
AcDbArc
 50
236.2489819999999
 51
303.7510179999998
  0
LINE
  5
AC61
330
9CDB
100
AcDbEntity
  8
1
  6
Continuous
100
AcDbLine
 10
49.56437499999999
 20
126.5310259999998
 30
0.0
 11
49.56437499999999
 21
136.0313809999999
 31
0.0
  0
LINE
  5
AC62
330
9CDB
100
AcDbEntity
  8
1
  6
Continuous
100
AcDbLine
 10
52.364375
 20
126.5310259999998
 30
0.0
 11
52.364375
 21
136.0310259999999
 31
0.0
  0
LINE
  5
AC63
330
9CDB
100
AcDbEntity
  8
1
  6
Continuous
100
AcDbLine
 10
53.31437499999999
 20
133.5310259999998
 30
0.0
 11
53.31437499999999
 21
130.5310259999998
 31
0.0
  0
LINE
  5
AC64
330
9CDB
100
AcDbEntity
  8
1
  6
Continuous
100
AcDbLine
 10
22.764375
 20
126.5310259999998
 30
0.0
 11
22.764375
 21
136.0310259999999
 31
0.0
  0
LINE
  5
AC65
330
9CDB
100
AcDbEntity
  8
1
  6
Continuous
100
AcDbLine
 10
21.81437499999999
 20
133.5310259999998
 30
0.0
 11
21.81437499999999
 21
130.5310259999998
 31
0.0
  0
LINE
  5
AC66
330
9CDB
100
AcDbEntity
  8
1
  6
Continuous
100
AcDbLine
 10
25.56437499999999
 20
126.5310259999998
 30
0.0
 11
25.56437499999999
 21
136.0313809999999
 31
0.0
  0
LINE
  5
AC67
330
9CDB
100
AcDbEntity
  8
4
  6
CENTER
 48
0.1
100
AcDbLine
 10
165.6333009999997
 20
129.0310259999998
 30
0.0
 11
165.6333009999997
 21
135.0310259999999
 31
0.0
  0
CIRCLE
  5
AC68
330
9CDB
100
AcDbEntity
  8
1
  6
Continuous
100
AcDbCircle
 10
165.6333009999997
 20
132.0310259999998
 30
0.0
 40
1.5
  0
LINE
  5
AC69
330
9CDB
100
AcDbEntity
  8
1
  6
Continuous
100
AcDbLine
 10
173.1333009999999
 20
139.831026
 30
0.0
 11
173.1333009999999
 21
125.5310259999998
 31
0.0
  0
LINE
  5
AC6A
330
9CDB
100
AcDbEntity
  8
1
  6
Continuous
100
AcDbLine
 10
26.314375
 20
160.0310259999999
 30
0.0
 11
26.314375
 21
125.5310259999998
 31
0.0
  0
LINE
  5
AC6B
330
9CDB
100
AcDbEntity
  8
1
  6
Continuous
100
AcDbLine
 10
48.814375
 20
160.0310259999999
 30
0.0
 11
48.814375
 21
125.5310259999998
 31
0.0
  0
LINE
  5
AC6C
330
9CDB
100
AcDbEntity
  8
1
  6
Continuous
100
AcDbLine
 10
173.5333009999999
 20
143.0310259999999
 30
0.0
 11
173.5333009999999
 21
104.5310259999998
 31
0.0
  0
LINE
  5
AC6D
330
9CDB
100
AcDbEntity
  8
1
  6
Continuous
100
AcDbLine
 10
158.3333009999998
 20
158.0310259999999
 30
0.0
 11
158.3333009999998
 21
125.5310259999998
 31
0.0
  0
LINE
  5
AC6E
330
9CDB
100
AcDbEntity
  8
1
  6
Continuous
100
AcDbLine
 10
168.6330293459391
 20
145.2834548352934
 30
0.0
 11
168.3923609999999
 21
129.2892039999999
 31
0.0
  0
LINE
  5
AC6F
330
9CDB
100
AcDbEntity
  8
1
  6
Continuous
100
AcDbLine
 10
163.0336633373097
 20
145.367709261805
 30
0.0
 11
162.7929949999999
 21
129.3734589999998
 31
0.0
  0
LINE
  5
AC70
330
9CDB
100
AcDbEntity
  8
1
  6
Continuous
100
AcDbLine
 10
48.564375
 20
160.0310259999999
 30
0.0
 11
48.564375
 21
125.5310259999998
 31
0.0
  0
LINE
  5
AC71
330
9CDB
100
AcDbEntity
  8
1
  6
Continuous
100
AcDbLine
 10
26.564375
 20
160.0310259999999
 30
0.0
 11
26.564375
 21
125.5310259999998
 31
0.0
  0
LINE
  5
AC72
330
9CDB
100
AcDbEntity
  8
4
  6
CENTER
 48
0.2
100
AcDbLine
 10
37.564375
 20
182.531026
 30
0.0
 11
37.564375
 21
95.03102599999987
 31
0.0
  0
LINE
  5
AC75
330
9CDB
100
AcDbEntity
  8
4
  6
CENTER
 48
0.2
100
AcDbLine
 10
19.364375
 20
132.0310259999998
 30
0.0
 11
55.764375
 21
132.0310259999998
 31
0.0
  0
ARC
  5
AC76
330
9CDB
100
AcDbEntity
  8
1
  6
Continuous
100
AcDbCircle
 10
37.564375
 20
108.0310259999998
 30
0.0
 40
8.0
100
AcDbArc
 50
180.0
 51
0.0000099999977495
  0
LINE
  5
AC77
330
9CDB
100
AcDbEntity
  8
1
  6
Continuous
100
AcDbLine
 10
45.564375
 20
125.5310259999998
 30
0.0
 11
45.564375
 21
104.5310259999998
 31
0.0
  0
LINE
  5
AC78
330
9CDB
100
AcDbEntity
  8
1
  6
Continuous
100
AcDbLine
 10
29.56437499999999
 20
125.5310259999998
 30
0.0
 11
29.56437499999998
 21
104.5310259999998
 31
0.0
  0
LINE
  5
AC79
330
9CDB
100
AcDbEntity
  8
1
  6
Continuous
100
AcDbLine
 10
30.37062771503091
 20
104.5310259999999
 30
0.0
 11
29.56437499999999
 21
104.5310259999998
 31
0.0
  0
LINE
  5
AC7A
330
9CDB
100
AcDbEntity
  8
1
  6
Continuous
100
AcDbLine
 10
45.564375
 20
104.5310259999998
 30
0.0
 11
44.75812228496907
 21
104.5310259999998
 31
0.0
  0
LINE
  5
AC7B
330
9CDB
100
AcDbEntity
  8
1
  6
Continuous
100
AcDbLine
 10
30.56437499999999
 20
113.5510259999999
 30
0.0
 11
44.56437499999998
 21
113.5510259999999
 31
0.0
  0
LINE
  5
AC7C
330
9CDB
100
AcDbEntity
  8
1
  6
Continuous
100
AcDbLine
 10
30.56437499999999
 20
125.5310259999998
 30
0.0
 11
44.56437499999998
 21
125.5310259999998
 31
0.0
  0
LINE
  5
AC7D
330
9CDB
100
AcDbEntity
  8
1
  6
Continuous
100
AcDbLine
 10
22.764375
 20
126.5310259999998
 30
0.0
 11
25.56437499999999
 21
126.5310259999998
 31
0.0
  0
LINE
  5
AC7E
330
9CDB
100
AcDbEntity
  8
1
  6
Continuous
100
AcDbLine
 10
22.764375
 20
130.5310259999998
 30
0.0
 11
21.81437499999999
 21
130.5310259999998
 31
0.0
  0
LINE
  5
AC7F
330
9CDB
100
AcDbEntity
  8
1
  6
Continuous
100
AcDbLine
 10
26.314375
 20
125.5310259999998
 30
0.0
 11
29.56437499999999
 21
125.5310259999998
 31
0.0
  0
LINE
  5
AC80
330
9CDB
100
AcDbEntity
  8
1
  6
Continuous
100
AcDbLine
 10
26.314375
 20
130.0310259999998
 30
0.0
 11
25.56437499999999
 21
130.0310259999998
 31
0.0
  0
LINE
  5
AC81
330
9CDB
100
AcDbEntity
  8
4
  6
CENTER
 48
0.1
100
AcDbLine
 10
34.064375
 20
110.0310259999998
 30
0.0
 11
41.06437499999999
 21
110.0310259999998
 31
0.0
  0
LINE
  5
AC82
330
9CDB
100
AcDbEntity
  8
4
  6
CENTER
 48
0.1
100
AcDbLine
 10
34.064375
 20
124.0310259999997
 30
0.0
 11
41.06437499999999
 21
124.0310259999997
 31
0.0
  0
LINE
  5
AC83
330
9CDB
100
AcDbEntity
  8
1
  6
Continuous
100
AcDbLine
 10
45.564375
 20
125.5310259999998
 30
0.0
 11
48.814375
 21
125.5310259999998
 31
0.0
  0
LINE
  5
AC84
330
9CDB
100
AcDbEntity
  8
1
  6
Continuous
100
AcDbLine
 10
52.364375
 20
126.5310259999998
 30
0.0
 11
49.56437499999999
 21
126.5310259999998
 31
0.0
  0
LINE
  5
AC85
330
9CDB
100
AcDbEntity
  8
1
  6
Continuous
100
AcDbLine
 10
49.56437499999999
 20
130.0310259999998
 30
0.0
 11
48.814375
 21
130.0310259999998
 31
0.0
  0
LINE
  5
AC86
330
9CDB
100
AcDbEntity
  8
1
  6
Continuous
100
AcDbLine
 10
53.31437499999999
 20
130.5310259999998
 30
0.0
 11
52.364375
 21
130.5310259999998
 31
0.0
  0
LINE
  5
AC87
330
9CDB
100
AcDbEntity
  8
4
  6
CENTER
 48
0.1
100
AcDbLine
 10
162.6333009999999
 20
132.0310259999998
 30
0.0
 11
168.6333009999999
 21
132.0310259999998
 31
0.0
  0
ARC
  5
AC88
330
9CDB
100
AcDbEntity
  8
1
  6
Continuous
100
AcDbCircle
 10
165.5926779999998
 20
129.3313319999999
 30
0.0
 40
2.799999999999998
100
AcDbArc
 50
179.137925
 51
359.1379349999995
  0
LINE
  5
AC89
330
9CDB
100
AcDbEntity
  8
1
  6
Continuous
100
AcDbLine
 10
158.3333009999998
 20
125.5310259999998
 30
0.0
 11
173.1333009999999
 21
125.5310259999998
 31
0.0
  0
LINE
  5
AC8A
330
9CDB
100
AcDbEntity
  8
1
  6
Continuous
100
AcDbLine
 10
158.9523009999998
 20
100.0320259999999
 30
0.0
 11
163.2673009999998
 21
109.461026
 31
0.0
  0
LINE
  5
AC8B
330
9CDB
100
AcDbEntity
  8
1
  6
Continuous
100
AcDbLine
 10
157.1333009999999
 20
100.864026
 30
0.0
 11
161.4493009999999
 21
110.2930259999998
 31
0.0
  0
LINE
  5
AC8C
330
9CDB
100
AcDbEntity
  8
1
  6
Continuous
100
AcDbLine
 10
157.1333009999999
 20
100.864026
 30
0.0
 11
158.9523009999998
 21
100.0320259999999
 31
0.0
  0
LINE
  5
AC8D
330
9CDB
100
AcDbEntity
  8
1
  6
Continuous
100
AcDbLine
 10
160.4583009999998
 20
125.5310259999998
 30
0.0
 11
163.5483009999999
 21
116.903026
 31
0.0
  0
LINE
  5
AC8E
330
9CDB
100
AcDbEntity
  8
1
  6
Continuous
100
AcDbLine
 10
158.3333009999998
 20
125.5310259999998
 30
0.0
 11
161.6653009999999
 21
116.2280259999998
 31
0.0
  0
ARC
  5
AC8F
330
9CDB
100
AcDbEntity
  8
1
  6
Continuous
100
AcDbCircle
 10
154.1333009999999
 20
113.5310259999998
 30
0.0
 40
10.0
100
AcDbArc
 50
335.9830000000011
 51
19.70399999999957
  0
ARC
  5
AC90
330
9CDB
100
AcDbEntity
  8
1
  6
Continuous
100
AcDbCircle
 10
154.1333009999999
 20
113.5310259999998
 30
0.0
 40
8.0
100
AcDbArc
 50
335.9830000000011
 51
19.70399999999957
  0
LINE
  5
AC92
330
9CDB
100
AcDbEntity
  8
1
  6
Continuous
100
AcDbLine
 10
170.3333009999998
 20
125.5310259999998
 30
0.0
 11
170.3333009999998
 21
104.5310259999998
 31
0.0
  0
LINE
  5
AC93
330
9CDB
100
AcDbEntity
  8
1
  6
Continuous
100
AcDbLine
 10
170.3333009999998
 20
104.5310259999998
 30
0.0
 11
173.5333009999999
 21
104.5310259999998
 31
0.0
  0
LINE
  5
AC95
330
9CDB
100
AcDbEntity
  8
4
  6
CENTER
 48
0.1
100
AcDbLine
 10
168.3333009999998
 20
110.0310259999998
 30
0.0
 11
175.5333009999999
 21
110.0310259999998
 31
0.0
  0
LINE
  5
AC98
330
9CDB
100
AcDbEntity
  8
1
  6
Continuous
100
AcDbLine
 10
13.56204897447941
 20
161.1232819999999
 30
0.0
 11
16.76437499999997
 21
161.1232819999999
 31
0.0
  0
LINE
  5
AC9A
330
9CDB
100
AcDbEntity
  8
1
  6
Continuous
100
AcDbLine
 10
14.47123270574731
 20
149.418829
 30
0.0
 11
19.56437499999999
 21
149.418829
 31
0.0
  0
LINE
  5
ACAD
330
9CDB
100
AcDbEntity
  8
1
  6
Continuous
100
AcDbLine
 10
49.56204897447941
 20
161.1232819999999
 30
0.0
 11
55.56437499999999
 21
161.1232819999999
 31
0.0
  0
LINE
  5
ACBD
330
9CDB
100
AcDbEntity
  8
1
  6
Continuous
100
AcDbLine
 10
55.564375
 20
165.1228299999999
 30
0.0
 11
52.764375
 21
165.1228299999999
 31
0.0
  0
LINE
  5
ACBE
330
9CDB
100
AcDbEntity
  8
1
  6
Continuous
100
AcDbLine
 10
52.364375
 20
136.0310259999999
 30
0.0
 11
54.569623
 21
137.8910149999999
 31
0.0
  0
LINE
  5
ACBF
330
9CDB
100
AcDbEntity
  8
1
  6
Continuous
100
AcDbLine
 10
52.364375
 20
172.280059
 30
0.0
 11
56.126763
 21
171.5086519999998
 31
0.0
  0
LINE
  5
ACC0
330
9CDB
100
AcDbEntity
  8
1
  6
Continuous
100
AcDbLine
 10
55.564375
 20
168.7657119999999
 30
0.0
 11
51.801986
 21
169.537119
 31
0.0
  0
LINE
  5
ACC1
330
9CDB
100
AcDbEntity
  8
4
  6
CENTER
 48
0.2
100
AcDbLine
 10
19.364375
 20
177.0310259999999
 30
0.0
 11
55.764375
 21
177.0310259999999
 31
0.0
  0
LINE
  5
ACC5
330
9CDB
100
AcDbEntity
  8
1
  6
Continuous
100
AcDbLine
 10
48.31437499999999
 20
162.0310259999999
 30
0.0
 11
48.31437499999999
 21
160.0310259999999
 31
0.0
  0
LINE
  5
ACC6
330
9CDB
100
AcDbEntity
  8
1
  6
Continuous
100
AcDbLine
 10
26.81437499999999
 20
162.0310259999999
 30
0.0
 11
26.81437499999999
 21
160.0310259999999
 31
0.0
  0
LINE
  5
ACC7
330
9CDB
100
AcDbEntity
  8
1
  6
Continuous
100
AcDbLine
 10
19.56437499999998
 20
140.0313609999999
 30
0.0
 11
19.56437499999998
 21
149.8705544664055
 31
0.0
  0
LINE
  5
ACC8
330
9CDB
100
AcDbEntity
  8
1
  6
Continuous
100
AcDbLine
 10
22.364375
 20
140.0310259999999
 30
0.0
 11
22.364375
 21
150.1176495063157
 31
0.0
  0
LINE
  5
ACC9
330
9CDB
100
AcDbEntity
  8
1
  6
Continuous
100
AcDbLine
 10
16.76437499999999
 20
145.4207809999999
 30
0.0
 11
16.76437499999999
 21
149.6234594264953
 31
0.0
  0
ARC
  5
ACCA
330
9CDB
100
AcDbEntity
  8
1
  6
Continuous
100
AcDbCircle
 10
22.764375
 20
136.0313809999999
 30
0.0
 40
2.799999999999998
100
AcDbArc
 50
0.0
 51
49.86492500000025
  0
ARC
  5
ACCB
330
9CDB
100
AcDbEntity
  8
1
  6
Continuous
100
AcDbCircle
 10
22.364375
 20
140.0313609999999
 30
0.0
 40
2.799999999999998
100
AcDbArc
 50
180.0
 51
229.8544610000006
  0
LINE
  5
ACCC
330
9CDB
100
AcDbEntity
  8
1
  6
Continuous
100
AcDbLine
 10
22.764375
 20
133.5310259999998
 30
0.0
 11
21.81437499999999
 21
133.5310259999998
 31
0.0
  0
LINE
  5
ACCD
330
9CDB
100
AcDbEntity
  8
1
  6
Continuous
100
AcDbLine
 10
22.764375
 20
136.0310259999999
 30
0.0
 11
20.55912699999999
 21
137.8910149999999
 31
0.0
  0
LINE
  5
ACCE
330
9CDB
100
AcDbEntity
  8
1
  6
Continuous
100
AcDbLine
 10
22.364375
 20
140.0310259999999
 30
0.0
 11
24.569232
 21
138.1720559999999
 31
0.0
  0
LINE
  5
ACCF
330
9CDB
100
AcDbEntity
  8
1
  6
Continuous
100
AcDbLine
 10
16.764375
 20
145.4207809999999
 30
0.0
 11
19.56437499999998
 21
145.4207809999999
 31
0.0
  0
LINE
  5
ACD0
330
9CDB
100
AcDbEntity
  8
1
  6
Continuous
100
AcDbLine
 10
26.314375
 20
134.0310259999998
 30
0.0
 11
25.56437499999999
 21
134.0310259999998
 31
0.0
  0
LINE
  5
ACD4
330
9CDB
100
AcDbEntity
  8
1
  6
Continuous
100
AcDbLine
 10
22.364375
 20
149.4203289999999
 30
0.0
 11
25.56053999877274
 21
149.4203289999999
 31
0.0
  0
LINE
  5
ACD8
330
9CDB
100
AcDbEntity
  8
1
  6
Continuous
100
AcDbLine
 10
26.314375
 20
160.0310259999999
 30
0.0
 11
26.81437499999999
 21
160.0310259999999
 31
0.0
  0
LINE
  5
ACD9
330
9CDB
100
AcDbEntity
  8
1
  6
Continuous
100
AcDbLine
 10
52.764375
 20
140.0310259999999
 30
0.0
 11
52.764375
 21
149.6249594264953
 31
0.0
  0
LINE
  5
ACDA
330
9CDB
100
AcDbEntity
  8
4
  6
CENTER
 48
0.1
100
AcDbLine
 10
34.064375
 20
138.0310259999999
 30
0.0
 11
41.06437499999999
 21
138.0310259999999
 31
0.0
  0
LINE
  5
ACDB
330
9CDB
100
AcDbEntity
  8
1
  6
Continuous
100
AcDbLine
 10
49.56437499999999
 20
134.0310259999998
 30
0.0
 11
48.814375
 21
134.0310259999998
 31
0.0
  0
ARC
  5
ACDC
330
9CDB
100
AcDbEntity
  8
1
  6
Continuous
100
AcDbCircle
 10
52.364375
 20
136.0313809999999
 30
0.0
 40
2.799999999999998
100
AcDbArc
 50
130.1350749999997
 51
180.0
  0
LINE
  5
ACDD
330
9CDB
100
AcDbEntity
  8
1
  6
Continuous
100
AcDbLine
 10
52.764375
 20
140.0310259999999
 30
0.0
 11
50.55951799999998
 21
138.1720559999999
 31
0.0
  0
LINE
  5
ACDE
330
9CDB
100
AcDbEntity
  8
1
  6
Continuous
100
AcDbLine
 10
53.31437499999999
 20
133.5310259999998
 30
0.0
 11
52.364375
 21
133.5310259999998
 31
0.0
  0
LINE
  5
ACE2
330
9CDB
100
AcDbEntity
  8
1
  6
Continuous
100
AcDbLine
 10
50.47123270574732
 20
149.418829
 30
0.0
 11
52.764375
 21
149.4188289999999
 31
0.0
  0
LINE
  5
ACE3
330
9CDB
100
AcDbEntity
  8
1
  6
Continuous
100
AcDbLine
 10
48.31437499999999
 20
160.0310259999999
 30
0.0
 11
48.814375
 21
160.0310259999999
 31
0.0
  0
LINE
  5
ACE6
330
9CDB
100
AcDbEntity
  8
1
  6
Continuous
100
AcDbLine
 10
25.56437499999999
 20
179.0310259999999
 30
0.0
 11
49.56437499999999
 21
179.0310259999999
 31
0.0
  0
LINE
  5
ACE7
330
9CDB
100
AcDbEntity
  8
1
  6
Continuous
100
AcDbLine
 10
25.56437499999999
 20
175.0310259999999
 30
0.0
 11
49.56437499999999
 21
175.0310259999999
 31
0.0
  0
LINE
  5
ACE8
330
9CDB
100
AcDbEntity
  8
1
  6
Continuous
100
AcDbLine
 10
30.56437499999999
 20
160.5310259999999
 30
0.0
 11
44.56437499999998
 21
160.5310259999999
 31
0.0
  0
LINE
  5
ACE9
330
9CDB
100
AcDbEntity
  8
1
  6
Continuous
100
AcDbLine
 10
26.81437499999999
 20
162.0310259999999
 30
0.0
 11
48.31437499999999
 21
162.0310259999999
 31
0.0
  0
LINE
  5
ACEA
330
9CDB
100
AcDbEntity
  8
1
  6
Continuous
100
AcDbLine
 10
25.56437499999999
 20
172.280059
 30
0.0
 11
25.56437499999999
 21
181.7657119999999
 31
0.0
  0
LINE
  5
ACEB
330
9CDB
100
AcDbEntity
  8
1
  6
Continuous
100
AcDbLine
 10
22.764375
 20
172.280059
 30
0.0
 11
22.764375
 21
181.7657119999999
 31
0.0
  0
ARC
  5
ACEC
330
9CDB
100
AcDbEntity
  8
1
  6
Continuous
100
AcDbCircle
 10
22.764375
 20
172.280059
 30
0.0
 40
2.799999999999998
100
AcDbArc
 50
281.5868430000002
 51
0.0
  0
LINE
  5
ACED
330
9CDB
100
AcDbEntity
  8
1
  6
Continuous
100
AcDbLine
 10
16.76437499999999
 20
160.4264594264953
 30
0.0
 11
16.764375
 21
168.7657119999999
 31
0.0
  0
LINE
  5
ACEE
330
9CDB
100
AcDbEntity
  8
1
  6
Continuous
100
AcDbLine
 10
19.56437499999998
 20
160.6735544664054
 30
0.0
 11
19.56437499999998
 21
168.7657119999999
 31
0.0
  0
LINE
  5
ACEF
330
9CDB
100
AcDbEntity
  8
1
  6
Continuous
100
AcDbLine
 10
19.56437499999998
 20
161.1232819999999
 30
0.0
 11
22.36437499999999
 21
161.1232819999999
 31
0.0
  0
LINE
  5
ACF0
330
9CDB
100
AcDbEntity
  8
1
  6
Continuous
100
AcDbLine
 10
19.56437499999998
 20
165.1228299999999
 30
0.0
 11
22.364375
 21
165.1228299999999
 31
0.0
  0
LINE
  5
ACF1
330
9CDB
100
AcDbEntity
  8
1
  6
Continuous
100
AcDbLine
 10
22.36437499999999
 20
161.1232816531639
 30
0.0
 11
24.66053999999997
 21
161.1232816531639
 31
0.0
  0
LINE
  5
ACF2
330
9CDB
100
AcDbEntity
  8
1
  6
Continuous
100
AcDbLine
 10
22.36437499999999
 20
160.9206495063157
 30
0.0
 11
22.364375
 21
165.1228299999999
 31
0.0
  0
LINE
  5
ACF3
330
9CDB
100
AcDbEntity
  8
1
  6
Continuous
100
AcDbLine
 10
22.764375
 20
172.280059
 30
0.0
 11
19.00198599999998
 21
171.5086519999998
 31
0.0
  0
LINE
  5
ACF4
330
9CDB
100
AcDbEntity
  8
1
  6
Continuous
100
AcDbLine
 10
19.56437499999998
 20
168.7657119999999
 30
0.0
 11
23.326763
 21
169.537119
 31
0.0
  0
ARC
  5
ACF5
330
9CDB
100
AcDbEntity
  8
1
  6
Continuous
100
AcDbCircle
 10
19.56437499999998
 20
168.7657119999999
 30
0.0
 40
2.799999999999998
100
AcDbArc
 50
101.5868430000002
 51
180.0
  0
LINE
  5
ACF6
330
9CDB
100
AcDbEntity
  8
1
  6
Continuous
100
AcDbLine
 10
22.764375
 20
181.7657119999999
 30
0.0
 11
25.56437499999999
 21
181.7657119999999
 31
0.0
  0
LINE
  5
ACF7
330
9CDB
100
AcDbEntity
  8
1
  6
Continuous
100
AcDbLine
 10
23.22902
 20
174.151086
 30
0.0
 11
25.063168
 21
174.151086
 31
0.0
  0
LINE
  5
ACF8
330
9CDB
100
AcDbEntity
  8
1
  6
Continuous
100
AcDbLine
 10
21.81437499999999
 20
178.5310259999999
 30
0.0
 11
22.764375
 21
178.5310259999999
 31
0.0
  0
LINE
  5
ACF9
330
9CDB
100
AcDbEntity
  8
1
  6
Continuous
100
AcDbLine
 10
21.81437499999999
 20
175.5310259999999
 30
0.0
 11
22.764375
 21
175.5310259999999
 31
0.0
  0
LINE
  5
ACFA
330
9CDB
100
AcDbEntity
  8
1
  6
Continuous
100
AcDbLine
 10
21.81437499999999
 20
178.5310259999999
 30
0.0
 11
21.81437499999999
 21
175.5310259999999
 31
0.0
  0
LINE
  5
ACFB
330
9CDB
100
AcDbEntity
  8
1
  6
Continuous
100
AcDbLine
 10
49.56437499999999
 20
172.280059
 30
0.0
 11
49.56437499999999
 21
181.7657119999999
 31
0.0
  0
LINE
  5
ACFC
330
9CDB
100
AcDbEntity
  8
1
  6
Continuous
100
AcDbLine
 10
52.364375
 20
172.280059
 30
0.0
 11
52.364375
 21
181.7657119999999
 31
0.0
  0
LINE
  5
ACFD
330
9CDB
100
AcDbEntity
  8
1
  6
Continuous
100
AcDbLine
 10
52.76437499999999
 20
160.4249594264951
 30
0.0
 11
52.764375
 21
165.1228299999999
 31
0.0
  0
ARC
  5
ACFE
330
9CDB
100
AcDbEntity
  8
1
  6
Continuous
100
AcDbCircle
 10
52.364375
 20
172.280059
 30
0.0
 40
2.799999999999998
100
AcDbArc
 50
180.0
 51
258.4131569999996
  0
LINE
  5
ACFF
330
9CDB
100
AcDbEntity
  8
1
  6
Continuous
100
AcDbLine
 10
51.899729
 20
174.151086
 30
0.0
 11
50.065582
 21
174.151086
 31
0.0
  0
LINE
  5
AD00
330
9CDB
100
AcDbEntity
  8
1
  6
Continuous
100
AcDbLine
 10
53.31437499999999
 20
178.5310259999999
 30
0.0
 11
53.31437499999999
 21
175.5310259999999
 31
0.0
  0
LINE
  5
AD01
330
9CDB
100
AcDbEntity
  8
1
  6
Continuous
100
AcDbLine
 10
53.31437499999999
 20
175.5310259999999
 30
0.0
 11
52.364375
 21
175.5310259999999
 31
0.0
  0
LINE
  5
AD02
330
9CDB
100
AcDbEntity
  8
1
  6
Continuous
100
AcDbLine
 10
53.31437499999999
 20
178.5310259999999
 30
0.0
 11
52.364375
 21
178.5310259999999
 31
0.0
  0
LINE
  5
AD03
330
9CDB
100
AcDbEntity
  8
1
  6
Continuous
100
AcDbLine
 10
52.364375
 20
181.7657119999999
 30
0.0
 11
49.56437499999999
 21
181.7657119999999
 31
0.0
  0
LINE
  5
AD05
330
9CDB
100
AcDbEntity
  8
1
  6
Continuous
100
AcDbLine
 10
58.364375
 20
145.4207809999999
 30
0.0
 11
58.364375
 21
150.1191495063157
 31
0.0
  0
LINE
  5
AD06
330
9CDB
100
AcDbEntity
  8
1
  6
Continuous
100
AcDbLine
 10
55.564375
 20
140.0313609999999
 30
0.0
 11
55.564375
 21
149.8720544664054
 31
0.0
  0
ARC
  5
AD07
330
9CDB
100
AcDbEntity
  8
1
  6
Continuous
100
AcDbCircle
 10
52.764375
 20
140.0313609999999
 30
0.0
 40
2.799999999999998
100
AcDbArc
 50
310.1455389999993
 51
0.0
  0
LINE
  5
AD08
330
9CDB
100
AcDbEntity
  8
1
  6
Continuous
100
AcDbLine
 10
58.364375
 20
145.4207809999999
 30
0.0
 11
55.564375
 21
145.4207809999999
 31
0.0
  0
LINE
  5
AD0A
330
9CDB
100
AcDbEntity
  8
1
  6
Continuous
100
AcDbLine
 10
55.56437499999999
 20
149.4203289999999
 30
0.0
 11
61.56053999877276
 21
149.4203289999999
 31
0.0
  0
LINE
  5
AD10
330
9CDB
100
AcDbEntity
  8
1
  6
Continuous
100
AcDbLine
 10
58.364375
 20
160.9191495063156
 30
0.0
 11
58.364375
 21
168.7657119999999
 31
0.0
  0
LINE
  5
AD11
330
9CDB
100
AcDbEntity
  8
1
  6
Continuous
100
AcDbLine
 10
55.564375
 20
160.6720544664055
 30
0.0
 11
55.564375
 21
168.7657119999999
 31
0.0
  0
LINE
  5
AD12
330
9CDB
100
AcDbEntity
  8
1
  6
Continuous
100
AcDbLine
 10
58.36437499999998
 20
161.1232816531639
 30
0.0
 11
60.66053999999997
 21
161.1232816531639
 31
0.0
  0
ARC
  5
AD13
330
9CDB
100
AcDbEntity
  8
1
  6
Continuous
100
AcDbCircle
 10
55.564375
 20
168.7657119999999
 30
0.0
 40
2.799999999999998
100
AcDbArc
 50
0.0
 51
78.41315699999976
  0
LINE
  5
AD2A
330
9CDB
100
AcDbEntity
  8
1
  6
Continuous
100
AcDbLine
 10
171.1468022468651
 20
159.1441196345253
 30
0.0
 11
160.9341433627806
 21
158.4222451631974
 31
0.0
  0
LINE
  5
AD2B
330
9CDB
100
AcDbEntity
  8
1
  6
Continuous
100
AcDbLine
 10
171.115387915278
 20
157.3443937832438
 30
0.0
 11
160.9027290311935
 21
156.6225193119159
 31
0.0
  0
LINE
  5
AD2D
330
9CDB
100
AcDbEntity
  8
1
  6
Continuous
100
AcDbLine
 10
171.0839735836909
 20
155.5446679319623
 30
0.0
 11
160.8713146996064
 21
154.8227934606345
 31
0.0
  0
LINE
  5
AD2F
330
9CDB
100
AcDbEntity
  8
1
  6
Continuous
100
AcDbLine
 10
171.0525592521038
 20
153.7449420806808
 30
0.0
 11
160.8399003680193
 21
153.0230676093529
 31
0.0
  0
LINE
  5
AD31
330
9CDB
100
AcDbEntity
  8
1
  6
Continuous
100
AcDbLine
 10
171.0211449205166
 20
151.9452162293993
 30
0.0
 11
160.8084860364322
 21
151.2233417580715
 31
0.0
  0
LINE
  5
AD33
330
9CDB
100
AcDbEntity
  8
1
  6
Continuous
100
AcDbLine
 10
170.9897305889295
 20
150.1454903781178
 30
0.0
 11
160.7770717048451
 21
149.4236159067899
 31
0.0
  0
LINE
  5
AD35
330
9CDB
100
AcDbEntity
  8
1
  6
Continuous
100
AcDbLine
 10
171.1782165784522
 20
160.9438454858068
 30
0.0
 11
160.9655576943678
 21
160.221971014479
 31
0.0
  0
LINE
  5
AD36
330
9CDB
100
AcDbEntity
  8
1
  6
Continuous
100
AcDbLine
 10
169.0618229999998
 20
172.280059
 30
0.0
 11
163.4611889999999
 21
172.280059
 31
0.0
  0
LINE
  5
AD37
330
9CDB
100
AcDbEntity
  8
4
  6
CENTER
 48
0.1
100
AcDbLine
 10
166.6430849999999
 20
177.0310259999999
 30
0.0
 11
171.3827449999998
 21
177.0310259999999
 31
0.0
  0
LINE
  5
AD38
330
9CDB
100
AcDbEntity
  8
1
  6
Continuous
100
AcDbLine
 10
163.3937429999998
 20
136.0651779999998
 30
0.0
 11
167.9932219999998
 21
135.9959689999998
 31
0.0
  0
LINE
  5
AD39
330
9CDB
100
AcDbEntity
  8
1
  6
Continuous
100
AcDbLine
 10
163.4343509999999
 20
138.7638719999999
 30
0.0
 11
168.0338299999999
 21
138.6946629999999
 31
0.0
  0
LINE
  5
AD3A
330
9CDB
100
AcDbEntity
  8
1
  6
Continuous
100
AcDbLine
 10
168.1680269999998
 20
180.6084489999999
 30
0.0
 11
164.5280289999998
 21
175.5846459999999
 31
0.0
  0
LINE
  5
AD3B
330
9CDB
100
AcDbEntity
  8
1
  6
Continuous
100
AcDbLine
 10
159.5066309999999
 20
145.4207809999999
 30
0.0
 11
172.2051929999998
 21
145.2297039999999
 31
0.0
  0
ARC
  5
AD3C
330
9CDB
100
AcDbEntity
  8
1
  6
Continuous
100
AcDbCircle
 10
160.9498505285742
 20
159.3221080888381
 30
0.0
 40
0.9
100
AcDbArc
 50
89.00000000000227
 51
268.9999999999881
  0
ARC
  5
AD3D
330
9CDB
100
AcDbEntity
  8
1
  6
Continuous
100
AcDbCircle
 10
160.9812648601613
 20
161.1218339401197
 30
0.0
 40
0.9
100
AcDbArc
 50
180.2535629418395
 51
268.9999999999717
  0
ARC
  5
AD3E
330
9CDB
100
AcDbEntity
  8
1
  6
Continuous
100
AcDbCircle
 10
162.3333009999998
 20
158.0310259999999
 30
0.0
 40
4.0
100
AcDbArc
 50
129.3953909999998
 51
180.0
  0
LINE
  5
AD3F
330
9CDB
100
AcDbEntity
  8
1
  6
Continuous
100
AcDbLine
 10
159.5668129999999
 20
149.4203289999999
 30
0.0
 11
159.5066309999999
 21
145.4207809999999
 31
0.0
  0
ARC
  5
AD40
330
9CDB
100
AcDbEntity
  8
1
  6
Continuous
100
AcDbCircle
 10
160.8556075338128
 20
153.9229305349937
 30
0.0
 40
0.9
100
AcDbArc
 50
89.00000000000227
 51
269.000000000017
  0
LINE
  5
AD41
330
9CDB
100
AcDbEntity
  8
1
  6
Continuous
100
AcDbLine
 10
159.5668129999999
 20
149.4203289999999
 30
0.0
 11
163.1164109999999
 21
149.3669169999998
 31
0.0
  0
ARC
  5
AD42
330
9CDB
100
AcDbEntity
  8
1
  6
Continuous
100
AcDbCircle
 10
160.8241932022257
 20
152.1232046837122
 30
0.0
 40
0.9
100
AcDbArc
 50
89.00000000000227
 51
268.9999999999881
  0
ARC
  5
AD43
330
9CDB
100
AcDbEntity
  8
1
  6
Continuous
100
AcDbCircle
 10
160.7927788706386
 20
150.3234788324306
 30
0.0
 40
0.9
100
AcDbArc
 50
89.00000000000227
 51
268.9999999999555
  0
LINE
  5
AD44
330
9CDB
100
AcDbEntity
  8
1
  6
Continuous
100
AcDbLine
 10
163.1164109999999
 20
149.3669169999998
 30
0.0
 11
163.1197561270002
 21
149.5892068755989
 31
0.0
  0
ARC
  5
AD45
330
9CDB
100
AcDbEntity
  8
1
  6
Continuous
100
AcDbCircle
 10
160.9184361969871
 20
157.5223822375567
 30
0.0
 40
0.9
100
AcDbArc
 50
89.00000000000227
 51
269.0000000000206
  0
ARC
  5
AD46
330
9CDB
100
AcDbEntity
  8
1
  6
Continuous
100
AcDbCircle
 10
160.8870218654
 20
155.7226563862752
 30
0.0
 40
0.9
100
AcDbArc
 50
89.00000000000227
 51
268.9999999999701
  0
ARC
  5
AD47
330
9CDB
100
AcDbEntity
  8
1
  6
Continuous
100
AcDbCircle
 10
169.0621089999998
 20
172.2990569999998
 30
0.0
 40
5.599999999999997
100
AcDbArc
 50
144.0749250000012
 51
180.1943763048483
  0
LINE
  5
AD48
330
9CDB
100
AcDbEntity
  8
1
  6
Continuous
100
AcDbLine
 10
163.46214122545
 20
172.280059
 30
0.0
 11
163.2727580333428
 21
160.3850538163084
 31
0.0
  0
LINE
  5
AD4A
330
9CDB
100
AcDbEntity
  8
1
  6
Continuous
100
AcDbLine
 10
159.7203389999998
 20
161.1232819999999
 30
0.0
 11
163.2836578826838
 21
161.0696645411094
 31
0.0
  0
LINE
  5
AD4B
330
9CDB
100
AcDbEntity
  8
1
  6
Continuous
100
AcDbLine
 10
159.7805209999999
 20
165.1228299999999
 30
0.0
 11
163.3301189999998
 21
165.0694179999999
 31
0.0
  0
LINE
  5
AD4C
330
9CDB
100
AcDbEntity
  8
1
  6
Continuous
100
AcDbLine
 10
159.7805209999999
 20
165.1228299999999
 30
0.0
 11
159.7203389999998
 21
161.1232819999999
 31
0.0
  0
ARC
  5
AD4D
330
9CDB
100
AcDbEntity
  8
1
  6
Continuous
100
AcDbCircle
 10
171.1625094126586
 20
160.0439825601661
 30
0.0
 40
0.9
100
AcDbArc
 50
269.0000000000022
 51
89.00000000001886
  0
ARC
  5
AD4E
330
9CDB
100
AcDbEntity
  8
1
  6
Continuous
100
AcDbCircle
 10
164.3333009999998
 20
143.0310259999999
 30
0.0
 40
9.199999999999999
100
AcDbArc
 50
0.0
 51
30.71375268484692
  0
LINE
  5
AD4F
330
9CDB
100
AcDbEntity
  8
1
  6
Continuous
100
AcDbLine
 10
172.2653749999998
 20
149.2292509999999
 30
0.0
 11
172.2051929999998
 21
145.2297039999999
 31
0.0
  0
LINE
  5
AD50
330
9CDB
100
AcDbEntity
  8
1
  6
Continuous
100
AcDbLine
 10
170.0333009999997
 20
145.262384756111
 30
0.0
 11
170.0333009999997
 21
139.831026
 31
0.0
  0
LINE
  5
AD51
330
9CDB
100
AcDbEntity
  8
1
  6
Continuous
100
AcDbLine
 10
170.3333009999998
 20
143.0310259999999
 30
0.0
 11
170.3333009999998
 21
139.831026
 31
0.0
  0
LINE
  5
AD52
330
9CDB
100
AcDbEntity
  8
4
  6
CENTER
 48
0.1
100
AcDbLine
 10
168.3333009999998
 20
138.0310259999999
 30
0.0
 11
175.5333009999999
 21
138.0310259999999
 31
0.0
  0
LINE
  5
AD53
330
9CDB
100
AcDbEntity
  8
1
  6
Continuous
100
AcDbLine
 10
170.0333009999997
 20
139.831026
 30
0.0
 11
173.1333009999999
 21
139.831026
 31
0.0
  0
LINE
  5
AD54
330
9CDB
100
AcDbEntity
  8
1
  6
Continuous
100
AcDbLine
 10
170.3333009999998
 20
141.0310259999999
 30
0.0
 11
173.5333009999999
 21
141.0310259999999
 31
0.0
  0
ARC
  5
AD55
330
9CDB
100
AcDbEntity
  8
1
  6
Continuous
100
AcDbCircle
 10
164.3333009999998
 20
143.0310259999999
 30
0.0
 40
6.0
100
AcDbArc
 50
0.0
 51
18.19500000000011
  0
LINE
  5
AD56
330
9CDB
100
AcDbEntity
  8
1
  6
Continuous
100
AcDbLine
 10
172.2172506556803
 20
146.0310259999998
 30
0.0
 11
173.0303009999998
 21
146.0310259999999
 31
0.0
  0
ARC
  5
AD57
330
9CDB
100
AcDbEntity
  8
1
  6
Continuous
100
AcDbCircle
 10
171.0368520863102
 20
152.84507915504
 30
0.0
 40
0.9
100
AcDbArc
 50
269.0000000000022
 51
89.00000000001703
  0
LINE
  5
AD58
330
9CDB
100
AcDbEntity
  8
1
  6
Continuous
100
AcDbLine
 10
172.8333009999998
 20
157.0310259999999
 30
0.0
 11
172.8333009999998
 21
150.331026
 31
0.0
  0
ARC
  5
AD59
330
9CDB
100
AcDbEntity
  8
1
  6
Continuous
100
AcDbCircle
 10
171.0054377547231
 20
151.0453533037586
 30
0.0
 40
0.9
100
AcDbArc
 50
269.0000000000022
 51
88.9999999999881
  0
ARC
  5
AD5A
330
9CDB
100
AcDbEntity
  8
1
  6
Continuous
100
AcDbCircle
 10
170.974023423136
 20
149.245627452477
 30
0.0
 40
0.9
100
AcDbArc
 50
359.3323716670332
 51
88.9999999999881
  0
LINE
  5
AD5C
330
9CDB
100
AcDbEntity
  8
1
  6
Continuous
100
AcDbLine
 10
168.7157769999998
 20
149.2826619999999
 30
0.0
 11
172.2653749999998
 21
149.2292509999999
 31
0.0
  0
LINE
  5
AD5D
330
9CDB
100
AcDbEntity
  8
1
  6
Continuous
100
AcDbLine
 10
168.7157769999998
 20
149.2826619999999
 30
0.0
 11
168.7263528290114
 21
149.9855051438707
 31
0.0
  0
ARC
  5
AD5E
330
9CDB
100
AcDbEntity
  8
1
  6
Continuous
100
AcDbCircle
 10
169.8333009999998
 20
150.331026
 30
0.0
 40
3.0
100
AcDbArc
 50
323.8366910048652
 51
0.0
  0
ARC
  5
AD5F
330
9CDB
100
AcDbEntity
  8
1
  6
Continuous
100
AcDbCircle
 10
171.1310950810715
 20
158.2442567088846
 30
0.0
 40
0.9
100
AcDbArc
 50
269.0000000000022
 51
88.99999999997181
  0
ARC
  5
AD60
330
9CDB
100
AcDbEntity
  8
1
  6
Continuous
100
AcDbCircle
 10
171.0996807494844
 20
156.4445308576031
 30
0.0
 40
0.9
100
AcDbArc
 50
269.0000000000022
 51
89.00000000000437
  0
ARC
  5
AD61
330
9CDB
100
AcDbEntity
  8
1
  6
Continuous
100
AcDbCircle
 10
171.0682664178973
 20
154.6448050063216
 30
0.0
 40
0.9
100
AcDbArc
 50
269.0000000000022
 51
88.9999999999863
  0
ARC
  5
AD62
330
9CDB
100
AcDbEntity
  8
1
  6
Continuous
100
AcDbCircle
 10
169.8333009999998
 20
157.0310259999999
 30
0.0
 40
3.0
100
AcDbArc
 50
0.0
 51
50.63554118533668
  0
LINE
  5
AD63
330
9CDB
100
AcDbEntity
  8
1
  6
Continuous
100
AcDbLine
 10
169.0618229999998
 20
172.280059
 30
0.0
 11
172.7870379999998
 21
177.4505969999999
 31
0.0
  0
LINE
  5
AD64
330
9CDB
100
AcDbEntity
  8
1
  6
Continuous
100
AcDbLine
 10
169.0618229999998
 20
172.280059
 30
0.0
 11
168.8791860417333
 21
160.7813401605926
 31
0.0
  0
LINE
  5
AD65
330
9CDB
100
AcDbEntity
  8
1
  6
Continuous
100
AcDbLine
 10
168.88242746806
 20
160.9854185153936
 30
0.0
 11
172.4189009999998
 21
160.932205
 31
0.0
  0
LINE
  5
AD66
330
9CDB
100
AcDbEntity
  8
1
  6
Continuous
100
AcDbLine
 10
168.9294849999998
 20
164.9851629999998
 30
0.0
 11
172.4790829999998
 21
164.931752
 31
0.0
  0
LINE
  5
AD67
330
9CDB
100
AcDbEntity
  8
1
  6
Continuous
100
AcDbLine
 10
172.4790829999998
 20
164.931752
 30
0.0
 11
172.4189009999998
 21
160.932205
 31
0.0
  0
ARC
  5
AD68
330
9CDB
100
AcDbEntity
  8
1
  6
Continuous
100
AcDbCircle
 10
170.4345889999999
 20
178.9671619999999
 30
0.0
 40
2.79855
100
AcDbArc
 50
324.2339250000008
 51
144.0749250000012
  0
LINE
  5
AD69
330
9CDB
100
AcDbEntity
  8
4
  6
CENTER
 48
0.1
100
AcDbLine
 10
169.0333009999999
 20
174.6896679999999
 30
0.0
 11
169.0333009999999
 21
179.370834
 31
0.0
  0
CIRCLE
  5
AD6A
330
9CDB
100
AcDbEntity
  8
1
  6
Continuous
100
AcDbCircle
 10
169.0333009999999
 20
177.0310259999999
 30
0.0
 40
1.5
  0
LINE
  5
AD6F
330
9CDB
100
AcDbEntity
  8
1
  6
Continuous
100
AcDbLine
 10
300.3057109999998
 20
125.0310259999998
 30
0.0
 11
300.3057109999998
 21
134.5313809999999
 31
0.0
  0
LINE
  5
AD70
330
9CDB
100
AcDbEntity
  8
1
  6
Continuous
100
AcDbLine
 10
321.5557109999998
 20
139.5310259999999
 30
0.0
 11
321.5557109999998
 21
124.0310259999997
 31
0.0
  0
LINE
  5
AD71
330
9CDB
100
AcDbEntity
  8
1
  6
Continuous
100
AcDbLine
 10
303.0557109999998
 20
139.5310259999999
 30
0.0
 11
303.0557109999998
 21
124.0310259999997
 31
0.0
  0
LINE
  5
AD72
330
9CDB
100
AcDbEntity
  8
1
  6
Continuous
100
AcDbLine
 10
323.5557109999998
 20
158.5310259999999
 30
0.0
 11
323.5557109999998
 21
124.0310259999997
 31
0.0
  0
LINE
  5
AD73
330
9CDB
100
AcDbEntity
  8
1
  6
Continuous
100
AcDbLine
 10
301.0557109999998
 20
158.5310259999999
 30
0.0
 11
301.0557109999998
 21
124.0310259999997
 31
0.0
  0
LINE
  5
AD74
330
9CDB
100
AcDbEntity
  8
1
  6
Continuous
100
AcDbLine
 10
328.0557109999998
 20
132.0310259999998
 30
0.0
 11
328.0557109999998
 21
129.0310259999998
 31
0.0
  0
LINE
  5
AD75
330
9CDB
100
AcDbEntity
  8
1
  6
Continuous
100
AcDbLine
 10
296.5557109999998
 20
132.0310259999998
 30
0.0
 11
296.5557109999998
 21
129.0310259999998
 31
0.0
  0
LINE
  5
AD76
330
9CDB
100
AcDbEntity
  8
1
  6
Continuous
100
AcDbLine
 10
297.505711
 20
125.0310259999998
 30
0.0
 11
297.505711
 21
134.5310259999999
 31
0.0
  0
LINE
  5
AD77
330
9CDB
100
AcDbEntity
  8
1
  6
Continuous
100
AcDbLine
 10
324.3057109999998
 20
125.0310259999998
 30
0.0
 11
324.3057109999998
 21
134.5313809999999
 31
0.0
  0
LINE
  5
AD78
330
9CDB
100
AcDbEntity
  8
1
  6
Continuous
100
AcDbLine
 10
327.1057109999998
 20
125.0310259999998
 30
0.0
 11
327.1057109999998
 21
134.5310259999999
 31
0.0
  0
LINE
  5
AD79
330
9CDB
100
AcDbEntity
  8
1
  6
Continuous
100
AcDbLine
 10
304.3057109999999
 20
139.5310259999999
 30
0.0
 11
304.3057109999999
 21
103.0310259999999
 31
0.0
  0
LINE
  5
AD7A
330
9CDB
100
AcDbEntity
  8
1
  6
Continuous
100
AcDbLine
 10
320.3057109999998
 20
139.5310259999999
 30
0.0
 11
320.3057109999998
 21
103.0310259999999
 31
0.0
  0
LINE
  5
AD7B
330
9CDB
100
AcDbEntity
  8
4
  6
CENTER
 48
0.2
100
AcDbLine
 10
312.3057109999998
 20
182.531026
 30
0.0
 11
312.3057109999998
 21
93.53102599999987
 31
0.0
  0
LINE
  5
AD7E
330
9CDB
100
AcDbEntity
  8
1
  6
Continuous
100
AcDbLine
 10
297.505711
 20
125.0310259999998
 30
0.0
 11
300.3057109999998
 21
125.0310259999998
 31
0.0
  0
LINE
  5
AD7F
330
9CDB
100
AcDbEntity
  8
4
  6
CENTER
 48
0.2
100
AcDbLine
 10
330.505711
 20
130.5310259999998
 30
0.0
 11
294.1057109999998
 21
130.5310259999998
 31
0.0
  0
LINE
  5
AD80
330
9CDB
100
AcDbEntity
  8
1
  6
Continuous
100
AcDbLine
 10
297.505711
 20
129.0310259999998
 30
0.0
 11
296.5557109999998
 21
129.0310259999998
 31
0.0
  0
ARC
  5
AD81
330
9CDB
100
AcDbEntity
  8
1
  6
Continuous
100
AcDbCircle
 10
312.3057109999998
 20
106.5310259999998
 30
0.0
 40
8.0
100
AcDbArc
 50
205.94447977237
 51
334.0555202276299
  0
LINE
  5
AD82
330
9CDB
100
AcDbEntity
  8
1
  6
Continuous
100
AcDbLine
 10
320.3057109999998
 20
103.0310259999998
 30
0.0
 11
304.3057109999999
 21
103.0310259999998
 31
0.0
  0
LINE
  5
AD83
330
9CDB
100
AcDbEntity
  8
4
  6
CENTER
 48
0.2
100
AcDbLine
 10
307.6557109999999
 20
108.5310259999998
 30
0.0
 11
316.9557109999999
 21
108.5310259999998
 31
0.0
  0
CIRCLE
  5
AD84
330
9CDB
100
AcDbEntity
  8
1
  6
Continuous
100
AcDbCircle
 10
312.3057109999998
 20
108.5310259999998
 30
0.0
 40
2.649999999999999
  0
LINE
  5
AD85
330
9CDB
100
AcDbEntity
  8
4
  6
CENTER
 48
0.2
100
AcDbLine
 10
307.6557109999999
 20
122.5310259999998
 30
0.0
 11
316.9557109999999
 21
122.5310259999998
 31
0.0
  0
LINE
  5
AD86
330
9CDB
100
AcDbEntity
  8
1
  6
Continuous
100
AcDbLine
 10
303.3057109999998
 20
128.5310259999998
 30
0.0
 11
303.3057109999998
 21
124.0310259999997
 31
0.0
  0
LINE
  5
AD87
330
9CDB
100
AcDbEntity
  8
1
  6
Continuous
100
AcDbLine
 10
304.3057109999999
 20
124.0310259999997
 30
0.0
 11
301.0557109999998
 21
124.0310259999997
 31
0.0
  0
LINE
  5
AD88
330
9CDB
100
AcDbEntity
  8
1
  6
Continuous
100
AcDbLine
 10
303.0557109999998
 20
128.5310259999998
 30
0.0
 11
304.3057109999999
 21
128.5310259999998
 31
0.0
  0
LINE
  5
AD89
330
9CDB
100
AcDbEntity
  8
1
  6
Continuous
100
AcDbLine
 10
301.0557109999998
 20
128.5310259999998
 30
0.0
 11
300.3057109999998
 21
128.5310259999998
 31
0.0
  0
CIRCLE
  5
AD8A
330
9CDB
100
AcDbEntity
  8
1
  6
Continuous
100
AcDbCircle
 10
312.3057109999998
 20
122.5310259999998
 30
0.0
 40
2.649999999999999
  0
LINE
  5
AD8B
330
9CDB
100
AcDbEntity
  8
1
  6
Continuous
100
AcDbLine
 10
328.0557109999998
 20
129.0310259999998
 30
0.0
 11
327.1057109999998
 21
129.0310259999998
 31
0.0
  0
LINE
  5
AD8C
330
9CDB
100
AcDbEntity
  8
1
  6
Continuous
100
AcDbLine
 10
321.3057109999998
 20
128.5310259999998
 30
0.0
 11
321.3057109999998
 21
124.0310259999997
 31
0.0
  0
LINE
  5
AD8D
330
9CDB
100
AcDbEntity
  8
1
  6
Continuous
100
AcDbLine
 10
323.5557109999998
 20
124.0310259999997
 30
0.0
 11
320.3057109999998
 21
124.0310259999997
 31
0.0
  0
LINE
  5
AD8E
330
9CDB
100
AcDbEntity
  8
1
  6
Continuous
100
AcDbLine
 10
327.1057109999998
 20
125.0310259999998
 30
0.0
 11
324.3057109999998
 21
125.0310259999998
 31
0.0
  0
LINE
  5
AD8F
330
9CDB
100
AcDbEntity
  8
1
  6
Continuous
100
AcDbLine
 10
320.3057109999998
 20
128.5310259999998
 30
0.0
 11
321.5557109999998
 21
128.5310259999998
 31
0.0
  0
LINE
  5
AD90
330
9CDB
100
AcDbEntity
  8
1
  6
Continuous
100
AcDbLine
 10
324.3057109999998
 20
128.5310259999998
 30
0.0
 11
323.5557109999998
 21
128.5310259999998
 31
0.0
  0
LINE
  5
ADA0
330
9CDB
100
AcDbEntity
  8
1
  6
Continuous
100
AcDbLine
 10
297.1057109999998
 20
159.6232816531639
 30
0.0
 11
299.4018759999998
 21
159.6232816531639
 31
0.0
  0
LINE
  5
ADA1
330
9CDB
100
AcDbEntity
  8
1
  6
Continuous
100
AcDbLine
 10
299.4018759999998
 20
159.6217819999997
 30
0.0
 11
289.2033726845251
 21
158.7158972735751
 31
0.0
  0
LINE
  5
ADA2
330
9CDB
100
AcDbEntity
  8
1
  6
Continuous
100
AcDbLine
 10
297.1057109999998
 20
147.9203289999999
 30
0.0
 11
300.3018759987726
 21
147.9203289999999
 31
0.0
  0
LINE
  5
ADA3
330
9CDB
100
AcDbEntity
  8
1
  6
Continuous
100
AcDbLine
 10
299.4018759999998
 20
150.6217819999997
 30
0.0
 11
289.2033726845257
 21
149.715897273575
 31
0.0
  0
LINE
  5
ADA4
330
9CDB
100
AcDbEntity
  8
1
  6
Continuous
100
AcDbLine
 10
299.4018759999998
 20
148.8217819999998
 30
0.0
 11
289.2033726845023
 21
147.915897273575
 31
0.0
  0
LINE
  5
ADA5
330
9CDB
100
AcDbEntity
  8
1
  6
Continuous
100
AcDbLine
 10
299.4018759999998
 20
152.4217819999998
 30
0.0
 11
289.2033726845257
 21
151.5158972735751
 31
0.0
  0
LINE
  5
ADAA
330
9CDB
100
AcDbEntity
  8
1
  6
Continuous
100
AcDbLine
 10
299.4018759999998
 20
154.2217819999997
 30
0.0
 11
289.2033726845255
 21
153.315897273575
 31
0.0
  0
LINE
  5
ADAC
330
9CDB
100
AcDbEntity
  8
1
  6
Continuous
100
AcDbLine
 10
299.4018759999998
 20
156.0217819999997
 30
0.0
 11
289.2033726845253
 21
155.115897273575
 31
0.0
  0
LINE
  5
ADAD
330
9CDB
100
AcDbEntity
  8
1
  6
Continuous
100
AcDbLine
 10
299.4018759999998
 20
157.8217819999998
 30
0.0
 11
289.2033726845252
 21
156.915897273575
 31
0.0
  0
LINE
  5
ADAE
330
9CDB
100
AcDbEntity
  8
1
  6
Continuous
100
AcDbLine
 10
298.0222239999998
 20
170.7800589999999
 30
0.0
 11
299.822224
 21
170.7800589999999
 31
0.0
  0
LINE
  5
ADAF
330
9CDB
100
AcDbEntity
  8
1
  6
Continuous
100
AcDbLine
 10
297.5057109999998
 20
180.2657119999999
 30
0.0
 11
300.3057109999998
 21
180.2657119999999
 31
0.0
  0
ARC
  5
ADB0
330
9CDB
100
AcDbEntity
  8
1
  6
Continuous
100
AcDbCircle
 10
297.5057109999998
 20
170.7800589999999
 30
0.0
 40
2.799999999999998
100
AcDbArc
 50
281.5868430000002
 51
0.0
  0
LINE
  5
ADB1
330
9CDB
100
AcDbEntity
  8
4
  6
CENTER
 48
0.2
100
AcDbLine
 10
294.1057109999998
 20
175.5310259999999
 30
0.0
 11
330.5057109999998
 21
175.5310259999999
 31
0.0
  0
LINE
  5
ADB3
330
9CDB
100
AcDbEntity
  8
1
  6
Continuous
100
AcDbLine
 10
297.1057109999998
 20
138.5310259999999
 30
0.0
 11
299.3105679999998
 21
136.6720559999999
 31
0.0
  0
ARC
  5
ADB4
330
9CDB
100
AcDbEntity
  8
1
  6
Continuous
100
AcDbCircle
 10
289.2058956646351
 20
159.6184175466566
 30
0.0
 40
0.9025237995488003
100
AcDbArc
 50
179.6911837717639
 51
269.8398310377601
  0
ARC
  5
ADB5
330
9CDB
100
AcDbEntity
  8
1
  6
Continuous
100
AcDbCircle
 10
289.2033726845252
 20
157.815897273575
 30
0.0
 40
0.9
100
AcDbArc
 50
90.00000000000225
 51
270.0000000000181
  0
LINE
  5
ADB6
330
9CDB
100
AcDbEntity
  8
1
  6
Continuous
100
AcDbLine
 10
291.5057109999998
 20
143.9207809999999
 30
0.0
 11
291.5057109999998
 21
148.1249594264953
 31
0.0
  0
LINE
  5
ADB7
330
9CDB
100
AcDbEntity
  8
1
  6
Continuous
100
AcDbLine
 10
297.1057109999998
 20
138.5310259999999
 30
0.0
 11
297.1057109999999
 21
148.6191495063157
 31
0.0
  0
LINE
  5
ADB8
330
9CDB
100
AcDbEntity
  8
1
  6
Continuous
100
AcDbLine
 10
294.3057109999998
 20
138.531361
 30
0.0
 11
294.3057109999998
 21
148.3720544664054
 31
0.0
  0
ARC
  5
ADB9
330
9CDB
100
AcDbEntity
  8
1
  6
Continuous
100
AcDbCircle
 10
297.1057109999998
 20
138.531361
 30
0.0
 40
2.799999999999998
100
AcDbArc
 50
180.0
 51
229.8544610000006
  0
LINE
  5
ADBA
330
9CDB
100
AcDbEntity
  8
1
  6
Continuous
100
AcDbLine
 10
297.505711
 20
134.5310259999999
 30
0.0
 11
295.3004629999998
 21
136.3910149999999
 31
0.0
  0
LINE
  5
ADBB
330
9CDB
100
AcDbEntity
  8
1
  6
Continuous
100
AcDbLine
 10
297.505711
 20
132.0310259999998
 30
0.0
 11
296.5557109999998
 21
132.0310259999998
 31
0.0
  0
LINE
  5
ADBC
330
9CDB
100
AcDbEntity
  8
1
  6
Continuous
100
AcDbLine
 10
291.5057109999998
 20
143.9207809999999
 30
0.0
 11
294.3057109999998
 21
143.9207809999999
 31
0.0
  0
ARC
  5
ADBD
330
9CDB
100
AcDbEntity
  8
1
  6
Continuous
100
AcDbCircle
 10
289.2033726845253
 20
154.215897273575
 30
0.0
 40
0.9
100
AcDbArc
 50
90.00000000000225
 51
270.0000000000181
  0
ARC
  5
ADBE
330
9CDB
100
AcDbEntity
  8
1
  6
Continuous
100
AcDbCircle
 10
289.2033726845252
 20
156.015897273575
 30
0.0
 40
0.9
100
AcDbArc
 50
90.00000000000225
 51
269.9999999999855
  0
ARC
  5
ADBF
330
9CDB
100
AcDbEntity
  8
1
  6
Continuous
100
AcDbCircle
 10
289.2033726845255
 20
148.815897273575
 30
0.0
 40
0.9
100
AcDbArc
 50
90.00000000000225
 51
270.0000000000361
  0
ARC
  5
ADC0
330
9CDB
100
AcDbEntity
  8
1
  6
Continuous
100
AcDbCircle
 10
289.2033726845257
 20
150.615897273575
 30
0.0
 40
0.9
100
AcDbArc
 50
90.00000000000225
 51
269.9999999999855
  0
ARC
  5
ADC1
330
9CDB
100
AcDbEntity
  8
1
  6
Continuous
100
AcDbCircle
 10
289.2033726845257
 20
152.415897273575
 30
0.0
 40
0.9
100
AcDbArc
 50
90.00000000000225
 51
269.9999999999855
  0
LINE
  5
ADC2
330
9CDB
100
AcDbEntity
  8
1
  6
Continuous
100
AcDbLine
 10
289.2033726845023
 20
147.915897273575
 30
0.0
 11
294.3057109999998
 21
147.918829
 31
0.0
  0
LINE
  5
ADC3
330
9CDB
100
AcDbEntity
  8
1
  6
Continuous
100
AcDbLine
 10
297.5057109999998
 20
170.7800589999999
 30
0.0
 11
297.5057109999998
 21
180.2657119999999
 31
0.0
  0
LINE
  5
ADC4
330
9CDB
100
AcDbEntity
  8
1
  6
Continuous
100
AcDbLine
 10
288.3033849744792
 20
159.6232819999999
 30
0.0
 11
291.5057109999998
 21
159.6232819999999
 31
0.0
  0
LINE
  5
ADC5
330
9CDB
100
AcDbEntity
  8
1
  6
Continuous
100
AcDbLine
 10
294.3057109999998
 20
159.1720544664055
 30
0.0
 11
294.3057109999998
 21
167.2657119999999
 31
0.0
  0
LINE
  5
ADC6
330
9CDB
100
AcDbEntity
  8
1
  6
Continuous
100
AcDbLine
 10
291.5057109999998
 20
158.9249594264953
 30
0.0
 11
291.5057109999998
 21
167.2657119999999
 31
0.0
  0
LINE
  5
ADC7
330
9CDB
100
AcDbEntity
  8
1
  6
Continuous
100
AcDbLine
 10
294.3057109999998
 20
159.6232819999999
 30
0.0
 11
297.1057109999998
 21
159.6232819999999
 31
0.0
  0
LINE
  5
ADC8
330
9CDB
100
AcDbEntity
  8
1
  6
Continuous
100
AcDbLine
 10
297.1057109999998
 20
159.4191495063157
 30
0.0
 11
297.1057109999998
 21
163.6228299999999
 31
0.0
  0
LINE
  5
ADC9
330
9CDB
100
AcDbEntity
  8
1
  6
Continuous
100
AcDbLine
 10
294.3057109999998
 20
163.6228299999999
 30
0.0
 11
297.1057109999998
 21
163.6228299999999
 31
0.0
  0
ARC
  5
ADCA
330
9CDB
100
AcDbEntity
  8
1
  6
Continuous
100
AcDbCircle
 10
294.3057109999998
 20
167.2657119999999
 30
0.0
 40
2.799999999999998
100
AcDbArc
 50
101.5868430000002
 51
180.0
  0
LINE
  5
ADCB
330
9CDB
100
AcDbEntity
  8
1
  6
Continuous
100
AcDbLine
 10
297.5057109999998
 20
170.7800589999999
 30
0.0
 11
293.7433219999998
 21
170.0086519999998
 31
0.0
  0
LINE
  5
ADCC
330
9CDB
100
AcDbEntity
  8
1
  6
Continuous
100
AcDbLine
 10
294.3057109999998
 20
167.2657119999999
 30
0.0
 11
298.0680989999999
 21
168.037119
 31
0.0
  0
LINE
  5
ADCD
330
9CDB
100
AcDbEntity
  8
1
  6
Continuous
100
AcDbLine
 10
296.5557109999998
 20
177.031026
 30
0.0
 11
297.5057109999998
 21
177.031026
 31
0.0
  0
LINE
  5
ADCE
330
9CDB
100
AcDbEntity
  8
1
  6
Continuous
100
AcDbLine
 10
296.5557109999998
 20
174.0310259999999
 30
0.0
 11
297.5057109999998
 21
174.0310259999999
 31
0.0
  0
LINE
  5
ADCF
330
9CDB
100
AcDbEntity
  8
1
  6
Continuous
100
AcDbLine
 10
296.5557109999998
 20
177.031026
 30
0.0
 11
296.5557109999998
 21
174.0310259999999
 31
0.0
  0
ARC
  5
ADD3
330
9CDB
100
AcDbEntity
  8
1
  6
Continuous
100
AcDbCircle
 10
299.4018759999998
 20
158.7217819999998
 30
0.0
 40
0.9
100
AcDbArc
 50
270.0000000000021
 51
89.99999999998552
  0
LINE
  5
ADD4
330
9CDB
100
AcDbEntity
  8
1
  6
Continuous
100
AcDbLine
 10
301.5557109999998
 20
160.5310259999999
 30
0.0
 11
301.5557109999998
 21
158.5310259999999
 31
0.0
  0
LINE
  5
ADD5
330
9CDB
100
AcDbEntity
  8
1
  6
Continuous
100
AcDbLine
 10
323.0557109999999
 20
160.5310259999999
 30
0.0
 11
323.0557109999999
 21
158.5310259999999
 31
0.0
  0
ARC
  5
ADD6
330
9CDB
100
AcDbEntity
  8
1
  6
Continuous
100
AcDbCircle
 10
316.3057109999998
 20
143.0310259999999
 30
0.0
 40
1.5
100
AcDbArc
 50
180.0
 51
0.0
  0
ARC
  5
ADD7
330
9CDB
100
AcDbEntity
  8
1
  6
Continuous
100
AcDbCircle
 10
316.3057109999998
 20
154.031026
 30
0.0
 40
1.5
100
AcDbArc
 50
0.0
 51
180.0
  0
LINE
  5
ADD8
330
9CDB
100
AcDbEntity
  8
1
  6
Continuous
100
AcDbLine
 10
323.5557109999998
 20
158.5310259999999
 30
0.0
 11
301.0557109999998
 21
158.5310259999999
 31
0.0
  0
LINE
  5
ADD9
330
9CDB
100
AcDbEntity
  8
1
  6
Continuous
100
AcDbLine
 10
303.0557109999998
 20
158.5310259999999
 30
0.0
 11
303.0557109999998
 21
144.5310259999999
 31
0.0
  0
LINE
  5
ADDA
330
9CDB
100
AcDbEntity
  8
1
  6
Continuous
100
AcDbLine
 10
306.8057109999998
 20
154.031026
 30
0.0
 11
306.8057109999998
 21
143.0310259999999
 31
0.0
  0
LINE
  5
ADDB
330
9CDB
100
AcDbEntity
  8
1
  6
Continuous
100
AcDbLine
 10
314.8057109999998
 20
154.031026
 30
0.0
 11
314.8057109999998
 21
143.0310259999999
 31
0.0
  0
LINE
  5
ADDC
330
9CDB
100
AcDbEntity
  8
1
  6
Continuous
100
AcDbLine
 10
309.8057109999998
 20
154.031026
 30
0.0
 11
309.8057109999998
 21
143.0310259999999
 31
0.0
  0
LINE
  5
ADDD
330
9CDB
100
AcDbEntity
  8
1
  6
Continuous
100
AcDbLine
 10
303.3057109999998
 20
158.5310259999999
 30
0.0
 11
303.3057109999998
 21
144.5310259999999
 31
0.0
  0
ARC
  5
ADDE
330
9CDB
100
AcDbEntity
  8
1
  6
Continuous
100
AcDbCircle
 10
308.3057109999998
 20
143.0310259999999
 30
0.0
 40
1.5
100
AcDbArc
 50
180.0
 51
0.0
  0
LINE
  5
ADDF
330
9CDB
100
AcDbEntity
  8
4
  6
CENTER
 48
0.2
100
AcDbLine
 10
307.6557109999999
 20
136.5310259999999
 30
0.0
 11
316.9557109999999
 21
136.5310259999999
 31
0.0
  0
LINE
  5
ADE0
330
9CDB
100
AcDbEntity
  8
1
  6
Continuous
100
AcDbLine
 10
303.3057109999998
 20
139.5310259999999
 30
0.0
 11
303.3057109999998
 21
132.5310259999998
 31
0.0
  0
LINE
  5
ADE1
330
9CDB
100
AcDbEntity
  8
1
  6
Continuous
100
AcDbLine
 10
303.0557109999998
 20
132.5310259999998
 30
0.0
 11
304.3057109999999
 21
132.5310259999998
 31
0.0
  0
LINE
  5
ADE2
330
9CDB
100
AcDbEntity
  8
1
  6
Continuous
100
AcDbLine
 10
303.0557109999998
 20
138.331026
 30
0.0
 11
301.0557109999998
 21
138.331026
 31
0.0
  0
ARC
  5
ADE3
330
9CDB
100
AcDbEntity
  8
1
  6
Continuous
100
AcDbCircle
 10
297.505711
 20
134.5313809999999
 30
0.0
 40
2.799999999999998
100
AcDbArc
 50
0.0
 51
49.86492500000025
  0
LINE
  5
ADE4
330
9CDB
100
AcDbEntity
  8
1
  6
Continuous
100
AcDbLine
 10
301.0557109999998
 20
132.5310259999998
 30
0.0
 11
300.3057109999998
 21
132.5310259999998
 31
0.0
  0
LINE
  5
ADE5
330
9CDB
100
AcDbEntity
  8
1
  6
Continuous
100
AcDbLine
 10
304.3057109999999
 20
139.5310259999999
 30
0.0
 11
301.0557109999998
 21
139.5310259999999
 31
0.0
  0
LINE
  5
ADE6
330
9CDB
100
AcDbEntity
  8
1
  6
Continuous
100
AcDbLine
 10
303.3057109999998
 20
144.5310259999999
 30
0.0
 11
301.0557109999998
 21
144.5310259999999
 31
0.0
  0
CIRCLE
  5
ADE7
330
9CDB
100
AcDbEntity
  8
1
  6
Continuous
100
AcDbCircle
 10
312.3057109999998
 20
136.5310259999999
 30
0.0
 40
2.649999999999999
  0
ARC
  5
ADE8
330
9CDB
100
AcDbEntity
  8
1
  6
Continuous
100
AcDbCircle
 10
308.3057109999998
 20
154.031026
 30
0.0
 40
1.5
100
AcDbArc
 50
0.0
 51
180.0
  0
ARC
  5
ADE9
330
9CDB
100
AcDbEntity
  8
1
  6
Continuous
100
AcDbCircle
 10
299.4018759999998
 20
151.5217819999998
 30
0.0
 40
0.9
100
AcDbArc
 50
270.0000000000021
 51
89.99999999998552
  0
ARC
  5
ADEA
330
9CDB
100
AcDbEntity
  8
1
  6
Continuous
100
AcDbCircle
 10
299.4018759999998
 20
147.9217819999997
 30
0.0
 40
0.9
100
AcDbArc
 50
359.9074991069047
 51
90.0000000000181
  0
ARC
  5
ADEB
330
9CDB
100
AcDbEntity
  8
1
  6
Continuous
100
AcDbCircle
 10
299.4018759999998
 20
149.7217819999997
 30
0.0
 40
0.9
100
AcDbArc
 50
270.0000000000021
 51
89.99999999998552
  0
LINE
  5
ADEC
330
9CDB
100
AcDbEntity
  8
1
  6
Continuous
100
AcDbLine
 10
303.0557109999998
 20
145.8310259999999
 30
0.0
 11
301.0557109999998
 21
145.8310259999999
 31
0.0
  0
ARC
  5
ADED
330
9CDB
100
AcDbEntity
  8
1
  6
Continuous
100
AcDbCircle
 10
299.4018759999998
 20
153.3217819999998
 30
0.0
 40
0.9
100
AcDbArc
 50
270.0000000000021
 51
89.99999999998552
  0
ARC
  5
ADEE
330
9CDB
100
AcDbEntity
  8
1
  6
Continuous
100
AcDbCircle
 10
299.4018759999998
 20
155.1217819999997
 30
0.0
 40
0.9
100
AcDbArc
 50
270.0000000000021
 51
89.99999999998552
  0
ARC
  5
ADEF
330
9CDB
100
AcDbEntity
  8
1
  6
Continuous
100
AcDbCircle
 10
299.4018759999998
 20
156.9217819999997
 30
0.0
 40
0.9
100
AcDbArc
 50
270.0000000000021
 51
90.0000000000362
  0
LINE
  5
ADF0
330
9CDB
100
AcDbEntity
  8
1
  6
Continuous
100
AcDbLine
 10
333.1057109999998
 20
143.9207809999999
 30
0.0
 11
333.1057109999999
 21
148.6191495063157
 31
0.0
  0
LINE
  5
ADF1
330
9CDB
100
AcDbEntity
  8
1
  6
Continuous
100
AcDbLine
 10
327.505711
 20
138.5310259999999
 30
0.0
 11
327.505711
 21
148.1249594264953
 31
0.0
  0
LINE
  5
ADF2
330
9CDB
100
AcDbEntity
  8
1
  6
Continuous
100
AcDbLine
 10
330.3057109999998
 20
138.531361
 30
0.0
 11
330.3057109999999
 21
148.3720544664055
 31
0.0
  0
LINE
  5
ADF3
330
9CDB
100
AcDbEntity
  8
1
  6
Continuous
100
AcDbLine
 10
321.5557109999998
 20
158.5310259999999
 30
0.0
 11
321.5557109999998
 21
144.5310259999999
 31
0.0
  0
LINE
  5
ADF4
330
9CDB
100
AcDbEntity
  8
1
  6
Continuous
100
AcDbLine
 10
317.8057109999998
 20
154.031026
 30
0.0
 11
317.8057109999998
 21
143.0310259999999
 31
0.0
  0
LINE
  5
ADF5
330
9CDB
100
AcDbEntity
  8
1
  6
Continuous
100
AcDbLine
 10
321.3057109999998
 20
158.5310259999999
 30
0.0
 11
321.3057109999998
 21
144.5310259999999
 31
0.0
  0
LINE
  5
ADF6
330
9CDB
100
AcDbEntity
  8
1
  6
Continuous
100
AcDbLine
 10
327.1057109999998
 20
134.5310259999999
 30
0.0
 11
329.3109589999998
 21
136.3910149999999
 31
0.0
  0
LINE
  5
ADF7
330
9CDB
100
AcDbEntity
  8
1
  6
Continuous
100
AcDbLine
 10
327.505711
 20
138.5310259999999
 30
0.0
 11
325.300854
 21
136.6720559999999
 31
0.0
  0
LINE
  5
ADF8
330
9CDB
100
AcDbEntity
  8
1
  6
Continuous
100
AcDbLine
 10
328.0557109999998
 20
132.0310259999998
 30
0.0
 11
327.1057109999998
 21
132.0310259999998
 31
0.0
  0
LINE
  5
ADF9
330
9CDB
100
AcDbEntity
  8
1
  6
Continuous
100
AcDbLine
 10
321.3057109999998
 20
139.5310259999999
 30
0.0
 11
321.3057109999998
 21
132.5310259999998
 31
0.0
  0
LINE
  5
ADFA
330
9CDB
100
AcDbEntity
  8
1
  6
Continuous
100
AcDbLine
 10
321.5557109999998
 20
138.331026
 30
0.0
 11
323.5557109999998
 21
138.331026
 31
0.0
  0
LINE
  5
ADFB
330
9CDB
100
AcDbEntity
  8
1
  6
Continuous
100
AcDbLine
 10
320.3057109999998
 20
132.5310259999998
 30
0.0
 11
321.5557109999998
 21
132.5310259999998
 31
0.0
  0
ARC
  5
ADFC
330
9CDB
100
AcDbEntity
  8
1
  6
Continuous
100
AcDbCircle
 10
327.1057109999998
 20
134.5313809999999
 30
0.0
 40
2.799999999999998
100
AcDbArc
 50
130.1350749999997
 51
180.0
  0
LINE
  5
ADFD
330
9CDB
100
AcDbEntity
  8
1
  6
Continuous
100
AcDbLine
 10
324.3057109999998
 20
132.5310259999998
 30
0.0
 11
323.5557109999998
 21
132.5310259999998
 31
0.0
  0
LINE
  5
ADFE
330
9CDB
100
AcDbEntity
  8
1
  6
Continuous
100
AcDbLine
 10
323.5557109999998
 20
144.5310259999999
 30
0.0
 11
321.3057109999998
 21
144.5310259999999
 31
0.0
  0
LINE
  5
ADFF
330
9CDB
100
AcDbEntity
  8
1
  6
Continuous
100
AcDbLine
 10
323.5557109999998
 20
139.5310259999999
 30
0.0
 11
320.3057109999998
 21
139.5310259999999
 31
0.0
  0
ARC
  5
AE00
330
9CDB
100
AcDbEntity
  8
1
  6
Continuous
100
AcDbCircle
 10
327.505711
 20
138.531361
 30
0.0
 40
2.799999999999998
100
AcDbArc
 50
310.1455389999993
 51
0.0
  0
LINE
  5
AE01
330
9CDB
100
AcDbEntity
  8
1
  6
Continuous
100
AcDbLine
 10
333.1057109999998
 20
143.9207809999999
 30
0.0
 11
330.3057109999998
 21
143.9207809999999
 31
0.0
  0
LINE
  5
AE02
330
9CDB
100
AcDbEntity
  8
1
  6
Continuous
100
AcDbLine
 10
325.2125687057471
 20
147.918829
 30
0.0
 11
327.5057109999998
 21
147.9188289999999
 31
0.0
  0
LINE
  5
AE0F
330
9CDB
100
AcDbEntity
  8
1
  6
Continuous
100
AcDbLine
 10
321.5557109999998
 20
145.8310259999999
 30
0.0
 11
323.5557109999998
 21
145.8310259999999
 31
0.0
  0
LINE
  5
AE15
330
9CDB
100
AcDbEntity
  8
1
  6
Continuous
100
AcDbLine
 10
330.3057109999998
 20
147.9203289999999
 30
0.0
 11
336.3018759987726
 21
147.9203289999999
 31
0.0
  0
LINE
  5
AE1B
330
9CDB
100
AcDbEntity
  8
1
  6
Continuous
100
AcDbLine
 10
300.3057109999998
 20
177.5310259999999
 30
0.0
 11
324.3057109999998
 21
177.5310259999999
 31
0.0
  0
LINE
  5
AE1C
330
9CDB
100
AcDbEntity
  8
1
  6
Continuous
100
AcDbLine
 10
300.3057109999998
 20
173.5310259999999
 30
0.0
 11
324.3057109999998
 21
173.5310259999999
 31
0.0
  0
LINE
  5
AE1D
330
9CDB
100
AcDbEntity
  8
1
  6
Continuous
100
AcDbLine
 10
323.0557109999999
 20
160.5310259999999
 30
0.0
 11
301.5557109999998
 21
160.5310259999999
 31
0.0
  0
LINE
  5
AE1E
330
9CDB
100
AcDbEntity
  8
1
  6
Continuous
100
AcDbLine
 10
300.3057109999998
 20
170.7800589999999
 30
0.0
 11
300.3057109999998
 21
180.2657119999999
 31
0.0
  0
LINE
  5
AE1F
330
9CDB
100
AcDbEntity
  8
1
  6
Continuous
100
AcDbLine
 10
324.3057109999998
 20
170.7800589999999
 30
0.0
 11
324.3057109999998
 21
180.2657119999999
 31
0.0
  0
LINE
  5
AE20
330
9CDB
100
AcDbEntity
  8
1
  6
Continuous
100
AcDbLine
 10
327.1057109999998
 20
170.7800589999999
 30
0.0
 11
327.1057109999998
 21
180.2657119999999
 31
0.0
  0
LINE
  5
AE21
330
9CDB
100
AcDbEntity
  8
1
  6
Continuous
100
AcDbLine
 10
324.3033849744792
 20
159.6232819999999
 30
0.0
 11
330.3057109999998
 21
159.6232819999999
 31
0.0
  0
LINE
  5
AE23
330
9CDB
100
AcDbEntity
  8
1
  6
Continuous
100
AcDbLine
 10
327.1057109999998
 20
170.7800589999999
 30
0.0
 11
330.8680989999998
 21
170.0086519999998
 31
0.0
  0
LINE
  5
AE24
330
9CDB
100
AcDbEntity
  8
1
  6
Continuous
100
AcDbLine
 10
330.3057109999998
 20
167.2657119999999
 30
0.0
 11
326.5433219999998
 21
168.037119
 31
0.0
  0
LINE
  5
AE25
330
9CDB
100
AcDbEntity
  8
1
  6
Continuous
100
AcDbLine
 10
326.589198
 20
170.7800589999999
 30
0.0
 11
324.7891979999999
 21
170.7800589999999
 31
0.0
  0
ARC
  5
AE26
330
9CDB
100
AcDbEntity
  8
1
  6
Continuous
100
AcDbCircle
 10
327.1057109999998
 20
170.7800589999999
 30
0.0
 40
2.799999999999998
100
AcDbArc
 50
180.0
 51
258.4131569999996
  0
LINE
  5
AE27
330
9CDB
100
AcDbEntity
  8
1
  6
Continuous
100
AcDbLine
 10
333.1057109999998
 20
159.4191495063157
 30
0.0
 11
333.1057109999998
 21
167.2657119999999
 31
0.0
  0
LINE
  5
AE28
330
9CDB
100
AcDbEntity
  8
1
  6
Continuous
100
AcDbLine
 10
330.3057109999997
 20
159.1720544664054
 30
0.0
 11
330.3057109999998
 21
167.2657119999999
 31
0.0
  0
LINE
  5
AE29
330
9CDB
100
AcDbEntity
  8
1
  6
Continuous
100
AcDbLine
 10
327.5057109999998
 20
158.9249594264952
 30
0.0
 11
327.5057109999998
 21
163.6228299999999
 31
0.0
  0
LINE
  5
AE2A
330
9CDB
100
AcDbEntity
  8
1
  6
Continuous
100
AcDbLine
 10
330.3057109999998
 20
163.6228299999999
 30
0.0
 11
327.5057109999998
 21
163.6228299999999
 31
0.0
  0
LINE
  5
AE2B
330
9CDB
100
AcDbEntity
  8
1
  6
Continuous
100
AcDbLine
 10
333.1057109999998
 20
159.6232816531639
 30
0.0
 11
335.4018759999998
 21
159.6232816531639
 31
0.0
  0
ARC
  5
AE2C
330
9CDB
100
AcDbEntity
  8
1
  6
Continuous
100
AcDbCircle
 10
330.3057109999998
 20
167.2657119999999
 30
0.0
 40
2.799999999999998
100
AcDbArc
 50
0.0
 51
78.41315699999976
  0
LINE
  5
AE2D
330
9CDB
100
AcDbEntity
  8
1
  6
Continuous
100
AcDbLine
 10
328.0557109999998
 20
174.0310259999999
 30
0.0
 11
327.1057109999998
 21
174.0310259999999
 31
0.0
  0
LINE
  5
AE2E
330
9CDB
100
AcDbEntity
  8
1
  6
Continuous
100
AcDbLine
 10
328.0557109999998
 20
177.031026
 30
0.0
 11
327.1057109999998
 21
177.031026
 31
0.0
  0
LINE
  5
AE2F
330
9CDB
100
AcDbEntity
  8
1
  6
Continuous
100
AcDbLine
 10
327.1057109999998
 20
180.2657119999999
 30
0.0
 11
324.3057109999998
 21
180.2657119999999
 31
0.0
  0
LINE
  5
AE30
330
9CDB
100
AcDbEntity
  8
1
  6
Continuous
100
AcDbLine
 10
328.0557109999998
 20
177.031026
 30
0.0
 11
328.0557109999998
 21
174.0310259999999
 31
0.0
  0
LINE
  5
B1A9
330
9CDB
100
AcDbEntity
  8
4
  6
CENTER
 48
0.1
100
AcDbLine
 10
168.3333009999998
 20
124.0310259999997
 30
0.0
 11
175.5333009999999
 21
124.0310259999997
 31
0.0
  0
LINE
  5
B1AC
330
9CDB
100
AcDbEntity
  8
1
  6
Continuous
100
AcDbLine
 10
335.4018759999998
 20
159.6217819999997
 30
0.0
 11
325.2033726845251
 21
158.7158972735751
 31
0.0
  0
LINE
  5
B1AD
330
9CDB
100
AcDbEntity
  8
1
  6
Continuous
100
AcDbLine
 10
335.4018759999998
 20
157.8217819999998
 30
0.0
 11
325.2033726845251
 21
156.915897273575
 31
0.0
  0
LINE
  5
B1AE
330
9CDB
100
AcDbEntity
  8
1
  6
Continuous
100
AcDbLine
 10
335.4018759999998
 20
156.0217819999997
 30
0.0
 11
325.2033726845253
 21
155.115897273575
 31
0.0
  0
LINE
  5
B1AF
330
9CDB
100
AcDbEntity
  8
1
  6
Continuous
100
AcDbLine
 10
335.4018759999998
 20
154.2217819999997
 30
0.0
 11
325.2033726845255
 21
153.315897273575
 31
0.0
  0
LINE
  5
B1B0
330
9CDB
100
AcDbEntity
  8
1
  6
Continuous
100
AcDbLine
 10
335.4018759999998
 20
152.4217819999998
 30
0.0
 11
325.2033726845256
 21
151.5158972735751
 31
0.0
  0
LINE
  5
B1B1
330
9CDB
100
AcDbEntity
  8
1
  6
Continuous
100
AcDbLine
 10
335.4018759999998
 20
150.6217819999997
 30
0.0
 11
325.2033726845256
 21
149.715897273575
 31
0.0
  0
ARC
  5
B1B2
330
9CDB
100
AcDbEntity
  8
1
  6
Continuous
100
AcDbCircle
 10
325.2033726845251
 20
157.815897273575
 30
0.0
 40
0.9
100
AcDbArc
 50
90.00000000000225
 51
270.0000000000181
  0
ARC
  5
B1B3
330
9CDB
100
AcDbEntity
  8
1
  6
Continuous
100
AcDbCircle
 10
325.2033726845256
 20
152.415897273575
 30
0.0
 40
0.9
100
AcDbArc
 50
90.00000000000225
 51
269.9999999999855
  0
ARC
  5
B1B4
330
9CDB
100
AcDbEntity
  8
1
  6
Continuous
100
AcDbCircle
 10
325.2033726845257
 20
150.615897273575
 30
0.0
 40
0.9
100
AcDbArc
 50
90.00000000000225
 51
269.9999999999855
  0
ARC
  5
B1B5
330
9CDB
100
AcDbEntity
  8
1
  6
Continuous
100
AcDbCircle
 10
325.2033726845255
 20
148.815897273575
 30
0.0
 40
0.9
100
AcDbArc
 50
90.00000000000225
 51
270.0000000000361
  0
ARC
  5
B1B6
330
9CDB
100
AcDbEntity
  8
1
  6
Continuous
100
AcDbCircle
 10
325.2033726845251
 20
156.015897273575
 30
0.0
 40
0.9
100
AcDbArc
 50
90.00000000000225
 51
269.9999999999855
  0
ARC
  5
B1B7
330
9CDB
100
AcDbEntity
  8
1
  6
Continuous
100
AcDbCircle
 10
325.2033726845253
 20
154.215897273575
 30
0.0
 40
0.9
100
AcDbArc
 50
90.00000000000225
 51
270.0000000000181
  0
ARC
  5
B1B8
330
9CDB
100
AcDbEntity
  8
1
  6
Continuous
100
AcDbCircle
 10
325.2058956646351
 20
159.6184175466566
 30
0.0
 40
0.9025237995488003
100
AcDbArc
 50
179.6911837717639
 51
269.8398310377601
  0
LINE
  5
B1B9
330
9CDB
100
AcDbEntity
  8
1
  6
Continuous
100
AcDbLine
 10
335.4018759999998
 20
148.8217819999998
 30
0.0
 11
325.2033726845023
 21
147.915897273575
 31
0.0
  0
ARC
  5
B1BA
330
9CDB
100
AcDbEntity
  8
1
  6
Continuous
100
AcDbCircle
 10
335.4018759999998
 20
158.7217819999998
 30
0.0
 40
0.9
100
AcDbArc
 50
270.0000000000021
 51
89.99999999998552
  0
ARC
  5
B1BB
330
9CDB
100
AcDbEntity
  8
1
  6
Continuous
100
AcDbCircle
 10
335.4018759999998
 20
156.9217819999997
 30
0.0
 40
0.9
100
AcDbArc
 50
270.0000000000021
 51
90.0000000000362
  0
ARC
  5
B1BC
330
9CDB
100
AcDbEntity
  8
1
  6
Continuous
100
AcDbCircle
 10
335.4018759999998
 20
153.3217819999998
 30
0.0
 40
0.9
100
AcDbArc
 50
270.0000000000021
 51
89.99999999998552
  0
ARC
  5
B1BD
330
9CDB
100
AcDbEntity
  8
1
  6
Continuous
100
AcDbCircle
 10
335.4018759999998
 20
147.9217819999997
 30
0.0
 40
0.9
100
AcDbArc
 50
359.9074991069047
 51
90.0000000000181
  0
ARC
  5
B1BE
330
9CDB
100
AcDbEntity
  8
1
  6
Continuous
100
AcDbCircle
 10
335.4018759999998
 20
149.7217819999997
 30
0.0
 40
0.9
100
AcDbArc
 50
270.0000000000021
 51
89.99999999998552
  0
ARC
  5
B1BF
330
9CDB
100
AcDbEntity
  8
1
  6
Continuous
100
AcDbCircle
 10
335.4018759999998
 20
151.5217819999998
 30
0.0
 40
0.9
100
AcDbArc
 50
270.0000000000021
 51
89.99999999998552
  0
ARC
  5
B1C0
330
9CDB
100
AcDbEntity
  8
1
  6
Continuous
100
AcDbCircle
 10
335.4018759999998
 20
155.1217819999997
 30
0.0
 40
0.9
100
AcDbArc
 50
270.0000000000021
 51
89.99999999998552
  0
LINE
  5
B1C1
330
9CDB
100
AcDbEntity
  8
1
  6
Continuous
100
AcDbLine
 10
24.66054000000002
 20
159.3217819999998
 30
0.0
 11
14.4620366845254
 21
158.415897273575
 31
0.0
  0
LINE
  5
B1C2
330
9CDB
100
AcDbEntity
  8
1
  6
Continuous
100
AcDbLine
 10
24.66054000000002
 20
157.5217819999997
 30
0.0
 11
14.46203668452551
 21
156.615897273575
 31
0.0
  0
LINE
  5
B1C3
330
9CDB
100
AcDbEntity
  8
1
  6
Continuous
100
AcDbLine
 10
24.66054000000002
 20
155.7217819999998
 30
0.0
 11
14.46203668452568
 21
154.815897273575
 31
0.0
  0
LINE
  5
B1C4
330
9CDB
100
AcDbEntity
  8
1
  6
Continuous
100
AcDbLine
 10
24.66054000000002
 20
153.9217819999998
 30
0.0
 11
14.46203668452585
 21
153.015897273575
 31
0.0
  0
LINE
  5
B1C5
330
9CDB
100
AcDbEntity
  8
1
  6
Continuous
100
AcDbLine
 10
24.66054000000002
 20
150.3217819999998
 30
0.0
 11
14.46203668450255
 21
149.415897273575
 31
0.0
  0
LINE
  5
B1C6
330
9CDB
100
AcDbEntity
  8
1
  6
Continuous
100
AcDbLine
 10
24.66054000000002
 20
152.1217819999997
 30
0.0
 11
14.46203668452585
 21
151.215897273575
 31
0.0
  0
ARC
  5
B1C7
330
9CDB
100
AcDbEntity
  8
1
  6
Continuous
100
AcDbCircle
 10
24.66054000000002
 20
160.2217819999997
 30
0.0
 40
0.9
100
AcDbArc
 50
270.0000000000021
 51
89.99999999998552
  0
ARC
  5
B1C8
330
9CDB
100
AcDbEntity
  8
1
  6
Continuous
100
AcDbCircle
 10
24.66054000000002
 20
158.4217819999997
 30
0.0
 40
0.9
100
AcDbArc
 50
270.0000000000021
 51
90.0000000000362
  0
ARC
  5
B1C9
330
9CDB
100
AcDbEntity
  8
1
  6
Continuous
100
AcDbCircle
 10
24.66054000000002
 20
154.8217819999998
 30
0.0
 40
0.9
100
AcDbArc
 50
270.0000000000021
 51
89.99999999998552
  0
ARC
  5
B1CA
330
9CDB
100
AcDbEntity
  8
1
  6
Continuous
100
AcDbCircle
 10
24.66054000000002
 20
149.4217819999997
 30
0.0
 40
0.9
100
AcDbArc
 50
359.9074991069047
 51
90.0000000000181
  0
ARC
  5
B1CB
330
9CDB
100
AcDbEntity
  8
1
  6
Continuous
100
AcDbCircle
 10
24.66054000000002
 20
151.2217819999998
 30
0.0
 40
0.9
100
AcDbArc
 50
270.0000000000021
 51
89.99999999998552
  0
ARC
  5
B1CC
330
9CDB
100
AcDbEntity
  8
1
  6
Continuous
100
AcDbCircle
 10
24.66054000000002
 20
153.0217819999998
 30
0.0
 40
0.9
100
AcDbArc
 50
270.0000000000021
 51
89.99999999998552
  0
ARC
  5
B1CD
330
9CDB
100
AcDbEntity
  8
1
  6
Continuous
100
AcDbCircle
 10
24.66054000000002
 20
156.6217819999996
 30
0.0
 40
0.9
100
AcDbArc
 50
270.0000000000021
 51
89.99999999998552
  0
LINE
  5
B1CE
330
9CDB
100
AcDbEntity
  8
1
  6
Continuous
100
AcDbLine
 10
24.66054000000002
 20
161.1217819999997
 30
0.0
 11
14.46203668452534
 21
160.215897273575
 31
0.0
  0
ARC
  5
B1CF
330
9CDB
100
AcDbEntity
  8
1
  6
Continuous
100
AcDbCircle
 10
14.4620366845254
 20
159.3158972735751
 30
0.0
 40
0.9
100
AcDbArc
 50
90.00000000000225
 51
270.0000000000181
  0
ARC
  5
B1D0
330
9CDB
100
AcDbEntity
  8
1
  6
Continuous
100
AcDbCircle
 10
14.46203668452585
 20
153.915897273575
 30
0.0
 40
0.9
100
AcDbArc
 50
90.00000000000225
 51
269.9999999999855
  0
ARC
  5
B1D1
330
9CDB
100
AcDbEntity
  8
1
  6
Continuous
100
AcDbCircle
 10
14.46203668452591
 20
152.115897273575
 30
0.0
 40
0.9
100
AcDbArc
 50
90.00000000000225
 51
269.9999999999855
  0
ARC
  5
B1D2
330
9CDB
100
AcDbEntity
  8
1
  6
Continuous
100
AcDbCircle
 10
14.46203668452574
 20
150.315897273575
 30
0.0
 40
0.9
100
AcDbArc
 50
90.00000000000225
 51
270.0000000000361
  0
ARC
  5
B1D3
330
9CDB
100
AcDbEntity
  8
1
  6
Continuous
100
AcDbCircle
 10
14.46203668452545
 20
157.515897273575
 30
0.0
 40
0.9
100
AcDbArc
 50
90.00000000000225
 51
269.9999999999855
  0
ARC
  5
B1D4
330
9CDB
100
AcDbEntity
  8
1
  6
Continuous
100
AcDbCircle
 10
14.46203668452551
 20
155.715897273575
 30
0.0
 40
0.9
100
AcDbArc
 50
90.00000000000225
 51
270.0000000000181
  0
ARC
  5
B1D5
330
9CDB
100
AcDbEntity
  8
1
  6
Continuous
100
AcDbCircle
 10
14.46455966463531
 20
161.1184175466567
 30
0.0
 40
0.9025237995488003
100
AcDbArc
 50
179.6911837717639
 51
269.8398310377601
  0
ARC
  5
B1D6
330
9CDB
100
AcDbEntity
  8
1
  6
Continuous
100
AcDbCircle
 10
60.66054000000002
 20
160.2217819999997
 30
0.0
 40
0.9
100
AcDbArc
 50
270.0000000000021
 51
89.99999999998552
  0
LINE
  5
B1D7
330
9CDB
100
AcDbEntity
  8
1
  6
Continuous
100
AcDbLine
 10
60.66054000000002
 20
150.3217819999998
 30
0.0
 11
50.46203668450254
 21
149.415897273575
 31
0.0
  0
LINE
  5
B1D8
330
9CDB
100
AcDbEntity
  8
1
  6
Continuous
100
AcDbLine
 10
60.66054000000002
 20
152.1217819999997
 30
0.0
 11
50.46203668452585
 21
151.215897273575
 31
0.0
  0
LINE
  5
B1D9
330
9CDB
100
AcDbEntity
  8
1
  6
Continuous
100
AcDbLine
 10
60.66054000000002
 20
153.9217819999998
 30
0.0
 11
50.46203668452585
 21
153.015897273575
 31
0.0
  0
LINE
  5
B1DA
330
9CDB
100
AcDbEntity
  8
1
  6
Continuous
100
AcDbLine
 10
60.66054000000002
 20
155.7217819999998
 30
0.0
 11
50.46203668452569
 21
154.815897273575
 31
0.0
  0
LINE
  5
B1DB
330
9CDB
100
AcDbEntity
  8
1
  6
Continuous
100
AcDbLine
 10
60.66054000000002
 20
157.5217819999997
 30
0.0
 11
50.46203668452553
 21
156.615897273575
 31
0.0
  0
LINE
  5
B1DC
330
9CDB
100
AcDbEntity
  8
1
  6
Continuous
100
AcDbLine
 10
60.66054000000002
 20
159.3217819999998
 30
0.0
 11
50.46203668452539
 21
158.415897273575
 31
0.0
  0
ARC
  5
B1DD
330
9CDB
100
AcDbEntity
  8
1
  6
Continuous
100
AcDbCircle
 10
60.66054000000002
 20
154.8217819999998
 30
0.0
 40
0.9
100
AcDbArc
 50
270.0000000000021
 51
89.99999999998552
  0
ARC
  5
B1DE
330
9CDB
100
AcDbEntity
  8
1
  6
Continuous
100
AcDbCircle
 10
60.66054000000002
 20
149.4217819999997
 30
0.0
 40
0.9
100
AcDbArc
 50
359.9074991069047
 51
90.0000000000181
  0
ARC
  5
B1DF
330
9CDB
100
AcDbEntity
  8
1
  6
Continuous
100
AcDbCircle
 10
60.66054000000002
 20
153.0217819999998
 30
0.0
 40
0.9
100
AcDbArc
 50
270.0000000000021
 51
89.99999999998552
  0
ARC
  5
B1E0
330
9CDB
100
AcDbEntity
  8
1
  6
Continuous
100
AcDbCircle
 10
60.66054000000002
 20
151.2217819999998
 30
0.0
 40
0.9
100
AcDbArc
 50
270.0000000000021
 51
89.99999999998552
  0
ARC
  5
B1E1
330
9CDB
100
AcDbEntity
  8
1
  6
Continuous
100
AcDbCircle
 10
60.66054000000002
 20
156.6217819999996
 30
0.0
 40
0.9
100
AcDbArc
 50
270.0000000000021
 51
89.99999999998552
  0
ARC
  5
B1E2
330
9CDB
100
AcDbEntity
  8
1
  6
Continuous
100
AcDbCircle
 10
60.66054000000002
 20
158.4217819999997
 30
0.0
 40
0.9
100
AcDbArc
 50
270.0000000000021
 51
90.0000000000362
  0
ARC
  5
B1E3
330
9CDB
100
AcDbEntity
  8
1
  6
Continuous
100
AcDbCircle
 10
50.46203668452539
 20
159.3158972735751
 30
0.0
 40
0.9
100
AcDbArc
 50
90.00000000000225
 51
270.0000000000181
  0
ARC
  5
B1E4
330
9CDB
100
AcDbEntity
  8
1
  6
Continuous
100
AcDbCircle
 10
50.46203668452585
 20
153.915897273575
 30
0.0
 40
0.9
100
AcDbArc
 50
90.00000000000225
 51
269.9999999999855
  0
ARC
  5
B1E5
330
9CDB
100
AcDbEntity
  8
1
  6
Continuous
100
AcDbCircle
 10
50.46203668452573
 20
150.315897273575
 30
0.0
 40
0.9
100
AcDbArc
 50
90.00000000000225
 51
270.0000000000361
  0
ARC
  5
B1E6
330
9CDB
100
AcDbEntity
  8
1
  6
Continuous
100
AcDbCircle
 10
50.46203668452591
 20
152.115897273575
 30
0.0
 40
0.9
100
AcDbArc
 50
90.00000000000225
 51
269.9999999999855
  0
ARC
  5
B1E7
330
9CDB
100
AcDbEntity
  8
1
  6
Continuous
100
AcDbCircle
 10
50.46203668452553
 20
155.715897273575
 30
0.0
 40
0.9
100
AcDbArc
 50
90.00000000000225
 51
270.0000000000181
  0
ARC
  5
B1E8
330
9CDB
100
AcDbEntity
  8
1
  6
Continuous
100
AcDbCircle
 10
50.46203668452545
 20
157.515897273575
 30
0.0
 40
0.9
100
AcDbArc
 50
90.00000000000225
 51
269.9999999999855
  0
LINE
  5
B1E9
330
9CDB
100
AcDbEntity
  8
1
  6
Continuous
100
AcDbLine
 10
60.66054000000002
 20
161.1217819999997
 30
0.0
 11
50.46203668452534
 21
160.215897273575
 31
0.0
  0
ARC
  5
B1EA
330
9CDB
100
AcDbEntity
  8
1
  6
Continuous
100
AcDbCircle
 10
50.46455966463532
 20
161.1184175466567
 30
0.0
 40
0.9025237995488003
100
AcDbArc
 50
179.6911837717639
 51
269.8398310377601
  0
LINE
  5
B1FA
330
9CDB
100
AcDbEntity
  8
1
  6
Continuous
100
AcDbLine
 10
160.7938890793293
 20
108.8630259999995
 30
0.0
 11
162.6128890793293
 21
108.0310259999994
 31
0.0
  0
ARC
  5
B1FD
330
9CDB
100
AcDbEntity
  8
1
  6
Continuous
100
AcDbCircle
 10
37.564375
 20
108.8418095282909
 30
0.0
 40
8.0
100
AcDbArc
 50
180.0
 51
0.0000099999977495
  0
ENDSEC
  0
SECTION
  2
OBJECTS
  0
DICTIONARY
  5
9CC9
330
0
100
AcDbDictionary
281
     1
  3
ACAD_CIP_PREVIOUS_PRODUCT_INFO
350
B2A6
  3
ACAD_COLOR
350
B288
  3
ACAD_DETAILVIEWSTYLE
350
B2A1
  3
ACAD_GROUP
350
9CCA
  3
ACAD_LAYOUT
350
9CD6
  3
ACAD_MATERIAL
350
B256
  3
ACAD_MLEADERSTYLE
350
B29D
  3
ACAD_MLINESTYLE
350
9CD3
  3
ACAD_PLOTSETTINGS
350
9CD5
  3
ACAD_PLOTSTYLENAME
350
B254
  3
ACAD_SCALELIST
350
B28B
  3
ACAD_SECTIONVIEWSTYLE
350
B29F
  3
ACAD_TABLESTYLE
350
B289
  3
ACAD_VISUALSTYLE
350
B26F
  3
ACDB_RECOMPOSE_DATA
350
B2C4
  3
AcDbVariableDictionary
350
B2B7
  3
DWGPROPS
350
B2C5
  0
DICTIONARY
  5
B2A7
330
9CCD
100
AcDbDictionary
280
     1
281
     1
  3
ADSK_XREC_LAYER_RECONCILED
360
B2A8
  0
DICTIONARY
  5
B2A9
330
9CE3
100
AcDbDictionary
280
     1
281
     1
  3
ADSK_XREC_LAYER_RECONCILED
360
B2AA
  0
DICTIONARY
  5
B2AB
330
9CE4
100
AcDbDictionary
280
     1
281
     1
  3
ADSK_XREC_LAYER_RECONCILED
360
B2AC
  0
DICTIONARY
  5
B2AD
330
9CE5
100
AcDbDictionary
280
     1
281
     1
  3
ADSK_XREC_LAYER_RECONCILED
360
B2AE
  0
DICTIONARY
  5
B2AF
330
9CE6
100
AcDbDictionary
280
     1
281
     1
  3
ADSK_XREC_LAYER_RECONCILED
360
B2B0
  0
DICTIONARY
  5
B2B1
330
9CE7
100
AcDbDictionary
280
     1
281
     1
  3
ADSK_XREC_LAYER_RECONCILED
360
B2B2
  0
DICTIONARY
  5
B2B3
330
9CE8
100
AcDbDictionary
280
     1
281
     1
  3
ADSK_XREC_LAYER_RECONCILED
360
B2B4
  0
DICTIONARY
  5
B2B5
330
9CE9
100
AcDbDictionary
280
     1
281
     1
  3
ADSK_XREC_LAYER_RECONCILED
360
B2B6
  0
DICTIONARY
  5
9F34
330
9CDB
100
AcDbDictionary
281
     1
  3
ACAD_LAYOUTSELFREF
350
B250
  0
DICTIONARY
  5
9F32
330
9CD7
100
AcDbDictionary
281
     1
  3
ACAD_LAYOUTSELFREF
350
B24F
  0
XRECORD
  5
B2A6
102
{ACAD_REACTORS
330
9CC9
102
}
330
9CC9
100
AcDbXrecord
280
     1
300
ACDLT
300
2014
300
ACDLT_F_S
  0
DICTIONARY
  5
B288
102
{ACAD_REACTORS
330
9CC9
102
}
330
9CC9
100
AcDbDictionary
281
     1
  0
DICTIONARY
  5
B2A1
102
{ACAD_REACTORS
330
9CC9
102
}
330
9CC9
100
AcDbDictionary
281
     1
  3
Imperial24
350
B2A2
  0
DICTIONARY
  5
9CCA
102
{ACAD_REACTORS
330
9CC9
102
}
330
9CC9
100
AcDbDictionary
281
     1
  0
DICTIONARY
  5
9CD6
102
{ACAD_REACTORS
330
9CC9
102
}
330
9CC9
100
AcDbDictionary
281
     1
  3
Model
350
B2A3
  3
レイアウト1
350
B2A4
  0
DICTIONARY
  5
B256
102
{ACAD_REACTORS
330
9CC9
102
}
330
9CC9
100
AcDbDictionary
281
     1
  3
ByBlock
350
B25F
  3
ByLayer
350
B257
  3
Global
350
B267
  0
DICTIONARY
  5
B29D
102
{ACAD_REACTORS
330
9CC9
102
}
330
9CC9
100
AcDbDictionary
281
     1
  3
Standard
350
B29E
  0
DICTIONARY
  5
9CD3
102
{ACAD_REACTORS
330
9CC9
102
}
330
9CC9
100
AcDbDictionary
281
     1
  3
STANDARD
350
9CD4
  0
DICTIONARY
  5
9CD5
102
{ACAD_REACTORS
330
9CC9
102
}
330
9CC9
100
AcDbDictionary
281
     1
  0
ACDBDICTIONARYWDFLT
  5
B254
102
{ACAD_REACTORS
330
9CC9
102
}
330
9CC9
100
AcDbDictionary
281
     1
  3
Normal
350
B255
100
AcDbDictionaryWithDefault
340
B255
  0
DICTIONARY
  5
B28B
102
{ACAD_REACTORS
330
9CC9
102
}
330
9CC9
100
AcDbDictionary
281
     1
  3
A0
350
B28C
  3
A1
350
B28D
  3
A2
350
B28E
  3
A3
350
B28F
  3
A4
350
B290
  3
A5
350
B291
  3
A6
350
B292
  3
A7
350
B293
  3
A8
350
B294
  3
A9
350
B295
  3
B0
350
B296
  3
B1
350
B297
  3
B2
350
B298
  3
B3
350
B299
  3
B4
350
B29A
  3
B5
350
B29B
  3
B6
350
B29C
  0
DICTIONARY
  5
B29F
102
{ACAD_REACTORS
330
9CC9
102
}
330
9CC9
100
AcDbDictionary
281
     1
  3
Imperial24
350
B2A0
  0
DICTIONARY
  5
B289
102
{ACAD_REACTORS
330
9CC9
102
}
330
9CC9
100
AcDbDictionary
281
     1
  3
Standard
350
B28A
  0
DICTIONARY
  5
B26F
102
{ACAD_REACTORS
330
9CC9
102
}
330
9CC9
100
AcDbDictionary
281
     1
  3
2dWireframe
350
B275
  3
Basic
350
B274
  3
Brighten
350
B27B
  3
ColorChange
350
B27F
  3
Conceptual
350
B278
  3
Dim
350
B27A
  3
EdgeColorOff
350
B287
  3
Facepattern
350
B27E
  3
Flat
350
B270
  3
FlatWithEdges
350
B271
  3
Gouraud
350
B272
  3
GouraudWithEdges
350
B273
  3
Hidden
350
B277
  3
JitterOff
350
B285
  3
Linepattern
350
B27D
  3
OverhangOff
350
B286
  3
Realistic
350
B279
  3
Shaded
350
B284
  3
Shaded with edges
350
B283
  3
Shades of Gray
350
B280
  3
Sketchy
350
B281
  3
Thicken
350
B27C
  3
Wireframe
350
B276
  3
X-Ray
350
B282
  0
XRECORD
  5
B2C4
102
{ACAD_REACTORS
330
9CC9
102
}
330
9CC9
100
AcDbXrecord
280
     1
 90
        1
330
B28A
  0
DICTIONARY
  5
B2B7
102
{ACAD_REACTORS
330
9CC9
102
}
330
9CC9
100
AcDbDictionary
281
     1
  3
CANNOSCALE
350
B2BC
  3
CMLEADERSTYLE
350
B2B9
  3
CTABLESTYLE
350
B2B8
  3
CVIEWDETAILSTYLE
350
B2BA
  3
CVIEWSECTIONSTYLE
350
B2BB
  3
DIMASSOC
350
B2BF
  3
INDEXCTL
350
B2BE
  3
SORTENTS
350
B2BD
  3
XCLIPFRAME
350
B2C0
  0
XRECORD
  5
B2C5
102
{ACAD_REACTORS
330
9CC9
102
}
330
9CC9
100
AcDbXrecord
280
     1
  1
DWGPROPS COOKIE
  2

  3

  4

  6

  7

  8
Yoshitsune
  9

300
=
301
=
302
=
303
=
304
=
305
=
306
=
307
=
308
=
309
=
 40
0.0407909953703704
 41
2451066.399414468
 42
2457192.598666841
  1

 90
        0
  0
XRECORD
  5
B2A8
102
{ACAD_REACTORS
330
B2A7
102
}
330
B2A7
100
AcDbXrecord
280
     1
290
     1
  0
XRECORD
  5
B2AA
102
{ACAD_REACTORS
330
B2A9
102
}
330
B2A9
100
AcDbXrecord
280
     1
290
     1
  0
XRECORD
  5
B2AC
102
{ACAD_REACTORS
330
B2AB
102
}
330
B2AB
100
AcDbXrecord
280
     1
290
     1
  0
XRECORD
  5
B2AE
102
{ACAD_REACTORS
330
B2AD
102
}
330
B2AD
100
AcDbXrecord
280
     1
290
     1
  0
XRECORD
  5
B2B0
102
{ACAD_REACTORS
330
B2AF
102
}
330
B2AF
100
AcDbXrecord
280
     1
290
     1
  0
XRECORD
  5
B2B2
102
{ACAD_REACTORS
330
B2B1
102
}
330
B2B1
100
AcDbXrecord
280
     1
290
     1
  0
XRECORD
  5
B2B4
102
{ACAD_REACTORS
330
B2B3
102
}
330
B2B3
100
AcDbXrecord
280
     1
290
     1
  0
XRECORD
  5
B2B6
102
{ACAD_REACTORS
330
B2B5
102
}
330
B2B5
100
AcDbXrecord
280
     1
290
     1
  0
XRECORD
  5
B250
102
{ACAD_REACTORS
330
9F34
102
}
330
9F34
100
AcDbXrecord
280
     1
340
9CDB
  0
XRECORD
  5
B24F
102
{ACAD_REACTORS
330
9F32
102
}
330
9F32
100
AcDbXrecord
280
     1
340
9CD7
  0
ACDBDETAILVIEWSTYLE
  5
B2A2
102
{ACAD_XDICTIONARY
360
B2FD
102
}
102
{ACAD_REACTORS
330
B2A1
102
}
330
B2A1
100
AcDbModelDocViewStyle
 70
     0
  3
Imperial24
290
     0
100
AcDbDetailViewStyle
 70
     0
 71
     0
 90
        3
 71
     1
340
9CCE
 40
0.24
340
0
 40
0.24
300

 40
0.36
280
     3
 71
     2
340
9CD2
 90
       25
 71
     3
340
9CCE
 40
0.24
 90
        1
 40
0.75
 90
        1
300
%<\AcVar ViewType \f "%tc1">% %<\AcVar ViewDetailId>%\PSCALE %<\AcVar ViewScale \f "%sn">%
 71
     4
340
9CD2
 90
       25
340
9CD2
 90
       25
280
     0
  0
LAYOUT
  5
B2A3
102
{ACAD_XDICTIONARY
360
B2FF
102
}
102
{ACAD_REACTORS
330
9CD6
102
}
330
9CD6
100
AcDbPlotSettings
  1

  2
Canon LBP9100C
  4

  6

 40
0.0
 41
0.0
 42
0.0
 43
0.0
 44
0.0
 45
0.0
 46
0.0
 47
0.0
 48
0.0
 49
0.0
140
0.0
141
0.0
142
1.0
143
1.0
 70
  1712
 72
     0
 73
     0
 74
     0
  7

 75
     0
147
1.0
148
0.0
149
0.0
100
AcDbLayout
  1
Model
 70
     1
 71
     0
 10
0.0
 20
0.0
 11
12.0
 21
9.0
 12
0.0
 22
0.0
 32
0.0
 14
0.0
 24
0.0
 34
0.0
 15
0.0
 25
0.0
 35
0.0
146
0.0
 13
0.0
 23
0.0
 33
0.0
 16
1.0
 26
0.0
 36
0.0
 17
0.0
 27
1.0
 37
0.0
 76
     0
330
9CDB
331
B24E
  0
LAYOUT
  5
B2A4
102
{ACAD_XDICTIONARY
360
B301
102
}
102
{ACAD_REACTORS
330
9CD6
102
}
330
9CD6
100
AcDbPlotSettings
  1

  2
Canon LBP9100C
  4

  6

 40
0.0
 41
0.0
 42
0.0
 43
0.0
 44
0.0
 45
0.0
 46
0.0
 47
0.0
 48
0.0
 49
0.0
140
0.0
141
0.0
142
1.0
143
1.0
 70
   688
 72
     0
 73
     0
 74
     5
  7

 75
    16
147
1.0
148
0.0
149
0.0
100
AcDbLayout
  1
レイアウト1
 70
     0
 71
     1
 10
0.0
 20
0.0
 11
420.0
 21
297.0
 12
0.0
 22
0.0
 32
0.0
 14
1.000000000000000E+20
 24
1.000000000000000E+20
 34
1.000000000000000E+20
 15
-1.000000000000000E+20
 25
-1.000000000000000E+20
 35
-1.000000000000000E+20
146
0.0
 13
0.0
 23
0.0
 33
0.0
 16
1.0
 26
0.0
 36
0.0
 17
0.0
 27
1.0
 37
0.0
 76
     0
330
9CD7
  0
MATERIAL
  5
B25F
102
{ACAD_XDICTIONARY
360
B260
102
}
102
{ACAD_REACTORS
330
B256
102
}
330
B256
100
AcDbMaterial
  1
ByBlock
 72
     0
 43
0.0208333333333333
 43
0.0
 43
0.0
 43
0.0
 43
0.0
 43
0.0208333333333333
 43
0.0
 43
0.0
 43
0.0
 43
0.0
 43
1.0
 43
0.0
 43
0.0
 43
0.0
 43
0.0
 43
1.0
 77
     0
 47
0.0208333333333333
 47
0.0
 47
0.0
 47
0.0
 47
0.0
 47
0.0208333333333333
 47
0.0
 47
0.0
 47
0.0
 47
0.0
 47
1.0
 47
0.0
 47
0.0
 47
0.0
 47
0.0
 47
1.0
171
     0
 49
0.0208333333333333
 49
0.0
 49
0.0
 49
0.0
 49
0.0
 49
0.0208333333333333
 49
0.0
 49
0.0
 49
0.0
 49
0.0
 49
1.0
 49
0.0
 49
0.0
 49
0.0
 49
0.0
 49
1.0
175
     0
142
0.0208333333333333
142
0.0
142
0.0
142
0.0
142
0.0
142
0.0208333333333333
142
0.0
142
0.0
142
0.0
142
0.0
142
1.0
142
0.0
142
0.0
142
0.0
142
0.0
142
1.0
179
     0
144
0.0208333333333333
144
0.0
144
0.0
144
0.0
144
0.0
144
0.0208333333333333
144
0.0
144
0.0
144
0.0
144
0.0
144
1.0
144
0.0
144
0.0
144
0.0
144
0.0
144
1.0
147
0.0208333333333333
147
0.0
147
0.0
147
0.0
147
0.0
147
0.0208333333333333
147
0.0
147
0.0
147
0.0
147
0.0
147
1.0
147
0.0
147
0.0
147
0.0
147
0.0
147
1.0
  0
MATERIAL
  5
B257
102
{ACAD_XDICTIONARY
360
B258
102
}
102
{ACAD_REACTORS
330
B256
102
}
330
B256
100
AcDbMaterial
  1
ByLayer
 72
     0
 43
0.0208333333333333
 43
0.0
 43
0.0
 43
0.0
 43
0.0
 43
0.0208333333333333
 43
0.0
 43
0.0
 43
0.0
 43
0.0
 43
1.0
 43
0.0
 43
0.0
 43
0.0
 43
0.0
 43
1.0
 77
     0
 47
0.0208333333333333
 47
0.0
 47
0.0
 47
0.0
 47
0.0
 47
0.0208333333333333
 47
0.0
 47
0.0
 47
0.0
 47
0.0
 47
1.0
 47
0.0
 47
0.0
 47
0.0
 47
0.0
 47
1.0
171
     0
 49
0.0208333333333333
 49
0.0
 49
0.0
 49
0.0
 49
0.0
 49
0.0208333333333333
 49
0.0
 49
0.0
 49
0.0
 49
0.0
 49
1.0
 49
0.0
 49
0.0
 49
0.0
 49
0.0
 49
1.0
175
     0
142
0.0208333333333333
142
0.0
142
0.0
142
0.0
142
0.0
142
0.0208333333333333
142
0.0
142
0.0
142
0.0
142
0.0
142
1.0
142
0.0
142
0.0
142
0.0
142
0.0
142
1.0
179
     0
144
0.0208333333333333
144
0.0
144
0.0
144
0.0
144
0.0
144
0.0208333333333333
144
0.0
144
0.0
144
0.0
144
0.0
144
1.0
144
0.0
144
0.0
144
0.0
144
0.0
144
1.0
147
0.0208333333333333
147
0.0
147
0.0
147
0.0
147
0.0
147
0.0208333333333333
147
0.0
147
0.0
147
0.0
147
0.0
147
1.0
147
0.0
147
0.0
147
0.0
147
0.0
147
1.0
  0
MATERIAL
  5
B267
102
{ACAD_XDICTIONARY
360
B268
102
}
102
{ACAD_REACTORS
330
B256
102
}
330
B256
100
AcDbMaterial
  1
Global
 72
     0
 43
0.0208333333333333
 43
0.0
 43
0.0
 43
0.0
 43
0.0
 43
0.0208333333333333
 43
0.0
 43
0.0
 43
0.0
 43
0.0
 43
1.0
 43
0.0
 43
0.0
 43
0.0
 43
0.0
 43
1.0
 77
     0
 47
0.0208333333333333
 47
0.0
 47
0.0
 47
0.0
 47
0.0
 47
0.0208333333333333
 47
0.0
 47
0.0
 47
0.0
 47
0.0
 47
1.0
 47
0.0
 47
0.0
 47
0.0
 47
0.0
 47
1.0
171
     0
 49
0.0208333333333333
 49
0.0
 49
0.0
 49
0.0
 49
0.0
 49
0.0208333333333333
 49
0.0
 49
0.0
 49
0.0
 49
0.0
 49
1.0
 49
0.0
 49
0.0
 49
0.0
 49
0.0
 49
1.0
175
     0
142
0.0208333333333333
142
0.0
142
0.0
142
0.0
142
0.0
142
0.0208333333333333
142
0.0
142
0.0
142
0.0
142
0.0
142
1.0
142
0.0
142
0.0
142
0.0
142
0.0
142
1.0
179
     0
144
0.0208333333333333
144
0.0
144
0.0
144
0.0
144
0.0
144
0.0208333333333333
144
0.0
144
0.0
144
0.0
144
0.0
144
1.0
144
0.0
144
0.0
144
0.0
144
0.0
144
1.0
147
0.0208333333333333
147
0.0
147
0.0
147
0.0
147
0.0
147
0.0208333333333333
147
0.0
147
0.0
147
0.0
147
0.0
147
1.0
147
0.0
147
0.0
147
0.0
147
0.0
147
1.0
  0
MLEADERSTYLE
  5
B29E
102
{ACAD_REACTORS
330
B29D
102
}
330
B29D
100
AcDbMLeaderStyle
170
     2
171
     1
172
     0
 90
        2
 40
0.0
 41
0.0
173
     1
 91
-1056964608
340
9CD0
 92
       -2
290
     1
 42
0.09
291
     1
 43
0.36
  3
Standard
 44
0.18
300

342
9CCE
174
     1
178
     6
175
     1
176
     0
 93
-1056964608
 45
0.18
292
     0
297
     0
 46
0.18
 94
-1056964608
 47
1.0
 49
1.0
140
1.0
293
     1
141
0.0
294
     1
177
     0
142
1.0
295
     0
296
     0
143
0.125
1001
ACAD_MLEADERVER
1070
     2
  0
MLINESTYLE
  5
9CD4
102
{ACAD_REACTORS
330
9CD3
102
}
330
9CD3
100
AcDbMlineStyle
  2
STANDARD
 70
     0
  3

 62
   256
 51
90.0
 52
90.0
 71
     2
 49
0.5
 62
   256
  6
BYLAYER
 49
-0.5
 62
   256
  6
BYLAYER
  0
ACDBPLACEHOLDER
  5
B255
102
{ACAD_REACTORS
330
B254
102
}
330
B254
  0
SCALE
  5
B28C
102
{ACAD_REACTORS
330
B28B
102
}
330
B28B
100
AcDbScale
 70
     0
300
1:1
140
1.0
141
1.0
290
     1
  0
SCALE
  5
B28D
102
{ACAD_REACTORS
330
B28B
102
}
330
B28B
100
AcDbScale
 70
     0
300
1/128" = 1'-0"
140
0.0078125
141
12.0
290
     0
  0
SCALE
  5
B28E
102
{ACAD_REACTORS
330
B28B
102
}
330
B28B
100
AcDbScale
 70
     0
300
1/64" = 1'-0"
140
0.015625
141
12.0
290
     0
  0
SCALE
  5
B28F
102
{ACAD_REACTORS
330
B28B
102
}
330
B28B
100
AcDbScale
 70
     0
300
1/32" = 1'-0"
140
0.03125
141
12.0
290
     0
  0
SCALE
  5
B290
102
{ACAD_REACTORS
330
B28B
102
}
330
B28B
100
AcDbScale
 70
     0
300
1/16" = 1'-0"
140
0.0625
141
12.0
290
     0
  0
SCALE
  5
B291
102
{ACAD_REACTORS
330
B28B
102
}
330
B28B
100
AcDbScale
 70
     0
300
3/32" = 1'-0"
140
0.09375
141
12.0
290
     0
  0
SCALE
  5
B292
102
{ACAD_REACTORS
330
B28B
102
}
330
B28B
100
AcDbScale
 70
     0
300
1/8" = 1'-0"
140
0.125
141
12.0
290
     0
  0
SCALE
  5
B293
102
{ACAD_REACTORS
330
B28B
102
}
330
B28B
100
AcDbScale
 70
     0
300
3/16" = 1'-0"
140
0.1875
141
12.0
290
     0
  0
SCALE
  5
B294
102
{ACAD_REACTORS
330
B28B
102
}
330
B28B
100
AcDbScale
 70
     0
300
1/4" = 1'-0"
140
0.25
141
12.0
290
     0
  0
SCALE
  5
B295
102
{ACAD_REACTORS
330
B28B
102
}
330
B28B
100
AcDbScale
 70
     0
300
3/8" = 1'-0"
140
0.375
141
12.0
290
     0
  0
SCALE
  5
B296
102
{ACAD_REACTORS
330
B28B
102
}
330
B28B
100
AcDbScale
 70
     0
300
1/2" = 1'-0"
140
0.5
141
12.0
290
     0
  0
SCALE
  5
B297
102
{ACAD_REACTORS
330
B28B
102
}
330
B28B
100
AcDbScale
 70
     0
300
3/4" = 1'-0"
140
0.75
141
12.0
290
     0
  0
SCALE
  5
B298
102
{ACAD_REACTORS
330
B28B
102
}
330
B28B
100
AcDbScale
 70
     0
300
1" = 1'-0"
140
1.0
141
12.0
290
     0
  0
SCALE
  5
B299
102
{ACAD_REACTORS
330
B28B
102
}
330
B28B
100
AcDbScale
 70
     0
300
1-1/2" = 1'-0"
140
1.5
141
12.0
290
     0
  0
SCALE
  5
B29A
102
{ACAD_REACTORS
330
B28B
102
}
330
B28B
100
AcDbScale
 70
     0
300
3" = 1'-0"
140
3.0
141
12.0
290
     0
  0
SCALE
  5
B29B
102
{ACAD_REACTORS
330
B28B
102
}
330
B28B
100
AcDbScale
 70
     0
300
6" = 1'-0"
140
6.0
141
12.0
290
     0
  0
SCALE
  5
B29C
102
{ACAD_REACTORS
330
B28B
102
}
330
B28B
100
AcDbScale
 70
     0
300
1'-0" = 1'-0"
140
12.0
141
12.0
290
     0
  0
ACDBSECTIONVIEWSTYLE
  5
B2A0
102
{ACAD_XDICTIONARY
360
B2FB
102
}
102
{ACAD_REACTORS
330
B29F
102
}
330
B29F
100
AcDbModelDocViewStyle
 70
     0
  3
Imperial24
290
     0
100
AcDbSectionViewStyle
 70
     0
 71
     0
 90
       78
 71
     1
340
9CCE
 40
0.24
340
0
340
0
 40
0.24
300
I, O, Q, S, X, Z
 40
0.48
 90
        3
 40
0.18
 90
        1
 71
     2
340
9CD2
 90
       25
340
9CD2
 90
       50
 40
0.24
 40
0.0
 40
0.24
 71
     3
340
9CCE
 40
0.24
 90
        1
 40
0.75
 90
        1
300
%<\AcVar ViewType \f "%tc1">% %<\AcVar ViewSectionStartId>%-%<\AcVar ViewSectionEndId>%\PSCALE %<\AcVar ViewScale \f "%sn">%
 71
     4
300
ANSI31
 40
1.0
 90
        0
290
     0
290
     0
 90
        6
 40
0.0
 40
1.570796326794896
 40
0.2617993877991494
 40
1.308996938995747
 40
-0.2617993877991494
 40
1.832595714594046
  0
TABLESTYLE
  5
B28A
102
{ACAD_XDICTIONARY
360
B2C2
102
}
102
{ACAD_REACTORS
330
B289
102
}
330
B289
100
AcDbTableStyle
  3
Standard
 70
     0
 71
     0
 40
0.06
 41
0.06
280
     0
281
     0
  7
STANDARD
140
0.18
170
     2
 62
     0
 63
     7
283
     0
274
    -2
284
     1
 64
     0
275
    -2
285
     1
 65
     0
276
    -2
286
     1
 66
     0
277
    -2
287
     1
 67
     0
278
    -2
288
     1
 68
     0
279
    -2
289
     1
 69
     0
  7
STANDARD
140
0.25
170
     5
 62
     0
 63
     7
283
     0
274
    -2
284
     1
 64
     0
275
    -2
285
     1
 65
     0
276
    -2
286
     1
 66
     0
277
    -2
287
     1
 67
     0
278
    -2
288
     1
 68
     0
279
    -2
289
     1
 69
     0
  7
STANDARD
140
0.18
170
     5
 62
     0
 63
     7
283
     0
274
    -2
284
     1
 64
     0
275
    -2
285
     1
 65
     0
276
    -2
286
     1
 66
     0
277
    -2
287
     1
 67
     0
278
    -2
288
     1
 68
     0
279
    -2
289
     1
 69
     0
  0
VISUALSTYLE
  5
B275
102
{ACAD_XDICTIONARY
360
B2D3
102
}
102
{ACAD_REACTORS
330
B26F
102
}
330
B26F
100
AcDbVisualStyle
  2
2dWireframe
 70
     4
 71
     0
 72
     2
 73
     0
 90
        0
 40
-0.6
 41
-30.0
 62
     5
 63
     7
 74
     1
 91
        4
 64
     7
 65
   257
 75
     1
175
     1
 42
1.0
 92
        0
 66
   257
 43
1.0
 76
     1
 77
     6
 78
     2
 67
     7
 79
     5
170
     0
171
     0
290
     0
174
     0
 93
        1
 44
0.0
173
     0
291
     0
 45
0.0
1001
ACAD
1000
AcDbSavedByObjectVersion
1070
     0
  0
VISUALSTYLE
  5
B274
102
{ACAD_XDICTIONARY
360
B2D1
102
}
102
{ACAD_REACTORS
330
B26F
102
}
330
B26F
100
AcDbVisualStyle
  2
Basic
 70
     7
 71
     1
 72
     0
 73
     1
 90
        0
 40
-0.6
 41
-30.0
 62
     5
 63
     7
 74
     0
 91
        4
 64
     7
 65
   257
 75
     1
175
     1
 42
1.0
 92
        8
 66
     7
 43
1.0
 76
     1
 77
     6
 78
     2
 67
     7
 79
     5
170
     0
171
     0
290
     0
174
     0
 93
        1
 44
0.0
173
     0
291
     1
 45
0.0
1001
ACAD
1000
AcDbSavedByObjectVersion
1070
     0
  0
VISUALSTYLE
  5
B27B
102
{ACAD_XDICTIONARY
360
B2DF
102
}
102
{ACAD_REACTORS
330
B26F
102
}
330
B26F
100
AcDbVisualStyle
  2
Brighten
 70
    12
 71
     2
 72
     2
 73
     0
 90
        0
 40
-0.6
 41
-30.0
 62
     5
 63
     7
 74
     1
 91
        4
 64
     7
 65
   257
 75
     1
175
     1
 42
1.0
 92
        8
 66
     7
 43
1.0
 76
     1
 77
     6
 78
     2
 67
     7
 79
     5
170
     0
171
     0
290
     0
174
     0
 93
        1
 44
50.0
173
     0
291
     1
 45
0.0
1001
ACAD
1000
AcDbSavedByObjectVersion
1070
     0
  0
VISUALSTYLE
  5
B27F
102
{ACAD_XDICTIONARY
360
B2E7
102
}
102
{ACAD_REACTORS
330
B26F
102
}
330
B26F
100
AcDbVisualStyle
  2
ColorChange
 70
    16
 71
     2
 72
     2
 73
     3
 90
        0
 40
-0.6
 41
-30.0
 62
     5
 63
     8
 74
     1
 91
        4
 64
     7
 65
   257
 75
     1
175
     1
 42
1.0
 92
        8
 66
     8
 43
1.0
 76
     1
 77
     6
 78
     2
 67
     7
 79
     5
170
     0
171
     0
290
     0
174
     0
 93
        1
 44
0.0
173
     0
291
     1
 45
0.0
1001
ACAD
1000
AcDbSavedByObjectVersion
1070
     0
  0
VISUALSTYLE
  5
B278
102
{ACAD_XDICTIONARY
360
B2D9
102
}
102
{ACAD_REACTORS
330
B26F
102
}
330
B26F
100
AcDbVisualStyle
  2
Conceptual
 70
     9
 71
     3
 72
     2
 73
     0
 90
        0
 40
-0.6
 41
-30.0
 62
     5
 63
     7
 74
     2
 91
        2
 64
     7
 65
   257
 75
     1
175
     1
 42
179.0
 92
        8
 66
     7
 43
1.0
 76
     1
 77
     6
 78
     2
 67
     7
 79
     3
170
     0
171
     0
290
     0
174
     0
 93
        1
 44
0.0
173
     0
291
     0
 45
0.0
1001
ACAD
1000
AcDbSavedByObjectVersion
1070
     0
  0
VISUALSTYLE
  5
B27A
102
{ACAD_XDICTIONARY
360
B2DD
102
}
102
{ACAD_REACTORS
330
B26F
102
}
330
B26F
100
AcDbVisualStyle
  2
Dim
 70
    11
 71
     2
 72
     2
 73
     0
 90
        0
 40
-0.6
 41
-30.0
 62
     5
 63
     7
 74
     1
 91
        4
 64
     7
 65
   257
 75
     1
175
     1
 42
1.0
 92
        8
 66
     7
 43
1.0
 76
     1
 77
     6
 78
     2
 67
     7
 79
     5
170
     0
171
     0
290
     0
174
     0
 93
        1
 44
-50.0
173
     0
291
     1
 45
0.0
1001
ACAD
1000
AcDbSavedByObjectVersion
1070
     0
  0
VISUALSTYLE
  5
B287
102
{ACAD_XDICTIONARY
360
B2F7
102
}
102
{ACAD_REACTORS
330
B26F
102
}
330
B26F
100
AcDbVisualStyle
  2
EdgeColorOff
 70
    22
 71
     2
 72
     2
 73
     0
 90
        0
 40
-0.6
 41
-30.0
 62
     5
 63
     7
 74
     1
 91
        4
 64
     7
 65
   257
 75
     1
175
     1
 42
1.0
 92
        8
 66
     7
 43
1.0
 76
     1
 77
     6
 78
     2
 67
     7
 79
     5
170
     0
171
     0
290
     0
174
     0
 93
        1
 44
0.0
173
     0
291
     1
 45
0.0
1001
ACAD
1000
AcDbSavedByObjectVersion
1070
     0
  0
VISUALSTYLE
  5
B27E
102
{ACAD_XDICTIONARY
360
B2E5
102
}
102
{ACAD_REACTORS
330
B26F
102
}
330
B26F
100
AcDbVisualStyle
  2
Facepattern
 70
    15
 71
     2
 72
     2
 73
     0
 90
        0
 40
-0.6
 41
-30.0
 62
     5
 63
     7
 74
     1
 91
        4
 64
     7
 65
   257
 75
     1
175
     1
 42
1.0
 92
        8
 66
     7
 43
1.0
 76
     1
 77
     6
 78
     2
 67
     7
 79
     5
170
     0
171
     0
290
     0
174
     0
 93
        1
 44
0.0
173
     0
291
     1
 45
0.0
1001
ACAD
1000
AcDbSavedByObjectVersion
1070
     0
  0
VISUALSTYLE
  5
B270
102
{ACAD_XDICTIONARY
360
B2C9
102
}
102
{ACAD_REACTORS
330
B26F
102
}
330
B26F
100
AcDbVisualStyle
  2
Flat
 70
     0
 71
     2
 72
     1
 73
     1
 90
        2
 40
-0.6
 41
30.0
 62
     5
 63
     7
 74
     0
 91
        0
 64
     7
 65
   257
 75
     1
175
     1
 42
1.0
 92
        8
 66
     7
 43
1.0
 76
     1
 77
     6
 78
     2
 67
     7
 79
     5
170
     0
171
     0
290
     0
174
     0
 93
       13
 44
0.0
173
     0
291
     1
 45
0.0
1001
ACAD
1000
AcDbSavedByObjectVersion
1070
     0
  0
VISUALSTYLE
  5
B271
102
{ACAD_XDICTIONARY
360
B2CB
102
}
102
{ACAD_REACTORS
330
B26F
102
}
330
B26F
100
AcDbVisualStyle
  2
FlatWithEdges
 70
     1
 71
     2
 72
     1
 73
     1
 90
        2
 40
-0.6
 41
30.0
 62
     5
 63
     7
 74
     1
 91
        0
 64
     7
 65
   257
 75
     1
175
     1
 42
1.0
 92
        0
 66
   257
 43
1.0
 76
     1
 77
     6
 78
     2
 67
     7
 79
     5
170
     0
171
     0
290
     0
174
     0
 93
       13
 44
0.0
173
     0
291
     1
 45
0.0
1001
ACAD
1000
AcDbSavedByObjectVersion
1070
     0
  0
VISUALSTYLE
  5
B272
102
{ACAD_XDICTIONARY
360
B2CD
102
}
102
{ACAD_REACTORS
330
B26F
102
}
330
B26F
100
AcDbVisualStyle
  2
Gouraud
 70
     2
 71
     2
 72
     2
 73
     1
 90
        2
 40
-0.6
 41
30.0
 62
     5
 63
     7
 74
     0
 91
        0
 64
     7
 65
   257
 75
     1
175
     1
 42
1.0
 92
        0
 66
     7
 43
1.0
 76
     1
 77
     6
 78
     2
 67
     7
 79
     5
170
     0
171
     0
290
     0
174
     0
 93
       13
 44
0.0
173
     0
291
     1
 45
0.0
1001
ACAD
1000
AcDbSavedByObjectVersion
1070
     0
  0
VISUALSTYLE
  5
B273
102
{ACAD_XDICTIONARY
360
B2CF
102
}
102
{ACAD_REACTORS
330
B26F
102
}
330
B26F
100
AcDbVisualStyle
  2
GouraudWithEdges
 70
     3
 71
     2
 72
     2
 73
     1
 90
        2
 40
-0.6
 41
30.0
 62
     5
 63
     7
 74
     1
 91
        0
 64
     7
 65
   257
 75
     1
175
     1
 42
1.0
 92
        0
 66
   257
 43
1.0
 76
     1
 77
     6
 78
     2
 67
     7
 79
     5
170
     0
171
     0
290
     0
174
     0
 93
       13
 44
0.0
173
     0
291
     1
 45
0.0
1001
ACAD
1000
AcDbSavedByObjectVersion
1070
     0
  0
VISUALSTYLE
  5
B277
102
{ACAD_XDICTIONARY
360
B2D7
102
}
102
{ACAD_REACTORS
330
B26F
102
}
330
B26F
100
AcDbVisualStyle
  2
Hidden
 70
     6
 71
     1
 72
     2
 73
     2
 90
        0
 40
-0.6
 41
-30.0
 62
     5
 63
     7
 74
     2
 91
        2
 64
     7
 65
   257
 75
     2
175
     1
 42
40.0
 92
        0
 66
   257
 43
1.0
 76
     1
 77
     6
 78
     2
 67
     7
 79
     3
170
     0
171
     0
290
     0
174
     0
 93
        1
 44
0.0
173
     0
291
     0
 45
0.0
1001
ACAD
1000
AcDbSavedByObjectVersion
1070
     0
  0
VISUALSTYLE
  5
B285
102
{ACAD_XDICTIONARY
360
B2F3
102
}
102
{ACAD_REACTORS
330
B26F
102
}
330
B26F
100
AcDbVisualStyle
  2
JitterOff
 70
    20
 71
     2
 72
     2
 73
     0
 90
        0
 40
-0.6
 41
-30.0
 62
     5
 63
     7
 74
     1
 91
        4
 64
     7
 65
   257
 75
     1
175
     1
 42
1.0
 92
       10
 66
     7
 43
1.0
 76
     1
 77
     6
 78
     2
 67
     7
 79
     5
170
     0
171
     0
290
     0
174
     0
 93
        1
 44
0.0
173
     0
291
     1
 45
0.0
1001
ACAD
1000
AcDbSavedByObjectVersion
1070
     0
  0
VISUALSTYLE
  5
B27D
102
{ACAD_XDICTIONARY
360
B2E3
102
}
102
{ACAD_REACTORS
330
B26F
102
}
330
B26F
100
AcDbVisualStyle
  2
Linepattern
 70
    14
 71
     2
 72
     2
 73
     0
 90
        0
 40
-0.6
 41
-30.0
 62
     5
 63
     7
 74
     1
 91
        4
 64
     7
 65
   257
 75
     7
175
     7
 42
1.0
 92
        8
 66
     7
 43
1.0
 76
     1
 77
     6
 78
     2
 67
     7
 79
     5
170
     0
171
     0
290
     0
174
     0
 93
        1
 44
0.0
173
     0
291
     1
 45
0.0
1001
ACAD
1000
AcDbSavedByObjectVersion
1070
     0
  0
VISUALSTYLE
  5
B286
102
{ACAD_XDICTIONARY
360
B2F5
102
}
102
{ACAD_REACTORS
330
B26F
102
}
330
B26F
100
AcDbVisualStyle
  2
OverhangOff
 70
    21
 71
     2
 72
     2
 73
     0
 90
        0
 40
-0.6
 41
-30.0
 62
     5
 63
     7
 74
     1
 91
        4
 64
     7
 65
   257
 75
     1
175
     1
 42
1.0
 92
        9
 66
     7
 43
1.0
 76
     1
 77
     6
 78
     2
 67
     7
 79
     5
170
     0
171
     0
290
     0
174
     0
 93
        1
 44
0.0
173
     0
291
     1
 45
0.0
1001
ACAD
1000
AcDbSavedByObjectVersion
1070
     0
  0
VISUALSTYLE
  5
B279
102
{ACAD_XDICTIONARY
360
B2DB
102
}
102
{ACAD_REACTORS
330
B26F
102
}
330
B26F
100
AcDbVisualStyle
  2
Realistic
 70
     8
 71
     2
 72
     3
 73
     0
 90
        2
 40
-0.6
 41
30.0
 62
     5
 63
     7
 74
     0
 91
        0
 64
     7
 65
   257
 75
     1
175
     1
 42
1.0
 92
        8
 66
   257
 43
1.0
 76
     1
 77
     6
 78
     2
 67
     7
 79
     3
170
     0
171
     0
290
     0
174
     0
 93
       13
 44
0.0
173
     0
291
     0
 45
0.0
1001
ACAD
1000
AcDbSavedByObjectVersion
1070
     0
  0
VISUALSTYLE
  5
B284
102
{ACAD_XDICTIONARY
360
B2F1
102
}
102
{ACAD_REACTORS
330
B26F
102
}
330
B26F
100
AcDbVisualStyle
  2
Shaded
 70
    27
 71
     2
 72
     2
 73
     1
 90
        2
 40
-0.6
 41
30.0
 62
     5
 63
     7
 74
     0
 91
        4
 64
     7
 65
   257
 75
     1
175
     1
 42
1.0
 92
        8
 66
   257
 43
1.0
 76
     1
 77
     6
 78
     2
 67
     8
 79
     3
170
     0
171
     0
290
     0
174
     0
 93
        5
 44
0.0
173
     0
291
     0
 45
0.0
1001
ACAD
1000
AcDbSavedByObjectVersion
1070
     0
  0
VISUALSTYLE
  5
B283
102
{ACAD_XDICTIONARY
360
B2EF
102
}
102
{ACAD_REACTORS
330
B26F
102
}
330
B26F
100
AcDbVisualStyle
  2
Shaded with edges
 70
    26
 71
     2
 72
     2
 73
     1
 90
        2
 40
-0.6
 41
30.0
 62
     5
 63
     7
 74
     1
 91
       10
 64
     7
 65
   257
 75
     2
175
     1
 42
1.0
 92
        8
 66
   257
 43
1.0
 76
     1
 77
     6
 78
     2
 67
     7
 79
     3
170
     0
171
     0
290
     0
174
     0
 93
        5
 44
0.0
173
     0
291
     0
 45
0.0
1001
ACAD
1000
AcDbSavedByObjectVersion
1070
     0
  0
VISUALSTYLE
  5
B280
102
{ACAD_XDICTIONARY
360
B2E9
102
}
102
{ACAD_REACTORS
330
B26F
102
}
330
B26F
100
AcDbVisualStyle
  2
Shades of Gray
 70
    23
 71
     2
 72
     2
 73
     3
 90
        0
 40
-0.6
 41
-30.0
 62
     5
 63
     7
 74
     2
 91
        2
 64
     7
 65
     7
 75
     1
175
     1
 42
40.0
 92
        8
 66
     7
 43
1.0
 76
     1
 77
     6
 78
     2
 67
     7
 79
     3
170
     0
171
     0
290
     0
174
     0
 93
        1
 44
0.0
173
     0
291
     0
 45
0.0
1001
ACAD
1000
AcDbSavedByObjectVersion
1070
     0
  0
VISUALSTYLE
  5
B281
102
{ACAD_XDICTIONARY
360
B2EB
102
}
102
{ACAD_REACTORS
330
B26F
102
}
330
B26F
100
AcDbVisualStyle
  2
Sketchy
 70
    24
 71
     1
 72
     2
 73
     2
 90
        0
 40
-0.6
 41
-30.0
 62
     5
 63
     7
 74
     2
 91
        2
 64
     7
 65
     7
 75
     1
175
     1
 42
40.0
 92
       11
 66
     7
 43
1.0
 76
     1
 77
     6
 78
     2
 67
     7
 79
     6
170
     0
171
     0
290
     0
174
     0
 93
        1
 44
0.0
173
     0
291
     0
 45
0.0
1001
ACAD
1000
AcDbSavedByObjectVersion
1070
     0
  0
VISUALSTYLE
  5
B27C
102
{ACAD_XDICTIONARY
360
B2E1
102
}
102
{ACAD_REACTORS
330
B26F
102
}
330
B26F
100
AcDbVisualStyle
  2
Thicken
 70
    13
 71
     2
 72
     2
 73
     0
 90
        0
 40
-0.6
 41
-30.0
 62
     5
 63
     7
 74
     1
 91
        4
 64
     7
 65
   257
 75
     1
175
     1
 42
1.0
 92
       12
 66
     7
 43
1.0
 76
     1
 77
     6
 78
     2
 67
     7
 79
     5
170
     0
171
     0
290
     0
174
     0
 93
        1
 44
0.0
173
     0
291
     1
 45
0.0
1001
ACAD
1000
AcDbSavedByObjectVersion
1070
     0
  0
VISUALSTYLE
  5
B276
102
{ACAD_XDICTIONARY
360
B2D5
102
}
102
{ACAD_REACTORS
330
B26F
102
}
330
B26F
100
AcDbVisualStyle
  2
Wireframe
 70
     5
 71
     0
 72
     2
 73
     0
 90
        0
 40
-0.6
 41
-30.0
 62
     5
 63
     7
 74
     1
 91
        4
 64
     7
 65
   257
 75
     1
175
     1
 42
1.0
 92
        0
 66
   257
 43
1.0
 76
     1
 77
     6
 78
     2
 67
     7
 79
     3
170
     0
171
     0
290
     0
174
     0
 93
        1
 44
0.0
173
     0
291
     0
 45
0.0
1001
ACAD
1000
AcDbSavedByObjectVersion
1070
     0
  0
VISUALSTYLE
  5
B282
102
{ACAD_XDICTIONARY
360
B2ED
102
}
102
{ACAD_REACTORS
330
B26F
102
}
330
B26F
100
AcDbVisualStyle
  2
X-Ray
 70
    25
 71
     2
 72
     2
 73
     1
 90
        1
 40
0.5
 41
-30.0
 62
     5
 63
     7
 74
     1
 91
        0
 64
     7
 65
   257
 75
     1
175
     1
 42
1.0
 92
        8
 66
     7
 43
1.0
 76
     1
 77
     6
 78
     2
 67
     7
 79
     3
170
     0
171
     0
290
     0
174
     0
 93
       13
 44
0.0
173
     0
291
     0
 45
0.0
1001
ACAD
1000
AcDbSavedByObjectVersion
1070
     0
  0
DICTIONARYVAR
  5
B2BC
102
{ACAD_REACTORS
330
B2B7
102
}
330
B2B7
100
DictionaryVariables
280
     0
  1
1:1
  0
DICTIONARYVAR
  5
B2B9
102
{ACAD_REACTORS
330
B2B7
102
}
330
B2B7
100
DictionaryVariables
280
     0
  1
STANDARD
  0
DICTIONARYVAR
  5
B2B8
102
{ACAD_REACTORS
330
B2B7
102
}
330
B2B7
100
DictionaryVariables
280
     0
  1
STANDARD
  0
DICTIONARYVAR
  5
B2BA
102
{ACAD_REACTORS
330
B2B7
102
}
330
B2B7
100
DictionaryVariables
280
     0
  1
Imperial24
  0
DICTIONARYVAR
  5
B2BB
102
{ACAD_REACTORS
330
B2B7
102
}
330
B2B7
100
DictionaryVariables
280
     0
  1
Imperial24
  0
DICTIONARYVAR
  5
B2BF
102
{ACAD_REACTORS
330
B2B7
102
}
330
B2B7
100
DictionaryVariables
280
     0
  1
1
  0
DICTIONARYVAR
  5
B2BE
102
{ACAD_REACTORS
330
B2B7
102
}
330
B2B7
100
DictionaryVariables
280
     0
  1
0
  0
DICTIONARYVAR
  5
B2BD
102
{ACAD_REACTORS
330
B2B7
102
}
330
B2B7
100
DictionaryVariables
280
     0
  1
127
  0
DICTIONARYVAR
  5
B2C0
102
{ACAD_REACTORS
330
B2B7
102
}
330
B2B7
100
DictionaryVariables
280
     0
  1
2
  0
DICTIONARY
  5
B2FD
330
B2A2
100
AcDbDictionary
280
     1
281
     1
  3
ACAD_XREC_ROUNDTRIP
360
B2FE
  0
DICTIONARY
  5
B2FF
330
B2A3
100
AcDbDictionary
280
     1
281
     1
  3
ACAD_XREC_ROUNDTRIP
360
B300
  0
DICTIONARY
  5
B301
330
B2A4
100
AcDbDictionary
280
     1
281
     1
  3
ACAD_XREC_ROUNDTRIP
360
B302
  0
DICTIONARY
  5
B260
330
B25F
100
AcDbDictionary
280
     1
281
     1
  3
ACAD_XREC_ROUNDTRIP
360
B2C7
  3
BUMPTILE
360
B262
  3
DIFFUSETILE
360
B261
  3
OPACITYTILE
360
B265
  3
REFLECTIONTILE
360
B264
  3
REFRACTIONTILE
360
B266
  3
SPECULARTILE
360
B263
  0
DICTIONARY
  5
B258
330
B257
100
AcDbDictionary
280
     1
281
     1
  3
ACAD_XREC_ROUNDTRIP
360
B2C6
  3
BUMPTILE
360
B25A
  3
DIFFUSETILE
360
B259
  3
OPACITYTILE
360
B25D
  3
REFLECTIONTILE
360
B25C
  3
REFRACTIONTILE
360
B25E
  3
SPECULARTILE
360
B25B
  0
DICTIONARY
  5
B268
330
B267
100
AcDbDictionary
280
     1
281
     1
  3
ACAD_XREC_ROUNDTRIP
360
B2C8
  3
BUMPTILE
360
B26A
  3
DIFFUSETILE
360
B269
  3
OPACITYTILE
360
B26D
  3
REFLECTIONTILE
360
B26C
  3
REFRACTIONTILE
360
B26E
  3
SPECULARTILE
360
B26B
  0
DICTIONARY
  5
B2FB
330
B2A0
100
AcDbDictionary
280
     1
281
     1
  3
ACAD_XREC_ROUNDTRIP
360
B2FC
  0
DICTIONARY
  5
B2C2
330
B28A
100
AcDbDictionary
280
     1
281
     1
  3
ACAD_ROUNDTRIP_2008_TABLESTYLE_CELLSTYLEMAP
360
B2C3
  3
ACAD_XREC_ROUNDTRIP
360
B2F9
  0
DICTIONARY
  5
B2D3
330
B275
100
AcDbDictionary
280
     1
281
     1
  3
ACAD_XREC_ROUNDTRIP
360
B2D4
  0
DICTIONARY
  5
B2D1
330
B274
100
AcDbDictionary
280
     1
281
     1
  3
ACAD_XREC_ROUNDTRIP
360
B2D2
  0
DICTIONARY
  5
B2DF
330
B27B
100
AcDbDictionary
280
     1
281
     1
  3
ACAD_XREC_ROUNDTRIP
360
B2E0
  0
DICTIONARY
  5
B2E7
330
B27F
100
AcDbDictionary
280
     1
281
     1
  3
ACAD_XREC_ROUNDTRIP
360
B2E8
  0
DICTIONARY
  5
B2D9
330
B278
100
AcDbDictionary
280
     1
281
     1
  3
ACAD_XREC_ROUNDTRIP
360
B2DA
  0
DICTIONARY
  5
B2DD
330
B27A
100
AcDbDictionary
280
     1
281
     1
  3
ACAD_XREC_ROUNDTRIP
360
B2DE
  0
DICTIONARY
  5
B2F7
330
B287
100
AcDbDictionary
280
     1
281
     1
  3
ACAD_XREC_ROUNDTRIP
360
B2F8
  0
DICTIONARY
  5
B2E5
330
B27E
100
AcDbDictionary
280
     1
281
     1
  3
ACAD_XREC_ROUNDTRIP
360
B2E6
  0
DICTIONARY
  5
B2C9
330
B270
100
AcDbDictionary
280
     1
281
     1
  3
ACAD_XREC_ROUNDTRIP
360
B2CA
  0
DICTIONARY
  5
B2CB
330
B271
100
AcDbDictionary
280
     1
281
     1
  3
ACAD_XREC_ROUNDTRIP
360
B2CC
  0
DICTIONARY
  5
B2CD
330
B272
100
AcDbDictionary
280
     1
281
     1
  3
ACAD_XREC_ROUNDTRIP
360
B2CE
  0
DICTIONARY
  5
B2CF
330
B273
100
AcDbDictionary
280
     1
281
     1
  3
ACAD_XREC_ROUNDTRIP
360
B2D0
  0
DICTIONARY
  5
B2D7
330
B277
100
AcDbDictionary
280
     1
281
     1
  3
ACAD_XREC_ROUNDTRIP
360
B2D8
  0
DICTIONARY
  5
B2F3
330
B285
100
AcDbDictionary
280
     1
281
     1
  3
ACAD_XREC_ROUNDTRIP
360
B2F4
  0
DICTIONARY
  5
B2E3
330
B27D
100
AcDbDictionary
280
     1
281
     1
  3
ACAD_XREC_ROUNDTRIP
360
B2E4
  0
DICTIONARY
  5
B2F5
330
B286
100
AcDbDictionary
280
     1
281
     1
  3
ACAD_XREC_ROUNDTRIP
360
B2F6
  0
DICTIONARY
  5
B2DB
330
B279
100
AcDbDictionary
280
     1
281
     1
  3
ACAD_XREC_ROUNDTRIP
360
B2DC
  0
DICTIONARY
  5
B2F1
330
B284
100
AcDbDictionary
280
     1
281
     1
  3
ACAD_XREC_ROUNDTRIP
360
B2F2
  0
DICTIONARY
  5
B2EF
330
B283
100
AcDbDictionary
280
     1
281
     1
  3
ACAD_XREC_ROUNDTRIP
360
B2F0
  0
DICTIONARY
  5
B2E9
330
B280
100
AcDbDictionary
280
     1
281
     1
  3
ACAD_XREC_ROUNDTRIP
360
B2EA
  0
DICTIONARY
  5
B2EB
330
B281
100
AcDbDictionary
280
     1
281
     1
  3
ACAD_XREC_ROUNDTRIP
360
B2EC
  0
DICTIONARY
  5
B2E1
330
B27C
100
AcDbDictionary
280
     1
281
     1
  3
ACAD_XREC_ROUNDTRIP
360
B2E2
  0
DICTIONARY
  5
B2D5
330
B276
100
AcDbDictionary
280
     1
281
     1
  3
ACAD_XREC_ROUNDTRIP
360
B2D6
  0
DICTIONARY
  5
B2ED
330
B282
100
AcDbDictionary
280
     1
281
     1
  3
ACAD_XREC_ROUNDTRIP
360
B2EE
  0
XRECORD
  5
B2FE
102
{ACAD_REACTORS
330
B2FD
102
}
330
B2FD
100
AcDbXrecord
280
     1
102
DISPLAYNAME
  1
Imperial24
102
FLAGS
 90
        0
  0
XRECORD
  5
B300
102
{ACAD_REACTORS
330
B2FF
102
}
330
B2FF
100
AcDbXrecord
280
     1
102
SHADEPLOT
 70
     0
102
SHADEPLOTRESLEVEL
 70
     2
102
SHADEPLOTCUSTOMDPI
 70
   300
  0
XRECORD
  5
B302
102
{ACAD_REACTORS
330
B301
102
}
330
B301
100
AcDbXrecord
280
     1
102
SHADEPLOT
 70
     0
102
SHADEPLOTRESLEVEL
 70
     2
102
SHADEPLOTCUSTOMDPI
 70
   300
  0
XRECORD
  5
B2C7
102
{ACAD_REACTORS
330
B260
102
}
330
B260
100
AcDbXrecord
280
     1
102
MATERIAL
148
0.0
149
0.0
149
0.0
 93
        0
 94
      127
282
     0
 72
     0
 77
     0
171
     0
175
     0
179
     0
273
     0
  0
XRECORD
  5
B262
102
{ACAD_REACTORS
330
B260
102
}
330
B260
100
AcDbXrecord
280
     1
270
     1
271
     1
  0
XRECORD
  5
B261
102
{ACAD_REACTORS
330
B260
102
}
330
B260
100
AcDbXrecord
280
     1
270
     1
271
     1
  0
XRECORD
  5
B265
102
{ACAD_REACTORS
330
B260
102
}
330
B260
100
AcDbXrecord
280
     1
270
     1
271
     1
  0
XRECORD
  5
B264
102
{ACAD_REACTORS
330
B260
102
}
330
B260
100
AcDbXrecord
280
     1
270
     1
271
     1
  0
XRECORD
  5
B266
102
{ACAD_REACTORS
330
B260
102
}
330
B260
100
AcDbXrecord
280
     1
270
     1
271
     1
  0
XRECORD
  5
B263
102
{ACAD_REACTORS
330
B260
102
}
330
B260
100
AcDbXrecord
280
     1
270
     1
271
     1
  0
XRECORD
  5
B2C6
102
{ACAD_REACTORS
330
B258
102
}
330
B258
100
AcDbXrecord
280
     1
102
MATERIAL
148
0.0
149
0.0
149
0.0
 93
        0
 94
      127
282
     0
 72
     0
 77
     0
171
     0
175
     0
179
     0
273
     0
  0
XRECORD
  5
B25A
102
{ACAD_REACTORS
330
B258
102
}
330
B258
100
AcDbXrecord
280
     1
270
     1
271
     1
  0
XRECORD
  5
B259
102
{ACAD_REACTORS
330
B258
102
}
330
B258
100
AcDbXrecord
280
     1
270
     1
271
     1
  0
XRECORD
  5
B25D
102
{ACAD_REACTORS
330
B258
102
}
330
B258
100
AcDbXrecord
280
     1
270
     1
271
     1
  0
XRECORD
  5
B25C
102
{ACAD_REACTORS
330
B258
102
}
330
B258
100
AcDbXrecord
280
     1
270
     1
271
     1
  0
XRECORD
  5
B25E
102
{ACAD_REACTORS
330
B258
102
}
330
B258
100
AcDbXrecord
280
     1
270
     1
271
     1
  0
XRECORD
  5
B25B
102
{ACAD_REACTORS
330
B258
102
}
330
B258
100
AcDbXrecord
280
     1
270
     1
271
     1
  0
XRECORD
  5
B2C8
102
{ACAD_REACTORS
330
B268
102
}
330
B268
100
AcDbXrecord
280
     1
102
MATERIAL
148
0.0
149
0.0
149
0.0
 93
        0
 94
      127
282
     0
 72
     0
 77
     0
171
     0
175
     0
179
     0
273
     0
  0
XRECORD
  5
B26A
102
{ACAD_REACTORS
330
B268
102
}
330
B268
100
AcDbXrecord
280
     1
270
     1
271
     1
  0
XRECORD
  5
B269
102
{ACAD_REACTORS
330
B268
102
}
330
B268
100
AcDbXrecord
280
     1
270
     1
271
     1
  0
XRECORD
  5
B26D
102
{ACAD_REACTORS
330
B268
102
}
330
B268
100
AcDbXrecord
280
     1
270
     1
271
     1
  0
XRECORD
  5
B26C
102
{ACAD_REACTORS
330
B268
102
}
330
B268
100
AcDbXrecord
280
     1
270
     1
271
     1
  0
XRECORD
  5
B26E
102
{ACAD_REACTORS
330
B268
102
}
330
B268
100
AcDbXrecord
280
     1
270
     1
271
     1
  0
XRECORD
  5
B26B
102
{ACAD_REACTORS
330
B268
102
}
330
B268
100
AcDbXrecord
280
     1
270
     1
271
     1
  0
XRECORD
  5
B2FC
102
{ACAD_REACTORS
330
B2FB
102
}
330
B2FB
100
AcDbXrecord
280
     1
102
DISPLAYNAME
  1
Imperial24
102
FLAGS
 90
        0
  0
CELLSTYLEMAP
  5
B2C3
102
{ACAD_REACTORS
330
B2C2
102
}
330
B2C2
100
AcDbCellStyleMap
 90
        3
300
CELLSTYLE
  1
TABLEFORMAT_BEGIN
 90
        5
170
     1
 91
        0
 92
    32768
 62
   257
 93
        1
300
CONTENTFORMAT
  1
CONTENTFORMAT_BEGIN
 90
        0
 91
        0
 92
      512
 93
        0
300

 40
0.0
140
1.0
 94
        5
 62
     0
340
9CCE
144
0.25
309
CONTENTFORMAT_END
171
     0
 94
        0
309
TABLEFORMAT_END
  1
CELLSTYLE_BEGIN
 90
        1
 91
        1
300
_TITLE
309
CELLSTYLE_END
300
CELLSTYLE
  1
TABLEFORMAT_BEGIN
 90
        5
170
     1
 91
        0
 92
        0
 62
   257
 93
        1
300
CONTENTFORMAT
  1
CONTENTFORMAT_BEGIN
 90
        0
 91
        0
 92
      512
 93
        0
300

 40
0.0
140
1.0
 94
        5
 62
     0
340
9CCE
144
0.18
309
CONTENTFORMAT_END
171
     0
 94
        0
309
TABLEFORMAT_END
  1
CELLSTYLE_BEGIN
 90
        2
 91
        1
300
_HEADER
309
CELLSTYLE_END
300
CELLSTYLE
  1
TABLEFORMAT_BEGIN
 90
        5
170
     1
 91
        0
 92
        0
 62
   257
 93
        1
300
CONTENTFORMAT
  1
CONTENTFORMAT_BEGIN
 90
        0
 91
        0
 92
      512
 93
        0
300

 40
0.0
140
1.0
 94
        2
 62
     0
340
9CCE
144
0.18
309
CONTENTFORMAT_END
171
     0
 94
        0
309
TABLEFORMAT_END
  1
CELLSTYLE_BEGIN
 90
        3
 91
        2
300
_DATA
309
CELLSTYLE_END
  0
XRECORD
  5
B2F9
102
{ACAD_REACTORS
330
B2C2
102
}
330
B2C2
100
AcDbXrecord
280
     1
102
ACAD_ROUNDTRIP_PRE2007_TABLESTYLE
 90
      512
 91
        0
  1

 92
      512
 93
        0
  2

 94
      512
 95
        0
  3

  0
XRECORD
  5
B2D4
102
{ACAD_REACTORS
330
B2D3
102
}
330
B2D3
100
AcDbXrecord
280
     1
102
RTVSPost2010Prop28
280
     1
102
RTVSPost2010PropOp28
 70
     1
102
RTVSPost2010Prop29
280
     1
102
RTVSPost2010PropOp29
 70
     1
102
RTVSPost2010Prop30
280
     0
102
RTVSPost2010PropOp30
 70
     1
102
RTVSPost2010Prop31
280
     0
102
RTVSPost2010PropOp31
 70
     1
102
RTVSPost2010Prop32
280
     0
102
RTVSPost2010PropOp32
 70
     1
102
RTVSPost2010Prop33
280
     0
102
RTVSPost2010PropOp33
 70
     1
102
RTVSPost2010Prop34
280
     0
102
RTVSPost2010PropOp34
 70
     1
102
RTVSPost2010Prop35
280
     0
102
RTVSPost2010PropOp35
 70
     1
102
RTVSPost2010Prop36
280
     0
102
RTVSPost2010PropOp36
 70
     1
102
RTVSPost2010Prop37
 90
       50
102
RTVSPost2010PropOp37
 70
     1
102
RTVSPost2010Prop38
140
0.0
102
RTVSPost2010PropOp38
 70
     1
102
RTVSPost2010Prop39
140
1.0
102
RTVSPost2010PropOp39
 70
     1
102
RTVSPost2010Prop40
 90
        0
102
RTVSPost2010PropOp40
 70
     1
102
RTVSPost2010Prop41ColorIndex
 90
       18
102
RTVSPost2010Prop41ColorRGB
 90
        0
102
RTVSPost2010PropOp41
 70
     1
102
RTVSPost2010Prop42
 90
       50
102
RTVSPost2010PropOp42
 70
     1
102
RTVSPost2010Prop43
 90
        3
102
RTVSPost2010PropOp43
 70
     1
102
RTVSPost2010Prop44ColorIndex
 90
        5
102
RTVSPost2010Prop44ColorRGB
 90
      255
102
RTVSPost2010PropOp44
 70
     1
102
RTVSPost2010Prop45
280
     0
102
RTVSPost2010PropOp45
 70
     1
102
RTVSPost2010Prop46
 90
       50
102
RTVSPost2010PropOp46
 70
     1
102
RTVSPost2010Prop47
 90
       50
102
RTVSPost2010PropOp47
 70
     1
102
RTVSPost2010Prop48
 90
       50
102
RTVSPost2010PropOp48
 70
     1
102
RTVSPost2010Prop49
280
     0
102
RTVSPost2010PropOp49
 70
     1
102
RTVSPost2010Prop50
 90
       50
102
RTVSPost2010PropOp50
 70
     1
102
RTVSPost2010Prop51ColorIndex
 90
      256
102
RTVSPost2010Prop51ColorRGB
 90
-16777216
102
RTVSPost2010PropOp51
 70
     0
102
RTVSPost2010Prop52
140
1.0
102
RTVSPost2010PropOp52
 70
     0
102
RTVSPost2010Prop53
 90
        2
102
RTVSPost2010PropOp53
 70
     1
102
RTVSPost2010Prop54
  1
strokes_ogs.tif
102
RTVSPost2010PropOp54
 70
     1
102
RTVSPost2010Prop55
280
     0
102
RTVSPost2010PropOp55
 70
     1
102
RTVSPost2010Prop56
140
1.0
102
RTVSPost2010PropOp56
 70
     1
102
RTVSPost2010Prop57
140
1.0
102
RTVSPost2010PropOp57
 70
     1
102
RTVSPropertyOp0
 70
     1
102
RTVSPropertyOp1
 70
     1
102
RTVSPropertyOp2
 70
     1
102
RTVSPropertyOp3
 70
     1
102
RTVSPropertyOp4
 70
     1
102
RTVSPropertyOp5
 70
     1
102
RTVSPropertyOp6
 70
     1
102
RTVSPropertyOp7
 70
     1
102
RTVSPropertyOp8
 70
     1
102
RTVSPropertyOp9
 70
     1
102
RTVSPropertyOp10
 70
     1
102
RTVSPropertyOp11
 70
     1
102
RTVSPropertyOp12
 70
     1
102
RTVSPropertyOp13
 70
     1
102
RTVSPropertyOp14
 70
     1
102
RTVSPropertyOp15
 70
     1
102
RTVSPropertyOp16
 70
     1
102
RTVSPropertyOp17
 70
     1
102
RTVSPropertyOp18
 70
     1
102
RTVSPropertyOp19
 70
     1
102
RTVSPropertyOp20
 70
     1
102
RTVSPropertyOp21
 70
     1
102
RTVSPropertyOp22
 70
     1
102
RTVSPropertyOp23
 70
     1
102
RTVSPropertyOp24
 70
     1
102
RTVSPropertyOp25
 70
     1
102
RTVSPropertyOp26
 70
     1
102
RTVSPropertyOp27
 70
     1
102
RTVSPropertyOp28
 70
     1
102
RTVSPropertyOp29
 70
     1
102
RTVSPropertyOp30
 70
     1
102
RTVSPropertyOp31
 70
     1
102
RTVSPropertyOp32
 70
     1
102
RTVSPropertyOp33
 70
     1
102
RTVSPropertyOp34
 70
     1
102
RTVSPropertyOp35
 70
     1
102
RTVSPropertyOp36
 70
     1
102
RTVSPropertyOp37
 70
     1
102
RTVSPropertyOp38
 70
     1
102
RTVSPropertyOp39
 70
     1
102
RTVSPropertyOp40
 70
     1
102
RTVSPropertyOp41
 70
     1
102
RTVSPropertyOp42
 70
     1
102
RTVSPropertyOp43
 70
     1
102
RTVSPropertyOp44
 70
     1
102
RTVSPropertyOp45
 70
     1
102
RTVSPropertyOp46
 70
     1
102
RTVSPropertyOp47
 70
     1
102
RTVSPropertyOp48
 70
     1
102
RTVSPropertyOp49
 70
     1
102
RTVSPropertyOp50
 70
     1
102
RTVSPropertyOp51
 70
     0
102
RTVSPropertyOp52
 70
     0
102
RTVSPropertyOp53
 70
     1
102
RTVSPropertyOp54
 70
     1
102
RTVSPropertyOp55
 70
     1
102
RTVSPropertyOp56
 70
     1
102
RTVSPropertyOp57
 70
     1
102
RTVSPropertyOp58
 70
     1
102
RTVSPropertyOp59
 70
     1
102
RTVSPropertyOp60
 70
     1
102
RTVSPropertyOp61
 70
     1
102
RTVSPropertyOp62
 70
     1
  0
XRECORD
  5
B2D2
102
{ACAD_REACTORS
330
B2D1
102
}
330
B2D1
100
AcDbXrecord
280
     1
102
RTVSPost2010Prop28
280
     0
102
RTVSPost2010PropOp28
 70
     1
102
RTVSPost2010Prop29
280
     1
102
RTVSPost2010PropOp29
 70
     1
102
RTVSPost2010Prop30
280
     1
102
RTVSPost2010PropOp30
 70
     1
102
RTVSPost2010Prop31
280
     0
102
RTVSPost2010PropOp31
 70
     1
102
RTVSPost2010Prop32
280
     0
102
RTVSPost2010PropOp32
 70
     1
102
RTVSPost2010Prop33
280
     0
102
RTVSPost2010PropOp33
 70
     1
102
RTVSPost2010Prop34
280
     0
102
RTVSPost2010PropOp34
 70
     1
102
RTVSPost2010Prop35
280
     0
102
RTVSPost2010PropOp35
 70
     1
102
RTVSPost2010Prop36
280
     0
102
RTVSPost2010PropOp36
 70
     1
102
RTVSPost2010Prop37
 90
       50
102
RTVSPost2010PropOp37
 70
     1
102
RTVSPost2010Prop38
140
0.0
102
RTVSPost2010PropOp38
 70
     1
102
RTVSPost2010Prop39
140
1.0
102
RTVSPost2010PropOp39
 70
     1
102
RTVSPost2010Prop40
 90
        0
102
RTVSPost2010PropOp40
 70
     1
102
RTVSPost2010Prop41ColorIndex
 90
       18
102
RTVSPost2010Prop41ColorRGB
 90
        0
102
RTVSPost2010PropOp41
 70
     1
102
RTVSPost2010Prop42
 90
       50
102
RTVSPost2010PropOp42
 70
     1
102
RTVSPost2010Prop43
 90
        3
102
RTVSPost2010PropOp43
 70
     1
102
RTVSPost2010Prop44ColorIndex
 90
        5
102
RTVSPost2010Prop44ColorRGB
 90
      255
102
RTVSPost2010PropOp44
 70
     1
102
RTVSPost2010Prop45
280
     0
102
RTVSPost2010PropOp45
 70
     1
102
RTVSPost2010Prop46
 90
       50
102
RTVSPost2010PropOp46
 70
     1
102
RTVSPost2010Prop47
 90
       50
102
RTVSPost2010PropOp47
 70
     1
102
RTVSPost2010Prop48
 90
       50
102
RTVSPost2010PropOp48
 70
     1
102
RTVSPost2010Prop49
280
     0
102
RTVSPost2010PropOp49
 70
     1
102
RTVSPost2010Prop50
 90
       50
102
RTVSPost2010PropOp50
 70
     1
102
RTVSPost2010Prop51ColorIndex
 90
      256
102
RTVSPost2010Prop51ColorRGB
 90
-16777216
102
RTVSPost2010PropOp51
 70
     0
102
RTVSPost2010Prop52
140
1.0
102
RTVSPost2010PropOp52
 70
     0
102
RTVSPost2010Prop53
 90
        2
102
RTVSPost2010PropOp53
 70
     1
102
RTVSPost2010Prop54
  1
strokes_ogs.tif
102
RTVSPost2010PropOp54
 70
     1
102
RTVSPost2010Prop55
280
     0
102
RTVSPost2010PropOp55
 70
     1
102
RTVSPost2010Prop56
140
1.0
102
RTVSPost2010PropOp56
 70
     1
102
RTVSPost2010Prop57
140
1.0
102
RTVSPost2010PropOp57
 70
     1
102
RTVSPropertyOp0
 70
     1
102
RTVSPropertyOp1
 70
     1
102
RTVSPropertyOp2
 70
     1
102
RTVSPropertyOp3
 70
     1
102
RTVSPropertyOp4
 70
     1
102
RTVSPropertyOp5
 70
     1
102
RTVSPropertyOp6
 70
     1
102
RTVSPropertyOp7
 70
     1
102
RTVSPropertyOp8
 70
     1
102
RTVSPropertyOp9
 70
     1
102
RTVSPropertyOp10
 70
     1
102
RTVSPropertyOp11
 70
     1
102
RTVSPropertyOp12
 70
     1
102
RTVSPropertyOp13
 70
     1
102
RTVSPropertyOp14
 70
     1
102
RTVSPropertyOp15
 70
     1
102
RTVSPropertyOp16
 70
     1
102
RTVSPropertyOp17
 70
     1
102
RTVSPropertyOp18
 70
     1
102
RTVSPropertyOp19
 70
     1
102
RTVSPropertyOp20
 70
     1
102
RTVSPropertyOp21
 70
     1
102
RTVSPropertyOp22
 70
     1
102
RTVSPropertyOp23
 70
     1
102
RTVSPropertyOp24
 70
     1
102
RTVSPropertyOp25
 70
     1
102
RTVSPropertyOp26
 70
     1
102
RTVSPropertyOp27
 70
     1
102
RTVSPropertyOp28
 70
     1
102
RTVSPropertyOp29
 70
     1
102
RTVSPropertyOp30
 70
     1
102
RTVSPropertyOp31
 70
     1
102
RTVSPropertyOp32
 70
     1
102
RTVSPropertyOp33
 70
     1
102
RTVSPropertyOp34
 70
     1
102
RTVSPropertyOp35
 70
     1
102
RTVSPropertyOp36
 70
     1
102
RTVSPropertyOp37
 70
     1
102
RTVSPropertyOp38
 70
     1
102
RTVSPropertyOp39
 70
     1
102
RTVSPropertyOp40
 70
     1
102
RTVSPropertyOp41
 70
     1
102
RTVSPropertyOp42
 70
     1
102
RTVSPropertyOp43
 70
     1
102
RTVSPropertyOp44
 70
     1
102
RTVSPropertyOp45
 70
     1
102
RTVSPropertyOp46
 70
     1
102
RTVSPropertyOp47
 70
     1
102
RTVSPropertyOp48
 70
     1
102
RTVSPropertyOp49
 70
     1
102
RTVSPropertyOp50
 70
     1
102
RTVSPropertyOp51
 70
     0
102
RTVSPropertyOp52
 70
     0
102
RTVSPropertyOp53
 70
     1
102
RTVSPropertyOp54
 70
     1
102
RTVSPropertyOp55
 70
     1
102
RTVSPropertyOp56
 70
     1
102
RTVSPropertyOp57
 70
     1
102
RTVSPropertyOp58
 70
     1
102
RTVSPropertyOp59
 70
     1
102
RTVSPropertyOp60
 70
     1
102
RTVSPropertyOp61
 70
     1
102
RTVSPropertyOp62
 70
     1
  0
XRECORD
  5
B2E0
102
{ACAD_REACTORS
330
B2DF
102
}
330
B2DF
100
AcDbXrecord
280
     1
102
RTVSPost2010Prop28
280
     0
102
RTVSPost2010PropOp28
 70
     1
102
RTVSPost2010Prop29
280
     1
102
RTVSPost2010PropOp29
 70
     1
102
RTVSPost2010Prop30
280
     1
102
RTVSPost2010PropOp30
 70
     1
102
RTVSPost2010Prop31
280
     0
102
RTVSPost2010PropOp31
 70
     1
102
RTVSPost2010Prop32
280
     0
102
RTVSPost2010PropOp32
 70
     1
102
RTVSPost2010Prop33
280
     0
102
RTVSPost2010PropOp33
 70
     1
102
RTVSPost2010Prop34
280
     0
102
RTVSPost2010PropOp34
 70
     1
102
RTVSPost2010Prop35
280
     0
102
RTVSPost2010PropOp35
 70
     1
102
RTVSPost2010Prop36
280
     0
102
RTVSPost2010PropOp36
 70
     1
102
RTVSPost2010Prop37
 90
       50
102
RTVSPost2010PropOp37
 70
     1
102
RTVSPost2010Prop38
140
0.0
102
RTVSPost2010PropOp38
 70
     1
102
RTVSPost2010Prop39
140
1.0
102
RTVSPost2010PropOp39
 70
     1
102
RTVSPost2010Prop40
 90
        0
102
RTVSPost2010PropOp40
 70
     1
102
RTVSPost2010Prop41ColorIndex
 90
       18
102
RTVSPost2010Prop41ColorRGB
 90
        0
102
RTVSPost2010PropOp41
 70
     1
102
RTVSPost2010Prop42
 90
       50
102
RTVSPost2010PropOp42
 70
     1
102
RTVSPost2010Prop43
 90
        3
102
RTVSPost2010PropOp43
 70
     1
102
RTVSPost2010Prop44ColorIndex
 90
        5
102
RTVSPost2010Prop44ColorRGB
 90
      255
102
RTVSPost2010PropOp44
 70
     1
102
RTVSPost2010Prop45
280
     0
102
RTVSPost2010PropOp45
 70
     1
102
RTVSPost2010Prop46
 90
       50
102
RTVSPost2010PropOp46
 70
     1
102
RTVSPost2010Prop47
 90
       50
102
RTVSPost2010PropOp47
 70
     1
102
RTVSPost2010Prop48
 90
       50
102
RTVSPost2010PropOp48
 70
     1
102
RTVSPost2010Prop49
280
     0
102
RTVSPost2010PropOp49
 70
     1
102
RTVSPost2010Prop50
 90
       50
102
RTVSPost2010PropOp50
 70
     1
102
RTVSPost2010Prop51ColorIndex
 90
      256
102
RTVSPost2010Prop51ColorRGB
 90
-16777216
102
RTVSPost2010PropOp51
 70
     0
102
RTVSPost2010Prop52
140
1.0
102
RTVSPost2010PropOp52
 70
     0
102
RTVSPost2010Prop53
 90
        2
102
RTVSPost2010PropOp53
 70
     1
102
RTVSPost2010Prop54
  1
strokes_ogs.tif
102
RTVSPost2010PropOp54
 70
     1
102
RTVSPost2010Prop55
280
     0
102
RTVSPost2010PropOp55
 70
     1
102
RTVSPost2010Prop56
140
1.0
102
RTVSPost2010PropOp56
 70
     1
102
RTVSPost2010Prop57
140
1.0
102
RTVSPost2010PropOp57
 70
     1
102
RTVSPropertyOp0
 70
     1
102
RTVSPropertyOp1
 70
     1
102
RTVSPropertyOp2
 70
     1
102
RTVSPropertyOp3
 70
     1
102
RTVSPropertyOp4
 70
     1
102
RTVSPropertyOp5
 70
     1
102
RTVSPropertyOp6
 70
     1
102
RTVSPropertyOp7
 70
     1
102
RTVSPropertyOp8
 70
     1
102
RTVSPropertyOp9
 70
     1
102
RTVSPropertyOp10
 70
     1
102
RTVSPropertyOp11
 70
     1
102
RTVSPropertyOp12
 70
     1
102
RTVSPropertyOp13
 70
     1
102
RTVSPropertyOp14
 70
     1
102
RTVSPropertyOp15
 70
     1
102
RTVSPropertyOp16
 70
     1
102
RTVSPropertyOp17
 70
     1
102
RTVSPropertyOp18
 70
     1
102
RTVSPropertyOp19
 70
     1
102
RTVSPropertyOp20
 70
     1
102
RTVSPropertyOp21
 70
     1
102
RTVSPropertyOp22
 70
     1
102
RTVSPropertyOp23
 70
     1
102
RTVSPropertyOp24
 70
     1
102
RTVSPropertyOp25
 70
     1
102
RTVSPropertyOp26
 70
     1
102
RTVSPropertyOp27
 70
     1
102
RTVSPropertyOp28
 70
     1
102
RTVSPropertyOp29
 70
     1
102
RTVSPropertyOp30
 70
     1
102
RTVSPropertyOp31
 70
     1
102
RTVSPropertyOp32
 70
     1
102
RTVSPropertyOp33
 70
     1
102
RTVSPropertyOp34
 70
     1
102
RTVSPropertyOp35
 70
     1
102
RTVSPropertyOp36
 70
     1
102
RTVSPropertyOp37
 70
     1
102
RTVSPropertyOp38
 70
     1
102
RTVSPropertyOp39
 70
     1
102
RTVSPropertyOp40
 70
     1
102
RTVSPropertyOp41
 70
     1
102
RTVSPropertyOp42
 70
     1
102
RTVSPropertyOp43
 70
     1
102
RTVSPropertyOp44
 70
     1
102
RTVSPropertyOp45
 70
     1
102
RTVSPropertyOp46
 70
     1
102
RTVSPropertyOp47
 70
     1
102
RTVSPropertyOp48
 70
     1
102
RTVSPropertyOp49
 70
     1
102
RTVSPropertyOp50
 70
     1
102
RTVSPropertyOp51
 70
     0
102
RTVSPropertyOp52
 70
     0
102
RTVSPropertyOp53
 70
     1
102
RTVSPropertyOp54
 70
     1
102
RTVSPropertyOp55
 70
     1
102
RTVSPropertyOp56
 70
     1
102
RTVSPropertyOp57
 70
     1
102
RTVSPropertyOp58
 70
     1
102
RTVSPropertyOp59
 70
     1
102
RTVSPropertyOp60
 70
     1
102
RTVSPropertyOp61
 70
     1
102
RTVSPropertyOp62
 70
     1
  0
XRECORD
  5
B2E8
102
{ACAD_REACTORS
330
B2E7
102
}
330
B2E7
100
AcDbXrecord
280
     1
102
RTVSPost2010Prop28
280
     0
102
RTVSPost2010PropOp28
 70
     1
102
RTVSPost2010Prop29
280
     1
102
RTVSPost2010PropOp29
 70
     1
102
RTVSPost2010Prop30
280
     1
102
RTVSPost2010PropOp30
 70
     1
102
RTVSPost2010Prop31
280
     0
102
RTVSPost2010PropOp31
 70
     1
102
RTVSPost2010Prop32
280
     0
102
RTVSPost2010PropOp32
 70
     1
102
RTVSPost2010Prop33
280
     0
102
RTVSPost2010PropOp33
 70
     1
102
RTVSPost2010Prop34
280
     0
102
RTVSPost2010PropOp34
 70
     1
102
RTVSPost2010Prop35
280
     0
102
RTVSPost2010PropOp35
 70
     1
102
RTVSPost2010Prop36
280
     0
102
RTVSPost2010PropOp36
 70
     1
102
RTVSPost2010Prop37
 90
       50
102
RTVSPost2010PropOp37
 70
     1
102
RTVSPost2010Prop38
140
0.0
102
RTVSPost2010PropOp38
 70
     1
102
RTVSPost2010Prop39
140
1.0
102
RTVSPost2010PropOp39
 70
     1
102
RTVSPost2010Prop40
 90
        0
102
RTVSPost2010PropOp40
 70
     1
102
RTVSPost2010Prop41ColorIndex
 90
       18
102
RTVSPost2010Prop41ColorRGB
 90
        0
102
RTVSPost2010PropOp41
 70
     1
102
RTVSPost2010Prop42
 90
       50
102
RTVSPost2010PropOp42
 70
     1
102
RTVSPost2010Prop43
 90
        3
102
RTVSPost2010PropOp43
 70
     1
102
RTVSPost2010Prop44ColorIndex
 90
        5
102
RTVSPost2010Prop44ColorRGB
 90
      255
102
RTVSPost2010PropOp44
 70
     1
102
RTVSPost2010Prop45
280
     0
102
RTVSPost2010PropOp45
 70
     1
102
RTVSPost2010Prop46
 90
       50
102
RTVSPost2010PropOp46
 70
     1
102
RTVSPost2010Prop47
 90
       50
102
RTVSPost2010PropOp47
 70
     1
102
RTVSPost2010Prop48
 90
       50
102
RTVSPost2010PropOp48
 70
     1
102
RTVSPost2010Prop49
280
     0
102
RTVSPost2010PropOp49
 70
     1
102
RTVSPost2010Prop50
 90
       50
102
RTVSPost2010PropOp50
 70
     1
102
RTVSPost2010Prop51ColorIndex
 90
      256
102
RTVSPost2010Prop51ColorRGB
 90
-16777216
102
RTVSPost2010PropOp51
 70
     0
102
RTVSPost2010Prop52
140
1.0
102
RTVSPost2010PropOp52
 70
     0
102
RTVSPost2010Prop53
 90
        2
102
RTVSPost2010PropOp53
 70
     1
102
RTVSPost2010Prop54
  1
strokes_ogs.tif
102
RTVSPost2010PropOp54
 70
     1
102
RTVSPost2010Prop55
280
     0
102
RTVSPost2010PropOp55
 70
     1
102
RTVSPost2010Prop56
140
1.0
102
RTVSPost2010PropOp56
 70
     1
102
RTVSPost2010Prop57
140
1.0
102
RTVSPost2010PropOp57
 70
     1
102
RTVSPropertyOp0
 70
     1
102
RTVSPropertyOp1
 70
     1
102
RTVSPropertyOp2
 70
     1
102
RTVSPropertyOp3
 70
     1
102
RTVSPropertyOp4
 70
     1
102
RTVSPropertyOp5
 70
     1
102
RTVSPropertyOp6
 70
     1
102
RTVSPropertyOp7
 70
     1
102
RTVSPropertyOp8
 70
     1
102
RTVSPropertyOp9
 70
     1
102
RTVSPropertyOp10
 70
     1
102
RTVSPropertyOp11
 70
     1
102
RTVSPropertyOp12
 70
     1
102
RTVSPropertyOp13
 70
     1
102
RTVSPropertyOp14
 70
     1
102
RTVSPropertyOp15
 70
     1
102
RTVSPropertyOp16
 70
     1
102
RTVSPropertyOp17
 70
     1
102
RTVSPropertyOp18
 70
     1
102
RTVSPropertyOp19
 70
     1
102
RTVSPropertyOp20
 70
     1
102
RTVSPropertyOp21
 70
     1
102
RTVSPropertyOp22
 70
     1
102
RTVSPropertyOp23
 70
     1
102
RTVSPropertyOp24
 70
     1
102
RTVSPropertyOp25
 70
     1
102
RTVSPropertyOp26
 70
     1
102
RTVSPropertyOp27
 70
     1
102
RTVSPropertyOp28
 70
     1
102
RTVSPropertyOp29
 70
     1
102
RTVSPropertyOp30
 70
     1
102
RTVSPropertyOp31
 70
     1
102
RTVSPropertyOp32
 70
     1
102
RTVSPropertyOp33
 70
     1
102
RTVSPropertyOp34
 70
     1
102
RTVSPropertyOp35
 70
     1
102
RTVSPropertyOp36
 70
     1
102
RTVSPropertyOp37
 70
     1
102
RTVSPropertyOp38
 70
     1
102
RTVSPropertyOp39
 70
     1
102
RTVSPropertyOp40
 70
     1
102
RTVSPropertyOp41
 70
     1
102
RTVSPropertyOp42
 70
     1
102
RTVSPropertyOp43
 70
     1
102
RTVSPropertyOp44
 70
     1
102
RTVSPropertyOp45
 70
     1
102
RTVSPropertyOp46
 70
     1
102
RTVSPropertyOp47
 70
     1
102
RTVSPropertyOp48
 70
     1
102
RTVSPropertyOp49
 70
     1
102
RTVSPropertyOp50
 70
     1
102
RTVSPropertyOp51
 70
     0
102
RTVSPropertyOp52
 70
     0
102
RTVSPropertyOp53
 70
     1
102
RTVSPropertyOp54
 70
     1
102
RTVSPropertyOp55
 70
     1
102
RTVSPropertyOp56
 70
     1
102
RTVSPropertyOp57
 70
     1
102
RTVSPropertyOp58
 70
     1
102
RTVSPropertyOp59
 70
     1
102
RTVSPropertyOp60
 70
     1
102
RTVSPropertyOp61
 70
     1
102
RTVSPropertyOp62
 70
     1
  0
XRECORD
  5
B2DA
102
{ACAD_REACTORS
330
B2D9
102
}
330
B2D9
100
AcDbXrecord
280
     1
102
RTVSPost2010Prop28
280
     0
102
RTVSPost2010PropOp28
 70
     1
102
RTVSPost2010Prop29
280
     1
102
RTVSPost2010PropOp29
 70
     1
102
RTVSPost2010Prop30
280
     1
102
RTVSPost2010PropOp30
 70
     1
102
RTVSPost2010Prop31
280
     0
102
RTVSPost2010PropOp31
 70
     1
102
RTVSPost2010Prop32
280
     0
102
RTVSPost2010PropOp32
 70
     1
102
RTVSPost2010Prop33
280
     0
102
RTVSPost2010PropOp33
 70
     1
102
RTVSPost2010Prop34
280
     0
102
RTVSPost2010PropOp34
 70
     1
102
RTVSPost2010Prop35
280
     0
102
RTVSPost2010PropOp35
 70
     1
102
RTVSPost2010Prop36
280
     0
102
RTVSPost2010PropOp36
 70
     1
102
RTVSPost2010Prop37
 90
       50
102
RTVSPost2010PropOp37
 70
     1
102
RTVSPost2010Prop38
140
0.0
102
RTVSPost2010PropOp38
 70
     1
102
RTVSPost2010Prop39
140
1.0
102
RTVSPost2010PropOp39
 70
     1
102
RTVSPost2010Prop40
 90
        0
102
RTVSPost2010PropOp40
 70
     1
102
RTVSPost2010Prop41ColorIndex
 90
       18
102
RTVSPost2010Prop41ColorRGB
 90
        0
102
RTVSPost2010PropOp41
 70
     1
102
RTVSPost2010Prop42
 90
       50
102
RTVSPost2010PropOp42
 70
     1
102
RTVSPost2010Prop43
 90
        3
102
RTVSPost2010PropOp43
 70
     1
102
RTVSPost2010Prop44ColorIndex
 90
        5
102
RTVSPost2010Prop44ColorRGB
 90
      255
102
RTVSPost2010PropOp44
 70
     1
102
RTVSPost2010Prop45
280
     0
102
RTVSPost2010PropOp45
 70
     1
102
RTVSPost2010Prop46
 90
       50
102
RTVSPost2010PropOp46
 70
     1
102
RTVSPost2010Prop47
 90
       50
102
RTVSPost2010PropOp47
 70
     1
102
RTVSPost2010Prop48
 90
       50
102
RTVSPost2010PropOp48
 70
     1
102
RTVSPost2010Prop49
280
     0
102
RTVSPost2010PropOp49
 70
     1
102
RTVSPost2010Prop50
 90
       50
102
RTVSPost2010PropOp50
 70
     1
102
RTVSPost2010Prop51ColorIndex
 90
      256
102
RTVSPost2010Prop51ColorRGB
 90
-16777216
102
RTVSPost2010PropOp51
 70
     0
102
RTVSPost2010Prop52
140
1.0
102
RTVSPost2010PropOp52
 70
     0
102
RTVSPost2010Prop53
 90
        2
102
RTVSPost2010PropOp53
 70
     1
102
RTVSPost2010Prop54
  1
strokes_ogs.tif
102
RTVSPost2010PropOp54
 70
     1
102
RTVSPost2010Prop55
280
     0
102
RTVSPost2010PropOp55
 70
     1
102
RTVSPost2010Prop56
140
1.0
102
RTVSPost2010PropOp56
 70
     1
102
RTVSPost2010Prop57
140
1.0
102
RTVSPost2010PropOp57
 70
     1
102
RTVSPropertyOp0
 70
     1
102
RTVSPropertyOp1
 70
     1
102
RTVSPropertyOp2
 70
     1
102
RTVSPropertyOp3
 70
     1
102
RTVSPropertyOp4
 70
     1
102
RTVSPropertyOp5
 70
     1
102
RTVSPropertyOp6
 70
     1
102
RTVSPropertyOp7
 70
     1
102
RTVSPropertyOp8
 70
     1
102
RTVSPropertyOp9
 70
     1
102
RTVSPropertyOp10
 70
     1
102
RTVSPropertyOp11
 70
     1
102
RTVSPropertyOp12
 70
     1
102
RTVSPropertyOp13
 70
     1
102
RTVSPropertyOp14
 70
     1
102
RTVSPropertyOp15
 70
     1
102
RTVSPropertyOp16
 70
     1
102
RTVSPropertyOp17
 70
     1
102
RTVSPropertyOp18
 70
     1
102
RTVSPropertyOp19
 70
     1
102
RTVSPropertyOp20
 70
     1
102
RTVSPropertyOp21
 70
     1
102
RTVSPropertyOp22
 70
     1
102
RTVSPropertyOp23
 70
     1
102
RTVSPropertyOp24
 70
     1
102
RTVSPropertyOp25
 70
     1
102
RTVSPropertyOp26
 70
     1
102
RTVSPropertyOp27
 70
     1
102
RTVSPropertyOp28
 70
     1
102
RTVSPropertyOp29
 70
     1
102
RTVSPropertyOp30
 70
     1
102
RTVSPropertyOp31
 70
     1
102
RTVSPropertyOp32
 70
     1
102
RTVSPropertyOp33
 70
     1
102
RTVSPropertyOp34
 70
     1
102
RTVSPropertyOp35
 70
     1
102
RTVSPropertyOp36
 70
     1
102
RTVSPropertyOp37
 70
     1
102
RTVSPropertyOp38
 70
     1
102
RTVSPropertyOp39
 70
     1
102
RTVSPropertyOp40
 70
     1
102
RTVSPropertyOp41
 70
     1
102
RTVSPropertyOp42
 70
     1
102
RTVSPropertyOp43
 70
     1
102
RTVSPropertyOp44
 70
     1
102
RTVSPropertyOp45
 70
     1
102
RTVSPropertyOp46
 70
     1
102
RTVSPropertyOp47
 70
     1
102
RTVSPropertyOp48
 70
     1
102
RTVSPropertyOp49
 70
     1
102
RTVSPropertyOp50
 70
     1
102
RTVSPropertyOp51
 70
     0
102
RTVSPropertyOp52
 70
     0
102
RTVSPropertyOp53
 70
     1
102
RTVSPropertyOp54
 70
     1
102
RTVSPropertyOp55
 70
     1
102
RTVSPropertyOp56
 70
     1
102
RTVSPropertyOp57
 70
     1
102
RTVSPropertyOp58
 70
     1
102
RTVSPropertyOp59
 70
     1
102
RTVSPropertyOp60
 70
     1
102
RTVSPropertyOp61
 70
     1
102
RTVSPropertyOp62
 70
     1
  0
XRECORD
  5
B2DE
102
{ACAD_REACTORS
330
B2DD
102
}
330
B2DD
100
AcDbXrecord
280
     1
102
RTVSPost2010Prop28
280
     0
102
RTVSPost2010PropOp28
 70
     1
102
RTVSPost2010Prop29
280
     1
102
RTVSPost2010PropOp29
 70
     1
102
RTVSPost2010Prop30
280
     1
102
RTVSPost2010PropOp30
 70
     1
102
RTVSPost2010Prop31
280
     0
102
RTVSPost2010PropOp31
 70
     1
102
RTVSPost2010Prop32
280
     0
102
RTVSPost2010PropOp32
 70
     1
102
RTVSPost2010Prop33
280
     0
102
RTVSPost2010PropOp33
 70
     1
102
RTVSPost2010Prop34
280
     0
102
RTVSPost2010PropOp34
 70
     1
102
RTVSPost2010Prop35
280
     0
102
RTVSPost2010PropOp35
 70
     1
102
RTVSPost2010Prop36
280
     0
102
RTVSPost2010PropOp36
 70
     1
102
RTVSPost2010Prop37
 90
       50
102
RTVSPost2010PropOp37
 70
     1
102
RTVSPost2010Prop38
140
0.0
102
RTVSPost2010PropOp38
 70
     1
102
RTVSPost2010Prop39
140
1.0
102
RTVSPost2010PropOp39
 70
     1
102
RTVSPost2010Prop40
 90
        0
102
RTVSPost2010PropOp40
 70
     1
102
RTVSPost2010Prop41ColorIndex
 90
       18
102
RTVSPost2010Prop41ColorRGB
 90
        0
102
RTVSPost2010PropOp41
 70
     1
102
RTVSPost2010Prop42
 90
       50
102
RTVSPost2010PropOp42
 70
     1
102
RTVSPost2010Prop43
 90
        3
102
RTVSPost2010PropOp43
 70
     1
102
RTVSPost2010Prop44ColorIndex
 90
        5
102
RTVSPost2010Prop44ColorRGB
 90
      255
102
RTVSPost2010PropOp44
 70
     1
102
RTVSPost2010Prop45
280
     0
102
RTVSPost2010PropOp45
 70
     1
102
RTVSPost2010Prop46
 90
       50
102
RTVSPost2010PropOp46
 70
     1
102
RTVSPost2010Prop47
 90
       50
102
RTVSPost2010PropOp47
 70
     1
102
RTVSPost2010Prop48
 90
       50
102
RTVSPost2010PropOp48
 70
     1
102
RTVSPost2010Prop49
280
     0
102
RTVSPost2010PropOp49
 70
     1
102
RTVSPost2010Prop50
 90
       50
102
RTVSPost2010PropOp50
 70
     1
102
RTVSPost2010Prop51ColorIndex
 90
      256
102
RTVSPost2010Prop51ColorRGB
 90
-16777216
102
RTVSPost2010PropOp51
 70
     0
102
RTVSPost2010Prop52
140
1.0
102
RTVSPost2010PropOp52
 70
     0
102
RTVSPost2010Prop53
 90
        2
102
RTVSPost2010PropOp53
 70
     1
102
RTVSPost2010Prop54
  1
strokes_ogs.tif
102
RTVSPost2010PropOp54
 70
     1
102
RTVSPost2010Prop55
280
     0
102
RTVSPost2010PropOp55
 70
     1
102
RTVSPost2010Prop56
140
1.0
102
RTVSPost2010PropOp56
 70
     1
102
RTVSPost2010Prop57
140
1.0
102
RTVSPost2010PropOp57
 70
     1
102
RTVSPropertyOp0
 70
     1
102
RTVSPropertyOp1
 70
     1
102
RTVSPropertyOp2
 70
     1
102
RTVSPropertyOp3
 70
     1
102
RTVSPropertyOp4
 70
     1
102
RTVSPropertyOp5
 70
     1
102
RTVSPropertyOp6
 70
     1
102
RTVSPropertyOp7
 70
     1
102
RTVSPropertyOp8
 70
     1
102
RTVSPropertyOp9
 70
     1
102
RTVSPropertyOp10
 70
     1
102
RTVSPropertyOp11
 70
     1
102
RTVSPropertyOp12
 70
     1
102
RTVSPropertyOp13
 70
     1
102
RTVSPropertyOp14
 70
     1
102
RTVSPropertyOp15
 70
     1
102
RTVSPropertyOp16
 70
     1
102
RTVSPropertyOp17
 70
     1
102
RTVSPropertyOp18
 70
     1
102
RTVSPropertyOp19
 70
     1
102
RTVSPropertyOp20
 70
     1
102
RTVSPropertyOp21
 70
     1
102
RTVSPropertyOp22
 70
     1
102
RTVSPropertyOp23
 70
     1
102
RTVSPropertyOp24
 70
     1
102
RTVSPropertyOp25
 70
     1
102
RTVSPropertyOp26
 70
     1
102
RTVSPropertyOp27
 70
     1
102
RTVSPropertyOp28
 70
     1
102
RTVSPropertyOp29
 70
     1
102
RTVSPropertyOp30
 70
     1
102
RTVSPropertyOp31
 70
     1
102
RTVSPropertyOp32
 70
     1
102
RTVSPropertyOp33
 70
     1
102
RTVSPropertyOp34
 70
     1
102
RTVSPropertyOp35
 70
     1
102
RTVSPropertyOp36
 70
     1
102
RTVSPropertyOp37
 70
     1
102
RTVSPropertyOp38
 70
     1
102
RTVSPropertyOp39
 70
     1
102
RTVSPropertyOp40
 70
     1
102
RTVSPropertyOp41
 70
     1
102
RTVSPropertyOp42
 70
     1
102
RTVSPropertyOp43
 70
     1
102
RTVSPropertyOp44
 70
     1
102
RTVSPropertyOp45
 70
     1
102
RTVSPropertyOp46
 70
     1
102
RTVSPropertyOp47
 70
     1
102
RTVSPropertyOp48
 70
     1
102
RTVSPropertyOp49
 70
     1
102
RTVSPropertyOp50
 70
     1
102
RTVSPropertyOp51
 70
     0
102
RTVSPropertyOp52
 70
     0
102
RTVSPropertyOp53
 70
     1
102
RTVSPropertyOp54
 70
     1
102
RTVSPropertyOp55
 70
     1
102
RTVSPropertyOp56
 70
     1
102
RTVSPropertyOp57
 70
     1
102
RTVSPropertyOp58
 70
     1
102
RTVSPropertyOp59
 70
     1
102
RTVSPropertyOp60
 70
     1
102
RTVSPropertyOp61
 70
     1
102
RTVSPropertyOp62
 70
     1
  0
XRECORD
  5
B2F8
102
{ACAD_REACTORS
330
B2F7
102
}
330
B2F7
100
AcDbXrecord
280
     1
102
RTVSPost2010Prop28
280
     0
102
RTVSPost2010PropOp28
 70
     1
102
RTVSPost2010Prop29
280
     1
102
RTVSPost2010PropOp29
 70
     1
102
RTVSPost2010Prop30
280
     1
102
RTVSPost2010PropOp30
 70
     1
102
RTVSPost2010Prop31
280
     0
102
RTVSPost2010PropOp31
 70
     1
102
RTVSPost2010Prop32
280
     0
102
RTVSPost2010PropOp32
 70
     1
102
RTVSPost2010Prop33
280
     0
102
RTVSPost2010PropOp33
 70
     1
102
RTVSPost2010Prop34
280
     0
102
RTVSPost2010PropOp34
 70
     1
102
RTVSPost2010Prop35
280
     0
102
RTVSPost2010PropOp35
 70
     1
102
RTVSPost2010Prop36
280
     0
102
RTVSPost2010PropOp36
 70
     1
102
RTVSPost2010Prop37
 90
       50
102
RTVSPost2010PropOp37
 70
     0
102
RTVSPost2010Prop38
140
0.0
102
RTVSPost2010PropOp38
 70
     0
102
RTVSPost2010Prop39
140
1.0
102
RTVSPost2010PropOp39
 70
     0
102
RTVSPost2010Prop40
 90
        0
102
RTVSPost2010PropOp40
 70
     0
102
RTVSPost2010Prop41ColorIndex
 90
       18
102
RTVSPost2010Prop41ColorRGB
 90
        0
102
RTVSPost2010PropOp41
 70
     0
102
RTVSPost2010Prop42
 90
       50
102
RTVSPost2010PropOp42
 70
     0
102
RTVSPost2010Prop43
 90
        3
102
RTVSPost2010PropOp43
 70
     0
102
RTVSPost2010Prop44ColorIndex
 90
        5
102
RTVSPost2010Prop44ColorRGB
 90
      255
102
RTVSPost2010PropOp44
 70
     0
102
RTVSPost2010Prop45
280
     0
102
RTVSPost2010PropOp45
 70
     1
102
RTVSPost2010Prop46
 90
       50
102
RTVSPost2010PropOp46
 70
     0
102
RTVSPost2010Prop47
 90
       50
102
RTVSPost2010PropOp47
 70
     0
102
RTVSPost2010Prop48
 90
       50
102
RTVSPost2010PropOp48
 70
     0
102
RTVSPost2010Prop49
280
     0
102
RTVSPost2010PropOp49
 70
     1
102
RTVSPost2010Prop50
 90
       50
102
RTVSPost2010PropOp50
 70
     0
102
RTVSPost2010Prop51ColorIndex
 90
      256
102
RTVSPost2010Prop51ColorRGB
 90
-16777216
102
RTVSPost2010PropOp51
 70
     0
102
RTVSPost2010Prop52
140
1.0
102
RTVSPost2010PropOp52
 70
     0
102
RTVSPost2010Prop53
 90
        2
102
RTVSPost2010PropOp53
 70
     0
102
RTVSPost2010Prop54
  1
strokes_ogs.tif
102
RTVSPost2010PropOp54
 70
     0
102
RTVSPost2010Prop55
280
     0
102
RTVSPost2010PropOp55
 70
     1
102
RTVSPost2010Prop56
140
1.0
102
RTVSPost2010PropOp56
 70
     0
102
RTVSPost2010Prop57
140
1.0
102
RTVSPost2010PropOp57
 70
     0
102
RTVSPropertyOp0
 70
     0
102
RTVSPropertyOp1
 70
     0
102
RTVSPropertyOp2
 70
     0
102
RTVSPropertyOp3
 70
     0
102
RTVSPropertyOp4
 70
     0
102
RTVSPropertyOp5
 70
     0
102
RTVSPropertyOp6
 70
     0
102
RTVSPropertyOp7
 70
     0
102
RTVSPropertyOp8
 70
     0
102
RTVSPropertyOp9
 70
     0
102
RTVSPropertyOp10
 70
     0
102
RTVSPropertyOp11
 70
     0
102
RTVSPropertyOp12
 70
     0
102
RTVSPropertyOp13
 70
     0
102
RTVSPropertyOp14
 70
     2
102
RTVSPropertyOp15
 70
     0
102
RTVSPropertyOp16
 70
     0
102
RTVSPropertyOp17
 70
     0
102
RTVSPropertyOp18
 70
     0
102
RTVSPropertyOp19
 70
     0
102
RTVSPropertyOp20
 70
     0
102
RTVSPropertyOp21
 70
     0
102
RTVSPropertyOp22
 70
     0
102
RTVSPropertyOp23
 70
     0
102
RTVSPropertyOp24
 70
     0
102
RTVSPropertyOp25
 70
     0
102
RTVSPropertyOp26
 70
     0
102
RTVSPropertyOp27
 70
     0
102
RTVSPropertyOp28
 70
     1
102
RTVSPropertyOp29
 70
     1
102
RTVSPropertyOp30
 70
     1
102
RTVSPropertyOp31
 70
     1
102
RTVSPropertyOp32
 70
     1
102
RTVSPropertyOp33
 70
     1
102
RTVSPropertyOp34
 70
     1
102
RTVSPropertyOp35
 70
     1
102
RTVSPropertyOp36
 70
     1
102
RTVSPropertyOp37
 70
     0
102
RTVSPropertyOp38
 70
     0
102
RTVSPropertyOp39
 70
     0
102
RTVSPropertyOp40
 70
     0
102
RTVSPropertyOp41
 70
     0
102
RTVSPropertyOp42
 70
     0
102
RTVSPropertyOp43
 70
     0
102
RTVSPropertyOp44
 70
     0
102
RTVSPropertyOp45
 70
     1
102
RTVSPropertyOp46
 70
     0
102
RTVSPropertyOp47
 70
     0
102
RTVSPropertyOp48
 70
     0
102
RTVSPropertyOp49
 70
     1
102
RTVSPropertyOp50
 70
     0
102
RTVSPropertyOp51
 70
     0
102
RTVSPropertyOp52
 70
     0
102
RTVSPropertyOp53
 70
     0
102
RTVSPropertyOp54
 70
     0
102
RTVSPropertyOp55
 70
     1
102
RTVSPropertyOp56
 70
     0
102
RTVSPropertyOp57
 70
     0
102
RTVSPropertyOp58
 70
     0
102
RTVSPropertyOp59
 70
     0
102
RTVSPropertyOp60
 70
     0
102
RTVSPropertyOp61
 70
     0
102
RTVSPropertyOp62
 70
     0
  0
XRECORD
  5
B2E6
102
{ACAD_REACTORS
330
B2E5
102
}
330
B2E5
100
AcDbXrecord
280
     1
102
RTVSPost2010Prop28
280
     0
102
RTVSPost2010PropOp28
 70
     1
102
RTVSPost2010Prop29
280
     1
102
RTVSPost2010PropOp29
 70
     1
102
RTVSPost2010Prop30
280
     1
102
RTVSPost2010PropOp30
 70
     1
102
RTVSPost2010Prop31
280
     0
102
RTVSPost2010PropOp31
 70
     1
102
RTVSPost2010Prop32
280
     0
102
RTVSPost2010PropOp32
 70
     1
102
RTVSPost2010Prop33
280
     0
102
RTVSPost2010PropOp33
 70
     1
102
RTVSPost2010Prop34
280
     0
102
RTVSPost2010PropOp34
 70
     1
102
RTVSPost2010Prop35
280
     0
102
RTVSPost2010PropOp35
 70
     1
102
RTVSPost2010Prop36
280
     0
102
RTVSPost2010PropOp36
 70
     1
102
RTVSPost2010Prop37
 90
       50
102
RTVSPost2010PropOp37
 70
     1
102
RTVSPost2010Prop38
140
0.0
102
RTVSPost2010PropOp38
 70
     1
102
RTVSPost2010Prop39
140
1.0
102
RTVSPost2010PropOp39
 70
     1
102
RTVSPost2010Prop40
 90
        0
102
RTVSPost2010PropOp40
 70
     1
102
RTVSPost2010Prop41ColorIndex
 90
       18
102
RTVSPost2010Prop41ColorRGB
 90
        0
102
RTVSPost2010PropOp41
 70
     1
102
RTVSPost2010Prop42
 90
       50
102
RTVSPost2010PropOp42
 70
     1
102
RTVSPost2010Prop43
 90
        3
102
RTVSPost2010PropOp43
 70
     1
102
RTVSPost2010Prop44ColorIndex
 90
        5
102
RTVSPost2010Prop44ColorRGB
 90
      255
102
RTVSPost2010PropOp44
 70
     1
102
RTVSPost2010Prop45
280
     0
102
RTVSPost2010PropOp45
 70
     1
102
RTVSPost2010Prop46
 90
       50
102
RTVSPost2010PropOp46
 70
     1
102
RTVSPost2010Prop47
 90
       50
102
RTVSPost2010PropOp47
 70
     1
102
RTVSPost2010Prop48
 90
       50
102
RTVSPost2010PropOp48
 70
     1
102
RTVSPost2010Prop49
280
     0
102
RTVSPost2010PropOp49
 70
     1
102
RTVSPost2010Prop50
 90
       50
102
RTVSPost2010PropOp50
 70
     1
102
RTVSPost2010Prop51ColorIndex
 90
      256
102
RTVSPost2010Prop51ColorRGB
 90
-16777216
102
RTVSPost2010PropOp51
 70
     0
102
RTVSPost2010Prop52
140
1.0
102
RTVSPost2010PropOp52
 70
     0
102
RTVSPost2010Prop53
 90
        2
102
RTVSPost2010PropOp53
 70
     1
102
RTVSPost2010Prop54
  1
strokes_ogs.tif
102
RTVSPost2010PropOp54
 70
     1
102
RTVSPost2010Prop55
280
     0
102
RTVSPost2010PropOp55
 70
     1
102
RTVSPost2010Prop56
140
1.0
102
RTVSPost2010PropOp56
 70
     1
102
RTVSPost2010Prop57
140
1.0
102
RTVSPost2010PropOp57
 70
     1
102
RTVSPropertyOp0
 70
     1
102
RTVSPropertyOp1
 70
     1
102
RTVSPropertyOp2
 70
     1
102
RTVSPropertyOp3
 70
     1
102
RTVSPropertyOp4
 70
     1
102
RTVSPropertyOp5
 70
     1
102
RTVSPropertyOp6
 70
     1
102
RTVSPropertyOp7
 70
     1
102
RTVSPropertyOp8
 70
     1
102
RTVSPropertyOp9
 70
     1
102
RTVSPropertyOp10
 70
     1
102
RTVSPropertyOp11
 70
     1
102
RTVSPropertyOp12
 70
     1
102
RTVSPropertyOp13
 70
     1
102
RTVSPropertyOp14
 70
     1
102
RTVSPropertyOp15
 70
     1
102
RTVSPropertyOp16
 70
     1
102
RTVSPropertyOp17
 70
     1
102
RTVSPropertyOp18
 70
     1
102
RTVSPropertyOp19
 70
     1
102
RTVSPropertyOp20
 70
     1
102
RTVSPropertyOp21
 70
     1
102
RTVSPropertyOp22
 70
     1
102
RTVSPropertyOp23
 70
     1
102
RTVSPropertyOp24
 70
     1
102
RTVSPropertyOp25
 70
     1
102
RTVSPropertyOp26
 70
     1
102
RTVSPropertyOp27
 70
     1
102
RTVSPropertyOp28
 70
     1
102
RTVSPropertyOp29
 70
     1
102
RTVSPropertyOp30
 70
     1
102
RTVSPropertyOp31
 70
     1
102
RTVSPropertyOp32
 70
     1
102
RTVSPropertyOp33
 70
     1
102
RTVSPropertyOp34
 70
     1
102
RTVSPropertyOp35
 70
     1
102
RTVSPropertyOp36
 70
     1
102
RTVSPropertyOp37
 70
     1
102
RTVSPropertyOp38
 70
     1
102
RTVSPropertyOp39
 70
     1
102
RTVSPropertyOp40
 70
     1
102
RTVSPropertyOp41
 70
     1
102
RTVSPropertyOp42
 70
     1
102
RTVSPropertyOp43
 70
     1
102
RTVSPropertyOp44
 70
     1
102
RTVSPropertyOp45
 70
     1
102
RTVSPropertyOp46
 70
     1
102
RTVSPropertyOp47
 70
     1
102
RTVSPropertyOp48
 70
     1
102
RTVSPropertyOp49
 70
     1
102
RTVSPropertyOp50
 70
     1
102
RTVSPropertyOp51
 70
     0
102
RTVSPropertyOp52
 70
     0
102
RTVSPropertyOp53
 70
     1
102
RTVSPropertyOp54
 70
     1
102
RTVSPropertyOp55
 70
     1
102
RTVSPropertyOp56
 70
     1
102
RTVSPropertyOp57
 70
     1
102
RTVSPropertyOp58
 70
     1
102
RTVSPropertyOp59
 70
     1
102
RTVSPropertyOp60
 70
     1
102
RTVSPropertyOp61
 70
     1
102
RTVSPropertyOp62
 70
     1
  0
XRECORD
  5
B2CA
102
{ACAD_REACTORS
330
B2C9
102
}
330
B2C9
100
AcDbXrecord
280
     1
102
RTVSPost2010Prop28
280
     0
102
RTVSPost2010PropOp28
 70
     1
102
RTVSPost2010Prop29
280
     1
102
RTVSPost2010PropOp29
 70
     1
102
RTVSPost2010Prop30
280
     1
102
RTVSPost2010PropOp30
 70
     1
102
RTVSPost2010Prop31
280
     0
102
RTVSPost2010PropOp31
 70
     1
102
RTVSPost2010Prop32
280
     0
102
RTVSPost2010PropOp32
 70
     1
102
RTVSPost2010Prop33
280
     0
102
RTVSPost2010PropOp33
 70
     1
102
RTVSPost2010Prop34
280
     0
102
RTVSPost2010PropOp34
 70
     1
102
RTVSPost2010Prop35
280
     0
102
RTVSPost2010PropOp35
 70
     1
102
RTVSPost2010Prop36
280
     0
102
RTVSPost2010PropOp36
 70
     1
102
RTVSPost2010Prop37
 90
       50
102
RTVSPost2010PropOp37
 70
     1
102
RTVSPost2010Prop38
140
0.0
102
RTVSPost2010PropOp38
 70
     1
102
RTVSPost2010Prop39
140
1.0
102
RTVSPost2010PropOp39
 70
     1
102
RTVSPost2010Prop40
 90
        0
102
RTVSPost2010PropOp40
 70
     1
102
RTVSPost2010Prop41ColorIndex
 90
       18
102
RTVSPost2010Prop41ColorRGB
 90
        0
102
RTVSPost2010PropOp41
 70
     1
102
RTVSPost2010Prop42
 90
       50
102
RTVSPost2010PropOp42
 70
     1
102
RTVSPost2010Prop43
 90
        3
102
RTVSPost2010PropOp43
 70
     1
102
RTVSPost2010Prop44ColorIndex
 90
        5
102
RTVSPost2010Prop44ColorRGB
 90
      255
102
RTVSPost2010PropOp44
 70
     1
102
RTVSPost2010Prop45
280
     0
102
RTVSPost2010PropOp45
 70
     1
102
RTVSPost2010Prop46
 90
       50
102
RTVSPost2010PropOp46
 70
     1
102
RTVSPost2010Prop47
 90
       50
102
RTVSPost2010PropOp47
 70
     1
102
RTVSPost2010Prop48
 90
       50
102
RTVSPost2010PropOp48
 70
     1
102
RTVSPost2010Prop49
280
     0
102
RTVSPost2010PropOp49
 70
     1
102
RTVSPost2010Prop50
 90
       50
102
RTVSPost2010PropOp50
 70
     1
102
RTVSPost2010Prop51ColorIndex
 90
      256
102
RTVSPost2010Prop51ColorRGB
 90
-16777216
102
RTVSPost2010PropOp51
 70
     0
102
RTVSPost2010Prop52
140
1.0
102
RTVSPost2010PropOp52
 70
     0
102
RTVSPost2010Prop53
 90
        2
102
RTVSPost2010PropOp53
 70
     1
102
RTVSPost2010Prop54
  1
strokes_ogs.tif
102
RTVSPost2010PropOp54
 70
     1
102
RTVSPost2010Prop55
280
     0
102
RTVSPost2010PropOp55
 70
     1
102
RTVSPost2010Prop56
140
1.0
102
RTVSPost2010PropOp56
 70
     1
102
RTVSPost2010Prop57
140
1.0
102
RTVSPost2010PropOp57
 70
     1
102
RTVSPropertyOp0
 70
     1
102
RTVSPropertyOp1
 70
     1
102
RTVSPropertyOp2
 70
     1
102
RTVSPropertyOp3
 70
     1
102
RTVSPropertyOp4
 70
     1
102
RTVSPropertyOp5
 70
     1
102
RTVSPropertyOp6
 70
     1
102
RTVSPropertyOp7
 70
     1
102
RTVSPropertyOp8
 70
     1
102
RTVSPropertyOp9
 70
     1
102
RTVSPropertyOp10
 70
     1
102
RTVSPropertyOp11
 70
     1
102
RTVSPropertyOp12
 70
     1
102
RTVSPropertyOp13
 70
     1
102
RTVSPropertyOp14
 70
     1
102
RTVSPropertyOp15
 70
     1
102
RTVSPropertyOp16
 70
     1
102
RTVSPropertyOp17
 70
     1
102
RTVSPropertyOp18
 70
     1
102
RTVSPropertyOp19
 70
     1
102
RTVSPropertyOp20
 70
     1
102
RTVSPropertyOp21
 70
     1
102
RTVSPropertyOp22
 70
     1
102
RTVSPropertyOp23
 70
     1
102
RTVSPropertyOp24
 70
     1
102
RTVSPropertyOp25
 70
     1
102
RTVSPropertyOp26
 70
     1
102
RTVSPropertyOp27
 70
     1
102
RTVSPropertyOp28
 70
     1
102
RTVSPropertyOp29
 70
     1
102
RTVSPropertyOp30
 70
     1
102
RTVSPropertyOp31
 70
     1
102
RTVSPropertyOp32
 70
     1
102
RTVSPropertyOp33
 70
     1
102
RTVSPropertyOp34
 70
     1
102
RTVSPropertyOp35
 70
     1
102
RTVSPropertyOp36
 70
     1
102
RTVSPropertyOp37
 70
     1
102
RTVSPropertyOp38
 70
     1
102
RTVSPropertyOp39
 70
     1
102
RTVSPropertyOp40
 70
     1
102
RTVSPropertyOp41
 70
     1
102
RTVSPropertyOp42
 70
     1
102
RTVSPropertyOp43
 70
     1
102
RTVSPropertyOp44
 70
     1
102
RTVSPropertyOp45
 70
     1
102
RTVSPropertyOp46
 70
     1
102
RTVSPropertyOp47
 70
     1
102
RTVSPropertyOp48
 70
     1
102
RTVSPropertyOp49
 70
     1
102
RTVSPropertyOp50
 70
     1
102
RTVSPropertyOp51
 70
     0
102
RTVSPropertyOp52
 70
     0
102
RTVSPropertyOp53
 70
     1
102
RTVSPropertyOp54
 70
     1
102
RTVSPropertyOp55
 70
     1
102
RTVSPropertyOp56
 70
     1
102
RTVSPropertyOp57
 70
     1
102
RTVSPropertyOp58
 70
     1
102
RTVSPropertyOp59
 70
     1
102
RTVSPropertyOp60
 70
     1
102
RTVSPropertyOp61
 70
     1
102
RTVSPropertyOp62
 70
     1
  0
XRECORD
  5
B2CC
102
{ACAD_REACTORS
330
B2CB
102
}
330
B2CB
100
AcDbXrecord
280
     1
102
RTVSPost2010Prop28
280
     0
102
RTVSPost2010PropOp28
 70
     1
102
RTVSPost2010Prop29
280
     1
102
RTVSPost2010PropOp29
 70
     1
102
RTVSPost2010Prop30
280
     1
102
RTVSPost2010PropOp30
 70
     1
102
RTVSPost2010Prop31
280
     0
102
RTVSPost2010PropOp31
 70
     1
102
RTVSPost2010Prop32
280
     0
102
RTVSPost2010PropOp32
 70
     1
102
RTVSPost2010Prop33
280
     0
102
RTVSPost2010PropOp33
 70
     1
102
RTVSPost2010Prop34
280
     0
102
RTVSPost2010PropOp34
 70
     1
102
RTVSPost2010Prop35
280
     0
102
RTVSPost2010PropOp35
 70
     1
102
RTVSPost2010Prop36
280
     0
102
RTVSPost2010PropOp36
 70
     1
102
RTVSPost2010Prop37
 90
       50
102
RTVSPost2010PropOp37
 70
     1
102
RTVSPost2010Prop38
140
0.0
102
RTVSPost2010PropOp38
 70
     1
102
RTVSPost2010Prop39
140
1.0
102
RTVSPost2010PropOp39
 70
     1
102
RTVSPost2010Prop40
 90
        0
102
RTVSPost2010PropOp40
 70
     1
102
RTVSPost2010Prop41ColorIndex
 90
       18
102
RTVSPost2010Prop41ColorRGB
 90
        0
102
RTVSPost2010PropOp41
 70
     1
102
RTVSPost2010Prop42
 90
       50
102
RTVSPost2010PropOp42
 70
     1
102
RTVSPost2010Prop43
 90
        3
102
RTVSPost2010PropOp43
 70
     1
102
RTVSPost2010Prop44ColorIndex
 90
        5
102
RTVSPost2010Prop44ColorRGB
 90
      255
102
RTVSPost2010PropOp44
 70
     1
102
RTVSPost2010Prop45
280
     0
102
RTVSPost2010PropOp45
 70
     1
102
RTVSPost2010Prop46
 90
       50
102
RTVSPost2010PropOp46
 70
     1
102
RTVSPost2010Prop47
 90
       50
102
RTVSPost2010PropOp47
 70
     1
102
RTVSPost2010Prop48
 90
       50
102
RTVSPost2010PropOp48
 70
     1
102
RTVSPost2010Prop49
280
     0
102
RTVSPost2010PropOp49
 70
     1
102
RTVSPost2010Prop50
 90
       50
102
RTVSPost2010PropOp50
 70
     1
102
RTVSPost2010Prop51ColorIndex
 90
      256
102
RTVSPost2010Prop51ColorRGB
 90
-16777216
102
RTVSPost2010PropOp51
 70
     0
102
RTVSPost2010Prop52
140
1.0
102
RTVSPost2010PropOp52
 70
     0
102
RTVSPost2010Prop53
 90
        2
102
RTVSPost2010PropOp53
 70
     1
102
RTVSPost2010Prop54
  1
strokes_ogs.tif
102
RTVSPost2010PropOp54
 70
     1
102
RTVSPost2010Prop55
280
     0
102
RTVSPost2010PropOp55
 70
     1
102
RTVSPost2010Prop56
140
1.0
102
RTVSPost2010PropOp56
 70
     1
102
RTVSPost2010Prop57
140
1.0
102
RTVSPost2010PropOp57
 70
     1
102
RTVSPropertyOp0
 70
     1
102
RTVSPropertyOp1
 70
     1
102
RTVSPropertyOp2
 70
     1
102
RTVSPropertyOp3
 70
     1
102
RTVSPropertyOp4
 70
     1
102
RTVSPropertyOp5
 70
     1
102
RTVSPropertyOp6
 70
     1
102
RTVSPropertyOp7
 70
     1
102
RTVSPropertyOp8
 70
     1
102
RTVSPropertyOp9
 70
     1
102
RTVSPropertyOp10
 70
     1
102
RTVSPropertyOp11
 70
     1
102
RTVSPropertyOp12
 70
     1
102
RTVSPropertyOp13
 70
     1
102
RTVSPropertyOp14
 70
     1
102
RTVSPropertyOp15
 70
     1
102
RTVSPropertyOp16
 70
     1
102
RTVSPropertyOp17
 70
     1
102
RTVSPropertyOp18
 70
     1
102
RTVSPropertyOp19
 70
     1
102
RTVSPropertyOp20
 70
     1
102
RTVSPropertyOp21
 70
     1
102
RTVSPropertyOp22
 70
     1
102
RTVSPropertyOp23
 70
     1
102
RTVSPropertyOp24
 70
     1
102
RTVSPropertyOp25
 70
     1
102
RTVSPropertyOp26
 70
     1
102
RTVSPropertyOp27
 70
     1
102
RTVSPropertyOp28
 70
     1
102
RTVSPropertyOp29
 70
     1
102
RTVSPropertyOp30
 70
     1
102
RTVSPropertyOp31
 70
     1
102
RTVSPropertyOp32
 70
     1
102
RTVSPropertyOp33
 70
     1
102
RTVSPropertyOp34
 70
     1
102
RTVSPropertyOp35
 70
     1
102
RTVSPropertyOp36
 70
     1
102
RTVSPropertyOp37
 70
     1
102
RTVSPropertyOp38
 70
     1
102
RTVSPropertyOp39
 70
     1
102
RTVSPropertyOp40
 70
     1
102
RTVSPropertyOp41
 70
     1
102
RTVSPropertyOp42
 70
     1
102
RTVSPropertyOp43
 70
     1
102
RTVSPropertyOp44
 70
     1
102
RTVSPropertyOp45
 70
     1
102
RTVSPropertyOp46
 70
     1
102
RTVSPropertyOp47
 70
     1
102
RTVSPropertyOp48
 70
     1
102
RTVSPropertyOp49
 70
     1
102
RTVSPropertyOp50
 70
     1
102
RTVSPropertyOp51
 70
     0
102
RTVSPropertyOp52
 70
     0
102
RTVSPropertyOp53
 70
     1
102
RTVSPropertyOp54
 70
     1
102
RTVSPropertyOp55
 70
     1
102
RTVSPropertyOp56
 70
     1
102
RTVSPropertyOp57
 70
     1
102
RTVSPropertyOp58
 70
     1
102
RTVSPropertyOp59
 70
     1
102
RTVSPropertyOp60
 70
     1
102
RTVSPropertyOp61
 70
     1
102
RTVSPropertyOp62
 70
     1
  0
XRECORD
  5
B2CE
102
{ACAD_REACTORS
330
B2CD
102
}
330
B2CD
100
AcDbXrecord
280
     1
102
RTVSPost2010Prop28
280
     0
102
RTVSPost2010PropOp28
 70
     1
102
RTVSPost2010Prop29
280
     1
102
RTVSPost2010PropOp29
 70
     1
102
RTVSPost2010Prop30
280
     1
102
RTVSPost2010PropOp30
 70
     1
102
RTVSPost2010Prop31
280
     0
102
RTVSPost2010PropOp31
 70
     1
102
RTVSPost2010Prop32
280
     0
102
RTVSPost2010PropOp32
 70
     1
102
RTVSPost2010Prop33
280
     0
102
RTVSPost2010PropOp33
 70
     1
102
RTVSPost2010Prop34
280
     0
102
RTVSPost2010PropOp34
 70
     1
102
RTVSPost2010Prop35
280
     0
102
RTVSPost2010PropOp35
 70
     1
102
RTVSPost2010Prop36
280
     0
102
RTVSPost2010PropOp36
 70
     1
102
RTVSPost2010Prop37
 90
       50
102
RTVSPost2010PropOp37
 70
     1
102
RTVSPost2010Prop38
140
0.0
102
RTVSPost2010PropOp38
 70
     1
102
RTVSPost2010Prop39
140
1.0
102
RTVSPost2010PropOp39
 70
     1
102
RTVSPost2010Prop40
 90
        0
102
RTVSPost2010PropOp40
 70
     1
102
RTVSPost2010Prop41ColorIndex
 90
       18
102
RTVSPost2010Prop41ColorRGB
 90
        0
102
RTVSPost2010PropOp41
 70
     1
102
RTVSPost2010Prop42
 90
       50
102
RTVSPost2010PropOp42
 70
     1
102
RTVSPost2010Prop43
 90
        3
102
RTVSPost2010PropOp43
 70
     1
102
RTVSPost2010Prop44ColorIndex
 90
        5
102
RTVSPost2010Prop44ColorRGB
 90
      255
102
RTVSPost2010PropOp44
 70
     1
102
RTVSPost2010Prop45
280
     0
102
RTVSPost2010PropOp45
 70
     1
102
RTVSPost2010Prop46
 90
       50
102
RTVSPost2010PropOp46
 70
     1
102
RTVSPost2010Prop47
 90
       50
102
RTVSPost2010PropOp47
 70
     1
102
RTVSPost2010Prop48
 90
       50
102
RTVSPost2010PropOp48
 70
     1
102
RTVSPost2010Prop49
280
     0
102
RTVSPost2010PropOp49
 70
     1
102
RTVSPost2010Prop50
 90
       50
102
RTVSPost2010PropOp50
 70
     1
102
RTVSPost2010Prop51ColorIndex
 90
      256
102
RTVSPost2010Prop51ColorRGB
 90
-16777216
102
RTVSPost2010PropOp51
 70
     0
102
RTVSPost2010Prop52
140
1.0
102
RTVSPost2010PropOp52
 70
     0
102
RTVSPost2010Prop53
 90
        2
102
RTVSPost2010PropOp53
 70
     1
102
RTVSPost2010Prop54
  1
strokes_ogs.tif
102
RTVSPost2010PropOp54
 70
     1
102
RTVSPost2010Prop55
280
     0
102
RTVSPost2010PropOp55
 70
     1
102
RTVSPost2010Prop56
140
1.0
102
RTVSPost2010PropOp56
 70
     1
102
RTVSPost2010Prop57
140
1.0
102
RTVSPost2010PropOp57
 70
     1
102
RTVSPropertyOp0
 70
     1
102
RTVSPropertyOp1
 70
     1
102
RTVSPropertyOp2
 70
     1
102
RTVSPropertyOp3
 70
     1
102
RTVSPropertyOp4
 70
     1
102
RTVSPropertyOp5
 70
     1
102
RTVSPropertyOp6
 70
     1
102
RTVSPropertyOp7
 70
     1
102
RTVSPropertyOp8
 70
     1
102
RTVSPropertyOp9
 70
     1
102
RTVSPropertyOp10
 70
     1
102
RTVSPropertyOp11
 70
     1
102
RTVSPropertyOp12
 70
     1
102
RTVSPropertyOp13
 70
     1
102
RTVSPropertyOp14
 70
     1
102
RTVSPropertyOp15
 70
     1
102
RTVSPropertyOp16
 70
     1
102
RTVSPropertyOp17
 70
     1
102
RTVSPropertyOp18
 70
     1
102
RTVSPropertyOp19
 70
     1
102
RTVSPropertyOp20
 70
     1
102
RTVSPropertyOp21
 70
     1
102
RTVSPropertyOp22
 70
     1
102
RTVSPropertyOp23
 70
     1
102
RTVSPropertyOp24
 70
     1
102
RTVSPropertyOp25
 70
     1
102
RTVSPropertyOp26
 70
     1
102
RTVSPropertyOp27
 70
     1
102
RTVSPropertyOp28
 70
     1
102
RTVSPropertyOp29
 70
     1
102
RTVSPropertyOp30
 70
     1
102
RTVSPropertyOp31
 70
     1
102
RTVSPropertyOp32
 70
     1
102
RTVSPropertyOp33
 70
     1
102
RTVSPropertyOp34
 70
     1
102
RTVSPropertyOp35
 70
     1
102
RTVSPropertyOp36
 70
     1
102
RTVSPropertyOp37
 70
     1
102
RTVSPropertyOp38
 70
     1
102
RTVSPropertyOp39
 70
     1
102
RTVSPropertyOp40
 70
     1
102
RTVSPropertyOp41
 70
     1
102
RTVSPropertyOp42
 70
     1
102
RTVSPropertyOp43
 70
     1
102
RTVSPropertyOp44
 70
     1
102
RTVSPropertyOp45
 70
     1
102
RTVSPropertyOp46
 70
     1
102
RTVSPropertyOp47
 70
     1
102
RTVSPropertyOp48
 70
     1
102
RTVSPropertyOp49
 70
     1
102
RTVSPropertyOp50
 70
     1
102
RTVSPropertyOp51
 70
     0
102
RTVSPropertyOp52
 70
     0
102
RTVSPropertyOp53
 70
     1
102
RTVSPropertyOp54
 70
     1
102
RTVSPropertyOp55
 70
     1
102
RTVSPropertyOp56
 70
     1
102
RTVSPropertyOp57
 70
     1
102
RTVSPropertyOp58
 70
     1
102
RTVSPropertyOp59
 70
     1
102
RTVSPropertyOp60
 70
     1
102
RTVSPropertyOp61
 70
     1
102
RTVSPropertyOp62
 70
     1
  0
XRECORD
  5
B2D0
102
{ACAD_REACTORS
330
B2CF
102
}
330
B2CF
100
AcDbXrecord
280
     1
102
RTVSPost2010Prop28
280
     0
102
RTVSPost2010PropOp28
 70
     1
102
RTVSPost2010Prop29
280
     1
102
RTVSPost2010PropOp29
 70
     1
102
RTVSPost2010Prop30
280
     1
102
RTVSPost2010PropOp30
 70
     1
102
RTVSPost2010Prop31
280
     0
102
RTVSPost2010PropOp31
 70
     1
102
RTVSPost2010Prop32
280
     0
102
RTVSPost2010PropOp32
 70
     1
102
RTVSPost2010Prop33
280
     0
102
RTVSPost2010PropOp33
 70
     1
102
RTVSPost2010Prop34
280
     0
102
RTVSPost2010PropOp34
 70
     1
102
RTVSPost2010Prop35
280
     0
102
RTVSPost2010PropOp35
 70
     1
102
RTVSPost2010Prop36
280
     0
102
RTVSPost2010PropOp36
 70
     1
102
RTVSPost2010Prop37
 90
       50
102
RTVSPost2010PropOp37
 70
     1
102
RTVSPost2010Prop38
140
0.0
102
RTVSPost2010PropOp38
 70
     1
102
RTVSPost2010Prop39
140
1.0
102
RTVSPost2010PropOp39
 70
     1
102
RTVSPost2010Prop40
 90
        0
102
RTVSPost2010PropOp40
 70
     1
102
RTVSPost2010Prop41ColorIndex
 90
       18
102
RTVSPost2010Prop41ColorRGB
 90
        0
102
RTVSPost2010PropOp41
 70
     1
102
RTVSPost2010Prop42
 90
       50
102
RTVSPost2010PropOp42
 70
     1
102
RTVSPost2010Prop43
 90
        3
102
RTVSPost2010PropOp43
 70
     1
102
RTVSPost2010Prop44ColorIndex
 90
        5
102
RTVSPost2010Prop44ColorRGB
 90
      255
102
RTVSPost2010PropOp44
 70
     1
102
RTVSPost2010Prop45
280
     0
102
RTVSPost2010PropOp45
 70
     1
102
RTVSPost2010Prop46
 90
       50
102
RTVSPost2010PropOp46
 70
     1
102
RTVSPost2010Prop47
 90
       50
102
RTVSPost2010PropOp47
 70
     1
102
RTVSPost2010Prop48
 90
       50
102
RTVSPost2010PropOp48
 70
     1
102
RTVSPost2010Prop49
280
     0
102
RTVSPost2010PropOp49
 70
     1
102
RTVSPost2010Prop50
 90
       50
102
RTVSPost2010PropOp50
 70
     1
102
RTVSPost2010Prop51ColorIndex
 90
      256
102
RTVSPost2010Prop51ColorRGB
 90
-16777216
102
RTVSPost2010PropOp51
 70
     0
102
RTVSPost2010Prop52
140
1.0
102
RTVSPost2010PropOp52
 70
     0
102
RTVSPost2010Prop53
 90
        2
102
RTVSPost2010PropOp53
 70
     1
102
RTVSPost2010Prop54
  1
strokes_ogs.tif
102
RTVSPost2010PropOp54
 70
     1
102
RTVSPost2010Prop55
280
     0
102
RTVSPost2010PropOp55
 70
     1
102
RTVSPost2010Prop56
140
1.0
102
RTVSPost2010PropOp56
 70
     1
102
RTVSPost2010Prop57
140
1.0
102
RTVSPost2010PropOp57
 70
     1
102
RTVSPropertyOp0
 70
     1
102
RTVSPropertyOp1
 70
     1
102
RTVSPropertyOp2
 70
     1
102
RTVSPropertyOp3
 70
     1
102
RTVSPropertyOp4
 70
     1
102
RTVSPropertyOp5
 70
     1
102
RTVSPropertyOp6
 70
     1
102
RTVSPropertyOp7
 70
     1
102
RTVSPropertyOp8
 70
     1
102
RTVSPropertyOp9
 70
     1
102
RTVSPropertyOp10
 70
     1
102
RTVSPropertyOp11
 70
     1
102
RTVSPropertyOp12
 70
     1
102
RTVSPropertyOp13
 70
     1
102
RTVSPropertyOp14
 70
     1
102
RTVSPropertyOp15
 70
     1
102
RTVSPropertyOp16
 70
     1
102
RTVSPropertyOp17
 70
     1
102
RTVSPropertyOp18
 70
     1
102
RTVSPropertyOp19
 70
     1
102
RTVSPropertyOp20
 70
     1
102
RTVSPropertyOp21
 70
     1
102
RTVSPropertyOp22
 70
     1
102
RTVSPropertyOp23
 70
     1
102
RTVSPropertyOp24
 70
     1
102
RTVSPropertyOp25
 70
     1
102
RTVSPropertyOp26
 70
     1
102
RTVSPropertyOp27
 70
     1
102
RTVSPropertyOp28
 70
     1
102
RTVSPropertyOp29
 70
     1
102
RTVSPropertyOp30
 70
     1
102
RTVSPropertyOp31
 70
     1
102
RTVSPropertyOp32
 70
     1
102
RTVSPropertyOp33
 70
     1
102
RTVSPropertyOp34
 70
     1
102
RTVSPropertyOp35
 70
     1
102
RTVSPropertyOp36
 70
     1
102
RTVSPropertyOp37
 70
     1
102
RTVSPropertyOp38
 70
     1
102
RTVSPropertyOp39
 70
     1
102
RTVSPropertyOp40
 70
     1
102
RTVSPropertyOp41
 70
     1
102
RTVSPropertyOp42
 70
     1
102
RTVSPropertyOp43
 70
     1
102
RTVSPropertyOp44
 70
     1
102
RTVSPropertyOp45
 70
     1
102
RTVSPropertyOp46
 70
     1
102
RTVSPropertyOp47
 70
     1
102
RTVSPropertyOp48
 70
     1
102
RTVSPropertyOp49
 70
     1
102
RTVSPropertyOp50
 70
     1
102
RTVSPropertyOp51
 70
     0
102
RTVSPropertyOp52
 70
     0
102
RTVSPropertyOp53
 70
     1
102
RTVSPropertyOp54
 70
     1
102
RTVSPropertyOp55
 70
     1
102
RTVSPropertyOp56
 70
     1
102
RTVSPropertyOp57
 70
     1
102
RTVSPropertyOp58
 70
     1
102
RTVSPropertyOp59
 70
     1
102
RTVSPropertyOp60
 70
     1
102
RTVSPropertyOp61
 70
     1
102
RTVSPropertyOp62
 70
     1
  0
XRECORD
  5
B2D8
102
{ACAD_REACTORS
330
B2D7
102
}
330
B2D7
100
AcDbXrecord
280
     1
102
RTVSPost2010Prop28
280
     0
102
RTVSPost2010PropOp28
 70
     1
102
RTVSPost2010Prop29
280
     1
102
RTVSPost2010PropOp29
 70
     1
102
RTVSPost2010Prop30
280
     1
102
RTVSPost2010PropOp30
 70
     1
102
RTVSPost2010Prop31
280
     0
102
RTVSPost2010PropOp31
 70
     1
102
RTVSPost2010Prop32
280
     0
102
RTVSPost2010PropOp32
 70
     1
102
RTVSPost2010Prop33
280
     0
102
RTVSPost2010PropOp33
 70
     1
102
RTVSPost2010Prop34
280
     0
102
RTVSPost2010PropOp34
 70
     1
102
RTVSPost2010Prop35
280
     0
102
RTVSPost2010PropOp35
 70
     1
102
RTVSPost2010Prop36
280
     0
102
RTVSPost2010PropOp36
 70
     1
102
RTVSPost2010Prop37
 90
       50
102
RTVSPost2010PropOp37
 70
     1
102
RTVSPost2010Prop38
140
0.0
102
RTVSPost2010PropOp38
 70
     1
102
RTVSPost2010Prop39
140
1.0
102
RTVSPost2010PropOp39
 70
     1
102
RTVSPost2010Prop40
 90
        0
102
RTVSPost2010PropOp40
 70
     1
102
RTVSPost2010Prop41ColorIndex
 90
       18
102
RTVSPost2010Prop41ColorRGB
 90
        0
102
RTVSPost2010PropOp41
 70
     1
102
RTVSPost2010Prop42
 90
       50
102
RTVSPost2010PropOp42
 70
     1
102
RTVSPost2010Prop43
 90
        3
102
RTVSPost2010PropOp43
 70
     1
102
RTVSPost2010Prop44ColorIndex
 90
        5
102
RTVSPost2010Prop44ColorRGB
 90
      255
102
RTVSPost2010PropOp44
 70
     1
102
RTVSPost2010Prop45
280
     0
102
RTVSPost2010PropOp45
 70
     1
102
RTVSPost2010Prop46
 90
       50
102
RTVSPost2010PropOp46
 70
     1
102
RTVSPost2010Prop47
 90
       50
102
RTVSPost2010PropOp47
 70
     1
102
RTVSPost2010Prop48
 90
       50
102
RTVSPost2010PropOp48
 70
     1
102
RTVSPost2010Prop49
280
     0
102
RTVSPost2010PropOp49
 70
     1
102
RTVSPost2010Prop50
 90
       50
102
RTVSPost2010PropOp50
 70
     1
102
RTVSPost2010Prop51ColorIndex
 90
      256
102
RTVSPost2010Prop51ColorRGB
 90
-16777216
102
RTVSPost2010PropOp51
 70
     0
102
RTVSPost2010Prop52
140
1.0
102
RTVSPost2010PropOp52
 70
     0
102
RTVSPost2010Prop53
 90
        2
102
RTVSPost2010PropOp53
 70
     1
102
RTVSPost2010Prop54
  1
strokes_ogs.tif
102
RTVSPost2010PropOp54
 70
     1
102
RTVSPost2010Prop55
280
     0
102
RTVSPost2010PropOp55
 70
     1
102
RTVSPost2010Prop56
140
1.0
102
RTVSPost2010PropOp56
 70
     1
102
RTVSPost2010Prop57
140
1.0
102
RTVSPost2010PropOp57
 70
     1
102
RTVSPropertyOp0
 70
     1
102
RTVSPropertyOp1
 70
     1
102
RTVSPropertyOp2
 70
     1
102
RTVSPropertyOp3
 70
     1
102
RTVSPropertyOp4
 70
     1
102
RTVSPropertyOp5
 70
     1
102
RTVSPropertyOp6
 70
     1
102
RTVSPropertyOp7
 70
     1
102
RTVSPropertyOp8
 70
     1
102
RTVSPropertyOp9
 70
     1
102
RTVSPropertyOp10
 70
     1
102
RTVSPropertyOp11
 70
     1
102
RTVSPropertyOp12
 70
     1
102
RTVSPropertyOp13
 70
     1
102
RTVSPropertyOp14
 70
     1
102
RTVSPropertyOp15
 70
     1
102
RTVSPropertyOp16
 70
     1
102
RTVSPropertyOp17
 70
     1
102
RTVSPropertyOp18
 70
     1
102
RTVSPropertyOp19
 70
     1
102
RTVSPropertyOp20
 70
     1
102
RTVSPropertyOp21
 70
     1
102
RTVSPropertyOp22
 70
     1
102
RTVSPropertyOp23
 70
     1
102
RTVSPropertyOp24
 70
     1
102
RTVSPropertyOp25
 70
     1
102
RTVSPropertyOp26
 70
     1
102
RTVSPropertyOp27
 70
     1
102
RTVSPropertyOp28
 70
     1
102
RTVSPropertyOp29
 70
     1
102
RTVSPropertyOp30
 70
     1
102
RTVSPropertyOp31
 70
     1
102
RTVSPropertyOp32
 70
     1
102
RTVSPropertyOp33
 70
     1
102
RTVSPropertyOp34
 70
     1
102
RTVSPropertyOp35
 70
     1
102
RTVSPropertyOp36
 70
     1
102
RTVSPropertyOp37
 70
     1
102
RTVSPropertyOp38
 70
     1
102
RTVSPropertyOp39
 70
     1
102
RTVSPropertyOp40
 70
     1
102
RTVSPropertyOp41
 70
     1
102
RTVSPropertyOp42
 70
     1
102
RTVSPropertyOp43
 70
     1
102
RTVSPropertyOp44
 70
     1
102
RTVSPropertyOp45
 70
     1
102
RTVSPropertyOp46
 70
     1
102
RTVSPropertyOp47
 70
     1
102
RTVSPropertyOp48
 70
     1
102
RTVSPropertyOp49
 70
     1
102
RTVSPropertyOp50
 70
     1
102
RTVSPropertyOp51
 70
     0
102
RTVSPropertyOp52
 70
     0
102
RTVSPropertyOp53
 70
     1
102
RTVSPropertyOp54
 70
     1
102
RTVSPropertyOp55
 70
     1
102
RTVSPropertyOp56
 70
     1
102
RTVSPropertyOp57
 70
     1
102
RTVSPropertyOp58
 70
     1
102
RTVSPropertyOp59
 70
     1
102
RTVSPropertyOp60
 70
     1
102
RTVSPropertyOp61
 70
     1
102
RTVSPropertyOp62
 70
     1
  0
XRECORD
  5
B2F4
102
{ACAD_REACTORS
330
B2F3
102
}
330
B2F3
100
AcDbXrecord
280
     1
102
RTVSPost2010Prop28
280
     0
102
RTVSPost2010PropOp28
 70
     1
102
RTVSPost2010Prop29
280
     1
102
RTVSPost2010PropOp29
 70
     1
102
RTVSPost2010Prop30
280
     1
102
RTVSPost2010PropOp30
 70
     1
102
RTVSPost2010Prop31
280
     0
102
RTVSPost2010PropOp31
 70
     1
102
RTVSPost2010Prop32
280
     0
102
RTVSPost2010PropOp32
 70
     1
102
RTVSPost2010Prop33
280
     0
102
RTVSPost2010PropOp33
 70
     1
102
RTVSPost2010Prop34
280
     0
102
RTVSPost2010PropOp34
 70
     1
102
RTVSPost2010Prop35
280
     0
102
RTVSPost2010PropOp35
 70
     1
102
RTVSPost2010Prop36
280
     0
102
RTVSPost2010PropOp36
 70
     1
102
RTVSPost2010Prop37
 90
       50
102
RTVSPost2010PropOp37
 70
     0
102
RTVSPost2010Prop38
140
0.0
102
RTVSPost2010PropOp38
 70
     0
102
RTVSPost2010Prop39
140
1.0
102
RTVSPost2010PropOp39
 70
     0
102
RTVSPost2010Prop40
 90
        0
102
RTVSPost2010PropOp40
 70
     0
102
RTVSPost2010Prop41ColorIndex
 90
       18
102
RTVSPost2010Prop41ColorRGB
 90
        0
102
RTVSPost2010PropOp41
 70
     0
102
RTVSPost2010Prop42
 90
       50
102
RTVSPost2010PropOp42
 70
     0
102
RTVSPost2010Prop43
 90
        3
102
RTVSPost2010PropOp43
 70
     0
102
RTVSPost2010Prop44ColorIndex
 90
        5
102
RTVSPost2010Prop44ColorRGB
 90
      255
102
RTVSPost2010PropOp44
 70
     0
102
RTVSPost2010Prop45
280
     0
102
RTVSPost2010PropOp45
 70
     1
102
RTVSPost2010Prop46
 90
       50
102
RTVSPost2010PropOp46
 70
     0
102
RTVSPost2010Prop47
 90
       50
102
RTVSPost2010PropOp47
 70
     0
102
RTVSPost2010Prop48
 90
       50
102
RTVSPost2010PropOp48
 70
     0
102
RTVSPost2010Prop49
280
     0
102
RTVSPost2010PropOp49
 70
     1
102
RTVSPost2010Prop50
 90
       50
102
RTVSPost2010PropOp50
 70
     0
102
RTVSPost2010Prop51ColorIndex
 90
      256
102
RTVSPost2010Prop51ColorRGB
 90
-16777216
102
RTVSPost2010PropOp51
 70
     0
102
RTVSPost2010Prop52
140
1.0
102
RTVSPost2010PropOp52
 70
     0
102
RTVSPost2010Prop53
 90
        2
102
RTVSPost2010PropOp53
 70
     0
102
RTVSPost2010Prop54
  1
strokes_ogs.tif
102
RTVSPost2010PropOp54
 70
     0
102
RTVSPost2010Prop55
280
     0
102
RTVSPost2010PropOp55
 70
     1
102
RTVSPost2010Prop56
140
1.0
102
RTVSPost2010PropOp56
 70
     0
102
RTVSPost2010Prop57
140
1.0
102
RTVSPost2010PropOp57
 70
     0
102
RTVSPropertyOp0
 70
     0
102
RTVSPropertyOp1
 70
     0
102
RTVSPropertyOp2
 70
     0
102
RTVSPropertyOp3
 70
     0
102
RTVSPropertyOp4
 70
     0
102
RTVSPropertyOp5
 70
     0
102
RTVSPropertyOp6
 70
     0
102
RTVSPropertyOp7
 70
     0
102
RTVSPropertyOp8
 70
     0
102
RTVSPropertyOp9
 70
     0
102
RTVSPropertyOp10
 70
     0
102
RTVSPropertyOp11
 70
     0
102
RTVSPropertyOp12
 70
     0
102
RTVSPropertyOp13
 70
     0
102
RTVSPropertyOp14
 70
     2
102
RTVSPropertyOp15
 70
     0
102
RTVSPropertyOp16
 70
     0
102
RTVSPropertyOp17
 70
     0
102
RTVSPropertyOp18
 70
     0
102
RTVSPropertyOp19
 70
     0
102
RTVSPropertyOp20
 70
     0
102
RTVSPropertyOp21
 70
     0
102
RTVSPropertyOp22
 70
     0
102
RTVSPropertyOp23
 70
     0
102
RTVSPropertyOp24
 70
     0
102
RTVSPropertyOp25
 70
     0
102
RTVSPropertyOp26
 70
     0
102
RTVSPropertyOp27
 70
     0
102
RTVSPropertyOp28
 70
     1
102
RTVSPropertyOp29
 70
     1
102
RTVSPropertyOp30
 70
     1
102
RTVSPropertyOp31
 70
     1
102
RTVSPropertyOp32
 70
     1
102
RTVSPropertyOp33
 70
     1
102
RTVSPropertyOp34
 70
     1
102
RTVSPropertyOp35
 70
     1
102
RTVSPropertyOp36
 70
     1
102
RTVSPropertyOp37
 70
     0
102
RTVSPropertyOp38
 70
     0
102
RTVSPropertyOp39
 70
     0
102
RTVSPropertyOp40
 70
     0
102
RTVSPropertyOp41
 70
     0
102
RTVSPropertyOp42
 70
     0
102
RTVSPropertyOp43
 70
     0
102
RTVSPropertyOp44
 70
     0
102
RTVSPropertyOp45
 70
     1
102
RTVSPropertyOp46
 70
     0
102
RTVSPropertyOp47
 70
     0
102
RTVSPropertyOp48
 70
     0
102
RTVSPropertyOp49
 70
     1
102
RTVSPropertyOp50
 70
     0
102
RTVSPropertyOp51
 70
     0
102
RTVSPropertyOp52
 70
     0
102
RTVSPropertyOp53
 70
     0
102
RTVSPropertyOp54
 70
     0
102
RTVSPropertyOp55
 70
     1
102
RTVSPropertyOp56
 70
     0
102
RTVSPropertyOp57
 70
     0
102
RTVSPropertyOp58
 70
     0
102
RTVSPropertyOp59
 70
     0
102
RTVSPropertyOp60
 70
     0
102
RTVSPropertyOp61
 70
     0
102
RTVSPropertyOp62
 70
     0
  0
XRECORD
  5
B2E4
102
{ACAD_REACTORS
330
B2E3
102
}
330
B2E3
100
AcDbXrecord
280
     1
102
RTVSPost2010Prop28
280
     0
102
RTVSPost2010PropOp28
 70
     1
102
RTVSPost2010Prop29
280
     1
102
RTVSPost2010PropOp29
 70
     1
102
RTVSPost2010Prop30
280
     1
102
RTVSPost2010PropOp30
 70
     1
102
RTVSPost2010Prop31
280
     0
102
RTVSPost2010PropOp31
 70
     1
102
RTVSPost2010Prop32
280
     0
102
RTVSPost2010PropOp32
 70
     1
102
RTVSPost2010Prop33
280
     0
102
RTVSPost2010PropOp33
 70
     1
102
RTVSPost2010Prop34
280
     0
102
RTVSPost2010PropOp34
 70
     1
102
RTVSPost2010Prop35
280
     0
102
RTVSPost2010PropOp35
 70
     1
102
RTVSPost2010Prop36
280
     0
102
RTVSPost2010PropOp36
 70
     1
102
RTVSPost2010Prop37
 90
       50
102
RTVSPost2010PropOp37
 70
     1
102
RTVSPost2010Prop38
140
0.0
102
RTVSPost2010PropOp38
 70
     1
102
RTVSPost2010Prop39
140
1.0
102
RTVSPost2010PropOp39
 70
     1
102
RTVSPost2010Prop40
 90
        0
102
RTVSPost2010PropOp40
 70
     1
102
RTVSPost2010Prop41ColorIndex
 90
       18
102
RTVSPost2010Prop41ColorRGB
 90
        0
102
RTVSPost2010PropOp41
 70
     1
102
RTVSPost2010Prop42
 90
       50
102
RTVSPost2010PropOp42
 70
     1
102
RTVSPost2010Prop43
 90
        3
102
RTVSPost2010PropOp43
 70
     1
102
RTVSPost2010Prop44ColorIndex
 90
        5
102
RTVSPost2010Prop44ColorRGB
 90
      255
102
RTVSPost2010PropOp44
 70
     1
102
RTVSPost2010Prop45
280
     0
102
RTVSPost2010PropOp45
 70
     1
102
RTVSPost2010Prop46
 90
       50
102
RTVSPost2010PropOp46
 70
     1
102
RTVSPost2010Prop47
 90
       50
102
RTVSPost2010PropOp47
 70
     1
102
RTVSPost2010Prop48
 90
       50
102
RTVSPost2010PropOp48
 70
     1
102
RTVSPost2010Prop49
280
     0
102
RTVSPost2010PropOp49
 70
     1
102
RTVSPost2010Prop50
 90
       50
102
RTVSPost2010PropOp50
 70
     1
102
RTVSPost2010Prop51ColorIndex
 90
      256
102
RTVSPost2010Prop51ColorRGB
 90
-16777216
102
RTVSPost2010PropOp51
 70
     0
102
RTVSPost2010Prop52
140
1.0
102
RTVSPost2010PropOp52
 70
     0
102
RTVSPost2010Prop53
 90
        2
102
RTVSPost2010PropOp53
 70
     1
102
RTVSPost2010Prop54
  1
strokes_ogs.tif
102
RTVSPost2010PropOp54
 70
     1
102
RTVSPost2010Prop55
280
     0
102
RTVSPost2010PropOp55
 70
     1
102
RTVSPost2010Prop56
140
1.0
102
RTVSPost2010PropOp56
 70
     1
102
RTVSPost2010Prop57
140
1.0
102
RTVSPost2010PropOp57
 70
     1
102
RTVSPropertyOp0
 70
     1
102
RTVSPropertyOp1
 70
     1
102
RTVSPropertyOp2
 70
     1
102
RTVSPropertyOp3
 70
     1
102
RTVSPropertyOp4
 70
     1
102
RTVSPropertyOp5
 70
     1
102
RTVSPropertyOp6
 70
     1
102
RTVSPropertyOp7
 70
     1
102
RTVSPropertyOp8
 70
     1
102
RTVSPropertyOp9
 70
     1
102
RTVSPropertyOp10
 70
     1
102
RTVSPropertyOp11
 70
     1
102
RTVSPropertyOp12
 70
     1
102
RTVSPropertyOp13
 70
     1
102
RTVSPropertyOp14
 70
     1
102
RTVSPropertyOp15
 70
     1
102
RTVSPropertyOp16
 70
     1
102
RTVSPropertyOp17
 70
     1
102
RTVSPropertyOp18
 70
     1
102
RTVSPropertyOp19
 70
     1
102
RTVSPropertyOp20
 70
     1
102
RTVSPropertyOp21
 70
     1
102
RTVSPropertyOp22
 70
     1
102
RTVSPropertyOp23
 70
     1
102
RTVSPropertyOp24
 70
     1
102
RTVSPropertyOp25
 70
     1
102
RTVSPropertyOp26
 70
     1
102
RTVSPropertyOp27
 70
     1
102
RTVSPropertyOp28
 70
     1
102
RTVSPropertyOp29
 70
     1
102
RTVSPropertyOp30
 70
     1
102
RTVSPropertyOp31
 70
     1
102
RTVSPropertyOp32
 70
     1
102
RTVSPropertyOp33
 70
     1
102
RTVSPropertyOp34
 70
     1
102
RTVSPropertyOp35
 70
     1
102
RTVSPropertyOp36
 70
     1
102
RTVSPropertyOp37
 70
     1
102
RTVSPropertyOp38
 70
     1
102
RTVSPropertyOp39
 70
     1
102
RTVSPropertyOp40
 70
     1
102
RTVSPropertyOp41
 70
     1
102
RTVSPropertyOp42
 70
     1
102
RTVSPropertyOp43
 70
     1
102
RTVSPropertyOp44
 70
     1
102
RTVSPropertyOp45
 70
     1
102
RTVSPropertyOp46
 70
     1
102
RTVSPropertyOp47
 70
     1
102
RTVSPropertyOp48
 70
     1
102
RTVSPropertyOp49
 70
     1
102
RTVSPropertyOp50
 70
     1
102
RTVSPropertyOp51
 70
     0
102
RTVSPropertyOp52
 70
     0
102
RTVSPropertyOp53
 70
     1
102
RTVSPropertyOp54
 70
     1
102
RTVSPropertyOp55
 70
     1
102
RTVSPropertyOp56
 70
     1
102
RTVSPropertyOp57
 70
     1
102
RTVSPropertyOp58
 70
     1
102
RTVSPropertyOp59
 70
     1
102
RTVSPropertyOp60
 70
     1
102
RTVSPropertyOp61
 70
     1
102
RTVSPropertyOp62
 70
     1
  0
XRECORD
  5
B2F6
102
{ACAD_REACTORS
330
B2F5
102
}
330
B2F5
100
AcDbXrecord
280
     1
102
RTVSPost2010Prop28
280
     0
102
RTVSPost2010PropOp28
 70
     1
102
RTVSPost2010Prop29
280
     1
102
RTVSPost2010PropOp29
 70
     1
102
RTVSPost2010Prop30
280
     1
102
RTVSPost2010PropOp30
 70
     1
102
RTVSPost2010Prop31
280
     0
102
RTVSPost2010PropOp31
 70
     1
102
RTVSPost2010Prop32
280
     0
102
RTVSPost2010PropOp32
 70
     1
102
RTVSPost2010Prop33
280
     0
102
RTVSPost2010PropOp33
 70
     1
102
RTVSPost2010Prop34
280
     0
102
RTVSPost2010PropOp34
 70
     1
102
RTVSPost2010Prop35
280
     0
102
RTVSPost2010PropOp35
 70
     1
102
RTVSPost2010Prop36
280
     0
102
RTVSPost2010PropOp36
 70
     1
102
RTVSPost2010Prop37
 90
       50
102
RTVSPost2010PropOp37
 70
     0
102
RTVSPost2010Prop38
140
0.0
102
RTVSPost2010PropOp38
 70
     0
102
RTVSPost2010Prop39
140
1.0
102
RTVSPost2010PropOp39
 70
     0
102
RTVSPost2010Prop40
 90
        0
102
RTVSPost2010PropOp40
 70
     0
102
RTVSPost2010Prop41ColorIndex
 90
       18
102
RTVSPost2010Prop41ColorRGB
 90
        0
102
RTVSPost2010PropOp41
 70
     0
102
RTVSPost2010Prop42
 90
       50
102
RTVSPost2010PropOp42
 70
     0
102
RTVSPost2010Prop43
 90
        3
102
RTVSPost2010PropOp43
 70
     0
102
RTVSPost2010Prop44ColorIndex
 90
        5
102
RTVSPost2010Prop44ColorRGB
 90
      255
102
RTVSPost2010PropOp44
 70
     0
102
RTVSPost2010Prop45
280
     0
102
RTVSPost2010PropOp45
 70
     1
102
RTVSPost2010Prop46
 90
       50
102
RTVSPost2010PropOp46
 70
     0
102
RTVSPost2010Prop47
 90
       50
102
RTVSPost2010PropOp47
 70
     0
102
RTVSPost2010Prop48
 90
       50
102
RTVSPost2010PropOp48
 70
     0
102
RTVSPost2010Prop49
280
     0
102
RTVSPost2010PropOp49
 70
     1
102
RTVSPost2010Prop50
 90
       50
102
RTVSPost2010PropOp50
 70
     0
102
RTVSPost2010Prop51ColorIndex
 90
      256
102
RTVSPost2010Prop51ColorRGB
 90
-16777216
102
RTVSPost2010PropOp51
 70
     0
102
RTVSPost2010Prop52
140
1.0
102
RTVSPost2010PropOp52
 70
     0
102
RTVSPost2010Prop53
 90
        2
102
RTVSPost2010PropOp53
 70
     0
102
RTVSPost2010Prop54
  1
strokes_ogs.tif
102
RTVSPost2010PropOp54
 70
     0
102
RTVSPost2010Prop55
280
     0
102
RTVSPost2010PropOp55
 70
     1
102
RTVSPost2010Prop56
140
1.0
102
RTVSPost2010PropOp56
 70
     0
102
RTVSPost2010Prop57
140
1.0
102
RTVSPost2010PropOp57
 70
     0
102
RTVSPropertyOp0
 70
     0
102
RTVSPropertyOp1
 70
     0
102
RTVSPropertyOp2
 70
     0
102
RTVSPropertyOp3
 70
     0
102
RTVSPropertyOp4
 70
     0
102
RTVSPropertyOp5
 70
     0
102
RTVSPropertyOp6
 70
     0
102
RTVSPropertyOp7
 70
     0
102
RTVSPropertyOp8
 70
     0
102
RTVSPropertyOp9
 70
     0
102
RTVSPropertyOp10
 70
     0
102
RTVSPropertyOp11
 70
     0
102
RTVSPropertyOp12
 70
     0
102
RTVSPropertyOp13
 70
     0
102
RTVSPropertyOp14
 70
     2
102
RTVSPropertyOp15
 70
     0
102
RTVSPropertyOp16
 70
     0
102
RTVSPropertyOp17
 70
     0
102
RTVSPropertyOp18
 70
     0
102
RTVSPropertyOp19
 70
     0
102
RTVSPropertyOp20
 70
     0
102
RTVSPropertyOp21
 70
     0
102
RTVSPropertyOp22
 70
     0
102
RTVSPropertyOp23
 70
     0
102
RTVSPropertyOp24
 70
     0
102
RTVSPropertyOp25
 70
     0
102
RTVSPropertyOp26
 70
     0
102
RTVSPropertyOp27
 70
     0
102
RTVSPropertyOp28
 70
     1
102
RTVSPropertyOp29
 70
     1
102
RTVSPropertyOp30
 70
     1
102
RTVSPropertyOp31
 70
     1
102
RTVSPropertyOp32
 70
     1
102
RTVSPropertyOp33
 70
     1
102
RTVSPropertyOp34
 70
     1
102
RTVSPropertyOp35
 70
     1
102
RTVSPropertyOp36
 70
     1
102
RTVSPropertyOp37
 70
     0
102
RTVSPropertyOp38
 70
     0
102
RTVSPropertyOp39
 70
     0
102
RTVSPropertyOp40
 70
     0
102
RTVSPropertyOp41
 70
     0
102
RTVSPropertyOp42
 70
     0
102
RTVSPropertyOp43
 70
     0
102
RTVSPropertyOp44
 70
     0
102
RTVSPropertyOp45
 70
     1
102
RTVSPropertyOp46
 70
     0
102
RTVSPropertyOp47
 70
     0
102
RTVSPropertyOp48
 70
     0
102
RTVSPropertyOp49
 70
     1
102
RTVSPropertyOp50
 70
     0
102
RTVSPropertyOp51
 70
     0
102
RTVSPropertyOp52
 70
     0
102
RTVSPropertyOp53
 70
     0
102
RTVSPropertyOp54
 70
     0
102
RTVSPropertyOp55
 70
     1
102
RTVSPropertyOp56
 70
     0
102
RTVSPropertyOp57
 70
     0
102
RTVSPropertyOp58
 70
     0
102
RTVSPropertyOp59
 70
     0
102
RTVSPropertyOp60
 70
     0
102
RTVSPropertyOp61
 70
     0
102
RTVSPropertyOp62
 70
     0
  0
XRECORD
  5
B2DC
102
{ACAD_REACTORS
330
B2DB
102
}
330
B2DB
100
AcDbXrecord
280
     1
102
RTVSPost2010Prop28
280
     0
102
RTVSPost2010PropOp28
 70
     1
102
RTVSPost2010Prop29
280
     1
102
RTVSPost2010PropOp29
 70
     1
102
RTVSPost2010Prop30
280
     1
102
RTVSPost2010PropOp30
 70
     1
102
RTVSPost2010Prop31
280
     0
102
RTVSPost2010PropOp31
 70
     1
102
RTVSPost2010Prop32
280
     0
102
RTVSPost2010PropOp32
 70
     1
102
RTVSPost2010Prop33
280
     0
102
RTVSPost2010PropOp33
 70
     1
102
RTVSPost2010Prop34
280
     0
102
RTVSPost2010PropOp34
 70
     1
102
RTVSPost2010Prop35
280
     0
102
RTVSPost2010PropOp35
 70
     1
102
RTVSPost2010Prop36
280
     0
102
RTVSPost2010PropOp36
 70
     1
102
RTVSPost2010Prop37
 90
       50
102
RTVSPost2010PropOp37
 70
     1
102
RTVSPost2010Prop38
140
0.0
102
RTVSPost2010PropOp38
 70
     1
102
RTVSPost2010Prop39
140
1.0
102
RTVSPost2010PropOp39
 70
     1
102
RTVSPost2010Prop40
 90
        0
102
RTVSPost2010PropOp40
 70
     1
102
RTVSPost2010Prop41ColorIndex
 90
       18
102
RTVSPost2010Prop41ColorRGB
 90
        0
102
RTVSPost2010PropOp41
 70
     1
102
RTVSPost2010Prop42
 90
       50
102
RTVSPost2010PropOp42
 70
     1
102
RTVSPost2010Prop43
 90
        3
102
RTVSPost2010PropOp43
 70
     1
102
RTVSPost2010Prop44ColorIndex
 90
        5
102
RTVSPost2010Prop44ColorRGB
 90
      255
102
RTVSPost2010PropOp44
 70
     1
102
RTVSPost2010Prop45
280
     0
102
RTVSPost2010PropOp45
 70
     1
102
RTVSPost2010Prop46
 90
       50
102
RTVSPost2010PropOp46
 70
     1
102
RTVSPost2010Prop47
 90
       50
102
RTVSPost2010PropOp47
 70
     1
102
RTVSPost2010Prop48
 90
       50
102
RTVSPost2010PropOp48
 70
     1
102
RTVSPost2010Prop49
280
     0
102
RTVSPost2010PropOp49
 70
     1
102
RTVSPost2010Prop50
 90
       50
102
RTVSPost2010PropOp50
 70
     1
102
RTVSPost2010Prop51ColorIndex
 90
      256
102
RTVSPost2010Prop51ColorRGB
 90
-16777216
102
RTVSPost2010PropOp51
 70
     0
102
RTVSPost2010Prop52
140
1.0
102
RTVSPost2010PropOp52
 70
     0
102
RTVSPost2010Prop53
 90
        2
102
RTVSPost2010PropOp53
 70
     1
102
RTVSPost2010Prop54
  1
strokes_ogs.tif
102
RTVSPost2010PropOp54
 70
     1
102
RTVSPost2010Prop55
280
     0
102
RTVSPost2010PropOp55
 70
     1
102
RTVSPost2010Prop56
140
1.0
102
RTVSPost2010PropOp56
 70
     1
102
RTVSPost2010Prop57
140
1.0
102
RTVSPost2010PropOp57
 70
     1
102
RTVSPropertyOp0
 70
     1
102
RTVSPropertyOp1
 70
     1
102
RTVSPropertyOp2
 70
     1
102
RTVSPropertyOp3
 70
     1
102
RTVSPropertyOp4
 70
     1
102
RTVSPropertyOp5
 70
     1
102
RTVSPropertyOp6
 70
     1
102
RTVSPropertyOp7
 70
     1
102
RTVSPropertyOp8
 70
     1
102
RTVSPropertyOp9
 70
     1
102
RTVSPropertyOp10
 70
     1
102
RTVSPropertyOp11
 70
     1
102
RTVSPropertyOp12
 70
     1
102
RTVSPropertyOp13
 70
     1
102
RTVSPropertyOp14
 70
     1
102
RTVSPropertyOp15
 70
     1
102
RTVSPropertyOp16
 70
     1
102
RTVSPropertyOp17
 70
     1
102
RTVSPropertyOp18
 70
     1
102
RTVSPropertyOp19
 70
     1
102
RTVSPropertyOp20
 70
     1
102
RTVSPropertyOp21
 70
     1
102
RTVSPropertyOp22
 70
     1
102
RTVSPropertyOp23
 70
     1
102
RTVSPropertyOp24
 70
     1
102
RTVSPropertyOp25
 70
     1
102
RTVSPropertyOp26
 70
     1
102
RTVSPropertyOp27
 70
     1
102
RTVSPropertyOp28
 70
     1
102
RTVSPropertyOp29
 70
     1
102
RTVSPropertyOp30
 70
     1
102
RTVSPropertyOp31
 70
     1
102
RTVSPropertyOp32
 70
     1
102
RTVSPropertyOp33
 70
     1
102
RTVSPropertyOp34
 70
     1
102
RTVSPropertyOp35
 70
     1
102
RTVSPropertyOp36
 70
     1
102
RTVSPropertyOp37
 70
     1
102
RTVSPropertyOp38
 70
     1
102
RTVSPropertyOp39
 70
     1
102
RTVSPropertyOp40
 70
     1
102
RTVSPropertyOp41
 70
     1
102
RTVSPropertyOp42
 70
     1
102
RTVSPropertyOp43
 70
     1
102
RTVSPropertyOp44
 70
     1
102
RTVSPropertyOp45
 70
     1
102
RTVSPropertyOp46
 70
     1
102
RTVSPropertyOp47
 70
     1
102
RTVSPropertyOp48
 70
     1
102
RTVSPropertyOp49
 70
     1
102
RTVSPropertyOp50
 70
     1
102
RTVSPropertyOp51
 70
     0
102
RTVSPropertyOp52
 70
     0
102
RTVSPropertyOp53
 70
     1
102
RTVSPropertyOp54
 70
     1
102
RTVSPropertyOp55
 70
     1
102
RTVSPropertyOp56
 70
     1
102
RTVSPropertyOp57
 70
     1
102
RTVSPropertyOp58
 70
     1
102
RTVSPropertyOp59
 70
     1
102
RTVSPropertyOp60
 70
     1
102
RTVSPropertyOp61
 70
     1
102
RTVSPropertyOp62
 70
     1
  0
XRECORD
  5
B2F2
102
{ACAD_REACTORS
330
B2F1
102
}
330
B2F1
100
AcDbXrecord
280
     1
102
RTVSPost2010Prop28
280
     0
102
RTVSPost2010PropOp28
 70
     1
102
RTVSPost2010Prop29
280
     1
102
RTVSPost2010PropOp29
 70
     1
102
RTVSPost2010Prop30
280
     1
102
RTVSPost2010PropOp30
 70
     1
102
RTVSPost2010Prop31
280
     0
102
RTVSPost2010PropOp31
 70
     1
102
RTVSPost2010Prop32
280
     0
102
RTVSPost2010PropOp32
 70
     1
102
RTVSPost2010Prop33
280
     0
102
RTVSPost2010PropOp33
 70
     1
102
RTVSPost2010Prop34
280
     0
102
RTVSPost2010PropOp34
 70
     1
102
RTVSPost2010Prop35
280
     0
102
RTVSPost2010PropOp35
 70
     1
102
RTVSPost2010Prop36
280
     0
102
RTVSPost2010PropOp36
 70
     1
102
RTVSPost2010Prop37
 90
       50
102
RTVSPost2010PropOp37
 70
     1
102
RTVSPost2010Prop38
140
0.0
102
RTVSPost2010PropOp38
 70
     1
102
RTVSPost2010Prop39
140
1.0
102
RTVSPost2010PropOp39
 70
     1
102
RTVSPost2010Prop40
 90
        0
102
RTVSPost2010PropOp40
 70
     1
102
RTVSPost2010Prop41ColorIndex
 90
       18
102
RTVSPost2010Prop41ColorRGB
 90
        0
102
RTVSPost2010PropOp41
 70
     1
102
RTVSPost2010Prop42
 90
       50
102
RTVSPost2010PropOp42
 70
     1
102
RTVSPost2010Prop43
 90
        3
102
RTVSPost2010PropOp43
 70
     1
102
RTVSPost2010Prop44ColorIndex
 90
        5
102
RTVSPost2010Prop44ColorRGB
 90
      255
102
RTVSPost2010PropOp44
 70
     1
102
RTVSPost2010Prop45
280
     0
102
RTVSPost2010PropOp45
 70
     1
102
RTVSPost2010Prop46
 90
       50
102
RTVSPost2010PropOp46
 70
     1
102
RTVSPost2010Prop47
 90
       50
102
RTVSPost2010PropOp47
 70
     1
102
RTVSPost2010Prop48
 90
       50
102
RTVSPost2010PropOp48
 70
     1
102
RTVSPost2010Prop49
280
     0
102
RTVSPost2010PropOp49
 70
     1
102
RTVSPost2010Prop50
 90
       50
102
RTVSPost2010PropOp50
 70
     1
102
RTVSPost2010Prop51ColorIndex
 90
      256
102
RTVSPost2010Prop51ColorRGB
 90
-16777216
102
RTVSPost2010PropOp51
 70
     0
102
RTVSPost2010Prop52
140
1.0
102
RTVSPost2010PropOp52
 70
     0
102
RTVSPost2010Prop53
 90
        2
102
RTVSPost2010PropOp53
 70
     1
102
RTVSPost2010Prop54
  1
strokes_ogs.tif
102
RTVSPost2010PropOp54
 70
     1
102
RTVSPost2010Prop55
280
     0
102
RTVSPost2010PropOp55
 70
     1
102
RTVSPost2010Prop56
140
1.0
102
RTVSPost2010PropOp56
 70
     1
102
RTVSPost2010Prop57
140
1.0
102
RTVSPost2010PropOp57
 70
     1
102
RTVSPropertyOp0
 70
     1
102
RTVSPropertyOp1
 70
     1
102
RTVSPropertyOp2
 70
     1
102
RTVSPropertyOp3
 70
     1
102
RTVSPropertyOp4
 70
     1
102
RTVSPropertyOp5
 70
     1
102
RTVSPropertyOp6
 70
     1
102
RTVSPropertyOp7
 70
     1
102
RTVSPropertyOp8
 70
     1
102
RTVSPropertyOp9
 70
     1
102
RTVSPropertyOp10
 70
     1
102
RTVSPropertyOp11
 70
     1
102
RTVSPropertyOp12
 70
     1
102
RTVSPropertyOp13
 70
     1
102
RTVSPropertyOp14
 70
     1
102
RTVSPropertyOp15
 70
     1
102
RTVSPropertyOp16
 70
     1
102
RTVSPropertyOp17
 70
     1
102
RTVSPropertyOp18
 70
     1
102
RTVSPropertyOp19
 70
     1
102
RTVSPropertyOp20
 70
     1
102
RTVSPropertyOp21
 70
     1
102
RTVSPropertyOp22
 70
     1
102
RTVSPropertyOp23
 70
     1
102
RTVSPropertyOp24
 70
     1
102
RTVSPropertyOp25
 70
     1
102
RTVSPropertyOp26
 70
     1
102
RTVSPropertyOp27
 70
     1
102
RTVSPropertyOp28
 70
     1
102
RTVSPropertyOp29
 70
     1
102
RTVSPropertyOp30
 70
     1
102
RTVSPropertyOp31
 70
     1
102
RTVSPropertyOp32
 70
     1
102
RTVSPropertyOp33
 70
     1
102
RTVSPropertyOp34
 70
     1
102
RTVSPropertyOp35
 70
     1
102
RTVSPropertyOp36
 70
     1
102
RTVSPropertyOp37
 70
     1
102
RTVSPropertyOp38
 70
     1
102
RTVSPropertyOp39
 70
     1
102
RTVSPropertyOp40
 70
     1
102
RTVSPropertyOp41
 70
     1
102
RTVSPropertyOp42
 70
     1
102
RTVSPropertyOp43
 70
     1
102
RTVSPropertyOp44
 70
     1
102
RTVSPropertyOp45
 70
     1
102
RTVSPropertyOp46
 70
     1
102
RTVSPropertyOp47
 70
     1
102
RTVSPropertyOp48
 70
     1
102
RTVSPropertyOp49
 70
     1
102
RTVSPropertyOp50
 70
     1
102
RTVSPropertyOp51
 70
     0
102
RTVSPropertyOp52
 70
     0
102
RTVSPropertyOp53
 70
     1
102
RTVSPropertyOp54
 70
     1
102
RTVSPropertyOp55
 70
     1
102
RTVSPropertyOp56
 70
     1
102
RTVSPropertyOp57
 70
     1
102
RTVSPropertyOp58
 70
     1
102
RTVSPropertyOp59
 70
     1
102
RTVSPropertyOp60
 70
     1
102
RTVSPropertyOp61
 70
     1
102
RTVSPropertyOp62
 70
     1
  0
XRECORD
  5
B2F0
102
{ACAD_REACTORS
330
B2EF
102
}
330
B2EF
100
AcDbXrecord
280
     1
102
RTVSPost2010Prop28
280
     0
102
RTVSPost2010PropOp28
 70
     1
102
RTVSPost2010Prop29
280
     1
102
RTVSPost2010PropOp29
 70
     1
102
RTVSPost2010Prop30
280
     1
102
RTVSPost2010PropOp30
 70
     1
102
RTVSPost2010Prop31
280
     0
102
RTVSPost2010PropOp31
 70
     1
102
RTVSPost2010Prop32
280
     0
102
RTVSPost2010PropOp32
 70
     1
102
RTVSPost2010Prop33
280
     0
102
RTVSPost2010PropOp33
 70
     1
102
RTVSPost2010Prop34
280
     0
102
RTVSPost2010PropOp34
 70
     1
102
RTVSPost2010Prop35
280
     0
102
RTVSPost2010PropOp35
 70
     1
102
RTVSPost2010Prop36
280
     0
102
RTVSPost2010PropOp36
 70
     1
102
RTVSPost2010Prop37
 90
       50
102
RTVSPost2010PropOp37
 70
     1
102
RTVSPost2010Prop38
140
0.0
102
RTVSPost2010PropOp38
 70
     1
102
RTVSPost2010Prop39
140
1.0
102
RTVSPost2010PropOp39
 70
     1
102
RTVSPost2010Prop40
 90
        0
102
RTVSPost2010PropOp40
 70
     1
102
RTVSPost2010Prop41ColorIndex
 90
       18
102
RTVSPost2010Prop41ColorRGB
 90
        0
102
RTVSPost2010PropOp41
 70
     1
102
RTVSPost2010Prop42
 90
       50
102
RTVSPost2010PropOp42
 70
     1
102
RTVSPost2010Prop43
 90
        3
102
RTVSPost2010PropOp43
 70
     1
102
RTVSPost2010Prop44ColorIndex
 90
        5
102
RTVSPost2010Prop44ColorRGB
 90
      255
102
RTVSPost2010PropOp44
 70
     1
102
RTVSPost2010Prop45
280
     0
102
RTVSPost2010PropOp45
 70
     1
102
RTVSPost2010Prop46
 90
       50
102
RTVSPost2010PropOp46
 70
     1
102
RTVSPost2010Prop47
 90
       50
102
RTVSPost2010PropOp47
 70
     1
102
RTVSPost2010Prop48
 90
       50
102
RTVSPost2010PropOp48
 70
     1
102
RTVSPost2010Prop49
280
     0
102
RTVSPost2010PropOp49
 70
     1
102
RTVSPost2010Prop50
 90
       50
102
RTVSPost2010PropOp50
 70
     1
102
RTVSPost2010Prop51ColorIndex
 90
      256
102
RTVSPost2010Prop51ColorRGB
 90
-16777216
102
RTVSPost2010PropOp51
 70
     0
102
RTVSPost2010Prop52
140
1.0
102
RTVSPost2010PropOp52
 70
     0
102
RTVSPost2010Prop53
 90
        2
102
RTVSPost2010PropOp53
 70
     1
102
RTVSPost2010Prop54
  1
strokes_ogs.tif
102
RTVSPost2010PropOp54
 70
     1
102
RTVSPost2010Prop55
280
     0
102
RTVSPost2010PropOp55
 70
     1
102
RTVSPost2010Prop56
140
1.0
102
RTVSPost2010PropOp56
 70
     1
102
RTVSPost2010Prop57
140
1.0
102
RTVSPost2010PropOp57
 70
     1
102
RTVSPropertyOp0
 70
     1
102
RTVSPropertyOp1
 70
     1
102
RTVSPropertyOp2
 70
     1
102
RTVSPropertyOp3
 70
     1
102
RTVSPropertyOp4
 70
     1
102
RTVSPropertyOp5
 70
     1
102
RTVSPropertyOp6
 70
     1
102
RTVSPropertyOp7
 70
     1
102
RTVSPropertyOp8
 70
     1
102
RTVSPropertyOp9
 70
     1
102
RTVSPropertyOp10
 70
     1
102
RTVSPropertyOp11
 70
     1
102
RTVSPropertyOp12
 70
     1
102
RTVSPropertyOp13
 70
     1
102
RTVSPropertyOp14
 70
     1
102
RTVSPropertyOp15
 70
     1
102
RTVSPropertyOp16
 70
     1
102
RTVSPropertyOp17
 70
     1
102
RTVSPropertyOp18
 70
     1
102
RTVSPropertyOp19
 70
     1
102
RTVSPropertyOp20
 70
     1
102
RTVSPropertyOp21
 70
     1
102
RTVSPropertyOp22
 70
     1
102
RTVSPropertyOp23
 70
     1
102
RTVSPropertyOp24
 70
     1
102
RTVSPropertyOp25
 70
     1
102
RTVSPropertyOp26
 70
     1
102
RTVSPropertyOp27
 70
     1
102
RTVSPropertyOp28
 70
     1
102
RTVSPropertyOp29
 70
     1
102
RTVSPropertyOp30
 70
     1
102
RTVSPropertyOp31
 70
     1
102
RTVSPropertyOp32
 70
     1
102
RTVSPropertyOp33
 70
     1
102
RTVSPropertyOp34
 70
     1
102
RTVSPropertyOp35
 70
     1
102
RTVSPropertyOp36
 70
     1
102
RTVSPropertyOp37
 70
     1
102
RTVSPropertyOp38
 70
     1
102
RTVSPropertyOp39
 70
     1
102
RTVSPropertyOp40
 70
     1
102
RTVSPropertyOp41
 70
     1
102
RTVSPropertyOp42
 70
     1
102
RTVSPropertyOp43
 70
     1
102
RTVSPropertyOp44
 70
     1
102
RTVSPropertyOp45
 70
     1
102
RTVSPropertyOp46
 70
     1
102
RTVSPropertyOp47
 70
     1
102
RTVSPropertyOp48
 70
     1
102
RTVSPropertyOp49
 70
     1
102
RTVSPropertyOp50
 70
     1
102
RTVSPropertyOp51
 70
     0
102
RTVSPropertyOp52
 70
     0
102
RTVSPropertyOp53
 70
     1
102
RTVSPropertyOp54
 70
     1
102
RTVSPropertyOp55
 70
     1
102
RTVSPropertyOp56
 70
     1
102
RTVSPropertyOp57
 70
     1
102
RTVSPropertyOp58
 70
     1
102
RTVSPropertyOp59
 70
     1
102
RTVSPropertyOp60
 70
     1
102
RTVSPropertyOp61
 70
     1
102
RTVSPropertyOp62
 70
     1
  0
XRECORD
  5
B2EA
102
{ACAD_REACTORS
330
B2E9
102
}
330
B2E9
100
AcDbXrecord
280
     1
102
RTVSPost2010Prop28
280
     0
102
RTVSPost2010PropOp28
 70
     1
102
RTVSPost2010Prop29
280
     1
102
RTVSPost2010PropOp29
 70
     1
102
RTVSPost2010Prop30
280
     1
102
RTVSPost2010PropOp30
 70
     1
102
RTVSPost2010Prop31
280
     0
102
RTVSPost2010PropOp31
 70
     1
102
RTVSPost2010Prop32
280
     0
102
RTVSPost2010PropOp32
 70
     1
102
RTVSPost2010Prop33
280
     0
102
RTVSPost2010PropOp33
 70
     1
102
RTVSPost2010Prop34
280
     0
102
RTVSPost2010PropOp34
 70
     1
102
RTVSPost2010Prop35
280
     0
102
RTVSPost2010PropOp35
 70
     1
102
RTVSPost2010Prop36
280
     0
102
RTVSPost2010PropOp36
 70
     1
102
RTVSPost2010Prop37
 90
       50
102
RTVSPost2010PropOp37
 70
     1
102
RTVSPost2010Prop38
140
0.0
102
RTVSPost2010PropOp38
 70
     1
102
RTVSPost2010Prop39
140
1.0
102
RTVSPost2010PropOp39
 70
     1
102
RTVSPost2010Prop40
 90
        0
102
RTVSPost2010PropOp40
 70
     1
102
RTVSPost2010Prop41ColorIndex
 90
       18
102
RTVSPost2010Prop41ColorRGB
 90
        0
102
RTVSPost2010PropOp41
 70
     1
102
RTVSPost2010Prop42
 90
       50
102
RTVSPost2010PropOp42
 70
     1
102
RTVSPost2010Prop43
 90
        3
102
RTVSPost2010PropOp43
 70
     1
102
RTVSPost2010Prop44ColorIndex
 90
        5
102
RTVSPost2010Prop44ColorRGB
 90
      255
102
RTVSPost2010PropOp44
 70
     1
102
RTVSPost2010Prop45
280
     0
102
RTVSPost2010PropOp45
 70
     1
102
RTVSPost2010Prop46
 90
       50
102
RTVSPost2010PropOp46
 70
     1
102
RTVSPost2010Prop47
 90
       50
102
RTVSPost2010PropOp47
 70
     1
102
RTVSPost2010Prop48
 90
       50
102
RTVSPost2010PropOp48
 70
     1
102
RTVSPost2010Prop49
280
     0
102
RTVSPost2010PropOp49
 70
     1
102
RTVSPost2010Prop50
 90
       50
102
RTVSPost2010PropOp50
 70
     1
102
RTVSPost2010Prop51ColorIndex
 90
      256
102
RTVSPost2010Prop51ColorRGB
 90
-16777216
102
RTVSPost2010PropOp51
 70
     0
102
RTVSPost2010Prop52
140
1.0
102
RTVSPost2010PropOp52
 70
     0
102
RTVSPost2010Prop53
 90
        2
102
RTVSPost2010PropOp53
 70
     1
102
RTVSPost2010Prop54
  1
strokes_ogs.tif
102
RTVSPost2010PropOp54
 70
     1
102
RTVSPost2010Prop55
280
     0
102
RTVSPost2010PropOp55
 70
     1
102
RTVSPost2010Prop56
140
1.0
102
RTVSPost2010PropOp56
 70
     1
102
RTVSPost2010Prop57
140
1.0
102
RTVSPost2010PropOp57
 70
     1
102
RTVSPropertyOp0
 70
     1
102
RTVSPropertyOp1
 70
     1
102
RTVSPropertyOp2
 70
     1
102
RTVSPropertyOp3
 70
     1
102
RTVSPropertyOp4
 70
     1
102
RTVSPropertyOp5
 70
     1
102
RTVSPropertyOp6
 70
     1
102
RTVSPropertyOp7
 70
     1
102
RTVSPropertyOp8
 70
     1
102
RTVSPropertyOp9
 70
     1
102
RTVSPropertyOp10
 70
     1
102
RTVSPropertyOp11
 70
     1
102
RTVSPropertyOp12
 70
     1
102
RTVSPropertyOp13
 70
     1
102
RTVSPropertyOp14
 70
     1
102
RTVSPropertyOp15
 70
     1
102
RTVSPropertyOp16
 70
     1
102
RTVSPropertyOp17
 70
     1
102
RTVSPropertyOp18
 70
     1
102
RTVSPropertyOp19
 70
     1
102
RTVSPropertyOp20
 70
     1
102
RTVSPropertyOp21
 70
     1
102
RTVSPropertyOp22
 70
     1
102
RTVSPropertyOp23
 70
     1
102
RTVSPropertyOp24
 70
     1
102
RTVSPropertyOp25
 70
     1
102
RTVSPropertyOp26
 70
     1
102
RTVSPropertyOp27
 70
     1
102
RTVSPropertyOp28
 70
     1
102
RTVSPropertyOp29
 70
     1
102
RTVSPropertyOp30
 70
     1
102
RTVSPropertyOp31
 70
     1
102
RTVSPropertyOp32
 70
     1
102
RTVSPropertyOp33
 70
     1
102
RTVSPropertyOp34
 70
     1
102
RTVSPropertyOp35
 70
     1
102
RTVSPropertyOp36
 70
     1
102
RTVSPropertyOp37
 70
     1
102
RTVSPropertyOp38
 70
     1
102
RTVSPropertyOp39
 70
     1
102
RTVSPropertyOp40
 70
     1
102
RTVSPropertyOp41
 70
     1
102
RTVSPropertyOp42
 70
     1
102
RTVSPropertyOp43
 70
     1
102
RTVSPropertyOp44
 70
     1
102
RTVSPropertyOp45
 70
     1
102
RTVSPropertyOp46
 70
     1
102
RTVSPropertyOp47
 70
     1
102
RTVSPropertyOp48
 70
     1
102
RTVSPropertyOp49
 70
     1
102
RTVSPropertyOp50
 70
     1
102
RTVSPropertyOp51
 70
     0
102
RTVSPropertyOp52
 70
     0
102
RTVSPropertyOp53
 70
     1
102
RTVSPropertyOp54
 70
     1
102
RTVSPropertyOp55
 70
     1
102
RTVSPropertyOp56
 70
     1
102
RTVSPropertyOp57
 70
     1
102
RTVSPropertyOp58
 70
     1
102
RTVSPropertyOp59
 70
     1
102
RTVSPropertyOp60
 70
     1
102
RTVSPropertyOp61
 70
     1
102
RTVSPropertyOp62
 70
     1
  0
XRECORD
  5
B2EC
102
{ACAD_REACTORS
330
B2EB
102
}
330
B2EB
100
AcDbXrecord
280
     1
102
RTVSPost2010Prop28
280
     0
102
RTVSPost2010PropOp28
 70
     1
102
RTVSPost2010Prop29
280
     1
102
RTVSPost2010PropOp29
 70
     1
102
RTVSPost2010Prop30
280
     1
102
RTVSPost2010PropOp30
 70
     1
102
RTVSPost2010Prop31
280
     0
102
RTVSPost2010PropOp31
 70
     1
102
RTVSPost2010Prop32
280
     0
102
RTVSPost2010PropOp32
 70
     1
102
RTVSPost2010Prop33
280
     0
102
RTVSPost2010PropOp33
 70
     1
102
RTVSPost2010Prop34
280
     0
102
RTVSPost2010PropOp34
 70
     1
102
RTVSPost2010Prop35
280
     0
102
RTVSPost2010PropOp35
 70
     1
102
RTVSPost2010Prop36
280
     0
102
RTVSPost2010PropOp36
 70
     1
102
RTVSPost2010Prop37
 90
       50
102
RTVSPost2010PropOp37
 70
     1
102
RTVSPost2010Prop38
140
0.0
102
RTVSPost2010PropOp38
 70
     1
102
RTVSPost2010Prop39
140
1.0
102
RTVSPost2010PropOp39
 70
     1
102
RTVSPost2010Prop40
 90
        0
102
RTVSPost2010PropOp40
 70
     1
102
RTVSPost2010Prop41ColorIndex
 90
       18
102
RTVSPost2010Prop41ColorRGB
 90
        0
102
RTVSPost2010PropOp41
 70
     1
102
RTVSPost2010Prop42
 90
       50
102
RTVSPost2010PropOp42
 70
     1
102
RTVSPost2010Prop43
 90
        3
102
RTVSPost2010PropOp43
 70
     1
102
RTVSPost2010Prop44ColorIndex
 90
        5
102
RTVSPost2010Prop44ColorRGB
 90
      255
102
RTVSPost2010PropOp44
 70
     1
102
RTVSPost2010Prop45
280
     0
102
RTVSPost2010PropOp45
 70
     1
102
RTVSPost2010Prop46
 90
       50
102
RTVSPost2010PropOp46
 70
     1
102
RTVSPost2010Prop47
 90
       50
102
RTVSPost2010PropOp47
 70
     1
102
RTVSPost2010Prop48
 90
       50
102
RTVSPost2010PropOp48
 70
     1
102
RTVSPost2010Prop49
280
     0
102
RTVSPost2010PropOp49
 70
     1
102
RTVSPost2010Prop50
 90
       50
102
RTVSPost2010PropOp50
 70
     1
102
RTVSPost2010Prop51ColorIndex
 90
      256
102
RTVSPost2010Prop51ColorRGB
 90
-16777216
102
RTVSPost2010PropOp51
 70
     0
102
RTVSPost2010Prop52
140
1.0
102
RTVSPost2010PropOp52
 70
     0
102
RTVSPost2010Prop53
 90
        2
102
RTVSPost2010PropOp53
 70
     1
102
RTVSPost2010Prop54
  1
strokes_ogs.tif
102
RTVSPost2010PropOp54
 70
     1
102
RTVSPost2010Prop55
280
     0
102
RTVSPost2010PropOp55
 70
     1
102
RTVSPost2010Prop56
140
1.0
102
RTVSPost2010PropOp56
 70
     1
102
RTVSPost2010Prop57
140
1.0
102
RTVSPost2010PropOp57
 70
     1
102
RTVSPropertyOp0
 70
     1
102
RTVSPropertyOp1
 70
     1
102
RTVSPropertyOp2
 70
     1
102
RTVSPropertyOp3
 70
     1
102
RTVSPropertyOp4
 70
     1
102
RTVSPropertyOp5
 70
     1
102
RTVSPropertyOp6
 70
     1
102
RTVSPropertyOp7
 70
     1
102
RTVSPropertyOp8
 70
     1
102
RTVSPropertyOp9
 70
     1
102
RTVSPropertyOp10
 70
     1
102
RTVSPropertyOp11
 70
     1
102
RTVSPropertyOp12
 70
     1
102
RTVSPropertyOp13
 70
     1
102
RTVSPropertyOp14
 70
     1
102
RTVSPropertyOp15
 70
     1
102
RTVSPropertyOp16
 70
     1
102
RTVSPropertyOp17
 70
     1
102
RTVSPropertyOp18
 70
     1
102
RTVSPropertyOp19
 70
     1
102
RTVSPropertyOp20
 70
     1
102
RTVSPropertyOp21
 70
     1
102
RTVSPropertyOp22
 70
     1
102
RTVSPropertyOp23
 70
     1
102
RTVSPropertyOp24
 70
     1
102
RTVSPropertyOp25
 70
     1
102
RTVSPropertyOp26
 70
     1
102
RTVSPropertyOp27
 70
     1
102
RTVSPropertyOp28
 70
     1
102
RTVSPropertyOp29
 70
     1
102
RTVSPropertyOp30
 70
     1
102
RTVSPropertyOp31
 70
     1
102
RTVSPropertyOp32
 70
     1
102
RTVSPropertyOp33
 70
     1
102
RTVSPropertyOp34
 70
     1
102
RTVSPropertyOp35
 70
     1
102
RTVSPropertyOp36
 70
     1
102
RTVSPropertyOp37
 70
     1
102
RTVSPropertyOp38
 70
     1
102
RTVSPropertyOp39
 70
     1
102
RTVSPropertyOp40
 70
     1
102
RTVSPropertyOp41
 70
     1
102
RTVSPropertyOp42
 70
     1
102
RTVSPropertyOp43
 70
     1
102
RTVSPropertyOp44
 70
     1
102
RTVSPropertyOp45
 70
     1
102
RTVSPropertyOp46
 70
     1
102
RTVSPropertyOp47
 70
     1
102
RTVSPropertyOp48
 70
     1
102
RTVSPropertyOp49
 70
     1
102
RTVSPropertyOp50
 70
     1
102
RTVSPropertyOp51
 70
     0
102
RTVSPropertyOp52
 70
     0
102
RTVSPropertyOp53
 70
     1
102
RTVSPropertyOp54
 70
     1
102
RTVSPropertyOp55
 70
     1
102
RTVSPropertyOp56
 70
     1
102
RTVSPropertyOp57
 70
     1
102
RTVSPropertyOp58
 70
     1
102
RTVSPropertyOp59
 70
     1
102
RTVSPropertyOp60
 70
     1
102
RTVSPropertyOp61
 70
     1
102
RTVSPropertyOp62
 70
     1
  0
XRECORD
  5
B2E2
102
{ACAD_REACTORS
330
B2E1
102
}
330
B2E1
100
AcDbXrecord
280
     1
102
RTVSPost2010Prop28
280
     0
102
RTVSPost2010PropOp28
 70
     1
102
RTVSPost2010Prop29
280
     1
102
RTVSPost2010PropOp29
 70
     1
102
RTVSPost2010Prop30
280
     1
102
RTVSPost2010PropOp30
 70
     1
102
RTVSPost2010Prop31
280
     0
102
RTVSPost2010PropOp31
 70
     1
102
RTVSPost2010Prop32
280
     0
102
RTVSPost2010PropOp32
 70
     1
102
RTVSPost2010Prop33
280
     0
102
RTVSPost2010PropOp33
 70
     1
102
RTVSPost2010Prop34
280
     0
102
RTVSPost2010PropOp34
 70
     1
102
RTVSPost2010Prop35
280
     0
102
RTVSPost2010PropOp35
 70
     1
102
RTVSPost2010Prop36
280
     0
102
RTVSPost2010PropOp36
 70
     1
102
RTVSPost2010Prop37
 90
       50
102
RTVSPost2010PropOp37
 70
     1
102
RTVSPost2010Prop38
140
0.0
102
RTVSPost2010PropOp38
 70
     1
102
RTVSPost2010Prop39
140
1.0
102
RTVSPost2010PropOp39
 70
     1
102
RTVSPost2010Prop40
 90
        0
102
RTVSPost2010PropOp40
 70
     1
102
RTVSPost2010Prop41ColorIndex
 90
       18
102
RTVSPost2010Prop41ColorRGB
 90
        0
102
RTVSPost2010PropOp41
 70
     1
102
RTVSPost2010Prop42
 90
       50
102
RTVSPost2010PropOp42
 70
     1
102
RTVSPost2010Prop43
 90
        3
102
RTVSPost2010PropOp43
 70
     1
102
RTVSPost2010Prop44ColorIndex
 90
        5
102
RTVSPost2010Prop44ColorRGB
 90
      255
102
RTVSPost2010PropOp44
 70
     1
102
RTVSPost2010Prop45
280
     0
102
RTVSPost2010PropOp45
 70
     1
102
RTVSPost2010Prop46
 90
       50
102
RTVSPost2010PropOp46
 70
     1
102
RTVSPost2010Prop47
 90
       50
102
RTVSPost2010PropOp47
 70
     1
102
RTVSPost2010Prop48
 90
       50
102
RTVSPost2010PropOp48
 70
     1
102
RTVSPost2010Prop49
280
     0
102
RTVSPost2010PropOp49
 70
     1
102
RTVSPost2010Prop50
 90
       50
102
RTVSPost2010PropOp50
 70
     1
102
RTVSPost2010Prop51ColorIndex
 90
      256
102
RTVSPost2010Prop51ColorRGB
 90
-16777216
102
RTVSPost2010PropOp51
 70
     0
102
RTVSPost2010Prop52
140
1.0
102
RTVSPost2010PropOp52
 70
     0
102
RTVSPost2010Prop53
 90
        2
102
RTVSPost2010PropOp53
 70
     1
102
RTVSPost2010Prop54
  1
strokes_ogs.tif
102
RTVSPost2010PropOp54
 70
     1
102
RTVSPost2010Prop55
280
     0
102
RTVSPost2010PropOp55
 70
     1
102
RTVSPost2010Prop56
140
1.0
102
RTVSPost2010PropOp56
 70
     1
102
RTVSPost2010Prop57
140
1.0
102
RTVSPost2010PropOp57
 70
     1
102
RTVSPropertyOp0
 70
     1
102
RTVSPropertyOp1
 70
     1
102
RTVSPropertyOp2
 70
     1
102
RTVSPropertyOp3
 70
     1
102
RTVSPropertyOp4
 70
     1
102
RTVSPropertyOp5
 70
     1
102
RTVSPropertyOp6
 70
     1
102
RTVSPropertyOp7
 70
     1
102
RTVSPropertyOp8
 70
     1
102
RTVSPropertyOp9
 70
     1
102
RTVSPropertyOp10
 70
     1
102
RTVSPropertyOp11
 70
     1
102
RTVSPropertyOp12
 70
     1
102
RTVSPropertyOp13
 70
     1
102
RTVSPropertyOp14
 70
     1
102
RTVSPropertyOp15
 70
     1
102
RTVSPropertyOp16
 70
     1
102
RTVSPropertyOp17
 70
     1
102
RTVSPropertyOp18
 70
     1
102
RTVSPropertyOp19
 70
     1
102
RTVSPropertyOp20
 70
     1
102
RTVSPropertyOp21
 70
     1
102
RTVSPropertyOp22
 70
     1
102
RTVSPropertyOp23
 70
     1
102
RTVSPropertyOp24
 70
     1
102
RTVSPropertyOp25
 70
     1
102
RTVSPropertyOp26
 70
     1
102
RTVSPropertyOp27
 70
     1
102
RTVSPropertyOp28
 70
     1
102
RTVSPropertyOp29
 70
     1
102
RTVSPropertyOp30
 70
     1
102
RTVSPropertyOp31
 70
     1
102
RTVSPropertyOp32
 70
     1
102
RTVSPropertyOp33
 70
     1
102
RTVSPropertyOp34
 70
     1
102
RTVSPropertyOp35
 70
     1
102
RTVSPropertyOp36
 70
     1
102
RTVSPropertyOp37
 70
     1
102
RTVSPropertyOp38
 70
     1
102
RTVSPropertyOp39
 70
     1
102
RTVSPropertyOp40
 70
     1
102
RTVSPropertyOp41
 70
     1
102
RTVSPropertyOp42
 70
     1
102
RTVSPropertyOp43
 70
     1
102
RTVSPropertyOp44
 70
     1
102
RTVSPropertyOp45
 70
     1
102
RTVSPropertyOp46
 70
     1
102
RTVSPropertyOp47
 70
     1
102
RTVSPropertyOp48
 70
     1
102
RTVSPropertyOp49
 70
     1
102
RTVSPropertyOp50
 70
     1
102
RTVSPropertyOp51
 70
     0
102
RTVSPropertyOp52
 70
     0
102
RTVSPropertyOp53
 70
     1
102
RTVSPropertyOp54
 70
     1
102
RTVSPropertyOp55
 70
     1
102
RTVSPropertyOp56
 70
     1
102
RTVSPropertyOp57
 70
     1
102
RTVSPropertyOp58
 70
     1
102
RTVSPropertyOp59
 70
     1
102
RTVSPropertyOp60
 70
     1
102
RTVSPropertyOp61
 70
     1
102
RTVSPropertyOp62
 70
     1
  0
XRECORD
  5
B2D6
102
{ACAD_REACTORS
330
B2D5
102
}
330
B2D5
100
AcDbXrecord
280
     1
102
RTVSPost2010Prop28
280
     0
102
RTVSPost2010PropOp28
 70
     1
102
RTVSPost2010Prop29
280
     1
102
RTVSPost2010PropOp29
 70
     1
102
RTVSPost2010Prop30
280
     1
102
RTVSPost2010PropOp30
 70
     1
102
RTVSPost2010Prop31
280
     0
102
RTVSPost2010PropOp31
 70
     1
102
RTVSPost2010Prop32
280
     0
102
RTVSPost2010PropOp32
 70
     1
102
RTVSPost2010Prop33
280
     0
102
RTVSPost2010PropOp33
 70
     1
102
RTVSPost2010Prop34
280
     0
102
RTVSPost2010PropOp34
 70
     1
102
RTVSPost2010Prop35
280
     0
102
RTVSPost2010PropOp35
 70
     1
102
RTVSPost2010Prop36
280
     0
102
RTVSPost2010PropOp36
 70
     1
102
RTVSPost2010Prop37
 90
       50
102
RTVSPost2010PropOp37
 70
     1
102
RTVSPost2010Prop38
140
0.0
102
RTVSPost2010PropOp38
 70
     1
102
RTVSPost2010Prop39
140
1.0
102
RTVSPost2010PropOp39
 70
     1
102
RTVSPost2010Prop40
 90
        0
102
RTVSPost2010PropOp40
 70
     1
102
RTVSPost2010Prop41ColorIndex
 90
       18
102
RTVSPost2010Prop41ColorRGB
 90
        0
102
RTVSPost2010PropOp41
 70
     1
102
RTVSPost2010Prop42
 90
       50
102
RTVSPost2010PropOp42
 70
     1
102
RTVSPost2010Prop43
 90
        3
102
RTVSPost2010PropOp43
 70
     1
102
RTVSPost2010Prop44ColorIndex
 90
        5
102
RTVSPost2010Prop44ColorRGB
 90
      255
102
RTVSPost2010PropOp44
 70
     1
102
RTVSPost2010Prop45
280
     0
102
RTVSPost2010PropOp45
 70
     1
102
RTVSPost2010Prop46
 90
       50
102
RTVSPost2010PropOp46
 70
     1
102
RTVSPost2010Prop47
 90
       50
102
RTVSPost2010PropOp47
 70
     1
102
RTVSPost2010Prop48
 90
       50
102
RTVSPost2010PropOp48
 70
     1
102
RTVSPost2010Prop49
280
     0
102
RTVSPost2010PropOp49
 70
     1
102
RTVSPost2010Prop50
 90
       50
102
RTVSPost2010PropOp50
 70
     1
102
RTVSPost2010Prop51ColorIndex
 90
      256
102
RTVSPost2010Prop51ColorRGB
 90
-16777216
102
RTVSPost2010PropOp51
 70
     0
102
RTVSPost2010Prop52
140
1.0
102
RTVSPost2010PropOp52
 70
     0
102
RTVSPost2010Prop53
 90
        2
102
RTVSPost2010PropOp53
 70
     1
102
RTVSPost2010Prop54
  1
strokes_ogs.tif
102
RTVSPost2010PropOp54
 70
     1
102
RTVSPost2010Prop55
280
     0
102
RTVSPost2010PropOp55
 70
     1
102
RTVSPost2010Prop56
140
1.0
102
RTVSPost2010PropOp56
 70
     1
102
RTVSPost2010Prop57
140
1.0
102
RTVSPost2010PropOp57
 70
     1
102
RTVSPropertyOp0
 70
     1
102
RTVSPropertyOp1
 70
     1
102
RTVSPropertyOp2
 70
     1
102
RTVSPropertyOp3
 70
     1
102
RTVSPropertyOp4
 70
     1
102
RTVSPropertyOp5
 70
     1
102
RTVSPropertyOp6
 70
     1
102
RTVSPropertyOp7
 70
     1
102
RTVSPropertyOp8
 70
     1
102
RTVSPropertyOp9
 70
     1
102
RTVSPropertyOp10
 70
     1
102
RTVSPropertyOp11
 70
     1
102
RTVSPropertyOp12
 70
     1
102
RTVSPropertyOp13
 70
     1
102
RTVSPropertyOp14
 70
     1
102
RTVSPropertyOp15
 70
     1
102
RTVSPropertyOp16
 70
     1
102
RTVSPropertyOp17
 70
     1
102
RTVSPropertyOp18
 70
     1
102
RTVSPropertyOp19
 70
     1
102
RTVSPropertyOp20
 70
     1
102
RTVSPropertyOp21
 70
     1
102
RTVSPropertyOp22
 70
     1
102
RTVSPropertyOp23
 70
     1
102
RTVSPropertyOp24
 70
     1
102
RTVSPropertyOp25
 70
     1
102
RTVSPropertyOp26
 70
     1
102
RTVSPropertyOp27
 70
     1
102
RTVSPropertyOp28
 70
     1
102
RTVSPropertyOp29
 70
     1
102
RTVSPropertyOp30
 70
     1
102
RTVSPropertyOp31
 70
     1
102
RTVSPropertyOp32
 70
     1
102
RTVSPropertyOp33
 70
     1
102
RTVSPropertyOp34
 70
     1
102
RTVSPropertyOp35
 70
     1
102
RTVSPropertyOp36
 70
     1
102
RTVSPropertyOp37
 70
     1
102
RTVSPropertyOp38
 70
     1
102
RTVSPropertyOp39
 70
     1
102
RTVSPropertyOp40
 70
     1
102
RTVSPropertyOp41
 70
     1
102
RTVSPropertyOp42
 70
     1
102
RTVSPropertyOp43
 70
     1
102
RTVSPropertyOp44
 70
     1
102
RTVSPropertyOp45
 70
     1
102
RTVSPropertyOp46
 70
     1
102
RTVSPropertyOp47
 70
     1
102
RTVSPropertyOp48
 70
     1
102
RTVSPropertyOp49
 70
     1
102
RTVSPropertyOp50
 70
     1
102
RTVSPropertyOp51
 70
     0
102
RTVSPropertyOp52
 70
     0
102
RTVSPropertyOp53
 70
     1
102
RTVSPropertyOp54
 70
     1
102
RTVSPropertyOp55
 70
     1
102
RTVSPropertyOp56
 70
     1
102
RTVSPropertyOp57
 70
     1
102
RTVSPropertyOp58
 70
     1
102
RTVSPropertyOp59
 70
     1
102
RTVSPropertyOp60
 70
     1
102
RTVSPropertyOp61
 70
     1
102
RTVSPropertyOp62
 70
     1
  0
XRECORD
  5
B2EE
102
{ACAD_REACTORS
330
B2ED
102
}
330
B2ED
100
AcDbXrecord
280
     1
102
RTVSPost2010Prop28
280
     0
102
RTVSPost2010PropOp28
 70
     1
102
RTVSPost2010Prop29
280
     1
102
RTVSPost2010PropOp29
 70
     1
102
RTVSPost2010Prop30
280
     1
102
RTVSPost2010PropOp30
 70
     1
102
RTVSPost2010Prop31
280
     0
102
RTVSPost2010PropOp31
 70
     1
102
RTVSPost2010Prop32
280
     0
102
RTVSPost2010PropOp32
 70
     1
102
RTVSPost2010Prop33
280
     0
102
RTVSPost2010PropOp33
 70
     1
102
RTVSPost2010Prop34
280
     0
102
RTVSPost2010PropOp34
 70
     1
102
RTVSPost2010Prop35
280
     0
102
RTVSPost2010PropOp35
 70
     1
102
RTVSPost2010Prop36
280
     0
102
RTVSPost2010PropOp36
 70
     1
102
RTVSPost2010Prop37
 90
       50
102
RTVSPost2010PropOp37
 70
     1
102
RTVSPost2010Prop38
140
0.0
102
RTVSPost2010PropOp38
 70
     1
102
RTVSPost2010Prop39
140
1.0
102
RTVSPost2010PropOp39
 70
     1
102
RTVSPost2010Prop40
 90
        0
102
RTVSPost2010PropOp40
 70
     1
102
RTVSPost2010Prop41ColorIndex
 90
       18
102
RTVSPost2010Prop41ColorRGB
 90
        0
102
RTVSPost2010PropOp41
 70
     1
102
RTVSPost2010Prop42
 90
       50
102
RTVSPost2010PropOp42
 70
     1
102
RTVSPost2010Prop43
 90
        3
102
RTVSPost2010PropOp43
 70
     1
102
RTVSPost2010Prop44ColorIndex
 90
        5
102
RTVSPost2010Prop44ColorRGB
 90
      255
102
RTVSPost2010PropOp44
 70
     1
102
RTVSPost2010Prop45
280
     0
102
RTVSPost2010PropOp45
 70
     1
102
RTVSPost2010Prop46
 90
       50
102
RTVSPost2010PropOp46
 70
     1
102
RTVSPost2010Prop47
 90
       50
102
RTVSPost2010PropOp47
 70
     1
102
RTVSPost2010Prop48
 90
       50
102
RTVSPost2010PropOp48
 70
     1
102
RTVSPost2010Prop49
280
     0
102
RTVSPost2010PropOp49
 70
     1
102
RTVSPost2010Prop50
 90
       50
102
RTVSPost2010PropOp50
 70
     1
102
RTVSPost2010Prop51ColorIndex
 90
      256
102
RTVSPost2010Prop51ColorRGB
 90
-16777216
102
RTVSPost2010PropOp51
 70
     0
102
RTVSPost2010Prop52
140
1.0
102
RTVSPost2010PropOp52
 70
     0
102
RTVSPost2010Prop53
 90
        2
102
RTVSPost2010PropOp53
 70
     1
102
RTVSPost2010Prop54
  1
strokes_ogs.tif
102
RTVSPost2010PropOp54
 70
     1
102
RTVSPost2010Prop55
280
     0
102
RTVSPost2010PropOp55
 70
     1
102
RTVSPost2010Prop56
140
1.0
102
RTVSPost2010PropOp56
 70
     1
102
RTVSPost2010Prop57
140
1.0
102
RTVSPost2010PropOp57
 70
     1
102
RTVSPropertyOp0
 70
     1
102
RTVSPropertyOp1
 70
     1
102
RTVSPropertyOp2
 70
     1
102
RTVSPropertyOp3
 70
     1
102
RTVSPropertyOp4
 70
     1
102
RTVSPropertyOp5
 70
     1
102
RTVSPropertyOp6
 70
     1
102
RTVSPropertyOp7
 70
     1
102
RTVSPropertyOp8
 70
     1
102
RTVSPropertyOp9
 70
     1
102
RTVSPropertyOp10
 70
     1
102
RTVSPropertyOp11
 70
     1
102
RTVSPropertyOp12
 70
     1
102
RTVSPropertyOp13
 70
     1
102
RTVSPropertyOp14
 70
     1
102
RTVSPropertyOp15
 70
     1
102
RTVSPropertyOp16
 70
     1
102
RTVSPropertyOp17
 70
     1
102
RTVSPropertyOp18
 70
     1
102
RTVSPropertyOp19
 70
     1
102
RTVSPropertyOp20
 70
     1
102
RTVSPropertyOp21
 70
     1
102
RTVSPropertyOp22
 70
     1
102
RTVSPropertyOp23
 70
     1
102
RTVSPropertyOp24
 70
     1
102
RTVSPropertyOp25
 70
     1
102
RTVSPropertyOp26
 70
     1
102
RTVSPropertyOp27
 70
     1
102
RTVSPropertyOp28
 70
     1
102
RTVSPropertyOp29
 70
     1
102
RTVSPropertyOp30
 70
     1
102
RTVSPropertyOp31
 70
     1
102
RTVSPropertyOp32
 70
     1
102
RTVSPropertyOp33
 70
     1
102
RTVSPropertyOp34
 70
     1
102
RTVSPropertyOp35
 70
     1
102
RTVSPropertyOp36
 70
     1
102
RTVSPropertyOp37
 70
     1
102
RTVSPropertyOp38
 70
     1
102
RTVSPropertyOp39
 70
     1
102
RTVSPropertyOp40
 70
     1
102
RTVSPropertyOp41
 70
     1
102
RTVSPropertyOp42
 70
     1
102
RTVSPropertyOp43
 70
     1
102
RTVSPropertyOp44
 70
     1
102
RTVSPropertyOp45
 70
     1
102
RTVSPropertyOp46
 70
     1
102
RTVSPropertyOp47
 70
     1
102
RTVSPropertyOp48
 70
     1
102
RTVSPropertyOp49
 70
     1
102
RTVSPropertyOp50
 70
     1
102
RTVSPropertyOp51
 70
     0
102
RTVSPropertyOp52
 70
     0
102
RTVSPropertyOp53
 70
     1
102
RTVSPropertyOp54
 70
     1
102
RTVSPropertyOp55
 70
     1
102
RTVSPropertyOp56
 70
     1
102
RTVSPropertyOp57
 70
     1
102
RTVSPropertyOp58
 70
     1
102
RTVSPropertyOp59
 70
     1
102
RTVSPropertyOp60
 70
     1
102
RTVSPropertyOp61
 70
     1
102
RTVSPropertyOp62
 70
     1
  0
ENDSEC
  0
EOF
