  0
SECTION
  2
HEADER
  9
$ACADVER
  1
AC1015
  9
$ACADMAINTVER
 70
    20
  9
$DWGCODEPAGE
  3
ANSI_932
  9
$INSBASE
 10
0.0
 20
0.0
 30
0.0
  9
$EXTMIN
 10
10.00000153760811
 20
9.999999806846744
 30
0.0
  9
$EXTMAX
 10
253.6924324917786
 20
219.0537252751734
 30
0.0
  9
$LIMMIN
 10
0.0000015376081137
 20
-0.0000001931532552
  9
$LIMMAX
 10
396.0000015376081
 20
272.9999998068465
  9
$ORTHOMODE
 70
     0
  9
$REGENMODE
 70
     1
  9
$FILLMODE
 70
     1
  9
$QTEXTMODE
 70
     0
  9
$MIRRTEXT
 70
     1
  9
$LTSCALE
 40
1.0
  9
$ATTMODE
 70
     1
  9
$TEXTSIZE
 40
2.5
  9
$TRACEWID
 40
1.0
  9
$TEXTSTYLE
  7
STANDARD
  9
$CLAYER
  8
0
  9
$CELTYPE
  6
ByLayer
  9
$CECOLOR
 62
   256
  9
$CELTSCALE
 40
1.0
  9
$DISPSILH
 70
     0
  9
$DIMSCALE
 40
1.0
  9
$DIMASZ
 40
3.0
  9
$DIMEXO
 40
1.0
  9
$DIMDLI
 40
10.0
  9
$DIMRND
 40
0.0
  9
$DIMDLE
 40
0.0
  9
$DIMEXE
 40
1.0
  9
$DIMTP
 40
0.0
  9
$DIMTM
 40
0.0
  9
$DIMTXT
 40
3.2
  9
$DIMCEN
 40
0.0
  9
$DIMTSZ
 40
0.0
  9
$DIMTOL
 70
     0
  9
$DIMLIM
 70
     0
  9
$DIMTIH
 70
     0
  9
$DIMTOH
 70
     0
  9
$DIMSE1
 70
     0
  9
$DIMSE2
 70
     0
  9
$DIMTAD
 70
     3
  9
$DIMZIN
 70
     8
  9
$DIMBLK
  1

  9
$DIMASO
 70
     1
  9
$DIMSHO
 70
     1
  9
$DIMPOST
  1

  9
$DIMAPOST
  1

  9
$DIMALT
 70
     0
  9
$DIMALTD
 70
     2
  9
$DIMALTF
 40
25.4
  9
$DIMLFAC
 40
1.0
  9
$DIMTOFL
 70
     1
  9
$DIMTVP
 40
0.0
  9
$DIMTIX
 70
     0
  9
$DIMSOXD
 70
     0
  9
$DIMSAH
 70
     1
  9
$DIMBLK1
  1
OPEN
  9
$DIMBLK2
  1
OPEN
  9
$DIMSTYLE
  2
STANDARD
  9
$DIMCLRD
 70
     0
  9
$DIMCLRE
 70
     0
  9
$DIMCLRT
 70
     0
  9
$DIMTFAC
 40
1.0
  9
$DIMGAP
 40
1.0
  9
$DIMJUST
 70
     0
  9
$DIMSD1
 70
     0
  9
$DIMSD2
 70
     0
  9
$DIMTOLJ
 70
     1
  9
$DIMTZIN
 70
     0
  9
$DIMALTZ
 70
     0
  9
$DIMALTTZ
 70
     0
  9
$DIMUPT
 70
     0
  9
$DIMDEC
 70
     4
  9
$DIMTDEC
 70
     4
  9
$DIMALTU
 70
     2
  9
$DIMALTTD
 70
     2
  9
$DIMTXSTY
  7
STANDARD
  9
$DIMAUNIT
 70
     0
  9
$DIMADEC
 70
     0
  9
$DIMALTRND
 40
0.0
  9
$DIMAZIN
 70
     0
  9
$DIMDSEP
 70
    46
  9
$DIMATFIT
 70
     3
  9
$DIMFRAC
 70
     0
  9
$DIMLDRBLK
  1
OPEN
  9
$DIMLUNIT
 70
     2
  9
$DIMLWD
 70
    -2
  9
$DIMLWE
 70
    -2
  9
$DIMTMOVE
 70
     0
  9
$LUNITS
 70
     2
  9
$LUPREC
 70
     4
  9
$SKETCHINC
 40
1.0
  9
$FILLETRAD
 40
10.0
  9
$AUNITS
 70
     0
  9
$AUPREC
 70
     0
  9
$MENU
  1
.
  9
$ELEVATION
 40
0.0
  9
$PELEVATION
 40
0.0
  9
$THICKNESS
 40
0.0
  9
$LIMCHECK
 70
     0
  9
$CHAMFERA
 40
10.0
  9
$CHAMFERB
 40
10.0
  9
$CHAMFERC
 40
0.0
  9
$CHAMFERD
 40
0.0
  9
$SKPOLY
 70
     0
  9
$TDCREATE
 40
2456276.593094468
  9
$TDUCREATE
 40
2456276.218094468
  9
$TDUPDATE
 40
2457192.598675139
  9
$TDUUPDATE
 40
2457192.223675139
  9
$TDINDWG
 40
0.1528200926
  9
$TDUSRTIMER
 40
0.1528200926
  9
$USRTIMER
 70
     1
  9
$ANGBASE
 50
0.0
  9
$ANGDIR
 70
     0
  9
$PDMODE
 70
     0
  9
$PDSIZE
 40
0.0
  9
$PLINEWID
 40
0.0
  9
$SPLFRAME
 70
     0
  9
$SPLINETYPE
 70
     6
  9
$SPLINESEGS
 70
     8
  9
$HANDSEED
  5
DBE
  9
$SURFTAB1
 70
     6
  9
$SURFTAB2
 70
     6
  9
$SURFTYPE
 70
     6
  9
$SURFU
 70
     6
  9
$SURFV
 70
     6
  9
$UCSBASE
  2

  9
$UCSNAME
  2

  9
$UCSORG
 10
0.0
 20
0.0
 30
0.0
  9
$UCSXDIR
 10
1.0
 20
0.0
 30
0.0
  9
$UCSYDIR
 10
0.0
 20
1.0
 30
0.0
  9
$UCSORTHOREF
  2

  9
$UCSORTHOVIEW
 70
     0
  9
$UCSORGTOP
 10
0.0
 20
0.0
 30
0.0
  9
$UCSORGBOTTOM
 10
0.0
 20
0.0
 30
0.0
  9
$UCSORGLEFT
 10
0.0
 20
0.0
 30
0.0
  9
$UCSORGRIGHT
 10
0.0
 20
0.0
 30
0.0
  9
$UCSORGFRONT
 10
0.0
 20
0.0
 30
0.0
  9
$UCSORGBACK
 10
0.0
 20
0.0
 30
0.0
  9
$PUCSBASE
  2

  9
$PUCSNAME
  2

  9
$PUCSORG
 10
0.0
 20
0.0
 30
0.0
  9
$PUCSXDIR
 10
1.0
 20
0.0
 30
0.0
  9
$PUCSYDIR
 10
0.0
 20
1.0
 30
0.0
  9
$PUCSORTHOREF
  2

  9
$PUCSORTHOVIEW
 70
     0
  9
$PUCSORGTOP
 10
0.0
 20
0.0
 30
0.0
  9
$PUCSORGBOTTOM
 10
0.0
 20
0.0
 30
0.0
  9
$PUCSORGLEFT
 10
0.0
 20
0.0
 30
0.0
  9
$PUCSORGRIGHT
 10
0.0
 20
0.0
 30
0.0
  9
$PUCSORGFRONT
 10
0.0
 20
0.0
 30
0.0
  9
$PUCSORGBACK
 10
0.0
 20
0.0
 30
0.0
  9
$USERI1
 70
     0
  9
$USERI2
 70
     0
  9
$USERI3
 70
     0
  9
$USERI4
 70
     0
  9
$USERI5
 70
     0
  9
$USERR1
 40
0.0
  9
$USERR2
 40
0.0
  9
$USERR3
 40
0.0
  9
$USERR4
 40
0.0
  9
$USERR5
 40
0.0
  9
$WORLDVIEW
 70
     1
  9
$SHADEDGE
 70
     3
  9
$SHADEDIF
 70
    70
  9
$TILEMODE
 70
     1
  9
$MAXACTVP
 70
    48
  9
$PINSBASE
 10
0.0
 20
0.0
 30
0.0
  9
$PLIMCHECK
 70
     0
  9
$PEXTMIN
 10
1.000000000000000E+20
 20
1.000000000000000E+20
 30
1.000000000000000E+20
  9
$PEXTMAX
 10
-1.000000000000000E+20
 20
-1.000000000000000E+20
 30
-1.000000000000000E+20
  9
$PLIMMIN
 10
0.0
 20
0.0
  9
$PLIMMAX
 10
420.0
 20
297.0
  9
$UNITMODE
 70
     0
  9
$VISRETAIN
 70
     1
  9
$PLINEGEN
 70
     0
  9
$PSLTSCALE
 70
     1
  9
$TREEDEPTH
 70
  3020
  9
$CMLSTYLE
  2
Standard
  9
$CMLJUST
 70
     0
  9
$CMLSCALE
 40
1.0
  9
$PROXYGRAPHICS
 70
     1
  9
$MEASUREMENT
 70
     0
  9
$CELWEIGHT
370
    -1
  9
$ENDCAPS
280
     0
  9
$JOINSTYLE
280
     0
  9
$LWDISPLAY
290
     0
  9
$INSUNITS
 70
     0
  9
$HYPERLINKBASE
  1

  9
$STYLESHEET
  1

  9
$XEDIT
290
     1
  9
$CEPSNTYPE
380
     0
  9
$PSTYLEMODE
290
     1
  9
$FINGERPRINTGUID
  2
{A9D672D5-0499-4C58-8462-98B8C8F065DF}
  9
$VERSIONGUID
  2
{16F2BDA9-A995-4352-A4A3-500C94896DC2}
  9
$EXTNAMES
290
     1
  9
$PSVPSCALE
 40
0.0
  9
$OLESTARTUP
290
     0
  0
ENDSEC
  0
SECTION
  2
CLASSES
  0
CLASS
  1
ACDBDICTIONARYWDFLT
  2
AcDbDictionaryWithDefault
  3
ObjectDBX Classes
 90
        0
280
     0
281
     0
  0
CLASS
  1
MATERIAL
  2
AcDbMaterial
  3
ObjectDBX Classes
 90
     1153
280
     0
281
     0
  0
CLASS
  1
VISUALSTYLE
  2
AcDbVisualStyle
  3
ObjectDBX Classes
 90
     4095
280
     0
281
     0
  0
CLASS
  1
SCALE
  2
AcDbScale
  3
ObjectDBX Classes
 90
     1153
280
     0
281
     0
  0
CLASS
  1
TABLESTYLE
  2
AcDbTableStyle
  3
ObjectDBX Classes
 90
     4095
280
     0
281
     0
  0
CLASS
  1
MLEADERSTYLE
  2
AcDbMLeaderStyle
  3
ACDB_MLEADERSTYLE_CLASS
 90
     4095
280
     0
281
     0
  0
CLASS
  1
ACDBSECTIONVIEWSTYLE
  2
AcDbSectionViewStyle
  3
ObjectDBX Classes
 90
     1025
280
     0
281
     0
  0
CLASS
  1
ACDBDETAILVIEWSTYLE
  2
AcDbDetailViewStyle
  3
ObjectDBX Classes
 90
     1025
280
     0
281
     0
  0
CLASS
  1
DICTIONARYVAR
  2
AcDbDictionaryVar
  3
ObjectDBX Classes
 90
        0
280
     0
281
     0
  0
CLASS
  1
CELLSTYLEMAP
  2
AcDbCellStyleMap
  3
ObjectDBX Classes
 90
     1152
280
     0
281
     0
  0
CLASS
  1
ACDBPLACEHOLDER
  2
AcDbPlaceHolder
  3
ObjectDBX Classes
 90
        0
280
     0
281
     0
  0
CLASS
  1
LAYOUT
  2
AcDbLayout
  3
ObjectDBX Classes
 90
        0
280
     0
281
     0
  0
ENDSEC
  0
SECTION
  2
TABLES
  0
TABLE
  2
VPORT
  5
CE1
330
0
100
AcDbSymbolTable
 70
     1
  0
VPORT
  5
D4C
330
CE1
100
AcDbSymbolTableRecord
100
AcDbViewportTableRecord
  2
*ACTIVE
 70
     0
 10
0.0
 20
0.0
 11
1.0
 21
1.0
 12
218.4483059593167
 22
114.5261997577137
 13
0.0
 23
0.0
 14
10.0
 24
10.0
 15
10.0
 25
10.0
 16
0.0
 26
0.0
 36
1.0
 17
0.0
 27
0.0
 37
0.0
 40
210.6919249725772
 41
1.899603698811096
 42
50.0
 43
0.0
 44
0.0
 50
0.0
 51
0.0
 71
     0
 72
   100
 73
     1
 74
     0
 75
     0
 76
     0
 77
     0
 78
     0
281
     0
 65
     1
110
0.0
120
0.0
130
0.0
111
1.0
121
0.0
131
0.0
112
0.0
122
1.0
132
0.0
 79
     0
146
0.0
1001
ACAD_NAV_VCDISPLAY
1070
     3
  0
ENDTAB
  0
TABLE
  2
LTYPE
  5
CDE
330
0
100
AcDbSymbolTable
 70
     4
  0
LTYPE
  5
D33
330
CDE
100
AcDbSymbolTableRecord
100
AcDbLinetypeTableRecord
  2
ByBlock
 70
     0
  3

 72
    65
 73
     0
 40
0.0
  0
LTYPE
  5
D34
330
CDE
100
AcDbSymbolTableRecord
100
AcDbLinetypeTableRecord
  2
ByLayer
 70
     0
  3

 72
    65
 73
     0
 40
0.0
  0
LTYPE
  5
D35
330
CDE
100
AcDbSymbolTableRecord
100
AcDbLinetypeTableRecord
  2
CONTINUOUS
 70
     0
  3
Solid line
 72
    65
 73
     0
 40
0.0
  0
LTYPE
  5
D4D
330
CDE
100
AcDbSymbolTableRecord
100
AcDbLinetypeTableRecord
  2
DASHED
 70
     0
  3
Dashed __ __ __ __ __ __ __ __ __ __ __ __ __ _
 72
    65
 73
     2
 40
19.04999999999999
 49
12.7
 74
     0
 49
-6.349999999999998
 74
     0
  0
LTYPE
  5
D4E
330
CDE
100
AcDbSymbolTableRecord
100
AcDbLinetypeTableRecord
  2
CENTER
 70
     0
  3
Center ____ _ ____ _ ____ _ ____ _ ____ _ ____
 72
    65
 73
     4
 40
50.8
 49
31.75
 74
     0
 49
-6.349999999999998
 74
     0
 49
6.349999999999998
 74
     0
 49
-6.349999999999998
 74
     0
  0
LTYPE
  5
D4F
330
CDE
100
AcDbSymbolTableRecord
100
AcDbLinetypeTableRecord
  2
PHANTOM
 70
     0
  3
Phantom ______  __  __  ______  __  __  ______
 72
    65
 73
     6
 40
63.5
 49
31.75
 74
     0
 49
-6.349999999999998
 74
     0
 49
6.349999999999998
 74
     0
 49
-6.349999999999998
 74
     0
 49
6.349999999999998
 74
     0
 49
-6.349999999999998
 74
     0
  0
ENDTAB
  0
TABLE
  2
LAYER
  5
CDB
330
0
100
AcDbSymbolTable
 70
     8
  0
LAYER
  5
D2D
102
{ACAD_XDICTIONARY
360
D62
102
}
330
CDB
100
AcDbSymbolTableRecord
100
AcDbLayerTableRecord
  2
0
 70
     0
 62
     7
  6
CONTINUOUS
370
    -3
390
CE8
  0
LAYER
  5
D50
102
{ACAD_XDICTIONARY
360
D64
102
}
330
CDB
100
AcDbSymbolTableRecord
100
AcDbLayerTableRecord
  2
4
 70
     0
 62
     1
  6
CENTER
370
    -3
390
CE8
  0
LAYER
  5
D51
102
{ACAD_XDICTIONARY
360
D66
102
}
330
CDB
100
AcDbSymbolTableRecord
100
AcDbLayerTableRecord
  2
5
 70
     0
 62
     6
  6
PHANTOM
370
    -3
390
CE8
  0
LAYER
  5
D52
102
{ACAD_XDICTIONARY
360
D68
102
}
330
CDB
100
AcDbSymbolTableRecord
100
AcDbLayerTableRecord
  2
1
 70
     0
 62
     7
  6
CONTINUOUS
370
    -3
390
CE8
  0
LAYER
  5
D53
102
{ACAD_XDICTIONARY
360
D6A
102
}
330
CDB
100
AcDbSymbolTableRecord
100
AcDbLayerTableRecord
  2
2
 70
     0
 62
     4
  6
CONTINUOUS
370
    -3
390
CE8
  0
LAYER
  5
D54
102
{ACAD_XDICTIONARY
360
D6C
102
}
330
CDB
100
AcDbSymbolTableRecord
100
AcDbLayerTableRecord
  2
3
 70
     0
 62
     2
  6
DASHED
370
    -3
390
CE8
  0
LAYER
  5
D55
102
{ACAD_XDICTIONARY
360
D6E
102
}
330
CDB
100
AcDbSymbolTableRecord
100
AcDbLayerTableRecord
  2
6
 70
     0
 62
     5
  6
CONTINUOUS
370
    -3
390
CE8
  0
LAYER
  5
D56
102
{ACAD_XDICTIONARY
360
D70
102
}
330
CDB
100
AcDbSymbolTableRecord
100
AcDbLayerTableRecord
  2
7
 70
     0
 62
     3
  6
CONTINUOUS
370
    -3
390
CE8
  0
ENDTAB
  0
TABLE
  2
STYLE
  5
CDC
330
0
100
AcDbSymbolTable
 70
     2
  0
STYLE
  5
D2E
330
CDC
100
AcDbSymbolTableRecord
100
AcDbTextStyleTableRecord
  2
STANDARD
 70
     0
 40
0.0
 41
1.0
 50
0.0
 71
     0
 42
2.5
  3
simplex.shx
  4

  0
STYLE
  5
D32
330
CDC
100
AcDbSymbolTableRecord
100
AcDbTextStyleTableRecord
  2
Annotative
 70
     0
 40
0.0
 41
1.0
 50
0.0
 71
     0
 42
0.2
  3
txt
  4

1001
AcadAnnotative
1000
AnnotativeData
1002
{
1070
     1
1070
     1
1002
}
  0
ENDTAB
  0
TABLE
  2
VIEW
  5
CDF
330
0
100
AcDbSymbolTable
 70
     0
  0
ENDTAB
  0
TABLE
  2
UCS
  5
CE0
330
0
100
AcDbSymbolTable
 70
     0
  0
ENDTAB
  0
TABLE
  2
APPID
  5
CE2
330
0
100
AcDbSymbolTable
 70
     6
  0
APPID
  5
D2F
330
CE2
100
AcDbSymbolTableRecord
100
AcDbRegAppTableRecord
  2
ACAD
 70
     0
  0
APPID
  5
D36
330
CE2
100
AcDbSymbolTableRecord
100
AcDbRegAppTableRecord
  2
AcadAnnotative
 70
     0
  0
APPID
  5
D57
330
CE2
100
AcDbSymbolTableRecord
100
AcDbRegAppTableRecord
  2
CONTENTTABDATA
 70
     0
  0
APPID
  5
D58
330
CE2
100
AcDbSymbolTableRecord
100
AcDbRegAppTableRecord
  2
CONTENTCURRENTTAB
 70
     0
  0
APPID
  5
D7C
330
CE2
100
AcDbSymbolTableRecord
100
AcDbRegAppTableRecord
  2
ACAD_NAV_VCDISPLAY
 70
     0
  0
APPID
  5
DB5
330
CE2
100
AcDbSymbolTableRecord
100
AcDbRegAppTableRecord
  2
ACAD_MLEADERVER
 70
     0
  0
ENDTAB
  0
TABLE
  2
DIMSTYLE
  5
CE3
330
0
100
AcDbSymbolTable
 70
     2
100
AcDbDimStyleTable
 71
     0
  0
DIMSTYLE
105
D30
330
CE3
100
AcDbSymbolTableRecord
100
AcDbDimStyleTableRecord
  2
STANDARD
 70
     0
 41
3.0
 42
1.0
 43
10.0
 44
1.0
 73
     0
 74
     0
 77
     3
 78
     8
140
3.2
141
0.0
147
1.0
172
     1
173
     1
279
     2
284
     8
285
     8
286
     8
340
D2E
  0
DIMSTYLE
105
D31
330
CE3
100
AcDbSymbolTableRecord
100
AcDbDimStyleTableRecord
  2
Annotative
 70
     0
340
D2E
1001
AcadAnnotative
1000
AnnotativeData
1002
{
1070
     1
1070
     1
1002
}
  0
ENDTAB
  0
TABLE
  2
BLOCK_RECORD
  5
CDA
330
0
100
AcDbSymbolTable
 70
     3
  0
BLOCK_RECORD
  5
D48
330
CDA
100
AcDbSymbolTableRecord
100
AcDbBlockTableRecord
  2
*Model_Space
340
D4B
  0
BLOCK_RECORD
  5
D44
330
CDA
100
AcDbSymbolTableRecord
100
AcDbBlockTableRecord
  2
*Paper_Space
340
D47
  0
BLOCK_RECORD
  5
D5B
330
CDA
100
AcDbSymbolTableRecord
100
AcDbBlockTableRecord
  2
$MODEL_SPACE
340
0
  0
BLOCK_RECORD
  5
D5D
330
CDA
100
AcDbSymbolTableRecord
100
AcDbBlockTableRecord
  2
$PAPER_SPACE
340
0
  0
BLOCK_RECORD
  5
D5F
330
CDA
100
AcDbSymbolTableRecord
100
AcDbBlockTableRecord
  2
_OPEN
340
0
  0
ENDTAB
  0
ENDSEC
  0
SECTION
  2
BLOCKS
  0
BLOCK
  5
D49
330
D48
100
AcDbEntity
  8
0
100
AcDbBlockBegin
  2
*Model_Space
 70
     0
 10
0.0
 20
0.0
 30
0.0
  3
*Model_Space
  1

  0
ENDBLK
  5
D4A
330
D48
100
AcDbEntity
  8
0
100
AcDbBlockEnd
  0
BLOCK
  5
D45
330
D44
100
AcDbEntity
 67
     1
  8
0
100
AcDbBlockBegin
  2
*Paper_Space
 70
     0
 10
0.0
 20
0.0
 30
0.0
  3
*Paper_Space
  1

  0
ENDBLK
  5
D46
330
D44
100
AcDbEntity
 67
     1
  8
0
100
AcDbBlockEnd
  0
BLOCK
  5
D5C
330
D5B
100
AcDbEntity
  8
0
100
AcDbBlockBegin
  2
$MODEL_SPACE
 70
     0
 10
0.0
 20
0.0
 30
0.0
  3
$MODEL_SPACE
  1

  0
ENDBLK
  5
1A
330
D5B
100
AcDbEntity
  8
0
100
AcDbBlockEnd
  0
BLOCK
  5
D5E
330
D5D
100
AcDbEntity
  8
0
100
AcDbBlockBegin
  2
$PAPER_SPACE
 70
     0
 10
0.0
 20
0.0
 30
0.0
  3
$PAPER_SPACE
  1

  0
ENDBLK
  5
17
330
D5D
100
AcDbEntity
  8
0
100
AcDbBlockEnd
  0
BLOCK
  5
D60
330
D5F
100
AcDbEntity
  8
0
100
AcDbBlockBegin
  2
_OPEN
 70
     0
 10
0.0
 20
0.0
 30
0.0
  3
_OPEN
  1

  0
LINE
  5
30
330
D5F
100
AcDbEntity
  8
0
  6
ByBlock
 62
     0
100
AcDbLine
 10
-1.0
 20
0.1666666666666666
 30
0.0
 11
0.0
 21
0.0
 31
0.0
  0
LINE
  5
31
330
D5F
100
AcDbEntity
  8
0
  6
ByBlock
 62
     0
100
AcDbLine
 10
0.0
 20
0.0
 30
0.0
 11
-1.0
 21
-0.1666666666666666
 31
0.0
  0
LINE
  5
32
330
D5F
100
AcDbEntity
  8
0
  6
ByBlock
 62
     0
100
AcDbLine
 10
0.0
 20
0.0
 30
0.0
 11
-1.0
 21
0.0
 31
0.0
  0
ENDBLK
  5
33
330
D5F
100
AcDbEntity
  8
0
100
AcDbBlockEnd
  0
ENDSEC
  0
SECTION
  2
ENTITIES
  0
LINE
  5
37B
330
D48
100
AcDbEntity
  8
1
  6
Continuous
100
AcDbLine
 10
50.77933249177863
 20
120.5847022751735
 30
0.0
 11
53.2083324917786
 21
122.5367022751735
 31
0.0
  0
ARC
  5
37C
330
D48
100
AcDbEntity
  8
1
  6
Continuous
100
AcDbCircle
 10
51.09233249177862
 20
120.1947022751735
 30
0.0
 40
2.1
100
AcDbArc
 50
128.7968
 51
180.0
  0
LINE
  5
37D
330
D48
100
AcDbEntity
  8
1
  6
Continuous
100
AcDbLine
 10
30.20533249177868
 20
120.5847022751735
 30
0.0
 11
27.7763324917787
 21
122.5367022751735
 31
0.0
  0
ARC
  5
37E
330
D48
100
AcDbEntity
  8
1
  6
Continuous
100
AcDbCircle
 10
29.89233249177869
 20
120.1947022751735
 30
0.0
 40
2.1
100
AcDbArc
 50
0.0
 51
51.2032
  0
LINE
  5
37F
330
D48
100
AcDbEntity
  8
1
  6
Continuous
100
AcDbLine
 10
48.49233249177864
 20
122.9537252751735
 30
0.0
 11
48.49233249177864
 21
119.9537252751735
 31
0.0
  0
LINE
  5
380
330
D48
100
AcDbEntity
  8
1
  6
Continuous
100
AcDbLine
 10
32.49233249177865
 20
122.9537252751735
 30
0.0
 11
32.49233249177865
 21
119.9537252751735
 31
0.0
  0
LINE
  5
385
330
D48
100
AcDbEntity
  8
1
  6
Continuous
100
AcDbLine
 10
48.09233249177868
 20
137.4537252751735
 30
0.0
 11
48.09233249177868
 21
113.4537252751735
 31
0.0
  0
LINE
  5
386
330
D48
100
AcDbEntity
  8
1
  6
Continuous
100
AcDbLine
 10
32.89233249177868
 20
137.4537252751735
 30
0.0
 11
32.89233249177868
 21
113.4537252751735
 31
0.0
  0
LINE
  5
387
330
D48
100
AcDbEntity
  8
4
  6
CENTER
100
AcDbLine
 10
40.49233249177865
 20
155.8037252751732
 30
0.0
 11
40.49233249177865
 21
94.45372527517356
 31
0.0
  0
ARC
  5
388
330
D48
100
AcDbEntity
  8
1
  6
Continuous
100
AcDbCircle
 10
53.99233249177864
 20
48.45322527517353
 30
0.0
 40
3.299999999999998
100
AcDbArc
 50
299.002
 51
60.99759999999998
  0
ARC
  5
389
330
D48
100
AcDbEntity
  8
1
  6
Continuous
100
AcDbCircle
 10
53.99233249177864
 20
48.45322527517353
 30
0.0
 40
4.7
100
AcDbArc
 50
289.903
 51
70.09730000000001
  0
ARC
  5
38A
330
D48
100
AcDbEntity
  8
1
  6
Continuous
100
AcDbCircle
 10
26.99233249177865
 20
48.45322527517353
 30
0.0
 40
4.7
100
AcDbArc
 50
109.9029999999998
 51
250.097
  0
ARC
  5
38B
330
D48
100
AcDbEntity
  8
1
  6
Continuous
100
AcDbCircle
 10
26.99233249177865
 20
48.45322527517353
 30
0.0
 40
3.299999999999998
100
AcDbArc
 50
119.0029999999999
 51
240.997
  0
LINE
  5
38C
330
D48
100
AcDbEntity
  8
1
  6
Continuous
100
AcDbLine
 10
55.59233249177866
 20
52.95322527517353
 30
0.0
 11
55.59233249177866
 21
43.95322527517352
 31
0.0
  0
LINE
  5
38D
330
D48
100
AcDbEntity
  8
1
  6
Continuous
100
AcDbLine
 10
25.39233249177867
 20
52.95322527517353
 30
0.0
 11
25.39233249177867
 21
43.95322527517352
 31
0.0
  0
LINE
  5
38E
330
D48
100
AcDbEntity
  8
1
  6
Continuous
100
AcDbLine
 10
46.49233249177864
 20
55.05322527517353
 30
0.0
 11
46.49233249177864
 21
43.55322527517353
 31
0.0
  0
LINE
  5
38F
330
D48
100
AcDbEntity
  8
1
  6
Continuous
100
AcDbLine
 10
34.49233249177868
 20
55.05322527517353
 30
0.0
 11
34.49233249177868
 21
43.55322527517353
 31
0.0
  0
LINE
  5
390
330
D48
100
AcDbEntity
  8
1
  6
Continuous
100
AcDbLine
 10
48.09233249177866
 20
53.45322527517353
 30
0.0
 11
48.09233249177866
 21
43.05322527517352
 31
0.0
  0
LINE
  5
391
330
D48
100
AcDbEntity
  8
1
  6
Continuous
100
AcDbLine
 10
32.89233249177866
 20
53.45322527517353
 30
0.0
 11
32.89233249177866
 21
43.05322527517352
 31
0.0
  0
LINE
  5
392
330
D48
100
AcDbEntity
  8
4
  6
CENTER
100
AcDbLine
 10
40.49233249177865
 20
60.05322527517353
 30
0.0
 11
40.49233249177865
 21
37.95322527517353
 31
0.0
  0
LINE
  5
393
330
D48
100
AcDbEntity
  8
1
  6
Continuous
100
AcDbLine
 10
53.99233249177864
 20
52.95322527517353
 30
0.0
 11
53.99233249177864
 21
43.95322527517352
 31
0.0
  0
LINE
  5
394
330
D48
100
AcDbEntity
  8
1
  6
Continuous
100
AcDbLine
 10
26.99233249177865
 20
52.95322527517353
 30
0.0
 11
26.99233249177865
 21
43.95322527517352
 31
0.0
  0
LINE
  5
395
330
D48
100
AcDbEntity
  8
1
  6
Continuous
100
AcDbLine
 10
30.39233249177866
 20
50.95322527517353
 30
0.0
 11
30.39233249177866
 21
45.95322527517352
 31
0.0
  0
LINE
  5
396
330
D48
100
AcDbEntity
  8
1
  6
Continuous
100
AcDbLine
 10
31.99233249177868
 20
51.04235469559763
 30
0.0
 11
31.99233249177868
 21
44.55322527517355
 31
0.0
  0
LINE
  5
397
330
D48
100
AcDbEntity
  8
1
  6
Continuous
100
AcDbLine
 10
48.99233249177864
 20
51.04235469559763
 30
0.0
 11
48.99233249177864
 21
44.55322527517355
 31
0.0
  0
LINE
  5
398
330
D48
100
AcDbEntity
  8
1
  6
Continuous
100
AcDbLine
 10
50.59233249177864
 20
50.95322527517353
 30
0.0
 11
50.59233249177864
 21
45.95322527517352
 31
0.0
  0
LINE
  5
399
330
D48
100
AcDbEntity
  8
4
  6
CENTER
100
AcDbLine
 10
22.27083249177866
 20
47.05322527517355
 30
0.0
 11
58.49233249177864
 21
47.05322527517355
 31
0.0
  0
TEXT
  5
39A
330
D48
100
AcDbEntity
  8
1
  6
Continuous
100
AcDbText
 10
10.00000153760811
 20
9.999999806846744
 30
0.0
 40
1.399999999999999
  1
LAYER
100
AcDbText
  0
TEXT
  5
39B
330
D48
100
AcDbEntity
  8
7
  6
Continuous
100
AcDbText
 10
10.00000153760811
 20
25.99999980684674
 30
0.0
 40
3.0
  1
CODE No.1019
100
AcDbText
  0
TEXT
  5
39C
330
D48
100
AcDbEntity
  8
7
  6
Continuous
100
AcDbText
 10
10.00000153760811
 20
17.99999980684674
 30
0.0
 40
3.0
  1
TYPE No.TL-11-3
100
AcDbText
  0
ARC
  5
39D
330
D48
100
AcDbEntity
  8
1
  6
Continuous
100
AcDbCircle
 10
53.99233249177864
 20
48.45322527517353
 30
0.0
 40
3.299999999999998
100
AcDbArc
 50
229.2509999999998
 51
270.0
  0
ARC
  5
39E
330
D48
100
AcDbEntity
  8
1
  6
Continuous
100
AcDbCircle
 10
53.99233249177864
 20
48.45322527517353
 30
0.0
 40
4.7
100
AcDbArc
 50
212.1349999999999
 51
286.775
  0
LINE
  5
39F
330
D48
100
AcDbEntity
  8
1
  6
Continuous
100
AcDbLine
 10
48.99233249177864
 20
45.95322527517352
 30
0.0
 11
53.99233249177864
 21
45.95322527517352
 31
0.0
  0
TEXT
  5
3A0
330
D48
100
AcDbEntity
  8
2
  6
Continuous
100
AcDbText
 10
19.97951253760809
 20
10.04873680684672
 30
0.0
 40
1.399999999999999
  1
2
100
AcDbText
  0
TEXT
  5
3A1
330
D48
100
AcDbEntity
  8
1
  6
Continuous
100
AcDbText
 10
17.97951253760809
 20
10.04873680684672
 30
0.0
 40
1.399999999999999
  1
1
100
AcDbText
  0
TEXT
  5
3A2
330
D48
100
AcDbEntity
  8
3
  6
DASHED
100
AcDbText
 10
21.97951253760811
 20
10.04873680684672
 30
0.0
 40
1.399999999999999
  1
3
100
AcDbText
  0
TEXT
  5
3A3
330
D48
100
AcDbEntity
  8
5
  6
PHANTOM
100
AcDbText
 10
25.97951253760811
 20
10.04873680684672
 30
0.0
 40
1.399999999999999
  1
5
100
AcDbText
  0
TEXT
  5
3A4
330
D48
100
AcDbEntity
  8
4
  6
CENTER
100
AcDbText
 10
23.9795125376081
 20
10.04873680684672
 30
0.0
 40
1.399999999999999
  1
4
100
AcDbText
  0
TEXT
  5
3A5
330
D48
100
AcDbEntity
  8
6
  6
Continuous
100
AcDbText
 10
27.97951253760811
 20
10.04873680684672
 30
0.0
 40
1.399999999999999
  1
6
100
AcDbText
  0
TEXT
  5
3A6
330
D48
100
AcDbEntity
  8
7
  6
Continuous
100
AcDbText
 10
29.97951253760811
 20
10.04873680684672
 30
0.0
 40
1.399999999999999
  1
7
100
AcDbText
  0
LINE
  5
3A7
330
D48
100
AcDbEntity
  8
1
  6
Continuous
100
AcDbLine
 10
34.99233249177868
 20
45.05322527517352
 30
0.0
 11
45.99233249177864
 21
45.05322527517352
 31
0.0
  0
LINE
  5
3A8
330
D48
100
AcDbEntity
  8
1
  6
Continuous
100
AcDbLine
 10
46.49233249177864
 20
46.95322527517353
 30
0.0
 11
34.49233249177868
 21
46.95322527517353
 31
0.0
  0
LINE
  5
3A9
330
D48
100
AcDbEntity
  8
1
  6
Continuous
100
AcDbLine
 10
32.89233249177866
 20
43.05322527517352
 30
0.0
 11
48.09233249177866
 21
43.05322527517352
 31
0.0
  0
ARC
  5
3AA
330
D48
100
AcDbEntity
  8
1
  6
Continuous
100
AcDbCircle
 10
26.99233249177865
 20
48.45322527517353
 30
0.0
 40
4.7
100
AcDbArc
 50
253.2249999999999
 51
327.865
  0
LINE
  5
3AB
330
D48
100
AcDbEntity
  8
1
  6
Continuous
100
AcDbLine
 10
26.99233249177865
 20
45.95322527517352
 30
0.0
 11
31.99233249177868
 21
45.95322527517352
 31
0.0
  0
LINE
  5
3AC
330
D48
100
AcDbEntity
  8
1
  6
Continuous
100
AcDbLine
 10
25.39233249177867
 20
43.95322527517352
 30
0.0
 11
26.99233249177865
 21
43.95322527517352
 31
0.0
  0
ARC
  5
3AD
330
D48
100
AcDbEntity
  8
1
  6
Continuous
100
AcDbCircle
 10
26.99233249177865
 20
48.45322527517353
 30
0.0
 40
3.299999999999998
100
AcDbArc
 50
270.0
 51
310.749
  0
LINE
  5
3AE
330
D48
100
AcDbEntity
  8
1
  6
Continuous
100
AcDbLine
 10
28.59233249177865
 20
44.03402527517353
 30
0.0
 11
28.59233249177865
 21
43.95322527517352
 31
0.0
  0
LINE
  5
3AF
330
D48
100
AcDbEntity
  8
1
  6
Continuous
100
AcDbLine
 10
28.34883249177865
 20
43.95322527517352
 30
0.0
 11
28.59233249177865
 21
43.95322527517352
 31
0.0
  0
LINE
  5
3B0
330
D48
100
AcDbEntity
  8
1
  6
Continuous
100
AcDbLine
 10
28.59233249177865
 20
45.95322527517352
 30
0.0
 11
28.59233249177865
 21
45.56712527517353
 31
0.0
  0
LINE
  5
3B1
330
D48
100
AcDbEntity
  8
1
  6
Continuous
100
AcDbLine
 10
32.89233249177866
 20
43.55322527517353
 30
0.0
 11
34.49233249177868
 21
43.55322527517353
 31
0.0
  0
LINE
  5
3B2
330
D48
100
AcDbEntity
  8
1
  6
Continuous
100
AcDbLine
 10
30.39233249177866
 20
44.55322527517355
 30
0.0
 11
31.99233249177868
 21
44.55322527517355
 31
0.0
  0
LINE
  5
3B3
330
D48
100
AcDbEntity
  8
1
  6
Continuous
100
AcDbLine
 10
31.99233249177868
 20
45.55322527517352
 30
0.0
 11
32.89233249177866
 21
45.55322527517352
 31
0.0
  0
LINE
  5
3B4
330
D48
100
AcDbEntity
  8
1
  6
Continuous
100
AcDbLine
 10
31.99233249177868
 20
46.95322527517353
 30
0.0
 11
32.89233249177866
 21
46.95322527517353
 31
0.0
  0
LINE
  5
3B5
330
D48
100
AcDbEntity
  8
1
  6
Continuous
100
AcDbLine
 10
30.39233249177866
 20
45.10662527517354
 30
0.0
 11
30.39233249177866
 21
44.55322527517355
 31
0.0
  0
LINE
  5
3B6
330
D48
100
AcDbEntity
  8
1
  6
Continuous
100
AcDbLine
 10
34.49233249177868
 20
44.65322527517352
 30
0.0
 11
34.99233249177868
 21
44.65322527517352
 31
0.0
  0
LINE
  5
3B7
330
D48
100
AcDbEntity
  8
1
  6
Continuous
100
AcDbLine
 10
34.99233249177868
 20
46.95322527517353
 30
0.0
 11
34.99233249177868
 21
43.05322527517352
 31
0.0
  0
LINE
  5
3B8
330
D48
100
AcDbEntity
  8
1
  6
Continuous
100
AcDbLine
 10
34.49233249177868
 20
45.05322527517352
 30
0.0
 11
34.99233249177868
 21
45.05322527517352
 31
0.0
  0
LINE
  5
3B9
330
D48
100
AcDbEntity
  8
1
  6
Continuous
100
AcDbLine
 10
50.59233249177864
 20
44.55322527517355
 30
0.0
 11
48.99233249177864
 21
44.55322527517355
 31
0.0
  0
LINE
  5
3BA
330
D48
100
AcDbEntity
  8
1
  6
Continuous
100
AcDbLine
 10
48.99233249177864
 20
45.55322527517352
 30
0.0
 11
48.09233249177866
 21
45.55322527517352
 31
0.0
  0
LINE
  5
3BB
330
D48
100
AcDbEntity
  8
1
  6
Continuous
100
AcDbLine
 10
46.49233249177864
 20
44.65322527517352
 30
0.0
 11
45.99233249177864
 21
44.65322527517352
 31
0.0
  0
LINE
  5
3BC
330
D48
100
AcDbEntity
  8
1
  6
Continuous
100
AcDbLine
 10
45.99233249177864
 20
46.95322527517353
 30
0.0
 11
45.99233249177864
 21
43.05322527517352
 31
0.0
  0
LINE
  5
3BD
330
D48
100
AcDbEntity
  8
1
  6
Continuous
100
AcDbLine
 10
48.09233249177866
 20
46.95322527517353
 30
0.0
 11
48.99233249177864
 21
46.95322527517353
 31
0.0
  0
LINE
  5
3BE
330
D48
100
AcDbEntity
  8
1
  6
Continuous
100
AcDbLine
 10
45.99233249177864
 20
45.05322527517352
 30
0.0
 11
46.49233249177864
 21
45.05322527517352
 31
0.0
  0
LINE
  5
3BF
330
D48
100
AcDbEntity
  8
1
  6
Continuous
100
AcDbLine
 10
46.49233249177864
 20
43.55322527517353
 30
0.0
 11
48.09233249177866
 21
43.55322527517353
 31
0.0
  0
LINE
  5
3C0
330
D48
100
AcDbEntity
  8
1
  6
Continuous
100
AcDbLine
 10
50.59233249177864
 20
45.10662527517354
 30
0.0
 11
50.59233249177864
 21
44.55322527517355
 31
0.0
  0
LINE
  5
3C1
330
D48
100
AcDbEntity
  8
1
  6
Continuous
100
AcDbLine
 10
52.39233249177863
 20
44.03402527517353
 30
0.0
 11
52.39233249177863
 21
43.95322527517352
 31
0.0
  0
LINE
  5
3C2
330
D48
100
AcDbEntity
  8
1
  6
Continuous
100
AcDbLine
 10
52.39233249177863
 20
43.95322527517352
 30
0.0
 11
52.63593249177866
 21
43.95322527517352
 31
0.0
  0
LINE
  5
3C3
330
D48
100
AcDbEntity
  8
1
  6
Continuous
100
AcDbLine
 10
52.39233249177863
 20
45.95322527517352
 30
0.0
 11
52.39233249177863
 21
45.56712527517353
 31
0.0
  0
LINE
  5
3C4
330
D48
100
AcDbEntity
  8
1
  6
Continuous
100
AcDbLine
 10
53.99233249177864
 20
43.95322527517352
 30
0.0
 11
55.59233249177866
 21
43.95322527517352
 31
0.0
  0
LINE
  5
3C5
330
D48
100
AcDbEntity
  8
4
  6
CENTER
100
AcDbLine
 10
61.59233249177868
 20
48.45322527517353
 30
0.0
 11
19.39233249177867
 21
48.45322527517353
 31
0.0
  0
ARC
  5
3C6
330
D48
100
AcDbEntity
  8
1
  6
Continuous
100
AcDbCircle
 10
53.99233249177864
 20
48.45322527517353
 30
0.0
 40
3.299999999999998
100
AcDbArc
 50
90.0
 51
130.749
  0
ARC
  5
3C7
330
D48
100
AcDbEntity
  8
1
  6
Continuous
100
AcDbCircle
 10
53.99233249177864
 20
48.45322527517353
 30
0.0
 40
4.7
100
AcDbArc
 50
73.2253
 51
147.865
  0
LINE
  5
3C8
330
D48
100
AcDbEntity
  8
1
  6
Continuous
100
AcDbLine
 10
48.99233249177864
 20
50.95322527517353
 30
0.0
 11
53.99233249177864
 21
50.95322527517353
 31
0.0
  0
ARC
  5
3C9
330
D48
100
AcDbEntity
  8
1
  6
Continuous
100
AcDbCircle
 10
40.49233249177865
 20
40.80322527517353
 30
0.0
 40
12.75
100
AcDbArc
 50
61.9275
 51
118.0719999999999
  0
ARC
  5
3CA
330
D48
100
AcDbEntity
  8
1
  6
Continuous
100
AcDbCircle
 10
40.49233249177865
 20
39.60522527517353
 30
0.0
 40
12.3968
100
AcDbArc
 50
61.0532
 51
118.947
  0
LINE
  5
3CB
330
D48
100
AcDbEntity
  8
1
  6
Continuous
100
AcDbLine
 10
46.49233249177864
 20
49.95322527517354
 30
0.0
 11
34.49233249177868
 21
49.95322527517354
 31
0.0
  0
LINE
  5
3CC
330
D48
100
AcDbEntity
  8
1
  6
Continuous
100
AcDbLine
 10
34.49233249177868
 20
50.05322527517353
 30
0.0
 11
46.49233249177864
 21
50.05322527517353
 31
0.0
  0
LINE
  5
3CD
330
D48
100
AcDbEntity
  8
1
  6
Continuous
100
AcDbLine
 10
46.49233249177864
 20
50.45322527517353
 30
0.0
 11
34.49233249177868
 21
50.45322527517353
 31
0.0
  0
LINE
  5
3CE
330
D48
100
AcDbEntity
  8
1
  6
Continuous
100
AcDbLine
 10
34.49233249177868
 20
55.05322527517353
 30
0.0
 11
46.49233249177864
 21
55.05322527517353
 31
0.0
  0
ARC
  5
3CF
330
D48
100
AcDbEntity
  8
1
  6
Continuous
100
AcDbCircle
 10
26.99233249177865
 20
48.45322527517353
 30
0.0
 40
4.7
100
AcDbArc
 50
32.1349
 51
106.7749999999998
  0
LINE
  5
3D0
330
D48
100
AcDbEntity
  8
1
  6
Continuous
100
AcDbLine
 10
29.49233249177868
 20
47.45322527517354
 30
0.0
 11
30.39233249177866
 21
47.45322527517354
 31
0.0
  0
LINE
  5
3D1
330
D48
100
AcDbEntity
  8
1
  6
Continuous
100
AcDbLine
 10
29.49233249177868
 20
49.45322527517355
 30
0.0
 11
30.39233249177866
 21
49.45322527517355
 31
0.0
  0
LINE
  5
3D2
330
D48
100
AcDbEntity
  8
1
  6
Continuous
100
AcDbLine
 10
26.99233249177865
 20
50.95322527517353
 30
0.0
 11
31.99233249177868
 21
50.95322527517353
 31
0.0
  0
ARC
  5
3D3
330
D48
100
AcDbEntity
  8
1
  6
Continuous
100
AcDbCircle
 10
26.99233249177865
 20
48.45322527517353
 30
0.0
 40
3.299999999999998
100
AcDbArc
 50
49.2509
 51
90.0
  0
LINE
  5
3D4
330
D48
100
AcDbEntity
  8
1
  6
Continuous
100
AcDbLine
 10
29.49233249177868
 20
49.45322527517355
 30
0.0
 11
29.49233249177868
 21
47.45322527517354
 31
0.0
  0
LINE
  5
3D5
330
D48
100
AcDbEntity
  8
1
  6
Continuous
100
AcDbLine
 10
28.59233249177865
 20
51.33942527517353
 30
0.0
 11
28.59233249177865
 21
50.95322527517353
 31
0.0
  0
LINE
  5
3D6
330
D48
100
AcDbEntity
  8
1
  6
Continuous
100
AcDbLine
 10
25.39233249177867
 20
52.95322527517353
 30
0.0
 11
26.99233249177865
 21
52.95322527517353
 31
0.0
  0
LINE
  5
3D7
330
D48
100
AcDbEntity
  8
1
  6
Continuous
100
AcDbLine
 10
28.34883249177865
 20
52.95322527517353
 30
0.0
 11
28.59233249177865
 21
52.95322527517353
 31
0.0
  0
LINE
  5
3D8
330
D48
100
AcDbEntity
  8
1
  6
Continuous
100
AcDbLine
 10
28.59233249177865
 20
52.95322527517353
 30
0.0
 11
28.59233249177865
 21
52.87252527517353
 31
0.0
  0
LINE
  5
3D9
330
D48
100
AcDbEntity
  8
1
  6
Continuous
100
AcDbLine
 10
31.99233249177868
 20
49.95322527517354
 30
0.0
 11
32.89233249177866
 21
49.95322527517354
 31
0.0
  0
LINE
  5
3DA
330
D48
100
AcDbEntity
  8
1
  6
Continuous
100
AcDbLine
 10
34.99233249177868
 20
50.45322527517353
 30
0.0
 11
34.99233249177868
 21
49.95322527517354
 31
0.0
  0
ARC
  5
3DB
330
D48
100
AcDbEntity
  8
1
  6
Continuous
100
AcDbCircle
 10
34.49233249177868
 20
53.45322527517353
 30
0.0
 40
1.6
100
AcDbArc
 50
90.0
 51
180.0
  0
LINE
  5
3DC
330
D48
100
AcDbEntity
  8
1
  6
Continuous
100
AcDbLine
 10
48.09233249177866
 20
49.95322527517354
 30
0.0
 11
48.99233249177864
 21
49.95322527517354
 31
0.0
  0
LINE
  5
3DD
330
D48
100
AcDbEntity
  8
1
  6
Continuous
100
AcDbLine
 10
45.99233249177864
 20
50.45322527517353
 30
0.0
 11
45.99233249177864
 21
49.95322527517354
 31
0.0
  0
LINE
  5
3DE
330
D48
100
AcDbEntity
  8
1
  6
Continuous
100
AcDbLine
 10
51.49233249177864
 20
49.45322527517355
 30
0.0
 11
51.49233249177864
 21
47.45322527517354
 31
0.0
  0
LINE
  5
3DF
330
D48
100
AcDbEntity
  8
1
  6
Continuous
100
AcDbLine
 10
50.59233249177864
 20
47.45322527517354
 30
0.0
 11
51.49233249177864
 21
47.45322527517354
 31
0.0
  0
LINE
  5
3E0
330
D48
100
AcDbEntity
  8
1
  6
Continuous
100
AcDbLine
 10
50.59233249177864
 20
49.45322527517355
 30
0.0
 11
51.49233249177864
 21
49.45322527517355
 31
0.0
  0
LINE
  5
3E1
330
D48
100
AcDbEntity
  8
1
  6
Continuous
100
AcDbLine
 10
52.39233249177863
 20
51.33942527517353
 30
0.0
 11
52.39233249177863
 21
50.95322527517353
 31
0.0
  0
ARC
  5
3E2
330
D48
100
AcDbEntity
  8
1
  6
Continuous
100
AcDbCircle
 10
46.49233249177864
 20
53.45322527517353
 30
0.0
 40
1.6
100
AcDbArc
 50
0.0
 51
90.0
  0
LINE
  5
3E3
330
D48
100
AcDbEntity
  8
1
  6
Continuous
100
AcDbLine
 10
52.39233249177863
 20
52.95322527517353
 30
0.0
 11
52.63593249177866
 21
52.95322527517353
 31
0.0
  0
LINE
  5
3E4
330
D48
100
AcDbEntity
  8
1
  6
Continuous
100
AcDbLine
 10
52.39233249177863
 20
52.95322527517353
 30
0.0
 11
52.39233249177863
 21
52.87252527517353
 31
0.0
  0
LINE
  5
3E5
330
D48
100
AcDbEntity
  8
1
  6
Continuous
100
AcDbLine
 10
53.99233249177864
 20
52.95322527517353
 30
0.0
 11
55.59233249177866
 21
52.95322527517353
 31
0.0
  0
LINE
  5
3E6
330
D48
100
AcDbEntity
  8
4
  6
CENTER
100
AcDbLine
 10
27.49233249177865
 20
117.4537252751735
 30
0.0
 11
53.49233249177864
 21
117.4537252751735
 31
0.0
  0
ARC
  5
3E7
330
D48
100
AcDbEntity
  8
1
  6
Continuous
100
AcDbCircle
 10
40.49233249177865
 20
105.4537252751735
 30
0.0
 40
6.0
100
AcDbArc
 50
180.0
 51
0.00001
  0
LINE
  5
3E8
330
D48
100
AcDbEntity
  8
1
  6
Continuous
100
AcDbLine
 10
35.49233249177865
 20
113.4537252751735
 30
0.0
 11
45.49233249177865
 21
113.4537252751735
 31
0.0
  0
LINE
  5
3E9
330
D48
100
AcDbEntity
  8
1
  6
Continuous
100
AcDbLine
 10
35.49233249177865
 20
106.7627252751734
 30
0.0
 11
45.49233249177865
 21
106.7627252751734
 31
0.0
  0
LINE
  5
3EA
330
D48
100
AcDbEntity
  8
1
  6
Continuous
100
AcDbLine
 10
34.49233249177865
 20
113.4537252751735
 30
0.0
 11
34.49233249177865
 21
105.4537252751735
 31
0.0
  0
LINE
  5
3EB
330
D48
100
AcDbEntity
  8
1
  6
Continuous
100
AcDbLine
 10
30.39233249177868
 20
118.4537252751735
 30
0.0
 11
29.49233249177865
 21
118.4537252751735
 31
0.0
  0
LINE
  5
3EC
330
D48
100
AcDbEntity
  8
1
  6
Continuous
100
AcDbLine
 10
30.39233249177868
 20
116.4537252751735
 30
0.0
 11
29.49233249177865
 21
116.4537252751735
 31
0.0
  0
LINE
  5
3ED
330
D48
100
AcDbEntity
  8
1
  6
Continuous
100
AcDbLine
 10
29.49233249177865
 20
118.4537252751735
 30
0.0
 11
29.49233249177865
 21
116.4537252751735
 31
0.0
  0
LINE
  5
3EE
330
D48
100
AcDbEntity
  8
1
  6
Continuous
100
AcDbLine
 10
31.99233249177865
 20
120.1947022751735
 30
0.0
 11
31.99233249177865
 21
113.9537252751735
 31
0.0
  0
LINE
  5
3EF
330
D48
100
AcDbEntity
  8
1
  6
Continuous
100
AcDbLine
 10
30.39233249177868
 20
120.1947022751735
 30
0.0
 11
30.39233249177868
 21
113.9537252751735
 31
0.0
  0
LINE
  5
3F0
330
D48
100
AcDbEntity
  8
1
  6
Continuous
100
AcDbLine
 10
32.89233249177868
 20
113.4537252751735
 30
0.0
 11
34.49233249177865
 21
113.4537252751735
 31
0.0
  0
LINE
  5
3F1
330
D48
100
AcDbEntity
  8
1
  6
Continuous
100
AcDbLine
 10
30.39233249177868
 20
113.9537252751735
 30
0.0
 11
31.99233249177865
 21
113.9537252751735
 31
0.0
  0
LINE
  5
3F2
330
D48
100
AcDbEntity
  8
1
  6
Continuous
100
AcDbLine
 10
32.89233249177868
 20
115.9537252751735
 30
0.0
 11
31.99233249177865
 21
115.9537252751735
 31
0.0
  0
ARC
  5
3F3
330
D48
100
AcDbEntity
  8
1
  6
Continuous
100
AcDbCircle
 10
29.89233249177869
 20
120.1947022751735
 30
0.0
 40
0.5
100
AcDbArc
 50
0.0
 51
51.2032
  0
LINE
  5
3F4
330
D48
100
AcDbEntity
  8
1
  6
Continuous
100
AcDbLine
 10
32.89233249177868
 20
118.9537252751735
 30
0.0
 11
31.99233249177865
 21
118.9537252751735
 31
0.0
  0
LINE
  5
3F5
330
D48
100
AcDbEntity
  8
1
  6
Continuous
100
AcDbLine
 10
32.49233249177865
 20
119.9537252751735
 30
0.0
 11
32.89233249177868
 21
119.9537252751735
 31
0.0
  0
LINE
  5
3F6
330
D48
100
AcDbEntity
  8
1
  6
Continuous
100
AcDbLine
 10
46.49233249177864
 20
113.4537252751735
 30
0.0
 11
46.49233249177864
 21
105.4537252751735
 31
0.0
  0
LINE
  5
3F7
330
D48
100
AcDbEntity
  8
4
  6
CENTER
100
AcDbLine
 10
37.99233249177865
 20
106.9537252751735
 30
0.0
 11
42.99233249177865
 21
106.9537252751735
 31
0.0
  0
LINE
  5
3F8
330
D48
100
AcDbEntity
  8
1
  6
Continuous
100
AcDbLine
 10
50.59233249177862
 20
120.1947022751735
 30
0.0
 11
50.59233249177862
 21
113.9537252751735
 31
0.0
  0
LINE
  5
3F9
330
D48
100
AcDbEntity
  8
1
  6
Continuous
100
AcDbLine
 10
48.99233249177864
 20
120.1947022751735
 30
0.0
 11
48.99233249177864
 21
113.9537252751735
 31
0.0
  0
LINE
  5
3FA
330
D48
100
AcDbEntity
  8
1
  6
Continuous
100
AcDbLine
 10
50.59233249177862
 20
113.9537252751735
 30
0.0
 11
48.99233249177864
 21
113.9537252751735
 31
0.0
  0
LINE
  5
3FB
330
D48
100
AcDbEntity
  8
1
  6
Continuous
100
AcDbLine
 10
48.99233249177864
 20
115.9537252751735
 30
0.0
 11
48.09233249177868
 21
115.9537252751735
 31
0.0
  0
LINE
  5
3FC
330
D48
100
AcDbEntity
  8
1
  6
Continuous
100
AcDbLine
 10
46.49233249177864
 20
113.4537252751735
 30
0.0
 11
48.09233249177868
 21
113.4537252751735
 31
0.0
  0
LINE
  5
3FD
330
D48
100
AcDbEntity
  8
1
  6
Continuous
100
AcDbLine
 10
48.99233249177864
 20
118.9537252751735
 30
0.0
 11
48.09233249177868
 21
118.9537252751735
 31
0.0
  0
LINE
  5
3FE
330
D48
100
AcDbEntity
  8
1
  6
Continuous
100
AcDbLine
 10
48.09233249177868
 20
119.9537252751735
 30
0.0
 11
48.49233249177864
 21
119.9537252751735
 31
0.0
  0
LINE
  5
3FF
330
D48
100
AcDbEntity
  8
1
  6
Continuous
100
AcDbLine
 10
51.49233249177864
 20
118.4537252751735
 30
0.0
 11
50.59233249177862
 21
118.4537252751735
 31
0.0
  0
LINE
  5
400
330
D48
100
AcDbEntity
  8
1
  6
Continuous
100
AcDbLine
 10
51.49233249177864
 20
116.4537252751735
 30
0.0
 11
50.59233249177862
 21
116.4537252751735
 31
0.0
  0
LINE
  5
401
330
D48
100
AcDbEntity
  8
1
  6
Continuous
100
AcDbLine
 10
51.49233249177864
 20
118.4537252751735
 30
0.0
 11
51.49233249177864
 21
116.4537252751735
 31
0.0
  0
ARC
  5
402
330
D48
100
AcDbEntity
  8
1
  6
Continuous
100
AcDbCircle
 10
51.09261263375072
 20
120.1950157952361
 30
0.0
 40
0.5
100
AcDbArc
 50
128.7968
 51
180.0
  0
ARC
  5
416
330
D48
100
AcDbEntity
  8
1
  6
Continuous
100
AcDbCircle
 10
22.99233249177865
 20
129.0218602751733
 30
0.0
 40
0.7
100
AcDbArc
 50
97.60824800000001
 51
277.6082479999999
  0
ARC
  5
417
330
D48
100
AcDbEntity
  8
1
  6
Continuous
100
AcDbCircle
 10
22.99233249177865
 20
131.0590602751734
 30
0.0
 40
0.7
100
AcDbArc
 50
97.60824800000001
 51
277.6082479999999
  0
ARC
  5
418
330
D48
100
AcDbEntity
  8
1
  6
Continuous
100
AcDbCircle
 10
22.99233249177865
 20
133.0962602751732
 30
0.0
 40
0.7
100
AcDbArc
 50
97.60824800000001
 51
277.6082479999999
  0
ARC
  5
419
330
D48
100
AcDbEntity
  8
1
  6
Continuous
100
AcDbCircle
 10
22.99233249177865
 20
135.1334602751733
 30
0.0
 40
0.7
100
AcDbArc
 50
97.60824800000001
 51
277.6082479999999
  0
ARC
  5
41A
330
D48
100
AcDbEntity
  8
1
  6
Continuous
100
AcDbCircle
 10
22.99233249177865
 20
137.1706602751734
 30
0.0
 40
0.7
100
AcDbArc
 50
97.60824800000001
 51
277.6082479999999
  0
ARC
  5
41B
330
D48
100
AcDbEntity
  8
1
  6
Continuous
100
AcDbCircle
 10
22.99233249177865
 20
126.9846352751732
 30
0.0
 40
0.7
100
AcDbArc
 50
97.60842700000004
 51
277.608427
  0
ARC
  5
41C
330
D48
100
AcDbEntity
  8
1
  6
Continuous
100
AcDbCircle
 10
22.99233249177865
 20
138.9392602751734
 30
0.0
 40
0.7
100
AcDbArc
 50
180.0
 51
264.999355
  0
LINE
  5
41D
330
D48
100
AcDbEntity
  8
1
  6
Continuous
100
AcDbLine
 10
22.29233249177866
 20
138.9392602751734
 30
0.0
 11
25.39233249177868
 21
138.9392602751734
 31
0.0
  0
LINE
  5
41E
330
D48
100
AcDbEntity
  8
1
  6
Continuous
100
AcDbLine
 10
53.99233249177864
 20
141.4392482751735
 30
0.0
 11
52.39233249177869
 21
141.4392482751735
 31
0.0
  0
ARC
  5
41F
330
D48
100
AcDbEntity
  8
1
  6
Continuous
100
AcDbCircle
 10
51.89233249177869
 20
124.1737022751735
 30
0.0
 40
2.1
100
AcDbArc
 50
308.7969999999998
 51
0.000000000000007
  0
LINE
  5
420
330
D48
100
AcDbEntity
  8
1
  6
Continuous
100
AcDbLine
 10
57.89965249177865
 20
134.8586982751734
 30
0.0
 11
49.89965249177868
 21
133.7900982751732
 31
0.0
  0
LINE
  5
421
330
D48
100
AcDbEntity
  8
1
  6
Continuous
100
AcDbLine
 10
57.89965249177865
 20
138.9330982751735
 30
0.0
 11
49.89965249177868
 21
137.8644982751733
 31
0.0
  0
LINE
  5
422
330
D48
100
AcDbEntity
  8
1
  6
Continuous
100
AcDbLine
 10
58.08501149177866
 20
137.5454232751734
 30
0.0
 11
50.08501149177869
 21
136.4768232751734
 31
0.0
  0
LINE
  5
423
330
D48
100
AcDbEntity
  8
1
  6
Continuous
100
AcDbLine
 10
57.89965249177865
 20
136.8958982751734
 30
0.0
 11
49.89965249177868
 21
135.8272982751735
 31
0.0
  0
LINE
  5
424
330
D48
100
AcDbEntity
  8
1
  6
Continuous
100
AcDbLine
 10
58.08501149177866
 20
135.5082232751735
 30
0.0
 11
50.08501149177869
 21
134.4396232751735
 31
0.0
  0
LINE
  5
425
330
D48
100
AcDbEntity
  8
1
  6
Continuous
100
AcDbLine
 10
58.08501149177866
 20
133.4710232751735
 30
0.0
 11
50.08501149177869
 21
132.4024232751734
 31
0.0
  0
LINE
  5
426
330
D48
100
AcDbEntity
  8
1
  6
Continuous
100
AcDbLine
 10
57.89965249177865
 20
132.8214982751733
 30
0.0
 11
49.89965249177868
 21
131.7528982751734
 31
0.0
  0
LINE
  5
427
330
D48
100
AcDbEntity
  8
1
  6
Continuous
100
AcDbLine
 10
58.08501149177866
 20
131.4338232751733
 30
0.0
 11
50.08501149177869
 21
130.3652232751733
 31
0.0
  0
LINE
  5
428
330
D48
100
AcDbEntity
  8
1
  6
Continuous
100
AcDbLine
 10
57.89965249177865
 20
130.7842982751734
 30
0.0
 11
49.89965249177868
 21
129.7156982751733
 31
0.0
  0
LINE
  5
429
330
D48
100
AcDbEntity
  8
1
  6
Continuous
100
AcDbLine
 10
58.08501149177866
 20
129.3966232751733
 30
0.0
 11
50.08501149177869
 21
128.3280232751733
 31
0.0
  0
LINE
  5
42A
330
D48
100
AcDbEntity
  8
1
  6
Continuous
100
AcDbLine
 10
57.89965049177865
 20
128.7470982751734
 30
0.0
 11
49.89965049177868
 21
127.6784722751733
 31
0.0
  0
LINE
  5
42B
330
D48
100
AcDbEntity
  8
1
  6
Continuous
100
AcDbLine
 10
58.08501349177868
 20
127.3594232751734
 30
0.0
 11
50.08501349177868
 21
126.2907982751734
 31
0.0
  0
LINE
  5
42C
330
D48
100
AcDbEntity
  8
1
  6
Continuous
100
AcDbLine
 10
49.29233249177865
 20
138.9392602751734
 30
0.0
 11
53.99233249177864
 21
138.9392602751734
 31
0.0
  0
LINE
  5
42D
330
D48
100
AcDbEntity
  8
1
  6
Continuous
100
AcDbLine
 10
53.49233249177864
 20
145.8909822751735
 30
0.0
 11
51.09233249177868
 21
145.8909822751735
 31
0.0
  0
LINE
  5
42E
330
D48
100
AcDbEntity
  8
1
  6
Continuous
100
AcDbLine
 10
53.49233249177864
 20
144.2909822751734
 30
0.0
 11
51.09233249177868
 21
144.2909822751734
 31
0.0
  0
LINE
  5
42F
330
D48
100
AcDbEntity
  8
4
  6
CENTER
100
AcDbLine
 10
53.49233249177864
 20
149.3037252751734
 30
0.0
 11
27.49233249177865
 21
149.3037252751734
 31
0.0
  0
LINE
  5
430
330
D48
100
AcDbEntity
  8
1
  6
Continuous
100
AcDbLine
 10
26.99233249177865
 20
143.7909822751734
 30
0.0
 11
26.99233249177865
 21
138.4111780061734
 31
0.0
  0
LINE
  5
431
330
D48
100
AcDbEntity
  8
1
  6
Continuous
100
AcDbLine
 10
25.39233249177868
 20
143.7909822751734
 30
0.0
 11
25.39233249177868
 21
138.1974580061734
 31
0.0
  0
LINE
  5
432
330
D48
100
AcDbEntity
  8
1
  6
Continuous
100
AcDbLine
 10
35.49233249177865
 20
133.4537252751735
 30
0.0
 11
45.49233249177865
 21
133.4537252751735
 31
0.0
  0
LINE
  5
433
330
D48
100
AcDbEntity
  8
1
  6
Continuous
100
AcDbLine
 10
32.89233249177868
 20
137.4537252751735
 30
0.0
 11
48.09233249177868
 21
137.4537252751735
 31
0.0
  0
ARC
  5
434
330
D48
100
AcDbEntity
  8
1
  6
Continuous
100
AcDbCircle
 10
30.99233249177865
 20
132.1276602751733
 30
0.0
 40
0.7
100
AcDbArc
 50
277.6082479999999
 51
97.60824800000001
  0
LINE
  5
435
330
D48
100
AcDbEntity
  8
1
  6
Continuous
100
AcDbLine
 10
25.39233249177868
 20
132.7106232751734
 30
0.0
 11
25.39233249177868
 21
132.0858582751734
 31
0.0
  0
LINE
  5
436
330
D48
100
AcDbEntity
  8
1
  6
Continuous
100
AcDbLine
 10
30.89965249177862
 20
132.8214982751733
 30
0.0
 11
22.89965249177868
 21
131.7528982751734
 31
0.0
  0
LINE
  5
437
330
D48
100
AcDbEntity
  8
1
  6
Continuous
100
AcDbLine
 10
32.49233249177865
 20
134.9537252751735
 30
0.0
 11
32.49233249177865
 21
131.9537252751735
 31
0.0
  0
LINE
  5
438
330
D48
100
AcDbEntity
  8
1
  6
Continuous
100
AcDbLine
 10
28.59233249177867
 20
126.2846352751733
 30
0.0
 11
31.69233249177864
 21
126.2846352751733
 31
0.0
  0
LINE
  5
439
330
D48
100
AcDbEntity
  8
1
  6
Continuous
100
AcDbLine
 10
31.08501349177868
 20
127.3594232751734
 30
0.0
 11
23.08501349177868
 21
126.2907982751734
 31
0.0
  0
LINE
  5
43A
330
D48
100
AcDbEntity
  8
1
  6
Continuous
100
AcDbLine
 10
30.89965049177861
 20
128.7470982751734
 30
0.0
 11
22.89965049177868
 21
127.6784722751733
 31
0.0
  0
LINE
  5
43B
330
D48
100
AcDbEntity
  8
1
  6
Continuous
100
AcDbLine
 10
31.08501149177868
 20
129.3966232751733
 30
0.0
 11
23.08501149177868
 21
128.3280232751733
 31
0.0
  0
LINE
  5
43C
330
D48
100
AcDbEntity
  8
1
  6
Continuous
100
AcDbLine
 10
30.89965249177862
 20
130.7842982751734
 30
0.0
 11
22.89965249177868
 21
129.7156982751733
 31
0.0
  0
LINE
  5
43D
330
D48
100
AcDbEntity
  8
1
  6
Continuous
100
AcDbLine
 10
31.08501149177868
 20
131.4338232751733
 30
0.0
 11
23.08501149177868
 21
130.3652232751733
 31
0.0
  0
LINE
  5
43E
330
D48
100
AcDbEntity
  8
1
  6
Continuous
100
AcDbLine
 10
28.59233249177867
 20
131.0172582751735
 30
0.0
 11
31.08501149177868
 21
130.7842982751734
 31
0.0
  0
LINE
  5
43F
330
D48
100
AcDbEntity
  8
1
  6
Continuous
100
AcDbLine
 10
28.59233249177867
 20
128.9800582751734
 30
0.0
 11
31.08501149177868
 21
128.7470982751734
 31
0.0
  0
LINE
  5
440
330
D48
100
AcDbEntity
  8
1
  6
Continuous
100
AcDbLine
 10
29.36515449177864
 20
127.1296872751732
 30
0.0
 11
31.05334949177864
 21
126.9819702751734
 31
0.0
  0
LINE
  5
441
330
D48
100
AcDbEntity
  8
1
  6
Continuous
100
AcDbLine
 10
28.77933249177869
 20
123.7837022751735
 30
0.0
 11
31.20833249177866
 21
121.8317022751735
 31
0.0
  0
LINE
  5
442
330
D48
100
AcDbEntity
  8
1
  6
Continuous
100
AcDbLine
 10
28.59233249177867
 20
127.0264556209703
 30
0.0
 11
28.59233249177867
 21
124.1737022751735
 31
0.0
  0
LINE
  5
443
330
D48
100
AcDbEntity
  8
1
  6
Continuous
100
AcDbLine
 10
22.99233249177865
 20
126.2846352751733
 30
0.0
 11
26.99233249177865
 21
126.2846352751733
 31
0.0
  0
LINE
  5
444
330
D48
100
AcDbEntity
  8
1
  6
Continuous
100
AcDbLine
 10
25.39233249177868
 20
123.7847022751733
 30
0.0
 11
26.99233249177865
 21
123.7847022751733
 31
0.0
  0
LINE
  5
445
330
D48
100
AcDbEntity
  8
1
  6
Continuous
100
AcDbLine
 10
25.39233249177868
 20
126.5990056209703
 30
0.0
 11
25.39233249177868
 21
123.7847022751733
 31
0.0
  0
ARC
  5
446
330
D48
100
AcDbEntity
  8
1
  6
Continuous
100
AcDbCircle
 10
29.09233249177868
 20
124.1737022751735
 30
0.0
 40
2.1
100
AcDbArc
 50
180.0
 51
231.203
  0
ARC
  5
447
330
D48
100
AcDbEntity
  8
1
  6
Continuous
100
AcDbCircle
 10
29.09233249177868
 20
124.1737022751735
 30
0.0
 40
0.5
100
AcDbArc
 50
180.0
 51
231.203
  0
LINE
  5
448
330
D48
100
AcDbEntity
  8
1
  6
Continuous
100
AcDbLine
 10
26.99233249177865
 20
126.8127306209703
 30
0.0
 11
26.99233249177865
 21
123.7847022751733
 31
0.0
  0
LINE
  5
449
330
D48
100
AcDbEntity
  8
1
  6
Continuous
100
AcDbLine
 10
22.89965249177868
 20
130.3652232751733
 30
0.0
 11
25.39233249177868
 21
130.1322632751732
 31
0.0
  0
LINE
  5
44A
330
D48
100
AcDbEntity
  8
1
  6
Continuous
100
AcDbLine
 10
25.39233249177868
 20
130.6734232751733
 30
0.0
 11
25.39233249177868
 21
130.0486582751734
 31
0.0
  0
LINE
  5
44B
330
D48
100
AcDbEntity
  8
1
  6
Continuous
100
AcDbLine
 10
22.89965249177868
 20
128.3280232751733
 30
0.0
 11
25.39233249177868
 21
128.0950632751732
 31
0.0
  0
LINE
  5
44C
330
D48
100
AcDbEntity
  8
1
  6
Continuous
100
AcDbLine
 10
25.39233249177868
 20
128.6362232751735
 30
0.0
 11
25.39233249177868
 21
128.0114402751733
 31
0.0
  0
LINE
  5
44D
330
D48
100
AcDbEntity
  8
1
  6
Continuous
100
AcDbLine
 10
26.99233249177865
 20
130.8871432751733
 30
0.0
 11
26.99233249177865
 21
130.2623782751734
 31
0.0
  0
LINE
  5
44E
330
D48
100
AcDbEntity
  8
1
  6
Continuous
100
AcDbLine
 10
28.59233249177867
 20
131.1008632751732
 30
0.0
 11
28.59233249177867
 21
130.4760982751734
 31
0.0
  0
LINE
  5
44F
330
D48
100
AcDbEntity
  8
1
  6
Continuous
100
AcDbLine
 10
26.99233249177865
 20
128.8499432751734
 30
0.0
 11
26.99233249177865
 21
128.2251652751733
 31
0.0
  0
LINE
  5
450
330
D48
100
AcDbEntity
  8
1
  6
Continuous
100
AcDbLine
 10
28.59233249177867
 20
129.0636632751734
 30
0.0
 11
28.59233249177867
 21
128.4388902751734
 31
0.0
  0
ARC
  5
451
330
D48
100
AcDbEntity
  8
1
  6
Continuous
100
AcDbCircle
 10
30.99233249177865
 20
126.2846352751733
 30
0.0
 40
0.7
100
AcDbArc
 50
0.0
 51
84.99935499999997
  0
LINE
  5
452
330
D48
100
AcDbEntity
  8
1
  6
Continuous
100
AcDbLine
 10
32.49233249177865
 20
122.9537252751735
 30
0.0
 11
32.89233249177868
 21
122.9537252751735
 31
0.0
  0
ARC
  5
453
330
D48
100
AcDbEntity
  8
1
  6
Continuous
100
AcDbCircle
 10
30.99233249177865
 20
130.0904602751734
 30
0.0
 40
0.7
100
AcDbArc
 50
277.6082479999999
 51
97.60824800000001
  0
ARC
  5
454
330
D48
100
AcDbEntity
  8
1
  6
Continuous
100
AcDbCircle
 10
30.99233249177865
 20
128.0532602751732
 30
0.0
 40
0.7
100
AcDbArc
 50
277.608427
 51
97.60842700000004
  0
LINE
  5
455
330
D48
100
AcDbEntity
  8
1
  6
Continuous
100
AcDbLine
 10
32.49233249177865
 20
131.9537252751735
 30
0.0
 11
32.89233249177868
 21
131.9537252751735
 31
0.0
  0
LINE
  5
456
330
D48
100
AcDbEntity
  8
1
  6
Continuous
100
AcDbLine
 10
26.99233249177865
 20
138.9392602751734
 30
0.0
 11
30.99233249177865
 21
138.9392602751734
 31
0.0
  0
LINE
  5
457
330
D48
100
AcDbEntity
  8
1
  6
Continuous
100
AcDbLine
 10
31.08501149177868
 20
135.5082232751735
 30
0.0
 11
23.08501149177868
 21
134.4396232751735
 31
0.0
  0
LINE
  5
458
330
D48
100
AcDbEntity
  8
1
  6
Continuous
100
AcDbLine
 10
30.89965249177862
 20
136.8958982751734
 30
0.0
 11
22.89965249177868
 21
135.8272982751735
 31
0.0
  0
LINE
  5
459
330
D48
100
AcDbEntity
  8
1
  6
Continuous
100
AcDbLine
 10
31.08501149177868
 20
137.5454232751734
 30
0.0
 11
23.08501149177868
 21
136.4768232751734
 31
0.0
  0
LINE
  5
45A
330
D48
100
AcDbEntity
  8
1
  6
Continuous
100
AcDbLine
 10
30.89965249177862
 20
138.9330982751735
 30
0.0
 11
22.89965249177868
 21
137.8644982751733
 31
0.0
  0
LINE
  5
45B
330
D48
100
AcDbEntity
  8
1
  6
Continuous
100
AcDbLine
 10
28.59233249177867
 20
137.1288582751734
 30
0.0
 11
31.08501149177868
 21
136.8958982751734
 31
0.0
  0
LINE
  5
45C
330
D48
100
AcDbEntity
  8
1
  6
Continuous
100
AcDbLine
 10
28.59233249177867
 20
135.0916582751733
 30
0.0
 11
31.08501149177868
 21
134.8586982751734
 31
0.0
  0
LINE
  5
45D
330
D48
100
AcDbEntity
  8
1
  6
Continuous
100
AcDbLine
 10
31.08501149177868
 20
133.4710232751735
 30
0.0
 11
23.08501149177868
 21
132.4024232751734
 31
0.0
  0
LINE
  5
45E
330
D48
100
AcDbEntity
  8
1
  6
Continuous
100
AcDbLine
 10
28.59233249177867
 20
133.0544582751735
 30
0.0
 11
31.08501149177868
 21
132.8214982751733
 31
0.0
  0
LINE
  5
45F
330
D48
100
AcDbEntity
  8
1
  6
Continuous
100
AcDbLine
 10
30.89965249177862
 20
134.8586982751734
 30
0.0
 11
22.89965249177868
 21
133.7900982751732
 31
0.0
  0
LINE
  5
460
330
D48
100
AcDbEntity
  8
1
  6
Continuous
100
AcDbLine
 10
22.89965249177868
 20
136.4768232751734
 30
0.0
 11
25.39233249177868
 21
136.2438632751733
 31
0.0
  0
LINE
  5
461
330
D48
100
AcDbEntity
  8
1
  6
Continuous
100
AcDbLine
 10
22.89965249177868
 20
134.4396232751735
 30
0.0
 11
25.39233249177868
 21
134.2066632751734
 31
0.0
  0
LINE
  5
462
330
D48
100
AcDbEntity
  8
1
  6
Continuous
100
AcDbLine
 10
25.39233249177868
 20
134.7478232751734
 30
0.0
 11
25.39233249177868
 21
134.1230582751735
 31
0.0
  0
LINE
  5
463
330
D48
100
AcDbEntity
  8
1
  6
Continuous
100
AcDbLine
 10
25.39233249177868
 20
136.7850232751735
 30
0.0
 11
25.39233249177868
 21
136.1602582751734
 31
0.0
  0
LINE
  5
464
330
D48
100
AcDbEntity
  8
1
  6
Continuous
100
AcDbLine
 10
22.89965249177868
 20
132.4024232751734
 30
0.0
 11
25.39233249177868
 21
132.1694632751732
 31
0.0
  0
LINE
  5
465
330
D48
100
AcDbEntity
  8
1
  6
Continuous
100
AcDbLine
 10
28.59233249177867
 20
135.1752632751734
 30
0.0
 11
28.59233249177867
 21
134.5504982751734
 31
0.0
  0
LINE
  5
466
330
D48
100
AcDbEntity
  8
1
  6
Continuous
100
AcDbLine
 10
26.99233249177865
 20
134.9615432751734
 30
0.0
 11
26.99233249177865
 21
134.3367782751734
 31
0.0
  0
LINE
  5
467
330
D48
100
AcDbEntity
  8
1
  6
Continuous
100
AcDbLine
 10
26.99233249177865
 20
136.9987432751735
 30
0.0
 11
26.99233249177865
 21
136.3739782751734
 31
0.0
  0
LINE
  5
468
330
D48
100
AcDbEntity
  8
1
  6
Continuous
100
AcDbLine
 10
28.59233249177867
 20
137.2124632751735
 30
0.0
 11
28.59233249177867
 21
136.5876982751735
 31
0.0
  0
LINE
  5
469
330
D48
100
AcDbEntity
  8
1
  6
Continuous
100
AcDbLine
 10
26.99233249177865
 20
132.9243432751734
 30
0.0
 11
26.99233249177865
 21
132.2995782751732
 31
0.0
  0
LINE
  5
46A
330
D48
100
AcDbEntity
  8
1
  6
Continuous
100
AcDbLine
 10
28.59233249177867
 20
133.1380632751733
 30
0.0
 11
28.59233249177867
 21
132.5132982751733
 31
0.0
  0
LINE
  5
46B
330
D48
100
AcDbEntity
  8
1
  6
Continuous
100
AcDbLine
 10
22.93131549177866
 20
138.2419252751734
 30
0.0
 11
24.61941949177868
 21
138.0942162751735
 31
0.0
  0
LINE
  5
46C
330
D48
100
AcDbEntity
  8
1
  6
Continuous
100
AcDbLine
 10
28.59233249177867
 20
141.4392482751735
 30
0.0
 11
28.59233249177867
 21
138.6248980061734
 31
0.0
  0
LINE
  5
46D
330
D48
100
AcDbEntity
  8
1
  6
Continuous
100
AcDbLine
 10
26.99233249177865
 20
138.9392602751734
 30
0.0
 11
28.59233249177867
 21
138.9392602751734
 31
0.0
  0
LINE
  5
46E
330
D48
100
AcDbEntity
  8
1
  6
Continuous
100
AcDbLine
 10
26.99233249177865
 20
141.4392482751735
 30
0.0
 11
28.59233249177867
 21
141.4392482751735
 31
0.0
  0
ARC
  5
46F
330
D48
100
AcDbEntity
  8
1
  6
Continuous
100
AcDbCircle
 10
30.99233249177865
 20
136.2020602751733
 30
0.0
 40
0.7
100
AcDbArc
 50
277.6082479999999
 51
97.60824800000001
  0
ARC
  5
470
330
D48
100
AcDbEntity
  8
1
  6
Continuous
100
AcDbCircle
 10
30.99233249177865
 20
134.1648602751732
 30
0.0
 40
0.7
100
AcDbArc
 50
277.6082479999999
 51
97.60824800000001
  0
LINE
  5
471
330
D48
100
AcDbEntity
  8
1
  6
Continuous
100
AcDbLine
 10
32.49233249177865
 20
134.9537252751735
 30
0.0
 11
32.89233249177868
 21
134.9537252751735
 31
0.0
  0
ARC
  5
472
330
D48
100
AcDbEntity
  8
1
  6
Continuous
100
AcDbCircle
 10
30.99233249177865
 20
138.2392602751734
 30
0.0
 40
0.7
100
AcDbArc
 50
277.6082479999999
 51
97.60824800000001
  0
LINE
  5
473
330
D48
100
AcDbEntity
  8
1
  6
Continuous
100
AcDbLine
 10
52.39233249177869
 20
132.7106232751734
 30
0.0
 11
52.39233249177869
 21
132.0858582751734
 31
0.0
  0
LINE
  5
474
330
D48
100
AcDbEntity
  8
1
  6
Continuous
100
AcDbLine
 10
48.49233249177864
 20
134.9537252751735
 30
0.0
 11
48.49233249177864
 21
131.9537252751735
 31
0.0
  0
ARC
  5
475
330
D48
100
AcDbEntity
  8
1
  6
Continuous
100
AcDbCircle
 10
49.99233249177866
 20
126.9846352751732
 30
0.0
 40
0.7
100
AcDbArc
 50
97.60842700000004
 51
277.608427
  0
LINE
  5
476
330
D48
100
AcDbEntity
  8
1
  6
Continuous
100
AcDbLine
 10
48.09233249177868
 20
122.9537252751735
 30
0.0
 11
48.49233249177864
 21
122.9537252751735
 31
0.0
  0
ARC
  5
477
330
D48
100
AcDbEntity
  8
1
  6
Continuous
100
AcDbCircle
 10
51.89233249177869
 20
124.1737022751735
 30
0.0
 40
0.5
100
AcDbArc
 50
308.7969999999998
 51
0.000000000000007
  0
LINE
  5
478
330
D48
100
AcDbEntity
  8
1
  6
Continuous
100
AcDbLine
 10
52.39233249177869
 20
126.5990056209703
 30
0.0
 11
52.39233249177869
 21
124.1737022751735
 31
0.0
  0
LINE
  5
479
330
D48
100
AcDbEntity
  8
1
  6
Continuous
100
AcDbLine
 10
49.99233249177866
 20
126.2846352751733
 30
0.0
 11
52.39233249177869
 21
126.2846352751733
 31
0.0
  0
LINE
  5
47A
330
D48
100
AcDbEntity
  8
1
  6
Continuous
100
AcDbLine
 10
52.20533249177861
 20
123.7837022751735
 30
0.0
 11
49.77633249177864
 21
121.8317022751735
 31
0.0
  0
ARC
  5
47B
330
D48
100
AcDbEntity
  8
1
  6
Continuous
100
AcDbCircle
 10
49.99233249177866
 20
131.0590602751734
 30
0.0
 40
0.7
100
AcDbArc
 50
97.60824800000001
 51
277.6082479999999
  0
ARC
  5
47C
330
D48
100
AcDbEntity
  8
1
  6
Continuous
100
AcDbCircle
 10
49.99233249177866
 20
129.0218602751733
 30
0.0
 40
0.7
100
AcDbArc
 50
97.60824800000001
 51
277.6082479999999
  0
LINE
  5
47D
330
D48
100
AcDbEntity
  8
1
  6
Continuous
100
AcDbLine
 10
48.09233249177868
 20
131.9537252751735
 30
0.0
 11
48.49233249177864
 21
131.9537252751735
 31
0.0
  0
LINE
  5
47E
330
D48
100
AcDbEntity
  8
1
  6
Continuous
100
AcDbLine
 10
52.39233249177869
 20
130.6734232751733
 30
0.0
 11
52.39233249177869
 21
130.0486582751734
 31
0.0
  0
LINE
  5
47F
330
D48
100
AcDbEntity
  8
1
  6
Continuous
100
AcDbLine
 10
49.89965249177868
 20
130.3652232751733
 30
0.0
 11
52.39233249177869
 21
130.1322632751732
 31
0.0
  0
LINE
  5
480
330
D48
100
AcDbEntity
  8
1
  6
Continuous
100
AcDbLine
 10
52.39233249177869
 20
128.6362232751735
 30
0.0
 11
52.39233249177869
 21
128.0114402751733
 31
0.0
  0
LINE
  5
481
330
D48
100
AcDbEntity
  8
1
  6
Continuous
100
AcDbLine
 10
49.89965249177868
 20
128.3280232751733
 30
0.0
 11
52.39233249177869
 21
128.0950632751732
 31
0.0
  0
ARC
  5
482
330
D48
100
AcDbEntity
  8
1
  6
Continuous
100
AcDbCircle
 10
49.99233249177866
 20
137.1706602751734
 30
0.0
 40
0.7
100
AcDbArc
 50
97.60824800000001
 51
277.6082479999999
  0
ARC
  5
483
330
D48
100
AcDbEntity
  8
1
  6
Continuous
100
AcDbCircle
 10
49.99233249177866
 20
135.1334602751733
 30
0.0
 40
0.7
100
AcDbArc
 50
97.60824800000001
 51
277.6082479999999
  0
ARC
  5
484
330
D48
100
AcDbEntity
  8
1
  6
Continuous
100
AcDbCircle
 10
49.99233249177866
 20
133.0962602751732
 30
0.0
 40
0.7
100
AcDbArc
 50
97.60824800000001
 51
277.6082479999999
  0
LINE
  5
485
330
D48
100
AcDbEntity
  8
1
  6
Continuous
100
AcDbLine
 10
48.09233249177868
 20
134.9537252751735
 30
0.0
 11
48.49233249177864
 21
134.9537252751735
 31
0.0
  0
LINE
  5
486
330
D48
100
AcDbEntity
  8
1
  6
Continuous
100
AcDbLine
 10
52.39233249177869
 20
136.7850232751735
 30
0.0
 11
52.39233249177869
 21
136.1602582751734
 31
0.0
  0
LINE
  5
487
330
D48
100
AcDbEntity
  8
1
  6
Continuous
100
AcDbLine
 10
52.39233249177869
 20
134.7478232751734
 30
0.0
 11
52.39233249177869
 21
134.1230582751735
 31
0.0
  0
LINE
  5
488
330
D48
100
AcDbEntity
  8
1
  6
Continuous
100
AcDbLine
 10
49.89965249177868
 20
134.4396232751735
 30
0.0
 11
52.39233249177869
 21
134.2066632751734
 31
0.0
  0
LINE
  5
489
330
D48
100
AcDbEntity
  8
1
  6
Continuous
100
AcDbLine
 10
49.89965249177868
 20
136.4768232751734
 30
0.0
 11
52.39233249177869
 21
136.2438632751733
 31
0.0
  0
LINE
  5
48A
330
D48
100
AcDbEntity
  8
1
  6
Continuous
100
AcDbLine
 10
49.89965249177868
 20
132.4024232751734
 30
0.0
 11
52.39233249177869
 21
132.1694632751732
 31
0.0
  0
ARC
  5
48B
330
D48
100
AcDbEntity
  8
1
  6
Continuous
100
AcDbCircle
 10
49.99233249177866
 20
138.9392602751734
 30
0.0
 40
0.7
100
AcDbArc
 50
180.0
 51
264.999355
  0
LINE
  5
48C
330
D48
100
AcDbEntity
  8
1
  6
Continuous
100
AcDbLine
 10
52.39233249177869
 20
141.4392482751735
 30
0.0
 11
52.39233249177863
 21
138.1974580061733
 31
0.0
  0
LINE
  5
48D
330
D48
100
AcDbEntity
  8
1
  6
Continuous
100
AcDbLine
 10
49.93131549177866
 20
138.2419252751734
 30
0.0
 11
51.61941949177867
 21
138.0942162751735
 31
0.0
  0
LINE
  5
48E
330
D48
100
AcDbEntity
  8
1
  6
Continuous
100
AcDbLine
 10
48.99233249177864
 20
150.8037252751734
 30
0.0
 11
31.99233249177865
 21
150.8037252751734
 31
0.0
  0
LINE
  5
48F
330
D48
100
AcDbEntity
  8
1
  6
Continuous
100
AcDbLine
 10
48.99233249177864
 20
147.8037252751734
 30
0.0
 11
31.99233249177865
 21
147.8037252751734
 31
0.0
  0
LINE
  5
490
330
D48
100
AcDbEntity
  8
1
  6
Continuous
100
AcDbLine
 10
30.39233249177868
 20
150.3037252751734
 30
0.0
 11
29.49233249177865
 21
150.3037252751734
 31
0.0
  0
LINE
  5
491
330
D48
100
AcDbEntity
  8
1
  6
Continuous
100
AcDbLine
 10
30.39233249177868
 20
148.3037252751734
 30
0.0
 11
29.49233249177865
 21
148.3037252751734
 31
0.0
  0
ARC
  5
492
330
D48
100
AcDbEntity
  8
1
  6
Continuous
100
AcDbCircle
 10
29.89233249177869
 20
146.3909822751735
 30
0.0
 40
2.1
100
AcDbArc
 50
270.0
 51
0.0
  0
ARC
  5
493
330
D48
100
AcDbEntity
  8
1
  6
Continuous
100
AcDbCircle
 10
29.89233249177869
 20
146.3909822751735
 30
0.0
 40
0.5
100
AcDbArc
 50
270.0
 51
0.0
  0
ARC
  5
494
330
D48
100
AcDbEntity
  8
1
  6
Continuous
100
AcDbCircle
 10
27.49233249177865
 20
143.7909822751734
 30
0.0
 40
2.1
100
AcDbArc
 50
90.0
 51
180.0
  0
LINE
  5
495
330
D48
100
AcDbEntity
  8
1
  6
Continuous
100
AcDbLine
 10
27.49233249177865
 20
144.2909822751734
 30
0.0
 11
29.89233249177869
 21
144.2909822751734
 31
0.0
  0
LINE
  5
496
330
D48
100
AcDbEntity
  8
1
  6
Continuous
100
AcDbLine
 10
27.49233249177865
 20
145.8909822751735
 30
0.0
 11
29.89233249177869
 21
145.8909822751735
 31
0.0
  0
ARC
  5
497
330
D48
100
AcDbEntity
  8
1
  6
Continuous
100
AcDbCircle
 10
27.49233249177865
 20
143.7909822751734
 30
0.0
 40
0.5
100
AcDbArc
 50
90.0
 51
180.0
  0
LINE
  5
498
330
D48
100
AcDbEntity
  8
1
  6
Continuous
100
AcDbLine
 10
29.49233249177865
 20
150.3037252751734
 30
0.0
 11
29.49233249177865
 21
148.3037252751734
 31
0.0
  0
LINE
  5
499
330
D48
100
AcDbEntity
  8
1
  6
Continuous
100
AcDbLine
 10
31.99233249177865
 20
151.8037252751734
 30
0.0
 11
31.99233249177865
 21
146.3909822751735
 31
0.0
  0
LINE
  5
49A
330
D48
100
AcDbEntity
  8
1
  6
Continuous
100
AcDbLine
 10
30.39233249177868
 20
151.8037252751734
 30
0.0
 11
30.39233249177868
 21
146.3909822751735
 31
0.0
  0
LINE
  5
49B
330
D48
100
AcDbEntity
  8
1
  6
Continuous
100
AcDbLine
 10
31.72530249177868
 20
145.8909822751735
 30
0.0
 11
30.55835449177868
 21
145.8909822751735
 31
0.0
  0
LINE
  5
49C
330
D48
100
AcDbEntity
  8
1
  6
Continuous
100
AcDbLine
 10
30.39233249177868
 20
151.8037252751734
 30
0.0
 11
31.99233249177865
 21
151.8037252751734
 31
0.0
  0
LINE
  5
49D
330
D48
100
AcDbEntity
  8
1
  6
Continuous
100
AcDbLine
 10
50.59233249177862
 20
151.8037252751734
 30
0.0
 11
50.59233249177862
 21
146.3909822751735
 31
0.0
  0
LINE
  5
49E
330
D48
100
AcDbEntity
  8
1
  6
Continuous
100
AcDbLine
 10
48.99233249177864
 20
151.8037252751734
 30
0.0
 11
48.99233249177864
 21
146.3909822751735
 31
0.0
  0
LINE
  5
49F
330
D48
100
AcDbEntity
  8
1
  6
Continuous
100
AcDbLine
 10
49.25936149177869
 20
145.8909822751735
 30
0.0
 11
50.42631049177868
 21
145.8909822751735
 31
0.0
  0
ARC
  5
4A0
330
D48
100
AcDbEntity
  8
1
  6
Continuous
100
AcDbCircle
 10
51.09233249177868
 20
146.3909822751735
 30
0.0
 40
2.1
100
AcDbArc
 50
180.0
 51
270.0
  0
ARC
  5
4A1
330
D48
100
AcDbEntity
  8
1
  6
Continuous
100
AcDbCircle
 10
51.09233249177868
 20
146.3909822751735
 30
0.0
 40
0.5
100
AcDbArc
 50
180.0
 51
270.0
  0
LINE
  5
4A2
330
D48
100
AcDbEntity
  8
1
  6
Continuous
100
AcDbLine
 10
50.59233249177862
 20
151.8037252751734
 30
0.0
 11
48.99233249177864
 21
151.8037252751734
 31
0.0
  0
LINE
  5
4A3
330
D48
100
AcDbEntity
  8
1
  6
Continuous
100
AcDbLine
 10
50.59233249177862
 20
150.3037252751734
 30
0.0
 11
51.49233249177864
 21
150.3037252751734
 31
0.0
  0
LINE
  5
4A4
330
D48
100
AcDbEntity
  8
1
  6
Continuous
100
AcDbLine
 10
50.59233249177862
 20
148.3037252751734
 30
0.0
 11
51.49233249177864
 21
148.3037252751734
 31
0.0
  0
LINE
  5
4A5
330
D48
100
AcDbEntity
  8
1
  6
Continuous
100
AcDbLine
 10
51.49233249177864
 20
150.3037252751734
 30
0.0
 11
51.49233249177864
 21
148.3037252751734
 31
0.0
  0
LINE
  5
4A6
330
D48
100
AcDbEntity
  8
1
  6
Continuous
100
AcDbLine
 10
55.59233249177868
 20
143.7909822751734
 30
0.0
 11
55.59233249177868
 21
138.6248980061734
 31
0.0
  0
LINE
  5
4A7
330
D48
100
AcDbEntity
  8
1
  6
Continuous
100
AcDbLine
 10
53.99233249177864
 20
143.7909822751734
 30
0.0
 11
53.99233249177864
 21
138.4111780061734
 31
0.0
  0
ARC
  5
4A8
330
D48
100
AcDbEntity
  8
1
  6
Continuous
100
AcDbCircle
 10
57.99233249177865
 20
132.1276602751733
 30
0.0
 40
0.7
100
AcDbArc
 50
277.6082479999999
 51
97.60824800000001
  0
LINE
  5
4A9
330
D48
100
AcDbEntity
  8
1
  6
Continuous
100
AcDbLine
 10
55.59233249177862
 20
127.0264556209703
 30
0.0
 11
55.59233249177862
 21
123.7847022751733
 31
0.0
  0
ARC
  5
4AA
330
D48
100
AcDbEntity
  8
1
  6
Continuous
100
AcDbCircle
 10
57.99233249177865
 20
126.2846352751733
 30
0.0
 40
0.7
100
AcDbArc
 50
0.000000000000007
 51
84.99935499999997
  0
LINE
  5
4AB
330
D48
100
AcDbEntity
  8
1
  6
Continuous
100
AcDbLine
 10
53.99233249177864
 20
126.2846352751733
 30
0.0
 11
58.69233249177867
 21
126.2846352751733
 31
0.0
  0
LINE
  5
4AC
330
D48
100
AcDbEntity
  8
1
  6
Continuous
100
AcDbLine
 10
55.59233249177862
 20
123.7847022751733
 30
0.0
 11
53.99233249177864
 21
123.7847022751733
 31
0.0
  0
LINE
  5
4AD
330
D48
100
AcDbEntity
  8
1
  6
Continuous
100
AcDbLine
 10
53.99233249177864
 20
126.8127306209703
 30
0.0
 11
53.99233249177864
 21
123.7847022751733
 31
0.0
  0
LINE
  5
4AE
330
D48
100
AcDbEntity
  8
1
  6
Continuous
100
AcDbLine
 10
56.36515449177863
 20
127.1296872751732
 30
0.0
 11
58.05334949177868
 21
126.9819702751734
 31
0.0
  0
LINE
  5
4AF
330
D48
100
AcDbEntity
  8
1
  6
Continuous
100
AcDbLine
 10
55.59233249177868
 20
128.9800582751734
 30
0.0
 11
58.08501149177866
 21
128.7470982751734
 31
0.0
  0
LINE
  5
4B0
330
D48
100
AcDbEntity
  8
1
  6
Continuous
100
AcDbLine
 10
55.59233249177868
 20
131.0172582751735
 30
0.0
 11
58.08501149177866
 21
130.7842982751734
 31
0.0
  0
LINE
  5
4B1
330
D48
100
AcDbEntity
  8
1
  6
Continuous
100
AcDbLine
 10
55.59233249177868
 20
129.0636632751734
 30
0.0
 11
55.59233249177868
 21
128.4388902751734
 31
0.0
  0
LINE
  5
4B2
330
D48
100
AcDbEntity
  8
1
  6
Continuous
100
AcDbLine
 10
55.59233249177868
 20
131.1008632751732
 30
0.0
 11
55.59233249177868
 21
130.4760982751734
 31
0.0
  0
LINE
  5
4B3
330
D48
100
AcDbEntity
  8
1
  6
Continuous
100
AcDbLine
 10
53.99233249177864
 20
130.8871432751733
 30
0.0
 11
53.99233249177864
 21
130.2623782751734
 31
0.0
  0
LINE
  5
4B4
330
D48
100
AcDbEntity
  8
1
  6
Continuous
100
AcDbLine
 10
53.99233249177864
 20
128.8499432751734
 30
0.0
 11
53.99233249177864
 21
128.2251652751733
 31
0.0
  0
ARC
  5
4B5
330
D48
100
AcDbEntity
  8
1
  6
Continuous
100
AcDbCircle
 10
57.99233249177865
 20
130.0904602751734
 30
0.0
 40
0.7
100
AcDbArc
 50
277.6082479999999
 51
97.60824800000001
  0
ARC
  5
4B6
330
D48
100
AcDbEntity
  8
1
  6
Continuous
100
AcDbCircle
 10
57.99233249177865
 20
128.0532602751732
 30
0.0
 40
0.7
100
AcDbArc
 50
277.608427
 51
97.60842700000004
  0
LINE
  5
4B7
330
D48
100
AcDbEntity
  8
1
  6
Continuous
100
AcDbLine
 10
55.59233249177868
 20
135.0916582751733
 30
0.0
 11
58.08501149177866
 21
134.8586982751734
 31
0.0
  0
LINE
  5
4B8
330
D48
100
AcDbEntity
  8
1
  6
Continuous
100
AcDbLine
 10
55.59233249177868
 20
137.1288582751734
 30
0.0
 11
58.08501149177866
 21
136.8958982751734
 31
0.0
  0
LINE
  5
4B9
330
D48
100
AcDbEntity
  8
1
  6
Continuous
100
AcDbLine
 10
55.59233249177868
 20
133.0544582751735
 30
0.0
 11
58.08501149177866
 21
132.8214982751733
 31
0.0
  0
LINE
  5
4BA
330
D48
100
AcDbEntity
  8
1
  6
Continuous
100
AcDbLine
 10
55.59233249177868
 20
137.2124632751735
 30
0.0
 11
55.59233249177868
 21
136.5876982751735
 31
0.0
  0
LINE
  5
4BB
330
D48
100
AcDbEntity
  8
1
  6
Continuous
100
AcDbLine
 10
53.99233249177864
 20
136.9987432751735
 30
0.0
 11
53.99233249177864
 21
136.3739782751734
 31
0.0
  0
LINE
  5
4BC
330
D48
100
AcDbEntity
  8
1
  6
Continuous
100
AcDbLine
 10
53.99233249177864
 20
134.9615432751734
 30
0.0
 11
53.99233249177864
 21
134.3367782751734
 31
0.0
  0
LINE
  5
4BD
330
D48
100
AcDbEntity
  8
1
  6
Continuous
100
AcDbLine
 10
55.59233249177868
 20
135.1752632751734
 30
0.0
 11
55.59233249177868
 21
134.5504982751734
 31
0.0
  0
LINE
  5
4BE
330
D48
100
AcDbEntity
  8
1
  6
Continuous
100
AcDbLine
 10
55.59233249177868
 20
133.1380632751733
 30
0.0
 11
55.59233249177868
 21
132.5132982751733
 31
0.0
  0
LINE
  5
4BF
330
D48
100
AcDbEntity
  8
1
  6
Continuous
100
AcDbLine
 10
53.99233249177864
 20
132.9243432751734
 30
0.0
 11
53.99233249177864
 21
132.2995782751732
 31
0.0
  0
ARC
  5
4C0
330
D48
100
AcDbEntity
  8
1
  6
Continuous
100
AcDbCircle
 10
57.99233249177865
 20
136.2020602751733
 30
0.0
 40
0.7
100
AcDbArc
 50
277.6082479999999
 51
97.60824800000001
  0
ARC
  5
4C1
330
D48
100
AcDbEntity
  8
1
  6
Continuous
100
AcDbCircle
 10
57.99233249177865
 20
134.1648602751732
 30
0.0
 40
0.7
100
AcDbArc
 50
277.6082479999999
 51
97.60824800000001
  0
LINE
  5
4C2
330
D48
100
AcDbEntity
  8
1
  6
Continuous
100
AcDbLine
 10
55.59233249177868
 20
138.9392602751734
 30
0.0
 11
57.99233249177865
 21
138.9392602751734
 31
0.0
  0
ARC
  5
4C3
330
D48
100
AcDbEntity
  8
1
  6
Continuous
100
AcDbCircle
 10
57.99233249177865
 20
138.2392602751734
 30
0.0
 40
0.7
100
AcDbArc
 50
277.6082479999999
 51
97.60824800000001
  0
ARC
  5
4C4
330
D48
100
AcDbEntity
  8
1
  6
Continuous
100
AcDbCircle
 10
53.49233249177864
 20
143.7909822751734
 30
0.0
 40
2.1
100
AcDbArc
 50
0.0
 51
90.0
  0
ARC
  5
4C5
330
D48
100
AcDbEntity
  8
1
  6
Continuous
100
AcDbCircle
 10
53.49233249177864
 20
143.7909822751734
 30
0.0
 40
0.5
100
AcDbArc
 50
0.0
 51
90.0
  0
ARC
  5
4C6
330
D48
100
AcDbEntity
  8
1
  6
Continuous
100
AcDbCircle
 10
26.99233249177865
 20
208.6537252751734
 30
0.0
 40
4.7
100
AcDbArc
 50
73.2253
 51
286.775
  0
LINE
  5
4C7
330
D48
100
AcDbEntity
  8
4
  6
CENTER
100
AcDbLine
 10
19.39233249177867
 20
208.6537252751734
 30
0.0
 11
61.59233249177868
 21
208.6537252751734
 31
0.0
  0
ARC
  5
4C8
330
D48
100
AcDbEntity
  8
1
  6
Continuous
100
AcDbCircle
 10
53.99233249177864
 20
208.6537252751734
 30
0.0
 40
4.7
100
AcDbArc
 50
253.2249999999999
 51
106.7749999999998
  0
LINE
  5
4C9
330
D48
100
AcDbEntity
  8
1
  6
Continuous
100
AcDbLine
 10
52.39233249177863
 20
213.1537252751734
 30
0.0
 11
53.99233249177864
 21
213.1537252751734
 31
0.0
  0
LINE
  5
4CA
330
D48
100
AcDbEntity
  8
1
  6
Continuous
100
AcDbLine
 10
52.39233249177863
 20
204.1537252751734
 30
0.0
 11
53.99233249177864
 21
204.1537252751734
 31
0.0
  0
LINE
  5
4CB
330
D48
100
AcDbEntity
  8
1
  6
Continuous
100
AcDbLine
 10
50.59233249177864
 20
211.1537252751734
 30
0.0
 11
55.59233249177866
 21
211.1537252751734
 31
0.0
  0
LINE
  5
4CD
330
D48
100
AcDbEntity
  8
4
  6
CENTER
100
AcDbLine
 10
27.90763049177863
 20
210.0537252751735
 30
0.0
 11
53.56618649177867
 21
210.0537252751735
 31
0.0
  0
LINE
  5
4CE
330
D48
100
AcDbEntity
  8
4
  6
CENTER
100
AcDbLine
 10
40.49233249177865
 20
197.0537252751734
 30
0.0
 11
40.49233249177865
 21
219.0537252751734
 31
0.0
  0
LINE
  5
4CF
330
D48
100
AcDbEntity
  8
1
  6
Continuous
100
AcDbLine
 10
31.99233249177868
 20
207.1537252751735
 30
0.0
 11
32.89233249177866
 21
207.1537252751735
 31
0.0
  0
LINE
  5
4D0
330
D48
100
AcDbEntity
  8
1
  6
Continuous
100
AcDbLine
 10
32.49233249177868
 20
214.0537252751734
 30
0.0
 11
48.49233249177864
 21
214.0537252751734
 31
0.0
  0
LINE
  5
4D1
330
D48
100
AcDbEntity
  8
1
  6
Continuous
100
AcDbLine
 10
31.99233249177868
 20
208.5537252751735
 30
0.0
 11
48.99233249177864
 21
208.5537252751735
 31
0.0
  0
LINE
  5
4D2
330
D48
100
AcDbEntity
  8
1
  6
Continuous
100
AcDbLine
 10
31.99233249177868
 20
211.5537252751735
 30
0.0
 11
48.99233249177864
 21
211.5537252751735
 31
0.0
  0
LINE
  5
4D3
330
D48
100
AcDbEntity
  8
1
  6
Continuous
100
AcDbLine
 10
34.49233249177868
 20
202.0537252751735
 30
0.0
 11
46.49233249177864
 21
202.0537252751735
 31
0.0
  0
ARC
  5
4D4
330
D48
100
AcDbEntity
  8
1
  6
Continuous
100
AcDbCircle
 10
26.99233249177865
 20
208.6537252751734
 30
0.0
 40
3.299999999999998
100
AcDbArc
 50
90.0
 51
270.0
  0
LINE
  5
4D5
330
D48
100
AcDbEntity
  8
1
  6
Continuous
100
AcDbLine
 10
25.39233249177867
 20
205.7667252751734
 30
0.0
 11
25.39233249177867
 21
211.5397252751735
 31
0.0
  0
LINE
  5
4D6
330
D48
100
AcDbEntity
  8
1
  6
Continuous
100
AcDbLine
 10
34.49233249177868
 20
208.0537252751735
 30
0.0
 11
34.49233249177868
 21
208.5537252751735
 31
0.0
  0
LINE
  5
4D7
330
D48
100
AcDbEntity
  8
1
  6
Continuous
100
AcDbLine
 10
34.99233249177868
 20
208.0537252751735
 30
0.0
 11
34.99233249177868
 21
208.5537252751735
 31
0.0
  0
LINE
  5
4D8
330
D48
100
AcDbEntity
  8
1
  6
Continuous
100
AcDbLine
 10
32.89233249177866
 20
203.6537252751736
 30
0.0
 11
32.89233249177866
 21
208.5537252751735
 31
0.0
  0
LINE
  5
4D9
330
D48
100
AcDbEntity
  8
1
  6
Continuous
100
AcDbLine
 10
30.39233249177866
 20
206.0645958547493
 30
0.0
 11
30.39233249177866
 21
212.5537252751735
 31
0.0
  0
LINE
  5
4DA
330
D48
100
AcDbEntity
  8
1
  6
Continuous
100
AcDbLine
 10
31.99233249177868
 20
206.0645958547493
 30
0.0
 11
31.99233249177868
 21
212.5537252751735
 31
0.0
  0
ARC
  5
4DB
330
D48
100
AcDbEntity
  8
1
  6
Continuous
100
AcDbCircle
 10
26.99233249177865
 20
208.6537252751734
 30
0.0
 40
4.7
100
AcDbArc
 50
289.903
 51
326.57269049397
  0
LINE
  5
4DD
330
D48
100
AcDbEntity
  8
1
  6
Continuous
100
AcDbLine
 10
25.39233249177867
 20
204.1537252751734
 30
0.0
 11
25.63593249177865
 21
204.1537252751734
 31
0.0
  0
LINE
  5
4DE
330
D48
100
AcDbEntity
  8
1
  6
Continuous
100
AcDbLine
 10
25.39233249177867
 20
204.1537252751734
 30
0.0
 11
25.39233249177867
 21
204.2337252751734
 31
0.0
  0
ARC
  5
4DF
330
D48
100
AcDbEntity
  8
1
  6
Continuous
100
AcDbCircle
 10
27.09233249177867
 20
208.6537252751734
 30
0.0
 40
3.299999999999998
100
AcDbArc
 50
297.0356917894131
 51
308.3177181180918
  0
LINE
  5
4E0
330
D48
100
AcDbEntity
  8
1
  6
Continuous
100
AcDbLine
 10
26.99233249177865
 20
204.1537252751734
 30
0.0
 11
28.59233249177865
 21
204.1537252751734
 31
0.0
  0
LINE
  5
4E1
330
D48
100
AcDbEntity
  8
1
  6
Continuous
100
AcDbLine
 10
28.59233249177865
 20
204.1537252751734
 30
0.0
 11
28.59233249177865
 21
206.0645958547493
 31
0.0
  0
LINE
  5
4E2
330
D48
100
AcDbEntity
  8
1
  6
Continuous
100
AcDbLine
 10
26.99233249177865
 20
204.1537252751734
 30
0.0
 11
26.99233249177865
 21
206.0645958547493
 31
0.0
  0
ARC
  5
4E3
330
D48
100
AcDbEntity
  8
1
  6
Continuous
100
AcDbCircle
 10
34.49233249177868
 20
203.6537252751736
 30
0.0
 40
1.6
100
AcDbArc
 50
180.0
 51
270.0
  0
LINE
  5
4E4
330
D48
100
AcDbEntity
  8
1
  6
Continuous
100
AcDbLine
 10
32.49233249177868
 20
205.0537252751734
 30
0.0
 11
32.49233249177868
 21
207.0537252751734
 31
0.0
  0
LINE
  5
4E5
330
D48
100
AcDbEntity
  8
1
  6
Continuous
100
AcDbLine
 10
32.49233249177868
 20
207.0537252751734
 30
0.0
 11
32.89233249177866
 21
207.0537252751734
 31
0.0
  0
LINE
  5
4E6
330
D48
100
AcDbEntity
  8
1
  6
Continuous
100
AcDbLine
 10
32.49233249177868
 20
205.0537252751734
 30
0.0
 11
32.89233249177866
 21
205.0537252751734
 31
0.0
  0
LINE
  5
4E7
330
D48
100
AcDbEntity
  8
1
  6
Continuous
100
AcDbLine
 10
29.49233249177868
 20
211.0537252751734
 30
0.0
 11
30.39233249177866
 21
211.0537252751734
 31
0.0
  0
ARC
  5
4E8
330
D48
100
AcDbEntity
  8
1
  6
Continuous
100
AcDbCircle
 10
26.99233249177865
 20
208.6537252751734
 30
0.0
 40
4.7
100
AcDbArc
 50
43.66373793619479
 51
70.0971
  0
LINE
  5
4E9
330
D48
100
AcDbEntity
  8
1
  6
Continuous
100
AcDbLine
 10
25.39233249177867
 20
211.1537252751734
 30
0.0
 11
30.39233249177866
 21
211.1537252751734
 31
0.0
  0
LINE
  5
4EA
330
D48
100
AcDbEntity
  8
1
  6
Continuous
100
AcDbLine
 10
29.49233249177868
 20
209.0537252751734
 30
0.0
 11
30.39233249177866
 21
209.0537252751734
 31
0.0
  0
LINE
  5
4EB
330
D48
100
AcDbEntity
  8
1
  6
Continuous
100
AcDbLine
 10
25.39233249177867
 20
213.0727252751735
 30
0.0
 11
25.39233249177867
 21
213.1537252751734
 31
0.0
  0
LINE
  5
4EC
330
D48
100
AcDbEntity
  8
1
  6
Continuous
100
AcDbLine
 10
25.39233249177867
 20
213.1537252751734
 30
0.0
 11
25.63593249177865
 21
213.1537252751734
 31
0.0
  0
ARC
  5
4ED
330
D48
100
AcDbEntity
  8
1
  6
Continuous
100
AcDbCircle
 10
27.09233249177867
 20
208.6537252751734
 30
0.0
 40
3.299999999999998
100
AcDbArc
 50
49.2509
 51
62.96430821058707
  0
LINE
  5
4EE
330
D48
100
AcDbEntity
  8
1
  6
Continuous
100
AcDbLine
 10
29.49233249177868
 20
209.0537252751734
 30
0.0
 11
29.49233249177868
 21
211.0537252751734
 31
0.0
  0
LINE
  5
4EF
330
D48
100
AcDbEntity
  8
1
  6
Continuous
100
AcDbLine
 10
26.99233249177865
 20
213.1537252751734
 30
0.0
 11
28.59233249177865
 21
213.1537252751734
 31
0.0
  0
LINE
  5
4F0
330
D48
100
AcDbEntity
  8
1
  6
Continuous
100
AcDbLine
 10
26.99233249177865
 20
211.1537252751734
 30
0.0
 11
26.99233249177865
 21
213.1537252751734
 31
0.0
  0
LINE
  5
4F1
330
D48
100
AcDbEntity
  8
1
  6
Continuous
100
AcDbLine
 10
28.59233249177865
 20
211.1537252751734
 30
0.0
 11
28.59233249177865
 21
213.1537252751734
 31
0.0
  0
LINE
  5
4F3
330
D48
100
AcDbEntity
  8
1
  6
Continuous
100
AcDbLine
 10
30.39233249177866
 20
212.5537252751735
 30
0.0
 11
31.99233249177868
 21
212.5537252751735
 31
0.0
  0
LINE
  5
4F7
330
D48
100
AcDbEntity
  8
1
  6
Continuous
100
AcDbLine
 10
34.99233249177868
 20
211.5537252751735
 30
0.0
 11
34.99233249177868
 21
214.0537252751734
 31
0.0
  0
LINE
  5
4F8
330
D48
100
AcDbEntity
  8
1
  6
Continuous
100
AcDbLine
 10
46.49233249177864
 20
208.0537252751735
 30
0.0
 11
46.49233249177864
 21
208.5537252751735
 31
0.0
  0
LINE
  5
4F9
330
D48
100
AcDbEntity
  8
1
  6
Continuous
100
AcDbLine
 10
45.99233249177864
 20
208.0537252751735
 30
0.0
 11
45.99233249177864
 21
208.5537252751735
 31
0.0
  0
LINE
  5
4FA
330
D48
100
AcDbEntity
  8
1
  6
Continuous
100
AcDbLine
 10
48.09233249177866
 20
203.6537252751736
 30
0.0
 11
48.09233249177866
 21
208.5537252751735
 31
0.0
  0
LINE
  5
4FB
330
D48
100
AcDbEntity
  8
1
  6
Continuous
100
AcDbLine
 10
48.99233249177864
 20
206.0645958547493
 30
0.0
 11
48.99233249177864
 21
212.5537252751735
 31
0.0
  0
LINE
  5
4FC
330
D48
100
AcDbEntity
  8
1
  6
Continuous
100
AcDbLine
 10
50.59233249177864
 20
206.0645958547493
 30
0.0
 11
50.59233249177864
 21
212.5537252751735
 31
0.0
  0
ARC
  5
4FD
330
D48
100
AcDbEntity
  8
1
  6
Continuous
100
AcDbCircle
 10
46.49233249177864
 20
203.6537252751736
 30
0.0
 40
1.6
100
AcDbArc
 50
270.0
 51
0.0
  0
LINE
  5
4FE
330
D48
100
AcDbEntity
  8
1
  6
Continuous
100
AcDbLine
 10
48.09233249177866
 20
207.0537252751734
 30
0.0
 11
48.49233249177864
 21
207.0537252751734
 31
0.0
  0
LINE
  5
4FF
330
D48
100
AcDbEntity
  8
1
  6
Continuous
100
AcDbLine
 10
48.09233249177866
 20
205.0537252751734
 30
0.0
 11
48.49233249177864
 21
205.0537252751734
 31
0.0
  0
LINE
  5
500
330
D48
100
AcDbEntity
  8
1
  6
Continuous
100
AcDbLine
 10
48.49233249177864
 20
205.0537252751734
 30
0.0
 11
48.49233249177864
 21
207.0537252751734
 31
0.0
  0
ARC
  5
501
330
D48
100
AcDbEntity
  8
1
  6
Continuous
100
AcDbCircle
 10
53.99233249177864
 20
208.6537252751734
 30
0.0
 40
3.299999999999998
100
AcDbArc
 50
231.6822818819083
 51
240.997
  0
ARC
  5
502
330
D48
100
AcDbEntity
  8
1
  6
Continuous
100
AcDbCircle
 10
53.99233249177864
 20
208.6537252751734
 30
0.0
 40
4.7
100
AcDbArc
 50
213.42730950603
 51
250.097
  0
LINE
  5
503
330
D48
100
AcDbEntity
  8
1
  6
Continuous
100
AcDbLine
 10
52.39233249177863
 20
204.1537252751734
 30
0.0
 11
52.39233249177863
 21
206.0645958547493
 31
0.0
  0
LINE
  5
504
330
D48
100
AcDbEntity
  8
1
  6
Continuous
100
AcDbLine
 10
50.59233249177864
 20
212.5537252751735
 30
0.0
 11
48.99233249177864
 21
212.5537252751735
 31
0.0
  0
LINE
  5
505
330
D48
100
AcDbEntity
  8
1
  6
Continuous
100
AcDbLine
 10
48.49233249177864
 20
212.0537252751732
 30
0.0
 11
48.49233249177864
 21
214.0537252751734
 31
0.0
  0
LINE
  5
506
330
D48
100
AcDbEntity
  8
1
  6
Continuous
100
AcDbLine
 10
48.09233249177864
 20
211.5537252751735
 30
0.0
 11
48.09233249177866
 21
212.0537252751732
 31
0.0
  0
LINE
  5
507
330
D48
100
AcDbEntity
  8
1
  6
Continuous
100
AcDbLine
 10
46.49233249177864
 20
211.5537252751735
 30
0.0
 11
46.49233249177864
 21
212.0537252751732
 31
0.0
  0
LINE
  5
509
330
D48
100
AcDbEntity
  8
1
  6
Continuous
100
AcDbLine
 10
45.99233249177864
 20
211.5537252751735
 30
0.0
 11
45.99233249177864
 21
214.0537252751734
 31
0.0
  0
LINE
  5
50A
330
D48
100
AcDbEntity
  8
1
  6
Continuous
100
AcDbLine
 10
50.59233249177864
 20
211.0537252751734
 30
0.0
 11
51.49233249177864
 21
211.0537252751734
 31
0.0
  0
ARC
  5
50B
330
D48
100
AcDbEntity
  8
1
  6
Continuous
100
AcDbCircle
 10
53.99233249177864
 20
208.6537252751734
 30
0.0
 40
3.299999999999998
100
AcDbArc
 50
119.0029999999999
 51
130.749
  0
ARC
  5
50C
330
D48
100
AcDbEntity
  8
1
  6
Continuous
100
AcDbCircle
 10
53.99233249177864
 20
208.6537252751734
 30
0.0
 40
4.7
100
AcDbArc
 50
109.9029999999998
 51
136.3362620638054
  0
LINE
  5
50D
330
D48
100
AcDbEntity
  8
1
  6
Continuous
100
AcDbLine
 10
51.49233249177864
 20
209.0537252751734
 30
0.0
 11
51.49233249177864
 21
211.0537252751734
 31
0.0
  0
LINE
  5
50E
330
D48
100
AcDbEntity
  8
1
  6
Continuous
100
AcDbLine
 10
52.39233249177863
 20
211.1537252751734
 30
0.0
 11
52.39233249177863
 21
213.1537252751734
 31
0.0
  0
LINE
  5
50F
330
D48
100
AcDbEntity
  8
1
  6
Continuous
100
AcDbLine
 10
50.59233249177864
 20
209.0537252751734
 30
0.0
 11
51.49233249177864
 21
209.0537252751734
 31
0.0
  0
ARC
  5
510
330
D48
100
AcDbEntity
  8
1
  6
Continuous
100
AcDbCircle
 10
53.99233249177864
 20
208.6537252751734
 30
0.0
 40
3.299999999999998
100
AcDbArc
 50
270.0
 51
90.0
  0
LINE
  5
511
330
D48
100
AcDbEntity
  8
1
  6
Continuous
100
AcDbLine
 10
55.59233249177866
 20
205.7667252751734
 30
0.0
 11
55.59233249177866
 21
211.5397252751735
 31
0.0
  0
LINE
  5
512
330
D48
100
AcDbEntity
  8
1
  6
Continuous
100
AcDbLine
 10
55.34883249177866
 20
204.1537252751734
 30
0.0
 11
55.59233249177866
 21
204.1537252751734
 31
0.0
  0
LINE
  5
513
330
D48
100
AcDbEntity
  8
1
  6
Continuous
100
AcDbLine
 10
53.99233249177864
 20
204.1537252751734
 30
0.0
 11
53.99233249177864
 21
206.0645958547493
 31
0.0
  0
LINE
  5
514
330
D48
100
AcDbEntity
  8
1
  6
Continuous
100
AcDbLine
 10
55.59233249177866
 20
204.1537252751734
 30
0.0
 11
55.59233249177866
 21
204.2337252751734
 31
0.0
  0
LINE
  5
515
330
D48
100
AcDbEntity
  8
1
  6
Continuous
100
AcDbLine
 10
55.59233249177866
 20
213.0727252751735
 30
0.0
 11
55.59233249177866
 21
213.1537252751734
 31
0.0
  0
LINE
  5
516
330
D48
100
AcDbEntity
  8
1
  6
Continuous
100
AcDbLine
 10
55.34883249177866
 20
213.1537252751734
 30
0.0
 11
55.59233249177866
 21
213.1537252751734
 31
0.0
  0
LINE
  5
517
330
D48
100
AcDbEntity
  8
1
  6
Continuous
100
AcDbLine
 10
53.99233249177864
 20
211.1537252751734
 30
0.0
 11
53.99233249177864
 21
213.1537252751734
 31
0.0
  0
ARC
  5
562
330
D48
100
AcDbEntity
  8
1
  6
Continuous
100
AcDbCircle
 10
246.0924324917787
 20
120.1947022751735
 30
0.0
 40
2.1
100
AcDbArc
 50
128.7968
 51
180.0
  0
LINE
  5
563
330
D48
100
AcDbEntity
  8
1
  6
Continuous
100
AcDbLine
 10
245.7794324917788
 20
120.5847022751735
 30
0.0
 11
248.2084324917786
 21
122.5367022751735
 31
0.0
  0
ARC
  5
564
330
D48
100
AcDbEntity
  8
1
  6
Continuous
100
AcDbCircle
 10
224.8924324917786
 20
120.1947022751735
 30
0.0
 40
2.1
100
AcDbArc
 50
0.0
 51
51.2032
  0
LINE
  5
565
330
D48
100
AcDbEntity
  8
1
  6
Continuous
100
AcDbLine
 10
243.4924324917786
 20
122.9537252751735
 30
0.0
 11
243.4924324917786
 21
119.9537252751735
 31
0.0
  0
LINE
  5
566
330
D48
100
AcDbEntity
  8
1
  6
Continuous
100
AcDbLine
 10
227.4924324917786
 20
122.9537252751735
 30
0.0
 11
227.4924324917786
 21
119.9537252751735
 31
0.0
  0
LINE
  5
567
330
D48
100
AcDbEntity
  8
4
  6
CENTER
100
AcDbLine
 10
235.4924324917786
 20
155.8037252751732
 30
0.0
 11
235.4924324917786
 21
95.45372527517356
 31
0.0
  0
LINE
  5
568
330
D48
100
AcDbEntity
  8
1
  6
Continuous
100
AcDbLine
 10
225.2054324917784
 20
120.5847022751735
 30
0.0
 11
222.7764324917785
 21
122.5367022751735
 31
0.0
  0
ARC
  5
569
330
D48
100
AcDbEntity
  8
1
  6
Continuous
100
AcDbCircle
 10
235.4924324917786
 20
105.9537252751735
 30
0.0
 40
5.5
100
AcDbArc
 50
180.0
 51
0.0
  0
CIRCLE
  5
56A
330
D48
100
AcDbEntity
  8
1
  6
Continuous
100
AcDbCircle
 10
235.4924324917786
 20
106.4537252751735
 30
0.0
 40
1.6
  0
CIRCLE
  5
56B
330
D48
100
AcDbEntity
  8
1
  6
Continuous
100
AcDbCircle
 10
235.4924324917786
 20
117.4537252751735
 30
0.0
 40
1.6
  0
ARC
  5
56C
330
D48
100
AcDbEntity
  8
1
  6
Continuous
100
AcDbCircle
 10
235.4924324917786
 20
105.4537252751735
 30
0.0
 40
6.0
100
AcDbArc
 50
180.0
 51
0.0
  0
LINE
  5
56D
330
D48
100
AcDbEntity
  8
4
  6
CENTER
100
AcDbLine
 10
231.8924324917786
 20
106.4537252751735
 30
0.0
 11
239.0924324917784
 21
106.4537252751735
 31
0.0
  0
LINE
  5
56E
330
D48
100
AcDbEntity
  8
4
  6
CENTER
100
AcDbLine
 10
248.4924324917786
 20
117.4537252751735
 30
0.0
 11
222.4924324917787
 21
117.4537252751735
 31
0.0
  0
LINE
  5
56F
330
D48
100
AcDbEntity
  8
1
  6
Continuous
100
AcDbLine
 10
229.4924324917785
 20
119.9537252751735
 30
0.0
 11
229.4924324917786
 21
105.4537252751735
 31
0.0
  0
LINE
  5
570
330
D48
100
AcDbEntity
  8
1
  6
Continuous
100
AcDbLine
 10
229.9924324917786
 20
119.9537252751735
 30
0.0
 11
229.9924324917786
 21
105.9537252751735
 31
0.0
  0
LINE
  5
571
330
D48
100
AcDbEntity
  8
1
  6
Continuous
100
AcDbLine
 10
229.9924324917786
 20
119.9537252751735
 30
0.0
 11
227.4924324917786
 21
119.9537252751735
 31
0.0
  0
LINE
  5
572
330
D48
100
AcDbEntity
  8
1
  6
Continuous
100
AcDbLine
 10
229.4924324917786
 20
113.4537252751735
 30
0.0
 11
227.8924324917785
 21
113.4537252751735
 31
0.0
  0
LINE
  5
573
330
D48
100
AcDbEntity
  8
1
  6
Continuous
100
AcDbLine
 10
227.8924324917785
 20
119.9537252751735
 30
0.0
 11
227.8924324917785
 21
113.4537252751735
 31
0.0
  0
LINE
  5
574
330
D48
100
AcDbEntity
  8
1
  6
Continuous
100
AcDbLine
 10
225.3924324917786
 20
120.1947022751735
 30
0.0
 11
225.3924324917786
 21
113.9537252751735
 31
0.0
  0
LINE
  5
575
330
D48
100
AcDbEntity
  8
1
  6
Continuous
100
AcDbLine
 10
226.9924324917784
 20
120.1947022751735
 30
0.0
 11
226.9924324917784
 21
113.9537252751735
 31
0.0
  0
LINE
  5
576
330
D48
100
AcDbEntity
  8
1
  6
Continuous
100
AcDbLine
 10
227.8924324917785
 20
115.9537252751735
 30
0.0
 11
226.9924324917783
 21
115.9537252751735
 31
0.0
  0
LINE
  5
577
330
D48
100
AcDbEntity
  8
1
  6
Continuous
100
AcDbLine
 10
225.3924324917786
 20
113.9537252751735
 30
0.0
 11
226.9924324917784
 21
113.9537252751735
 31
0.0
  0
ARC
  5
578
330
D48
100
AcDbEntity
  8
1
  6
Continuous
100
AcDbCircle
 10
224.8924324917786
 20
120.1947022751735
 30
0.0
 40
0.5
100
AcDbArc
 50
0.0
 51
51.2032
  0
LINE
  5
579
330
D48
100
AcDbEntity
  8
1
  6
Continuous
100
AcDbLine
 10
227.8924324917785
 20
118.9537252751735
 30
0.0
 11
226.9924324917783
 21
118.9537252751735
 31
0.0
  0
LINE
  5
57A
330
D48
100
AcDbEntity
  8
1
  6
Continuous
100
AcDbLine
 10
224.4924324917787
 20
118.4537252751735
 30
0.0
 11
224.4924324917787
 21
116.4537252751735
 31
0.0
  0
LINE
  5
57B
330
D48
100
AcDbEntity
  8
1
  6
Continuous
100
AcDbLine
 10
225.3924324917786
 20
116.4537252751735
 30
0.0
 11
224.4924324917787
 21
116.4537252751735
 31
0.0
  0
LINE
  5
57C
330
D48
100
AcDbEntity
  8
1
  6
Continuous
100
AcDbLine
 10
225.3924324917786
 20
118.4537252751735
 30
0.0
 11
224.4924324917787
 21
118.4537252751735
 31
0.0
  0
LINE
  5
57D
330
D48
100
AcDbEntity
  8
1
  6
Continuous
100
AcDbLine
 10
241.4924324917785
 20
119.9537252751735
 30
0.0
 11
241.4924324917786
 21
105.4537252751735
 31
0.0
  0
LINE
  5
57E
330
D48
100
AcDbEntity
  8
1
  6
Continuous
100
AcDbLine
 10
240.9924324917787
 20
119.9537252751735
 30
0.0
 11
240.9924324917787
 21
105.9537252751735
 31
0.0
  0
LINE
  5
57F
330
D48
100
AcDbEntity
  8
1
  6
Continuous
100
AcDbLine
 10
243.9924324917783
 20
118.9537252751735
 30
0.0
 11
243.0924324917784
 21
118.9537252751735
 31
0.0
  0
LINE
  5
580
330
D48
100
AcDbEntity
  8
1
  6
Continuous
100
AcDbLine
 10
243.9924324917783
 20
115.9537252751735
 30
0.0
 11
243.0924324917784
 21
115.9537252751735
 31
0.0
  0
LINE
  5
581
330
D48
100
AcDbEntity
  8
1
  6
Continuous
100
AcDbLine
 10
243.0924324917784
 20
119.9537252751735
 30
0.0
 11
243.0924324917784
 21
113.4537252751735
 31
0.0
  0
LINE
  5
582
330
D48
100
AcDbEntity
  8
1
  6
Continuous
100
AcDbLine
 10
243.0924324917784
 20
113.4537252751735
 30
0.0
 11
241.4924324917786
 21
113.4537252751735
 31
0.0
  0
LINE
  5
583
330
D48
100
AcDbEntity
  8
1
  6
Continuous
100
AcDbLine
 10
243.4924324917786
 20
119.9537252751735
 30
0.0
 11
240.9924324917787
 21
119.9537252751735
 31
0.0
  0
LINE
  5
584
330
D48
100
AcDbEntity
  8
1
  6
Continuous
100
AcDbLine
 10
243.9924324917784
 20
120.1947022751735
 30
0.0
 11
243.9924324917784
 21
113.9537252751735
 31
0.0
  0
LINE
  5
585
330
D48
100
AcDbEntity
  8
1
  6
Continuous
100
AcDbLine
 10
245.5924324917787
 20
120.1947022751735
 30
0.0
 11
245.5924324917787
 21
113.9537252751735
 31
0.0
  0
LINE
  5
586
330
D48
100
AcDbEntity
  8
1
  6
Continuous
100
AcDbLine
 10
245.5924324917787
 20
113.9537252751735
 30
0.0
 11
243.9924324917784
 21
113.9537252751735
 31
0.0
  0
ARC
  5
587
330
D48
100
AcDbEntity
  8
1
  6
Continuous
100
AcDbCircle
 10
246.0924324917787
 20
120.1947022751735
 30
0.0
 40
0.5
100
AcDbArc
 50
128.7968
 51
180.0
  0
LINE
  5
588
330
D48
100
AcDbEntity
  8
1
  6
Continuous
100
AcDbLine
 10
246.4924324917786
 20
118.4537252751735
 30
0.0
 11
245.5924324917787
 21
118.4537252751735
 31
0.0
  0
LINE
  5
589
330
D48
100
AcDbEntity
  8
1
  6
Continuous
100
AcDbLine
 10
246.4924324917786
 20
118.4537252751735
 30
0.0
 11
246.4924324917786
 21
116.4537252751735
 31
0.0
  0
LINE
  5
58A
330
D48
100
AcDbEntity
  8
1
  6
Continuous
100
AcDbLine
 10
246.4924324917786
 20
116.4537252751735
 30
0.0
 11
245.5924324917787
 21
116.4537252751735
 31
0.0
  0
LINE
  5
58B
330
D48
100
AcDbEntity
  8
1
  6
Continuous
100
AcDbLine
 10
243.9924324917785
 20
147.8037252751734
 30
0.0
 11
226.9924324917786
 21
147.8037252751734
 31
0.0
  0
LINE
  5
58C
330
D48
100
AcDbEntity
  8
1
  6
Continuous
100
AcDbLine
 10
243.9924324917785
 20
150.8037252751734
 30
0.0
 11
226.9924324917786
 21
150.8037252751734
 31
0.0
  0
LINE
  5
58D
330
D48
100
AcDbEntity
  8
1
  6
Continuous
100
AcDbLine
 10
229.4924324917786
 20
134.9537252751735
 30
0.0
 11
241.4924324917786
 21
134.9537252751735
 31
0.0
  0
LINE
  5
58E
330
D48
100
AcDbEntity
  8
1
  6
Continuous
100
AcDbLine
 10
243.0924324917784
 20
135.8537252751734
 30
0.0
 11
227.8924324917785
 21
135.8537252751734
 31
0.0
  0
LINE
  5
58F
330
D48
100
AcDbEntity
  8
1
  6
Continuous
100
AcDbLine
 10
243.0924324917784
 20
137.4537252751735
 30
0.0
 11
227.8924324917785
 21
137.4537252751735
 31
0.0
  0
LINE
  5
590
330
D48
100
AcDbEntity
  8
4
  6
CENTER
100
AcDbLine
 10
248.4924324917786
 20
149.3037252751734
 30
0.0
 11
222.4924324917787
 21
149.3037252751734
 31
0.0
  0
LINE
  5
591
330
D48
100
AcDbEntity
  8
1
  6
Continuous
100
AcDbLine
 10
221.9924324917784
 20
143.7909822751734
 30
0.0
 11
221.9924324917784
 21
138.4111780061733
 31
0.0
  0
LINE
  5
592
330
D48
100
AcDbEntity
  8
1
  6
Continuous
100
AcDbLine
 10
220.3924324917786
 20
143.7909822751734
 30
0.0
 11
220.3924324917786
 21
138.1974580061733
 31
0.0
  0
LINE
  5
593
330
D48
100
AcDbEntity
  8
1
  6
Continuous
100
AcDbLine
 10
217.8997524917786
 20
134.4396232751735
 30
0.0
 11
220.3924324917786
 21
134.2066632751734
 31
0.0
  0
LINE
  5
594
330
D48
100
AcDbEntity
  8
1
  6
Continuous
100
AcDbLine
 10
217.8997524917786
 20
136.4768232751734
 30
0.0
 11
220.3924324917786
 21
136.2438632751733
 31
0.0
  0
LINE
  5
595
330
D48
100
AcDbEntity
  8
1
  6
Continuous
100
AcDbLine
 10
225.8997524917786
 20
134.8586982751734
 30
0.0
 11
217.8997524917786
 21
133.7900982751732
 31
0.0
  0
LINE
  5
596
330
D48
100
AcDbEntity
  8
1
  6
Continuous
100
AcDbLine
 10
225.8997524917786
 20
138.9330982751735
 30
0.0
 11
217.8997524917786
 21
137.8644982751733
 31
0.0
  0
LINE
  5
597
330
D48
100
AcDbEntity
  8
1
  6
Continuous
100
AcDbLine
 10
226.0851114917786
 20
137.5454232751734
 30
0.0
 11
218.0851114917786
 21
136.4768232751734
 31
0.0
  0
LINE
  5
598
330
D48
100
AcDbEntity
  8
1
  6
Continuous
100
AcDbLine
 10
225.8997524917786
 20
136.8958982751734
 30
0.0
 11
217.8997524917786
 21
135.8272982751735
 31
0.0
  0
LINE
  5
599
330
D48
100
AcDbEntity
  8
1
  6
Continuous
100
AcDbLine
 10
226.0851114917786
 20
135.5082232751735
 30
0.0
 11
218.0851114917786
 21
134.4396232751735
 31
0.0
  0
LINE
  5
59A
330
D48
100
AcDbEntity
  8
1
  6
Continuous
100
AcDbLine
 10
217.8997524917786
 20
130.3652232751733
 30
0.0
 11
220.3924324917786
 21
130.1322632751732
 31
0.0
  0
LINE
  5
59B
330
D48
100
AcDbEntity
  8
1
  6
Continuous
100
AcDbLine
 10
217.8997524917786
 20
132.4024232751734
 30
0.0
 11
220.3924324917786
 21
132.1694632751732
 31
0.0
  0
LINE
  5
59C
330
D48
100
AcDbEntity
  8
1
  6
Continuous
100
AcDbLine
 10
217.9924324917787
 20
126.2846352751733
 30
0.0
 11
221.9924324917787
 21
126.2846352751733
 31
0.0
  0
LINE
  5
59D
330
D48
100
AcDbEntity
  8
1
  6
Continuous
100
AcDbLine
 10
217.8997524917786
 20
128.3280232751733
 30
0.0
 11
220.3924324917786
 21
128.0950632751732
 31
0.0
  0
LINE
  5
59E
330
D48
100
AcDbEntity
  8
1
  6
Continuous
100
AcDbLine
 10
226.0851114917786
 20
133.4710232751735
 30
0.0
 11
218.0851114917786
 21
132.4024232751734
 31
0.0
  0
LINE
  5
59F
330
D48
100
AcDbEntity
  8
1
  6
Continuous
100
AcDbLine
 10
225.8997524917786
 20
132.8214982751733
 30
0.0
 11
217.8997524917786
 21
131.7528982751734
 31
0.0
  0
LINE
  5
5A0
330
D48
100
AcDbEntity
  8
1
  6
Continuous
100
AcDbLine
 10
226.0851114917786
 20
131.4338232751733
 30
0.0
 11
218.0851114917786
 21
130.3652232751733
 31
0.0
  0
LINE
  5
5A1
330
D48
100
AcDbEntity
  8
1
  6
Continuous
100
AcDbLine
 10
225.8997524917786
 20
130.7842982751734
 30
0.0
 11
217.8997524917786
 21
129.7156982751733
 31
0.0
  0
LINE
  5
5A2
330
D48
100
AcDbEntity
  8
1
  6
Continuous
100
AcDbLine
 10
226.0851114917786
 20
129.3966232751733
 30
0.0
 11
218.0851114917786
 21
128.3280232751733
 31
0.0
  0
LINE
  5
5A3
330
D48
100
AcDbEntity
  8
1
  6
Continuous
100
AcDbLine
 10
225.8997504917786
 20
128.7470982751734
 30
0.0
 11
217.8997504917786
 21
127.6784722751733
 31
0.0
  0
LINE
  5
5A4
330
D48
100
AcDbEntity
  8
1
  6
Continuous
100
AcDbLine
 10
226.0851134917787
 20
127.3594232751734
 30
0.0
 11
218.0851134917787
 21
126.2907982751734
 31
0.0
  0
LINE
  5
5A5
330
D48
100
AcDbEntity
  8
1
  6
Continuous
100
AcDbLine
 10
217.2924324917786
 20
138.9392602751734
 30
0.0
 11
220.3924324917786
 21
138.9392602751734
 31
0.0
  0
ARC
  5
5A6
330
D48
100
AcDbEntity
  8
1
  6
Continuous
100
AcDbCircle
 10
217.9924324917787
 20
126.9846352751732
 30
0.0
 40
0.7
100
AcDbArc
 50
97.60842700000004
 51
277.608427
  0
ARC
  5
5A7
330
D48
100
AcDbEntity
  8
1
  6
Continuous
100
AcDbCircle
 10
217.9924324917787
 20
131.0590602751734
 30
0.0
 40
0.7
100
AcDbArc
 50
97.60824800000001
 51
277.6082479999999
  0
ARC
  5
5A8
330
D48
100
AcDbEntity
  8
1
  6
Continuous
100
AcDbCircle
 10
217.9924324917787
 20
129.0218602751733
 30
0.0
 40
0.7
100
AcDbArc
 50
97.60824800000001
 51
277.6082479999999
  0
ARC
  5
5A9
330
D48
100
AcDbEntity
  8
1
  6
Continuous
100
AcDbCircle
 10
217.9924324917787
 20
137.1706602751734
 30
0.0
 40
0.7
100
AcDbArc
 50
97.60824800000001
 51
277.6082479999999
  0
ARC
  5
5AA
330
D48
100
AcDbEntity
  8
1
  6
Continuous
100
AcDbCircle
 10
217.9924324917787
 20
135.1334602751733
 30
0.0
 40
0.7
100
AcDbArc
 50
97.60824800000001
 51
277.6082479999999
  0
ARC
  5
5AB
330
D48
100
AcDbEntity
  8
1
  6
Continuous
100
AcDbCircle
 10
217.9924324917787
 20
133.0962602751732
 30
0.0
 40
0.7
100
AcDbArc
 50
97.60824800000001
 51
277.6082479999999
  0
LINE
  5
5AC
330
D48
100
AcDbEntity
  8
1
  6
Continuous
100
AcDbLine
 10
217.9314154917786
 20
138.2419252751734
 30
0.0
 11
219.6195194917787
 21
138.0942162751735
 31
0.0
  0
ARC
  5
5AD
330
D48
100
AcDbEntity
  8
1
  6
Continuous
100
AcDbCircle
 10
217.9924324917787
 20
138.9392602751734
 30
0.0
 40
0.7
100
AcDbArc
 50
180.0
 51
264.999355
  0
ARC
  5
5AE
330
D48
100
AcDbEntity
  8
1
  6
Continuous
100
AcDbCircle
 10
225.9924324917786
 20
132.1276602751733
 30
0.0
 40
0.7
100
AcDbArc
 50
277.6082479999999
 51
97.60824800000001
  0
LINE
  5
5AF
330
D48
100
AcDbEntity
  8
1
  6
Continuous
100
AcDbLine
 10
220.3924324917786
 20
132.7106232751734
 30
0.0
 11
220.3924324917786
 21
132.0858582751734
 31
0.0
  0
LINE
  5
5B0
330
D48
100
AcDbEntity
  8
1
  6
Continuous
100
AcDbLine
 10
227.4924324917786
 20
134.9537252751735
 30
0.0
 11
227.4924324917786
 21
131.9537252751735
 31
0.0
  0
LINE
  5
5B1
330
D48
100
AcDbEntity
  8
1
  6
Continuous
100
AcDbLine
 10
231.4924324917785
 20
133.4537252751735
 30
0.0
 11
231.4924324917785
 21
124.4537252751735
 31
0.0
  0
LINE
  5
5B2
330
D48
100
AcDbEntity
  8
1
  6
Continuous
100
AcDbLine
 10
233.9924324917786
 20
133.4537252751735
 30
0.0
 11
233.9924324917786
 21
124.4537252751735
 31
0.0
  0
LINE
  5
5B3
330
D48
100
AcDbEntity
  8
1
  6
Continuous
100
AcDbLine
 10
229.4924324917786
 20
135.4537252751735
 30
0.0
 11
229.4924324917786
 21
122.9537252751735
 31
0.0
  0
LINE
  5
5B4
330
D48
100
AcDbEntity
  8
1
  6
Continuous
100
AcDbLine
 10
227.8924324917785
 20
137.4537252751735
 30
0.0
 11
227.8924324917785
 21
122.9537252751735
 31
0.0
  0
LINE
  5
5B5
330
D48
100
AcDbEntity
  8
1
  6
Continuous
100
AcDbLine
 10
229.9924324917786
 20
122.9537252751735
 30
0.0
 11
227.4924324917786
 21
122.9537252751735
 31
0.0
  0
LINE
  5
5B6
330
D48
100
AcDbEntity
  8
1
  6
Continuous
100
AcDbLine
 10
223.5924324917787
 20
127.0264556209703
 30
0.0
 11
223.5924324917787
 21
124.1737022751735
 31
0.0
  0
ARC
  5
5B7
330
D48
100
AcDbEntity
  8
1
  6
Continuous
100
AcDbCircle
 10
225.9924324917786
 20
126.2846352751733
 30
0.0
 40
0.7
100
AcDbArc
 50
0.0
 51
84.99935499999997
  0
LINE
  5
5B8
330
D48
100
AcDbEntity
  8
1
  6
Continuous
100
AcDbLine
 10
223.5924324917787
 20
126.2846352751733
 30
0.0
 11
226.6924324917785
 21
126.2846352751733
 31
0.0
  0
LINE
  5
5B9
330
D48
100
AcDbEntity
  8
1
  6
Continuous
100
AcDbLine
 10
223.7794324917786
 20
123.7837022751735
 30
0.0
 11
226.2084324917784
 21
121.8317022751735
 31
0.0
  0
LINE
  5
5BA
330
D48
100
AcDbEntity
  8
1
  6
Continuous
100
AcDbLine
 10
221.9924324917787
 20
126.8127306209703
 30
0.0
 11
221.9924324917787
 21
123.7847022751733
 31
0.0
  0
LINE
  5
5BB
330
D48
100
AcDbEntity
  8
1
  6
Continuous
100
AcDbLine
 10
220.3924324917786
 20
126.5990056209703
 30
0.0
 11
220.3924324917786
 21
123.7847022751733
 31
0.0
  0
LINE
  5
5BC
330
D48
100
AcDbEntity
  8
1
  6
Continuous
100
AcDbLine
 10
220.3924324917786
 20
123.7847022751733
 30
0.0
 11
221.9924324917787
 21
123.7847022751733
 31
0.0
  0
ARC
  5
5BD
330
D48
100
AcDbEntity
  8
1
  6
Continuous
100
AcDbCircle
 10
224.0924324917786
 20
124.1737022751735
 30
0.0
 40
0.5
100
AcDbArc
 50
180.0
 51
231.203
  0
ARC
  5
5BE
330
D48
100
AcDbEntity
  8
1
  6
Continuous
100
AcDbCircle
 10
224.0924324917786
 20
124.1737022751735
 30
0.0
 40
2.1
100
AcDbArc
 50
180.0
 51
231.203
  0
LINE
  5
5BF
330
D48
100
AcDbEntity
  8
1
  6
Continuous
100
AcDbLine
 10
223.5924324917787
 20
128.9800582751734
 30
0.0
 11
226.0851114917786
 21
128.7470982751734
 31
0.0
  0
LINE
  5
5C0
330
D48
100
AcDbEntity
  8
1
  6
Continuous
100
AcDbLine
 10
223.5924324917787
 20
131.0172582751735
 30
0.0
 11
226.0851114917786
 21
130.7842982751734
 31
0.0
  0
LINE
  5
5C1
330
D48
100
AcDbEntity
  8
1
  6
Continuous
100
AcDbLine
 10
223.5924324917787
 20
129.0636632751734
 30
0.0
 11
223.5924324917787
 21
128.4388902751734
 31
0.0
  0
LINE
  5
5C2
330
D48
100
AcDbEntity
  8
1
  6
Continuous
100
AcDbLine
 10
223.5924324917787
 20
131.1008632751732
 30
0.0
 11
223.5924324917787
 21
130.4760982751734
 31
0.0
  0
LINE
  5
5C3
330
D48
100
AcDbEntity
  8
1
  6
Continuous
100
AcDbLine
 10
221.9924324917787
 20
130.8871432751733
 30
0.0
 11
221.9924324917787
 21
130.2623782751734
 31
0.0
  0
LINE
  5
5C4
330
D48
100
AcDbEntity
  8
1
  6
Continuous
100
AcDbLine
 10
220.3924324917786
 20
130.6734232751733
 30
0.0
 11
220.3924324917786
 21
130.0486582751734
 31
0.0
  0
LINE
  5
5C5
330
D48
100
AcDbEntity
  8
1
  6
Continuous
100
AcDbLine
 10
221.9924324917787
 20
128.8499432751734
 30
0.0
 11
221.9924324917787
 21
128.2251652751733
 31
0.0
  0
LINE
  5
5C6
330
D48
100
AcDbEntity
  8
1
  6
Continuous
100
AcDbLine
 10
220.3924324917786
 20
128.6362232751735
 30
0.0
 11
220.3924324917786
 21
128.0114402751733
 31
0.0
  0
ARC
  5
5C7
330
D48
100
AcDbEntity
  8
1
  6
Continuous
100
AcDbCircle
 10
225.9924324917786
 20
130.0904602751734
 30
0.0
 40
0.7
100
AcDbArc
 50
277.6082479999999
 51
97.60824800000001
  0
ARC
  5
5C8
330
D48
100
AcDbEntity
  8
1
  6
Continuous
100
AcDbCircle
 10
225.9924324917786
 20
128.0532602751732
 30
0.0
 40
0.7
100
AcDbArc
 50
277.608427
 51
97.60842700000004
  0
LINE
  5
5C9
330
D48
100
AcDbEntity
  8
1
  6
Continuous
100
AcDbLine
 10
224.3652544917785
 20
127.1296872751732
 30
0.0
 11
226.0534494917787
 21
126.9819702751734
 31
0.0
  0
LINE
  5
5CA
330
D48
100
AcDbEntity
  8
1
  6
Continuous
100
AcDbLine
 10
227.4924324917786
 20
131.9537252751735
 30
0.0
 11
227.8924324917785
 21
131.9537252751735
 31
0.0
  0
LINE
  5
5CB
330
D48
100
AcDbEntity
  8
1
  6
Continuous
100
AcDbLine
 10
229.9924324917786
 20
131.9537252751735
 30
0.0
 11
229.9924324917786
 21
122.9537252751735
 31
0.0
  0
LINE
  5
5CC
330
D48
100
AcDbEntity
  8
1
  6
Continuous
100
AcDbLine
 10
233.9924324917786
 20
124.4537252751735
 30
0.0
 11
231.4924324917785
 21
124.4537252751735
 31
0.0
  0
LINE
  5
5CD
330
D48
100
AcDbEntity
  8
1
  6
Continuous
100
AcDbLine
 10
229.9924324917786
 20
131.9537252751735
 30
0.0
 11
229.4924324917786
 21
131.9537252751735
 31
0.0
  0
LINE
  5
5CE
330
D48
100
AcDbEntity
  8
1
  6
Continuous
100
AcDbLine
 10
229.4924324917786
 20
135.4537252751735
 30
0.0
 11
227.8924324917785
 21
135.4537252751735
 31
0.0
  0
LINE
  5
5CF
330
D48
100
AcDbEntity
  8
1
  6
Continuous
100
AcDbLine
 10
223.5924324917787
 20
135.0916582751733
 30
0.0
 11
226.0851114917786
 21
134.8586982751734
 31
0.0
  0
LINE
  5
5D0
330
D48
100
AcDbEntity
  8
1
  6
Continuous
100
AcDbLine
 10
223.5924324917787
 20
137.1288582751734
 30
0.0
 11
226.0851114917786
 21
136.8958982751734
 31
0.0
  0
LINE
  5
5D1
330
D48
100
AcDbEntity
  8
1
  6
Continuous
100
AcDbLine
 10
223.5924324917787
 20
133.0544582751735
 30
0.0
 11
226.0851114917786
 21
132.8214982751733
 31
0.0
  0
LINE
  5
5D2
330
D48
100
AcDbEntity
  8
1
  6
Continuous
100
AcDbLine
 10
223.5924324917787
 20
137.2124632751735
 30
0.0
 11
223.5924324917787
 21
136.5876982751735
 31
0.0
  0
LINE
  5
5D3
330
D48
100
AcDbEntity
  8
1
  6
Continuous
100
AcDbLine
 10
221.9924324917787
 20
136.9987432751735
 30
0.0
 11
221.9924324917787
 21
136.3739782751734
 31
0.0
  0
LINE
  5
5D4
330
D48
100
AcDbEntity
  8
1
  6
Continuous
100
AcDbLine
 10
221.9924324917787
 20
134.9615432751734
 30
0.0
 11
221.9924324917787
 21
134.3367782751734
 31
0.0
  0
LINE
  5
5D5
330
D48
100
AcDbEntity
  8
1
  6
Continuous
100
AcDbLine
 10
223.5924324917787
 20
135.1752632751734
 30
0.0
 11
223.5924324917787
 21
134.5504982751734
 31
0.0
  0
LINE
  5
5D6
330
D48
100
AcDbEntity
  8
1
  6
Continuous
100
AcDbLine
 10
220.3924324917786
 20
136.7850232751735
 30
0.0
 11
220.3924324917786
 21
136.1602582751734
 31
0.0
  0
LINE
  5
5D7
330
D48
100
AcDbEntity
  8
1
  6
Continuous
100
AcDbLine
 10
220.3924324917786
 20
134.7478232751734
 30
0.0
 11
220.3924324917786
 21
134.1230582751735
 31
0.0
  0
LINE
  5
5D8
330
D48
100
AcDbEntity
  8
1
  6
Continuous
100
AcDbLine
 10
223.5924324917787
 20
133.1380632751733
 30
0.0
 11
223.5924324917787
 21
132.5132982751733
 31
0.0
  0
LINE
  5
5D9
330
D48
100
AcDbEntity
  8
1
  6
Continuous
100
AcDbLine
 10
221.9924324917787
 20
132.9243432751734
 30
0.0
 11
221.9924324917787
 21
132.2995782751732
 31
0.0
  0
ARC
  5
5DA
330
D48
100
AcDbEntity
  8
1
  6
Continuous
100
AcDbCircle
 10
225.9924324917786
 20
136.2020602751733
 30
0.0
 40
0.7
100
AcDbArc
 50
277.6082479999999
 51
97.60824800000001
  0
ARC
  5
5DB
330
D48
100
AcDbEntity
  8
1
  6
Continuous
100
AcDbCircle
 10
225.9924324917786
 20
134.1648602751732
 30
0.0
 40
0.7
100
AcDbArc
 50
277.6082479999999
 51
97.60824800000001
  0
LINE
  5
5DC
330
D48
100
AcDbEntity
  8
1
  6
Continuous
100
AcDbLine
 10
227.4924324917786
 20
134.9537252751735
 30
0.0
 11
227.8924324917785
 21
134.9537252751735
 31
0.0
  0
LINE
  5
5DD
330
D48
100
AcDbEntity
  8
1
  6
Continuous
100
AcDbLine
 10
221.9924324917787
 20
138.9392602751734
 30
0.0
 11
225.9924324917786
 21
138.9392602751734
 31
0.0
  0
LINE
  5
5DE
330
D48
100
AcDbEntity
  8
1
  6
Continuous
100
AcDbLine
 10
221.9924324917787
 20
141.4392482751735
 30
0.0
 11
223.5924324917787
 21
141.4392482751735
 31
0.0
  0
LINE
  5
5DF
330
D48
100
AcDbEntity
  8
1
  6
Continuous
100
AcDbLine
 10
223.5924324917787
 20
141.4392482751735
 30
0.0
 11
223.5924324917787
 21
138.6248980061734
 31
0.0
  0
LINE
  5
5E0
330
D48
100
AcDbEntity
  8
1
  6
Continuous
100
AcDbLine
 10
221.9924324917787
 20
138.9392602751734
 30
0.0
 11
223.5924324917787
 21
138.9392602751734
 31
0.0
  0
ARC
  5
5E1
330
D48
100
AcDbEntity
  8
1
  6
Continuous
100
AcDbCircle
 10
225.9924324917786
 20
138.2392602751734
 30
0.0
 40
0.7
100
AcDbArc
 50
277.6082479999999
 51
97.60824800000001
  0
LINE
  5
5E2
330
D48
100
AcDbEntity
  8
1
  6
Continuous
100
AcDbLine
 10
233.9924324917786
 20
133.4537252751735
 30
0.0
 11
231.4924324917785
 21
133.4537252751735
 31
0.0
  0
ARC
  5
5E3
330
D48
100
AcDbEntity
  8
1
  6
Continuous
100
AcDbCircle
 10
222.4924324917784
 20
143.7909822751734
 30
0.0
 40
2.1
100
AcDbArc
 50
90.0
 51
180.0
  0
LINE
  5
5E4
330
D48
100
AcDbEntity
  8
1
  6
Continuous
100
AcDbLine
 10
225.3924324917784
 20
151.8037252751734
 30
0.0
 11
225.3924324917784
 21
146.3909822751735
 31
0.0
  0
LINE
  5
5E5
330
D48
100
AcDbEntity
  8
1
  6
Continuous
100
AcDbLine
 10
226.9924324917786
 20
151.8037252751734
 30
0.0
 11
226.9924324917786
 21
146.3909822751735
 31
0.0
  0
LINE
  5
5E6
330
D48
100
AcDbEntity
  8
1
  6
Continuous
100
AcDbLine
 10
222.4924324917784
 20
145.8909822751735
 30
0.0
 11
224.8924324917784
 21
145.8909822751735
 31
0.0
  0
LINE
  5
5E7
330
D48
100
AcDbEntity
  8
1
  6
Continuous
100
AcDbLine
 10
222.4924324917784
 20
144.2909822751734
 30
0.0
 11
224.8924324917784
 21
144.2909822751734
 31
0.0
  0
ARC
  5
5E8
330
D48
100
AcDbEntity
  8
1
  6
Continuous
100
AcDbCircle
 10
222.4924324917784
 20
143.7909822751734
 30
0.0
 40
0.5
100
AcDbArc
 50
90.0
 51
180.0
  0
LINE
  5
5E9
330
D48
100
AcDbEntity
  8
1
  6
Continuous
100
AcDbLine
 10
226.6526354917784
 20
145.9069322751733
 30
0.0
 11
225.2722254917786
 21
145.9069322751733
 31
0.0
  0
ARC
  5
5EA
330
D48
100
AcDbEntity
  8
1
  6
Continuous
100
AcDbCircle
 10
224.8924324917784
 20
146.3909822751735
 30
0.0
 40
0.5
100
AcDbArc
 50
270.0
 51
0.0
  0
ARC
  5
5EB
330
D48
100
AcDbEntity
  8
1
  6
Continuous
100
AcDbCircle
 10
224.8924324917784
 20
146.3909822751735
 30
0.0
 40
2.1
100
AcDbArc
 50
270.0
 51
0.0
  0
LINE
  5
5EC
330
D48
100
AcDbEntity
  8
1
  6
Continuous
100
AcDbLine
 10
225.3924324917784
 20
151.8037252751734
 30
0.0
 11
226.9924324917786
 21
151.8037252751734
 31
0.0
  0
LINE
  5
5ED
330
D48
100
AcDbEntity
  8
1
  6
Continuous
100
AcDbLine
 10
224.4924324917787
 20
150.3037252751734
 30
0.0
 11
224.4924324917787
 21
148.3037252751734
 31
0.0
  0
LINE
  5
5EE
330
D48
100
AcDbEntity
  8
1
  6
Continuous
100
AcDbLine
 10
225.3924324917784
 20
148.3037252751734
 30
0.0
 11
224.4924324917787
 21
148.3037252751734
 31
0.0
  0
LINE
  5
5EF
330
D48
100
AcDbEntity
  8
1
  6
Continuous
100
AcDbLine
 10
225.3924324917784
 20
150.3037252751734
 30
0.0
 11
224.4924324917787
 21
150.3037252751734
 31
0.0
  0
LINE
  5
5F0
330
D48
100
AcDbEntity
  8
1
  6
Continuous
100
AcDbLine
 10
248.9924324917786
 20
143.7909822751734
 30
0.0
 11
248.9924324917786
 21
138.4111780061734
 31
0.0
  0
LINE
  5
5F1
330
D48
100
AcDbEntity
  8
1
  6
Continuous
100
AcDbLine
 10
250.5924324917787
 20
143.7909822751734
 30
0.0
 11
250.5924324917787
 21
138.6248980061734
 31
0.0
  0
LINE
  5
5F2
330
D48
100
AcDbEntity
  8
1
  6
Continuous
100
AcDbLine
 10
250.5924324917787
 20
138.9392602751734
 30
0.0
 11
252.9924324917786
 21
138.9392602751734
 31
0.0
  0
LINE
  5
5F3
330
D48
100
AcDbEntity
  8
1
  6
Continuous
100
AcDbLine
 10
250.5924324917787
 20
135.0916582751733
 30
0.0
 11
253.0851114917786
 21
134.8586982751734
 31
0.0
  0
LINE
  5
5F4
330
D48
100
AcDbEntity
  8
1
  6
Continuous
100
AcDbLine
 10
250.5924324917787
 20
137.1288582751734
 30
0.0
 11
253.0851114917786
 21
136.8958982751734
 31
0.0
  0
LINE
  5
5F5
330
D48
100
AcDbEntity
  8
1
  6
Continuous
100
AcDbLine
 10
250.5924324917787
 20
128.9800582751734
 30
0.0
 11
253.0851114917786
 21
128.7470982751734
 31
0.0
  0
LINE
  5
5F6
330
D48
100
AcDbEntity
  8
1
  6
Continuous
100
AcDbLine
 10
250.5924324917787
 20
131.0172582751735
 30
0.0
 11
253.0851114917786
 21
130.7842982751734
 31
0.0
  0
LINE
  5
5F7
330
D48
100
AcDbEntity
  8
1
  6
Continuous
100
AcDbLine
 10
250.5924324917787
 20
133.0544582751735
 30
0.0
 11
253.0851114917786
 21
132.8214982751733
 31
0.0
  0
LINE
  5
5F8
330
D48
100
AcDbEntity
  8
1
  6
Continuous
100
AcDbLine
 10
248.9924324917786
 20
126.2846352751733
 30
0.0
 11
253.6924324917785
 21
126.2846352751733
 31
0.0
  0
LINE
  5
5F9
330
D48
100
AcDbEntity
  8
1
  6
Continuous
100
AcDbLine
 10
252.8997524917786
 20
134.8586982751734
 30
0.0
 11
244.8997524917786
 21
133.7900982751732
 31
0.0
  0
LINE
  5
5FA
330
D48
100
AcDbEntity
  8
1
  6
Continuous
100
AcDbLine
 10
252.8997524917786
 20
138.9330982751735
 30
0.0
 11
244.8997524917786
 21
137.8644982751733
 31
0.0
  0
LINE
  5
5FB
330
D48
100
AcDbEntity
  8
1
  6
Continuous
100
AcDbLine
 10
253.0851114917786
 20
137.5454232751734
 30
0.0
 11
245.0851114917786
 21
136.4768232751734
 31
0.0
  0
LINE
  5
5FC
330
D48
100
AcDbEntity
  8
1
  6
Continuous
100
AcDbLine
 10
252.8997524917786
 20
136.8958982751734
 30
0.0
 11
244.8997524917786
 21
135.8272982751735
 31
0.0
  0
LINE
  5
5FD
330
D48
100
AcDbEntity
  8
1
  6
Continuous
100
AcDbLine
 10
253.0851114917786
 20
135.5082232751735
 30
0.0
 11
245.0851114917786
 21
134.4396232751735
 31
0.0
  0
LINE
  5
5FE
330
D48
100
AcDbEntity
  8
1
  6
Continuous
100
AcDbLine
 10
253.0851114917786
 20
133.4710232751735
 30
0.0
 11
245.0851114917786
 21
132.4024232751734
 31
0.0
  0
LINE
  5
5FF
330
D48
100
AcDbEntity
  8
1
  6
Continuous
100
AcDbLine
 10
252.8997524917786
 20
132.8214982751733
 30
0.0
 11
244.8997524917786
 21
131.7528982751734
 31
0.0
  0
LINE
  5
600
330
D48
100
AcDbEntity
  8
1
  6
Continuous
100
AcDbLine
 10
253.0851114917786
 20
131.4338232751733
 30
0.0
 11
245.0851114917786
 21
130.3652232751733
 31
0.0
  0
LINE
  5
601
330
D48
100
AcDbEntity
  8
1
  6
Continuous
100
AcDbLine
 10
252.8997524917786
 20
130.7842982751734
 30
0.0
 11
244.8997524917786
 21
129.7156982751733
 31
0.0
  0
LINE
  5
602
330
D48
100
AcDbEntity
  8
1
  6
Continuous
100
AcDbLine
 10
253.0851114917786
 20
129.3966232751733
 30
0.0
 11
245.0851114917786
 21
128.3280232751733
 31
0.0
  0
LINE
  5
603
330
D48
100
AcDbEntity
  8
1
  6
Continuous
100
AcDbLine
 10
252.8997504917786
 20
128.7470982751734
 30
0.0
 11
244.8997504917786
 21
127.6784722751733
 31
0.0
  0
LINE
  5
604
330
D48
100
AcDbEntity
  8
1
  6
Continuous
100
AcDbLine
 10
253.0851134917787
 20
127.3594232751734
 30
0.0
 11
245.0851134917787
 21
126.2907982751734
 31
0.0
  0
LINE
  5
605
330
D48
100
AcDbEntity
  8
1
  6
Continuous
100
AcDbLine
 10
247.3924324917786
 20
132.7106232751734
 30
0.0
 11
247.3924324917786
 21
132.0858582751734
 31
0.0
  0
LINE
  5
606
330
D48
100
AcDbEntity
  8
1
  6
Continuous
100
AcDbLine
 10
243.4924324917786
 20
134.9537252751735
 30
0.0
 11
243.4924324917786
 21
131.9537252751735
 31
0.0
  0
LINE
  5
607
330
D48
100
AcDbEntity
  8
1
  6
Continuous
100
AcDbLine
 10
239.4924324917786
 20
133.4537252751735
 30
0.0
 11
239.4924324917786
 21
124.4537252751735
 31
0.0
  0
LINE
  5
608
330
D48
100
AcDbEntity
  8
1
  6
Continuous
100
AcDbLine
 10
236.9924324917787
 20
133.4537252751735
 30
0.0
 11
236.9924324917787
 21
124.4537252751735
 31
0.0
  0
LINE
  5
609
330
D48
100
AcDbEntity
  8
1
  6
Continuous
100
AcDbLine
 10
241.4924324917786
 20
135.4537252751735
 30
0.0
 11
241.4924324917786
 21
122.9537252751735
 31
0.0
  0
LINE
  5
60A
330
D48
100
AcDbEntity
  8
1
  6
Continuous
100
AcDbLine
 10
243.0924324917784
 20
137.4537252751735
 30
0.0
 11
243.0924324917784
 21
122.9537252751735
 31
0.0
  0
LINE
  5
60B
330
D48
100
AcDbEntity
  8
1
  6
Continuous
100
AcDbLine
 10
240.9924324917787
 20
131.9537252751735
 30
0.0
 11
240.9924324917787
 21
122.9537252751735
 31
0.0
  0
LINE
  5
60C
330
D48
100
AcDbEntity
  8
1
  6
Continuous
100
AcDbLine
 10
239.4924324917786
 20
124.4537252751735
 30
0.0
 11
236.9924324917787
 21
124.4537252751735
 31
0.0
  0
LINE
  5
60D
330
D48
100
AcDbEntity
  8
1
  6
Continuous
100
AcDbLine
 10
243.4924324917786
 20
122.9537252751735
 30
0.0
 11
240.9924324917787
 21
122.9537252751735
 31
0.0
  0
LINE
  5
60E
330
D48
100
AcDbEntity
  8
1
  6
Continuous
100
AcDbLine
 10
243.0924324917784
 20
131.9537252751735
 30
0.0
 11
243.4924324917786
 21
131.9537252751735
 31
0.0
  0
LINE
  5
60F
330
D48
100
AcDbEntity
  8
1
  6
Continuous
100
AcDbLine
 10
241.4924324917786
 20
131.9537252751735
 30
0.0
 11
240.9924324917787
 21
131.9537252751735
 31
0.0
  0
LINE
  5
610
330
D48
100
AcDbEntity
  8
1
  6
Continuous
100
AcDbLine
 10
250.5924324917787
 20
127.0264556209703
 30
0.0
 11
250.5924324917787
 21
123.7847022751733
 31
0.0
  0
ARC
  5
611
330
D48
100
AcDbEntity
  8
1
  6
Continuous
100
AcDbCircle
 10
244.9924324917787
 20
126.9846352751732
 30
0.0
 40
0.7
100
AcDbArc
 50
97.60842700000004
 51
277.608427
  0
LINE
  5
612
330
D48
100
AcDbEntity
  8
1
  6
Continuous
100
AcDbLine
 10
247.3924324917786
 20
126.5990056209703
 30
0.0
 11
247.3924324917786
 21
124.1737022751735
 31
0.0
  0
LINE
  5
613
330
D48
100
AcDbEntity
  8
1
  6
Continuous
100
AcDbLine
 10
244.9924324917787
 20
126.2846352751733
 30
0.0
 11
247.3924324917786
 21
126.2846352751733
 31
0.0
  0
LINE
  5
614
330
D48
100
AcDbEntity
  8
1
  6
Continuous
100
AcDbLine
 10
247.2054324917787
 20
123.7837022751735
 30
0.0
 11
244.7764324917784
 21
121.8317022751735
 31
0.0
  0
ARC
  5
615
330
D48
100
AcDbEntity
  8
1
  6
Continuous
100
AcDbCircle
 10
246.8924324917787
 20
124.1737022751735
 30
0.0
 40
0.5
100
AcDbArc
 50
308.7970000000001
 51
0.0
  0
LINE
  5
616
330
D48
100
AcDbEntity
  8
1
  6
Continuous
100
AcDbLine
 10
250.5924324917787
 20
123.7847022751733
 30
0.0
 11
248.9924324917786
 21
123.7847022751733
 31
0.0
  0
LINE
  5
617
330
D48
100
AcDbEntity
  8
1
  6
Continuous
100
AcDbLine
 10
248.9924324917786
 20
126.8127306209703
 30
0.0
 11
248.9924324917786
 21
123.7847022751733
 31
0.0
  0
ARC
  5
618
330
D48
100
AcDbEntity
  8
1
  6
Continuous
100
AcDbCircle
 10
246.8924324917787
 20
124.1737022751735
 30
0.0
 40
2.1
100
AcDbArc
 50
308.7970000000001
 51
0.0
  0
LINE
  5
619
330
D48
100
AcDbEntity
  8
1
  6
Continuous
100
AcDbLine
 10
244.8997524917786
 20
130.3652232751733
 30
0.0
 11
247.3924324917786
 21
130.1322632751732
 31
0.0
  0
LINE
  5
61A
330
D48
100
AcDbEntity
  8
1
  6
Continuous
100
AcDbLine
 10
247.3924324917786
 20
130.6734232751733
 30
0.0
 11
247.3924324917786
 21
130.0486582751734
 31
0.0
  0
ARC
  5
61B
330
D48
100
AcDbEntity
  8
1
  6
Continuous
100
AcDbCircle
 10
244.9924324917787
 20
131.0590602751734
 30
0.0
 40
0.7
100
AcDbArc
 50
97.60824800000001
 51
277.6082479999999
  0
LINE
  5
61C
330
D48
100
AcDbEntity
  8
1
  6
Continuous
100
AcDbLine
 10
247.3924324917786
 20
128.6362232751735
 30
0.0
 11
247.3924324917786
 21
128.0114402751733
 31
0.0
  0
LINE
  5
61D
330
D48
100
AcDbEntity
  8
1
  6
Continuous
100
AcDbLine
 10
244.8997524917786
 20
128.3280232751733
 30
0.0
 11
247.3924324917786
 21
128.0950632751732
 31
0.0
  0
ARC
  5
61E
330
D48
100
AcDbEntity
  8
1
  6
Continuous
100
AcDbCircle
 10
244.9924324917787
 20
129.0218602751733
 30
0.0
 40
0.7
100
AcDbArc
 50
97.60824800000001
 51
277.6082479999999
  0
LINE
  5
61F
330
D48
100
AcDbEntity
  8
1
  6
Continuous
100
AcDbLine
 10
250.5924324917787
 20
129.0636632751734
 30
0.0
 11
250.5924324917787
 21
128.4388902751734
 31
0.0
  0
LINE
  5
620
330
D48
100
AcDbEntity
  8
1
  6
Continuous
100
AcDbLine
 10
250.5924324917787
 20
131.1008632751732
 30
0.0
 11
250.5924324917787
 21
130.4760982751734
 31
0.0
  0
LINE
  5
621
330
D48
100
AcDbEntity
  8
1
  6
Continuous
100
AcDbLine
 10
248.9924324917786
 20
130.8871432751733
 30
0.0
 11
248.9924324917786
 21
130.2623782751734
 31
0.0
  0
LINE
  5
622
330
D48
100
AcDbEntity
  8
1
  6
Continuous
100
AcDbLine
 10
248.9924324917786
 20
128.8499432751734
 30
0.0
 11
248.9924324917786
 21
128.2251652751733
 31
0.0
  0
LINE
  5
623
330
D48
100
AcDbEntity
  8
1
  6
Continuous
100
AcDbLine
 10
239.4924324917786
 20
133.4537252751735
 30
0.0
 11
236.9924324917787
 21
133.4537252751735
 31
0.0
  0
LINE
  5
624
330
D48
100
AcDbEntity
  8
1
  6
Continuous
100
AcDbLine
 10
243.0924324917784
 20
134.9537252751735
 30
0.0
 11
243.4924324917786
 21
134.9537252751735
 31
0.0
  0
LINE
  5
625
330
D48
100
AcDbEntity
  8
1
  6
Continuous
100
AcDbLine
 10
243.0924324917784
 20
135.4537252751735
 30
0.0
 11
241.4924324917786
 21
135.4537252751735
 31
0.0
  0
ARC
  5
626
330
D48
100
AcDbEntity
  8
1
  6
Continuous
100
AcDbCircle
 10
244.9924324917787
 20
137.1706602751734
 30
0.0
 40
0.7
100
AcDbArc
 50
97.60824800000001
 51
277.6082479999999
  0
LINE
  5
627
330
D48
100
AcDbEntity
  8
1
  6
Continuous
100
AcDbLine
 10
244.8997524917786
 20
134.4396232751735
 30
0.0
 11
247.3924324917786
 21
134.2066632751734
 31
0.0
  0
LINE
  5
628
330
D48
100
AcDbEntity
  8
1
  6
Continuous
100
AcDbLine
 10
244.8997524917786
 20
136.4768232751734
 30
0.0
 11
247.3924324917786
 21
136.2438632751733
 31
0.0
  0
LINE
  5
629
330
D48
100
AcDbEntity
  8
1
  6
Continuous
100
AcDbLine
 10
247.3924324917786
 20
136.7850232751735
 30
0.0
 11
247.3924324917786
 21
136.1602582751734
 31
0.0
  0
LINE
  5
62A
330
D48
100
AcDbEntity
  8
1
  6
Continuous
100
AcDbLine
 10
247.3924324917786
 20
134.7478232751734
 30
0.0
 11
247.3924324917786
 21
134.1230582751735
 31
0.0
  0
ARC
  5
62B
330
D48
100
AcDbEntity
  8
1
  6
Continuous
100
AcDbCircle
 10
244.9924324917787
 20
135.1334602751733
 30
0.0
 40
0.7
100
AcDbArc
 50
97.60824800000001
 51
277.6082479999999
  0
LINE
  5
62C
330
D48
100
AcDbEntity
  8
1
  6
Continuous
100
AcDbLine
 10
244.8997524917786
 20
132.4024232751734
 30
0.0
 11
247.3924324917786
 21
132.1694632751732
 31
0.0
  0
ARC
  5
62D
330
D48
100
AcDbEntity
  8
1
  6
Continuous
100
AcDbCircle
 10
244.9924324917787
 20
133.0962602751732
 30
0.0
 40
0.7
100
AcDbArc
 50
97.60824800000001
 51
277.6082479999999
  0
LINE
  5
62E
330
D48
100
AcDbEntity
  8
1
  6
Continuous
100
AcDbLine
 10
250.5924324917787
 20
137.2124632751735
 30
0.0
 11
250.5924324917787
 21
136.5876982751735
 31
0.0
  0
LINE
  5
62F
330
D48
100
AcDbEntity
  8
1
  6
Continuous
100
AcDbLine
 10
250.5924324917787
 20
135.1752632751734
 30
0.0
 11
250.5924324917787
 21
134.5504982751734
 31
0.0
  0
LINE
  5
630
330
D48
100
AcDbEntity
  8
1
  6
Continuous
100
AcDbLine
 10
248.9924324917786
 20
136.9987432751735
 30
0.0
 11
248.9924324917786
 21
136.3739782751734
 31
0.0
  0
LINE
  5
631
330
D48
100
AcDbEntity
  8
1
  6
Continuous
100
AcDbLine
 10
248.9924324917786
 20
134.9615432751734
 30
0.0
 11
248.9924324917786
 21
134.3367782751734
 31
0.0
  0
LINE
  5
632
330
D48
100
AcDbEntity
  8
1
  6
Continuous
100
AcDbLine
 10
250.5924324917787
 20
133.1380632751733
 30
0.0
 11
250.5924324917787
 21
132.5132982751733
 31
0.0
  0
LINE
  5
633
330
D48
100
AcDbEntity
  8
1
  6
Continuous
100
AcDbLine
 10
248.9924324917786
 20
132.9243432751734
 30
0.0
 11
248.9924324917786
 21
132.2995782751732
 31
0.0
  0
LINE
  5
634
330
D48
100
AcDbEntity
  8
1
  6
Continuous
100
AcDbLine
 10
244.2924324917786
 20
138.9392602751734
 30
0.0
 11
248.9924324917786
 21
138.9392602751734
 31
0.0
  0
LINE
  5
635
330
D48
100
AcDbEntity
  8
1
  6
Continuous
100
AcDbLine
 10
248.9924324917786
 20
141.4392482751735
 30
0.0
 11
247.3924324917786
 21
141.4392482751735
 31
0.0
  0
LINE
  5
636
330
D48
100
AcDbEntity
  8
1
  6
Continuous
100
AcDbLine
 10
244.9314154917786
 20
138.2419252751734
 30
0.0
 11
246.6195194917787
 21
138.0942162751735
 31
0.0
  0
ARC
  5
637
330
D48
100
AcDbEntity
  8
1
  6
Continuous
100
AcDbCircle
 10
244.9924324917787
 20
138.9392602751734
 30
0.0
 40
0.7
100
AcDbArc
 50
180.0
 51
264.999355
  0
LINE
  5
638
330
D48
100
AcDbEntity
  8
1
  6
Continuous
100
AcDbLine
 10
247.3924324917786
 20
141.4392482751735
 30
0.0
 11
247.3924324917784
 21
138.1974580061733
 31
0.0
  0
ARC
  5
639
330
D48
100
AcDbEntity
  8
1
  6
Continuous
100
AcDbCircle
 10
252.9924324917786
 20
132.1276602751733
 30
0.0
 40
0.7
100
AcDbArc
 50
277.6082479999999
 51
97.60824800000001
  0
ARC
  5
63A
330
D48
100
AcDbEntity
  8
1
  6
Continuous
100
AcDbCircle
 10
252.9924324917786
 20
126.2846352751733
 30
0.0
 40
0.7
100
AcDbArc
 50
0.000000000000007
 51
84.99935499999997
  0
ARC
  5
63B
330
D48
100
AcDbEntity
  8
1
  6
Continuous
100
AcDbCircle
 10
252.9924324917786
 20
130.0904602751734
 30
0.0
 40
0.7
100
AcDbArc
 50
277.6082479999999
 51
97.60824800000001
  0
LINE
  5
63C
330
D48
100
AcDbEntity
  8
1
  6
Continuous
100
AcDbLine
 10
251.3652544917786
 20
127.1296872751732
 30
0.0
 11
253.0534494917787
 21
126.9819702751734
 31
0.0
  0
ARC
  5
63D
330
D48
100
AcDbEntity
  8
1
  6
Continuous
100
AcDbCircle
 10
252.9924324917786
 20
128.0532602751732
 30
0.0
 40
0.7
100
AcDbArc
 50
277.608427
 51
97.60842700000004
  0
ARC
  5
63E
330
D48
100
AcDbEntity
  8
1
  6
Continuous
100
AcDbCircle
 10
252.9924324917786
 20
136.2020602751733
 30
0.0
 40
0.7
100
AcDbArc
 50
277.6082479999999
 51
97.60824800000001
  0
ARC
  5
63F
330
D48
100
AcDbEntity
  8
1
  6
Continuous
100
AcDbCircle
 10
252.9924324917786
 20
134.1648602751732
 30
0.0
 40
0.7
100
AcDbArc
 50
277.6082479999999
 51
97.60824800000001
  0
ARC
  5
640
330
D48
100
AcDbEntity
  8
1
  6
Continuous
100
AcDbCircle
 10
252.9924324917786
 20
138.2392602751734
 30
0.0
 40
0.7
100
AcDbArc
 50
277.6082479999999
 51
97.60824800000001
  0
ARC
  5
641
330
D48
100
AcDbEntity
  8
1
  6
Continuous
100
AcDbCircle
 10
246.0924324917785
 20
146.3909822751735
 30
0.0
 40
2.1
100
AcDbArc
 50
180.0
 51
270.0
  0
LINE
  5
642
330
D48
100
AcDbEntity
  8
1
  6
Continuous
100
AcDbLine
 10
245.5924324917784
 20
151.8037252751734
 30
0.0
 11
245.5924324917784
 21
146.3909822751735
 31
0.0
  0
LINE
  5
643
330
D48
100
AcDbEntity
  8
1
  6
Continuous
100
AcDbLine
 10
243.9924324917785
 20
151.8037252751734
 30
0.0
 11
243.9924324917785
 21
146.3909822751735
 31
0.0
  0
LINE
  5
644
330
D48
100
AcDbEntity
  8
1
  6
Continuous
100
AcDbLine
 10
248.4924324917784
 20
144.2909822751734
 30
0.0
 11
246.0924324917785
 21
144.2909822751734
 31
0.0
  0
LINE
  5
645
330
D48
100
AcDbEntity
  8
1
  6
Continuous
100
AcDbLine
 10
248.4924324917784
 20
145.8909822751735
 30
0.0
 11
246.0924324917785
 21
145.8909822751735
 31
0.0
  0
LINE
  5
646
330
D48
100
AcDbEntity
  8
1
  6
Continuous
100
AcDbLine
 10
244.3322284917784
 20
145.9069322751733
 30
0.0
 11
245.7126394917784
 21
145.9069322751733
 31
0.0
  0
ARC
  5
647
330
D48
100
AcDbEntity
  8
1
  6
Continuous
100
AcDbCircle
 10
246.0924324917785
 20
146.3909822751735
 30
0.0
 40
0.5
100
AcDbArc
 50
180.0
 51
270.0
  0
ARC
  5
648
330
D48
100
AcDbEntity
  8
1
  6
Continuous
100
AcDbCircle
 10
248.4924324917784
 20
143.7909822751734
 30
0.0
 40
0.5
100
AcDbArc
 50
0.0
 51
90.0
  0
ARC
  5
649
330
D48
100
AcDbEntity
  8
1
  6
Continuous
100
AcDbCircle
 10
248.4924324917784
 20
143.7909822751734
 30
0.0
 40
2.1
100
AcDbArc
 50
0.0
 51
90.0
  0
LINE
  5
64A
330
D48
100
AcDbEntity
  8
1
  6
Continuous
100
AcDbLine
 10
246.4924324917786
 20
150.3037252751734
 30
0.0
 11
246.4924324917786
 21
148.3037252751734
 31
0.0
  0
LINE
  5
64B
330
D48
100
AcDbEntity
  8
1
  6
Continuous
100
AcDbLine
 10
245.5924324917784
 20
148.3037252751734
 30
0.0
 11
246.4924324917786
 21
148.3037252751734
 31
0.0
  0
LINE
  5
64C
330
D48
100
AcDbEntity
  8
1
  6
Continuous
100
AcDbLine
 10
245.5924324917784
 20
150.3037252751734
 30
0.0
 11
246.4924324917786
 21
150.3037252751734
 31
0.0
  0
LINE
  5
64D
330
D48
100
AcDbEntity
  8
1
  6
Continuous
100
AcDbLine
 10
245.5924324917784
 20
151.8037252751734
 30
0.0
 11
243.9924324917785
 21
151.8037252751734
 31
0.0
  0
LINE
  5
72F
330
D48
100
AcDbEntity
  8
1
  6
Continuous
100
AcDbLine
 10
141.4924324917784
 20
132.9041567758542
 30
0.0
 11
141.4924324917784
 21
133.4073870378847
 31
0.0
  0
LINE
  5
730
330
D48
100
AcDbEntity
  8
1
  6
Continuous
100
AcDbLine
 10
141.4924324917784
 20
130.8675446860602
 30
0.0
 11
141.4924324917784
 21
131.369321731715
 31
0.0
  0
LINE
  5
731
330
D48
100
AcDbEntity
  8
1
  6
Continuous
100
AcDbLine
 10
141.4924324917784
 20
128.830932596266
 30
0.0
 11
141.4924324917784
 21
129.3312564255456
 31
0.0
  0
LINE
  5
732
330
D48
100
AcDbEntity
  8
1
  6
Continuous
100
AcDbLine
 10
141.4924324917784
 20
127.0595914896235
 30
0.0
 11
141.4924324917784
 21
127.2931887795207
 31
0.0
  0
LINE
  5
733
330
D48
100
AcDbEntity
  8
1
  6
Continuous
100
AcDbLine
 10
141.4924324917784
 20
119.9537252751735
 30
0.0
 11
141.4924324917784
 21
123.80710458002
 31
0.0
  0
ARC
  5
734
330
D48
100
AcDbEntity
  8
1
  6
Continuous
100
AcDbCircle
 10
137.4924324917785
 20
123.4508541751254
 30
0.0
 40
6.000000000000026
100
AcDbArc
 50
35.51154690214526
 51
40.75420563411731
  0
ARC
  5
735
330
D48
100
AcDbEntity
  8
1
  6
Continuous
100
AcDbCircle
 10
137.4924324917785
 20
123.4508541751254
 30
0.0
 40
6.000000000000026
100
AcDbArc
 50
0.0
 51
28.4910543040422
  0
ARC
  5
736
330
D48
100
AcDbEntity
  8
1
  6
Continuous
100
AcDbCircle
 10
139.9924324917785
 20
133.9537252751735
 30
0.0
 40
1.5
100
AcDbArc
 50
43.02452798079182
 51
65.97805053743903
  0
LINE
  5
737
330
D48
100
AcDbEntity
  8
1
  6
Continuous
100
AcDbLine
 10
143.4924324917786
 20
119.9537252751735
 30
0.0
 11
141.4924324917784
 21
119.9537252751735
 31
0.0
  0
LINE
  5
738
330
D48
100
AcDbEntity
  8
1
  6
Continuous
100
AcDbLine
 10
143.4924324917784
 20
122.9537252751735
 30
0.0
 11
141.4924324917784
 21
122.9537252751735
 31
0.0
  0
LINE
  5
739
330
D48
100
AcDbEntity
  8
1
  6
Continuous
100
AcDbLine
 10
142.5737670713543
 20
123.8105541751084
 30
0.0
 11
142.5737670713566
 21
126.3105666154822
 31
0.0
  0
LINE
  5
73A
330
D48
100
AcDbEntity
  8
1
  6
Continuous
100
AcDbLine
 10
140.5305589883457
 20
137.3519583648407
 30
0.0
 11
140.532551946569
 21
136.727199907235
 31
0.0
  0
LINE
  5
73B
330
D48
100
AcDbEntity
  8
1
  6
Continuous
100
AcDbLine
 10
140.5370575119956
 20
135.3147818877369
 30
0.0
 11
140.539050470219
 21
134.6900234301312
 31
0.0
  0
LINE
  5
73C
330
D48
100
AcDbEntity
  8
1
  6
Continuous
100
AcDbLine
 10
140.5435560356456
 20
133.2776054106332
 30
0.0
 11
140.5455489938687
 21
132.6528469530274
 31
0.0
  0
LINE
  5
73D
330
D48
100
AcDbEntity
  8
1
  6
Continuous
100
AcDbLine
 10
140.5500545592955
 20
131.2404289335293
 30
0.0
 11
140.5520475175187
 21
130.6156704759236
 31
0.0
  0
LINE
  5
73E
330
D48
100
AcDbEntity
  8
1
  6
Continuous
100
AcDbLine
 10
140.5565530829452
 20
129.2032524564257
 30
0.0
 11
140.5585460549076
 21
128.5784896918759
 31
0.0
  0
LINE
  5
73F
330
D48
100
AcDbEntity
  8
1
  6
Continuous
100
AcDbLine
 10
140.5630516233244
 20
127.1660707349715
 30
0.0
 11
140.5658010855051
 21
126.3041611719634
 31
0.0
  0
LINE
  5
740
330
D48
100
AcDbEntity
  8
1
  6
Continuous
100
AcDbLine
 10
135.5652084365852
 20
126.482480105526
 30
0.0
 11
135.5658281685088
 21
126.2882111754183
 31
0.0
  0
LINE
  5
741
330
D48
100
AcDbEntity
  8
1
  6
Continuous
100
AcDbLine
 10
135.5587096299513
 20
128.519677422094
 30
0.0
 11
135.5607027201201
 21
127.8948984169195
 31
0.0
  0
LINE
  5
742
330
D48
100
AcDbEntity
  8
1
  6
Continuous
100
AcDbLine
 10
135.5522108898912
 20
130.5568538695985
 30
0.0
 11
135.554203914483
 21
129.9320954210701
 31
0.0
  0
LINE
  5
743
330
D48
100
AcDbEntity
  8
1
  6
Continuous
100
AcDbLine
 10
135.5457121498313
 20
132.594030317103
 30
0.0
 11
135.5477051744228
 21
131.9692718685747
 31
0.0
  0
LINE
  5
744
330
D48
100
AcDbEntity
  8
1
  6
Continuous
100
AcDbLine
 10
135.5392134097713
 20
134.6312067646076
 30
0.0
 11
135.541206434363
 21
134.0064483160791
 31
0.0
  0
LINE
  5
745
330
D48
100
AcDbEntity
  8
1
  6
Continuous
100
AcDbLine
 10
135.5327146697112
 20
136.6683832121119
 30
0.0
 11
135.5347076943028
 21
136.0436247635836
 31
0.0
  0
ARC
  5
746
330
D48
100
AcDbEntity
  8
1
  6
Continuous
100
AcDbCircle
 10
142.0282383875161
 20
138.2633185299732
 30
0.0
 40
0.7
100
AcDbArc
 50
277.7882480000002
 51
97.78824800000023
  0
ARC
  5
747
330
D48
100
AcDbEntity
  8
1
  6
Continuous
100
AcDbCircle
 10
142.0346384295422
 20
136.2261285831439
 30
0.0
 40
0.7
100
AcDbArc
 50
277.7882480000002
 51
97.78824800000023
  0
LINE
  5
748
330
D48
100
AcDbEntity
  8
1
  6
Continuous
100
AcDbLine
 10
140.5379756975422
 20
135.0269463580784
 30
0.0
 11
142.1315372614382
 21
134.8830643715509
 31
0.0
  0
LINE
  5
749
330
D48
100
AcDbEntity
  8
1
  6
Continuous
100
AcDbLine
 10
140.531477102539
 20
137.0641452032134
 30
0.0
 11
142.125137219412
 21
136.9202543183801
 31
0.0
  0
ARC
  5
74A
330
D48
100
AcDbEntity
  8
1
  6
Continuous
100
AcDbCircle
 10
142.0474385135946
 20
132.1517486894854
 30
0.0
 40
0.7
100
AcDbArc
 50
277.7882480000002
 51
97.78824800000023
  0
ARC
  5
74B
330
D48
100
AcDbEntity
  8
1
  6
Continuous
100
AcDbCircle
 10
142.053838555621
 20
130.1145587426563
 30
0.0
 40
0.7
100
AcDbArc
 50
277.7882480000002
 51
97.78824800000023
  0
LINE
  5
74C
330
D48
100
AcDbEntity
  8
1
  6
Continuous
100
AcDbLine
 10
140.5574714825515
 20
128.9153498226733
 30
0.0
 11
142.150737387517
 21
128.7714945310632
 31
0.0
  0
LINE
  5
74D
330
D48
100
AcDbEntity
  8
1
  6
Continuous
100
AcDbLine
 10
140.5509728875484
 20
130.9525486678085
 30
0.0
 11
142.1443373454907
 21
130.8086844778924
 31
0.0
  0
LINE
  5
74E
330
D48
100
AcDbEntity
  8
1
  6
Continuous
100
AcDbLine
 10
140.544474292545
 20
132.9897475129433
 30
0.0
 11
142.1379373034644
 21
132.8458744247216
 31
0.0
  0
ARC
  5
74F
330
D48
100
AcDbEntity
  8
1
  6
Continuous
100
AcDbCircle
 10
142.0657948878144
 20
126.3087525236343
 30
0.0
 40
0.7
100
AcDbArc
 50
0.1986244215064668
 51
85.17935500000014
  0
LINE
  5
750
330
D48
100
AcDbEntity
  8
1
  6
Continuous
100
AcDbLine
 10
140.4359701128213
 20
127.1486884314311
 30
0.0
 11
142.1246208477985
 21
127.0062757726706
 31
0.0
  0
ARC
  5
751
330
D48
100
AcDbEntity
  8
1
  6
Continuous
100
AcDbCircle
 10
142.0602385976471
 20
128.0773687958269
 30
0.0
 40
0.7
100
AcDbArc
 50
277.7884269999994
 51
97.78842699999941
  0
ARC
  5
752
330
D48
100
AcDbEntity
  8
1
  6
Continuous
100
AcDbCircle
 10
142.0410384715685
 20
134.1889386363146
 30
0.0
 40
0.7
100
AcDbArc
 50
277.7882480000002
 51
97.78824800000023
  0
LINE
  5
753
330
D48
100
AcDbEntity
  8
1
  6
Continuous
100
AcDbLine
 10
133.9672527946771
 20
138.2406591266913
 30
0.0
 11
135.6558125049706
 21
138.0982541820068
 31
0.0
  0
ARC
  5
754
330
D48
100
AcDbEntity
  8
1
  6
Continuous
100
AcDbCircle
 10
134.026078754661
 20
138.9381823757274
 30
0.0
 40
0.7
100
AcDbArc
 50
180.1800000000002
 51
265.1793550000001
  0
ARC
  5
755
330
D48
100
AcDbEntity
  8
1
  6
Continuous
100
AcDbCircle
 10
134.0316349662885
 20
137.1695911034114
 30
0.0
 40
0.7
100
AcDbArc
 50
97.78824800000023
 51
277.7882480000002
  0
ARC
  5
756
330
D48
100
AcDbEntity
  8
1
  6
Continuous
100
AcDbCircle
 10
134.0380350083148
 20
135.132401156582
 30
0.0
 40
0.7
100
AcDbArc
 50
97.78824800000023
 51
277.7882480000002
  0
ARC
  5
757
330
D48
100
AcDbEntity
  8
1
  6
Continuous
100
AcDbCircle
 10
134.0508350923672
 20
131.0580212629236
 30
0.0
 40
0.7
100
AcDbArc
 50
97.78824800000023
 51
277.7882480000002
  0
ARC
  5
758
330
D48
100
AcDbEntity
  8
1
  6
Continuous
100
AcDbCircle
 10
134.0636352549595
 20
126.9836163693885
 30
0.0
 40
0.7
100
AcDbArc
 50
97.78842699999941
 51
277.7884269999994
  0
ARC
  5
759
330
D48
100
AcDbEntity
  8
1
  6
Continuous
100
AcDbCircle
 10
134.0572351343936
 20
129.0208313160944
 30
0.0
 40
0.7
100
AcDbArc
 50
97.78824800000023
 51
277.7882480000002
  0
ARC
  5
75A
330
D48
100
AcDbEntity
  8
1
  6
Continuous
100
AcDbCircle
 10
134.044435050341
 20
133.0952112097528
 30
0.0
 40
0.7
100
AcDbArc
 50
97.78824800000023
 51
277.7882480000002
  0
LINE
  5
75B
330
D48
100
AcDbEntity
  8
1
  6
Continuous
100
AcDbLine
 10
133.9603352993608
 20
130.3638965245411
 30
0.0
 11
135.553285255345
 21
130.2200698195179
 31
0.0
  0
LINE
  5
75C
330
D48
100
AcDbEntity
  8
1
  6
Continuous
100
AcDbLine
 10
133.9539352573346
 20
132.4010864713705
 30
0.0
 11
135.5467864437724
 21
132.2572686842032
 31
0.0
  0
LINE
  5
75D
330
D48
100
AcDbEntity
  8
1
  6
Continuous
100
AcDbLine
 10
133.9667353413871
 20
128.3267065777118
 30
0.0
 11
135.5597840669172
 21
128.1828709548326
 31
0.0
  0
LINE
  5
75E
330
D48
100
AcDbEntity
  8
1
  6
Continuous
100
AcDbLine
 10
142.1358967638527
 20
133.4953962194468
 30
0.0
 11
134.1392933426253
 21
132.4016687928852
 31
0.0
  0
LINE
  5
75F
330
D48
100
AcDbEntity
  8
1
  6
Continuous
100
AcDbLine
 10
141.952579218174
 20
132.8452921032069
 30
0.0
 11
133.9559763755231
 21
131.7515647557794
 31
0.0
  0
LINE
  5
760
330
D48
100
AcDbEntity
  8
1
  6
Continuous
100
AcDbLine
 10
142.1422968058791
 20
131.4582062726176
 30
0.0
 11
134.1456933846517
 21
130.3644788460558
 31
0.0
  0
LINE
  5
761
330
D48
100
AcDbEntity
  8
1
  6
Continuous
100
AcDbLine
 10
141.9589792602
 20
130.8081021563776
 30
0.0
 11
133.9623758389727
 21
129.7143747298157
 31
0.0
  0
LINE
  5
762
330
D48
100
AcDbEntity
  8
1
  6
Continuous
100
AcDbLine
 10
142.1486968479053
 20
129.4210163257884
 30
0.0
 11
134.1520934266779
 21
128.3272888992267
 31
0.0
  0
LINE
  5
763
330
D48
100
AcDbEntity
  8
1
  6
Continuous
100
AcDbLine
 10
141.965377302236
 20
128.7709122032651
 30
0.0
 11
133.96877396269
 21
127.6771587768317
 31
0.0
  0
LINE
  5
764
330
D48
100
AcDbEntity
  8
1
  6
Continuous
100
AcDbLine
 10
142.1550988899217
 20
127.3838263852425
 30
0.0
 11
134.158495547234
 21
126.2900739588041
 31
0.0
  0
LINE
  5
765
330
D48
100
AcDbEntity
  8
1
  6
Continuous
100
AcDbLine
 10
133.9475352153083
 20
134.4382764181996
 30
0.0
 11
135.5402876321998
 21
134.2944675488885
 31
0.0
  0
LINE
  5
766
330
D48
100
AcDbEntity
  8
1
  6
Continuous
100
AcDbLine
 10
133.9411351732821
 20
136.4754663650288
 30
0.0
 11
135.5337888206274
 21
136.3316664135738
 31
0.0
  0
LINE
  5
767
330
D48
100
AcDbEntity
  8
1
  6
Continuous
100
AcDbLine
 10
141.9461791761476
 20
134.8824820500361
 30
0.0
 11
133.9495757549201
 21
133.7887546234742
 31
0.0
  0
LINE
  5
768
330
D48
100
AcDbEntity
  8
1
  6
Continuous
100
AcDbLine
 10
141.9333790920951
 20
138.9568619436944
 30
0.0
 11
133.9367756708677
 21
137.8631345171327
 31
0.0
  0
LINE
  5
769
330
D48
100
AcDbEntity
  8
1
  6
Continuous
100
AcDbLine
 10
142.1230966798004
 20
137.5697761131054
 30
0.0
 11
134.126493258573
 21
136.4760486865436
 31
0.0
  0
LINE
  5
76A
330
D48
100
AcDbEntity
  8
1
  6
Continuous
100
AcDbLine
 10
141.9397791341214
 20
136.9196719968654
 30
0.0
 11
133.943175712894
 21
135.8259445703037
 31
0.0
  0
LINE
  5
76B
330
D48
100
AcDbEntity
  8
1
  6
Continuous
100
AcDbLine
 10
142.1294967218265
 20
135.5325861662761
 30
0.0
 11
134.1328933005991
 21
134.4388587397144
 31
0.0
  0
LINE
  5
76C
330
D48
100
AcDbEntity
  8
1
  6
Continuous
100
AcDbLine
 10
133.3260822090198
 20
138.9359832644874
 30
0.0
 11
135.5254588196812
 21
138.9428928326215
 31
0.0
  0
LINE
  5
76D
330
D48
100
AcDbEntity
  8
1
  6
Continuous
100
AcDbLine
 10
140.5254334566144
 20
138.9587252612251
 30
0.0
 11
142.5238280713545
 21
138.9651001751083
 31
0.0
  0
LINE
  5
76E
330
D48
100
AcDbEntity
  8
1
  6
Continuous
100
AcDbLine
 10
140.5174585831417
 20
141.4587122616288
 30
0.0
 11
142.5158530713545
 21
141.4650871751082
 31
0.0
  0
ARC
  5
76F
330
D48
100
AcDbEntity
  8
1
  6
Continuous
100
AcDbCircle
 10
135.5924324917787
 20
133.3537252751733
 30
0.0
 40
2.5
100
AcDbArc
 50
147.3858302025398
 51
221.9660574091375
  0
LINE
  5
770
330
D48
100
AcDbEntity
  8
4
  6
CENTER
100
AcDbLine
 10
138.0924370713545
 20
115.4508541751084
 30
0.0
 11
138.0924370713545
 21
119.4508541751084
 31
0.0
  0
LINE
  5
771
330
D48
100
AcDbEntity
  8
4
  6
CENTER
100
AcDbLine
 10
139.4924370713544
 20
146.5370491751081
 30
0.0
 11
139.4924370713544
 21
152.0646591751083
 31
0.0
  0
LINE
  5
772
330
D48
100
AcDbEntity
  8
4
  6
CENTER
100
AcDbLine
 10
136.7286320713545
 20
149.3008541751083
 30
0.0
 11
142.2562420713544
 21
149.3008541751083
 31
0.0
  0
LINE
  5
773
330
D48
100
AcDbEntity
  8
4
  6
CENTER
100
AcDbLine
 10
140.0924370713545
 20
117.4508541751084
 30
0.0
 11
144.4023250713545
 21
117.4508541751084
 31
0.0
  0
ARC
  5
774
330
D48
100
AcDbEntity
  8
1
  6
Continuous
100
AcDbCircle
 10
135.5924324917787
 20
133.3537252751733
 30
0.0
 40
4.099999999999996
100
AcDbArc
 50
122.0078134840823
 51
180.0
  0
CIRCLE
  5
775
330
D48
100
AcDbEntity
  8
1
  6
Continuous
100
AcDbCircle
 10
138.0924370713545
 20
117.4508541751084
 30
0.0
 40
1.0
  0
CIRCLE
  5
776
330
D48
100
AcDbEntity
  8
1
  6
Continuous
100
AcDbCircle
 10
139.4924370713544
 20
149.3008541751083
 30
0.0
 40
1.0
  0
ARC
  5
777
330
D48
100
AcDbEntity
  8
1
  6
Continuous
100
AcDbCircle
 10
139.4924324917786
 20
132.4537252751735
 30
0.0
 40
5.0
100
AcDbArc
 50
181.1614904878526
 51
187.1628560517644
  0
ARC
  5
778
330
D48
100
AcDbEntity
  8
1
  6
Continuous
100
AcDbCircle
 10
128.4924324917785
 20
106.4537252751735
 30
0.0
 40
7.599999999999997
100
AcDbArc
 50
345.622
 51
28.78539999999912
  0
ARC
  5
779
330
D48
100
AcDbEntity
  8
1
  6
Continuous
100
AcDbCircle
 10
128.4924324917785
 20
106.4537252751735
 30
0.0
 40
6.0
100
AcDbArc
 50
345.622
 51
28.78539999999912
  0
ARC
  5
77A
330
D48
100
AcDbEntity
  8
1
  6
Continuous
100
AcDbCircle
 10
141.4924324917784
 20
114.9537252751735
 30
0.0
 40
1.5
100
AcDbArc
 50
270.0
 51
0.0
  0
ARC
  5
77B
330
D48
100
AcDbEntity
  8
1
  6
Continuous
100
AcDbCircle
 10
139.4924370713544
 20
149.3008541751083
 30
0.0
 40
2.5
100
AcDbArc
 50
331.7087750000006
 51
158.9857750000001
  0
ARC
  5
77C
330
D48
100
AcDbEntity
  8
1
  6
Continuous
100
AcDbCircle
 10
138.0956270713545
 20
116.4508591751083
 30
0.0
 40
2.5
100
AcDbArc
 50
180.1827749999995
 51
0.1827850000002722
  0
LINE
  5
77D
330
D48
100
AcDbEntity
  8
4
  6
CENTER
100
AcDbLine
 10
140.2123014917787
 20
106.4537252751735
 30
0.0
 11
145.3023204917784
 21
106.4537252751735
 31
0.0
  0
LINE
  5
77E
330
D48
100
AcDbEntity
  8
1
  6
Continuous
100
AcDbLine
 10
135.5033030713545
 20
145.8881111751083
 30
0.0
 11
140.5032780713545
 21
145.9040611751081
 31
0.0
  0
LINE
  5
77F
330
D48
100
AcDbEntity
  8
1
  6
Continuous
100
AcDbLine
 10
140.5032780713545
 20
145.9040611751081
 30
0.0
 11
141.6942280713545
 21
148.1158721751081
 31
0.0
  0
LINE
  5
780
330
D48
100
AcDbEntity
  8
1
  6
Continuous
100
AcDbLine
 10
135.5033030713545
 20
145.8881111751083
 30
0.0
 11
137.1585650713543
 21
150.1974131751083
 31
0.0
  0
LINE
  5
781
330
D48
100
AcDbEntity
  8
1
  6
Continuous
100
AcDbLine
 10
134.4924324917785
 20
134.3890778984618
 30
0.0
 11
134.4924324917785
 21
133.8630033101378
 31
0.0
  0
LINE
  5
782
330
D48
100
AcDbEntity
  8
1
  6
Continuous
100
AcDbLine
 10
141.4924324917784
 20
113.4537252751735
 30
0.0
 11
141.4924324917784
 21
100.4537252751735
 31
0.0
  0
LINE
  5
783
330
D48
100
AcDbEntity
  8
1
  6
Continuous
100
AcDbLine
 10
141.4924324917784
 20
100.4537252751735
 30
0.0
 11
143.4924324917786
 21
100.4537252751735
 31
0.0
  0
LINE
  5
784
330
D48
100
AcDbEntity
  8
1
  6
Continuous
100
AcDbLine
 10
132.9924324917785
 20
99.84472527517343
 30
0.0
 11
134.5434324917787
 21
99.45372527517356
 31
0.0
  0
LINE
  5
785
330
D48
100
AcDbEntity
  8
1
  6
Continuous
100
AcDbLine
 10
134.5434324917787
 20
99.45372527517356
 30
0.0
 11
135.8544324917787
 21
104.5657252751735
 31
0.0
  0
LINE
  5
786
330
D48
100
AcDbEntity
  8
1
  6
Continuous
100
AcDbLine
 10
132.9924324917785
 20
99.84472527517343
 30
0.0
 11
134.3044324917787
 21
104.9637252751735
 31
0.0
  0
LINE
  5
787
330
D48
100
AcDbEntity
  8
1
  6
Continuous
100
AcDbLine
 10
133.3184324917787
 20
113.4537252751735
 30
0.0
 11
135.1534324917785
 21
110.1127252751735
 31
0.0
  0
LINE
  5
788
330
D48
100
AcDbEntity
  8
1
  6
Continuous
100
AcDbLine
 10
131.4924324917786
 20
113.4537252751735
 30
0.0
 11
133.7514324917787
 21
109.3427252751735
 31
0.0
  0
LINE
  5
789
330
D48
100
AcDbEntity
  8
1
  6
Continuous
100
AcDbLine
 10
141.4924324917784
 20
119.9537252751735
 30
0.0
 11
142.9924324917784
 21
119.4537252751735
 31
0.0
  0
LINE
  5
78A
330
D48
100
AcDbEntity
  8
1
  6
Continuous
100
AcDbLine
 10
131.4924324917785
 20
133.3537252751733
 30
0.0
 11
131.4924324917785
 21
113.4537252751735
 31
0.0
  0
LINE
  5
78B
330
D48
100
AcDbEntity
  8
1
  6
Continuous
100
AcDbLine
 10
131.4924324917785
 20
113.4537252751735
 30
0.0
 11
141.4924324917784
 21
113.4537252751735
 31
0.0
  0
LINE
  5
78C
330
D48
100
AcDbEntity
  8
4
  6
CENTER
100
AcDbLine
 10
136.0924370713545
 20
117.4508541751084
 30
0.0
 11
140.0924370713545
 21
117.4508541751084
 31
0.0
  0
LINE
  5
78D
330
D48
100
AcDbEntity
  8
1
  6
Continuous
100
AcDbLine
 10
142.9924324917784
 20
119.4537252751735
 30
0.0
 11
142.9924324917784
 21
114.9537252751735
 31
0.0
  0
LINE
  5
78E
330
D48
100
AcDbEntity
  8
1
  6
Continuous
100
AcDbLine
 10
133.51589907139
 20
141.436377163943
 30
0.0
 11
135.5174840555998
 21
141.4427622551607
 31
0.0
  0
LINE
  5
78F
330
D48
100
AcDbEntity
  8
1
  6
Continuous
100
AcDbLine
 10
140.565801085505
 20
126.3041611719634
 30
0.0
 11
142.7657906816349
 21
126.311179173865
 31
0.0
  0
LINE
  5
790
330
D48
100
AcDbEntity
  8
1
  6
Continuous
100
AcDbLine
 10
140.5721820616076
 20
123.8041688638928
 30
0.0
 11
140.5956140713545
 21
116.4588341751084
 31
0.0
  0
LINE
  5
791
330
D48
100
AcDbEntity
  8
1
  6
Continuous
100
AcDbLine
 10
135.5722080633755
 20
123.7882183097608
 30
0.0
 11
135.5956400713543
 21
116.4428841751084
 31
0.0
  0
LINE
  5
792
330
D48
100
AcDbEntity
  8
1
  6
Continuous
100
AcDbLine
 10
140.5032780713545
 20
145.9040611751081
 30
0.0
 11
140.5260534229191
 21
138.7643763843386
 31
0.0
  0
LINE
  5
793
330
D48
100
AcDbEntity
  8
1
  6
Continuous
100
AcDbLine
 10
135.5033030713545
 20
145.8881111751083
 30
0.0
 11
135.5282089542427
 21
138.080801211088
 31
0.0
  0
LINE
  5
794
330
D48
100
AcDbEntity
  8
1
  6
Continuous
100
AcDbLine
 10
143.4924324917784
 20
123.4508541751255
 30
0.0
 11
143.4924324917786
 21
100.4537252751735
 31
0.0
  0
LINE
  5
795
330
D48
100
AcDbEntity
  8
1
  6
Continuous
100
AcDbLine
 10
133.5658380713546
 20
126.2818311751082
 30
0.0
 11
133.5738130713544
 21
123.7818431751082
 31
0.0
  0
LINE
  5
796
330
D48
100
AcDbEntity
  8
1
  6
Continuous
100
AcDbLine
 10
133.5658380713547
 20
126.2818311751084
 30
0.0
 11
135.5658281685088
 21
126.2882111754183
 31
0.0
  0
LINE
  5
797
330
D48
100
AcDbEntity
  8
1
  6
Continuous
100
AcDbLine
 10
133.5738130713544
 20
123.7818431751082
 30
0.0
 11
142.5737670713543
 21
123.8105541751084
 31
0.0
  0
LINE
  5
798
330
D48
100
AcDbEntity
  8
1
  6
Continuous
100
AcDbLine
 10
133.5158990713545
 20
141.4363771751083
 30
0.0
 11
133.5238740713545
 21
138.9363891751082
 31
0.0
  0
LINE
  5
799
330
D48
100
AcDbEntity
  8
1
  6
Continuous
100
AcDbLine
 10
142.5158530713545
 20
141.4650871751082
 30
0.0
 11
142.5238280713547
 21
138.9651001751083
 31
0.0
  0
LINE
  5
906
330
D48
100
AcDbEntity
  8
1
  6
Continuous
100
AcDbLine
 10
32.89233249177866
 20
208.0537252751735
 30
0.0
 11
48.09233249177866
 21
208.0537252751735
 31
0.0
  0
LINE
  5
907
330
D48
100
AcDbEntity
  8
1
  6
Continuous
100
AcDbLine
 10
48.09233249177866
 20
207.1537252751735
 30
0.0
 11
48.99233249177864
 21
207.1537252751735
 31
0.0
  0
LINE
  5
909
330
D48
100
AcDbEntity
  8
1
  6
Continuous
100
AcDbLine
 10
48.49233249177864
 20
212.0537252751732
 30
0.0
 11
45.99233249177864
 21
212.0537252751732
 31
0.0
  0
LINE
  5
90F
330
D48
100
AcDbEntity
  8
1
  6
Continuous
100
AcDbLine
 10
32.49233249177868
 20
212.0537252751732
 30
0.0
 11
32.49233249177868
 21
214.0537252751734
 31
0.0
  0
LINE
  5
910
330
D48
100
AcDbEntity
  8
1
  6
Continuous
100
AcDbLine
 10
32.49233249177868
 20
212.0537252751732
 30
0.0
 11
34.99233249177868
 21
212.0537252751732
 31
0.0
  0
LINE
  5
911
330
D48
100
AcDbEntity
  8
1
  6
Continuous
100
AcDbLine
 10
32.89233249177868
 20
211.5537252751735
 30
0.0
 11
32.89233249177867
 21
212.0537252751732
 31
0.0
  0
LINE
  5
912
330
D48
100
AcDbEntity
  8
1
  6
Continuous
100
AcDbLine
 10
34.49233249177868
 20
211.5537252751735
 30
0.0
 11
34.49233249177868
 21
212.0537252751732
 31
0.0
  0
LINE
  5
C05
330
D48
100
AcDbEntity
  8
1
  6
Continuous
100
AcDbLine
 10
55.59233249177866
 20
206.0645958547493
 30
0.0
 11
48.99233249177864
 21
206.0645958547493
 31
0.0
  0
LINE
  5
C07
330
D48
100
AcDbEntity
  8
1
  6
Continuous
100
AcDbLine
 10
25.39233249177867
 20
206.0645958547493
 30
0.0
 11
31.99233249177868
 21
206.0645958547493
 31
0.0
  0
LINE
  5
CC3
330
D48
100
AcDbEntity
  8
1
  6
Continuous
100
AcDbLine
 10
52.39233249177863
 20
51.04235469559762
 30
0.0
 11
51.94626092795336
 21
51.04235469559762
 31
0.0
  0
LINE
  5
CC5
330
D48
100
AcDbEntity
  8
1
  6
Continuous
100
AcDbLine
 10
50.06978117352996
 20
51.04235469559762
 30
0.0
 11
48.99233249177864
 21
51.04235469559762
 31
0.0
  0
LINE
  5
CC7
330
D48
100
AcDbEntity
  8
1
  6
Continuous
100
AcDbLine
 10
30.91488381002736
 20
51.04235469559762
 30
0.0
 11
31.99233249177868
 21
51.04235469559762
 31
0.0
  0
LINE
  5
CC8
330
D48
100
AcDbEntity
  8
1
  6
Continuous
100
AcDbLine
 10
28.5923324917787
 20
51.04235469559762
 30
0.0
 11
29.03840405560396
 21
51.04235469559762
 31
0.0
  0
ENDSEC
  0
SECTION
  2
OBJECTS
  0
DICTIONARY
  5
CE5
330
0
100
AcDbDictionary
281
     1
  3
ACAD_CIP_PREVIOUS_PRODUCT_INFO
350
D61
  3
ACAD_COLOR
350
D3B
  3
ACAD_DETAILVIEWSTYLE
350
D42
  3
ACAD_GROUP
350
CE6
  3
ACAD_LAYOUT
350
D3A
  3
ACAD_MATERIAL
350
CE9
  3
ACAD_MLEADERSTYLE
350
D3E
  3
ACAD_MLINESTYLE
350
D37
  3
ACAD_PLOTSETTINGS
350
D39
  3
ACAD_PLOTSTYLENAME
350
CE7
  3
ACAD_SCALELIST
350
D1B
  3
ACAD_SECTIONVIEWSTYLE
350
D40
  3
ACAD_TABLESTYLE
350
D3C
  3
ACAD_VISUALSTYLE
350
D02
  3
ACDB_RECOMPOSE_DATA
350
D7F
  3
AcDbVariableDictionary
350
D72
  3
DWGPROPS
350
D80
  0
DICTIONARY
  5
D62
330
D2D
100
AcDbDictionary
280
     1
281
     1
  3
ADSK_XREC_LAYER_RECONCILED
360
D63
  0
DICTIONARY
  5
D64
330
D50
100
AcDbDictionary
280
     1
281
     1
  3
ADSK_XREC_LAYER_RECONCILED
360
D65
  0
DICTIONARY
  5
D66
330
D51
100
AcDbDictionary
280
     1
281
     1
  3
ADSK_XREC_LAYER_RECONCILED
360
D67
  0
DICTIONARY
  5
D68
330
D52
100
AcDbDictionary
280
     1
281
     1
  3
ADSK_XREC_LAYER_RECONCILED
360
D69
  0
DICTIONARY
  5
D6A
330
D53
100
AcDbDictionary
280
     1
281
     1
  3
ADSK_XREC_LAYER_RECONCILED
360
D6B
  0
DICTIONARY
  5
D6C
330
D54
100
AcDbDictionary
280
     1
281
     1
  3
ADSK_XREC_LAYER_RECONCILED
360
D6D
  0
DICTIONARY
  5
D6E
330
D55
100
AcDbDictionary
280
     1
281
     1
  3
ADSK_XREC_LAYER_RECONCILED
360
D6F
  0
DICTIONARY
  5
D70
330
D56
100
AcDbDictionary
280
     1
281
     1
  3
ADSK_XREC_LAYER_RECONCILED
360
D71
  0
XRECORD
  5
D61
102
{ACAD_REACTORS
330
CE5
102
}
330
CE5
100
AcDbXrecord
280
     1
300
ACDLT
300
2014
300
ACDLT_F_S
  0
DICTIONARY
  5
D3B
102
{ACAD_REACTORS
330
CE5
102
}
330
CE5
100
AcDbDictionary
281
     1
  0
DICTIONARY
  5
D42
102
{ACAD_REACTORS
330
CE5
102
}
330
CE5
100
AcDbDictionary
281
     1
  3
Imperial24
350
D43
  0
DICTIONARY
  5
CE6
102
{ACAD_REACTORS
330
CE5
102
}
330
CE5
100
AcDbDictionary
281
     1
  0
DICTIONARY
  5
D3A
102
{ACAD_REACTORS
330
CE5
102
}
330
CE5
100
AcDbDictionary
281
     1
  3
Model
350
D4B
  3
レイアウト1
350
D47
  0
DICTIONARY
  5
CE9
102
{ACAD_REACTORS
330
CE5
102
}
330
CE5
100
AcDbDictionary
281
     1
  3
ByBlock
350
CF2
  3
ByLayer
350
CEA
  3
Global
350
CFA
  0
DICTIONARY
  5
D3E
102
{ACAD_REACTORS
330
CE5
102
}
330
CE5
100
AcDbDictionary
281
     1
  3
Standard
350
D3F
  0
DICTIONARY
  5
D37
102
{ACAD_REACTORS
330
CE5
102
}
330
CE5
100
AcDbDictionary
281
     1
  3
Standard
350
D38
  0
DICTIONARY
  5
D39
102
{ACAD_REACTORS
330
CE5
102
}
330
CE5
100
AcDbDictionary
281
     1
  0
ACDBDICTIONARYWDFLT
  5
CE7
102
{ACAD_REACTORS
330
CE5
102
}
330
CE5
100
AcDbDictionary
281
     1
  3
Normal
350
CE8
100
AcDbDictionaryWithDefault
340
CE8
  0
DICTIONARY
  5
D1B
102
{ACAD_REACTORS
330
CE5
102
}
330
CE5
100
AcDbDictionary
281
     1
  3
A0
350
D1C
  3
A1
350
D1D
  3
A2
350
D1E
  3
A3
350
D1F
  3
A4
350
D20
  3
A5
350
D21
  3
A6
350
D22
  3
A7
350
D23
  3
A8
350
D24
  3
A9
350
D25
  3
B0
350
D26
  3
B1
350
D27
  3
B2
350
D28
  3
B3
350
D29
  3
B4
350
D2A
  3
B5
350
D2B
  3
B6
350
D2C
  0
DICTIONARY
  5
D40
102
{ACAD_REACTORS
330
CE5
102
}
330
CE5
100
AcDbDictionary
281
     1
  3
Imperial24
350
D41
  0
DICTIONARY
  5
D3C
102
{ACAD_REACTORS
330
CE5
102
}
330
CE5
100
AcDbDictionary
281
     1
  3
Standard
350
D3D
  0
DICTIONARY
  5
D02
102
{ACAD_REACTORS
330
CE5
102
}
330
CE5
100
AcDbDictionary
281
     1
  3
2dWireframe
350
D08
  3
Basic
350
D07
  3
Brighten
350
D0E
  3
ColorChange
350
D12
  3
Conceptual
350
D0B
  3
Dim
350
D0D
  3
EdgeColorOff
350
D1A
  3
Facepattern
350
D11
  3
Flat
350
D03
  3
FlatWithEdges
350
D04
  3
Gouraud
350
D05
  3
GouraudWithEdges
350
D06
  3
Hidden
350
D0A
  3
JitterOff
350
D18
  3
Linepattern
350
D10
  3
OverhangOff
350
D19
  3
Realistic
350
D0C
  3
Shaded
350
D17
  3
Shaded with edges
350
D16
  3
Shades of Gray
350
D13
  3
Sketchy
350
D14
  3
Thicken
350
D0F
  3
Wireframe
350
D09
  3
X-Ray
350
D15
  0
XRECORD
  5
D7F
102
{ACAD_REACTORS
330
CE5
102
}
330
CE5
100
AcDbXrecord
280
     1
 90
        1
330
D3D
  0
DICTIONARY
  5
D72
102
{ACAD_REACTORS
330
CE5
102
}
330
CE5
100
AcDbDictionary
281
     1
  3
CANNOSCALE
350
D77
  3
CMLEADERSTYLE
350
D74
  3
CTABLESTYLE
350
D73
  3
CVIEWDETAILSTYLE
350
D75
  3
CVIEWSECTIONSTYLE
350
D76
  3
DIMASSOC
350
D7A
  3
INDEXCTL
350
D79
  3
SORTENTS
350
D78
  3
XCLIPFRAME
350
D7B
  0
XRECORD
  5
D80
102
{ACAD_REACTORS
330
CE5
102
}
330
CE5
100
AcDbXrecord
280
     1
  1
DWGPROPS COOKIE
  2

  3

  4

  6

  7

  8
Yoshitsune
  9

300
=
301
=
302
=
303
=
304
=
305
=
306
=
307
=
308
=
309
=
 40
0.1528194097222222
 41
2456276.593094468
 42
2457192.598675139
  1

 90
        0
  0
XRECORD
  5
D63
102
{ACAD_REACTORS
330
D62
102
}
330
D62
100
AcDbXrecord
280
     1
290
     1
  0
XRECORD
  5
D65
102
{ACAD_REACTORS
330
D64
102
}
330
D64
100
AcDbXrecord
280
     1
290
     1
  0
XRECORD
  5
D67
102
{ACAD_REACTORS
330
D66
102
}
330
D66
100
AcDbXrecord
280
     1
290
     1
  0
XRECORD
  5
D69
102
{ACAD_REACTORS
330
D68
102
}
330
D68
100
AcDbXrecord
280
     1
290
     1
  0
XRECORD
  5
D6B
102
{ACAD_REACTORS
330
D6A
102
}
330
D6A
100
AcDbXrecord
280
     1
290
     1
  0
XRECORD
  5
D6D
102
{ACAD_REACTORS
330
D6C
102
}
330
D6C
100
AcDbXrecord
280
     1
290
     1
  0
XRECORD
  5
D6F
102
{ACAD_REACTORS
330
D6E
102
}
330
D6E
100
AcDbXrecord
280
     1
290
     1
  0
XRECORD
  5
D71
102
{ACAD_REACTORS
330
D70
102
}
330
D70
100
AcDbXrecord
280
     1
290
     1
  0
ACDBDETAILVIEWSTYLE
  5
D43
102
{ACAD_XDICTIONARY
360
DB8
102
}
102
{ACAD_REACTORS
330
D42
102
}
330
D42
100
AcDbModelDocViewStyle
 70
     0
  3
Imperial24
290
     0
100
AcDbDetailViewStyle
 70
     0
 71
     0
 90
        3
 71
     1
340
D2E
 40
0.24
340
0
 40
0.24
300

 40
0.36
280
     3
 71
     2
340
D35
 90
       25
 71
     3
340
D2E
 40
0.24
 90
        1
 40
0.75
 90
        1
300
%<\AcVar ViewType \f "%tc1">% %<\AcVar ViewDetailId>%\PSCALE %<\AcVar ViewScale \f "%sn">%
 71
     4
340
D35
 90
       25
340
D35
 90
       25
280
     0
  0
LAYOUT
  5
D4B
102
{ACAD_XDICTIONARY
360
DBC
102
}
102
{ACAD_REACTORS
330
D3A
102
}
330
D3A
100
AcDbPlotSettings
  1

  2
Canon LBP9100C
  4

  6

 40
0.0
 41
0.0
 42
0.0
 43
0.0
 44
0.0
 45
0.0
 46
0.0
 47
0.0
 48
0.0
 49
0.0
140
0.0
141
0.0
142
1.0
143
1.0
 70
  1712
 72
     0
 73
     0
 74
     0
  7

 75
     0
147
1.0
148
0.0
149
0.0
100
AcDbLayout
  1
Model
 70
     1
 71
     0
 10
0.0
 20
0.0
 11
12.0
 21
9.0
 12
0.0
 22
0.0
 32
0.0
 14
0.0
 24
0.0
 34
0.0
 15
0.0
 25
0.0
 35
0.0
146
0.0
 13
0.0
 23
0.0
 33
0.0
 16
1.0
 26
0.0
 36
0.0
 17
0.0
 27
1.0
 37
0.0
 76
     0
330
D48
331
D4C
  0
LAYOUT
  5
D47
102
{ACAD_XDICTIONARY
360
DBA
102
}
102
{ACAD_REACTORS
330
D3A
102
}
330
D3A
100
AcDbPlotSettings
  1

  2
Canon LBP9100C
  4

  6

 40
0.0
 41
0.0
 42
0.0
 43
0.0
 44
0.0
 45
0.0
 46
0.0
 47
0.0
 48
0.0
 49
0.0
140
0.0
141
0.0
142
1.0
143
1.0
 70
   688
 72
     0
 73
     0
 74
     5
  7

 75
    16
147
1.0
148
0.0
149
0.0
100
AcDbLayout
  1
レイアウト1
 70
     1
 71
     1
 10
0.0
 20
0.0
 11
420.0
 21
297.0
 12
0.0
 22
0.0
 32
0.0
 14
1.000000000000000E+20
 24
1.000000000000000E+20
 34
1.000000000000000E+20
 15
-1.000000000000000E+20
 25
-1.000000000000000E+20
 35
-1.000000000000000E+20
146
0.0
 13
0.0
 23
0.0
 33
0.0
 16
1.0
 26
0.0
 36
0.0
 17
0.0
 27
1.0
 37
0.0
 76
     0
330
D44
  0
MATERIAL
  5
CF2
102
{ACAD_XDICTIONARY
360
CF3
102
}
102
{ACAD_REACTORS
330
CE9
102
}
330
CE9
100
AcDbMaterial
  1
ByBlock
 72
     0
 43
0.0208333333333333
 43
0.0
 43
0.0
 43
0.0
 43
0.0
 43
0.0208333333333333
 43
0.0
 43
0.0
 43
0.0
 43
0.0
 43
1.0
 43
0.0
 43
0.0
 43
0.0
 43
0.0
 43
1.0
 77
     0
 47
0.0208333333333333
 47
0.0
 47
0.0
 47
0.0
 47
0.0
 47
0.0208333333333333
 47
0.0
 47
0.0
 47
0.0
 47
0.0
 47
1.0
 47
0.0
 47
0.0
 47
0.0
 47
0.0
 47
1.0
171
     0
 49
0.0208333333333333
 49
0.0
 49
0.0
 49
0.0
 49
0.0
 49
0.0208333333333333
 49
0.0
 49
0.0
 49
0.0
 49
0.0
 49
1.0
 49
0.0
 49
0.0
 49
0.0
 49
0.0
 49
1.0
175
     0
142
0.0208333333333333
142
0.0
142
0.0
142
0.0
142
0.0
142
0.0208333333333333
142
0.0
142
0.0
142
0.0
142
0.0
142
1.0
142
0.0
142
0.0
142
0.0
142
0.0
142
1.0
179
     0
144
0.0208333333333333
144
0.0
144
0.0
144
0.0
144
0.0
144
0.0208333333333333
144
0.0
144
0.0
144
0.0
144
0.0
144
1.0
144
0.0
144
0.0
144
0.0
144
0.0
144
1.0
147
0.0208333333333333
147
0.0
147
0.0
147
0.0
147
0.0
147
0.0208333333333333
147
0.0
147
0.0
147
0.0
147
0.0
147
1.0
147
0.0
147
0.0
147
0.0
147
0.0
147
1.0
  0
MATERIAL
  5
CEA
102
{ACAD_XDICTIONARY
360
CEB
102
}
102
{ACAD_REACTORS
330
CE9
102
}
330
CE9
100
AcDbMaterial
  1
ByLayer
 72
     0
 43
0.0208333333333333
 43
0.0
 43
0.0
 43
0.0
 43
0.0
 43
0.0208333333333333
 43
0.0
 43
0.0
 43
0.0
 43
0.0
 43
1.0
 43
0.0
 43
0.0
 43
0.0
 43
0.0
 43
1.0
 77
     0
 47
0.0208333333333333
 47
0.0
 47
0.0
 47
0.0
 47
0.0
 47
0.0208333333333333
 47
0.0
 47
0.0
 47
0.0
 47
0.0
 47
1.0
 47
0.0
 47
0.0
 47
0.0
 47
0.0
 47
1.0
171
     0
 49
0.0208333333333333
 49
0.0
 49
0.0
 49
0.0
 49
0.0
 49
0.0208333333333333
 49
0.0
 49
0.0
 49
0.0
 49
0.0
 49
1.0
 49
0.0
 49
0.0
 49
0.0
 49
0.0
 49
1.0
175
     0
142
0.0208333333333333
142
0.0
142
0.0
142
0.0
142
0.0
142
0.0208333333333333
142
0.0
142
0.0
142
0.0
142
0.0
142
1.0
142
0.0
142
0.0
142
0.0
142
0.0
142
1.0
179
     0
144
0.0208333333333333
144
0.0
144
0.0
144
0.0
144
0.0
144
0.0208333333333333
144
0.0
144
0.0
144
0.0
144
0.0
144
1.0
144
0.0
144
0.0
144
0.0
144
0.0
144
1.0
147
0.0208333333333333
147
0.0
147
0.0
147
0.0
147
0.0
147
0.0208333333333333
147
0.0
147
0.0
147
0.0
147
0.0
147
1.0
147
0.0
147
0.0
147
0.0
147
0.0
147
1.0
  0
MATERIAL
  5
CFA
102
{ACAD_XDICTIONARY
360
CFB
102
}
102
{ACAD_REACTORS
330
CE9
102
}
330
CE9
100
AcDbMaterial
  1
Global
 72
     0
 43
0.0208333333333333
 43
0.0
 43
0.0
 43
0.0
 43
0.0
 43
0.0208333333333333
 43
0.0
 43
0.0
 43
0.0
 43
0.0
 43
1.0
 43
0.0
 43
0.0
 43
0.0
 43
0.0
 43
1.0
 77
     0
 47
0.0208333333333333
 47
0.0
 47
0.0
 47
0.0
 47
0.0
 47
0.0208333333333333
 47
0.0
 47
0.0
 47
0.0
 47
0.0
 47
1.0
 47
0.0
 47
0.0
 47
0.0
 47
0.0
 47
1.0
171
     0
 49
0.0208333333333333
 49
0.0
 49
0.0
 49
0.0
 49
0.0
 49
0.0208333333333333
 49
0.0
 49
0.0
 49
0.0
 49
0.0
 49
1.0
 49
0.0
 49
0.0
 49
0.0
 49
0.0
 49
1.0
175
     0
142
0.0208333333333333
142
0.0
142
0.0
142
0.0
142
0.0
142
0.0208333333333333
142
0.0
142
0.0
142
0.0
142
0.0
142
1.0
142
0.0
142
0.0
142
0.0
142
0.0
142
1.0
179
     0
144
0.0208333333333333
144
0.0
144
0.0
144
0.0
144
0.0
144
0.0208333333333333
144
0.0
144
0.0
144
0.0
144
0.0
144
1.0
144
0.0
144
0.0
144
0.0
144
0.0
144
1.0
147
0.0208333333333333
147
0.0
147
0.0
147
0.0
147
0.0
147
0.0208333333333333
147
0.0
147
0.0
147
0.0
147
0.0
147
1.0
147
0.0
147
0.0
147
0.0
147
0.0
147
1.0
  0
MLEADERSTYLE
  5
D3F
102
{ACAD_REACTORS
330
D3E
102
}
330
D3E
100
AcDbMLeaderStyle
170
     2
171
     1
172
     0
 90
        2
 40
0.0
 41
0.0
173
     1
 91
-1056964608
340
D33
 92
       -2
290
     1
 42
0.09
291
     1
 43
0.36
  3
Standard
 44
0.18
300

342
D2E
174
     1
178
     6
175
     1
176
     0
 93
-1056964608
 45
0.18
292
     0
297
     0
 46
0.18
 94
-1056964608
 47
1.0
 49
1.0
140
1.0
293
     1
141
0.0
294
     1
177
     0
142
1.0
295
     0
296
     0
143
0.125
1001
ACAD_MLEADERVER
1070
     2
  0
MLINESTYLE
  5
D38
102
{ACAD_REACTORS
330
D37
102
}
330
D37
100
AcDbMlineStyle
  2
STANDARD
 70
     0
  3

 62
   256
 51
90.0
 52
90.0
 71
     2
 49
0.5
 62
   256
  6
BYLAYER
 49
-0.5
 62
   256
  6
BYLAYER
  0
ACDBPLACEHOLDER
  5
CE8
102
{ACAD_REACTORS
330
CE7
102
}
330
CE7
  0
SCALE
  5
D1C
102
{ACAD_REACTORS
330
D1B
102
}
330
D1B
100
AcDbScale
 70
     0
300
1:1
140
1.0
141
1.0
290
     1
  0
SCALE
  5
D1D
102
{ACAD_REACTORS
330
D1B
102
}
330
D1B
100
AcDbScale
 70
     0
300
1/128" = 1'-0"
140
0.0078125
141
12.0
290
     0
  0
SCALE
  5
D1E
102
{ACAD_REACTORS
330
D1B
102
}
330
D1B
100
AcDbScale
 70
     0
300
1/64" = 1'-0"
140
0.015625
141
12.0
290
     0
  0
SCALE
  5
D1F
102
{ACAD_REACTORS
330
D1B
102
}
330
D1B
100
AcDbScale
 70
     0
300
1/32" = 1'-0"
140
0.03125
141
12.0
290
     0
  0
SCALE
  5
D20
102
{ACAD_REACTORS
330
D1B
102
}
330
D1B
100
AcDbScale
 70
     0
300
1/16" = 1'-0"
140
0.0625
141
12.0
290
     0
  0
SCALE
  5
D21
102
{ACAD_REACTORS
330
D1B
102
}
330
D1B
100
AcDbScale
 70
     0
300
3/32" = 1'-0"
140
0.09375
141
12.0
290
     0
  0
SCALE
  5
D22
102
{ACAD_REACTORS
330
D1B
102
}
330
D1B
100
AcDbScale
 70
     0
300
1/8" = 1'-0"
140
0.125
141
12.0
290
     0
  0
SCALE
  5
D23
102
{ACAD_REACTORS
330
D1B
102
}
330
D1B
100
AcDbScale
 70
     0
300
3/16" = 1'-0"
140
0.1875
141
12.0
290
     0
  0
SCALE
  5
D24
102
{ACAD_REACTORS
330
D1B
102
}
330
D1B
100
AcDbScale
 70
     0
300
1/4" = 1'-0"
140
0.25
141
12.0
290
     0
  0
SCALE
  5
D25
102
{ACAD_REACTORS
330
D1B
102
}
330
D1B
100
AcDbScale
 70
     0
300
3/8" = 1'-0"
140
0.375
141
12.0
290
     0
  0
SCALE
  5
D26
102
{ACAD_REACTORS
330
D1B
102
}
330
D1B
100
AcDbScale
 70
     0
300
1/2" = 1'-0"
140
0.5
141
12.0
290
     0
  0
SCALE
  5
D27
102
{ACAD_REACTORS
330
D1B
102
}
330
D1B
100
AcDbScale
 70
     0
300
3/4" = 1'-0"
140
0.75
141
12.0
290
     0
  0
SCALE
  5
D28
102
{ACAD_REACTORS
330
D1B
102
}
330
D1B
100
AcDbScale
 70
     0
300
1" = 1'-0"
140
1.0
141
12.0
290
     0
  0
SCALE
  5
D29
102
{ACAD_REACTORS
330
D1B
102
}
330
D1B
100
AcDbScale
 70
     0
300
1-1/2" = 1'-0"
140
1.5
141
12.0
290
     0
  0
SCALE
  5
D2A
102
{ACAD_REACTORS
330
D1B
102
}
330
D1B
100
AcDbScale
 70
     0
300
3" = 1'-0"
140
3.0
141
12.0
290
     0
  0
SCALE
  5
D2B
102
{ACAD_REACTORS
330
D1B
102
}
330
D1B
100
AcDbScale
 70
     0
300
6" = 1'-0"
140
6.0
141
12.0
290
     0
  0
SCALE
  5
D2C
102
{ACAD_REACTORS
330
D1B
102
}
330
D1B
100
AcDbScale
 70
     0
300
1'-0" = 1'-0"
140
12.0
141
12.0
290
     0
  0
ACDBSECTIONVIEWSTYLE
  5
D41
102
{ACAD_XDICTIONARY
360
DB6
102
}
102
{ACAD_REACTORS
330
D40
102
}
330
D40
100
AcDbModelDocViewStyle
 70
     0
  3
Imperial24
290
     0
100
AcDbSectionViewStyle
 70
     0
 71
     0
 90
       78
 71
     1
340
D2E
 40
0.24
340
0
340
0
 40
0.24
300
I, O, Q, S, X, Z
 40
0.48
 90
        3
 40
0.18
 90
        1
 71
     2
340
D35
 90
       25
340
D35
 90
       50
 40
0.24
 40
0.0
 40
0.24
 71
     3
340
D2E
 40
0.24
 90
        1
 40
0.75
 90
        1
300
%<\AcVar ViewType \f "%tc1">% %<\AcVar ViewSectionStartId>%-%<\AcVar ViewSectionEndId>%\PSCALE %<\AcVar ViewScale \f "%sn">%
 71
     4
300
ANSI31
 40
1.0
 90
        0
290
     0
290
     0
 90
        6
 40
0.0
 40
1.570796326794896
 40
0.2617993877991494
 40
1.308996938995747
 40
-0.2617993877991494
 40
1.832595714594046
  0
TABLESTYLE
  5
D3D
102
{ACAD_XDICTIONARY
360
D7D
102
}
102
{ACAD_REACTORS
330
D3C
102
}
330
D3C
100
AcDbTableStyle
  3
Standard
 70
     0
 71
     0
 40
0.06
 41
0.06
280
     0
281
     0
  7
STANDARD
140
0.18
170
     2
 62
     0
 63
     7
283
     0
274
    -2
284
     1
 64
     0
275
    -2
285
     1
 65
     0
276
    -2
286
     1
 66
     0
277
    -2
287
     1
 67
     0
278
    -2
288
     1
 68
     0
279
    -2
289
     1
 69
     0
  7
STANDARD
140
0.25
170
     5
 62
     0
 63
     7
283
     0
274
    -2
284
     1
 64
     0
275
    -2
285
     1
 65
     0
276
    -2
286
     1
 66
     0
277
    -2
287
     1
 67
     0
278
    -2
288
     1
 68
     0
279
    -2
289
     1
 69
     0
  7
STANDARD
140
0.18
170
     5
 62
     0
 63
     7
283
     0
274
    -2
284
     1
 64
     0
275
    -2
285
     1
 65
     0
276
    -2
286
     1
 66
     0
277
    -2
287
     1
 67
     0
278
    -2
288
     1
 68
     0
279
    -2
289
     1
 69
     0
  0
VISUALSTYLE
  5
D08
102
{ACAD_XDICTIONARY
360
D8E
102
}
102
{ACAD_REACTORS
330
D02
102
}
330
D02
100
AcDbVisualStyle
  2
2dWireframe
 70
     4
 71
     0
 72
     2
 73
     0
 90
        0
 40
-0.6
 41
-30.0
 62
     5
 63
     7
 74
     1
 91
        4
 64
     7
 65
   257
 75
     1
175
     1
 42
1.0
 92
        0
 66
   257
 43
1.0
 76
     1
 77
     6
 78
     2
 67
     7
 79
     5
170
     0
171
     0
290
     0
174
     0
 93
        1
 44
0.0
173
     0
291
     0
 45
0.0
1001
ACAD
1000
AcDbSavedByObjectVersion
1070
     0
  0
VISUALSTYLE
  5
D07
102
{ACAD_XDICTIONARY
360
D8C
102
}
102
{ACAD_REACTORS
330
D02
102
}
330
D02
100
AcDbVisualStyle
  2
Basic
 70
     7
 71
     1
 72
     0
 73
     1
 90
        0
 40
-0.6
 41
-30.0
 62
     5
 63
     7
 74
     0
 91
        4
 64
     7
 65
   257
 75
     1
175
     1
 42
1.0
 92
        8
 66
     7
 43
1.0
 76
     1
 77
     6
 78
     2
 67
     7
 79
     5
170
     0
171
     0
290
     0
174
     0
 93
        1
 44
0.0
173
     0
291
     1
 45
0.0
1001
ACAD
1000
AcDbSavedByObjectVersion
1070
     0
  0
VISUALSTYLE
  5
D0E
102
{ACAD_XDICTIONARY
360
D9A
102
}
102
{ACAD_REACTORS
330
D02
102
}
330
D02
100
AcDbVisualStyle
  2
Brighten
 70
    12
 71
     2
 72
     2
 73
     0
 90
        0
 40
-0.6
 41
-30.0
 62
     5
 63
     7
 74
     1
 91
        4
 64
     7
 65
   257
 75
     1
175
     1
 42
1.0
 92
        8
 66
     7
 43
1.0
 76
     1
 77
     6
 78
     2
 67
     7
 79
     5
170
     0
171
     0
290
     0
174
     0
 93
        1
 44
50.0
173
     0
291
     1
 45
0.0
1001
ACAD
1000
AcDbSavedByObjectVersion
1070
     0
  0
VISUALSTYLE
  5
D12
102
{ACAD_XDICTIONARY
360
DA2
102
}
102
{ACAD_REACTORS
330
D02
102
}
330
D02
100
AcDbVisualStyle
  2
ColorChange
 70
    16
 71
     2
 72
     2
 73
     3
 90
        0
 40
-0.6
 41
-30.0
 62
     5
 63
     8
 74
     1
 91
        4
 64
     7
 65
   257
 75
     1
175
     1
 42
1.0
 92
        8
 66
     8
 43
1.0
 76
     1
 77
     6
 78
     2
 67
     7
 79
     5
170
     0
171
     0
290
     0
174
     0
 93
        1
 44
0.0
173
     0
291
     1
 45
0.0
1001
ACAD
1000
AcDbSavedByObjectVersion
1070
     0
  0
VISUALSTYLE
  5
D0B
102
{ACAD_XDICTIONARY
360
D94
102
}
102
{ACAD_REACTORS
330
D02
102
}
330
D02
100
AcDbVisualStyle
  2
Conceptual
 70
     9
 71
     3
 72
     2
 73
     0
 90
        0
 40
-0.6
 41
-30.0
 62
     5
 63
     7
 74
     2
 91
        2
 64
     7
 65
   257
 75
     1
175
     1
 42
179.0
 92
        8
 66
     7
 43
1.0
 76
     1
 77
     6
 78
     2
 67
     7
 79
     3
170
     0
171
     0
290
     0
174
     0
 93
        1
 44
0.0
173
     0
291
     0
 45
0.0
1001
ACAD
1000
AcDbSavedByObjectVersion
1070
     0
  0
VISUALSTYLE
  5
D0D
102
{ACAD_XDICTIONARY
360
D98
102
}
102
{ACAD_REACTORS
330
D02
102
}
330
D02
100
AcDbVisualStyle
  2
Dim
 70
    11
 71
     2
 72
     2
 73
     0
 90
        0
 40
-0.6
 41
-30.0
 62
     5
 63
     7
 74
     1
 91
        4
 64
     7
 65
   257
 75
     1
175
     1
 42
1.0
 92
        8
 66
     7
 43
1.0
 76
     1
 77
     6
 78
     2
 67
     7
 79
     5
170
     0
171
     0
290
     0
174
     0
 93
        1
 44
-50.0
173
     0
291
     1
 45
0.0
1001
ACAD
1000
AcDbSavedByObjectVersion
1070
     0
  0
VISUALSTYLE
  5
D1A
102
{ACAD_XDICTIONARY
360
DB2
102
}
102
{ACAD_REACTORS
330
D02
102
}
330
D02
100
AcDbVisualStyle
  2
EdgeColorOff
 70
    22
 71
     2
 72
     2
 73
     0
 90
        0
 40
-0.6
 41
-30.0
 62
     5
 63
     7
 74
     1
 91
        4
 64
     7
 65
   257
 75
     1
175
     1
 42
1.0
 92
        8
 66
     7
 43
1.0
 76
     1
 77
     6
 78
     2
 67
     7
 79
     5
170
     0
171
     0
290
     0
174
     0
 93
        1
 44
0.0
173
     0
291
     1
 45
0.0
1001
ACAD
1000
AcDbSavedByObjectVersion
1070
     0
  0
VISUALSTYLE
  5
D11
102
{ACAD_XDICTIONARY
360
DA0
102
}
102
{ACAD_REACTORS
330
D02
102
}
330
D02
100
AcDbVisualStyle
  2
Facepattern
 70
    15
 71
     2
 72
     2
 73
     0
 90
        0
 40
-0.6
 41
-30.0
 62
     5
 63
     7
 74
     1
 91
        4
 64
     7
 65
   257
 75
     1
175
     1
 42
1.0
 92
        8
 66
     7
 43
1.0
 76
     1
 77
     6
 78
     2
 67
     7
 79
     5
170
     0
171
     0
290
     0
174
     0
 93
        1
 44
0.0
173
     0
291
     1
 45
0.0
1001
ACAD
1000
AcDbSavedByObjectVersion
1070
     0
  0
VISUALSTYLE
  5
D03
102
{ACAD_XDICTIONARY
360
D84
102
}
102
{ACAD_REACTORS
330
D02
102
}
330
D02
100
AcDbVisualStyle
  2
Flat
 70
     0
 71
     2
 72
     1
 73
     1
 90
        2
 40
-0.6
 41
30.0
 62
     5
 63
     7
 74
     0
 91
        0
 64
     7
 65
   257
 75
     1
175
     1
 42
1.0
 92
        8
 66
     7
 43
1.0
 76
     1
 77
     6
 78
     2
 67
     7
 79
     5
170
     0
171
     0
290
     0
174
     0
 93
       13
 44
0.0
173
     0
291
     1
 45
0.0
1001
ACAD
1000
AcDbSavedByObjectVersion
1070
     0
  0
VISUALSTYLE
  5
D04
102
{ACAD_XDICTIONARY
360
D86
102
}
102
{ACAD_REACTORS
330
D02
102
}
330
D02
100
AcDbVisualStyle
  2
FlatWithEdges
 70
     1
 71
     2
 72
     1
 73
     1
 90
        2
 40
-0.6
 41
30.0
 62
     5
 63
     7
 74
     1
 91
        0
 64
     7
 65
   257
 75
     1
175
     1
 42
1.0
 92
        0
 66
   257
 43
1.0
 76
     1
 77
     6
 78
     2
 67
     7
 79
     5
170
     0
171
     0
290
     0
174
     0
 93
       13
 44
0.0
173
     0
291
     1
 45
0.0
1001
ACAD
1000
AcDbSavedByObjectVersion
1070
     0
  0
VISUALSTYLE
  5
D05
102
{ACAD_XDICTIONARY
360
D88
102
}
102
{ACAD_REACTORS
330
D02
102
}
330
D02
100
AcDbVisualStyle
  2
Gouraud
 70
     2
 71
     2
 72
     2
 73
     1
 90
        2
 40
-0.6
 41
30.0
 62
     5
 63
     7
 74
     0
 91
        0
 64
     7
 65
   257
 75
     1
175
     1
 42
1.0
 92
        0
 66
     7
 43
1.0
 76
     1
 77
     6
 78
     2
 67
     7
 79
     5
170
     0
171
     0
290
     0
174
     0
 93
       13
 44
0.0
173
     0
291
     1
 45
0.0
1001
ACAD
1000
AcDbSavedByObjectVersion
1070
     0
  0
VISUALSTYLE
  5
D06
102
{ACAD_XDICTIONARY
360
D8A
102
}
102
{ACAD_REACTORS
330
D02
102
}
330
D02
100
AcDbVisualStyle
  2
GouraudWithEdges
 70
     3
 71
     2
 72
     2
 73
     1
 90
        2
 40
-0.6
 41
30.0
 62
     5
 63
     7
 74
     1
 91
        0
 64
     7
 65
   257
 75
     1
175
     1
 42
1.0
 92
        0
 66
   257
 43
1.0
 76
     1
 77
     6
 78
     2
 67
     7
 79
     5
170
     0
171
     0
290
     0
174
     0
 93
       13
 44
0.0
173
     0
291
     1
 45
0.0
1001
ACAD
1000
AcDbSavedByObjectVersion
1070
     0
  0
VISUALSTYLE
  5
D0A
102
{ACAD_XDICTIONARY
360
D92
102
}
102
{ACAD_REACTORS
330
D02
102
}
330
D02
100
AcDbVisualStyle
  2
Hidden
 70
     6
 71
     1
 72
     2
 73
     2
 90
        0
 40
-0.6
 41
-30.0
 62
     5
 63
     7
 74
     2
 91
        2
 64
     7
 65
   257
 75
     2
175
     1
 42
40.0
 92
        0
 66
   257
 43
1.0
 76
     1
 77
     6
 78
     2
 67
     7
 79
     3
170
     0
171
     0
290
     0
174
     0
 93
        1
 44
0.0
173
     0
291
     0
 45
0.0
1001
ACAD
1000
AcDbSavedByObjectVersion
1070
     0
  0
VISUALSTYLE
  5
D18
102
{ACAD_XDICTIONARY
360
DAE
102
}
102
{ACAD_REACTORS
330
D02
102
}
330
D02
100
AcDbVisualStyle
  2
JitterOff
 70
    20
 71
     2
 72
     2
 73
     0
 90
        0
 40
-0.6
 41
-30.0
 62
     5
 63
     7
 74
     1
 91
        4
 64
     7
 65
   257
 75
     1
175
     1
 42
1.0
 92
       10
 66
     7
 43
1.0
 76
     1
 77
     6
 78
     2
 67
     7
 79
     5
170
     0
171
     0
290
     0
174
     0
 93
        1
 44
0.0
173
     0
291
     1
 45
0.0
1001
ACAD
1000
AcDbSavedByObjectVersion
1070
     0
  0
VISUALSTYLE
  5
D10
102
{ACAD_XDICTIONARY
360
D9E
102
}
102
{ACAD_REACTORS
330
D02
102
}
330
D02
100
AcDbVisualStyle
  2
Linepattern
 70
    14
 71
     2
 72
     2
 73
     0
 90
        0
 40
-0.6
 41
-30.0
 62
     5
 63
     7
 74
     1
 91
        4
 64
     7
 65
   257
 75
     7
175
     7
 42
1.0
 92
        8
 66
     7
 43
1.0
 76
     1
 77
     6
 78
     2
 67
     7
 79
     5
170
     0
171
     0
290
     0
174
     0
 93
        1
 44
0.0
173
     0
291
     1
 45
0.0
1001
ACAD
1000
AcDbSavedByObjectVersion
1070
     0
  0
VISUALSTYLE
  5
D19
102
{ACAD_XDICTIONARY
360
DB0
102
}
102
{ACAD_REACTORS
330
D02
102
}
330
D02
100
AcDbVisualStyle
  2
OverhangOff
 70
    21
 71
     2
 72
     2
 73
     0
 90
        0
 40
-0.6
 41
-30.0
 62
     5
 63
     7
 74
     1
 91
        4
 64
     7
 65
   257
 75
     1
175
     1
 42
1.0
 92
        9
 66
     7
 43
1.0
 76
     1
 77
     6
 78
     2
 67
     7
 79
     5
170
     0
171
     0
290
     0
174
     0
 93
        1
 44
0.0
173
     0
291
     1
 45
0.0
1001
ACAD
1000
AcDbSavedByObjectVersion
1070
     0
  0
VISUALSTYLE
  5
D0C
102
{ACAD_XDICTIONARY
360
D96
102
}
102
{ACAD_REACTORS
330
D02
102
}
330
D02
100
AcDbVisualStyle
  2
Realistic
 70
     8
 71
     2
 72
     3
 73
     0
 90
        2
 40
-0.6
 41
30.0
 62
     5
 63
     7
 74
     0
 91
        0
 64
     7
 65
   257
 75
     1
175
     1
 42
1.0
 92
        8
 66
   257
 43
1.0
 76
     1
 77
     6
 78
     2
 67
     7
 79
     3
170
     0
171
     0
290
     0
174
     0
 93
       13
 44
0.0
173
     0
291
     0
 45
0.0
1001
ACAD
1000
AcDbSavedByObjectVersion
1070
     0
  0
VISUALSTYLE
  5
D17
102
{ACAD_XDICTIONARY
360
DAC
102
}
102
{ACAD_REACTORS
330
D02
102
}
330
D02
100
AcDbVisualStyle
  2
Shaded
 70
    27
 71
     2
 72
     2
 73
     1
 90
        2
 40
-0.6
 41
30.0
 62
     5
 63
     7
 74
     0
 91
        4
 64
     7
 65
   257
 75
     1
175
     1
 42
1.0
 92
        8
 66
   257
 43
1.0
 76
     1
 77
     6
 78
     2
 67
     8
 79
     3
170
     0
171
     0
290
     0
174
     0
 93
        5
 44
0.0
173
     0
291
     0
 45
0.0
1001
ACAD
1000
AcDbSavedByObjectVersion
1070
     0
  0
VISUALSTYLE
  5
D16
102
{ACAD_XDICTIONARY
360
DAA
102
}
102
{ACAD_REACTORS
330
D02
102
}
330
D02
100
AcDbVisualStyle
  2
Shaded with edges
 70
    26
 71
     2
 72
     2
 73
     1
 90
        2
 40
-0.6
 41
30.0
 62
     5
 63
     7
 74
     1
 91
       10
 64
     7
 65
   257
 75
     2
175
     1
 42
1.0
 92
        8
 66
   257
 43
1.0
 76
     1
 77
     6
 78
     2
 67
     7
 79
     3
170
     0
171
     0
290
     0
174
     0
 93
        5
 44
0.0
173
     0
291
     0
 45
0.0
1001
ACAD
1000
AcDbSavedByObjectVersion
1070
     0
  0
VISUALSTYLE
  5
D13
102
{ACAD_XDICTIONARY
360
DA4
102
}
102
{ACAD_REACTORS
330
D02
102
}
330
D02
100
AcDbVisualStyle
  2
Shades of Gray
 70
    23
 71
     2
 72
     2
 73
     3
 90
        0
 40
-0.6
 41
-30.0
 62
     5
 63
     7
 74
     2
 91
        2
 64
     7
 65
     7
 75
     1
175
     1
 42
40.0
 92
        8
 66
     7
 43
1.0
 76
     1
 77
     6
 78
     2
 67
     7
 79
     3
170
     0
171
     0
290
     0
174
     0
 93
        1
 44
0.0
173
     0
291
     0
 45
0.0
1001
ACAD
1000
AcDbSavedByObjectVersion
1070
     0
  0
VISUALSTYLE
  5
D14
102
{ACAD_XDICTIONARY
360
DA6
102
}
102
{ACAD_REACTORS
330
D02
102
}
330
D02
100
AcDbVisualStyle
  2
Sketchy
 70
    24
 71
     1
 72
     2
 73
     2
 90
        0
 40
-0.6
 41
-30.0
 62
     5
 63
     7
 74
     2
 91
        2
 64
     7
 65
     7
 75
     1
175
     1
 42
40.0
 92
       11
 66
     7
 43
1.0
 76
     1
 77
     6
 78
     2
 67
     7
 79
     6
170
     0
171
     0
290
     0
174
     0
 93
        1
 44
0.0
173
     0
291
     0
 45
0.0
1001
ACAD
1000
AcDbSavedByObjectVersion
1070
     0
  0
VISUALSTYLE
  5
D0F
102
{ACAD_XDICTIONARY
360
D9C
102
}
102
{ACAD_REACTORS
330
D02
102
}
330
D02
100
AcDbVisualStyle
  2
Thicken
 70
    13
 71
     2
 72
     2
 73
     0
 90
        0
 40
-0.6
 41
-30.0
 62
     5
 63
     7
 74
     1
 91
        4
 64
     7
 65
   257
 75
     1
175
     1
 42
1.0
 92
       12
 66
     7
 43
1.0
 76
     1
 77
     6
 78
     2
 67
     7
 79
     5
170
     0
171
     0
290
     0
174
     0
 93
        1
 44
0.0
173
     0
291
     1
 45
0.0
1001
ACAD
1000
AcDbSavedByObjectVersion
1070
     0
  0
VISUALSTYLE
  5
D09
102
{ACAD_XDICTIONARY
360
D90
102
}
102
{ACAD_REACTORS
330
D02
102
}
330
D02
100
AcDbVisualStyle
  2
Wireframe
 70
     5
 71
     0
 72
     2
 73
     0
 90
        0
 40
-0.6
 41
-30.0
 62
     5
 63
     7
 74
     1
 91
        4
 64
     7
 65
   257
 75
     1
175
     1
 42
1.0
 92
        0
 66
   257
 43
1.0
 76
     1
 77
     6
 78
     2
 67
     7
 79
     3
170
     0
171
     0
290
     0
174
     0
 93
        1
 44
0.0
173
     0
291
     0
 45
0.0
1001
ACAD
1000
AcDbSavedByObjectVersion
1070
     0
  0
VISUALSTYLE
  5
D15
102
{ACAD_XDICTIONARY
360
DA8
102
}
102
{ACAD_REACTORS
330
D02
102
}
330
D02
100
AcDbVisualStyle
  2
X-Ray
 70
    25
 71
     2
 72
     2
 73
     1
 90
        1
 40
0.5
 41
-30.0
 62
     5
 63
     7
 74
     1
 91
        0
 64
     7
 65
   257
 75
     1
175
     1
 42
1.0
 92
        8
 66
     7
 43
1.0
 76
     1
 77
     6
 78
     2
 67
     7
 79
     3
170
     0
171
     0
290
     0
174
     0
 93
       13
 44
0.0
173
     0
291
     0
 45
0.0
1001
ACAD
1000
AcDbSavedByObjectVersion
1070
     0
  0
DICTIONARYVAR
  5
D77
102
{ACAD_REACTORS
330
D72
102
}
330
D72
100
DictionaryVariables
280
     0
  1
1:1
  0
DICTIONARYVAR
  5
D74
102
{ACAD_REACTORS
330
D72
102
}
330
D72
100
DictionaryVariables
280
     0
  1
STANDARD
  0
DICTIONARYVAR
  5
D73
102
{ACAD_REACTORS
330
D72
102
}
330
D72
100
DictionaryVariables
280
     0
  1
STANDARD
  0
DICTIONARYVAR
  5
D75
102
{ACAD_REACTORS
330
D72
102
}
330
D72
100
DictionaryVariables
280
     0
  1
Imperial24
  0
DICTIONARYVAR
  5
D76
102
{ACAD_REACTORS
330
D72
102
}
330
D72
100
DictionaryVariables
280
     0
  1
Imperial24
  0
DICTIONARYVAR
  5
D7A
102
{ACAD_REACTORS
330
D72
102
}
330
D72
100
DictionaryVariables
280
     0
  1
1
  0
DICTIONARYVAR
  5
D79
102
{ACAD_REACTORS
330
D72
102
}
330
D72
100
DictionaryVariables
280
     0
  1
0
  0
DICTIONARYVAR
  5
D78
102
{ACAD_REACTORS
330
D72
102
}
330
D72
100
DictionaryVariables
280
     0
  1
127
  0
DICTIONARYVAR
  5
D7B
102
{ACAD_REACTORS
330
D72
102
}
330
D72
100
DictionaryVariables
280
     0
  1
2
  0
DICTIONARY
  5
DB8
330
D43
100
AcDbDictionary
280
     1
281
     1
  3
ACAD_XREC_ROUNDTRIP
360
DB9
  0
DICTIONARY
  5
DBC
330
D4B
100
AcDbDictionary
280
     1
281
     1
  3
ACAD_XREC_ROUNDTRIP
360
DBD
  0
DICTIONARY
  5
DBA
330
D47
100
AcDbDictionary
280
     1
281
     1
  3
ACAD_XREC_ROUNDTRIP
360
DBB
  0
DICTIONARY
  5
CF3
330
CF2
100
AcDbDictionary
280
     1
281
     1
  3
ACAD_XREC_ROUNDTRIP
360
D82
  3
BUMPTILE
360
CF5
  3
DIFFUSETILE
360
CF4
  3
OPACITYTILE
360
CF8
  3
REFLECTIONTILE
360
CF7
  3
REFRACTIONTILE
360
CF9
  3
SPECULARTILE
360
CF6
  0
DICTIONARY
  5
CEB
330
CEA
100
AcDbDictionary
280
     1
281
     1
  3
ACAD_XREC_ROUNDTRIP
360
D81
  3
BUMPTILE
360
CED
  3
DIFFUSETILE
360
CEC
  3
OPACITYTILE
360
CF0
  3
REFLECTIONTILE
360
CEF
  3
REFRACTIONTILE
360
CF1
  3
SPECULARTILE
360
CEE
  0
DICTIONARY
  5
CFB
330
CFA
100
AcDbDictionary
280
     1
281
     1
  3
ACAD_XREC_ROUNDTRIP
360
D83
  3
BUMPTILE
360
CFD
  3
DIFFUSETILE
360
CFC
  3
OPACITYTILE
360
D00
  3
REFLECTIONTILE
360
CFF
  3
REFRACTIONTILE
360
D01
  3
SPECULARTILE
360
CFE
  0
DICTIONARY
  5
DB6
330
D41
100
AcDbDictionary
280
     1
281
     1
  3
ACAD_XREC_ROUNDTRIP
360
DB7
  0
DICTIONARY
  5
D7D
330
D3D
100
AcDbDictionary
280
     1
281
     1
  3
ACAD_ROUNDTRIP_2008_TABLESTYLE_CELLSTYLEMAP
360
D7E
  3
ACAD_XREC_ROUNDTRIP
360
DB4
  0
DICTIONARY
  5
D8E
330
D08
100
AcDbDictionary
280
     1
281
     1
  3
ACAD_XREC_ROUNDTRIP
360
D8F
  0
DICTIONARY
  5
D8C
330
D07
100
AcDbDictionary
280
     1
281
     1
  3
ACAD_XREC_ROUNDTRIP
360
D8D
  0
DICTIONARY
  5
D9A
330
D0E
100
AcDbDictionary
280
     1
281
     1
  3
ACAD_XREC_ROUNDTRIP
360
D9B
  0
DICTIONARY
  5
DA2
330
D12
100
AcDbDictionary
280
     1
281
     1
  3
ACAD_XREC_ROUNDTRIP
360
DA3
  0
DICTIONARY
  5
D94
330
D0B
100
AcDbDictionary
280
     1
281
     1
  3
ACAD_XREC_ROUNDTRIP
360
D95
  0
DICTIONARY
  5
D98
330
D0D
100
AcDbDictionary
280
     1
281
     1
  3
ACAD_XREC_ROUNDTRIP
360
D99
  0
DICTIONARY
  5
DB2
330
D1A
100
AcDbDictionary
280
     1
281
     1
  3
ACAD_XREC_ROUNDTRIP
360
DB3
  0
DICTIONARY
  5
DA0
330
D11
100
AcDbDictionary
280
     1
281
     1
  3
ACAD_XREC_ROUNDTRIP
360
DA1
  0
DICTIONARY
  5
D84
330
D03
100
AcDbDictionary
280
     1
281
     1
  3
ACAD_XREC_ROUNDTRIP
360
D85
  0
DICTIONARY
  5
D86
330
D04
100
AcDbDictionary
280
     1
281
     1
  3
ACAD_XREC_ROUNDTRIP
360
D87
  0
DICTIONARY
  5
D88
330
D05
100
AcDbDictionary
280
     1
281
     1
  3
ACAD_XREC_ROUNDTRIP
360
D89
  0
DICTIONARY
  5
D8A
330
D06
100
AcDbDictionary
280
     1
281
     1
  3
ACAD_XREC_ROUNDTRIP
360
D8B
  0
DICTIONARY
  5
D92
330
D0A
100
AcDbDictionary
280
     1
281
     1
  3
ACAD_XREC_ROUNDTRIP
360
D93
  0
DICTIONARY
  5
DAE
330
D18
100
AcDbDictionary
280
     1
281
     1
  3
ACAD_XREC_ROUNDTRIP
360
DAF
  0
DICTIONARY
  5
D9E
330
D10
100
AcDbDictionary
280
     1
281
     1
  3
ACAD_XREC_ROUNDTRIP
360
D9F
  0
DICTIONARY
  5
DB0
330
D19
100
AcDbDictionary
280
     1
281
     1
  3
ACAD_XREC_ROUNDTRIP
360
DB1
  0
DICTIONARY
  5
D96
330
D0C
100
AcDbDictionary
280
     1
281
     1
  3
ACAD_XREC_ROUNDTRIP
360
D97
  0
DICTIONARY
  5
DAC
330
D17
100
AcDbDictionary
280
     1
281
     1
  3
ACAD_XREC_ROUNDTRIP
360
DAD
  0
DICTIONARY
  5
DAA
330
D16
100
AcDbDictionary
280
     1
281
     1
  3
ACAD_XREC_ROUNDTRIP
360
DAB
  0
DICTIONARY
  5
DA4
330
D13
100
AcDbDictionary
280
     1
281
     1
  3
ACAD_XREC_ROUNDTRIP
360
DA5
  0
DICTIONARY
  5
DA6
330
D14
100
AcDbDictionary
280
     1
281
     1
  3
ACAD_XREC_ROUNDTRIP
360
DA7
  0
DICTIONARY
  5
D9C
330
D0F
100
AcDbDictionary
280
     1
281
     1
  3
ACAD_XREC_ROUNDTRIP
360
D9D
  0
DICTIONARY
  5
D90
330
D09
100
AcDbDictionary
280
     1
281
     1
  3
ACAD_XREC_ROUNDTRIP
360
D91
  0
DICTIONARY
  5
DA8
330
D15
100
AcDbDictionary
280
     1
281
     1
  3
ACAD_XREC_ROUNDTRIP
360
DA9
  0
XRECORD
  5
DB9
102
{ACAD_REACTORS
330
DB8
102
}
330
DB8
100
AcDbXrecord
280
     1
102
DISPLAYNAME
  1
Imperial24
102
FLAGS
 90
        0
  0
XRECORD
  5
DBD
102
{ACAD_REACTORS
330
DBC
102
}
330
DBC
100
AcDbXrecord
280
     1
102
SHADEPLOT
 70
     0
102
SHADEPLOTRESLEVEL
 70
     2
102
SHADEPLOTCUSTOMDPI
 70
   300
  0
XRECORD
  5
DBB
102
{ACAD_REACTORS
330
DBA
102
}
330
DBA
100
AcDbXrecord
280
     1
102
SHADEPLOT
 70
     0
102
SHADEPLOTRESLEVEL
 70
     2
102
SHADEPLOTCUSTOMDPI
 70
   300
  0
XRECORD
  5
D82
102
{ACAD_REACTORS
330
CF3
102
}
330
CF3
100
AcDbXrecord
280
     1
102
MATERIAL
148
0.0
149
0.0
149
0.0
 93
        0
 94
      127
282
     0
 72
     0
 77
     0
171
     0
175
     0
179
     0
273
     0
  0
XRECORD
  5
CF5
102
{ACAD_REACTORS
330
CF3
102
}
330
CF3
100
AcDbXrecord
280
     1
270
     1
271
     1
  0
XRECORD
  5
CF4
102
{ACAD_REACTORS
330
CF3
102
}
330
CF3
100
AcDbXrecord
280
     1
270
     1
271
     1
  0
XRECORD
  5
CF8
102
{ACAD_REACTORS
330
CF3
102
}
330
CF3
100
AcDbXrecord
280
     1
270
     1
271
     1
  0
XRECORD
  5
CF7
102
{ACAD_REACTORS
330
CF3
102
}
330
CF3
100
AcDbXrecord
280
     1
270
     1
271
     1
  0
XRECORD
  5
CF9
102
{ACAD_REACTORS
330
CF3
102
}
330
CF3
100
AcDbXrecord
280
     1
270
     1
271
     1
  0
XRECORD
  5
CF6
102
{ACAD_REACTORS
330
CF3
102
}
330
CF3
100
AcDbXrecord
280
     1
270
     1
271
     1
  0
XRECORD
  5
D81
102
{ACAD_REACTORS
330
CEB
102
}
330
CEB
100
AcDbXrecord
280
     1
102
MATERIAL
148
0.0
149
0.0
149
0.0
 93
        0
 94
      127
282
     0
 72
     0
 77
     0
171
     0
175
     0
179
     0
273
     0
  0
XRECORD
  5
CED
102
{ACAD_REACTORS
330
CEB
102
}
330
CEB
100
AcDbXrecord
280
     1
270
     1
271
     1
  0
XRECORD
  5
CEC
102
{ACAD_REACTORS
330
CEB
102
}
330
CEB
100
AcDbXrecord
280
     1
270
     1
271
     1
  0
XRECORD
  5
CF0
102
{ACAD_REACTORS
330
CEB
102
}
330
CEB
100
AcDbXrecord
280
     1
270
     1
271
     1
  0
XRECORD
  5
CEF
102
{ACAD_REACTORS
330
CEB
102
}
330
CEB
100
AcDbXrecord
280
     1
270
     1
271
     1
  0
XRECORD
  5
CF1
102
{ACAD_REACTORS
330
CEB
102
}
330
CEB
100
AcDbXrecord
280
     1
270
     1
271
     1
  0
XRECORD
  5
CEE
102
{ACAD_REACTORS
330
CEB
102
}
330
CEB
100
AcDbXrecord
280
     1
270
     1
271
     1
  0
XRECORD
  5
D83
102
{ACAD_REACTORS
330
CFB
102
}
330
CFB
100
AcDbXrecord
280
     1
102
MATERIAL
148
0.0
149
0.0
149
0.0
 93
        0
 94
      127
282
     0
 72
     0
 77
     0
171
     0
175
     0
179
     0
273
     0
  0
XRECORD
  5
CFD
102
{ACAD_REACTORS
330
CFB
102
}
330
CFB
100
AcDbXrecord
280
     1
270
     1
271
     1
  0
XRECORD
  5
CFC
102
{ACAD_REACTORS
330
CFB
102
}
330
CFB
100
AcDbXrecord
280
     1
270
     1
271
     1
  0
XRECORD
  5
D00
102
{ACAD_REACTORS
330
CFB
102
}
330
CFB
100
AcDbXrecord
280
     1
270
     1
271
     1
  0
XRECORD
  5
CFF
102
{ACAD_REACTORS
330
CFB
102
}
330
CFB
100
AcDbXrecord
280
     1
270
     1
271
     1
  0
XRECORD
  5
D01
102
{ACAD_REACTORS
330
CFB
102
}
330
CFB
100
AcDbXrecord
280
     1
270
     1
271
     1
  0
XRECORD
  5
CFE
102
{ACAD_REACTORS
330
CFB
102
}
330
CFB
100
AcDbXrecord
280
     1
270
     1
271
     1
  0
XRECORD
  5
DB7
102
{ACAD_REACTORS
330
DB6
102
}
330
DB6
100
AcDbXrecord
280
     1
102
DISPLAYNAME
  1
Imperial24
102
FLAGS
 90
        0
  0
CELLSTYLEMAP
  5
D7E
102
{ACAD_REACTORS
330
D7D
102
}
330
D7D
100
AcDbCellStyleMap
 90
        3
300
CELLSTYLE
  1
TABLEFORMAT_BEGIN
 90
        5
170
     1
 91
        0
 92
    32768
 62
   257
 93
        1
300
CONTENTFORMAT
  1
CONTENTFORMAT_BEGIN
 90
        0
 91
        0
 92
      512
 93
        0
300

 40
0.0
140
1.0
 94
        5
 62
     0
340
D2E
144
0.25
309
CONTENTFORMAT_END
171
     0
 94
        0
309
TABLEFORMAT_END
  1
CELLSTYLE_BEGIN
 90
        1
 91
        1
300
_TITLE
309
CELLSTYLE_END
300
CELLSTYLE
  1
TABLEFORMAT_BEGIN
 90
        5
170
     1
 91
        0
 92
        0
 62
   257
 93
        1
300
CONTENTFORMAT
  1
CONTENTFORMAT_BEGIN
 90
        0
 91
        0
 92
      512
 93
        0
300

 40
0.0
140
1.0
 94
        5
 62
     0
340
D2E
144
0.18
309
CONTENTFORMAT_END
171
     0
 94
        0
309
TABLEFORMAT_END
  1
CELLSTYLE_BEGIN
 90
        2
 91
        1
300
_HEADER
309
CELLSTYLE_END
300
CELLSTYLE
  1
TABLEFORMAT_BEGIN
 90
        5
170
     1
 91
        0
 92
        0
 62
   257
 93
        1
300
CONTENTFORMAT
  1
CONTENTFORMAT_BEGIN
 90
        0
 91
        0
 92
      512
 93
        0
300

 40
0.0
140
1.0
 94
        2
 62
     0
340
D2E
144
0.18
309
CONTENTFORMAT_END
171
     0
 94
        0
309
TABLEFORMAT_END
  1
CELLSTYLE_BEGIN
 90
        3
 91
        2
300
_DATA
309
CELLSTYLE_END
  0
XRECORD
  5
DB4
102
{ACAD_REACTORS
330
D7D
102
}
330
D7D
100
AcDbXrecord
280
     1
102
ACAD_ROUNDTRIP_PRE2007_TABLESTYLE
 90
      512
 91
        0
  1

 92
      512
 93
        0
  2

 94
      512
 95
        0
  3

  0
XRECORD
  5
D8F
102
{ACAD_REACTORS
330
D8E
102
}
330
D8E
100
AcDbXrecord
280
     1
102
RTVSPost2010Prop28
280
     1
102
RTVSPost2010PropOp28
 70
     1
102
RTVSPost2010Prop29
280
     1
102
RTVSPost2010PropOp29
 70
     1
102
RTVSPost2010Prop30
280
     0
102
RTVSPost2010PropOp30
 70
     1
102
RTVSPost2010Prop31
280
     0
102
RTVSPost2010PropOp31
 70
     1
102
RTVSPost2010Prop32
280
     0
102
RTVSPost2010PropOp32
 70
     1
102
RTVSPost2010Prop33
280
     0
102
RTVSPost2010PropOp33
 70
     1
102
RTVSPost2010Prop34
280
     0
102
RTVSPost2010PropOp34
 70
     1
102
RTVSPost2010Prop35
280
     0
102
RTVSPost2010PropOp35
 70
     1
102
RTVSPost2010Prop36
280
     0
102
RTVSPost2010PropOp36
 70
     1
102
RTVSPost2010Prop37
 90
       50
102
RTVSPost2010PropOp37
 70
     1
102
RTVSPost2010Prop38
140
0.0
102
RTVSPost2010PropOp38
 70
     1
102
RTVSPost2010Prop39
140
1.0
102
RTVSPost2010PropOp39
 70
     1
102
RTVSPost2010Prop40
 90
        0
102
RTVSPost2010PropOp40
 70
     1
102
RTVSPost2010Prop41ColorIndex
 90
       18
102
RTVSPost2010Prop41ColorRGB
 90
        0
102
RTVSPost2010PropOp41
 70
     1
102
RTVSPost2010Prop42
 90
       50
102
RTVSPost2010PropOp42
 70
     1
102
RTVSPost2010Prop43
 90
        3
102
RTVSPost2010PropOp43
 70
     1
102
RTVSPost2010Prop44ColorIndex
 90
        5
102
RTVSPost2010Prop44ColorRGB
 90
      255
102
RTVSPost2010PropOp44
 70
     1
102
RTVSPost2010Prop45
280
     0
102
RTVSPost2010PropOp45
 70
     1
102
RTVSPost2010Prop46
 90
       50
102
RTVSPost2010PropOp46
 70
     1
102
RTVSPost2010Prop47
 90
       50
102
RTVSPost2010PropOp47
 70
     1
102
RTVSPost2010Prop48
 90
       50
102
RTVSPost2010PropOp48
 70
     1
102
RTVSPost2010Prop49
280
     0
102
RTVSPost2010PropOp49
 70
     1
102
RTVSPost2010Prop50
 90
       50
102
RTVSPost2010PropOp50
 70
     1
102
RTVSPost2010Prop51ColorIndex
 90
      256
102
RTVSPost2010Prop51ColorRGB
 90
-16777216
102
RTVSPost2010PropOp51
 70
     0
102
RTVSPost2010Prop52
140
1.0
102
RTVSPost2010PropOp52
 70
     0
102
RTVSPost2010Prop53
 90
        2
102
RTVSPost2010PropOp53
 70
     1
102
RTVSPost2010Prop54
  1
strokes_ogs.tif
102
RTVSPost2010PropOp54
 70
     1
102
RTVSPost2010Prop55
280
     0
102
RTVSPost2010PropOp55
 70
     1
102
RTVSPost2010Prop56
140
1.0
102
RTVSPost2010PropOp56
 70
     1
102
RTVSPost2010Prop57
140
1.0
102
RTVSPost2010PropOp57
 70
     1
102
RTVSPropertyOp0
 70
     1
102
RTVSPropertyOp1
 70
     1
102
RTVSPropertyOp2
 70
     1
102
RTVSPropertyOp3
 70
     1
102
RTVSPropertyOp4
 70
     1
102
RTVSPropertyOp5
 70
     1
102
RTVSPropertyOp6
 70
     1
102
RTVSPropertyOp7
 70
     1
102
RTVSPropertyOp8
 70
     1
102
RTVSPropertyOp9
 70
     1
102
RTVSPropertyOp10
 70
     1
102
RTVSPropertyOp11
 70
     1
102
RTVSPropertyOp12
 70
     1
102
RTVSPropertyOp13
 70
     1
102
RTVSPropertyOp14
 70
     1
102
RTVSPropertyOp15
 70
     1
102
RTVSPropertyOp16
 70
     1
102
RTVSPropertyOp17
 70
     1
102
RTVSPropertyOp18
 70
     1
102
RTVSPropertyOp19
 70
     1
102
RTVSPropertyOp20
 70
     1
102
RTVSPropertyOp21
 70
     1
102
RTVSPropertyOp22
 70
     1
102
RTVSPropertyOp23
 70
     1
102
RTVSPropertyOp24
 70
     1
102
RTVSPropertyOp25
 70
     1
102
RTVSPropertyOp26
 70
     1
102
RTVSPropertyOp27
 70
     1
102
RTVSPropertyOp28
 70
     1
102
RTVSPropertyOp29
 70
     1
102
RTVSPropertyOp30
 70
     1
102
RTVSPropertyOp31
 70
     1
102
RTVSPropertyOp32
 70
     1
102
RTVSPropertyOp33
 70
     1
102
RTVSPropertyOp34
 70
     1
102
RTVSPropertyOp35
 70
     1
102
RTVSPropertyOp36
 70
     1
102
RTVSPropertyOp37
 70
     1
102
RTVSPropertyOp38
 70
     1
102
RTVSPropertyOp39
 70
     1
102
RTVSPropertyOp40
 70
     1
102
RTVSPropertyOp41
 70
     1
102
RTVSPropertyOp42
 70
     1
102
RTVSPropertyOp43
 70
     1
102
RTVSPropertyOp44
 70
     1
102
RTVSPropertyOp45
 70
     1
102
RTVSPropertyOp46
 70
     1
102
RTVSPropertyOp47
 70
     1
102
RTVSPropertyOp48
 70
     1
102
RTVSPropertyOp49
 70
     1
102
RTVSPropertyOp50
 70
     1
102
RTVSPropertyOp51
 70
     0
102
RTVSPropertyOp52
 70
     0
102
RTVSPropertyOp53
 70
     1
102
RTVSPropertyOp54
 70
     1
102
RTVSPropertyOp55
 70
     1
102
RTVSPropertyOp56
 70
     1
102
RTVSPropertyOp57
 70
     1
102
RTVSPropertyOp58
 70
     1
102
RTVSPropertyOp59
 70
     1
102
RTVSPropertyOp60
 70
     1
102
RTVSPropertyOp61
 70
     1
102
RTVSPropertyOp62
 70
     1
  0
XRECORD
  5
D8D
102
{ACAD_REACTORS
330
D8C
102
}
330
D8C
100
AcDbXrecord
280
     1
102
RTVSPost2010Prop28
280
     0
102
RTVSPost2010PropOp28
 70
     1
102
RTVSPost2010Prop29
280
     1
102
RTVSPost2010PropOp29
 70
     1
102
RTVSPost2010Prop30
280
     1
102
RTVSPost2010PropOp30
 70
     1
102
RTVSPost2010Prop31
280
     0
102
RTVSPost2010PropOp31
 70
     1
102
RTVSPost2010Prop32
280
     0
102
RTVSPost2010PropOp32
 70
     1
102
RTVSPost2010Prop33
280
     0
102
RTVSPost2010PropOp33
 70
     1
102
RTVSPost2010Prop34
280
     0
102
RTVSPost2010PropOp34
 70
     1
102
RTVSPost2010Prop35
280
     0
102
RTVSPost2010PropOp35
 70
     1
102
RTVSPost2010Prop36
280
     0
102
RTVSPost2010PropOp36
 70
     1
102
RTVSPost2010Prop37
 90
       50
102
RTVSPost2010PropOp37
 70
     1
102
RTVSPost2010Prop38
140
0.0
102
RTVSPost2010PropOp38
 70
     1
102
RTVSPost2010Prop39
140
1.0
102
RTVSPost2010PropOp39
 70
     1
102
RTVSPost2010Prop40
 90
        0
102
RTVSPost2010PropOp40
 70
     1
102
RTVSPost2010Prop41ColorIndex
 90
       18
102
RTVSPost2010Prop41ColorRGB
 90
        0
102
RTVSPost2010PropOp41
 70
     1
102
RTVSPost2010Prop42
 90
       50
102
RTVSPost2010PropOp42
 70
     1
102
RTVSPost2010Prop43
 90
        3
102
RTVSPost2010PropOp43
 70
     1
102
RTVSPost2010Prop44ColorIndex
 90
        5
102
RTVSPost2010Prop44ColorRGB
 90
      255
102
RTVSPost2010PropOp44
 70
     1
102
RTVSPost2010Prop45
280
     0
102
RTVSPost2010PropOp45
 70
     1
102
RTVSPost2010Prop46
 90
       50
102
RTVSPost2010PropOp46
 70
     1
102
RTVSPost2010Prop47
 90
       50
102
RTVSPost2010PropOp47
 70
     1
102
RTVSPost2010Prop48
 90
       50
102
RTVSPost2010PropOp48
 70
     1
102
RTVSPost2010Prop49
280
     0
102
RTVSPost2010PropOp49
 70
     1
102
RTVSPost2010Prop50
 90
       50
102
RTVSPost2010PropOp50
 70
     1
102
RTVSPost2010Prop51ColorIndex
 90
      256
102
RTVSPost2010Prop51ColorRGB
 90
-16777216
102
RTVSPost2010PropOp51
 70
     0
102
RTVSPost2010Prop52
140
1.0
102
RTVSPost2010PropOp52
 70
     0
102
RTVSPost2010Prop53
 90
        2
102
RTVSPost2010PropOp53
 70
     1
102
RTVSPost2010Prop54
  1
strokes_ogs.tif
102
RTVSPost2010PropOp54
 70
     1
102
RTVSPost2010Prop55
280
     0
102
RTVSPost2010PropOp55
 70
     1
102
RTVSPost2010Prop56
140
1.0
102
RTVSPost2010PropOp56
 70
     1
102
RTVSPost2010Prop57
140
1.0
102
RTVSPost2010PropOp57
 70
     1
102
RTVSPropertyOp0
 70
     1
102
RTVSPropertyOp1
 70
     1
102
RTVSPropertyOp2
 70
     1
102
RTVSPropertyOp3
 70
     1
102
RTVSPropertyOp4
 70
     1
102
RTVSPropertyOp5
 70
     1
102
RTVSPropertyOp6
 70
     1
102
RTVSPropertyOp7
 70
     1
102
RTVSPropertyOp8
 70
     1
102
RTVSPropertyOp9
 70
     1
102
RTVSPropertyOp10
 70
     1
102
RTVSPropertyOp11
 70
     1
102
RTVSPropertyOp12
 70
     1
102
RTVSPropertyOp13
 70
     1
102
RTVSPropertyOp14
 70
     1
102
RTVSPropertyOp15
 70
     1
102
RTVSPropertyOp16
 70
     1
102
RTVSPropertyOp17
 70
     1
102
RTVSPropertyOp18
 70
     1
102
RTVSPropertyOp19
 70
     1
102
RTVSPropertyOp20
 70
     1
102
RTVSPropertyOp21
 70
     1
102
RTVSPropertyOp22
 70
     1
102
RTVSPropertyOp23
 70
     1
102
RTVSPropertyOp24
 70
     1
102
RTVSPropertyOp25
 70
     1
102
RTVSPropertyOp26
 70
     1
102
RTVSPropertyOp27
 70
     1
102
RTVSPropertyOp28
 70
     1
102
RTVSPropertyOp29
 70
     1
102
RTVSPropertyOp30
 70
     1
102
RTVSPropertyOp31
 70
     1
102
RTVSPropertyOp32
 70
     1
102
RTVSPropertyOp33
 70
     1
102
RTVSPropertyOp34
 70
     1
102
RTVSPropertyOp35
 70
     1
102
RTVSPropertyOp36
 70
     1
102
RTVSPropertyOp37
 70
     1
102
RTVSPropertyOp38
 70
     1
102
RTVSPropertyOp39
 70
     1
102
RTVSPropertyOp40
 70
     1
102
RTVSPropertyOp41
 70
     1
102
RTVSPropertyOp42
 70
     1
102
RTVSPropertyOp43
 70
     1
102
RTVSPropertyOp44
 70
     1
102
RTVSPropertyOp45
 70
     1
102
RTVSPropertyOp46
 70
     1
102
RTVSPropertyOp47
 70
     1
102
RTVSPropertyOp48
 70
     1
102
RTVSPropertyOp49
 70
     1
102
RTVSPropertyOp50
 70
     1
102
RTVSPropertyOp51
 70
     0
102
RTVSPropertyOp52
 70
     0
102
RTVSPropertyOp53
 70
     1
102
RTVSPropertyOp54
 70
     1
102
RTVSPropertyOp55
 70
     1
102
RTVSPropertyOp56
 70
     1
102
RTVSPropertyOp57
 70
     1
102
RTVSPropertyOp58
 70
     1
102
RTVSPropertyOp59
 70
     1
102
RTVSPropertyOp60
 70
     1
102
RTVSPropertyOp61
 70
     1
102
RTVSPropertyOp62
 70
     1
  0
XRECORD
  5
D9B
102
{ACAD_REACTORS
330
D9A
102
}
330
D9A
100
AcDbXrecord
280
     1
102
RTVSPost2010Prop28
280
     0
102
RTVSPost2010PropOp28
 70
     1
102
RTVSPost2010Prop29
280
     1
102
RTVSPost2010PropOp29
 70
     1
102
RTVSPost2010Prop30
280
     1
102
RTVSPost2010PropOp30
 70
     1
102
RTVSPost2010Prop31
280
     0
102
RTVSPost2010PropOp31
 70
     1
102
RTVSPost2010Prop32
280
     0
102
RTVSPost2010PropOp32
 70
     1
102
RTVSPost2010Prop33
280
     0
102
RTVSPost2010PropOp33
 70
     1
102
RTVSPost2010Prop34
280
     0
102
RTVSPost2010PropOp34
 70
     1
102
RTVSPost2010Prop35
280
     0
102
RTVSPost2010PropOp35
 70
     1
102
RTVSPost2010Prop36
280
     0
102
RTVSPost2010PropOp36
 70
     1
102
RTVSPost2010Prop37
 90
       50
102
RTVSPost2010PropOp37
 70
     1
102
RTVSPost2010Prop38
140
0.0
102
RTVSPost2010PropOp38
 70
     1
102
RTVSPost2010Prop39
140
1.0
102
RTVSPost2010PropOp39
 70
     1
102
RTVSPost2010Prop40
 90
        0
102
RTVSPost2010PropOp40
 70
     1
102
RTVSPost2010Prop41ColorIndex
 90
       18
102
RTVSPost2010Prop41ColorRGB
 90
        0
102
RTVSPost2010PropOp41
 70
     1
102
RTVSPost2010Prop42
 90
       50
102
RTVSPost2010PropOp42
 70
     1
102
RTVSPost2010Prop43
 90
        3
102
RTVSPost2010PropOp43
 70
     1
102
RTVSPost2010Prop44ColorIndex
 90
        5
102
RTVSPost2010Prop44ColorRGB
 90
      255
102
RTVSPost2010PropOp44
 70
     1
102
RTVSPost2010Prop45
280
     0
102
RTVSPost2010PropOp45
 70
     1
102
RTVSPost2010Prop46
 90
       50
102
RTVSPost2010PropOp46
 70
     1
102
RTVSPost2010Prop47
 90
       50
102
RTVSPost2010PropOp47
 70
     1
102
RTVSPost2010Prop48
 90
       50
102
RTVSPost2010PropOp48
 70
     1
102
RTVSPost2010Prop49
280
     0
102
RTVSPost2010PropOp49
 70
     1
102
RTVSPost2010Prop50
 90
       50
102
RTVSPost2010PropOp50
 70
     1
102
RTVSPost2010Prop51ColorIndex
 90
      256
102
RTVSPost2010Prop51ColorRGB
 90
-16777216
102
RTVSPost2010PropOp51
 70
     0
102
RTVSPost2010Prop52
140
1.0
102
RTVSPost2010PropOp52
 70
     0
102
RTVSPost2010Prop53
 90
        2
102
RTVSPost2010PropOp53
 70
     1
102
RTVSPost2010Prop54
  1
strokes_ogs.tif
102
RTVSPost2010PropOp54
 70
     1
102
RTVSPost2010Prop55
280
     0
102
RTVSPost2010PropOp55
 70
     1
102
RTVSPost2010Prop56
140
1.0
102
RTVSPost2010PropOp56
 70
     1
102
RTVSPost2010Prop57
140
1.0
102
RTVSPost2010PropOp57
 70
     1
102
RTVSPropertyOp0
 70
     1
102
RTVSPropertyOp1
 70
     1
102
RTVSPropertyOp2
 70
     1
102
RTVSPropertyOp3
 70
     1
102
RTVSPropertyOp4
 70
     1
102
RTVSPropertyOp5
 70
     1
102
RTVSPropertyOp6
 70
     1
102
RTVSPropertyOp7
 70
     1
102
RTVSPropertyOp8
 70
     1
102
RTVSPropertyOp9
 70
     1
102
RTVSPropertyOp10
 70
     1
102
RTVSPropertyOp11
 70
     1
102
RTVSPropertyOp12
 70
     1
102
RTVSPropertyOp13
 70
     1
102
RTVSPropertyOp14
 70
     1
102
RTVSPropertyOp15
 70
     1
102
RTVSPropertyOp16
 70
     1
102
RTVSPropertyOp17
 70
     1
102
RTVSPropertyOp18
 70
     1
102
RTVSPropertyOp19
 70
     1
102
RTVSPropertyOp20
 70
     1
102
RTVSPropertyOp21
 70
     1
102
RTVSPropertyOp22
 70
     1
102
RTVSPropertyOp23
 70
     1
102
RTVSPropertyOp24
 70
     1
102
RTVSPropertyOp25
 70
     1
102
RTVSPropertyOp26
 70
     1
102
RTVSPropertyOp27
 70
     1
102
RTVSPropertyOp28
 70
     1
102
RTVSPropertyOp29
 70
     1
102
RTVSPropertyOp30
 70
     1
102
RTVSPropertyOp31
 70
     1
102
RTVSPropertyOp32
 70
     1
102
RTVSPropertyOp33
 70
     1
102
RTVSPropertyOp34
 70
     1
102
RTVSPropertyOp35
 70
     1
102
RTVSPropertyOp36
 70
     1
102
RTVSPropertyOp37
 70
     1
102
RTVSPropertyOp38
 70
     1
102
RTVSPropertyOp39
 70
     1
102
RTVSPropertyOp40
 70
     1
102
RTVSPropertyOp41
 70
     1
102
RTVSPropertyOp42
 70
     1
102
RTVSPropertyOp43
 70
     1
102
RTVSPropertyOp44
 70
     1
102
RTVSPropertyOp45
 70
     1
102
RTVSPropertyOp46
 70
     1
102
RTVSPropertyOp47
 70
     1
102
RTVSPropertyOp48
 70
     1
102
RTVSPropertyOp49
 70
     1
102
RTVSPropertyOp50
 70
     1
102
RTVSPropertyOp51
 70
     0
102
RTVSPropertyOp52
 70
     0
102
RTVSPropertyOp53
 70
     1
102
RTVSPropertyOp54
 70
     1
102
RTVSPropertyOp55
 70
     1
102
RTVSPropertyOp56
 70
     1
102
RTVSPropertyOp57
 70
     1
102
RTVSPropertyOp58
 70
     1
102
RTVSPropertyOp59
 70
     1
102
RTVSPropertyOp60
 70
     1
102
RTVSPropertyOp61
 70
     1
102
RTVSPropertyOp62
 70
     1
  0
XRECORD
  5
DA3
102
{ACAD_REACTORS
330
DA2
102
}
330
DA2
100
AcDbXrecord
280
     1
102
RTVSPost2010Prop28
280
     0
102
RTVSPost2010PropOp28
 70
     1
102
RTVSPost2010Prop29
280
     1
102
RTVSPost2010PropOp29
 70
     1
102
RTVSPost2010Prop30
280
     1
102
RTVSPost2010PropOp30
 70
     1
102
RTVSPost2010Prop31
280
     0
102
RTVSPost2010PropOp31
 70
     1
102
RTVSPost2010Prop32
280
     0
102
RTVSPost2010PropOp32
 70
     1
102
RTVSPost2010Prop33
280
     0
102
RTVSPost2010PropOp33
 70
     1
102
RTVSPost2010Prop34
280
     0
102
RTVSPost2010PropOp34
 70
     1
102
RTVSPost2010Prop35
280
     0
102
RTVSPost2010PropOp35
 70
     1
102
RTVSPost2010Prop36
280
     0
102
RTVSPost2010PropOp36
 70
     1
102
RTVSPost2010Prop37
 90
       50
102
RTVSPost2010PropOp37
 70
     1
102
RTVSPost2010Prop38
140
0.0
102
RTVSPost2010PropOp38
 70
     1
102
RTVSPost2010Prop39
140
1.0
102
RTVSPost2010PropOp39
 70
     1
102
RTVSPost2010Prop40
 90
        0
102
RTVSPost2010PropOp40
 70
     1
102
RTVSPost2010Prop41ColorIndex
 90
       18
102
RTVSPost2010Prop41ColorRGB
 90
        0
102
RTVSPost2010PropOp41
 70
     1
102
RTVSPost2010Prop42
 90
       50
102
RTVSPost2010PropOp42
 70
     1
102
RTVSPost2010Prop43
 90
        3
102
RTVSPost2010PropOp43
 70
     1
102
RTVSPost2010Prop44ColorIndex
 90
        5
102
RTVSPost2010Prop44ColorRGB
 90
      255
102
RTVSPost2010PropOp44
 70
     1
102
RTVSPost2010Prop45
280
     0
102
RTVSPost2010PropOp45
 70
     1
102
RTVSPost2010Prop46
 90
       50
102
RTVSPost2010PropOp46
 70
     1
102
RTVSPost2010Prop47
 90
       50
102
RTVSPost2010PropOp47
 70
     1
102
RTVSPost2010Prop48
 90
       50
102
RTVSPost2010PropOp48
 70
     1
102
RTVSPost2010Prop49
280
     0
102
RTVSPost2010PropOp49
 70
     1
102
RTVSPost2010Prop50
 90
       50
102
RTVSPost2010PropOp50
 70
     1
102
RTVSPost2010Prop51ColorIndex
 90
      256
102
RTVSPost2010Prop51ColorRGB
 90
-16777216
102
RTVSPost2010PropOp51
 70
     0
102
RTVSPost2010Prop52
140
1.0
102
RTVSPost2010PropOp52
 70
     0
102
RTVSPost2010Prop53
 90
        2
102
RTVSPost2010PropOp53
 70
     1
102
RTVSPost2010Prop54
  1
strokes_ogs.tif
102
RTVSPost2010PropOp54
 70
     1
102
RTVSPost2010Prop55
280
     0
102
RTVSPost2010PropOp55
 70
     1
102
RTVSPost2010Prop56
140
1.0
102
RTVSPost2010PropOp56
 70
     1
102
RTVSPost2010Prop57
140
1.0
102
RTVSPost2010PropOp57
 70
     1
102
RTVSPropertyOp0
 70
     1
102
RTVSPropertyOp1
 70
     1
102
RTVSPropertyOp2
 70
     1
102
RTVSPropertyOp3
 70
     1
102
RTVSPropertyOp4
 70
     1
102
RTVSPropertyOp5
 70
     1
102
RTVSPropertyOp6
 70
     1
102
RTVSPropertyOp7
 70
     1
102
RTVSPropertyOp8
 70
     1
102
RTVSPropertyOp9
 70
     1
102
RTVSPropertyOp10
 70
     1
102
RTVSPropertyOp11
 70
     1
102
RTVSPropertyOp12
 70
     1
102
RTVSPropertyOp13
 70
     1
102
RTVSPropertyOp14
 70
     1
102
RTVSPropertyOp15
 70
     1
102
RTVSPropertyOp16
 70
     1
102
RTVSPropertyOp17
 70
     1
102
RTVSPropertyOp18
 70
     1
102
RTVSPropertyOp19
 70
     1
102
RTVSPropertyOp20
 70
     1
102
RTVSPropertyOp21
 70
     1
102
RTVSPropertyOp22
 70
     1
102
RTVSPropertyOp23
 70
     1
102
RTVSPropertyOp24
 70
     1
102
RTVSPropertyOp25
 70
     1
102
RTVSPropertyOp26
 70
     1
102
RTVSPropertyOp27
 70
     1
102
RTVSPropertyOp28
 70
     1
102
RTVSPropertyOp29
 70
     1
102
RTVSPropertyOp30
 70
     1
102
RTVSPropertyOp31
 70
     1
102
RTVSPropertyOp32
 70
     1
102
RTVSPropertyOp33
 70
     1
102
RTVSPropertyOp34
 70
     1
102
RTVSPropertyOp35
 70
     1
102
RTVSPropertyOp36
 70
     1
102
RTVSPropertyOp37
 70
     1
102
RTVSPropertyOp38
 70
     1
102
RTVSPropertyOp39
 70
     1
102
RTVSPropertyOp40
 70
     1
102
RTVSPropertyOp41
 70
     1
102
RTVSPropertyOp42
 70
     1
102
RTVSPropertyOp43
 70
     1
102
RTVSPropertyOp44
 70
     1
102
RTVSPropertyOp45
 70
     1
102
RTVSPropertyOp46
 70
     1
102
RTVSPropertyOp47
 70
     1
102
RTVSPropertyOp48
 70
     1
102
RTVSPropertyOp49
 70
     1
102
RTVSPropertyOp50
 70
     1
102
RTVSPropertyOp51
 70
     0
102
RTVSPropertyOp52
 70
     0
102
RTVSPropertyOp53
 70
     1
102
RTVSPropertyOp54
 70
     1
102
RTVSPropertyOp55
 70
     1
102
RTVSPropertyOp56
 70
     1
102
RTVSPropertyOp57
 70
     1
102
RTVSPropertyOp58
 70
     1
102
RTVSPropertyOp59
 70
     1
102
RTVSPropertyOp60
 70
     1
102
RTVSPropertyOp61
 70
     1
102
RTVSPropertyOp62
 70
     1
  0
XRECORD
  5
D95
102
{ACAD_REACTORS
330
D94
102
}
330
D94
100
AcDbXrecord
280
     1
102
RTVSPost2010Prop28
280
     0
102
RTVSPost2010PropOp28
 70
     1
102
RTVSPost2010Prop29
280
     1
102
RTVSPost2010PropOp29
 70
     1
102
RTVSPost2010Prop30
280
     1
102
RTVSPost2010PropOp30
 70
     1
102
RTVSPost2010Prop31
280
     0
102
RTVSPost2010PropOp31
 70
     1
102
RTVSPost2010Prop32
280
     0
102
RTVSPost2010PropOp32
 70
     1
102
RTVSPost2010Prop33
280
     0
102
RTVSPost2010PropOp33
 70
     1
102
RTVSPost2010Prop34
280
     0
102
RTVSPost2010PropOp34
 70
     1
102
RTVSPost2010Prop35
280
     0
102
RTVSPost2010PropOp35
 70
     1
102
RTVSPost2010Prop36
280
     0
102
RTVSPost2010PropOp36
 70
     1
102
RTVSPost2010Prop37
 90
       50
102
RTVSPost2010PropOp37
 70
     1
102
RTVSPost2010Prop38
140
0.0
102
RTVSPost2010PropOp38
 70
     1
102
RTVSPost2010Prop39
140
1.0
102
RTVSPost2010PropOp39
 70
     1
102
RTVSPost2010Prop40
 90
        0
102
RTVSPost2010PropOp40
 70
     1
102
RTVSPost2010Prop41ColorIndex
 90
       18
102
RTVSPost2010Prop41ColorRGB
 90
        0
102
RTVSPost2010PropOp41
 70
     1
102
RTVSPost2010Prop42
 90
       50
102
RTVSPost2010PropOp42
 70
     1
102
RTVSPost2010Prop43
 90
        3
102
RTVSPost2010PropOp43
 70
     1
102
RTVSPost2010Prop44ColorIndex
 90
        5
102
RTVSPost2010Prop44ColorRGB
 90
      255
102
RTVSPost2010PropOp44
 70
     1
102
RTVSPost2010Prop45
280
     0
102
RTVSPost2010PropOp45
 70
     1
102
RTVSPost2010Prop46
 90
       50
102
RTVSPost2010PropOp46
 70
     1
102
RTVSPost2010Prop47
 90
       50
102
RTVSPost2010PropOp47
 70
     1
102
RTVSPost2010Prop48
 90
       50
102
RTVSPost2010PropOp48
 70
     1
102
RTVSPost2010Prop49
280
     0
102
RTVSPost2010PropOp49
 70
     1
102
RTVSPost2010Prop50
 90
       50
102
RTVSPost2010PropOp50
 70
     1
102
RTVSPost2010Prop51ColorIndex
 90
      256
102
RTVSPost2010Prop51ColorRGB
 90
-16777216
102
RTVSPost2010PropOp51
 70
     0
102
RTVSPost2010Prop52
140
1.0
102
RTVSPost2010PropOp52
 70
     0
102
RTVSPost2010Prop53
 90
        2
102
RTVSPost2010PropOp53
 70
     1
102
RTVSPost2010Prop54
  1
strokes_ogs.tif
102
RTVSPost2010PropOp54
 70
     1
102
RTVSPost2010Prop55
280
     0
102
RTVSPost2010PropOp55
 70
     1
102
RTVSPost2010Prop56
140
1.0
102
RTVSPost2010PropOp56
 70
     1
102
RTVSPost2010Prop57
140
1.0
102
RTVSPost2010PropOp57
 70
     1
102
RTVSPropertyOp0
 70
     1
102
RTVSPropertyOp1
 70
     1
102
RTVSPropertyOp2
 70
     1
102
RTVSPropertyOp3
 70
     1
102
RTVSPropertyOp4
 70
     1
102
RTVSPropertyOp5
 70
     1
102
RTVSPropertyOp6
 70
     1
102
RTVSPropertyOp7
 70
     1
102
RTVSPropertyOp8
 70
     1
102
RTVSPropertyOp9
 70
     1
102
RTVSPropertyOp10
 70
     1
102
RTVSPropertyOp11
 70
     1
102
RTVSPropertyOp12
 70
     1
102
RTVSPropertyOp13
 70
     1
102
RTVSPropertyOp14
 70
     1
102
RTVSPropertyOp15
 70
     1
102
RTVSPropertyOp16
 70
     1
102
RTVSPropertyOp17
 70
     1
102
RTVSPropertyOp18
 70
     1
102
RTVSPropertyOp19
 70
     1
102
RTVSPropertyOp20
 70
     1
102
RTVSPropertyOp21
 70
     1
102
RTVSPropertyOp22
 70
     1
102
RTVSPropertyOp23
 70
     1
102
RTVSPropertyOp24
 70
     1
102
RTVSPropertyOp25
 70
     1
102
RTVSPropertyOp26
 70
     1
102
RTVSPropertyOp27
 70
     1
102
RTVSPropertyOp28
 70
     1
102
RTVSPropertyOp29
 70
     1
102
RTVSPropertyOp30
 70
     1
102
RTVSPropertyOp31
 70
     1
102
RTVSPropertyOp32
 70
     1
102
RTVSPropertyOp33
 70
     1
102
RTVSPropertyOp34
 70
     1
102
RTVSPropertyOp35
 70
     1
102
RTVSPropertyOp36
 70
     1
102
RTVSPropertyOp37
 70
     1
102
RTVSPropertyOp38
 70
     1
102
RTVSPropertyOp39
 70
     1
102
RTVSPropertyOp40
 70
     1
102
RTVSPropertyOp41
 70
     1
102
RTVSPropertyOp42
 70
     1
102
RTVSPropertyOp43
 70
     1
102
RTVSPropertyOp44
 70
     1
102
RTVSPropertyOp45
 70
     1
102
RTVSPropertyOp46
 70
     1
102
RTVSPropertyOp47
 70
     1
102
RTVSPropertyOp48
 70
     1
102
RTVSPropertyOp49
 70
     1
102
RTVSPropertyOp50
 70
     1
102
RTVSPropertyOp51
 70
     0
102
RTVSPropertyOp52
 70
     0
102
RTVSPropertyOp53
 70
     1
102
RTVSPropertyOp54
 70
     1
102
RTVSPropertyOp55
 70
     1
102
RTVSPropertyOp56
 70
     1
102
RTVSPropertyOp57
 70
     1
102
RTVSPropertyOp58
 70
     1
102
RTVSPropertyOp59
 70
     1
102
RTVSPropertyOp60
 70
     1
102
RTVSPropertyOp61
 70
     1
102
RTVSPropertyOp62
 70
     1
  0
XRECORD
  5
D99
102
{ACAD_REACTORS
330
D98
102
}
330
D98
100
AcDbXrecord
280
     1
102
RTVSPost2010Prop28
280
     0
102
RTVSPost2010PropOp28
 70
     1
102
RTVSPost2010Prop29
280
     1
102
RTVSPost2010PropOp29
 70
     1
102
RTVSPost2010Prop30
280
     1
102
RTVSPost2010PropOp30
 70
     1
102
RTVSPost2010Prop31
280
     0
102
RTVSPost2010PropOp31
 70
     1
102
RTVSPost2010Prop32
280
     0
102
RTVSPost2010PropOp32
 70
     1
102
RTVSPost2010Prop33
280
     0
102
RTVSPost2010PropOp33
 70
     1
102
RTVSPost2010Prop34
280
     0
102
RTVSPost2010PropOp34
 70
     1
102
RTVSPost2010Prop35
280
     0
102
RTVSPost2010PropOp35
 70
     1
102
RTVSPost2010Prop36
280
     0
102
RTVSPost2010PropOp36
 70
     1
102
RTVSPost2010Prop37
 90
       50
102
RTVSPost2010PropOp37
 70
     1
102
RTVSPost2010Prop38
140
0.0
102
RTVSPost2010PropOp38
 70
     1
102
RTVSPost2010Prop39
140
1.0
102
RTVSPost2010PropOp39
 70
     1
102
RTVSPost2010Prop40
 90
        0
102
RTVSPost2010PropOp40
 70
     1
102
RTVSPost2010Prop41ColorIndex
 90
       18
102
RTVSPost2010Prop41ColorRGB
 90
        0
102
RTVSPost2010PropOp41
 70
     1
102
RTVSPost2010Prop42
 90
       50
102
RTVSPost2010PropOp42
 70
     1
102
RTVSPost2010Prop43
 90
        3
102
RTVSPost2010PropOp43
 70
     1
102
RTVSPost2010Prop44ColorIndex
 90
        5
102
RTVSPost2010Prop44ColorRGB
 90
      255
102
RTVSPost2010PropOp44
 70
     1
102
RTVSPost2010Prop45
280
     0
102
RTVSPost2010PropOp45
 70
     1
102
RTVSPost2010Prop46
 90
       50
102
RTVSPost2010PropOp46
 70
     1
102
RTVSPost2010Prop47
 90
       50
102
RTVSPost2010PropOp47
 70
     1
102
RTVSPost2010Prop48
 90
       50
102
RTVSPost2010PropOp48
 70
     1
102
RTVSPost2010Prop49
280
     0
102
RTVSPost2010PropOp49
 70
     1
102
RTVSPost2010Prop50
 90
       50
102
RTVSPost2010PropOp50
 70
     1
102
RTVSPost2010Prop51ColorIndex
 90
      256
102
RTVSPost2010Prop51ColorRGB
 90
-16777216
102
RTVSPost2010PropOp51
 70
     0
102
RTVSPost2010Prop52
140
1.0
102
RTVSPost2010PropOp52
 70
     0
102
RTVSPost2010Prop53
 90
        2
102
RTVSPost2010PropOp53
 70
     1
102
RTVSPost2010Prop54
  1
strokes_ogs.tif
102
RTVSPost2010PropOp54
 70
     1
102
RTVSPost2010Prop55
280
     0
102
RTVSPost2010PropOp55
 70
     1
102
RTVSPost2010Prop56
140
1.0
102
RTVSPost2010PropOp56
 70
     1
102
RTVSPost2010Prop57
140
1.0
102
RTVSPost2010PropOp57
 70
     1
102
RTVSPropertyOp0
 70
     1
102
RTVSPropertyOp1
 70
     1
102
RTVSPropertyOp2
 70
     1
102
RTVSPropertyOp3
 70
     1
102
RTVSPropertyOp4
 70
     1
102
RTVSPropertyOp5
 70
     1
102
RTVSPropertyOp6
 70
     1
102
RTVSPropertyOp7
 70
     1
102
RTVSPropertyOp8
 70
     1
102
RTVSPropertyOp9
 70
     1
102
RTVSPropertyOp10
 70
     1
102
RTVSPropertyOp11
 70
     1
102
RTVSPropertyOp12
 70
     1
102
RTVSPropertyOp13
 70
     1
102
RTVSPropertyOp14
 70
     1
102
RTVSPropertyOp15
 70
     1
102
RTVSPropertyOp16
 70
     1
102
RTVSPropertyOp17
 70
     1
102
RTVSPropertyOp18
 70
     1
102
RTVSPropertyOp19
 70
     1
102
RTVSPropertyOp20
 70
     1
102
RTVSPropertyOp21
 70
     1
102
RTVSPropertyOp22
 70
     1
102
RTVSPropertyOp23
 70
     1
102
RTVSPropertyOp24
 70
     1
102
RTVSPropertyOp25
 70
     1
102
RTVSPropertyOp26
 70
     1
102
RTVSPropertyOp27
 70
     1
102
RTVSPropertyOp28
 70
     1
102
RTVSPropertyOp29
 70
     1
102
RTVSPropertyOp30
 70
     1
102
RTVSPropertyOp31
 70
     1
102
RTVSPropertyOp32
 70
     1
102
RTVSPropertyOp33
 70
     1
102
RTVSPropertyOp34
 70
     1
102
RTVSPropertyOp35
 70
     1
102
RTVSPropertyOp36
 70
     1
102
RTVSPropertyOp37
 70
     1
102
RTVSPropertyOp38
 70
     1
102
RTVSPropertyOp39
 70
     1
102
RTVSPropertyOp40
 70
     1
102
RTVSPropertyOp41
 70
     1
102
RTVSPropertyOp42
 70
     1
102
RTVSPropertyOp43
 70
     1
102
RTVSPropertyOp44
 70
     1
102
RTVSPropertyOp45
 70
     1
102
RTVSPropertyOp46
 70
     1
102
RTVSPropertyOp47
 70
     1
102
RTVSPropertyOp48
 70
     1
102
RTVSPropertyOp49
 70
     1
102
RTVSPropertyOp50
 70
     1
102
RTVSPropertyOp51
 70
     0
102
RTVSPropertyOp52
 70
     0
102
RTVSPropertyOp53
 70
     1
102
RTVSPropertyOp54
 70
     1
102
RTVSPropertyOp55
 70
     1
102
RTVSPropertyOp56
 70
     1
102
RTVSPropertyOp57
 70
     1
102
RTVSPropertyOp58
 70
     1
102
RTVSPropertyOp59
 70
     1
102
RTVSPropertyOp60
 70
     1
102
RTVSPropertyOp61
 70
     1
102
RTVSPropertyOp62
 70
     1
  0
XRECORD
  5
DB3
102
{ACAD_REACTORS
330
DB2
102
}
330
DB2
100
AcDbXrecord
280
     1
102
RTVSPost2010Prop28
280
     0
102
RTVSPost2010PropOp28
 70
     1
102
RTVSPost2010Prop29
280
     1
102
RTVSPost2010PropOp29
 70
     1
102
RTVSPost2010Prop30
280
     1
102
RTVSPost2010PropOp30
 70
     1
102
RTVSPost2010Prop31
280
     0
102
RTVSPost2010PropOp31
 70
     1
102
RTVSPost2010Prop32
280
     0
102
RTVSPost2010PropOp32
 70
     1
102
RTVSPost2010Prop33
280
     0
102
RTVSPost2010PropOp33
 70
     1
102
RTVSPost2010Prop34
280
     0
102
RTVSPost2010PropOp34
 70
     1
102
RTVSPost2010Prop35
280
     0
102
RTVSPost2010PropOp35
 70
     1
102
RTVSPost2010Prop36
280
     0
102
RTVSPost2010PropOp36
 70
     1
102
RTVSPost2010Prop37
 90
       50
102
RTVSPost2010PropOp37
 70
     0
102
RTVSPost2010Prop38
140
0.0
102
RTVSPost2010PropOp38
 70
     0
102
RTVSPost2010Prop39
140
1.0
102
RTVSPost2010PropOp39
 70
     0
102
RTVSPost2010Prop40
 90
        0
102
RTVSPost2010PropOp40
 70
     0
102
RTVSPost2010Prop41ColorIndex
 90
       18
102
RTVSPost2010Prop41ColorRGB
 90
        0
102
RTVSPost2010PropOp41
 70
     0
102
RTVSPost2010Prop42
 90
       50
102
RTVSPost2010PropOp42
 70
     0
102
RTVSPost2010Prop43
 90
        3
102
RTVSPost2010PropOp43
 70
     0
102
RTVSPost2010Prop44ColorIndex
 90
        5
102
RTVSPost2010Prop44ColorRGB
 90
      255
102
RTVSPost2010PropOp44
 70
     0
102
RTVSPost2010Prop45
280
     0
102
RTVSPost2010PropOp45
 70
     1
102
RTVSPost2010Prop46
 90
       50
102
RTVSPost2010PropOp46
 70
     0
102
RTVSPost2010Prop47
 90
       50
102
RTVSPost2010PropOp47
 70
     0
102
RTVSPost2010Prop48
 90
       50
102
RTVSPost2010PropOp48
 70
     0
102
RTVSPost2010Prop49
280
     0
102
RTVSPost2010PropOp49
 70
     1
102
RTVSPost2010Prop50
 90
       50
102
RTVSPost2010PropOp50
 70
     0
102
RTVSPost2010Prop51ColorIndex
 90
      256
102
RTVSPost2010Prop51ColorRGB
 90
-16777216
102
RTVSPost2010PropOp51
 70
     0
102
RTVSPost2010Prop52
140
1.0
102
RTVSPost2010PropOp52
 70
     0
102
RTVSPost2010Prop53
 90
        2
102
RTVSPost2010PropOp53
 70
     0
102
RTVSPost2010Prop54
  1
strokes_ogs.tif
102
RTVSPost2010PropOp54
 70
     0
102
RTVSPost2010Prop55
280
     0
102
RTVSPost2010PropOp55
 70
     1
102
RTVSPost2010Prop56
140
1.0
102
RTVSPost2010PropOp56
 70
     0
102
RTVSPost2010Prop57
140
1.0
102
RTVSPost2010PropOp57
 70
     0
102
RTVSPropertyOp0
 70
     0
102
RTVSPropertyOp1
 70
     0
102
RTVSPropertyOp2
 70
     0
102
RTVSPropertyOp3
 70
     0
102
RTVSPropertyOp4
 70
     0
102
RTVSPropertyOp5
 70
     0
102
RTVSPropertyOp6
 70
     0
102
RTVSPropertyOp7
 70
     0
102
RTVSPropertyOp8
 70
     0
102
RTVSPropertyOp9
 70
     0
102
RTVSPropertyOp10
 70
     0
102
RTVSPropertyOp11
 70
     0
102
RTVSPropertyOp12
 70
     0
102
RTVSPropertyOp13
 70
     0
102
RTVSPropertyOp14
 70
     2
102
RTVSPropertyOp15
 70
     0
102
RTVSPropertyOp16
 70
     0
102
RTVSPropertyOp17
 70
     0
102
RTVSPropertyOp18
 70
     0
102
RTVSPropertyOp19
 70
     0
102
RTVSPropertyOp20
 70
     0
102
RTVSPropertyOp21
 70
     0
102
RTVSPropertyOp22
 70
     0
102
RTVSPropertyOp23
 70
     0
102
RTVSPropertyOp24
 70
     0
102
RTVSPropertyOp25
 70
     0
102
RTVSPropertyOp26
 70
     0
102
RTVSPropertyOp27
 70
     0
102
RTVSPropertyOp28
 70
     1
102
RTVSPropertyOp29
 70
     1
102
RTVSPropertyOp30
 70
     1
102
RTVSPropertyOp31
 70
     1
102
RTVSPropertyOp32
 70
     1
102
RTVSPropertyOp33
 70
     1
102
RTVSPropertyOp34
 70
     1
102
RTVSPropertyOp35
 70
     1
102
RTVSPropertyOp36
 70
     1
102
RTVSPropertyOp37
 70
     0
102
RTVSPropertyOp38
 70
     0
102
RTVSPropertyOp39
 70
     0
102
RTVSPropertyOp40
 70
     0
102
RTVSPropertyOp41
 70
     0
102
RTVSPropertyOp42
 70
     0
102
RTVSPropertyOp43
 70
     0
102
RTVSPropertyOp44
 70
     0
102
RTVSPropertyOp45
 70
     1
102
RTVSPropertyOp46
 70
     0
102
RTVSPropertyOp47
 70
     0
102
RTVSPropertyOp48
 70
     0
102
RTVSPropertyOp49
 70
     1
102
RTVSPropertyOp50
 70
     0
102
RTVSPropertyOp51
 70
     0
102
RTVSPropertyOp52
 70
     0
102
RTVSPropertyOp53
 70
     0
102
RTVSPropertyOp54
 70
     0
102
RTVSPropertyOp55
 70
     1
102
RTVSPropertyOp56
 70
     0
102
RTVSPropertyOp57
 70
     0
102
RTVSPropertyOp58
 70
     0
102
RTVSPropertyOp59
 70
     0
102
RTVSPropertyOp60
 70
     0
102
RTVSPropertyOp61
 70
     0
102
RTVSPropertyOp62
 70
     0
  0
XRECORD
  5
DA1
102
{ACAD_REACTORS
330
DA0
102
}
330
DA0
100
AcDbXrecord
280
     1
102
RTVSPost2010Prop28
280
     0
102
RTVSPost2010PropOp28
 70
     1
102
RTVSPost2010Prop29
280
     1
102
RTVSPost2010PropOp29
 70
     1
102
RTVSPost2010Prop30
280
     1
102
RTVSPost2010PropOp30
 70
     1
102
RTVSPost2010Prop31
280
     0
102
RTVSPost2010PropOp31
 70
     1
102
RTVSPost2010Prop32
280
     0
102
RTVSPost2010PropOp32
 70
     1
102
RTVSPost2010Prop33
280
     0
102
RTVSPost2010PropOp33
 70
     1
102
RTVSPost2010Prop34
280
     0
102
RTVSPost2010PropOp34
 70
     1
102
RTVSPost2010Prop35
280
     0
102
RTVSPost2010PropOp35
 70
     1
102
RTVSPost2010Prop36
280
     0
102
RTVSPost2010PropOp36
 70
     1
102
RTVSPost2010Prop37
 90
       50
102
RTVSPost2010PropOp37
 70
     1
102
RTVSPost2010Prop38
140
0.0
102
RTVSPost2010PropOp38
 70
     1
102
RTVSPost2010Prop39
140
1.0
102
RTVSPost2010PropOp39
 70
     1
102
RTVSPost2010Prop40
 90
        0
102
RTVSPost2010PropOp40
 70
     1
102
RTVSPost2010Prop41ColorIndex
 90
       18
102
RTVSPost2010Prop41ColorRGB
 90
        0
102
RTVSPost2010PropOp41
 70
     1
102
RTVSPost2010Prop42
 90
       50
102
RTVSPost2010PropOp42
 70
     1
102
RTVSPost2010Prop43
 90
        3
102
RTVSPost2010PropOp43
 70
     1
102
RTVSPost2010Prop44ColorIndex
 90
        5
102
RTVSPost2010Prop44ColorRGB
 90
      255
102
RTVSPost2010PropOp44
 70
     1
102
RTVSPost2010Prop45
280
     0
102
RTVSPost2010PropOp45
 70
     1
102
RTVSPost2010Prop46
 90
       50
102
RTVSPost2010PropOp46
 70
     1
102
RTVSPost2010Prop47
 90
       50
102
RTVSPost2010PropOp47
 70
     1
102
RTVSPost2010Prop48
 90
       50
102
RTVSPost2010PropOp48
 70
     1
102
RTVSPost2010Prop49
280
     0
102
RTVSPost2010PropOp49
 70
     1
102
RTVSPost2010Prop50
 90
       50
102
RTVSPost2010PropOp50
 70
     1
102
RTVSPost2010Prop51ColorIndex
 90
      256
102
RTVSPost2010Prop51ColorRGB
 90
-16777216
102
RTVSPost2010PropOp51
 70
     0
102
RTVSPost2010Prop52
140
1.0
102
RTVSPost2010PropOp52
 70
     0
102
RTVSPost2010Prop53
 90
        2
102
RTVSPost2010PropOp53
 70
     1
102
RTVSPost2010Prop54
  1
strokes_ogs.tif
102
RTVSPost2010PropOp54
 70
     1
102
RTVSPost2010Prop55
280
     0
102
RTVSPost2010PropOp55
 70
     1
102
RTVSPost2010Prop56
140
1.0
102
RTVSPost2010PropOp56
 70
     1
102
RTVSPost2010Prop57
140
1.0
102
RTVSPost2010PropOp57
 70
     1
102
RTVSPropertyOp0
 70
     1
102
RTVSPropertyOp1
 70
     1
102
RTVSPropertyOp2
 70
     1
102
RTVSPropertyOp3
 70
     1
102
RTVSPropertyOp4
 70
     1
102
RTVSPropertyOp5
 70
     1
102
RTVSPropertyOp6
 70
     1
102
RTVSPropertyOp7
 70
     1
102
RTVSPropertyOp8
 70
     1
102
RTVSPropertyOp9
 70
     1
102
RTVSPropertyOp10
 70
     1
102
RTVSPropertyOp11
 70
     1
102
RTVSPropertyOp12
 70
     1
102
RTVSPropertyOp13
 70
     1
102
RTVSPropertyOp14
 70
     1
102
RTVSPropertyOp15
 70
     1
102
RTVSPropertyOp16
 70
     1
102
RTVSPropertyOp17
 70
     1
102
RTVSPropertyOp18
 70
     1
102
RTVSPropertyOp19
 70
     1
102
RTVSPropertyOp20
 70
     1
102
RTVSPropertyOp21
 70
     1
102
RTVSPropertyOp22
 70
     1
102
RTVSPropertyOp23
 70
     1
102
RTVSPropertyOp24
 70
     1
102
RTVSPropertyOp25
 70
     1
102
RTVSPropertyOp26
 70
     1
102
RTVSPropertyOp27
 70
     1
102
RTVSPropertyOp28
 70
     1
102
RTVSPropertyOp29
 70
     1
102
RTVSPropertyOp30
 70
     1
102
RTVSPropertyOp31
 70
     1
102
RTVSPropertyOp32
 70
     1
102
RTVSPropertyOp33
 70
     1
102
RTVSPropertyOp34
 70
     1
102
RTVSPropertyOp35
 70
     1
102
RTVSPropertyOp36
 70
     1
102
RTVSPropertyOp37
 70
     1
102
RTVSPropertyOp38
 70
     1
102
RTVSPropertyOp39
 70
     1
102
RTVSPropertyOp40
 70
     1
102
RTVSPropertyOp41
 70
     1
102
RTVSPropertyOp42
 70
     1
102
RTVSPropertyOp43
 70
     1
102
RTVSPropertyOp44
 70
     1
102
RTVSPropertyOp45
 70
     1
102
RTVSPropertyOp46
 70
     1
102
RTVSPropertyOp47
 70
     1
102
RTVSPropertyOp48
 70
     1
102
RTVSPropertyOp49
 70
     1
102
RTVSPropertyOp50
 70
     1
102
RTVSPropertyOp51
 70
     0
102
RTVSPropertyOp52
 70
     0
102
RTVSPropertyOp53
 70
     1
102
RTVSPropertyOp54
 70
     1
102
RTVSPropertyOp55
 70
     1
102
RTVSPropertyOp56
 70
     1
102
RTVSPropertyOp57
 70
     1
102
RTVSPropertyOp58
 70
     1
102
RTVSPropertyOp59
 70
     1
102
RTVSPropertyOp60
 70
     1
102
RTVSPropertyOp61
 70
     1
102
RTVSPropertyOp62
 70
     1
  0
XRECORD
  5
D85
102
{ACAD_REACTORS
330
D84
102
}
330
D84
100
AcDbXrecord
280
     1
102
RTVSPost2010Prop28
280
     0
102
RTVSPost2010PropOp28
 70
     1
102
RTVSPost2010Prop29
280
     1
102
RTVSPost2010PropOp29
 70
     1
102
RTVSPost2010Prop30
280
     1
102
RTVSPost2010PropOp30
 70
     1
102
RTVSPost2010Prop31
280
     0
102
RTVSPost2010PropOp31
 70
     1
102
RTVSPost2010Prop32
280
     0
102
RTVSPost2010PropOp32
 70
     1
102
RTVSPost2010Prop33
280
     0
102
RTVSPost2010PropOp33
 70
     1
102
RTVSPost2010Prop34
280
     0
102
RTVSPost2010PropOp34
 70
     1
102
RTVSPost2010Prop35
280
     0
102
RTVSPost2010PropOp35
 70
     1
102
RTVSPost2010Prop36
280
     0
102
RTVSPost2010PropOp36
 70
     1
102
RTVSPost2010Prop37
 90
       50
102
RTVSPost2010PropOp37
 70
     1
102
RTVSPost2010Prop38
140
0.0
102
RTVSPost2010PropOp38
 70
     1
102
RTVSPost2010Prop39
140
1.0
102
RTVSPost2010PropOp39
 70
     1
102
RTVSPost2010Prop40
 90
        0
102
RTVSPost2010PropOp40
 70
     1
102
RTVSPost2010Prop41ColorIndex
 90
       18
102
RTVSPost2010Prop41ColorRGB
 90
        0
102
RTVSPost2010PropOp41
 70
     1
102
RTVSPost2010Prop42
 90
       50
102
RTVSPost2010PropOp42
 70
     1
102
RTVSPost2010Prop43
 90
        3
102
RTVSPost2010PropOp43
 70
     1
102
RTVSPost2010Prop44ColorIndex
 90
        5
102
RTVSPost2010Prop44ColorRGB
 90
      255
102
RTVSPost2010PropOp44
 70
     1
102
RTVSPost2010Prop45
280
     0
102
RTVSPost2010PropOp45
 70
     1
102
RTVSPost2010Prop46
 90
       50
102
RTVSPost2010PropOp46
 70
     1
102
RTVSPost2010Prop47
 90
       50
102
RTVSPost2010PropOp47
 70
     1
102
RTVSPost2010Prop48
 90
       50
102
RTVSPost2010PropOp48
 70
     1
102
RTVSPost2010Prop49
280
     0
102
RTVSPost2010PropOp49
 70
     1
102
RTVSPost2010Prop50
 90
       50
102
RTVSPost2010PropOp50
 70
     1
102
RTVSPost2010Prop51ColorIndex
 90
      256
102
RTVSPost2010Prop51ColorRGB
 90
-16777216
102
RTVSPost2010PropOp51
 70
     0
102
RTVSPost2010Prop52
140
1.0
102
RTVSPost2010PropOp52
 70
     0
102
RTVSPost2010Prop53
 90
        2
102
RTVSPost2010PropOp53
 70
     1
102
RTVSPost2010Prop54
  1
strokes_ogs.tif
102
RTVSPost2010PropOp54
 70
     1
102
RTVSPost2010Prop55
280
     0
102
RTVSPost2010PropOp55
 70
     1
102
RTVSPost2010Prop56
140
1.0
102
RTVSPost2010PropOp56
 70
     1
102
RTVSPost2010Prop57
140
1.0
102
RTVSPost2010PropOp57
 70
     1
102
RTVSPropertyOp0
 70
     1
102
RTVSPropertyOp1
 70
     1
102
RTVSPropertyOp2
 70
     1
102
RTVSPropertyOp3
 70
     1
102
RTVSPropertyOp4
 70
     1
102
RTVSPropertyOp5
 70
     1
102
RTVSPropertyOp6
 70
     1
102
RTVSPropertyOp7
 70
     1
102
RTVSPropertyOp8
 70
     1
102
RTVSPropertyOp9
 70
     1
102
RTVSPropertyOp10
 70
     1
102
RTVSPropertyOp11
 70
     1
102
RTVSPropertyOp12
 70
     1
102
RTVSPropertyOp13
 70
     1
102
RTVSPropertyOp14
 70
     1
102
RTVSPropertyOp15
 70
     1
102
RTVSPropertyOp16
 70
     1
102
RTVSPropertyOp17
 70
     1
102
RTVSPropertyOp18
 70
     1
102
RTVSPropertyOp19
 70
     1
102
RTVSPropertyOp20
 70
     1
102
RTVSPropertyOp21
 70
     1
102
RTVSPropertyOp22
 70
     1
102
RTVSPropertyOp23
 70
     1
102
RTVSPropertyOp24
 70
     1
102
RTVSPropertyOp25
 70
     1
102
RTVSPropertyOp26
 70
     1
102
RTVSPropertyOp27
 70
     1
102
RTVSPropertyOp28
 70
     1
102
RTVSPropertyOp29
 70
     1
102
RTVSPropertyOp30
 70
     1
102
RTVSPropertyOp31
 70
     1
102
RTVSPropertyOp32
 70
     1
102
RTVSPropertyOp33
 70
     1
102
RTVSPropertyOp34
 70
     1
102
RTVSPropertyOp35
 70
     1
102
RTVSPropertyOp36
 70
     1
102
RTVSPropertyOp37
 70
     1
102
RTVSPropertyOp38
 70
     1
102
RTVSPropertyOp39
 70
     1
102
RTVSPropertyOp40
 70
     1
102
RTVSPropertyOp41
 70
     1
102
RTVSPropertyOp42
 70
     1
102
RTVSPropertyOp43
 70
     1
102
RTVSPropertyOp44
 70
     1
102
RTVSPropertyOp45
 70
     1
102
RTVSPropertyOp46
 70
     1
102
RTVSPropertyOp47
 70
     1
102
RTVSPropertyOp48
 70
     1
102
RTVSPropertyOp49
 70
     1
102
RTVSPropertyOp50
 70
     1
102
RTVSPropertyOp51
 70
     0
102
RTVSPropertyOp52
 70
     0
102
RTVSPropertyOp53
 70
     1
102
RTVSPropertyOp54
 70
     1
102
RTVSPropertyOp55
 70
     1
102
RTVSPropertyOp56
 70
     1
102
RTVSPropertyOp57
 70
     1
102
RTVSPropertyOp58
 70
     1
102
RTVSPropertyOp59
 70
     1
102
RTVSPropertyOp60
 70
     1
102
RTVSPropertyOp61
 70
     1
102
RTVSPropertyOp62
 70
     1
  0
XRECORD
  5
D87
102
{ACAD_REACTORS
330
D86
102
}
330
D86
100
AcDbXrecord
280
     1
102
RTVSPost2010Prop28
280
     0
102
RTVSPost2010PropOp28
 70
     1
102
RTVSPost2010Prop29
280
     1
102
RTVSPost2010PropOp29
 70
     1
102
RTVSPost2010Prop30
280
     1
102
RTVSPost2010PropOp30
 70
     1
102
RTVSPost2010Prop31
280
     0
102
RTVSPost2010PropOp31
 70
     1
102
RTVSPost2010Prop32
280
     0
102
RTVSPost2010PropOp32
 70
     1
102
RTVSPost2010Prop33
280
     0
102
RTVSPost2010PropOp33
 70
     1
102
RTVSPost2010Prop34
280
     0
102
RTVSPost2010PropOp34
 70
     1
102
RTVSPost2010Prop35
280
     0
102
RTVSPost2010PropOp35
 70
     1
102
RTVSPost2010Prop36
280
     0
102
RTVSPost2010PropOp36
 70
     1
102
RTVSPost2010Prop37
 90
       50
102
RTVSPost2010PropOp37
 70
     1
102
RTVSPost2010Prop38
140
0.0
102
RTVSPost2010PropOp38
 70
     1
102
RTVSPost2010Prop39
140
1.0
102
RTVSPost2010PropOp39
 70
     1
102
RTVSPost2010Prop40
 90
        0
102
RTVSPost2010PropOp40
 70
     1
102
RTVSPost2010Prop41ColorIndex
 90
       18
102
RTVSPost2010Prop41ColorRGB
 90
        0
102
RTVSPost2010PropOp41
 70
     1
102
RTVSPost2010Prop42
 90
       50
102
RTVSPost2010PropOp42
 70
     1
102
RTVSPost2010Prop43
 90
        3
102
RTVSPost2010PropOp43
 70
     1
102
RTVSPost2010Prop44ColorIndex
 90
        5
102
RTVSPost2010Prop44ColorRGB
 90
      255
102
RTVSPost2010PropOp44
 70
     1
102
RTVSPost2010Prop45
280
     0
102
RTVSPost2010PropOp45
 70
     1
102
RTVSPost2010Prop46
 90
       50
102
RTVSPost2010PropOp46
 70
     1
102
RTVSPost2010Prop47
 90
       50
102
RTVSPost2010PropOp47
 70
     1
102
RTVSPost2010Prop48
 90
       50
102
RTVSPost2010PropOp48
 70
     1
102
RTVSPost2010Prop49
280
     0
102
RTVSPost2010PropOp49
 70
     1
102
RTVSPost2010Prop50
 90
       50
102
RTVSPost2010PropOp50
 70
     1
102
RTVSPost2010Prop51ColorIndex
 90
      256
102
RTVSPost2010Prop51ColorRGB
 90
-16777216
102
RTVSPost2010PropOp51
 70
     0
102
RTVSPost2010Prop52
140
1.0
102
RTVSPost2010PropOp52
 70
     0
102
RTVSPost2010Prop53
 90
        2
102
RTVSPost2010PropOp53
 70
     1
102
RTVSPost2010Prop54
  1
strokes_ogs.tif
102
RTVSPost2010PropOp54
 70
     1
102
RTVSPost2010Prop55
280
     0
102
RTVSPost2010PropOp55
 70
     1
102
RTVSPost2010Prop56
140
1.0
102
RTVSPost2010PropOp56
 70
     1
102
RTVSPost2010Prop57
140
1.0
102
RTVSPost2010PropOp57
 70
     1
102
RTVSPropertyOp0
 70
     1
102
RTVSPropertyOp1
 70
     1
102
RTVSPropertyOp2
 70
     1
102
RTVSPropertyOp3
 70
     1
102
RTVSPropertyOp4
 70
     1
102
RTVSPropertyOp5
 70
     1
102
RTVSPropertyOp6
 70
     1
102
RTVSPropertyOp7
 70
     1
102
RTVSPropertyOp8
 70
     1
102
RTVSPropertyOp9
 70
     1
102
RTVSPropertyOp10
 70
     1
102
RTVSPropertyOp11
 70
     1
102
RTVSPropertyOp12
 70
     1
102
RTVSPropertyOp13
 70
     1
102
RTVSPropertyOp14
 70
     1
102
RTVSPropertyOp15
 70
     1
102
RTVSPropertyOp16
 70
     1
102
RTVSPropertyOp17
 70
     1
102
RTVSPropertyOp18
 70
     1
102
RTVSPropertyOp19
 70
     1
102
RTVSPropertyOp20
 70
     1
102
RTVSPropertyOp21
 70
     1
102
RTVSPropertyOp22
 70
     1
102
RTVSPropertyOp23
 70
     1
102
RTVSPropertyOp24
 70
     1
102
RTVSPropertyOp25
 70
     1
102
RTVSPropertyOp26
 70
     1
102
RTVSPropertyOp27
 70
     1
102
RTVSPropertyOp28
 70
     1
102
RTVSPropertyOp29
 70
     1
102
RTVSPropertyOp30
 70
     1
102
RTVSPropertyOp31
 70
     1
102
RTVSPropertyOp32
 70
     1
102
RTVSPropertyOp33
 70
     1
102
RTVSPropertyOp34
 70
     1
102
RTVSPropertyOp35
 70
     1
102
RTVSPropertyOp36
 70
     1
102
RTVSPropertyOp37
 70
     1
102
RTVSPropertyOp38
 70
     1
102
RTVSPropertyOp39
 70
     1
102
RTVSPropertyOp40
 70
     1
102
RTVSPropertyOp41
 70
     1
102
RTVSPropertyOp42
 70
     1
102
RTVSPropertyOp43
 70
     1
102
RTVSPropertyOp44
 70
     1
102
RTVSPropertyOp45
 70
     1
102
RTVSPropertyOp46
 70
     1
102
RTVSPropertyOp47
 70
     1
102
RTVSPropertyOp48
 70
     1
102
RTVSPropertyOp49
 70
     1
102
RTVSPropertyOp50
 70
     1
102
RTVSPropertyOp51
 70
     0
102
RTVSPropertyOp52
 70
     0
102
RTVSPropertyOp53
 70
     1
102
RTVSPropertyOp54
 70
     1
102
RTVSPropertyOp55
 70
     1
102
RTVSPropertyOp56
 70
     1
102
RTVSPropertyOp57
 70
     1
102
RTVSPropertyOp58
 70
     1
102
RTVSPropertyOp59
 70
     1
102
RTVSPropertyOp60
 70
     1
102
RTVSPropertyOp61
 70
     1
102
RTVSPropertyOp62
 70
     1
  0
XRECORD
  5
D89
102
{ACAD_REACTORS
330
D88
102
}
330
D88
100
AcDbXrecord
280
     1
102
RTVSPost2010Prop28
280
     0
102
RTVSPost2010PropOp28
 70
     1
102
RTVSPost2010Prop29
280
     1
102
RTVSPost2010PropOp29
 70
     1
102
RTVSPost2010Prop30
280
     1
102
RTVSPost2010PropOp30
 70
     1
102
RTVSPost2010Prop31
280
     0
102
RTVSPost2010PropOp31
 70
     1
102
RTVSPost2010Prop32
280
     0
102
RTVSPost2010PropOp32
 70
     1
102
RTVSPost2010Prop33
280
     0
102
RTVSPost2010PropOp33
 70
     1
102
RTVSPost2010Prop34
280
     0
102
RTVSPost2010PropOp34
 70
     1
102
RTVSPost2010Prop35
280
     0
102
RTVSPost2010PropOp35
 70
     1
102
RTVSPost2010Prop36
280
     0
102
RTVSPost2010PropOp36
 70
     1
102
RTVSPost2010Prop37
 90
       50
102
RTVSPost2010PropOp37
 70
     1
102
RTVSPost2010Prop38
140
0.0
102
RTVSPost2010PropOp38
 70
     1
102
RTVSPost2010Prop39
140
1.0
102
RTVSPost2010PropOp39
 70
     1
102
RTVSPost2010Prop40
 90
        0
102
RTVSPost2010PropOp40
 70
     1
102
RTVSPost2010Prop41ColorIndex
 90
       18
102
RTVSPost2010Prop41ColorRGB
 90
        0
102
RTVSPost2010PropOp41
 70
     1
102
RTVSPost2010Prop42
 90
       50
102
RTVSPost2010PropOp42
 70
     1
102
RTVSPost2010Prop43
 90
        3
102
RTVSPost2010PropOp43
 70
     1
102
RTVSPost2010Prop44ColorIndex
 90
        5
102
RTVSPost2010Prop44ColorRGB
 90
      255
102
RTVSPost2010PropOp44
 70
     1
102
RTVSPost2010Prop45
280
     0
102
RTVSPost2010PropOp45
 70
     1
102
RTVSPost2010Prop46
 90
       50
102
RTVSPost2010PropOp46
 70
     1
102
RTVSPost2010Prop47
 90
       50
102
RTVSPost2010PropOp47
 70
     1
102
RTVSPost2010Prop48
 90
       50
102
RTVSPost2010PropOp48
 70
     1
102
RTVSPost2010Prop49
280
     0
102
RTVSPost2010PropOp49
 70
     1
102
RTVSPost2010Prop50
 90
       50
102
RTVSPost2010PropOp50
 70
     1
102
RTVSPost2010Prop51ColorIndex
 90
      256
102
RTVSPost2010Prop51ColorRGB
 90
-16777216
102
RTVSPost2010PropOp51
 70
     0
102
RTVSPost2010Prop52
140
1.0
102
RTVSPost2010PropOp52
 70
     0
102
RTVSPost2010Prop53
 90
        2
102
RTVSPost2010PropOp53
 70
     1
102
RTVSPost2010Prop54
  1
strokes_ogs.tif
102
RTVSPost2010PropOp54
 70
     1
102
RTVSPost2010Prop55
280
     0
102
RTVSPost2010PropOp55
 70
     1
102
RTVSPost2010Prop56
140
1.0
102
RTVSPost2010PropOp56
 70
     1
102
RTVSPost2010Prop57
140
1.0
102
RTVSPost2010PropOp57
 70
     1
102
RTVSPropertyOp0
 70
     1
102
RTVSPropertyOp1
 70
     1
102
RTVSPropertyOp2
 70
     1
102
RTVSPropertyOp3
 70
     1
102
RTVSPropertyOp4
 70
     1
102
RTVSPropertyOp5
 70
     1
102
RTVSPropertyOp6
 70
     1
102
RTVSPropertyOp7
 70
     1
102
RTVSPropertyOp8
 70
     1
102
RTVSPropertyOp9
 70
     1
102
RTVSPropertyOp10
 70
     1
102
RTVSPropertyOp11
 70
     1
102
RTVSPropertyOp12
 70
     1
102
RTVSPropertyOp13
 70
     1
102
RTVSPropertyOp14
 70
     1
102
RTVSPropertyOp15
 70
     1
102
RTVSPropertyOp16
 70
     1
102
RTVSPropertyOp17
 70
     1
102
RTVSPropertyOp18
 70
     1
102
RTVSPropertyOp19
 70
     1
102
RTVSPropertyOp20
 70
     1
102
RTVSPropertyOp21
 70
     1
102
RTVSPropertyOp22
 70
     1
102
RTVSPropertyOp23
 70
     1
102
RTVSPropertyOp24
 70
     1
102
RTVSPropertyOp25
 70
     1
102
RTVSPropertyOp26
 70
     1
102
RTVSPropertyOp27
 70
     1
102
RTVSPropertyOp28
 70
     1
102
RTVSPropertyOp29
 70
     1
102
RTVSPropertyOp30
 70
     1
102
RTVSPropertyOp31
 70
     1
102
RTVSPropertyOp32
 70
     1
102
RTVSPropertyOp33
 70
     1
102
RTVSPropertyOp34
 70
     1
102
RTVSPropertyOp35
 70
     1
102
RTVSPropertyOp36
 70
     1
102
RTVSPropertyOp37
 70
     1
102
RTVSPropertyOp38
 70
     1
102
RTVSPropertyOp39
 70
     1
102
RTVSPropertyOp40
 70
     1
102
RTVSPropertyOp41
 70
     1
102
RTVSPropertyOp42
 70
     1
102
RTVSPropertyOp43
 70
     1
102
RTVSPropertyOp44
 70
     1
102
RTVSPropertyOp45
 70
     1
102
RTVSPropertyOp46
 70
     1
102
RTVSPropertyOp47
 70
     1
102
RTVSPropertyOp48
 70
     1
102
RTVSPropertyOp49
 70
     1
102
RTVSPropertyOp50
 70
     1
102
RTVSPropertyOp51
 70
     0
102
RTVSPropertyOp52
 70
     0
102
RTVSPropertyOp53
 70
     1
102
RTVSPropertyOp54
 70
     1
102
RTVSPropertyOp55
 70
     1
102
RTVSPropertyOp56
 70
     1
102
RTVSPropertyOp57
 70
     1
102
RTVSPropertyOp58
 70
     1
102
RTVSPropertyOp59
 70
     1
102
RTVSPropertyOp60
 70
     1
102
RTVSPropertyOp61
 70
     1
102
RTVSPropertyOp62
 70
     1
  0
XRECORD
  5
D8B
102
{ACAD_REACTORS
330
D8A
102
}
330
D8A
100
AcDbXrecord
280
     1
102
RTVSPost2010Prop28
280
     0
102
RTVSPost2010PropOp28
 70
     1
102
RTVSPost2010Prop29
280
     1
102
RTVSPost2010PropOp29
 70
     1
102
RTVSPost2010Prop30
280
     1
102
RTVSPost2010PropOp30
 70
     1
102
RTVSPost2010Prop31
280
     0
102
RTVSPost2010PropOp31
 70
     1
102
RTVSPost2010Prop32
280
     0
102
RTVSPost2010PropOp32
 70
     1
102
RTVSPost2010Prop33
280
     0
102
RTVSPost2010PropOp33
 70
     1
102
RTVSPost2010Prop34
280
     0
102
RTVSPost2010PropOp34
 70
     1
102
RTVSPost2010Prop35
280
     0
102
RTVSPost2010PropOp35
 70
     1
102
RTVSPost2010Prop36
280
     0
102
RTVSPost2010PropOp36
 70
     1
102
RTVSPost2010Prop37
 90
       50
102
RTVSPost2010PropOp37
 70
     1
102
RTVSPost2010Prop38
140
0.0
102
RTVSPost2010PropOp38
 70
     1
102
RTVSPost2010Prop39
140
1.0
102
RTVSPost2010PropOp39
 70
     1
102
RTVSPost2010Prop40
 90
        0
102
RTVSPost2010PropOp40
 70
     1
102
RTVSPost2010Prop41ColorIndex
 90
       18
102
RTVSPost2010Prop41ColorRGB
 90
        0
102
RTVSPost2010PropOp41
 70
     1
102
RTVSPost2010Prop42
 90
       50
102
RTVSPost2010PropOp42
 70
     1
102
RTVSPost2010Prop43
 90
        3
102
RTVSPost2010PropOp43
 70
     1
102
RTVSPost2010Prop44ColorIndex
 90
        5
102
RTVSPost2010Prop44ColorRGB
 90
      255
102
RTVSPost2010PropOp44
 70
     1
102
RTVSPost2010Prop45
280
     0
102
RTVSPost2010PropOp45
 70
     1
102
RTVSPost2010Prop46
 90
       50
102
RTVSPost2010PropOp46
 70
     1
102
RTVSPost2010Prop47
 90
       50
102
RTVSPost2010PropOp47
 70
     1
102
RTVSPost2010Prop48
 90
       50
102
RTVSPost2010PropOp48
 70
     1
102
RTVSPost2010Prop49
280
     0
102
RTVSPost2010PropOp49
 70
     1
102
RTVSPost2010Prop50
 90
       50
102
RTVSPost2010PropOp50
 70
     1
102
RTVSPost2010Prop51ColorIndex
 90
      256
102
RTVSPost2010Prop51ColorRGB
 90
-16777216
102
RTVSPost2010PropOp51
 70
     0
102
RTVSPost2010Prop52
140
1.0
102
RTVSPost2010PropOp52
 70
     0
102
RTVSPost2010Prop53
 90
        2
102
RTVSPost2010PropOp53
 70
     1
102
RTVSPost2010Prop54
  1
strokes_ogs.tif
102
RTVSPost2010PropOp54
 70
     1
102
RTVSPost2010Prop55
280
     0
102
RTVSPost2010PropOp55
 70
     1
102
RTVSPost2010Prop56
140
1.0
102
RTVSPost2010PropOp56
 70
     1
102
RTVSPost2010Prop57
140
1.0
102
RTVSPost2010PropOp57
 70
     1
102
RTVSPropertyOp0
 70
     1
102
RTVSPropertyOp1
 70
     1
102
RTVSPropertyOp2
 70
     1
102
RTVSPropertyOp3
 70
     1
102
RTVSPropertyOp4
 70
     1
102
RTVSPropertyOp5
 70
     1
102
RTVSPropertyOp6
 70
     1
102
RTVSPropertyOp7
 70
     1
102
RTVSPropertyOp8
 70
     1
102
RTVSPropertyOp9
 70
     1
102
RTVSPropertyOp10
 70
     1
102
RTVSPropertyOp11
 70
     1
102
RTVSPropertyOp12
 70
     1
102
RTVSPropertyOp13
 70
     1
102
RTVSPropertyOp14
 70
     1
102
RTVSPropertyOp15
 70
     1
102
RTVSPropertyOp16
 70
     1
102
RTVSPropertyOp17
 70
     1
102
RTVSPropertyOp18
 70
     1
102
RTVSPropertyOp19
 70
     1
102
RTVSPropertyOp20
 70
     1
102
RTVSPropertyOp21
 70
     1
102
RTVSPropertyOp22
 70
     1
102
RTVSPropertyOp23
 70
     1
102
RTVSPropertyOp24
 70
     1
102
RTVSPropertyOp25
 70
     1
102
RTVSPropertyOp26
 70
     1
102
RTVSPropertyOp27
 70
     1
102
RTVSPropertyOp28
 70
     1
102
RTVSPropertyOp29
 70
     1
102
RTVSPropertyOp30
 70
     1
102
RTVSPropertyOp31
 70
     1
102
RTVSPropertyOp32
 70
     1
102
RTVSPropertyOp33
 70
     1
102
RTVSPropertyOp34
 70
     1
102
RTVSPropertyOp35
 70
     1
102
RTVSPropertyOp36
 70
     1
102
RTVSPropertyOp37
 70
     1
102
RTVSPropertyOp38
 70
     1
102
RTVSPropertyOp39
 70
     1
102
RTVSPropertyOp40
 70
     1
102
RTVSPropertyOp41
 70
     1
102
RTVSPropertyOp42
 70
     1
102
RTVSPropertyOp43
 70
     1
102
RTVSPropertyOp44
 70
     1
102
RTVSPropertyOp45
 70
     1
102
RTVSPropertyOp46
 70
     1
102
RTVSPropertyOp47
 70
     1
102
RTVSPropertyOp48
 70
     1
102
RTVSPropertyOp49
 70
     1
102
RTVSPropertyOp50
 70
     1
102
RTVSPropertyOp51
 70
     0
102
RTVSPropertyOp52
 70
     0
102
RTVSPropertyOp53
 70
     1
102
RTVSPropertyOp54
 70
     1
102
RTVSPropertyOp55
 70
     1
102
RTVSPropertyOp56
 70
     1
102
RTVSPropertyOp57
 70
     1
102
RTVSPropertyOp58
 70
     1
102
RTVSPropertyOp59
 70
     1
102
RTVSPropertyOp60
 70
     1
102
RTVSPropertyOp61
 70
     1
102
RTVSPropertyOp62
 70
     1
  0
XRECORD
  5
D93
102
{ACAD_REACTORS
330
D92
102
}
330
D92
100
AcDbXrecord
280
     1
102
RTVSPost2010Prop28
280
     0
102
RTVSPost2010PropOp28
 70
     1
102
RTVSPost2010Prop29
280
     1
102
RTVSPost2010PropOp29
 70
     1
102
RTVSPost2010Prop30
280
     1
102
RTVSPost2010PropOp30
 70
     1
102
RTVSPost2010Prop31
280
     0
102
RTVSPost2010PropOp31
 70
     1
102
RTVSPost2010Prop32
280
     0
102
RTVSPost2010PropOp32
 70
     1
102
RTVSPost2010Prop33
280
     0
102
RTVSPost2010PropOp33
 70
     1
102
RTVSPost2010Prop34
280
     0
102
RTVSPost2010PropOp34
 70
     1
102
RTVSPost2010Prop35
280
     0
102
RTVSPost2010PropOp35
 70
     1
102
RTVSPost2010Prop36
280
     0
102
RTVSPost2010PropOp36
 70
     1
102
RTVSPost2010Prop37
 90
       50
102
RTVSPost2010PropOp37
 70
     1
102
RTVSPost2010Prop38
140
0.0
102
RTVSPost2010PropOp38
 70
     1
102
RTVSPost2010Prop39
140
1.0
102
RTVSPost2010PropOp39
 70
     1
102
RTVSPost2010Prop40
 90
        0
102
RTVSPost2010PropOp40
 70
     1
102
RTVSPost2010Prop41ColorIndex
 90
       18
102
RTVSPost2010Prop41ColorRGB
 90
        0
102
RTVSPost2010PropOp41
 70
     1
102
RTVSPost2010Prop42
 90
       50
102
RTVSPost2010PropOp42
 70
     1
102
RTVSPost2010Prop43
 90
        3
102
RTVSPost2010PropOp43
 70
     1
102
RTVSPost2010Prop44ColorIndex
 90
        5
102
RTVSPost2010Prop44ColorRGB
 90
      255
102
RTVSPost2010PropOp44
 70
     1
102
RTVSPost2010Prop45
280
     0
102
RTVSPost2010PropOp45
 70
     1
102
RTVSPost2010Prop46
 90
       50
102
RTVSPost2010PropOp46
 70
     1
102
RTVSPost2010Prop47
 90
       50
102
RTVSPost2010PropOp47
 70
     1
102
RTVSPost2010Prop48
 90
       50
102
RTVSPost2010PropOp48
 70
     1
102
RTVSPost2010Prop49
280
     0
102
RTVSPost2010PropOp49
 70
     1
102
RTVSPost2010Prop50
 90
       50
102
RTVSPost2010PropOp50
 70
     1
102
RTVSPost2010Prop51ColorIndex
 90
      256
102
RTVSPost2010Prop51ColorRGB
 90
-16777216
102
RTVSPost2010PropOp51
 70
     0
102
RTVSPost2010Prop52
140
1.0
102
RTVSPost2010PropOp52
 70
     0
102
RTVSPost2010Prop53
 90
        2
102
RTVSPost2010PropOp53
 70
     1
102
RTVSPost2010Prop54
  1
strokes_ogs.tif
102
RTVSPost2010PropOp54
 70
     1
102
RTVSPost2010Prop55
280
     0
102
RTVSPost2010PropOp55
 70
     1
102
RTVSPost2010Prop56
140
1.0
102
RTVSPost2010PropOp56
 70
     1
102
RTVSPost2010Prop57
140
1.0
102
RTVSPost2010PropOp57
 70
     1
102
RTVSPropertyOp0
 70
     1
102
RTVSPropertyOp1
 70
     1
102
RTVSPropertyOp2
 70
     1
102
RTVSPropertyOp3
 70
     1
102
RTVSPropertyOp4
 70
     1
102
RTVSPropertyOp5
 70
     1
102
RTVSPropertyOp6
 70
     1
102
RTVSPropertyOp7
 70
     1
102
RTVSPropertyOp8
 70
     1
102
RTVSPropertyOp9
 70
     1
102
RTVSPropertyOp10
 70
     1
102
RTVSPropertyOp11
 70
     1
102
RTVSPropertyOp12
 70
     1
102
RTVSPropertyOp13
 70
     1
102
RTVSPropertyOp14
 70
     1
102
RTVSPropertyOp15
 70
     1
102
RTVSPropertyOp16
 70
     1
102
RTVSPropertyOp17
 70
     1
102
RTVSPropertyOp18
 70
     1
102
RTVSPropertyOp19
 70
     1
102
RTVSPropertyOp20
 70
     1
102
RTVSPropertyOp21
 70
     1
102
RTVSPropertyOp22
 70
     1
102
RTVSPropertyOp23
 70
     1
102
RTVSPropertyOp24
 70
     1
102
RTVSPropertyOp25
 70
     1
102
RTVSPropertyOp26
 70
     1
102
RTVSPropertyOp27
 70
     1
102
RTVSPropertyOp28
 70
     1
102
RTVSPropertyOp29
 70
     1
102
RTVSPropertyOp30
 70
     1
102
RTVSPropertyOp31
 70
     1
102
RTVSPropertyOp32
 70
     1
102
RTVSPropertyOp33
 70
     1
102
RTVSPropertyOp34
 70
     1
102
RTVSPropertyOp35
 70
     1
102
RTVSPropertyOp36
 70
     1
102
RTVSPropertyOp37
 70
     1
102
RTVSPropertyOp38
 70
     1
102
RTVSPropertyOp39
 70
     1
102
RTVSPropertyOp40
 70
     1
102
RTVSPropertyOp41
 70
     1
102
RTVSPropertyOp42
 70
     1
102
RTVSPropertyOp43
 70
     1
102
RTVSPropertyOp44
 70
     1
102
RTVSPropertyOp45
 70
     1
102
RTVSPropertyOp46
 70
     1
102
RTVSPropertyOp47
 70
     1
102
RTVSPropertyOp48
 70
     1
102
RTVSPropertyOp49
 70
     1
102
RTVSPropertyOp50
 70
     1
102
RTVSPropertyOp51
 70
     0
102
RTVSPropertyOp52
 70
     0
102
RTVSPropertyOp53
 70
     1
102
RTVSPropertyOp54
 70
     1
102
RTVSPropertyOp55
 70
     1
102
RTVSPropertyOp56
 70
     1
102
RTVSPropertyOp57
 70
     1
102
RTVSPropertyOp58
 70
     1
102
RTVSPropertyOp59
 70
     1
102
RTVSPropertyOp60
 70
     1
102
RTVSPropertyOp61
 70
     1
102
RTVSPropertyOp62
 70
     1
  0
XRECORD
  5
DAF
102
{ACAD_REACTORS
330
DAE
102
}
330
DAE
100
AcDbXrecord
280
     1
102
RTVSPost2010Prop28
280
     0
102
RTVSPost2010PropOp28
 70
     1
102
RTVSPost2010Prop29
280
     1
102
RTVSPost2010PropOp29
 70
     1
102
RTVSPost2010Prop30
280
     1
102
RTVSPost2010PropOp30
 70
     1
102
RTVSPost2010Prop31
280
     0
102
RTVSPost2010PropOp31
 70
     1
102
RTVSPost2010Prop32
280
     0
102
RTVSPost2010PropOp32
 70
     1
102
RTVSPost2010Prop33
280
     0
102
RTVSPost2010PropOp33
 70
     1
102
RTVSPost2010Prop34
280
     0
102
RTVSPost2010PropOp34
 70
     1
102
RTVSPost2010Prop35
280
     0
102
RTVSPost2010PropOp35
 70
     1
102
RTVSPost2010Prop36
280
     0
102
RTVSPost2010PropOp36
 70
     1
102
RTVSPost2010Prop37
 90
       50
102
RTVSPost2010PropOp37
 70
     0
102
RTVSPost2010Prop38
140
0.0
102
RTVSPost2010PropOp38
 70
     0
102
RTVSPost2010Prop39
140
1.0
102
RTVSPost2010PropOp39
 70
     0
102
RTVSPost2010Prop40
 90
        0
102
RTVSPost2010PropOp40
 70
     0
102
RTVSPost2010Prop41ColorIndex
 90
       18
102
RTVSPost2010Prop41ColorRGB
 90
        0
102
RTVSPost2010PropOp41
 70
     0
102
RTVSPost2010Prop42
 90
       50
102
RTVSPost2010PropOp42
 70
     0
102
RTVSPost2010Prop43
 90
        3
102
RTVSPost2010PropOp43
 70
     0
102
RTVSPost2010Prop44ColorIndex
 90
        5
102
RTVSPost2010Prop44ColorRGB
 90
      255
102
RTVSPost2010PropOp44
 70
     0
102
RTVSPost2010Prop45
280
     0
102
RTVSPost2010PropOp45
 70
     1
102
RTVSPost2010Prop46
 90
       50
102
RTVSPost2010PropOp46
 70
     0
102
RTVSPost2010Prop47
 90
       50
102
RTVSPost2010PropOp47
 70
     0
102
RTVSPost2010Prop48
 90
       50
102
RTVSPost2010PropOp48
 70
     0
102
RTVSPost2010Prop49
280
     0
102
RTVSPost2010PropOp49
 70
     1
102
RTVSPost2010Prop50
 90
       50
102
RTVSPost2010PropOp50
 70
     0
102
RTVSPost2010Prop51ColorIndex
 90
      256
102
RTVSPost2010Prop51ColorRGB
 90
-16777216
102
RTVSPost2010PropOp51
 70
     0
102
RTVSPost2010Prop52
140
1.0
102
RTVSPost2010PropOp52
 70
     0
102
RTVSPost2010Prop53
 90
        2
102
RTVSPost2010PropOp53
 70
     0
102
RTVSPost2010Prop54
  1
strokes_ogs.tif
102
RTVSPost2010PropOp54
 70
     0
102
RTVSPost2010Prop55
280
     0
102
RTVSPost2010PropOp55
 70
     1
102
RTVSPost2010Prop56
140
1.0
102
RTVSPost2010PropOp56
 70
     0
102
RTVSPost2010Prop57
140
1.0
102
RTVSPost2010PropOp57
 70
     0
102
RTVSPropertyOp0
 70
     0
102
RTVSPropertyOp1
 70
     0
102
RTVSPropertyOp2
 70
     0
102
RTVSPropertyOp3
 70
     0
102
RTVSPropertyOp4
 70
     0
102
RTVSPropertyOp5
 70
     0
102
RTVSPropertyOp6
 70
     0
102
RTVSPropertyOp7
 70
     0
102
RTVSPropertyOp8
 70
     0
102
RTVSPropertyOp9
 70
     0
102
RTVSPropertyOp10
 70
     0
102
RTVSPropertyOp11
 70
     0
102
RTVSPropertyOp12
 70
     0
102
RTVSPropertyOp13
 70
     0
102
RTVSPropertyOp14
 70
     2
102
RTVSPropertyOp15
 70
     0
102
RTVSPropertyOp16
 70
     0
102
RTVSPropertyOp17
 70
     0
102
RTVSPropertyOp18
 70
     0
102
RTVSPropertyOp19
 70
     0
102
RTVSPropertyOp20
 70
     0
102
RTVSPropertyOp21
 70
     0
102
RTVSPropertyOp22
 70
     0
102
RTVSPropertyOp23
 70
     0
102
RTVSPropertyOp24
 70
     0
102
RTVSPropertyOp25
 70
     0
102
RTVSPropertyOp26
 70
     0
102
RTVSPropertyOp27
 70
     0
102
RTVSPropertyOp28
 70
     1
102
RTVSPropertyOp29
 70
     1
102
RTVSPropertyOp30
 70
     1
102
RTVSPropertyOp31
 70
     1
102
RTVSPropertyOp32
 70
     1
102
RTVSPropertyOp33
 70
     1
102
RTVSPropertyOp34
 70
     1
102
RTVSPropertyOp35
 70
     1
102
RTVSPropertyOp36
 70
     1
102
RTVSPropertyOp37
 70
     0
102
RTVSPropertyOp38
 70
     0
102
RTVSPropertyOp39
 70
     0
102
RTVSPropertyOp40
 70
     0
102
RTVSPropertyOp41
 70
     0
102
RTVSPropertyOp42
 70
     0
102
RTVSPropertyOp43
 70
     0
102
RTVSPropertyOp44
 70
     0
102
RTVSPropertyOp45
 70
     1
102
RTVSPropertyOp46
 70
     0
102
RTVSPropertyOp47
 70
     0
102
RTVSPropertyOp48
 70
     0
102
RTVSPropertyOp49
 70
     1
102
RTVSPropertyOp50
 70
     0
102
RTVSPropertyOp51
 70
     0
102
RTVSPropertyOp52
 70
     0
102
RTVSPropertyOp53
 70
     0
102
RTVSPropertyOp54
 70
     0
102
RTVSPropertyOp55
 70
     1
102
RTVSPropertyOp56
 70
     0
102
RTVSPropertyOp57
 70
     0
102
RTVSPropertyOp58
 70
     0
102
RTVSPropertyOp59
 70
     0
102
RTVSPropertyOp60
 70
     0
102
RTVSPropertyOp61
 70
     0
102
RTVSPropertyOp62
 70
     0
  0
XRECORD
  5
D9F
102
{ACAD_REACTORS
330
D9E
102
}
330
D9E
100
AcDbXrecord
280
     1
102
RTVSPost2010Prop28
280
     0
102
RTVSPost2010PropOp28
 70
     1
102
RTVSPost2010Prop29
280
     1
102
RTVSPost2010PropOp29
 70
     1
102
RTVSPost2010Prop30
280
     1
102
RTVSPost2010PropOp30
 70
     1
102
RTVSPost2010Prop31
280
     0
102
RTVSPost2010PropOp31
 70
     1
102
RTVSPost2010Prop32
280
     0
102
RTVSPost2010PropOp32
 70
     1
102
RTVSPost2010Prop33
280
     0
102
RTVSPost2010PropOp33
 70
     1
102
RTVSPost2010Prop34
280
     0
102
RTVSPost2010PropOp34
 70
     1
102
RTVSPost2010Prop35
280
     0
102
RTVSPost2010PropOp35
 70
     1
102
RTVSPost2010Prop36
280
     0
102
RTVSPost2010PropOp36
 70
     1
102
RTVSPost2010Prop37
 90
       50
102
RTVSPost2010PropOp37
 70
     1
102
RTVSPost2010Prop38
140
0.0
102
RTVSPost2010PropOp38
 70
     1
102
RTVSPost2010Prop39
140
1.0
102
RTVSPost2010PropOp39
 70
     1
102
RTVSPost2010Prop40
 90
        0
102
RTVSPost2010PropOp40
 70
     1
102
RTVSPost2010Prop41ColorIndex
 90
       18
102
RTVSPost2010Prop41ColorRGB
 90
        0
102
RTVSPost2010PropOp41
 70
     1
102
RTVSPost2010Prop42
 90
       50
102
RTVSPost2010PropOp42
 70
     1
102
RTVSPost2010Prop43
 90
        3
102
RTVSPost2010PropOp43
 70
     1
102
RTVSPost2010Prop44ColorIndex
 90
        5
102
RTVSPost2010Prop44ColorRGB
 90
      255
102
RTVSPost2010PropOp44
 70
     1
102
RTVSPost2010Prop45
280
     0
102
RTVSPost2010PropOp45
 70
     1
102
RTVSPost2010Prop46
 90
       50
102
RTVSPost2010PropOp46
 70
     1
102
RTVSPost2010Prop47
 90
       50
102
RTVSPost2010PropOp47
 70
     1
102
RTVSPost2010Prop48
 90
       50
102
RTVSPost2010PropOp48
 70
     1
102
RTVSPost2010Prop49
280
     0
102
RTVSPost2010PropOp49
 70
     1
102
RTVSPost2010Prop50
 90
       50
102
RTVSPost2010PropOp50
 70
     1
102
RTVSPost2010Prop51ColorIndex
 90
      256
102
RTVSPost2010Prop51ColorRGB
 90
-16777216
102
RTVSPost2010PropOp51
 70
     0
102
RTVSPost2010Prop52
140
1.0
102
RTVSPost2010PropOp52
 70
     0
102
RTVSPost2010Prop53
 90
        2
102
RTVSPost2010PropOp53
 70
     1
102
RTVSPost2010Prop54
  1
strokes_ogs.tif
102
RTVSPost2010PropOp54
 70
     1
102
RTVSPost2010Prop55
280
     0
102
RTVSPost2010PropOp55
 70
     1
102
RTVSPost2010Prop56
140
1.0
102
RTVSPost2010PropOp56
 70
     1
102
RTVSPost2010Prop57
140
1.0
102
RTVSPost2010PropOp57
 70
     1
102
RTVSPropertyOp0
 70
     1
102
RTVSPropertyOp1
 70
     1
102
RTVSPropertyOp2
 70
     1
102
RTVSPropertyOp3
 70
     1
102
RTVSPropertyOp4
 70
     1
102
RTVSPropertyOp5
 70
     1
102
RTVSPropertyOp6
 70
     1
102
RTVSPropertyOp7
 70
     1
102
RTVSPropertyOp8
 70
     1
102
RTVSPropertyOp9
 70
     1
102
RTVSPropertyOp10
 70
     1
102
RTVSPropertyOp11
 70
     1
102
RTVSPropertyOp12
 70
     1
102
RTVSPropertyOp13
 70
     1
102
RTVSPropertyOp14
 70
     1
102
RTVSPropertyOp15
 70
     1
102
RTVSPropertyOp16
 70
     1
102
RTVSPropertyOp17
 70
     1
102
RTVSPropertyOp18
 70
     1
102
RTVSPropertyOp19
 70
     1
102
RTVSPropertyOp20
 70
     1
102
RTVSPropertyOp21
 70
     1
102
RTVSPropertyOp22
 70
     1
102
RTVSPropertyOp23
 70
     1
102
RTVSPropertyOp24
 70
     1
102
RTVSPropertyOp25
 70
     1
102
RTVSPropertyOp26
 70
     1
102
RTVSPropertyOp27
 70
     1
102
RTVSPropertyOp28
 70
     1
102
RTVSPropertyOp29
 70
     1
102
RTVSPropertyOp30
 70
     1
102
RTVSPropertyOp31
 70
     1
102
RTVSPropertyOp32
 70
     1
102
RTVSPropertyOp33
 70
     1
102
RTVSPropertyOp34
 70
     1
102
RTVSPropertyOp35
 70
     1
102
RTVSPropertyOp36
 70
     1
102
RTVSPropertyOp37
 70
     1
102
RTVSPropertyOp38
 70
     1
102
RTVSPropertyOp39
 70
     1
102
RTVSPropertyOp40
 70
     1
102
RTVSPropertyOp41
 70
     1
102
RTVSPropertyOp42
 70
     1
102
RTVSPropertyOp43
 70
     1
102
RTVSPropertyOp44
 70
     1
102
RTVSPropertyOp45
 70
     1
102
RTVSPropertyOp46
 70
     1
102
RTVSPropertyOp47
 70
     1
102
RTVSPropertyOp48
 70
     1
102
RTVSPropertyOp49
 70
     1
102
RTVSPropertyOp50
 70
     1
102
RTVSPropertyOp51
 70
     0
102
RTVSPropertyOp52
 70
     0
102
RTVSPropertyOp53
 70
     1
102
RTVSPropertyOp54
 70
     1
102
RTVSPropertyOp55
 70
     1
102
RTVSPropertyOp56
 70
     1
102
RTVSPropertyOp57
 70
     1
102
RTVSPropertyOp58
 70
     1
102
RTVSPropertyOp59
 70
     1
102
RTVSPropertyOp60
 70
     1
102
RTVSPropertyOp61
 70
     1
102
RTVSPropertyOp62
 70
     1
  0
XRECORD
  5
DB1
102
{ACAD_REACTORS
330
DB0
102
}
330
DB0
100
AcDbXrecord
280
     1
102
RTVSPost2010Prop28
280
     0
102
RTVSPost2010PropOp28
 70
     1
102
RTVSPost2010Prop29
280
     1
102
RTVSPost2010PropOp29
 70
     1
102
RTVSPost2010Prop30
280
     1
102
RTVSPost2010PropOp30
 70
     1
102
RTVSPost2010Prop31
280
     0
102
RTVSPost2010PropOp31
 70
     1
102
RTVSPost2010Prop32
280
     0
102
RTVSPost2010PropOp32
 70
     1
102
RTVSPost2010Prop33
280
     0
102
RTVSPost2010PropOp33
 70
     1
102
RTVSPost2010Prop34
280
     0
102
RTVSPost2010PropOp34
 70
     1
102
RTVSPost2010Prop35
280
     0
102
RTVSPost2010PropOp35
 70
     1
102
RTVSPost2010Prop36
280
     0
102
RTVSPost2010PropOp36
 70
     1
102
RTVSPost2010Prop37
 90
       50
102
RTVSPost2010PropOp37
 70
     0
102
RTVSPost2010Prop38
140
0.0
102
RTVSPost2010PropOp38
 70
     0
102
RTVSPost2010Prop39
140
1.0
102
RTVSPost2010PropOp39
 70
     0
102
RTVSPost2010Prop40
 90
        0
102
RTVSPost2010PropOp40
 70
     0
102
RTVSPost2010Prop41ColorIndex
 90
       18
102
RTVSPost2010Prop41ColorRGB
 90
        0
102
RTVSPost2010PropOp41
 70
     0
102
RTVSPost2010Prop42
 90
       50
102
RTVSPost2010PropOp42
 70
     0
102
RTVSPost2010Prop43
 90
        3
102
RTVSPost2010PropOp43
 70
     0
102
RTVSPost2010Prop44ColorIndex
 90
        5
102
RTVSPost2010Prop44ColorRGB
 90
      255
102
RTVSPost2010PropOp44
 70
     0
102
RTVSPost2010Prop45
280
     0
102
RTVSPost2010PropOp45
 70
     1
102
RTVSPost2010Prop46
 90
       50
102
RTVSPost2010PropOp46
 70
     0
102
RTVSPost2010Prop47
 90
       50
102
RTVSPost2010PropOp47
 70
     0
102
RTVSPost2010Prop48
 90
       50
102
RTVSPost2010PropOp48
 70
     0
102
RTVSPost2010Prop49
280
     0
102
RTVSPost2010PropOp49
 70
     1
102
RTVSPost2010Prop50
 90
       50
102
RTVSPost2010PropOp50
 70
     0
102
RTVSPost2010Prop51ColorIndex
 90
      256
102
RTVSPost2010Prop51ColorRGB
 90
-16777216
102
RTVSPost2010PropOp51
 70
     0
102
RTVSPost2010Prop52
140
1.0
102
RTVSPost2010PropOp52
 70
     0
102
RTVSPost2010Prop53
 90
        2
102
RTVSPost2010PropOp53
 70
     0
102
RTVSPost2010Prop54
  1
strokes_ogs.tif
102
RTVSPost2010PropOp54
 70
     0
102
RTVSPost2010Prop55
280
     0
102
RTVSPost2010PropOp55
 70
     1
102
RTVSPost2010Prop56
140
1.0
102
RTVSPost2010PropOp56
 70
     0
102
RTVSPost2010Prop57
140
1.0
102
RTVSPost2010PropOp57
 70
     0
102
RTVSPropertyOp0
 70
     0
102
RTVSPropertyOp1
 70
     0
102
RTVSPropertyOp2
 70
     0
102
RTVSPropertyOp3
 70
     0
102
RTVSPropertyOp4
 70
     0
102
RTVSPropertyOp5
 70
     0
102
RTVSPropertyOp6
 70
     0
102
RTVSPropertyOp7
 70
     0
102
RTVSPropertyOp8
 70
     0
102
RTVSPropertyOp9
 70
     0
102
RTVSPropertyOp10
 70
     0
102
RTVSPropertyOp11
 70
     0
102
RTVSPropertyOp12
 70
     0
102
RTVSPropertyOp13
 70
     0
102
RTVSPropertyOp14
 70
     2
102
RTVSPropertyOp15
 70
     0
102
RTVSPropertyOp16
 70
     0
102
RTVSPropertyOp17
 70
     0
102
RTVSPropertyOp18
 70
     0
102
RTVSPropertyOp19
 70
     0
102
RTVSPropertyOp20
 70
     0
102
RTVSPropertyOp21
 70
     0
102
RTVSPropertyOp22
 70
     0
102
RTVSPropertyOp23
 70
     0
102
RTVSPropertyOp24
 70
     0
102
RTVSPropertyOp25
 70
     0
102
RTVSPropertyOp26
 70
     0
102
RTVSPropertyOp27
 70
     0
102
RTVSPropertyOp28
 70
     1
102
RTVSPropertyOp29
 70
     1
102
RTVSPropertyOp30
 70
     1
102
RTVSPropertyOp31
 70
     1
102
RTVSPropertyOp32
 70
     1
102
RTVSPropertyOp33
 70
     1
102
RTVSPropertyOp34
 70
     1
102
RTVSPropertyOp35
 70
     1
102
RTVSPropertyOp36
 70
     1
102
RTVSPropertyOp37
 70
     0
102
RTVSPropertyOp38
 70
     0
102
RTVSPropertyOp39
 70
     0
102
RTVSPropertyOp40
 70
     0
102
RTVSPropertyOp41
 70
     0
102
RTVSPropertyOp42
 70
     0
102
RTVSPropertyOp43
 70
     0
102
RTVSPropertyOp44
 70
     0
102
RTVSPropertyOp45
 70
     1
102
RTVSPropertyOp46
 70
     0
102
RTVSPropertyOp47
 70
     0
102
RTVSPropertyOp48
 70
     0
102
RTVSPropertyOp49
 70
     1
102
RTVSPropertyOp50
 70
     0
102
RTVSPropertyOp51
 70
     0
102
RTVSPropertyOp52
 70
     0
102
RTVSPropertyOp53
 70
     0
102
RTVSPropertyOp54
 70
     0
102
RTVSPropertyOp55
 70
     1
102
RTVSPropertyOp56
 70
     0
102
RTVSPropertyOp57
 70
     0
102
RTVSPropertyOp58
 70
     0
102
RTVSPropertyOp59
 70
     0
102
RTVSPropertyOp60
 70
     0
102
RTVSPropertyOp61
 70
     0
102
RTVSPropertyOp62
 70
     0
  0
XRECORD
  5
D97
102
{ACAD_REACTORS
330
D96
102
}
330
D96
100
AcDbXrecord
280
     1
102
RTVSPost2010Prop28
280
     0
102
RTVSPost2010PropOp28
 70
     1
102
RTVSPost2010Prop29
280
     1
102
RTVSPost2010PropOp29
 70
     1
102
RTVSPost2010Prop30
280
     1
102
RTVSPost2010PropOp30
 70
     1
102
RTVSPost2010Prop31
280
     0
102
RTVSPost2010PropOp31
 70
     1
102
RTVSPost2010Prop32
280
     0
102
RTVSPost2010PropOp32
 70
     1
102
RTVSPost2010Prop33
280
     0
102
RTVSPost2010PropOp33
 70
     1
102
RTVSPost2010Prop34
280
     0
102
RTVSPost2010PropOp34
 70
     1
102
RTVSPost2010Prop35
280
     0
102
RTVSPost2010PropOp35
 70
     1
102
RTVSPost2010Prop36
280
     0
102
RTVSPost2010PropOp36
 70
     1
102
RTVSPost2010Prop37
 90
       50
102
RTVSPost2010PropOp37
 70
     1
102
RTVSPost2010Prop38
140
0.0
102
RTVSPost2010PropOp38
 70
     1
102
RTVSPost2010Prop39
140
1.0
102
RTVSPost2010PropOp39
 70
     1
102
RTVSPost2010Prop40
 90
        0
102
RTVSPost2010PropOp40
 70
     1
102
RTVSPost2010Prop41ColorIndex
 90
       18
102
RTVSPost2010Prop41ColorRGB
 90
        0
102
RTVSPost2010PropOp41
 70
     1
102
RTVSPost2010Prop42
 90
       50
102
RTVSPost2010PropOp42
 70
     1
102
RTVSPost2010Prop43
 90
        3
102
RTVSPost2010PropOp43
 70
     1
102
RTVSPost2010Prop44ColorIndex
 90
        5
102
RTVSPost2010Prop44ColorRGB
 90
      255
102
RTVSPost2010PropOp44
 70
     1
102
RTVSPost2010Prop45
280
     0
102
RTVSPost2010PropOp45
 70
     1
102
RTVSPost2010Prop46
 90
       50
102
RTVSPost2010PropOp46
 70
     1
102
RTVSPost2010Prop47
 90
       50
102
RTVSPost2010PropOp47
 70
     1
102
RTVSPost2010Prop48
 90
       50
102
RTVSPost2010PropOp48
 70
     1
102
RTVSPost2010Prop49
280
     0
102
RTVSPost2010PropOp49
 70
     1
102
RTVSPost2010Prop50
 90
       50
102
RTVSPost2010PropOp50
 70
     1
102
RTVSPost2010Prop51ColorIndex
 90
      256
102
RTVSPost2010Prop51ColorRGB
 90
-16777216
102
RTVSPost2010PropOp51
 70
     0
102
RTVSPost2010Prop52
140
1.0
102
RTVSPost2010PropOp52
 70
     0
102
RTVSPost2010Prop53
 90
        2
102
RTVSPost2010PropOp53
 70
     1
102
RTVSPost2010Prop54
  1
strokes_ogs.tif
102
RTVSPost2010PropOp54
 70
     1
102
RTVSPost2010Prop55
280
     0
102
RTVSPost2010PropOp55
 70
     1
102
RTVSPost2010Prop56
140
1.0
102
RTVSPost2010PropOp56
 70
     1
102
RTVSPost2010Prop57
140
1.0
102
RTVSPost2010PropOp57
 70
     1
102
RTVSPropertyOp0
 70
     1
102
RTVSPropertyOp1
 70
     1
102
RTVSPropertyOp2
 70
     1
102
RTVSPropertyOp3
 70
     1
102
RTVSPropertyOp4
 70
     1
102
RTVSPropertyOp5
 70
     1
102
RTVSPropertyOp6
 70
     1
102
RTVSPropertyOp7
 70
     1
102
RTVSPropertyOp8
 70
     1
102
RTVSPropertyOp9
 70
     1
102
RTVSPropertyOp10
 70
     1
102
RTVSPropertyOp11
 70
     1
102
RTVSPropertyOp12
 70
     1
102
RTVSPropertyOp13
 70
     1
102
RTVSPropertyOp14
 70
     1
102
RTVSPropertyOp15
 70
     1
102
RTVSPropertyOp16
 70
     1
102
RTVSPropertyOp17
 70
     1
102
RTVSPropertyOp18
 70
     1
102
RTVSPropertyOp19
 70
     1
102
RTVSPropertyOp20
 70
     1
102
RTVSPropertyOp21
 70
     1
102
RTVSPropertyOp22
 70
     1
102
RTVSPropertyOp23
 70
     1
102
RTVSPropertyOp24
 70
     1
102
RTVSPropertyOp25
 70
     1
102
RTVSPropertyOp26
 70
     1
102
RTVSPropertyOp27
 70
     1
102
RTVSPropertyOp28
 70
     1
102
RTVSPropertyOp29
 70
     1
102
RTVSPropertyOp30
 70
     1
102
RTVSPropertyOp31
 70
     1
102
RTVSPropertyOp32
 70
     1
102
RTVSPropertyOp33
 70
     1
102
RTVSPropertyOp34
 70
     1
102
RTVSPropertyOp35
 70
     1
102
RTVSPropertyOp36
 70
     1
102
RTVSPropertyOp37
 70
     1
102
RTVSPropertyOp38
 70
     1
102
RTVSPropertyOp39
 70
     1
102
RTVSPropertyOp40
 70
     1
102
RTVSPropertyOp41
 70
     1
102
RTVSPropertyOp42
 70
     1
102
RTVSPropertyOp43
 70
     1
102
RTVSPropertyOp44
 70
     1
102
RTVSPropertyOp45
 70
     1
102
RTVSPropertyOp46
 70
     1
102
RTVSPropertyOp47
 70
     1
102
RTVSPropertyOp48
 70
     1
102
RTVSPropertyOp49
 70
     1
102
RTVSPropertyOp50
 70
     1
102
RTVSPropertyOp51
 70
     0
102
RTVSPropertyOp52
 70
     0
102
RTVSPropertyOp53
 70
     1
102
RTVSPropertyOp54
 70
     1
102
RTVSPropertyOp55
 70
     1
102
RTVSPropertyOp56
 70
     1
102
RTVSPropertyOp57
 70
     1
102
RTVSPropertyOp58
 70
     1
102
RTVSPropertyOp59
 70
     1
102
RTVSPropertyOp60
 70
     1
102
RTVSPropertyOp61
 70
     1
102
RTVSPropertyOp62
 70
     1
  0
XRECORD
  5
DAD
102
{ACAD_REACTORS
330
DAC
102
}
330
DAC
100
AcDbXrecord
280
     1
102
RTVSPost2010Prop28
280
     0
102
RTVSPost2010PropOp28
 70
     1
102
RTVSPost2010Prop29
280
     1
102
RTVSPost2010PropOp29
 70
     1
102
RTVSPost2010Prop30
280
     1
102
RTVSPost2010PropOp30
 70
     1
102
RTVSPost2010Prop31
280
     0
102
RTVSPost2010PropOp31
 70
     1
102
RTVSPost2010Prop32
280
     0
102
RTVSPost2010PropOp32
 70
     1
102
RTVSPost2010Prop33
280
     0
102
RTVSPost2010PropOp33
 70
     1
102
RTVSPost2010Prop34
280
     0
102
RTVSPost2010PropOp34
 70
     1
102
RTVSPost2010Prop35
280
     0
102
RTVSPost2010PropOp35
 70
     1
102
RTVSPost2010Prop36
280
     0
102
RTVSPost2010PropOp36
 70
     1
102
RTVSPost2010Prop37
 90
       50
102
RTVSPost2010PropOp37
 70
     1
102
RTVSPost2010Prop38
140
0.0
102
RTVSPost2010PropOp38
 70
     1
102
RTVSPost2010Prop39
140
1.0
102
RTVSPost2010PropOp39
 70
     1
102
RTVSPost2010Prop40
 90
        0
102
RTVSPost2010PropOp40
 70
     1
102
RTVSPost2010Prop41ColorIndex
 90
       18
102
RTVSPost2010Prop41ColorRGB
 90
        0
102
RTVSPost2010PropOp41
 70
     1
102
RTVSPost2010Prop42
 90
       50
102
RTVSPost2010PropOp42
 70
     1
102
RTVSPost2010Prop43
 90
        3
102
RTVSPost2010PropOp43
 70
     1
102
RTVSPost2010Prop44ColorIndex
 90
        5
102
RTVSPost2010Prop44ColorRGB
 90
      255
102
RTVSPost2010PropOp44
 70
     1
102
RTVSPost2010Prop45
280
     0
102
RTVSPost2010PropOp45
 70
     1
102
RTVSPost2010Prop46
 90
       50
102
RTVSPost2010PropOp46
 70
     1
102
RTVSPost2010Prop47
 90
       50
102
RTVSPost2010PropOp47
 70
     1
102
RTVSPost2010Prop48
 90
       50
102
RTVSPost2010PropOp48
 70
     1
102
RTVSPost2010Prop49
280
     0
102
RTVSPost2010PropOp49
 70
     1
102
RTVSPost2010Prop50
 90
       50
102
RTVSPost2010PropOp50
 70
     1
102
RTVSPost2010Prop51ColorIndex
 90
      256
102
RTVSPost2010Prop51ColorRGB
 90
-16777216
102
RTVSPost2010PropOp51
 70
     0
102
RTVSPost2010Prop52
140
1.0
102
RTVSPost2010PropOp52
 70
     0
102
RTVSPost2010Prop53
 90
        2
102
RTVSPost2010PropOp53
 70
     1
102
RTVSPost2010Prop54
  1
strokes_ogs.tif
102
RTVSPost2010PropOp54
 70
     1
102
RTVSPost2010Prop55
280
     0
102
RTVSPost2010PropOp55
 70
     1
102
RTVSPost2010Prop56
140
1.0
102
RTVSPost2010PropOp56
 70
     1
102
RTVSPost2010Prop57
140
1.0
102
RTVSPost2010PropOp57
 70
     1
102
RTVSPropertyOp0
 70
     1
102
RTVSPropertyOp1
 70
     1
102
RTVSPropertyOp2
 70
     1
102
RTVSPropertyOp3
 70
     1
102
RTVSPropertyOp4
 70
     1
102
RTVSPropertyOp5
 70
     1
102
RTVSPropertyOp6
 70
     1
102
RTVSPropertyOp7
 70
     1
102
RTVSPropertyOp8
 70
     1
102
RTVSPropertyOp9
 70
     1
102
RTVSPropertyOp10
 70
     1
102
RTVSPropertyOp11
 70
     1
102
RTVSPropertyOp12
 70
     1
102
RTVSPropertyOp13
 70
     1
102
RTVSPropertyOp14
 70
     1
102
RTVSPropertyOp15
 70
     1
102
RTVSPropertyOp16
 70
     1
102
RTVSPropertyOp17
 70
     1
102
RTVSPropertyOp18
 70
     1
102
RTVSPropertyOp19
 70
     1
102
RTVSPropertyOp20
 70
     1
102
RTVSPropertyOp21
 70
     1
102
RTVSPropertyOp22
 70
     1
102
RTVSPropertyOp23
 70
     1
102
RTVSPropertyOp24
 70
     1
102
RTVSPropertyOp25
 70
     1
102
RTVSPropertyOp26
 70
     1
102
RTVSPropertyOp27
 70
     1
102
RTVSPropertyOp28
 70
     1
102
RTVSPropertyOp29
 70
     1
102
RTVSPropertyOp30
 70
     1
102
RTVSPropertyOp31
 70
     1
102
RTVSPropertyOp32
 70
     1
102
RTVSPropertyOp33
 70
     1
102
RTVSPropertyOp34
 70
     1
102
RTVSPropertyOp35
 70
     1
102
RTVSPropertyOp36
 70
     1
102
RTVSPropertyOp37
 70
     1
102
RTVSPropertyOp38
 70
     1
102
RTVSPropertyOp39
 70
     1
102
RTVSPropertyOp40
 70
     1
102
RTVSPropertyOp41
 70
     1
102
RTVSPropertyOp42
 70
     1
102
RTVSPropertyOp43
 70
     1
102
RTVSPropertyOp44
 70
     1
102
RTVSPropertyOp45
 70
     1
102
RTVSPropertyOp46
 70
     1
102
RTVSPropertyOp47
 70
     1
102
RTVSPropertyOp48
 70
     1
102
RTVSPropertyOp49
 70
     1
102
RTVSPropertyOp50
 70
     1
102
RTVSPropertyOp51
 70
     0
102
RTVSPropertyOp52
 70
     0
102
RTVSPropertyOp53
 70
     1
102
RTVSPropertyOp54
 70
     1
102
RTVSPropertyOp55
 70
     1
102
RTVSPropertyOp56
 70
     1
102
RTVSPropertyOp57
 70
     1
102
RTVSPropertyOp58
 70
     1
102
RTVSPropertyOp59
 70
     1
102
RTVSPropertyOp60
 70
     1
102
RTVSPropertyOp61
 70
     1
102
RTVSPropertyOp62
 70
     1
  0
XRECORD
  5
DAB
102
{ACAD_REACTORS
330
DAA
102
}
330
DAA
100
AcDbXrecord
280
     1
102
RTVSPost2010Prop28
280
     0
102
RTVSPost2010PropOp28
 70
     1
102
RTVSPost2010Prop29
280
     1
102
RTVSPost2010PropOp29
 70
     1
102
RTVSPost2010Prop30
280
     1
102
RTVSPost2010PropOp30
 70
     1
102
RTVSPost2010Prop31
280
     0
102
RTVSPost2010PropOp31
 70
     1
102
RTVSPost2010Prop32
280
     0
102
RTVSPost2010PropOp32
 70
     1
102
RTVSPost2010Prop33
280
     0
102
RTVSPost2010PropOp33
 70
     1
102
RTVSPost2010Prop34
280
     0
102
RTVSPost2010PropOp34
 70
     1
102
RTVSPost2010Prop35
280
     0
102
RTVSPost2010PropOp35
 70
     1
102
RTVSPost2010Prop36
280
     0
102
RTVSPost2010PropOp36
 70
     1
102
RTVSPost2010Prop37
 90
       50
102
RTVSPost2010PropOp37
 70
     1
102
RTVSPost2010Prop38
140
0.0
102
RTVSPost2010PropOp38
 70
     1
102
RTVSPost2010Prop39
140
1.0
102
RTVSPost2010PropOp39
 70
     1
102
RTVSPost2010Prop40
 90
        0
102
RTVSPost2010PropOp40
 70
     1
102
RTVSPost2010Prop41ColorIndex
 90
       18
102
RTVSPost2010Prop41ColorRGB
 90
        0
102
RTVSPost2010PropOp41
 70
     1
102
RTVSPost2010Prop42
 90
       50
102
RTVSPost2010PropOp42
 70
     1
102
RTVSPost2010Prop43
 90
        3
102
RTVSPost2010PropOp43
 70
     1
102
RTVSPost2010Prop44ColorIndex
 90
        5
102
RTVSPost2010Prop44ColorRGB
 90
      255
102
RTVSPost2010PropOp44
 70
     1
102
RTVSPost2010Prop45
280
     0
102
RTVSPost2010PropOp45
 70
     1
102
RTVSPost2010Prop46
 90
       50
102
RTVSPost2010PropOp46
 70
     1
102
RTVSPost2010Prop47
 90
       50
102
RTVSPost2010PropOp47
 70
     1
102
RTVSPost2010Prop48
 90
       50
102
RTVSPost2010PropOp48
 70
     1
102
RTVSPost2010Prop49
280
     0
102
RTVSPost2010PropOp49
 70
     1
102
RTVSPost2010Prop50
 90
       50
102
RTVSPost2010PropOp50
 70
     1
102
RTVSPost2010Prop51ColorIndex
 90
      256
102
RTVSPost2010Prop51ColorRGB
 90
-16777216
102
RTVSPost2010PropOp51
 70
     0
102
RTVSPost2010Prop52
140
1.0
102
RTVSPost2010PropOp52
 70
     0
102
RTVSPost2010Prop53
 90
        2
102
RTVSPost2010PropOp53
 70
     1
102
RTVSPost2010Prop54
  1
strokes_ogs.tif
102
RTVSPost2010PropOp54
 70
     1
102
RTVSPost2010Prop55
280
     0
102
RTVSPost2010PropOp55
 70
     1
102
RTVSPost2010Prop56
140
1.0
102
RTVSPost2010PropOp56
 70
     1
102
RTVSPost2010Prop57
140
1.0
102
RTVSPost2010PropOp57
 70
     1
102
RTVSPropertyOp0
 70
     1
102
RTVSPropertyOp1
 70
     1
102
RTVSPropertyOp2
 70
     1
102
RTVSPropertyOp3
 70
     1
102
RTVSPropertyOp4
 70
     1
102
RTVSPropertyOp5
 70
     1
102
RTVSPropertyOp6
 70
     1
102
RTVSPropertyOp7
 70
     1
102
RTVSPropertyOp8
 70
     1
102
RTVSPropertyOp9
 70
     1
102
RTVSPropertyOp10
 70
     1
102
RTVSPropertyOp11
 70
     1
102
RTVSPropertyOp12
 70
     1
102
RTVSPropertyOp13
 70
     1
102
RTVSPropertyOp14
 70
     1
102
RTVSPropertyOp15
 70
     1
102
RTVSPropertyOp16
 70
     1
102
RTVSPropertyOp17
 70
     1
102
RTVSPropertyOp18
 70
     1
102
RTVSPropertyOp19
 70
     1
102
RTVSPropertyOp20
 70
     1
102
RTVSPropertyOp21
 70
     1
102
RTVSPropertyOp22
 70
     1
102
RTVSPropertyOp23
 70
     1
102
RTVSPropertyOp24
 70
     1
102
RTVSPropertyOp25
 70
     1
102
RTVSPropertyOp26
 70
     1
102
RTVSPropertyOp27
 70
     1
102
RTVSPropertyOp28
 70
     1
102
RTVSPropertyOp29
 70
     1
102
RTVSPropertyOp30
 70
     1
102
RTVSPropertyOp31
 70
     1
102
RTVSPropertyOp32
 70
     1
102
RTVSPropertyOp33
 70
     1
102
RTVSPropertyOp34
 70
     1
102
RTVSPropertyOp35
 70
     1
102
RTVSPropertyOp36
 70
     1
102
RTVSPropertyOp37
 70
     1
102
RTVSPropertyOp38
 70
     1
102
RTVSPropertyOp39
 70
     1
102
RTVSPropertyOp40
 70
     1
102
RTVSPropertyOp41
 70
     1
102
RTVSPropertyOp42
 70
     1
102
RTVSPropertyOp43
 70
     1
102
RTVSPropertyOp44
 70
     1
102
RTVSPropertyOp45
 70
     1
102
RTVSPropertyOp46
 70
     1
102
RTVSPropertyOp47
 70
     1
102
RTVSPropertyOp48
 70
     1
102
RTVSPropertyOp49
 70
     1
102
RTVSPropertyOp50
 70
     1
102
RTVSPropertyOp51
 70
     0
102
RTVSPropertyOp52
 70
     0
102
RTVSPropertyOp53
 70
     1
102
RTVSPropertyOp54
 70
     1
102
RTVSPropertyOp55
 70
     1
102
RTVSPropertyOp56
 70
     1
102
RTVSPropertyOp57
 70
     1
102
RTVSPropertyOp58
 70
     1
102
RTVSPropertyOp59
 70
     1
102
RTVSPropertyOp60
 70
     1
102
RTVSPropertyOp61
 70
     1
102
RTVSPropertyOp62
 70
     1
  0
XRECORD
  5
DA5
102
{ACAD_REACTORS
330
DA4
102
}
330
DA4
100
AcDbXrecord
280
     1
102
RTVSPost2010Prop28
280
     0
102
RTVSPost2010PropOp28
 70
     1
102
RTVSPost2010Prop29
280
     1
102
RTVSPost2010PropOp29
 70
     1
102
RTVSPost2010Prop30
280
     1
102
RTVSPost2010PropOp30
 70
     1
102
RTVSPost2010Prop31
280
     0
102
RTVSPost2010PropOp31
 70
     1
102
RTVSPost2010Prop32
280
     0
102
RTVSPost2010PropOp32
 70
     1
102
RTVSPost2010Prop33
280
     0
102
RTVSPost2010PropOp33
 70
     1
102
RTVSPost2010Prop34
280
     0
102
RTVSPost2010PropOp34
 70
     1
102
RTVSPost2010Prop35
280
     0
102
RTVSPost2010PropOp35
 70
     1
102
RTVSPost2010Prop36
280
     0
102
RTVSPost2010PropOp36
 70
     1
102
RTVSPost2010Prop37
 90
       50
102
RTVSPost2010PropOp37
 70
     1
102
RTVSPost2010Prop38
140
0.0
102
RTVSPost2010PropOp38
 70
     1
102
RTVSPost2010Prop39
140
1.0
102
RTVSPost2010PropOp39
 70
     1
102
RTVSPost2010Prop40
 90
        0
102
RTVSPost2010PropOp40
 70
     1
102
RTVSPost2010Prop41ColorIndex
 90
       18
102
RTVSPost2010Prop41ColorRGB
 90
        0
102
RTVSPost2010PropOp41
 70
     1
102
RTVSPost2010Prop42
 90
       50
102
RTVSPost2010PropOp42
 70
     1
102
RTVSPost2010Prop43
 90
        3
102
RTVSPost2010PropOp43
 70
     1
102
RTVSPost2010Prop44ColorIndex
 90
        5
102
RTVSPost2010Prop44ColorRGB
 90
      255
102
RTVSPost2010PropOp44
 70
     1
102
RTVSPost2010Prop45
280
     0
102
RTVSPost2010PropOp45
 70
     1
102
RTVSPost2010Prop46
 90
       50
102
RTVSPost2010PropOp46
 70
     1
102
RTVSPost2010Prop47
 90
       50
102
RTVSPost2010PropOp47
 70
     1
102
RTVSPost2010Prop48
 90
       50
102
RTVSPost2010PropOp48
 70
     1
102
RTVSPost2010Prop49
280
     0
102
RTVSPost2010PropOp49
 70
     1
102
RTVSPost2010Prop50
 90
       50
102
RTVSPost2010PropOp50
 70
     1
102
RTVSPost2010Prop51ColorIndex
 90
      256
102
RTVSPost2010Prop51ColorRGB
 90
-16777216
102
RTVSPost2010PropOp51
 70
     0
102
RTVSPost2010Prop52
140
1.0
102
RTVSPost2010PropOp52
 70
     0
102
RTVSPost2010Prop53
 90
        2
102
RTVSPost2010PropOp53
 70
     1
102
RTVSPost2010Prop54
  1
strokes_ogs.tif
102
RTVSPost2010PropOp54
 70
     1
102
RTVSPost2010Prop55
280
     0
102
RTVSPost2010PropOp55
 70
     1
102
RTVSPost2010Prop56
140
1.0
102
RTVSPost2010PropOp56
 70
     1
102
RTVSPost2010Prop57
140
1.0
102
RTVSPost2010PropOp57
 70
     1
102
RTVSPropertyOp0
 70
     1
102
RTVSPropertyOp1
 70
     1
102
RTVSPropertyOp2
 70
     1
102
RTVSPropertyOp3
 70
     1
102
RTVSPropertyOp4
 70
     1
102
RTVSPropertyOp5
 70
     1
102
RTVSPropertyOp6
 70
     1
102
RTVSPropertyOp7
 70
     1
102
RTVSPropertyOp8
 70
     1
102
RTVSPropertyOp9
 70
     1
102
RTVSPropertyOp10
 70
     1
102
RTVSPropertyOp11
 70
     1
102
RTVSPropertyOp12
 70
     1
102
RTVSPropertyOp13
 70
     1
102
RTVSPropertyOp14
 70
     1
102
RTVSPropertyOp15
 70
     1
102
RTVSPropertyOp16
 70
     1
102
RTVSPropertyOp17
 70
     1
102
RTVSPropertyOp18
 70
     1
102
RTVSPropertyOp19
 70
     1
102
RTVSPropertyOp20
 70
     1
102
RTVSPropertyOp21
 70
     1
102
RTVSPropertyOp22
 70
     1
102
RTVSPropertyOp23
 70
     1
102
RTVSPropertyOp24
 70
     1
102
RTVSPropertyOp25
 70
     1
102
RTVSPropertyOp26
 70
     1
102
RTVSPropertyOp27
 70
     1
102
RTVSPropertyOp28
 70
     1
102
RTVSPropertyOp29
 70
     1
102
RTVSPropertyOp30
 70
     1
102
RTVSPropertyOp31
 70
     1
102
RTVSPropertyOp32
 70
     1
102
RTVSPropertyOp33
 70
     1
102
RTVSPropertyOp34
 70
     1
102
RTVSPropertyOp35
 70
     1
102
RTVSPropertyOp36
 70
     1
102
RTVSPropertyOp37
 70
     1
102
RTVSPropertyOp38
 70
     1
102
RTVSPropertyOp39
 70
     1
102
RTVSPropertyOp40
 70
     1
102
RTVSPropertyOp41
 70
     1
102
RTVSPropertyOp42
 70
     1
102
RTVSPropertyOp43
 70
     1
102
RTVSPropertyOp44
 70
     1
102
RTVSPropertyOp45
 70
     1
102
RTVSPropertyOp46
 70
     1
102
RTVSPropertyOp47
 70
     1
102
RTVSPropertyOp48
 70
     1
102
RTVSPropertyOp49
 70
     1
102
RTVSPropertyOp50
 70
     1
102
RTVSPropertyOp51
 70
     0
102
RTVSPropertyOp52
 70
     0
102
RTVSPropertyOp53
 70
     1
102
RTVSPropertyOp54
 70
     1
102
RTVSPropertyOp55
 70
     1
102
RTVSPropertyOp56
 70
     1
102
RTVSPropertyOp57
 70
     1
102
RTVSPropertyOp58
 70
     1
102
RTVSPropertyOp59
 70
     1
102
RTVSPropertyOp60
 70
     1
102
RTVSPropertyOp61
 70
     1
102
RTVSPropertyOp62
 70
     1
  0
XRECORD
  5
DA7
102
{ACAD_REACTORS
330
DA6
102
}
330
DA6
100
AcDbXrecord
280
     1
102
RTVSPost2010Prop28
280
     0
102
RTVSPost2010PropOp28
 70
     1
102
RTVSPost2010Prop29
280
     1
102
RTVSPost2010PropOp29
 70
     1
102
RTVSPost2010Prop30
280
     1
102
RTVSPost2010PropOp30
 70
     1
102
RTVSPost2010Prop31
280
     0
102
RTVSPost2010PropOp31
 70
     1
102
RTVSPost2010Prop32
280
     0
102
RTVSPost2010PropOp32
 70
     1
102
RTVSPost2010Prop33
280
     0
102
RTVSPost2010PropOp33
 70
     1
102
RTVSPost2010Prop34
280
     0
102
RTVSPost2010PropOp34
 70
     1
102
RTVSPost2010Prop35
280
     0
102
RTVSPost2010PropOp35
 70
     1
102
RTVSPost2010Prop36
280
     0
102
RTVSPost2010PropOp36
 70
     1
102
RTVSPost2010Prop37
 90
       50
102
RTVSPost2010PropOp37
 70
     1
102
RTVSPost2010Prop38
140
0.0
102
RTVSPost2010PropOp38
 70
     1
102
RTVSPost2010Prop39
140
1.0
102
RTVSPost2010PropOp39
 70
     1
102
RTVSPost2010Prop40
 90
        0
102
RTVSPost2010PropOp40
 70
     1
102
RTVSPost2010Prop41ColorIndex
 90
       18
102
RTVSPost2010Prop41ColorRGB
 90
        0
102
RTVSPost2010PropOp41
 70
     1
102
RTVSPost2010Prop42
 90
       50
102
RTVSPost2010PropOp42
 70
     1
102
RTVSPost2010Prop43
 90
        3
102
RTVSPost2010PropOp43
 70
     1
102
RTVSPost2010Prop44ColorIndex
 90
        5
102
RTVSPost2010Prop44ColorRGB
 90
      255
102
RTVSPost2010PropOp44
 70
     1
102
RTVSPost2010Prop45
280
     0
102
RTVSPost2010PropOp45
 70
     1
102
RTVSPost2010Prop46
 90
       50
102
RTVSPost2010PropOp46
 70
     1
102
RTVSPost2010Prop47
 90
       50
102
RTVSPost2010PropOp47
 70
     1
102
RTVSPost2010Prop48
 90
       50
102
RTVSPost2010PropOp48
 70
     1
102
RTVSPost2010Prop49
280
     0
102
RTVSPost2010PropOp49
 70
     1
102
RTVSPost2010Prop50
 90
       50
102
RTVSPost2010PropOp50
 70
     1
102
RTVSPost2010Prop51ColorIndex
 90
      256
102
RTVSPost2010Prop51ColorRGB
 90
-16777216
102
RTVSPost2010PropOp51
 70
     0
102
RTVSPost2010Prop52
140
1.0
102
RTVSPost2010PropOp52
 70
     0
102
RTVSPost2010Prop53
 90
        2
102
RTVSPost2010PropOp53
 70
     1
102
RTVSPost2010Prop54
  1
strokes_ogs.tif
102
RTVSPost2010PropOp54
 70
     1
102
RTVSPost2010Prop55
280
     0
102
RTVSPost2010PropOp55
 70
     1
102
RTVSPost2010Prop56
140
1.0
102
RTVSPost2010PropOp56
 70
     1
102
RTVSPost2010Prop57
140
1.0
102
RTVSPost2010PropOp57
 70
     1
102
RTVSPropertyOp0
 70
     1
102
RTVSPropertyOp1
 70
     1
102
RTVSPropertyOp2
 70
     1
102
RTVSPropertyOp3
 70
     1
102
RTVSPropertyOp4
 70
     1
102
RTVSPropertyOp5
 70
     1
102
RTVSPropertyOp6
 70
     1
102
RTVSPropertyOp7
 70
     1
102
RTVSPropertyOp8
 70
     1
102
RTVSPropertyOp9
 70
     1
102
RTVSPropertyOp10
 70
     1
102
RTVSPropertyOp11
 70
     1
102
RTVSPropertyOp12
 70
     1
102
RTVSPropertyOp13
 70
     1
102
RTVSPropertyOp14
 70
     1
102
RTVSPropertyOp15
 70
     1
102
RTVSPropertyOp16
 70
     1
102
RTVSPropertyOp17
 70
     1
102
RTVSPropertyOp18
 70
     1
102
RTVSPropertyOp19
 70
     1
102
RTVSPropertyOp20
 70
     1
102
RTVSPropertyOp21
 70
     1
102
RTVSPropertyOp22
 70
     1
102
RTVSPropertyOp23
 70
     1
102
RTVSPropertyOp24
 70
     1
102
RTVSPropertyOp25
 70
     1
102
RTVSPropertyOp26
 70
     1
102
RTVSPropertyOp27
 70
     1
102
RTVSPropertyOp28
 70
     1
102
RTVSPropertyOp29
 70
     1
102
RTVSPropertyOp30
 70
     1
102
RTVSPropertyOp31
 70
     1
102
RTVSPropertyOp32
 70
     1
102
RTVSPropertyOp33
 70
     1
102
RTVSPropertyOp34
 70
     1
102
RTVSPropertyOp35
 70
     1
102
RTVSPropertyOp36
 70
     1
102
RTVSPropertyOp37
 70
     1
102
RTVSPropertyOp38
 70
     1
102
RTVSPropertyOp39
 70
     1
102
RTVSPropertyOp40
 70
     1
102
RTVSPropertyOp41
 70
     1
102
RTVSPropertyOp42
 70
     1
102
RTVSPropertyOp43
 70
     1
102
RTVSPropertyOp44
 70
     1
102
RTVSPropertyOp45
 70
     1
102
RTVSPropertyOp46
 70
     1
102
RTVSPropertyOp47
 70
     1
102
RTVSPropertyOp48
 70
     1
102
RTVSPropertyOp49
 70
     1
102
RTVSPropertyOp50
 70
     1
102
RTVSPropertyOp51
 70
     0
102
RTVSPropertyOp52
 70
     0
102
RTVSPropertyOp53
 70
     1
102
RTVSPropertyOp54
 70
     1
102
RTVSPropertyOp55
 70
     1
102
RTVSPropertyOp56
 70
     1
102
RTVSPropertyOp57
 70
     1
102
RTVSPropertyOp58
 70
     1
102
RTVSPropertyOp59
 70
     1
102
RTVSPropertyOp60
 70
     1
102
RTVSPropertyOp61
 70
     1
102
RTVSPropertyOp62
 70
     1
  0
XRECORD
  5
D9D
102
{ACAD_REACTORS
330
D9C
102
}
330
D9C
100
AcDbXrecord
280
     1
102
RTVSPost2010Prop28
280
     0
102
RTVSPost2010PropOp28
 70
     1
102
RTVSPost2010Prop29
280
     1
102
RTVSPost2010PropOp29
 70
     1
102
RTVSPost2010Prop30
280
     1
102
RTVSPost2010PropOp30
 70
     1
102
RTVSPost2010Prop31
280
     0
102
RTVSPost2010PropOp31
 70
     1
102
RTVSPost2010Prop32
280
     0
102
RTVSPost2010PropOp32
 70
     1
102
RTVSPost2010Prop33
280
     0
102
RTVSPost2010PropOp33
 70
     1
102
RTVSPost2010Prop34
280
     0
102
RTVSPost2010PropOp34
 70
     1
102
RTVSPost2010Prop35
280
     0
102
RTVSPost2010PropOp35
 70
     1
102
RTVSPost2010Prop36
280
     0
102
RTVSPost2010PropOp36
 70
     1
102
RTVSPost2010Prop37
 90
       50
102
RTVSPost2010PropOp37
 70
     1
102
RTVSPost2010Prop38
140
0.0
102
RTVSPost2010PropOp38
 70
     1
102
RTVSPost2010Prop39
140
1.0
102
RTVSPost2010PropOp39
 70
     1
102
RTVSPost2010Prop40
 90
        0
102
RTVSPost2010PropOp40
 70
     1
102
RTVSPost2010Prop41ColorIndex
 90
       18
102
RTVSPost2010Prop41ColorRGB
 90
        0
102
RTVSPost2010PropOp41
 70
     1
102
RTVSPost2010Prop42
 90
       50
102
RTVSPost2010PropOp42
 70
     1
102
RTVSPost2010Prop43
 90
        3
102
RTVSPost2010PropOp43
 70
     1
102
RTVSPost2010Prop44ColorIndex
 90
        5
102
RTVSPost2010Prop44ColorRGB
 90
      255
102
RTVSPost2010PropOp44
 70
     1
102
RTVSPost2010Prop45
280
     0
102
RTVSPost2010PropOp45
 70
     1
102
RTVSPost2010Prop46
 90
       50
102
RTVSPost2010PropOp46
 70
     1
102
RTVSPost2010Prop47
 90
       50
102
RTVSPost2010PropOp47
 70
     1
102
RTVSPost2010Prop48
 90
       50
102
RTVSPost2010PropOp48
 70
     1
102
RTVSPost2010Prop49
280
     0
102
RTVSPost2010PropOp49
 70
     1
102
RTVSPost2010Prop50
 90
       50
102
RTVSPost2010PropOp50
 70
     1
102
RTVSPost2010Prop51ColorIndex
 90
      256
102
RTVSPost2010Prop51ColorRGB
 90
-16777216
102
RTVSPost2010PropOp51
 70
     0
102
RTVSPost2010Prop52
140
1.0
102
RTVSPost2010PropOp52
 70
     0
102
RTVSPost2010Prop53
 90
        2
102
RTVSPost2010PropOp53
 70
     1
102
RTVSPost2010Prop54
  1
strokes_ogs.tif
102
RTVSPost2010PropOp54
 70
     1
102
RTVSPost2010Prop55
280
     0
102
RTVSPost2010PropOp55
 70
     1
102
RTVSPost2010Prop56
140
1.0
102
RTVSPost2010PropOp56
 70
     1
102
RTVSPost2010Prop57
140
1.0
102
RTVSPost2010PropOp57
 70
     1
102
RTVSPropertyOp0
 70
     1
102
RTVSPropertyOp1
 70
     1
102
RTVSPropertyOp2
 70
     1
102
RTVSPropertyOp3
 70
     1
102
RTVSPropertyOp4
 70
     1
102
RTVSPropertyOp5
 70
     1
102
RTVSPropertyOp6
 70
     1
102
RTVSPropertyOp7
 70
     1
102
RTVSPropertyOp8
 70
     1
102
RTVSPropertyOp9
 70
     1
102
RTVSPropertyOp10
 70
     1
102
RTVSPropertyOp11
 70
     1
102
RTVSPropertyOp12
 70
     1
102
RTVSPropertyOp13
 70
     1
102
RTVSPropertyOp14
 70
     1
102
RTVSPropertyOp15
 70
     1
102
RTVSPropertyOp16
 70
     1
102
RTVSPropertyOp17
 70
     1
102
RTVSPropertyOp18
 70
     1
102
RTVSPropertyOp19
 70
     1
102
RTVSPropertyOp20
 70
     1
102
RTVSPropertyOp21
 70
     1
102
RTVSPropertyOp22
 70
     1
102
RTVSPropertyOp23
 70
     1
102
RTVSPropertyOp24
 70
     1
102
RTVSPropertyOp25
 70
     1
102
RTVSPropertyOp26
 70
     1
102
RTVSPropertyOp27
 70
     1
102
RTVSPropertyOp28
 70
     1
102
RTVSPropertyOp29
 70
     1
102
RTVSPropertyOp30
 70
     1
102
RTVSPropertyOp31
 70
     1
102
RTVSPropertyOp32
 70
     1
102
RTVSPropertyOp33
 70
     1
102
RTVSPropertyOp34
 70
     1
102
RTVSPropertyOp35
 70
     1
102
RTVSPropertyOp36
 70
     1
102
RTVSPropertyOp37
 70
     1
102
RTVSPropertyOp38
 70
     1
102
RTVSPropertyOp39
 70
     1
102
RTVSPropertyOp40
 70
     1
102
RTVSPropertyOp41
 70
     1
102
RTVSPropertyOp42
 70
     1
102
RTVSPropertyOp43
 70
     1
102
RTVSPropertyOp44
 70
     1
102
RTVSPropertyOp45
 70
     1
102
RTVSPropertyOp46
 70
     1
102
RTVSPropertyOp47
 70
     1
102
RTVSPropertyOp48
 70
     1
102
RTVSPropertyOp49
 70
     1
102
RTVSPropertyOp50
 70
     1
102
RTVSPropertyOp51
 70
     0
102
RTVSPropertyOp52
 70
     0
102
RTVSPropertyOp53
 70
     1
102
RTVSPropertyOp54
 70
     1
102
RTVSPropertyOp55
 70
     1
102
RTVSPropertyOp56
 70
     1
102
RTVSPropertyOp57
 70
     1
102
RTVSPropertyOp58
 70
     1
102
RTVSPropertyOp59
 70
     1
102
RTVSPropertyOp60
 70
     1
102
RTVSPropertyOp61
 70
     1
102
RTVSPropertyOp62
 70
     1
  0
XRECORD
  5
D91
102
{ACAD_REACTORS
330
D90
102
}
330
D90
100
AcDbXrecord
280
     1
102
RTVSPost2010Prop28
280
     0
102
RTVSPost2010PropOp28
 70
     1
102
RTVSPost2010Prop29
280
     1
102
RTVSPost2010PropOp29
 70
     1
102
RTVSPost2010Prop30
280
     1
102
RTVSPost2010PropOp30
 70
     1
102
RTVSPost2010Prop31
280
     0
102
RTVSPost2010PropOp31
 70
     1
102
RTVSPost2010Prop32
280
     0
102
RTVSPost2010PropOp32
 70
     1
102
RTVSPost2010Prop33
280
     0
102
RTVSPost2010PropOp33
 70
     1
102
RTVSPost2010Prop34
280
     0
102
RTVSPost2010PropOp34
 70
     1
102
RTVSPost2010Prop35
280
     0
102
RTVSPost2010PropOp35
 70
     1
102
RTVSPost2010Prop36
280
     0
102
RTVSPost2010PropOp36
 70
     1
102
RTVSPost2010Prop37
 90
       50
102
RTVSPost2010PropOp37
 70
     1
102
RTVSPost2010Prop38
140
0.0
102
RTVSPost2010PropOp38
 70
     1
102
RTVSPost2010Prop39
140
1.0
102
RTVSPost2010PropOp39
 70
     1
102
RTVSPost2010Prop40
 90
        0
102
RTVSPost2010PropOp40
 70
     1
102
RTVSPost2010Prop41ColorIndex
 90
       18
102
RTVSPost2010Prop41ColorRGB
 90
        0
102
RTVSPost2010PropOp41
 70
     1
102
RTVSPost2010Prop42
 90
       50
102
RTVSPost2010PropOp42
 70
     1
102
RTVSPost2010Prop43
 90
        3
102
RTVSPost2010PropOp43
 70
     1
102
RTVSPost2010Prop44ColorIndex
 90
        5
102
RTVSPost2010Prop44ColorRGB
 90
      255
102
RTVSPost2010PropOp44
 70
     1
102
RTVSPost2010Prop45
280
     0
102
RTVSPost2010PropOp45
 70
     1
102
RTVSPost2010Prop46
 90
       50
102
RTVSPost2010PropOp46
 70
     1
102
RTVSPost2010Prop47
 90
       50
102
RTVSPost2010PropOp47
 70
     1
102
RTVSPost2010Prop48
 90
       50
102
RTVSPost2010PropOp48
 70
     1
102
RTVSPost2010Prop49
280
     0
102
RTVSPost2010PropOp49
 70
     1
102
RTVSPost2010Prop50
 90
       50
102
RTVSPost2010PropOp50
 70
     1
102
RTVSPost2010Prop51ColorIndex
 90
      256
102
RTVSPost2010Prop51ColorRGB
 90
-16777216
102
RTVSPost2010PropOp51
 70
     0
102
RTVSPost2010Prop52
140
1.0
102
RTVSPost2010PropOp52
 70
     0
102
RTVSPost2010Prop53
 90
        2
102
RTVSPost2010PropOp53
 70
     1
102
RTVSPost2010Prop54
  1
strokes_ogs.tif
102
RTVSPost2010PropOp54
 70
     1
102
RTVSPost2010Prop55
280
     0
102
RTVSPost2010PropOp55
 70
     1
102
RTVSPost2010Prop56
140
1.0
102
RTVSPost2010PropOp56
 70
     1
102
RTVSPost2010Prop57
140
1.0
102
RTVSPost2010PropOp57
 70
     1
102
RTVSPropertyOp0
 70
     1
102
RTVSPropertyOp1
 70
     1
102
RTVSPropertyOp2
 70
     1
102
RTVSPropertyOp3
 70
     1
102
RTVSPropertyOp4
 70
     1
102
RTVSPropertyOp5
 70
     1
102
RTVSPropertyOp6
 70
     1
102
RTVSPropertyOp7
 70
     1
102
RTVSPropertyOp8
 70
     1
102
RTVSPropertyOp9
 70
     1
102
RTVSPropertyOp10
 70
     1
102
RTVSPropertyOp11
 70
     1
102
RTVSPropertyOp12
 70
     1
102
RTVSPropertyOp13
 70
     1
102
RTVSPropertyOp14
 70
     1
102
RTVSPropertyOp15
 70
     1
102
RTVSPropertyOp16
 70
     1
102
RTVSPropertyOp17
 70
     1
102
RTVSPropertyOp18
 70
     1
102
RTVSPropertyOp19
 70
     1
102
RTVSPropertyOp20
 70
     1
102
RTVSPropertyOp21
 70
     1
102
RTVSPropertyOp22
 70
     1
102
RTVSPropertyOp23
 70
     1
102
RTVSPropertyOp24
 70
     1
102
RTVSPropertyOp25
 70
     1
102
RTVSPropertyOp26
 70
     1
102
RTVSPropertyOp27
 70
     1
102
RTVSPropertyOp28
 70
     1
102
RTVSPropertyOp29
 70
     1
102
RTVSPropertyOp30
 70
     1
102
RTVSPropertyOp31
 70
     1
102
RTVSPropertyOp32
 70
     1
102
RTVSPropertyOp33
 70
     1
102
RTVSPropertyOp34
 70
     1
102
RTVSPropertyOp35
 70
     1
102
RTVSPropertyOp36
 70
     1
102
RTVSPropertyOp37
 70
     1
102
RTVSPropertyOp38
 70
     1
102
RTVSPropertyOp39
 70
     1
102
RTVSPropertyOp40
 70
     1
102
RTVSPropertyOp41
 70
     1
102
RTVSPropertyOp42
 70
     1
102
RTVSPropertyOp43
 70
     1
102
RTVSPropertyOp44
 70
     1
102
RTVSPropertyOp45
 70
     1
102
RTVSPropertyOp46
 70
     1
102
RTVSPropertyOp47
 70
     1
102
RTVSPropertyOp48
 70
     1
102
RTVSPropertyOp49
 70
     1
102
RTVSPropertyOp50
 70
     1
102
RTVSPropertyOp51
 70
     0
102
RTVSPropertyOp52
 70
     0
102
RTVSPropertyOp53
 70
     1
102
RTVSPropertyOp54
 70
     1
102
RTVSPropertyOp55
 70
     1
102
RTVSPropertyOp56
 70
     1
102
RTVSPropertyOp57
 70
     1
102
RTVSPropertyOp58
 70
     1
102
RTVSPropertyOp59
 70
     1
102
RTVSPropertyOp60
 70
     1
102
RTVSPropertyOp61
 70
     1
102
RTVSPropertyOp62
 70
     1
  0
XRECORD
  5
DA9
102
{ACAD_REACTORS
330
DA8
102
}
330
DA8
100
AcDbXrecord
280
     1
102
RTVSPost2010Prop28
280
     0
102
RTVSPost2010PropOp28
 70
     1
102
RTVSPost2010Prop29
280
     1
102
RTVSPost2010PropOp29
 70
     1
102
RTVSPost2010Prop30
280
     1
102
RTVSPost2010PropOp30
 70
     1
102
RTVSPost2010Prop31
280
     0
102
RTVSPost2010PropOp31
 70
     1
102
RTVSPost2010Prop32
280
     0
102
RTVSPost2010PropOp32
 70
     1
102
RTVSPost2010Prop33
280
     0
102
RTVSPost2010PropOp33
 70
     1
102
RTVSPost2010Prop34
280
     0
102
RTVSPost2010PropOp34
 70
     1
102
RTVSPost2010Prop35
280
     0
102
RTVSPost2010PropOp35
 70
     1
102
RTVSPost2010Prop36
280
     0
102
RTVSPost2010PropOp36
 70
     1
102
RTVSPost2010Prop37
 90
       50
102
RTVSPost2010PropOp37
 70
     1
102
RTVSPost2010Prop38
140
0.0
102
RTVSPost2010PropOp38
 70
     1
102
RTVSPost2010Prop39
140
1.0
102
RTVSPost2010PropOp39
 70
     1
102
RTVSPost2010Prop40
 90
        0
102
RTVSPost2010PropOp40
 70
     1
102
RTVSPost2010Prop41ColorIndex
 90
       18
102
RTVSPost2010Prop41ColorRGB
 90
        0
102
RTVSPost2010PropOp41
 70
     1
102
RTVSPost2010Prop42
 90
       50
102
RTVSPost2010PropOp42
 70
     1
102
RTVSPost2010Prop43
 90
        3
102
RTVSPost2010PropOp43
 70
     1
102
RTVSPost2010Prop44ColorIndex
 90
        5
102
RTVSPost2010Prop44ColorRGB
 90
      255
102
RTVSPost2010PropOp44
 70
     1
102
RTVSPost2010Prop45
280
     0
102
RTVSPost2010PropOp45
 70
     1
102
RTVSPost2010Prop46
 90
       50
102
RTVSPost2010PropOp46
 70
     1
102
RTVSPost2010Prop47
 90
       50
102
RTVSPost2010PropOp47
 70
     1
102
RTVSPost2010Prop48
 90
       50
102
RTVSPost2010PropOp48
 70
     1
102
RTVSPost2010Prop49
280
     0
102
RTVSPost2010PropOp49
 70
     1
102
RTVSPost2010Prop50
 90
       50
102
RTVSPost2010PropOp50
 70
     1
102
RTVSPost2010Prop51ColorIndex
 90
      256
102
RTVSPost2010Prop51ColorRGB
 90
-16777216
102
RTVSPost2010PropOp51
 70
     0
102
RTVSPost2010Prop52
140
1.0
102
RTVSPost2010PropOp52
 70
     0
102
RTVSPost2010Prop53
 90
        2
102
RTVSPost2010PropOp53
 70
     1
102
RTVSPost2010Prop54
  1
strokes_ogs.tif
102
RTVSPost2010PropOp54
 70
     1
102
RTVSPost2010Prop55
280
     0
102
RTVSPost2010PropOp55
 70
     1
102
RTVSPost2010Prop56
140
1.0
102
RTVSPost2010PropOp56
 70
     1
102
RTVSPost2010Prop57
140
1.0
102
RTVSPost2010PropOp57
 70
     1
102
RTVSPropertyOp0
 70
     1
102
RTVSPropertyOp1
 70
     1
102
RTVSPropertyOp2
 70
     1
102
RTVSPropertyOp3
 70
     1
102
RTVSPropertyOp4
 70
     1
102
RTVSPropertyOp5
 70
     1
102
RTVSPropertyOp6
 70
     1
102
RTVSPropertyOp7
 70
     1
102
RTVSPropertyOp8
 70
     1
102
RTVSPropertyOp9
 70
     1
102
RTVSPropertyOp10
 70
     1
102
RTVSPropertyOp11
 70
     1
102
RTVSPropertyOp12
 70
     1
102
RTVSPropertyOp13
 70
     1
102
RTVSPropertyOp14
 70
     1
102
RTVSPropertyOp15
 70
     1
102
RTVSPropertyOp16
 70
     1
102
RTVSPropertyOp17
 70
     1
102
RTVSPropertyOp18
 70
     1
102
RTVSPropertyOp19
 70
     1
102
RTVSPropertyOp20
 70
     1
102
RTVSPropertyOp21
 70
     1
102
RTVSPropertyOp22
 70
     1
102
RTVSPropertyOp23
 70
     1
102
RTVSPropertyOp24
 70
     1
102
RTVSPropertyOp25
 70
     1
102
RTVSPropertyOp26
 70
     1
102
RTVSPropertyOp27
 70
     1
102
RTVSPropertyOp28
 70
     1
102
RTVSPropertyOp29
 70
     1
102
RTVSPropertyOp30
 70
     1
102
RTVSPropertyOp31
 70
     1
102
RTVSPropertyOp32
 70
     1
102
RTVSPropertyOp33
 70
     1
102
RTVSPropertyOp34
 70
     1
102
RTVSPropertyOp35
 70
     1
102
RTVSPropertyOp36
 70
     1
102
RTVSPropertyOp37
 70
     1
102
RTVSPropertyOp38
 70
     1
102
RTVSPropertyOp39
 70
     1
102
RTVSPropertyOp40
 70
     1
102
RTVSPropertyOp41
 70
     1
102
RTVSPropertyOp42
 70
     1
102
RTVSPropertyOp43
 70
     1
102
RTVSPropertyOp44
 70
     1
102
RTVSPropertyOp45
 70
     1
102
RTVSPropertyOp46
 70
     1
102
RTVSPropertyOp47
 70
     1
102
RTVSPropertyOp48
 70
     1
102
RTVSPropertyOp49
 70
     1
102
RTVSPropertyOp50
 70
     1
102
RTVSPropertyOp51
 70
     0
102
RTVSPropertyOp52
 70
     0
102
RTVSPropertyOp53
 70
     1
102
RTVSPropertyOp54
 70
     1
102
RTVSPropertyOp55
 70
     1
102
RTVSPropertyOp56
 70
     1
102
RTVSPropertyOp57
 70
     1
102
RTVSPropertyOp58
 70
     1
102
RTVSPropertyOp59
 70
     1
102
RTVSPropertyOp60
 70
     1
102
RTVSPropertyOp61
 70
     1
102
RTVSPropertyOp62
 70
     1
  0
ENDSEC
  0
EOF
