  0
SECTION
  2
HEADER
  9
$ACADVER
  1
AC1015
  9
$ACADMAINTVER
 70
    20
  9
$DWGCODEPAGE
  3
ANSI_932
  9
$INSBASE
 10
0.0
 20
0.0
 30
0.0
  9
$EXTMIN
 10
10.0
 20
9.999999999999998
 30
0.0
  9
$EXTMAX
 10
325.315876
 20
261.2384529999999
 30
0.0
  9
$LIMMIN
 10
0.0
 20
0.0
  9
$LIMMAX
 10
396.0
 20
273.0
  9
$ORTHOMODE
 70
     1
  9
$REGENMODE
 70
     1
  9
$FILLMODE
 70
     1
  9
$QTEXTMODE
 70
     0
  9
$MIRRTEXT
 70
     1
  9
$LTSCALE
 40
20.0
  9
$ATTMODE
 70
     1
  9
$TEXTSIZE
 40
5.0
  9
$TRACEWID
 40
1.0
  9
$TEXTSTYLE
  7
STANDARD
  9
$CLAYER
  8
0
  9
$CELTYPE
  6
BYLAYER
  9
$CECOLOR
 62
   256
  9
$CELTSCALE
 40
1.0
  9
$DISPSILH
 70
     0
  9
$DIMSCALE
 40
1.0
  9
$DIMASZ
 40
3.0
  9
$DIMEXO
 40
1.0
  9
$DIMDLI
 40
10.0
  9
$DIMRND
 40
0.0
  9
$DIMDLE
 40
0.0
  9
$DIMEXE
 40
1.0
  9
$DIMTP
 40
0.0
  9
$DIMTM
 40
0.0
  9
$DIMTXT
 40
3.2
  9
$DIMCEN
 40
0.0
  9
$DIMTSZ
 40
0.0
  9
$DIMTOL
 70
     0
  9
$DIMLIM
 70
     0
  9
$DIMTIH
 70
     0
  9
$DIMTOH
 70
     0
  9
$DIMSE1
 70
     0
  9
$DIMSE2
 70
     0
  9
$DIMTAD
 70
     3
  9
$DIMZIN
 70
     8
  9
$DIMBLK
  1

  9
$DIMASO
 70
     1
  9
$DIMSHO
 70
     1
  9
$DIMPOST
  1

  9
$DIMAPOST
  1

  9
$DIMALT
 70
     0
  9
$DIMALTD
 70
     2
  9
$DIMALTF
 40
25.4
  9
$DIMLFAC
 40
1.0
  9
$DIMTOFL
 70
     1
  9
$DIMTVP
 40
0.0
  9
$DIMTIX
 70
     0
  9
$DIMSOXD
 70
     0
  9
$DIMSAH
 70
     1
  9
$DIMBLK1
  1

  9
$DIMBLK2
  1

  9
$DIMSTYLE
  2
STANDARD
  9
$DIMCLRD
 70
     0
  9
$DIMCLRE
 70
     0
  9
$DIMCLRT
 70
     0
  9
$DIMTFAC
 40
1.0
  9
$DIMGAP
 40
1.0
  9
$DIMJUST
 70
     0
  9
$DIMSD1
 70
     0
  9
$DIMSD2
 70
     0
  9
$DIMTOLJ
 70
     1
  9
$DIMTZIN
 70
     0
  9
$DIMALTZ
 70
     0
  9
$DIMALTTZ
 70
     0
  9
$DIMUPT
 70
     0
  9
$DIMDEC
 70
     4
  9
$DIMTDEC
 70
     4
  9
$DIMALTU
 70
     2
  9
$DIMALTTD
 70
     2
  9
$DIMTXSTY
  7
STANDARD
  9
$DIMAUNIT
 70
     0
  9
$DIMADEC
 70
     0
  9
$DIMALTRND
 40
0.0
  9
$DIMAZIN
 70
     0
  9
$DIMDSEP
 70
    46
  9
$DIMATFIT
 70
     3
  9
$DIMFRAC
 70
     0
  9
$DIMLDRBLK
  1

  9
$DIMLUNIT
 70
     2
  9
$DIMLWD
 70
    -2
  9
$DIMLWE
 70
    -2
  9
$DIMTMOVE
 70
     0
  9
$LUNITS
 70
     2
  9
$LUPREC
 70
     4
  9
$SKETCHINC
 40
1.0
  9
$FILLETRAD
 40
0.0
  9
$AUNITS
 70
     0
  9
$AUPREC
 70
     2
  9
$MENU
  1
.
  9
$ELEVATION
 40
0.0
  9
$PELEVATION
 40
0.0
  9
$THICKNESS
 40
0.0
  9
$LIMCHECK
 70
     0
  9
$CHAMFERA
 40
10.0
  9
$CHAMFERB
 40
10.0
  9
$CHAMFERC
 40
0.0
  9
$CHAMFERD
 40
0.0
  9
$SKPOLY
 70
     0
  9
$TDCREATE
 40
2451066.406160648
  9
$TDUCREATE
 40
2451066.031160648
  9
$TDUPDATE
 40
2457192.598693091
  9
$TDUUPDATE
 40
2457192.223693091
  9
$TDINDWG
 40
0.0000151157
  9
$TDUSRTIMER
 40
0.0000149306
  9
$USRTIMER
 70
     1
  9
$ANGBASE
 50
0.0
  9
$ANGDIR
 70
     0
  9
$PDMODE
 70
     0
  9
$PDSIZE
 40
0.0
  9
$PLINEWID
 40
0.0
  9
$SPLFRAME
 70
     0
  9
$SPLINETYPE
 70
     6
  9
$SPLINESEGS
 70
     8
  9
$HANDSEED
  5
9CF6
  9
$SURFTAB1
 70
     6
  9
$SURFTAB2
 70
     6
  9
$SURFTYPE
 70
     6
  9
$SURFU
 70
     6
  9
$SURFV
 70
     6
  9
$UCSBASE
  2

  9
$UCSNAME
  2

  9
$UCSORG
 10
0.0
 20
0.0
 30
0.0
  9
$UCSXDIR
 10
1.0
 20
0.0
 30
0.0
  9
$UCSYDIR
 10
0.0
 20
1.0
 30
0.0
  9
$UCSORTHOREF
  2

  9
$UCSORTHOVIEW
 70
     0
  9
$UCSORGTOP
 10
0.0
 20
0.0
 30
0.0
  9
$UCSORGBOTTOM
 10
0.0
 20
0.0
 30
0.0
  9
$UCSORGLEFT
 10
0.0
 20
0.0
 30
0.0
  9
$UCSORGRIGHT
 10
0.0
 20
0.0
 30
0.0
  9
$UCSORGFRONT
 10
0.0
 20
0.0
 30
0.0
  9
$UCSORGBACK
 10
0.0
 20
0.0
 30
0.0
  9
$PUCSBASE
  2

  9
$PUCSNAME
  2

  9
$PUCSORG
 10
0.0
 20
0.0
 30
0.0
  9
$PUCSXDIR
 10
1.0
 20
0.0
 30
0.0
  9
$PUCSYDIR
 10
0.0
 20
1.0
 30
0.0
  9
$PUCSORTHOREF
  2

  9
$PUCSORTHOVIEW
 70
     0
  9
$PUCSORGTOP
 10
0.0
 20
0.0
 30
0.0
  9
$PUCSORGBOTTOM
 10
0.0
 20
0.0
 30
0.0
  9
$PUCSORGLEFT
 10
0.0
 20
0.0
 30
0.0
  9
$PUCSORGRIGHT
 10
0.0
 20
0.0
 30
0.0
  9
$PUCSORGFRONT
 10
0.0
 20
0.0
 30
0.0
  9
$PUCSORGBACK
 10
0.0
 20
0.0
 30
0.0
  9
$USERI1
 70
     0
  9
$USERI2
 70
     0
  9
$USERI3
 70
     0
  9
$USERI4
 70
     0
  9
$USERI5
 70
     0
  9
$USERR1
 40
0.0
  9
$USERR2
 40
0.0
  9
$USERR3
 40
0.0
  9
$USERR4
 40
0.0
  9
$USERR5
 40
0.0
  9
$WORLDVIEW
 70
     1
  9
$SHADEDGE
 70
     3
  9
$SHADEDIF
 70
    70
  9
$TILEMODE
 70
     1
  9
$MAXACTVP
 70
    16
  9
$PINSBASE
 10
0.0
 20
0.0
 30
0.0
  9
$PLIMCHECK
 70
     0
  9
$PEXTMIN
 10
1.000000000000000E+20
 20
1.000000000000000E+20
 30
1.000000000000000E+20
  9
$PEXTMAX
 10
-1.000000000000000E+20
 20
-1.000000000000000E+20
 30
-1.000000000000000E+20
  9
$PLIMMIN
 10
0.0
 20
0.0
  9
$PLIMMAX
 10
420.0
 20
297.0
  9
$UNITMODE
 70
     0
  9
$VISRETAIN
 70
     0
  9
$PLINEGEN
 70
     0
  9
$PSLTSCALE
 70
     0
  9
$TREEDEPTH
 70
  3020
  9
$CMLSTYLE
  2
STANDARD
  9
$CMLJUST
 70
     0
  9
$CMLSCALE
 40
1.0
  9
$PROXYGRAPHICS
 70
     1
  9
$MEASUREMENT
 70
     0
  9
$CELWEIGHT
370
    -1
  9
$ENDCAPS
280
     0
  9
$JOINSTYLE
280
     0
  9
$LWDISPLAY
290
     0
  9
$INSUNITS
 70
     0
  9
$HYPERLINKBASE
  1

  9
$STYLESHEET
  1

  9
$XEDIT
290
     1
  9
$CEPSNTYPE
380
     0
  9
$PSTYLEMODE
290
     1
  9
$FINGERPRINTGUID
  2
{E4D478F8-3436-49DF-81E7-F4B94BCBB256}
  9
$VERSIONGUID
  2
{0BFD8D9A-453B-4666-8DFA-4CBB9C2D0969}
  9
$EXTNAMES
290
     1
  9
$PSVPSCALE
 40
0.0
  9
$OLESTARTUP
290
     0
  0
ENDSEC
  0
SECTION
  2
CLASSES
  0
CLASS
  1
ACDBDICTIONARYWDFLT
  2
AcDbDictionaryWithDefault
  3
ObjectDBX Classes
 90
        0
280
     0
281
     0
  0
CLASS
  1
ACDBPLACEHOLDER
  2
AcDbPlaceHolder
  3
ObjectDBX Classes
 90
        0
280
     0
281
     0
  0
CLASS
  1
LAYOUT
  2
AcDbLayout
  3
ObjectDBX Classes
 90
        0
280
     0
281
     0
  0
CLASS
  1
DICTIONARYVAR
  2
AcDbDictionaryVar
  3
ObjectDBX Classes
 90
        0
280
     0
281
     0
  0
CLASS
  1
MATERIAL
  2
AcDbMaterial
  3
ObjectDBX Classes
 90
     1153
280
     0
281
     0
  0
CLASS
  1
VISUALSTYLE
  2
AcDbVisualStyle
  3
ObjectDBX Classes
 90
     4095
280
     0
281
     0
  0
CLASS
  1
TABLESTYLE
  2
AcDbTableStyle
  3
ObjectDBX Classes
 90
     4095
280
     0
281
     0
  0
CLASS
  1
SCALE
  2
AcDbScale
  3
ObjectDBX Classes
 90
     1153
280
     0
281
     0
  0
CLASS
  1
MLEADERSTYLE
  2
AcDbMLeaderStyle
  3
ACDB_MLEADERSTYLE_CLASS
 90
     4095
280
     0
281
     0
  0
CLASS
  1
ACDBSECTIONVIEWSTYLE
  2
AcDbSectionViewStyle
  3
ObjectDBX Classes
 90
     1025
280
     0
281
     0
  0
CLASS
  1
ACDBDETAILVIEWSTYLE
  2
AcDbDetailViewStyle
  3
ObjectDBX Classes
 90
     1025
280
     0
281
     0
  0
CLASS
  1
CELLSTYLEMAP
  2
AcDbCellStyleMap
  3
ObjectDBX Classes
 90
     1152
280
     0
281
     0
  0
ENDSEC
  0
SECTION
  2
TABLES
  0
TABLE
  2
VPORT
  5
992C
330
0
100
AcDbSymbolTable
 70
     1
  0
VPORT
  5
9C3F
330
992C
100
AcDbSymbolTableRecord
100
AcDbViewportTableRecord
  2
*ACTIVE
 70
     0
 10
0.0
 20
0.0
 11
1.0
 21
1.0
 12
243.7661869404817
 22
135.6148001341088
 13
0.0
 23
0.0
 14
10.0
 24
10.0
 15
10.0
 25
10.0
 16
0.0
 26
0.0
 36
1.0
 17
0.0
 27
0.0
 37
0.0
 40
254.0612421254725
 41
1.899603698811096
 42
50.0
 43
0.0
 44
0.0
 50
0.0
 51
0.0
 71
     0
 72
   100
 73
     1
 74
     0
 75
     0
 76
     0
 77
     0
 78
     0
281
     0
 65
     1
110
0.0
120
0.0
130
0.0
111
1.0
121
0.0
131
0.0
112
0.0
122
1.0
132
0.0
 79
     0
146
0.0
1001
ACAD_NAV_VCDISPLAY
1070
     3
  0
ENDTAB
  0
TABLE
  2
LTYPE
  5
9929
330
0
100
AcDbSymbolTable
 70
     4
  0
LTYPE
  5
9937
330
9929
100
AcDbSymbolTableRecord
100
AcDbLinetypeTableRecord
  2
BYBLOCK
 70
     0
  3

 72
    65
 73
     0
 40
0.0
  0
LTYPE
  5
9938
330
9929
100
AcDbSymbolTableRecord
100
AcDbLinetypeTableRecord
  2
BYLAYER
 70
     0
  3

 72
    65
 73
     0
 40
0.0
  0
LTYPE
  5
9939
330
9929
100
AcDbSymbolTableRecord
100
AcDbLinetypeTableRecord
  2
CONTINUOUS
 70
     0
  3
Solid line
 72
    65
 73
     0
 40
0.0
  0
LTYPE
  5
9947
330
9929
100
AcDbSymbolTableRecord
100
AcDbLinetypeTableRecord
  2
DASHED
 70
     0
  3
__ __ __ __ __ __ __ __ __ __ __ __ __ __ __ __
 72
    65
 73
     2
 40
0.75
 49
0.5
 74
     0
 49
-0.25
 74
     0
  0
LTYPE
  5
9948
330
9929
100
AcDbSymbolTableRecord
100
AcDbLinetypeTableRecord
  2
CENTER
 70
     0
  3
____ _ ____ _ ____ _ ____ _ ____ _ ____ _ ____ 
 72
    65
 73
     4
 40
2.0
 49
1.25
 74
     0
 49
-0.25
 74
     0
 49
0.25
 74
     0
 49
-0.25
 74
     0
  0
LTYPE
  5
9949
330
9929
100
AcDbSymbolTableRecord
100
AcDbLinetypeTableRecord
  2
PHANTOM
 70
     0
  3
______  __  __  ______  __  __  ______  __  __ 
 72
    65
 73
     6
 40
2.5
 49
1.25
 74
     0
 49
-0.25
 74
     0
 49
0.25
 74
     0
 49
-0.25
 74
     0
 49
0.25
 74
     0
 49
-0.25
 74
     0
  0
ENDTAB
  0
TABLE
  2
LAYER
  5
9926
330
0
100
AcDbSymbolTable
 70
     8
  0
LAYER
  5
9934
102
{ACAD_XDICTIONARY
360
9C9A
102
}
330
9926
100
AcDbSymbolTableRecord
100
AcDbLayerTableRecord
  2
0
 70
     0
 62
     7
  6
CONTINUOUS
370
    -3
390
9C48
  0
LAYER
  5
994A
102
{ACAD_XDICTIONARY
360
9C9C
102
}
330
9926
100
AcDbSymbolTableRecord
100
AcDbLayerTableRecord
  2
4
 70
     0
 62
     1
  6
CENTER
370
    -3
390
9C48
  0
LAYER
  5
994B
102
{ACAD_XDICTIONARY
360
9C9E
102
}
330
9926
100
AcDbSymbolTableRecord
100
AcDbLayerTableRecord
  2
5
 70
     0
 62
     6
  6
PHANTOM
370
    -3
390
9C48
  0
LAYER
  5
994C
102
{ACAD_XDICTIONARY
360
9CA0
102
}
330
9926
100
AcDbSymbolTableRecord
100
AcDbLayerTableRecord
  2
1
 70
     0
 62
     7
  6
CONTINUOUS
370
    -3
390
9C48
  0
LAYER
  5
994D
102
{ACAD_XDICTIONARY
360
9CA2
102
}
330
9926
100
AcDbSymbolTableRecord
100
AcDbLayerTableRecord
  2
2
 70
     0
 62
     4
  6
CONTINUOUS
370
    -3
390
9C48
  0
LAYER
  5
994E
102
{ACAD_XDICTIONARY
360
9CA4
102
}
330
9926
100
AcDbSymbolTableRecord
100
AcDbLayerTableRecord
  2
3
 70
     0
 62
     2
  6
DASHED
370
    -3
390
9C48
  0
LAYER
  5
994F
102
{ACAD_XDICTIONARY
360
9CA6
102
}
330
9926
100
AcDbSymbolTableRecord
100
AcDbLayerTableRecord
  2
6
 70
     0
 62
     5
  6
CONTINUOUS
370
    -3
390
9C48
  0
LAYER
  5
9950
102
{ACAD_XDICTIONARY
360
9CA8
102
}
330
9926
100
AcDbSymbolTableRecord
100
AcDbLayerTableRecord
  2
7
 70
     0
 62
     3
  6
CONTINUOUS
370
    -3
390
9C48
  0
ENDTAB
  0
TABLE
  2
STYLE
  5
9927
330
0
100
AcDbSymbolTable
 70
     1
  0
STYLE
  5
9935
330
9927
100
AcDbSymbolTableRecord
100
AcDbTextStyleTableRecord
  2
STANDARD
 70
     0
 40
0.0
 41
1.0
 50
0.0
 71
     0
 42
5.0
  3
txt
  4

  0
ENDTAB
  0
TABLE
  2
VIEW
  5
992A
330
0
100
AcDbSymbolTable
 70
     0
  0
ENDTAB
  0
TABLE
  2
UCS
  5
992B
330
0
100
AcDbSymbolTable
 70
     0
  0
ENDTAB
  0
TABLE
  2
APPID
  5
992D
330
0
100
AcDbSymbolTable
 70
     3
  0
APPID
  5
9936
330
992D
100
AcDbSymbolTableRecord
100
AcDbRegAppTableRecord
  2
ACAD
 70
     0
  0
APPID
  5
9CB4
330
992D
100
AcDbSymbolTableRecord
100
AcDbRegAppTableRecord
  2
ACAD_NAV_VCDISPLAY
 70
     0
  0
APPID
  5
9CED
330
992D
100
AcDbSymbolTableRecord
100
AcDbRegAppTableRecord
  2
ACAD_MLEADERVER
 70
     0
  0
ENDTAB
  0
TABLE
  2
DIMSTYLE
  5
992E
330
0
100
AcDbSymbolTable
 70
     1
100
AcDbDimStyleTable
 71
     0
  0
DIMSTYLE
105
9952
330
992E
100
AcDbSymbolTableRecord
100
AcDbDimStyleTableRecord
  2
STANDARD
 70
     0
 41
3.0
 42
1.0
 43
10.0
 44
1.0
 73
     0
 74
     0
 77
     3
 78
     8
140
3.2
141
0.0
147
1.0
172
     1
173
     1
284
     8
285
     8
286
     8
340
9935
  0
ENDTAB
  0
TABLE
  2
BLOCK_RECORD
  5
9925
330
0
100
AcDbSymbolTable
 70
     0
  0
BLOCK_RECORD
  5
9942
102
{ACAD_XDICTIONARY
360
9C42
102
}
330
9925
100
AcDbSymbolTableRecord
100
AcDbBlockTableRecord
  2
*MODEL_SPACE
340
9C96
  0
BLOCK_RECORD
  5
993E
102
{ACAD_XDICTIONARY
360
9C40
102
}
330
9925
100
AcDbSymbolTableRecord
100
AcDbBlockTableRecord
  2
*PAPER_SPACE
340
9C97
  0
ENDTAB
  0
ENDSEC
  0
SECTION
  2
BLOCKS
  0
BLOCK
  5
9943
330
9942
100
AcDbEntity
  8
0
100
AcDbBlockBegin
  2
*MODEL_SPACE
 70
     0
 10
0.0
 20
0.0
 30
0.0
  3
*MODEL_SPACE
  1

  0
ENDBLK
  5
9944
330
9942
100
AcDbEntity
  8
0
100
AcDbBlockEnd
  0
BLOCK
  5
993F
330
993E
100
AcDbEntity
 67
     1
  8
0
100
AcDbBlockBegin
  2
*PAPER_SPACE
 70
     0
 10
0.0
 20
0.0
 30
0.0
  3
*PAPER_SPACE
  1

  0
ENDBLK
  5
9940
330
993E
100
AcDbEntity
 67
     1
  8
0
100
AcDbBlockEnd
  0
ENDSEC
  0
SECTION
  2
ENTITIES
  0
TEXT
  5
995A
330
9942
100
AcDbEntity
  8
7
  6
Continuous
100
AcDbText
 10
10.0
 20
18.0
 30
0.0
 40
3.0
  1
TYPE No.TL-11-5
100
AcDbText
  0
TEXT
  5
995B
330
9942
100
AcDbEntity
  8
7
  6
Continuous
100
AcDbText
 10
10.0
 20
26.0
 30
0.0
 40
3.0
  1
CODE No.1021
100
AcDbText
  0
TEXT
  5
995C
330
9942
100
AcDbEntity
  8
1
  6
Continuous
100
AcDbText
 10
10.0
 20
10.0
 30
0.0
 40
1.399999999999999
  1
LAYER
100
AcDbText
  0
TEXT
  5
995D
330
9942
100
AcDbEntity
  8
1
  6
Continuous
100
AcDbText
 10
17.97951099999998
 20
10.04873699999998
 30
0.0
 40
1.399999999999999
  1
1
100
AcDbText
  0
TEXT
  5
995E
330
9942
100
AcDbEntity
  8
7
  6
Continuous
100
AcDbText
 10
29.97951099999999
 20
10.04873699999998
 30
0.0
 40
1.399999999999999
  1
7
100
AcDbText
  0
TEXT
  5
995F
330
9942
100
AcDbEntity
  8
4
  6
CENTER
100
AcDbText
 10
23.97951099999999
 20
10.04873699999998
 30
0.0
 40
1.399999999999999
  1
4
100
AcDbText
  0
TEXT
  5
9960
330
9942
100
AcDbEntity
  8
3
  6
DASHED
100
AcDbText
 10
21.979511
 20
10.04873699999998
 30
0.0
 40
1.399999999999999
  1
3
100
AcDbText
  0
TEXT
  5
9961
330
9942
100
AcDbEntity
  8
2
  6
Continuous
100
AcDbText
 10
19.97951099999999
 20
10.04873699999998
 30
0.0
 40
1.399999999999999
  1
2
100
AcDbText
  0
TEXT
  5
9962
330
9942
100
AcDbEntity
  8
6
  6
Continuous
100
AcDbText
 10
27.979511
 20
10.04873699999998
 30
0.0
 40
1.399999999999999
  1
6
100
AcDbText
  0
TEXT
  5
9963
330
9942
100
AcDbEntity
  8
5
  6
PHANTOM
100
AcDbText
 10
25.97951099999999
 20
10.04873699999998
 30
0.0
 40
1.399999999999999
  1
5
100
AcDbText
  0
LINE
  5
9964
330
9942
100
AcDbEntity
  8
4
  6
CENTER
100
AcDbLine
 10
32.21577599999999
 20
169.4884529999999
 30
0.0
 11
32.21577599999999
 21
103.638453
 31
0.0
  0
LINE
  5
9965
330
9942
100
AcDbEntity
  8
1
  6
Continuous
100
AcDbLine
 10
40.11577599999998
 20
148.638453
 30
0.0
 11
40.11577599999998
 21
124.638453
 31
0.0
  0
LINE
  5
9966
330
9942
100
AcDbEntity
  8
1
  6
Continuous
100
AcDbLine
 10
24.315776
 20
148.638453
 30
0.0
 11
24.315776
 21
124.638453
 31
0.0
  0
LINE
  5
9967
330
9942
100
AcDbEntity
  8
4
  6
CENTER
100
AcDbLine
 10
19.215776
 20
128.638453
 30
0.0
 11
45.21577599999999
 21
128.638453
 31
0.0
  0
LINE
  5
9968
330
9942
100
AcDbEntity
  8
1
  6
Continuous
100
AcDbLine
 10
24.315776
 20
124.638453
 30
0.0
 11
25.915776
 21
124.638453
 31
0.0
  0
LINE
  5
9969
330
9942
100
AcDbEntity
  8
1
  6
Continuous
100
AcDbLine
 10
25.915776
 20
124.638453
 30
0.0
 11
25.915776
 21
114.938453
 31
0.0
  0
LINE
  5
996A
330
9942
100
AcDbEntity
  8
1
  6
Continuous
100
AcDbLine
 10
38.515776
 20
124.638453
 30
0.0
 11
38.515776
 21
114.938453
 31
0.0
  0
LINE
  5
996B
330
9942
100
AcDbEntity
  8
1
  6
Continuous
100
AcDbLine
 10
24.315776
 20
148.638453
 30
0.0
 11
40.11577599999998
 21
148.638453
 31
0.0
  0
LINE
  5
996C
330
9942
100
AcDbEntity
  8
1
  6
Continuous
100
AcDbLine
 10
26.915776
 20
124.638453
 30
0.0
 11
37.515776
 21
124.638453
 31
0.0
  0
LINE
  5
996D
330
9942
100
AcDbEntity
  8
1
  6
Continuous
100
AcDbLine
 10
38.515776
 20
124.638453
 30
0.0
 11
40.11577599999998
 21
124.638453
 31
0.0
  0
LINE
  5
996E
330
9942
100
AcDbEntity
  8
4
  6
CENTER
100
AcDbLine
 10
172.215876
 20
131.552482
 30
0.0
 11
172.215876
 21
125.4121129999999
 31
0.0
  0
LINE
  5
996F
330
9942
100
AcDbEntity
  8
1
  6
Continuous
100
AcDbLine
 10
298.7158759999999
 20
165.4884529999999
 30
0.0
 11
297.1158759999998
 21
165.4884529999999
 31
0.0
  0
LINE
  5
9970
330
9942
100
AcDbEntity
  8
1
  6
Continuous
100
AcDbLine
 10
296.6158759999999
 20
156.0688599999998
 30
0.0
 11
294.2158759999998
 21
156.0688599999998
 31
0.0
  0
LINE
  5
9971
330
9942
100
AcDbEntity
  8
1
  6
Continuous
100
AcDbLine
 10
298.7158759999999
 20
165.4884529999999
 30
0.0
 11
298.7158759999999
 21
158.1688599999999
 31
0.0
  0
LINE
  5
9972
330
9942
100
AcDbEntity
  8
1
  6
Continuous
100
AcDbLine
 10
297.1158759999998
 20
165.4884529999999
 30
0.0
 11
297.1158759999998
 21
158.1688599999999
 31
0.0
  0
LINE
  5
9973
330
9942
100
AcDbEntity
  8
1
  6
Continuous
100
AcDbLine
 10
296.6158759999999
 20
157.6688599999999
 30
0.0
 11
294.2158759999998
 21
157.6688599999999
 31
0.0
  0
LINE
  5
9974
330
9942
100
AcDbEntity
  8
1
  6
Continuous
100
AcDbLine
 10
293.7158759999999
 20
155.56886
 30
0.0
 11
293.7158759999999
 21
150.603134
 31
0.0
  0
LINE
  5
9975
330
9942
100
AcDbEntity
  8
1
  6
Continuous
100
AcDbLine
 10
293.7158759999999
 20
134.0744629999998
 30
0.0
 11
292.1158759999999
 21
134.0744629999998
 31
0.0
  0
LINE
  5
9976
330
9942
100
AcDbEntity
  8
1
  6
Continuous
100
AcDbLine
 10
292.1158759999999
 20
155.56886
 30
0.0
 11
292.1158759999999
 21
150.357767
 31
0.0
  0
LINE
  5
9977
330
9942
100
AcDbEntity
  8
1
  6
Continuous
100
AcDbLine
 10
295.3158759999999
 20
153.701285
 30
0.0
 11
295.3158759999999
 21
150.848501
 31
0.0
  0
LINE
  5
9978
330
9942
100
AcDbEntity
  8
1
  6
Continuous
100
AcDbLine
 10
298.7158759999999
 20
130.461782
 30
0.0
 11
298.7158759999999
 21
124.1384529999999
 31
0.0
  0
LINE
  5
9979
330
9942
100
AcDbEntity
  8
1
  6
Continuous
100
AcDbLine
 10
298.7158759999999
 20
124.1384529999999
 30
0.0
 11
297.1158759999998
 21
124.1384529999999
 31
0.0
  0
LINE
  5
997A
330
9942
100
AcDbEntity
  8
1
  6
Continuous
100
AcDbLine
 10
297.1158759999998
 20
130.3985419999999
 30
0.0
 11
297.1158759999998
 21
124.1384529999999
 31
0.0
  0
LINE
  5
997B
330
9942
100
AcDbEntity
  8
1
  6
Continuous
100
AcDbLine
 10
296.9291810000001
 20
130.7882079999999
 30
0.0
 11
294.4998759999998
 21
132.741453
 31
0.0
  0
LINE
  5
997C
330
9942
100
AcDbEntity
  8
1
  6
Continuous
100
AcDbLine
 10
295.5028759999999
 20
134.051285
 30
0.0
 11
297.931758
 21
132.09838
 31
0.0
  0
LINE
  5
997D
330
9942
100
AcDbEntity
  8
4
  6
CENTER
100
AcDbLine
 10
320.2158759999999
 20
162.9884529999999
 30
0.0
 11
294.2158759999998
 21
162.9884529999999
 31
0.0
  0
LINE
  5
997E
330
9942
100
AcDbEntity
  8
4
  6
CENTER
100
AcDbLine
 10
307.2158759999999
 20
169.4884529999999
 30
0.0
 11
307.2158759999999
 21
103.638453
 31
0.0
  0
LINE
  5
997F
330
9942
100
AcDbEntity
  8
1
  6
Continuous
100
AcDbLine
 10
299.315876
 20
148.638453
 30
0.0
 11
299.315876
 21
134.6384529999999
 31
0.0
  0
LINE
  5
9980
330
9942
100
AcDbEntity
  8
1
  6
Continuous
100
AcDbLine
 10
315.1158759999999
 20
148.638453
 30
0.0
 11
315.1158759999999
 21
134.6384529999999
 31
0.0
  0
LINE
  5
9981
330
9942
100
AcDbEntity
  8
4
  6
CENTER
100
AcDbLine
 10
320.2158759999999
 20
128.638453
 30
0.0
 11
294.2158759999998
 21
128.638453
 31
0.0
  0
LINE
  5
9982
330
9942
100
AcDbEntity
  8
1
  6
Continuous
100
AcDbLine
 10
315.1158759999999
 20
124.638453
 30
0.0
 11
313.5158759999999
 21
124.638453
 31
0.0
  0
LINE
  5
9983
330
9942
100
AcDbEntity
  8
1
  6
Continuous
100
AcDbLine
 10
313.5158759999999
 20
124.638453
 30
0.0
 11
313.5158759999999
 21
114.938453
 31
0.0
  0
LINE
  5
9984
330
9942
100
AcDbEntity
  8
1
  6
Continuous
100
AcDbLine
 10
300.9158759999999
 20
124.638453
 30
0.0
 11
300.9158759999999
 21
114.938453
 31
0.0
  0
LINE
  5
9985
330
9942
100
AcDbEntity
  8
1
  6
Continuous
100
AcDbLine
 10
315.1158759999999
 20
148.638453
 30
0.0
 11
299.315876
 21
148.638453
 31
0.0
  0
LINE
  5
9986
330
9942
100
AcDbEntity
  8
1
  6
Continuous
100
AcDbLine
 10
300.9158759999999
 20
124.638453
 30
0.0
 11
299.315876
 21
124.638453
 31
0.0
  0
LINE
  5
9987
330
9942
100
AcDbEntity
  8
1
  6
Continuous
100
AcDbLine
 10
315.7158759999999
 20
164.4884529999998
 30
0.0
 11
298.7158759999999
 21
164.4884529999998
 31
0.0
  0
LINE
  5
9988
330
9942
100
AcDbEntity
  8
1
  6
Continuous
100
AcDbLine
 10
315.7158759999999
 20
161.4884529999999
 30
0.0
 11
298.7158759999999
 21
161.4884529999999
 31
0.0
  0
LINE
  5
9989
330
9942
100
AcDbEntity
  8
1
  6
Continuous
100
AcDbLine
 10
296.2158759999999
 20
163.9884529999999
 30
0.0
 11
296.2158759999999
 21
161.988453
 31
0.0
  0
LINE
  5
998A
330
9942
100
AcDbEntity
  8
1
  6
Continuous
100
AcDbLine
 10
318.215876
 20
163.9884529999999
 30
0.0
 11
318.215876
 21
161.988453
 31
0.0
  0
LINE
  5
998B
330
9942
100
AcDbEntity
  8
1
  6
Continuous
100
AcDbLine
 10
296.2158759999999
 20
129.638453
 30
0.0
 11
296.2158759999999
 21
127.638453
 31
0.0
  0
LINE
  5
998C
330
9942
100
AcDbEntity
  8
1
  6
Continuous
100
AcDbLine
 10
318.215876
 20
129.638453
 30
0.0
 11
318.215876
 21
127.638453
 31
0.0
  0
LINE
  5
998D
330
9942
100
AcDbEntity
  8
1
  6
Continuous
100
AcDbLine
 10
318.215876
 20
163.9884529999999
 30
0.0
 11
317.315876
 21
163.9884529999999
 31
0.0
  0
LINE
  5
998E
330
9942
100
AcDbEntity
  8
1
  6
Continuous
100
AcDbLine
 10
318.215876
 20
161.988453
 30
0.0
 11
317.315876
 21
161.988453
 31
0.0
  0
LINE
  5
998F
330
9942
100
AcDbEntity
  8
1
  6
Continuous
100
AcDbLine
 10
318.215876
 20
127.638453
 30
0.0
 11
317.315876
 21
127.638453
 31
0.0
  0
LINE
  5
9990
330
9942
100
AcDbEntity
  8
1
  6
Continuous
100
AcDbLine
 10
318.215876
 20
129.638453
 30
0.0
 11
317.315876
 21
129.638453
 31
0.0
  0
LINE
  5
9991
330
9942
100
AcDbEntity
  8
1
  6
Continuous
100
AcDbLine
 10
297.1158759999998
 20
163.9884529999999
 30
0.0
 11
296.2158759999999
 21
163.9884529999999
 31
0.0
  0
LINE
  5
9992
330
9942
100
AcDbEntity
  8
1
  6
Continuous
100
AcDbLine
 10
297.1158759999998
 20
161.988453
 30
0.0
 11
296.2158759999999
 21
161.988453
 31
0.0
  0
LINE
  5
9993
330
9942
100
AcDbEntity
  8
1
  6
Continuous
100
AcDbLine
 10
297.1158759999998
 20
129.638453
 30
0.0
 11
296.2158759999999
 21
129.638453
 31
0.0
  0
LINE
  5
9994
330
9942
100
AcDbEntity
  8
1
  6
Continuous
100
AcDbLine
 10
297.1158759999998
 20
127.638453
 30
0.0
 11
296.2158759999999
 21
127.638453
 31
0.0
  0
LINE
  5
9995
330
9942
100
AcDbEntity
  8
1
  6
Continuous
100
AcDbLine
 10
315.7158759999999
 20
130.1384529999999
 30
0.0
 11
315.1158759999999
 21
130.1384529999999
 31
0.0
  0
LINE
  5
9996
330
9942
100
AcDbEntity
  8
1
  6
Continuous
100
AcDbLine
 10
315.7158759999999
 20
127.1384529999999
 30
0.0
 11
315.1158759999999
 21
127.1384529999999
 31
0.0
  0
LINE
  5
9997
330
9942
100
AcDbEntity
  8
1
  6
Continuous
100
AcDbLine
 10
299.315876
 20
130.1384529999999
 30
0.0
 11
298.7158759999999
 21
130.1384529999999
 31
0.0
  0
LINE
  5
9998
330
9942
100
AcDbEntity
  8
1
  6
Continuous
100
AcDbLine
 10
299.315876
 20
127.1384529999999
 30
0.0
 11
298.7158759999999
 21
127.1384529999999
 31
0.0
  0
LINE
  5
9999
330
9942
100
AcDbEntity
  8
1
  6
Continuous
100
AcDbLine
 10
313.5158759999999
 20
146.638453
 30
0.0
 11
313.5158759999999
 21
134.6384529999999
 31
0.0
  0
LINE
  5
999A
330
9942
100
AcDbEntity
  8
1
  6
Continuous
100
AcDbLine
 10
300.9158759999999
 20
146.638453
 30
0.0
 11
300.9158759999999
 21
134.6384529999999
 31
0.0
  0
LINE
  5
999B
330
9942
100
AcDbEntity
  8
1
  6
Continuous
100
AcDbLine
 10
315.1158759999999
 20
146.638453
 30
0.0
 11
299.315876
 21
146.638453
 31
0.0
  0
LINE
  5
999C
330
9942
100
AcDbEntity
  8
1
  6
Continuous
100
AcDbLine
 10
315.2158759999999
 20
145.638453
 30
0.0
 11
315.1158759999999
 21
145.638453
 31
0.0
  0
LINE
  5
999D
330
9942
100
AcDbEntity
  8
1
  6
Continuous
100
AcDbLine
 10
315.1158759999999
 20
131.1384529999999
 30
0.0
 11
313.5158759999999
 21
131.1384529999999
 31
0.0
  0
LINE
  5
999E
330
9942
100
AcDbEntity
  8
1
  6
Continuous
100
AcDbLine
 10
300.9158759999999
 20
131.1384529999999
 30
0.0
 11
299.315876
 21
131.1384529999999
 31
0.0
  0
LINE
  5
999F
330
9942
100
AcDbEntity
  8
1
  6
Continuous
100
AcDbLine
 10
315.2158759999999
 20
145.638453
 30
0.0
 11
315.2158759999999
 21
142.6384529999999
 31
0.0
  0
LINE
  5
99A0
330
9942
100
AcDbEntity
  8
1
  6
Continuous
100
AcDbLine
 10
299.2158759999999
 20
145.638453
 30
0.0
 11
299.2158759999999
 21
142.6384529999999
 31
0.0
  0
LINE
  5
99A1
330
9942
100
AcDbEntity
  8
1
  6
Continuous
100
AcDbLine
 10
315.2158759999999
 20
142.6384529999999
 30
0.0
 11
315.1158759999999
 21
142.6384529999999
 31
0.0
  0
LINE
  5
99A2
330
9942
100
AcDbEntity
  8
1
  6
Continuous
100
AcDbLine
 10
299.315876
 20
145.638453
 30
0.0
 11
299.2158759999999
 21
145.638453
 31
0.0
  0
LINE
  5
99A3
330
9942
100
AcDbEntity
  8
1
  6
Continuous
100
AcDbLine
 10
299.315876
 20
142.6384529999999
 30
0.0
 11
299.2158759999999
 21
142.6384529999999
 31
0.0
  0
LINE
  5
99A4
330
9942
100
AcDbEntity
  8
1
  6
Continuous
100
AcDbLine
 10
313.5158759999999
 20
145.638453
 30
0.0
 11
300.9158759999999
 21
145.638453
 31
0.0
  0
LINE
  5
99A5
330
9942
100
AcDbEntity
  8
1
  6
Continuous
100
AcDbLine
 10
313.5158759999999
 20
142.6384529999999
 30
0.0
 11
312.7158759999999
 21
142.6384529999999
 31
0.0
  0
LINE
  5
99A6
330
9942
100
AcDbEntity
  8
1
  6
Continuous
100
AcDbLine
 10
301.715876
 20
142.6384529999999
 30
0.0
 11
301.715876
 21
134.6384529999999
 31
0.0
  0
LINE
  5
99A7
330
9942
100
AcDbEntity
  8
1
  6
Continuous
100
AcDbLine
 10
312.7158759999999
 20
142.6384529999999
 30
0.0
 11
312.7158759999999
 21
134.6384529999999
 31
0.0
  0
LINE
  5
99A8
330
9942
100
AcDbEntity
  8
1
  6
Continuous
100
AcDbLine
 10
299.2158759999999
 20
134.6384529999999
 30
0.0
 11
299.2158759999999
 21
131.638453
 31
0.0
  0
LINE
  5
99A9
330
9942
100
AcDbEntity
  8
1
  6
Continuous
100
AcDbLine
 10
315.2158759999999
 20
134.6384529999999
 30
0.0
 11
315.2158759999999
 21
131.638453
 31
0.0
  0
LINE
  5
99AA
330
9942
100
AcDbEntity
  8
1
  6
Continuous
100
AcDbLine
 10
312.7158759999999
 20
131.638453
 30
0.0
 11
315.2158759999999
 21
131.638453
 31
0.0
  0
LINE
  5
99AB
330
9942
100
AcDbEntity
  8
1
  6
Continuous
100
AcDbLine
 10
312.7158759999999
 20
134.6384529999999
 30
0.0
 11
315.2158759999999
 21
134.6384529999999
 31
0.0
  0
LINE
  5
99AC
330
9942
100
AcDbEntity
  8
1
  6
Continuous
100
AcDbLine
 10
299.2158759999999
 20
134.6384529999999
 30
0.0
 11
301.715876
 21
134.6384529999999
 31
0.0
  0
LINE
  5
99AD
330
9942
100
AcDbEntity
  8
1
  6
Continuous
100
AcDbLine
 10
299.2158759999999
 20
131.638453
 30
0.0
 11
301.715876
 21
131.638453
 31
0.0
  0
LINE
  5
99AE
330
9942
100
AcDbEntity
  8
1
  6
Continuous
100
AcDbLine
 10
299.315876
 20
131.638453
 30
0.0
 11
299.315876
 21
124.638453
 31
0.0
  0
LINE
  5
99AF
330
9942
100
AcDbEntity
  8
1
  6
Continuous
100
AcDbLine
 10
300.9158759999999
 20
131.638453
 30
0.0
 11
300.9158759999999
 21
124.638453
 31
0.0
  0
LINE
  5
99B0
330
9942
100
AcDbEntity
  8
1
  6
Continuous
100
AcDbLine
 10
312.7158759999999
 20
131.638453
 30
0.0
 11
312.7158759999999
 21
115.6384529999999
 31
0.0
  0
LINE
  5
99B1
330
9942
100
AcDbEntity
  8
1
  6
Continuous
100
AcDbLine
 10
313.5158759999999
 20
131.638453
 30
0.0
 11
313.5158759999999
 21
124.638453
 31
0.0
  0
LINE
  5
99B2
330
9942
100
AcDbEntity
  8
1
  6
Continuous
100
AcDbLine
 10
315.1158759999999
 20
131.638453
 30
0.0
 11
315.1158759999999
 21
124.638453
 31
0.0
  0
LINE
  5
99B3
330
9942
100
AcDbEntity
  8
1
  6
Continuous
100
AcDbLine
 10
301.715876
 20
131.638453
 30
0.0
 11
301.715876
 21
115.6384529999999
 31
0.0
  0
LINE
  5
99B4
330
9942
100
AcDbEntity
  8
1
  6
Continuous
100
AcDbLine
 10
301.715876
 20
142.6384529999999
 30
0.0
 11
300.9158759999999
 21
142.6384529999999
 31
0.0
  0
LINE
  5
99B5
330
9942
100
AcDbEntity
  8
1
  6
Continuous
100
AcDbLine
 10
310.7158759999999
 20
141.638453
 30
0.0
 11
310.7158759999999
 21
135.6384529999999
 31
0.0
  0
LINE
  5
99B6
330
9942
100
AcDbEntity
  8
1
  6
Continuous
100
AcDbLine
 10
308.7158759999999
 20
141.638453
 30
0.0
 11
308.7158759999999
 21
135.6384529999999
 31
0.0
  0
LINE
  5
99B7
330
9942
100
AcDbEntity
  8
1
  6
Continuous
100
AcDbLine
 10
303.715876
 20
141.638453
 30
0.0
 11
303.715876
 21
135.6384529999999
 31
0.0
  0
LINE
  5
99B8
330
9942
100
AcDbEntity
  8
1
  6
Continuous
100
AcDbLine
 10
305.715876
 20
141.638453
 30
0.0
 11
305.715876
 21
135.6384529999999
 31
0.0
  0
LINE
  5
99B9
330
9942
100
AcDbEntity
  8
4
  6
CENTER
100
AcDbLine
 10
303.315876
 20
127.1384529999999
 30
0.0
 11
311.1158759999999
 21
127.1384529999999
 31
0.0
  0
LINE
  5
99BA
330
9942
100
AcDbEntity
  8
4
  6
CENTER
100
AcDbLine
 10
303.315876
 20
115.6384529999999
 30
0.0
 11
311.1158759999999
 21
115.6384529999999
 31
0.0
  0
LINE
  5
99BB
330
9942
100
AcDbEntity
  8
1
  6
Continuous
100
AcDbLine
 10
175.1298889999999
 20
157.070162
 30
0.0
 11
175.03988
 21
150.884952
 31
0.0
  0
LINE
  5
99BC
330
9942
100
AcDbEntity
  8
1
  6
Continuous
100
AcDbLine
 10
170.1380719999999
 20
157.6688599999999
 30
0.0
 11
170.029252
 21
150.191015
 31
0.0
  0
LINE
  5
99BD
330
9942
100
AcDbEntity
  8
1
  6
Continuous
100
AcDbLine
 10
167.794506
 20
134.0744629999998
 30
0.0
 11
176.793554
 21
133.943506
 31
0.0
  0
LINE
  5
99BE
330
9942
100
AcDbEntity
  8
1
  6
Continuous
100
AcDbLine
 10
168.0801229999999
 20
153.701285
 30
0.0
 11
170.079911
 21
153.672184
 31
0.0
  0
LINE
  5
99BF
330
9942
100
AcDbEntity
  8
1
  6
Continuous
100
AcDbLine
 10
167.8308829999998
 20
136.5741979999999
 30
0.0
 11
169.8306719999999
 21
136.5450969999999
 31
0.0
  0
LINE
  5
99C0
330
9942
100
AcDbEntity
  8
1
  6
Continuous
100
AcDbLine
 10
168.0801229999999
 20
153.701285
 30
0.0
 11
168.043746
 21
151.2015499999999
 31
0.0
  0
LINE
  5
99C1
330
9942
100
AcDbEntity
  8
1
  6
Continuous
100
AcDbLine
 10
177.07917
 20
153.5703279999999
 30
0.0
 11
177.0427929999999
 21
151.070593
 31
0.0
  0
LINE
  5
99C2
330
9942
100
AcDbEntity
  8
1
  6
Continuous
100
AcDbLine
 10
167.8308829999998
 20
136.5741979999999
 30
0.0
 11
167.794506
 21
134.0744629999998
 31
0.0
  0
LINE
  5
99C3
330
9942
100
AcDbEntity
  8
1
  6
Continuous
100
AcDbLine
 10
176.8299309999999
 20
136.443241
 30
0.0
 11
176.793554
 21
133.943506
 31
0.0
  0
LINE
  5
99C4
330
9942
100
AcDbEntity
  8
1
  6
Continuous
100
AcDbLine
 10
170.1304179999999
 20
157.1429159999999
 30
0.0
 11
175.1298889999999
 21
157.070162
 31
0.0
  0
LINE
  5
99C5
330
9942
100
AcDbEntity
  8
1
  6
Continuous
100
AcDbLine
 10
175.1298889999999
 20
157.070162
 30
0.0
 11
176.353036
 21
162.4319319999999
 31
0.0
  0
LINE
  5
99C6
330
9942
100
AcDbEntity
  8
1
  6
Continuous
100
AcDbLine
 10
170.1380719999999
 20
157.6688599999999
 30
0.0
 11
171.478701
 21
163.5439749999999
 31
0.0
  0
LINE
  5
99C7
330
9942
100
AcDbEntity
  8
1
  6
Continuous
100
AcDbLine
 10
175.079382
 20
153.59943
 30
0.0
 11
177.07917
 21
153.5703279999999
 31
0.0
  0
LINE
  5
99C8
330
9942
100
AcDbEntity
  8
1
  6
Continuous
100
AcDbLine
 10
167.943756
 20
151.2030049999999
 30
0.0
 11
170.043534
 21
151.1724479999998
 31
0.0
  0
LINE
  5
99C9
330
9942
100
AcDbEntity
  8
1
  6
Continuous
100
AcDbLine
 10
169.7939879999998
 20
134.0242639999999
 30
0.0
 11
169.6870389999999
 21
126.6750419999999
 31
0.0
  0
LINE
  5
99CA
330
9942
100
AcDbEntity
  8
1
  6
Continuous
100
AcDbLine
 10
174.7934579999999
 20
133.95151
 30
0.0
 11
174.6865099999999
 21
126.6022879999999
 31
0.0
  0
LINE
  5
99CB
330
9942
100
AcDbEntity
  8
4
  6
CENTER
100
AcDbLine
 10
169.1658759999999
 20
128.638453
 30
0.0
 11
175.2658759999999
 21
128.638453
 31
0.0
  0
LINE
  5
99CC
330
9942
100
AcDbEntity
  8
1
  6
Continuous
100
AcDbLine
 10
176.215876
 20
131.1384529999999
 30
0.0
 11
176.215876
 21
125.1384529999999
 31
0.0
  0
LINE
  5
99CD
330
9942
100
AcDbEntity
  8
1
  6
Continuous
100
AcDbLine
 10
165.215876
 20
124.638453
 30
0.0
 11
170.715876
 21
124.638453
 31
0.0
  0
LINE
  5
99CE
330
9942
100
AcDbEntity
  8
1
  6
Continuous
100
AcDbLine
 10
174.715876
 20
131.1384529999999
 30
0.0
 11
176.215876
 21
131.1384529999999
 31
0.0
  0
LINE
  5
99CF
330
9942
100
AcDbEntity
  8
1
  6
Continuous
100
AcDbLine
 10
165.215876
 20
144.038453
 30
0.0
 11
165.215876
 21
124.638453
 31
0.0
  0
LINE
  5
99D0
330
9942
100
AcDbEntity
  8
1
  6
Continuous
100
AcDbLine
 10
167.162876
 20
142.6384529999999
 30
0.0
 11
168.1438399999999
 21
142.6384529999999
 31
0.0
  0
LINE
  5
99D1
330
9942
100
AcDbEntity
  8
1
  6
Continuous
100
AcDbLine
 10
165.215876
 20
124.638453
 30
0.0
 11
168.2768759999999
 21
118.9604529999999
 31
0.0
  0
LINE
  5
99D2
330
9942
100
AcDbEntity
  8
1
  6
Continuous
100
AcDbLine
 10
167.0338759999999
 20
124.638453
 30
0.0
 11
169.685876
 21
119.7194529999999
 31
0.0
  0
LINE
  5
99D3
330
9942
100
AcDbEntity
  8
1
  6
Continuous
100
AcDbLine
 10
166.715876
 20
109.383453
 30
0.0
 11
168.131876
 21
108.6384529999999
 31
0.0
  0
LINE
  5
99D4
330
9942
100
AcDbEntity
  8
1
  6
Continuous
100
AcDbLine
 10
168.131876
 20
108.6384529999999
 30
0.0
 11
169.706876
 21
111.596453
 31
0.0
  0
LINE
  5
99D5
330
9942
100
AcDbEntity
  8
1
  6
Continuous
100
AcDbLine
 10
166.7188759999999
 20
109.3904529999999
 30
0.0
 11
168.2948759999999
 21
112.348453
 31
0.0
  0
LINE
  5
99D6
330
9942
100
AcDbEntity
  8
1
  6
Continuous
100
AcDbLine
 10
177.0158759999999
 20
134.6384529999999
 30
0.0
 11
177.0158759999999
 21
110.138453
 31
0.0
  0
LINE
  5
99D7
330
9942
100
AcDbEntity
  8
1
  6
Continuous
100
AcDbLine
 10
174.715876
 20
110.138453
 30
0.0
 11
177.0158759999999
 21
110.138453
 31
0.0
  0
LINE
  5
99D8
330
9942
100
AcDbEntity
  8
1
  6
Continuous
100
AcDbLine
 10
174.715876
 20
124.638453
 30
0.0
 11
174.715876
 21
110.138453
 31
0.0
  0
LINE
  5
99D9
330
9942
100
AcDbEntity
  8
1
  6
Continuous
100
AcDbLine
 10
167.5158759999999
 20
145.638453
 30
0.0
 11
167.5158759999999
 21
142.6384529999999
 31
0.0
  0
LINE
  5
99DA
330
9942
100
AcDbEntity
  8
1
  6
Continuous
100
AcDbLine
 10
167.5158759999999
 20
145.638453
 30
0.0
 11
169.9630009999999
 21
145.638453
 31
0.0
  0
LINE
  5
99DB
330
9942
100
AcDbEntity
  8
1
  6
Continuous
100
AcDbLine
 10
173.7158759999998
 20
124.638453
 30
0.0
 11
175.715876
 21
124.638453
 31
0.0
  0
LINE
  5
99DC
330
9942
100
AcDbEntity
  8
1
  6
Continuous
100
AcDbLine
 10
170.0101149999998
 20
148.875957
 30
0.0
 11
169.9939949999999
 21
147.768271
 31
0.0
  0
LINE
  5
99DD
330
9942
100
AcDbEntity
  8
1
  6
Continuous
100
AcDbLine
 10
175.0207419999999
 20
149.569894
 30
0.0
 11
175.004623
 21
148.462208
 31
0.0
  0
LINE
  5
99DE
330
9942
100
AcDbEntity
  8
1
  6
Continuous
100
AcDbLine
 10
292.1158759999999
 20
136.9273389999999
 30
0.0
 11
292.1158759999999
 21
134.0744629999998
 31
0.0
  0
LINE
  5
99DF
330
9942
100
AcDbEntity
  8
1
  6
Continuous
100
AcDbLine
 10
293.7158759999999
 20
137.1727709999998
 30
0.0
 11
293.7158759999999
 21
134.0744629999998
 31
0.0
  0
LINE
  5
99E0
330
9942
100
AcDbEntity
  8
1
  6
Continuous
100
AcDbLine
 10
295.3158759999999
 20
137.4182039999998
 30
0.0
 11
295.3158759999999
 21
134.4402849999999
 31
0.0
  0
LINE
  5
99E1
330
9942
100
AcDbEntity
  8
4
  6
CENTER
100
AcDbLine
 10
32.21577599999999
 20
243.4384529999999
 30
0.0
 11
32.21577599999999
 21
261.2384529999999
 31
0.0
  0
LINE
  5
99E2
330
9942
100
AcDbEntity
  8
4
  6
CENTER
100
AcDbLine
 10
19.215776
 20
255.1384529999999
 30
0.0
 11
45.21577599999999
 21
255.1384529999999
 31
0.0
  0
LINE
  5
99E3
330
9942
100
AcDbEntity
  8
1
  6
Continuous
100
AcDbLine
 10
40.715776
 20
250.9384529999999
 30
0.0
 11
40.715776
 21
257.6384529999999
 31
0.0
  0
LINE
  5
99E4
330
9942
100
AcDbEntity
  8
1
  6
Continuous
100
AcDbLine
 10
23.715776
 20
250.9384529999999
 30
0.0
 11
23.715776
 21
257.6384529999999
 31
0.0
  0
LINE
  5
99E5
330
9942
100
AcDbEntity
  8
1
  6
Continuous
100
AcDbLine
 10
22.115776
 20
250.9384529999999
 30
0.0
 11
22.115776
 21
257.6384529999999
 31
0.0
  0
LINE
  5
99E6
330
9942
100
AcDbEntity
  8
1
  6
Continuous
100
AcDbLine
 10
42.315776
 20
250.9384529999999
 30
0.0
 11
42.315776
 21
257.6384529999999
 31
0.0
  0
LINE
  5
99E7
330
9942
100
AcDbEntity
  8
1
  6
Continuous
100
AcDbLine
 10
43.215776
 20
254.1384529999999
 30
0.0
 11
43.215776
 21
256.1384529999999
 31
0.0
  0
LINE
  5
99E8
330
9942
100
AcDbEntity
  8
1
  6
Continuous
100
AcDbLine
 10
21.215776
 20
254.1384529999999
 30
0.0
 11
21.215776
 21
256.1384529999999
 31
0.0
  0
LINE
  5
99E9
330
9942
100
AcDbEntity
  8
1
  6
Continuous
100
AcDbLine
 10
23.715776
 20
256.6384529999999
 30
0.0
 11
40.715776
 21
256.6384529999999
 31
0.0
  0
LINE
  5
99EA
330
9942
100
AcDbEntity
  8
1
  6
Continuous
100
AcDbLine
 10
23.715776
 20
253.6384529999998
 30
0.0
 11
40.715776
 21
253.6384529999998
 31
0.0
  0
LINE
  5
99EB
330
9942
100
AcDbEntity
  8
1
  6
Continuous
100
AcDbLine
 10
21.215776
 20
256.1384529999999
 30
0.0
 11
22.115776
 21
256.1384529999999
 31
0.0
  0
LINE
  5
99EC
330
9942
100
AcDbEntity
  8
1
  6
Continuous
100
AcDbLine
 10
21.215776
 20
254.1384529999999
 30
0.0
 11
22.115776
 21
254.1384529999999
 31
0.0
  0
LINE
  5
99ED
330
9942
100
AcDbEntity
  8
1
  6
Continuous
100
AcDbLine
 10
42.315776
 20
254.1384529999999
 30
0.0
 11
43.215776
 21
254.1384529999999
 31
0.0
  0
LINE
  5
99EE
330
9942
100
AcDbEntity
  8
1
  6
Continuous
100
AcDbLine
 10
42.315776
 20
256.1384529999999
 30
0.0
 11
43.215776
 21
256.1384529999999
 31
0.0
  0
LINE
  5
99EF
330
9942
100
AcDbEntity
  8
1
  6
Continuous
100
AcDbLine
 10
25.915776
 20
246.4384529999999
 30
0.0
 11
38.515776
 21
246.4384529999999
 31
0.0
  0
LINE
  5
99F0
330
9942
100
AcDbEntity
  8
1
  6
Continuous
100
AcDbLine
 10
24.215776
 20
258.238453
 30
0.0
 11
40.21577599999999
 21
258.238453
 31
0.0
  0
LINE
  5
99F1
330
9942
100
AcDbEntity
  8
1
  6
Continuous
100
AcDbLine
 10
24.315776
 20
248.0384529999998
 30
0.0
 11
24.315776
 21
253.6384529999998
 31
0.0
  0
LINE
  5
99F2
330
9942
100
AcDbEntity
  8
1
  6
Continuous
100
AcDbLine
 10
40.11577599999998
 20
248.0384529999998
 30
0.0
 11
40.11577599999998
 21
253.6384529999998
 31
0.0
  0
LINE
  5
99F3
330
9942
100
AcDbEntity
  8
1
  6
Continuous
100
AcDbLine
 10
24.215776
 20
256.6384529999999
 30
0.0
 11
24.215776
 21
258.238453
 31
0.0
  0
LINE
  5
99F4
330
9942
100
AcDbEntity
  8
1
  6
Continuous
100
AcDbLine
 10
40.21577599999999
 20
256.6384529999999
 30
0.0
 11
40.21577599999999
 21
258.238453
 31
0.0
  0
LINE
  5
99F5
330
9942
100
AcDbEntity
  8
1
  6
Continuous
100
AcDbLine
 10
24.315776
 20
252.4384529999999
 30
0.0
 11
40.11577599999998
 21
252.4384529999999
 31
0.0
  0
LINE
  5
99F6
330
9942
100
AcDbEntity
  8
1
  6
Continuous
100
AcDbLine
 10
24.215776
 20
248.7384529999999
 30
0.0
 11
24.215776
 21
251.0384529999999
 31
0.0
  0
LINE
  5
99F7
330
9942
100
AcDbEntity
  8
1
  6
Continuous
100
AcDbLine
 10
40.21577599999999
 20
248.7384529999999
 30
0.0
 11
40.21577599999999
 21
251.0384529999999
 31
0.0
  0
LINE
  5
99F8
330
9942
100
AcDbEntity
  8
1
  6
Continuous
100
AcDbLine
 10
24.215776
 20
248.7384529999999
 30
0.0
 11
24.315776
 21
248.7384529999999
 31
0.0
  0
LINE
  5
99F9
330
9942
100
AcDbEntity
  8
1
  6
Continuous
100
AcDbLine
 10
24.215776
 20
251.0384529999999
 30
0.0
 11
24.315776
 21
251.0384529999999
 31
0.0
  0
LINE
  5
99FA
330
9942
100
AcDbEntity
  8
1
  6
Continuous
100
AcDbLine
 10
40.11577599999998
 20
248.7384529999999
 30
0.0
 11
40.21577599999999
 21
248.7384529999999
 31
0.0
  0
LINE
  5
99FB
330
9942
100
AcDbEntity
  8
1
  6
Continuous
100
AcDbLine
 10
40.11577599999998
 20
251.0384529999999
 30
0.0
 11
40.21577599999999
 21
251.0384529999999
 31
0.0
  0
LINE
  5
99FC
330
9942
100
AcDbEntity
  8
1
  6
Continuous
100
AcDbLine
 10
17.115776
 20
250.9384529999999
 30
0.0
 11
23.715776
 21
250.9384529999999
 31
0.0
  0
LINE
  5
99FD
330
9942
100
AcDbEntity
  8
1
  6
Continuous
100
AcDbLine
 10
17.115776
 20
255.9384529999999
 30
0.0
 11
21.215776
 21
255.9384529999999
 31
0.0
  0
LINE
  5
99FE
330
9942
100
AcDbEntity
  8
1
  6
Continuous
100
AcDbLine
 10
17.115776
 20
248.9384529999999
 30
0.0
 11
17.761776
 21
248.9384529999999
 31
0.0
  0
LINE
  5
99FF
330
9942
100
AcDbEntity
  8
1
  6
Continuous
100
AcDbLine
 10
17.115776
 20
257.938453
 30
0.0
 11
17.761776
 21
257.938453
 31
0.0
  0
LINE
  5
9A00
330
9942
100
AcDbEntity
  8
1
  6
Continuous
100
AcDbLine
 10
17.115776
 20
248.9384529999999
 30
0.0
 11
17.115776
 21
249.1254529999999
 31
0.0
  0
LINE
  5
9A01
330
9942
100
AcDbEntity
  8
1
  6
Continuous
100
AcDbLine
 10
18.715776
 20
248.9384529999999
 30
0.0
 11
18.715776
 21
250.9384529999999
 31
0.0
  0
LINE
  5
9A02
330
9942
100
AcDbEntity
  8
1
  6
Continuous
100
AcDbLine
 10
20.31577599999998
 20
248.9384529999999
 30
0.0
 11
20.31577599999998
 21
250.9384529999999
 31
0.0
  0
LINE
  5
9A03
330
9942
100
AcDbEntity
  8
1
  6
Continuous
100
AcDbLine
 10
18.715776
 20
255.9384529999999
 30
0.0
 11
18.715776
 21
257.938453
 31
0.0
  0
LINE
  5
9A04
330
9942
100
AcDbEntity
  8
1
  6
Continuous
100
AcDbLine
 10
20.31577599999998
 20
255.9384529999999
 30
0.0
 11
20.31577599999998
 21
257.938453
 31
0.0
  0
LINE
  5
9A05
330
9942
100
AcDbEntity
  8
1
  6
Continuous
100
AcDbLine
 10
47.315776
 20
248.9384529999999
 30
0.0
 11
47.315776
 21
249.1254529999999
 31
0.0
  0
LINE
  5
9A06
330
9942
100
AcDbEntity
  8
1
  6
Continuous
100
AcDbLine
 10
47.315776
 20
248.9384529999999
 30
0.0
 11
46.669676
 21
248.9384529999999
 31
0.0
  0
LINE
  5
9A07
330
9942
100
AcDbEntity
  8
1
  6
Continuous
100
AcDbLine
 10
45.715776
 20
248.9384529999999
 30
0.0
 11
45.715776
 21
250.9384529999999
 31
0.0
  0
LINE
  5
9A08
330
9942
100
AcDbEntity
  8
1
  6
Continuous
100
AcDbLine
 10
44.115776
 20
248.9384529999999
 30
0.0
 11
44.115776
 21
250.9384529999999
 31
0.0
  0
LINE
  5
9A09
330
9942
100
AcDbEntity
  8
1
  6
Continuous
100
AcDbLine
 10
47.315776
 20
250.9384529999999
 30
0.0
 11
40.715776
 21
250.9384529999999
 31
0.0
  0
LINE
  5
9A0A
330
9942
100
AcDbEntity
  8
1
  6
Continuous
100
AcDbLine
 10
47.315776
 20
257.938453
 30
0.0
 11
46.669676
 21
257.938453
 31
0.0
  0
LINE
  5
9A0B
330
9942
100
AcDbEntity
  8
1
  6
Continuous
100
AcDbLine
 10
47.315776
 20
255.9384529999999
 30
0.0
 11
43.215776
 21
255.9384529999999
 31
0.0
  0
LINE
  5
9A0C
330
9942
100
AcDbEntity
  8
1
  6
Continuous
100
AcDbLine
 10
45.715776
 20
255.9384529999999
 30
0.0
 11
45.715776
 21
257.938453
 31
0.0
  0
LINE
  5
9A0D
330
9942
100
AcDbEntity
  8
1
  6
Continuous
100
AcDbLine
 10
44.115776
 20
255.9384529999999
 30
0.0
 11
44.115776
 21
257.938453
 31
0.0
  0
LINE
  5
9A0E
330
9942
100
AcDbEntity
  8
4
  6
CENTER
100
AcDbLine
 10
11.115776
 20
253.438453
 30
0.0
 11
53.315876
 21
253.438453
 31
0.0
  0
LINE
  5
9A0F
330
9942
100
AcDbEntity
  8
1
  6
Continuous
100
AcDbLine
 10
23.715776
 20
251.9384529999999
 30
0.0
 11
24.315776
 21
251.9384529999999
 31
0.0
  0
LINE
  5
9A10
330
9942
100
AcDbEntity
  8
1
  6
Continuous
100
AcDbLine
 10
40.11577599999998
 20
251.9384529999999
 30
0.0
 11
40.715776
 21
251.9384529999999
 31
0.0
  0
LINE
  5
9A11
330
9942
100
AcDbEntity
  8
1
  6
Continuous
100
AcDbLine
 10
17.115776
 20
250.5514529999999
 30
0.0
 11
17.115776
 21
256.3244529999999
 31
0.0
  0
LINE
  5
9A12
330
9942
100
AcDbEntity
  8
1
  6
Continuous
100
AcDbLine
 10
17.115776
 20
257.750453
 30
0.0
 11
17.115776
 21
257.938453
 31
0.0
  0
LINE
  5
9A13
330
9942
100
AcDbEntity
  8
1
  6
Continuous
100
AcDbLine
 10
18.715776
 20
248.9384529999999
 30
0.0
 11
20.31577599999998
 21
248.9384529999999
 31
0.0
  0
LINE
  5
9A14
330
9942
100
AcDbEntity
  8
1
  6
Continuous
100
AcDbLine
 10
18.715776
 20
257.938453
 30
0.0
 11
20.31577599999998
 21
257.938453
 31
0.0
  0
LINE
  5
9A15
330
9942
100
AcDbEntity
  8
1
  6
Continuous
100
AcDbLine
 10
47.315776
 20
250.5514529999999
 30
0.0
 11
47.315776
 21
256.3244529999999
 31
0.0
  0
LINE
  5
9A16
330
9942
100
AcDbEntity
  8
1
  6
Continuous
100
AcDbLine
 10
47.315776
 20
257.750453
 30
0.0
 11
47.315776
 21
257.938453
 31
0.0
  0
LINE
  5
9A17
330
9942
100
AcDbEntity
  8
1
  6
Continuous
100
AcDbLine
 10
45.715776
 20
257.938453
 30
0.0
 11
44.115776
 21
257.938453
 31
0.0
  0
LINE
  5
9A18
330
9942
100
AcDbEntity
  8
1
  6
Continuous
100
AcDbLine
 10
45.715776
 20
248.9384529999999
 30
0.0
 11
44.115776
 21
248.9384529999999
 31
0.0
  0
LINE
  5
9A19
330
9942
100
AcDbEntity
  8
4
  6
CENTER
100
AcDbLine
 10
32.21577599999999
 20
59.438153
 30
0.0
 11
32.21577599999999
 21
41.638153
 31
0.0
  0
LINE
  5
9A1A
330
9942
100
AcDbEntity
  8
1
  6
Continuous
100
AcDbLine
 10
40.715776
 20
51.938153
 30
0.0
 11
40.715776
 21
45.23815299999998
 31
0.0
  0
LINE
  5
9A1B
330
9942
100
AcDbEntity
  8
1
  6
Continuous
100
AcDbLine
 10
23.715776
 20
51.938153
 30
0.0
 11
23.715776
 21
45.23815299999998
 31
0.0
  0
LINE
  5
9A1C
330
9942
100
AcDbEntity
  8
1
  6
Continuous
100
AcDbLine
 10
22.115776
 20
51.938153
 30
0.0
 11
22.115776
 21
46.93815299999999
 31
0.0
  0
LINE
  5
9A1D
330
9942
100
AcDbEntity
  8
1
  6
Continuous
100
AcDbLine
 10
42.315776
 20
51.938153
 30
0.0
 11
42.315776
 21
46.93815299999999
 31
0.0
  0
LINE
  5
9A1E
330
9942
100
AcDbEntity
  8
1
  6
Continuous
100
AcDbLine
 10
43.215776
 20
50.438153
 30
0.0
 11
43.215776
 21
48.438153
 31
0.0
  0
LINE
  5
9A1F
330
9942
100
AcDbEntity
  8
1
  6
Continuous
100
AcDbLine
 10
21.215776
 20
50.438153
 30
0.0
 11
21.215776
 21
48.438153
 31
0.0
  0
LINE
  5
9A20
330
9942
100
AcDbEntity
  8
1
  6
Continuous
100
AcDbLine
 10
25.915776
 20
56.43815299999999
 30
0.0
 11
38.515776
 21
56.43815299999999
 31
0.0
  0
LINE
  5
9A21
330
9942
100
AcDbEntity
  8
1
  6
Continuous
100
AcDbLine
 10
24.215776
 20
44.638153
 30
0.0
 11
40.21577599999999
 21
44.638153
 31
0.0
  0
LINE
  5
9A22
330
9942
100
AcDbEntity
  8
1
  6
Continuous
100
AcDbLine
 10
24.315776
 20
45.438153
 30
0.0
 11
25.915776
 21
45.438153
 31
0.0
  0
LINE
  5
9A23
330
9942
100
AcDbEntity
  8
1
  6
Continuous
100
AcDbLine
 10
24.315776
 20
54.83815299999999
 30
0.0
 11
24.315776
 21
45.438153
 31
0.0
  0
LINE
  5
9A24
330
9942
100
AcDbEntity
  8
1
  6
Continuous
100
AcDbLine
 10
40.11577599999998
 20
54.83815299999999
 30
0.0
 11
40.11577599999998
 21
45.438153
 31
0.0
  0
LINE
  5
9A25
330
9942
100
AcDbEntity
  8
1
  6
Continuous
100
AcDbLine
 10
38.515776
 20
45.438153
 30
0.0
 11
40.11577599999998
 21
45.438153
 31
0.0
  0
LINE
  5
9A26
330
9942
100
AcDbEntity
  8
1
  6
Continuous
100
AcDbLine
 10
24.215776
 20
46.93815299999999
 30
0.0
 11
24.215776
 21
44.638153
 31
0.0
  0
LINE
  5
9A27
330
9942
100
AcDbEntity
  8
1
  6
Continuous
100
AcDbLine
 10
40.21577599999999
 20
46.93815299999999
 30
0.0
 11
40.21577599999999
 21
44.638153
 31
0.0
  0
LINE
  5
9A28
330
9942
100
AcDbEntity
  8
1
  6
Continuous
100
AcDbLine
 10
24.215776
 20
54.138153
 30
0.0
 11
24.215776
 21
51.838053
 31
0.0
  0
LINE
  5
9A29
330
9942
100
AcDbEntity
  8
1
  6
Continuous
100
AcDbLine
 10
40.21577599999999
 20
54.138153
 30
0.0
 11
40.21577599999999
 21
51.838053
 31
0.0
  0
LINE
  5
9A2A
330
9942
100
AcDbEntity
  8
1
  6
Continuous
100
AcDbLine
 10
24.215776
 20
54.138153
 30
0.0
 11
24.315776
 21
54.138153
 31
0.0
  0
LINE
  5
9A2B
330
9942
100
AcDbEntity
  8
1
  6
Continuous
100
AcDbLine
 10
24.215776
 20
51.838053
 30
0.0
 11
24.315776
 21
51.838053
 31
0.0
  0
LINE
  5
9A2C
330
9942
100
AcDbEntity
  8
1
  6
Continuous
100
AcDbLine
 10
40.11577599999998
 20
54.138153
 30
0.0
 11
40.21577599999999
 21
54.138153
 31
0.0
  0
LINE
  5
9A2D
330
9942
100
AcDbEntity
  8
1
  6
Continuous
100
AcDbLine
 10
40.11577599999998
 20
51.838053
 30
0.0
 11
40.21577599999999
 21
51.838053
 31
0.0
  0
LINE
  5
9A2E
330
9942
100
AcDbEntity
  8
1
  6
Continuous
100
AcDbLine
 10
17.115776
 20
51.938153
 30
0.0
 11
23.715776
 21
51.938153
 31
0.0
  0
LINE
  5
9A2F
330
9942
100
AcDbEntity
  8
1
  6
Continuous
100
AcDbLine
 10
17.115776
 20
46.93815299999999
 30
0.0
 11
23.715776
 21
46.93815299999999
 31
0.0
  0
LINE
  5
9A30
330
9942
100
AcDbEntity
  8
1
  6
Continuous
100
AcDbLine
 10
17.115776
 20
53.93815299999999
 30
0.0
 11
18.715776
 21
53.93815299999999
 31
0.0
  0
LINE
  5
9A31
330
9942
100
AcDbEntity
  8
1
  6
Continuous
100
AcDbLine
 10
17.115776
 20
44.938153
 30
0.0
 11
18.715776
 21
44.938153
 31
0.0
  0
LINE
  5
9A32
330
9942
100
AcDbEntity
  8
1
  6
Continuous
100
AcDbLine
 10
18.715776
 20
53.93815299999999
 30
0.0
 11
18.715776
 21
51.938153
 31
0.0
  0
LINE
  5
9A33
330
9942
100
AcDbEntity
  8
1
  6
Continuous
100
AcDbLine
 10
20.31577599999998
 20
53.93815299999999
 30
0.0
 11
20.31577599999998
 21
53.750853
 31
0.0
  0
LINE
  5
9A34
330
9942
100
AcDbEntity
  8
1
  6
Continuous
100
AcDbLine
 10
18.715776
 20
46.93815299999999
 30
0.0
 11
18.715776
 21
44.938153
 31
0.0
  0
LINE
  5
9A35
330
9942
100
AcDbEntity
  8
1
  6
Continuous
100
AcDbLine
 10
20.31577599999998
 20
46.93815299999999
 30
0.0
 11
20.31577599999998
 21
46.55195299999999
 31
0.0
  0
LINE
  5
9A36
330
9942
100
AcDbEntity
  8
1
  6
Continuous
100
AcDbLine
 10
45.715776
 20
53.93815299999999
 30
0.0
 11
45.715776
 21
44.938153
 31
0.0
  0
LINE
  5
9A37
330
9942
100
AcDbEntity
  8
1
  6
Continuous
100
AcDbLine
 10
44.115776
 20
53.93815299999999
 30
0.0
 11
44.115776
 21
53.750853
 31
0.0
  0
LINE
  5
9A38
330
9942
100
AcDbEntity
  8
1
  6
Continuous
100
AcDbLine
 10
45.715776
 20
51.938153
 30
0.0
 11
40.715776
 21
51.938153
 31
0.0
  0
LINE
  5
9A39
330
9942
100
AcDbEntity
  8
1
  6
Continuous
100
AcDbLine
 10
45.715776
 20
46.93815299999999
 30
0.0
 11
40.715776
 21
46.93815299999999
 31
0.0
  0
LINE
  5
9A3A
330
9942
100
AcDbEntity
  8
1
  6
Continuous
100
AcDbLine
 10
44.115776
 20
46.93815299999999
 30
0.0
 11
44.115776
 21
46.55195299999999
 31
0.0
  0
LINE
  5
9A3B
330
9942
100
AcDbEntity
  8
4
  6
CENTER
100
AcDbLine
 10
11.115776
 20
49.438153
 30
0.0
 11
53.315876
 21
49.438153
 31
0.0
  0
LINE
  5
9A3C
330
9942
100
AcDbEntity
  8
1
  6
Continuous
100
AcDbLine
 10
23.715776
 20
50.938153
 30
0.0
 11
24.315776
 21
50.938153
 31
0.0
  0
LINE
  5
9A3D
330
9942
100
AcDbEntity
  8
1
  6
Continuous
100
AcDbLine
 10
17.115776
 20
53.93815299999999
 30
0.0
 11
17.115776
 21
44.938153
 31
0.0
  0
LINE
  5
9A3E
330
9942
100
AcDbEntity
  8
1
  6
Continuous
100
AcDbLine
 10
19.66977599999999
 20
53.93815299999999
 30
0.0
 11
20.31577599999998
 21
53.93815299999999
 31
0.0
  0
LINE
  5
9A3F
330
9942
100
AcDbEntity
  8
1
  6
Continuous
100
AcDbLine
 10
19.66977599999999
 20
44.938153
 30
0.0
 11
20.31577599999998
 21
44.938153
 31
0.0
  0
LINE
  5
9A40
330
9942
100
AcDbEntity
  8
1
  6
Continuous
100
AcDbLine
 10
47.315776
 20
53.93815299999999
 30
0.0
 11
47.315776
 21
44.938153
 31
0.0
  0
LINE
  5
9A41
330
9942
100
AcDbEntity
  8
1
  6
Continuous
100
AcDbLine
 10
47.315776
 20
44.938153
 30
0.0
 11
45.715776
 21
44.938153
 31
0.0
  0
LINE
  5
9A42
330
9942
100
AcDbEntity
  8
1
  6
Continuous
100
AcDbLine
 10
47.315776
 20
53.93815299999999
 30
0.0
 11
45.715776
 21
53.93815299999999
 31
0.0
  0
LINE
  5
9A43
330
9942
100
AcDbEntity
  8
1
  6
Continuous
100
AcDbLine
 10
23.715776
 20
47.938153
 30
0.0
 11
24.315776
 21
47.938153
 31
0.0
  0
LINE
  5
9A44
330
9942
100
AcDbEntity
  8
1
  6
Continuous
100
AcDbLine
 10
42.315776
 20
50.438153
 30
0.0
 11
43.215776
 21
50.438153
 31
0.0
  0
LINE
  5
9A45
330
9942
100
AcDbEntity
  8
1
  6
Continuous
100
AcDbLine
 10
42.315776
 20
48.438153
 30
0.0
 11
43.215776
 21
48.438153
 31
0.0
  0
LINE
  5
9A46
330
9942
100
AcDbEntity
  8
1
  6
Continuous
100
AcDbLine
 10
44.761876
 20
53.93815299999999
 30
0.0
 11
44.115776
 21
53.93815299999999
 31
0.0
  0
LINE
  5
9A47
330
9942
100
AcDbEntity
  8
1
  6
Continuous
100
AcDbLine
 10
44.761876
 20
44.938153
 30
0.0
 11
44.115776
 21
44.938153
 31
0.0
  0
LINE
  5
9A48
330
9942
100
AcDbEntity
  8
1
  6
Continuous
100
AcDbLine
 10
44.115776
 20
52.324253
 30
0.0
 11
44.115776
 21
51.938153
 31
0.0
  0
LINE
  5
9A49
330
9942
100
AcDbEntity
  8
1
  6
Continuous
100
AcDbLine
 10
44.115776
 20
45.12535299999998
 30
0.0
 11
44.115776
 21
44.938153
 31
0.0
  0
LINE
  5
9A4A
330
9942
100
AcDbEntity
  8
1
  6
Continuous
100
AcDbLine
 10
42.315776
 20
46.339753
 30
0.0
 11
42.315776
 21
45.23815299999998
 31
0.0
  0
LINE
  5
9A4B
330
9942
100
AcDbEntity
  8
1
  6
Continuous
100
AcDbLine
 10
21.215776
 20
50.438153
 30
0.0
 11
22.115776
 21
50.438153
 31
0.0
  0
LINE
  5
9A4C
330
9942
100
AcDbEntity
  8
1
  6
Continuous
100
AcDbLine
 10
21.215776
 20
48.438153
 30
0.0
 11
22.115776
 21
48.438153
 31
0.0
  0
LINE
  5
9A4D
330
9942
100
AcDbEntity
  8
1
  6
Continuous
100
AcDbLine
 10
20.31577599999998
 20
52.324253
 30
0.0
 11
20.31577599999998
 21
51.938153
 31
0.0
  0
LINE
  5
9A4E
330
9942
100
AcDbEntity
  8
1
  6
Continuous
100
AcDbLine
 10
20.31577599999998
 20
45.12535299999998
 30
0.0
 11
20.31577599999998
 21
44.938153
 31
0.0
  0
LINE
  5
9A4F
330
9942
100
AcDbEntity
  8
1
  6
Continuous
100
AcDbLine
 10
22.115776
 20
46.339753
 30
0.0
 11
22.115776
 21
45.23815299999998
 31
0.0
  0
LINE
  5
9A50
330
9942
100
AcDbEntity
  8
1
  6
Continuous
100
AcDbLine
 10
24.215776
 20
46.93815299999999
 30
0.0
 11
24.315776
 21
46.93815299999999
 31
0.0
  0
LINE
  5
9A51
330
9942
100
AcDbEntity
  8
1
  6
Continuous
100
AcDbLine
 10
40.11577599999998
 20
46.93815299999999
 30
0.0
 11
40.21577599999999
 21
46.93815299999999
 31
0.0
  0
LINE
  5
9A52
330
9942
100
AcDbEntity
  8
1
  6
Continuous
100
AcDbLine
 10
25.915776
 20
46.93815299999999
 30
0.0
 11
38.515776
 21
46.93815299999999
 31
0.0
  0
LINE
  5
9A53
330
9942
100
AcDbEntity
  8
1
  6
Continuous
100
AcDbLine
 10
37.715776
 20
47.938153
 30
0.0
 11
37.715776
 21
44.638153
 31
0.0
  0
LINE
  5
9A54
330
9942
100
AcDbEntity
  8
1
  6
Continuous
100
AcDbLine
 10
26.715776
 20
47.938153
 30
0.0
 11
26.715776
 21
44.638153
 31
0.0
  0
LINE
  5
9A55
330
9942
100
AcDbEntity
  8
1
  6
Continuous
100
AcDbLine
 10
38.515776
 20
56.43815299999999
 30
0.0
 11
38.515776
 21
45.438153
 31
0.0
  0
LINE
  5
9A56
330
9942
100
AcDbEntity
  8
1
  6
Continuous
100
AcDbLine
 10
25.915776
 20
56.43815299999999
 30
0.0
 11
25.915776
 21
45.438153
 31
0.0
  0
LINE
  5
9A57
330
9942
100
AcDbEntity
  8
1
  6
Continuous
100
AcDbLine
 10
23.715776
 20
46.738153
 30
0.0
 11
24.215776
 21
46.738153
 31
0.0
  0
LINE
  5
9A58
330
9942
100
AcDbEntity
  8
1
  6
Continuous
100
AcDbLine
 10
40.21577599999999
 20
46.738153
 30
0.0
 11
40.715776
 21
46.738153
 31
0.0
  0
LINE
  5
9A59
330
9942
100
AcDbEntity
  8
1
  6
Continuous
100
AcDbLine
 10
26.715776
 20
252.4384529999999
 30
0.0
 11
26.715776
 21
253.6384529999998
 31
0.0
  0
LINE
  5
9A5A
330
9942
100
AcDbEntity
  8
1
  6
Continuous
100
AcDbLine
 10
37.715776
 20
252.4384529999999
 30
0.0
 11
37.715776
 21
253.6384529999998
 31
0.0
  0
LINE
  5
9A5B
330
9942
100
AcDbEntity
  8
1
  6
Continuous
100
AcDbLine
 10
24.215776
 20
145.638453
 30
0.0
 11
24.315776
 21
145.638453
 31
0.0
  0
LINE
  5
9A5C
330
9942
100
AcDbEntity
  8
1
  6
Continuous
100
AcDbLine
 10
24.215776
 20
142.6384529999999
 30
0.0
 11
24.315776
 21
142.6384529999999
 31
0.0
  0
LINE
  5
9A5D
330
9942
100
AcDbEntity
  8
1
  6
Continuous
100
AcDbLine
 10
24.215776
 20
134.6384529999999
 30
0.0
 11
24.315776
 21
134.6384529999999
 31
0.0
  0
LINE
  5
9A5E
330
9942
100
AcDbEntity
  8
1
  6
Continuous
100
AcDbLine
 10
24.215776
 20
131.638453
 30
0.0
 11
24.315776
 21
131.638453
 31
0.0
  0
LINE
  5
9A5F
330
9942
100
AcDbEntity
  8
1
  6
Continuous
100
AcDbLine
 10
24.215776
 20
145.638453
 30
0.0
 11
24.215776
 21
142.6384529999999
 31
0.0
  0
LINE
  5
9A60
330
9942
100
AcDbEntity
  8
1
  6
Continuous
100
AcDbLine
 10
40.21577599999999
 20
145.638453
 30
0.0
 11
40.21577599999999
 21
142.6384529999999
 31
0.0
  0
LINE
  5
9A61
330
9942
100
AcDbEntity
  8
1
  6
Continuous
100
AcDbLine
 10
24.215776
 20
134.6384529999999
 30
0.0
 11
24.215776
 21
131.638453
 31
0.0
  0
LINE
  5
9A62
330
9942
100
AcDbEntity
  8
1
  6
Continuous
100
AcDbLine
 10
40.21577599999999
 20
134.6384529999999
 30
0.0
 11
40.21577599999999
 21
131.638453
 31
0.0
  0
LINE
  5
9A63
330
9942
100
AcDbEntity
  8
1
  6
Continuous
100
AcDbLine
 10
40.11577599999998
 20
134.6384529999999
 30
0.0
 11
40.21577599999999
 21
134.6384529999999
 31
0.0
  0
LINE
  5
9A64
330
9942
100
AcDbEntity
  8
1
  6
Continuous
100
AcDbLine
 10
40.11577599999998
 20
131.638453
 30
0.0
 11
40.21577599999999
 21
131.638453
 31
0.0
  0
LINE
  5
9A65
330
9942
100
AcDbEntity
  8
1
  6
Continuous
100
AcDbLine
 10
40.11577599999998
 20
142.6384529999999
 30
0.0
 11
40.21577599999999
 21
142.6384529999999
 31
0.0
  0
LINE
  5
9A66
330
9942
100
AcDbEntity
  8
1
  6
Continuous
100
AcDbLine
 10
40.11577599999998
 20
145.638453
 30
0.0
 11
40.21577599999999
 21
145.638453
 31
0.0
  0
LINE
  5
9A67
330
9942
100
AcDbEntity
  8
1
  6
Continuous
100
AcDbLine
 10
25.315776
 20
144.038453
 30
0.0
 11
39.11577599999999
 21
144.038453
 31
0.0
  0
LINE
  5
9A68
330
9942
100
AcDbEntity
  8
1
  6
Continuous
100
AcDbLine
 10
297.238897
 20
157.6688599999999
 30
0.0
 11
298.238897
 21
157.6688599999999
 31
0.0
  0
LINE
  5
9A69
330
9942
100
AcDbEntity
  8
1
  6
Continuous
100
AcDbLine
 10
174.715876
 20
131.638453
 30
0.0
 11
177.0158759999999
 21
131.638453
 31
0.0
  0
LINE
  5
9A6A
330
9942
100
AcDbEntity
  8
1
  6
Continuous
100
AcDbLine
 10
26.915776
 20
116.6384529999999
 30
0.0
 11
37.515776
 21
116.6384529999999
 31
0.0
  0
LINE
  5
9A6B
330
9942
100
AcDbEntity
  8
1
  6
Continuous
100
AcDbLine
 10
170.2416969999999
 20
130.427369
 30
0.0
 11
174.2412739999998
 21
130.3691649999999
 31
0.0
  0
LINE
  5
9A6C
330
9942
100
AcDbEntity
  8
1
  6
Continuous
100
AcDbLine
 10
27.428276
 20
52.138153
 30
0.0
 11
37.003276
 21
52.138153
 31
0.0
  0
LINE
  5
9A6D
330
9942
100
AcDbEntity
  8
1
  6
Continuous
100
AcDbLine
 10
169.974858
 20
146.4532129999998
 30
0.0
 11
169.9587389999998
 21
145.345528
 31
0.0
  0
LINE
  5
9A6E
330
9942
100
AcDbEntity
  8
1
  6
Continuous
100
AcDbLine
 10
174.985486
 20
147.1471499999998
 30
0.0
 11
174.9693659999999
 21
146.0394649999998
 31
0.0
  0
LINE
  5
9A6F
330
9942
100
AcDbEntity
  8
1
  6
Continuous
100
AcDbLine
 10
169.904345
 20
141.607726
 30
0.0
 11
169.888225
 21
140.5000409999999
 31
0.0
  0
LINE
  5
9A70
330
9942
100
AcDbEntity
  8
1
  6
Continuous
100
AcDbLine
 10
174.914973
 20
142.301663
 30
0.0
 11
174.898853
 21
141.1939779999999
 31
0.0
  0
LINE
  5
9A71
330
9942
100
AcDbEntity
  8
1
  6
Continuous
100
AcDbLine
 10
169.8690879999998
 20
139.1849829999999
 30
0.0
 11
169.8529649999999
 21
138.0770389999999
 31
0.0
  0
LINE
  5
9A72
330
9942
100
AcDbEntity
  8
1
  6
Continuous
100
AcDbLine
 10
174.879716
 20
139.8789199999999
 30
0.0
 11
174.863596
 21
138.771179
 31
0.0
  0
LINE
  5
9A73
330
9942
100
AcDbEntity
  8
1
  6
Continuous
100
AcDbLine
 10
289.1158759999999
 20
151.201285
 30
0.0
 11
292.1158759999999
 21
151.201285
 31
0.0
  0
LINE
  5
9A74
330
9942
100
AcDbEntity
  8
1
  6
Continuous
100
AcDbLine
 10
293.7158759999999
 20
153.701285
 30
0.0
 11
295.3158759999999
 21
153.701285
 31
0.0
  0
LINE
  5
9A75
330
9942
100
AcDbEntity
  8
4
  6
CENTER
100
AcDbLine
 10
36.11577599999999
 20
127.1384529999999
 30
0.0
 11
28.315776
 21
127.1384529999999
 31
0.0
  0
LINE
  5
9A76
330
9942
100
AcDbEntity
  8
4
  6
CENTER
100
AcDbLine
 10
36.11577599999999
 20
115.6384529999999
 30
0.0
 11
28.315776
 21
115.6384529999999
 31
0.0
  0
LINE
  5
9A77
330
9942
100
AcDbEntity
  8
1
  6
Continuous
100
AcDbLine
 10
25.915776
 20
252.4384529999999
 30
0.0
 11
25.915776
 21
253.6384529999998
 31
0.0
  0
LINE
  5
9A78
330
9942
100
AcDbEntity
  8
1
  6
Continuous
100
AcDbLine
 10
38.515776
 20
252.4384529999999
 30
0.0
 11
38.515776
 21
253.6384529999998
 31
0.0
  0
LINE
  5
9A79
330
9942
100
AcDbEntity
  8
1
  6
Continuous
100
AcDbLine
 10
26.715776
 20
256.6384529999999
 30
0.0
 11
26.715776
 21
258.238453
 31
0.0
  0
LINE
  5
9A7A
330
9942
100
AcDbEntity
  8
1
  6
Continuous
100
AcDbLine
 10
37.715776
 20
256.6384529999999
 30
0.0
 11
37.715776
 21
258.238453
 31
0.0
  0
ARC
  5
9A7B
330
9942
100
AcDbEntity
  8
1
  6
Continuous
100
AcDbCircle
 10
32.21577599999999
 20
114.938453
 30
0.0
 40
6.299999999999998
100
AcDbArc
 50
180.0
 51
0.00001
  0
ARC
  5
9A7C
330
9942
100
AcDbEntity
  8
1
  6
Continuous
100
AcDbCircle
 10
296.6158759999999
 20
158.1688599999999
 30
0.0
 40
0.5
100
AcDbArc
 50
270.0
 51
0.000005
  0
ARC
  5
9A7D
330
9942
100
AcDbEntity
  8
1
  6
Continuous
100
AcDbCircle
 10
296.6158759999999
 20
158.1688599999999
 30
0.0
 40
2.1
100
AcDbArc
 50
270.0
 51
0.000005
  0
ARC
  5
9A7E
330
9942
100
AcDbEntity
  8
1
  6
Continuous
100
AcDbCircle
 10
294.2158759999998
 20
155.56886
 30
0.0
 40
2.1
100
AcDbArc
 50
90.0
 51
180.0
  0
ARC
  5
9A7F
330
9942
100
AcDbEntity
  8
1
  6
Continuous
100
AcDbCircle
 10
294.2158759999998
 20
155.56886
 30
0.0
 40
0.5
100
AcDbArc
 50
90.0
 51
180.0
  0
ARC
  5
9A80
330
9942
100
AcDbEntity
  8
1
  6
Continuous
100
AcDbCircle
 10
295.8158759999998
 20
134.4402849999999
 30
0.0
 40
2.1
100
AcDbArc
 50
180.0
 51
231.203
  0
ARC
  5
9A81
330
9942
100
AcDbEntity
  8
1
  6
Continuous
100
AcDbCircle
 10
295.8158759999998
 20
134.4402849999999
 30
0.0
 40
0.5
100
AcDbArc
 50
180.0
 51
231.203
  0
ARC
  5
9A82
330
9942
100
AcDbEntity
  8
1
  6
Continuous
100
AcDbCircle
 10
307.2158759999999
 20
114.938453
 30
0.0
 40
6.299999999999998
100
AcDbArc
 50
180.0
 51
0.0
  0
CIRCLE
  5
9A83
330
9942
100
AcDbEntity
  8
1
  6
Continuous
100
AcDbCircle
 10
307.2158759999999
 20
127.1384529999999
 30
0.0
 40
1.9
  0
CIRCLE
  5
9A84
330
9942
100
AcDbEntity
  8
1
  6
Continuous
100
AcDbCircle
 10
307.2158759999999
 20
115.6384529999999
 30
0.0
 40
1.9
  0
ARC
  5
9A85
330
9942
100
AcDbEntity
  8
1
  6
Continuous
100
AcDbCircle
 10
307.2158759999999
 20
115.6384529999999
 30
0.0
 40
5.5
100
AcDbArc
 50
180.0
 51
0.00001
  0
ARC
  5
9A86
330
9942
100
AcDbEntity
  8
1
  6
Continuous
100
AcDbCircle
 10
304.7158759999998
 20
141.638453
 30
0.0
 40
1.0
100
AcDbArc
 50
0.0
 51
180.0
  0
ARC
  5
9A87
330
9942
100
AcDbEntity
  8
1
  6
Continuous
100
AcDbCircle
 10
304.7158759999998
 20
135.6384529999999
 30
0.0
 40
1.0
100
AcDbArc
 50
180.0
 51
0.00001
  0
ARC
  5
9A88
330
9942
100
AcDbEntity
  8
1
  6
Continuous
100
AcDbCircle
 10
309.7158759999999
 20
141.638453
 30
0.0
 40
1.0
100
AcDbArc
 50
0.0
 51
180.0
  0
ARC
  5
9A89
330
9942
100
AcDbEntity
  8
1
  6
Continuous
100
AcDbCircle
 10
309.7158759999999
 20
135.6384529999999
 30
0.0
 40
1.0
100
AcDbArc
 50
180.0
 51
0.00001
  0
ARC
  5
9A8A
330
9942
100
AcDbEntity
  8
1
  6
Continuous
100
AcDbCircle
 10
172.215876
 20
126.638453
 30
0.0
 40
2.5
100
AcDbArc
 50
180.0
 51
0.00001
  0
ARC
  5
9A8B
330
9942
100
AcDbEntity
  8
1
  6
Continuous
100
AcDbCircle
 10
173.915876
 20
162.9884529999999
 30
0.0
 40
2.5
100
AcDbArc
 50
347.148271
 51
167.148271
  0
ARC
  5
9A8C
330
9942
100
AcDbEntity
  8
1
  6
Continuous
100
AcDbCircle
 10
175.715876
 20
125.1384529999999
 30
0.0
 40
0.5
100
AcDbArc
 50
270.0
 51
0.0
  0
ARC
  5
9A8D
330
9942
100
AcDbEntity
  8
1
  6
Continuous
100
AcDbCircle
 10
169.815876
 20
144.038453
 30
0.0
 40
4.599999999999997
100
AcDbArc
 50
98.91683100000001
 51
180.0
  0
ARC
  5
9A8E
330
9942
100
AcDbEntity
  8
1
  6
Continuous
100
AcDbCircle
 10
169.815876
 20
144.038453
 30
0.0
 40
3.0
100
AcDbArc
 50
125.9423449999999
 51
180.0
  0
ARC
  5
9A8F
330
9942
100
AcDbEntity
  8
1
  6
Continuous
100
AcDbCircle
 10
169.815876
 20
144.038453
 30
0.0
 40
3.0
100
AcDbArc
 50
180.0
 51
207.8179999999999
  0
ARC
  5
9A90
330
9942
100
AcDbEntity
  8
1
  6
Continuous
100
AcDbCircle
 10
168.781876
 20
146.943453
 30
0.0
 40
4.599999999999997
100
AcDbArc
 50
219.1699999999999
 51
249.385
  0
ARC
  5
9A91
330
9942
100
AcDbEntity
  8
1
  6
Continuous
100
AcDbCircle
 10
162.1158759999999
 20
115.6384529999999
 30
0.0
 40
7.0
100
AcDbArc
 50
331.9649999999999
 51
28.3331
  0
ARC
  5
9A92
330
9942
100
AcDbEntity
  8
1
  6
Continuous
100
AcDbCircle
 10
162.1158759999999
 20
115.6384529999999
 30
0.0
 40
8.599999999999997
100
AcDbArc
 50
331.9649999999999
 51
28.3331
  0
ARC
  5
9A93
330
9942
100
AcDbEntity
  8
1
  6
Continuous
100
AcDbCircle
 10
172.715876
 20
134.6384529999999
 30
0.0
 40
4.299999999999998
100
AcDbArc
 50
0.0
 51
17.260262
  0
ARC
  5
9A94
330
9942
100
AcDbEntity
  8
1
  6
Continuous
100
AcDbCircle
 10
18.715776
 20
253.438453
 30
0.0
 40
4.599999999999997
100
AcDbArc
 50
78.0313
 51
281.9689999999998
  0
ARC
  5
9A95
330
9942
100
AcDbEntity
  8
1
  6
Continuous
100
AcDbCircle
 10
18.715776
 20
253.438453
 30
0.0
 40
3.299999999999998
100
AcDbArc
 50
90.0
 51
270.0
  0
ARC
  5
9A96
330
9942
100
AcDbEntity
  8
1
  6
Continuous
100
AcDbCircle
 10
45.715776
 20
253.438453
 30
0.0
 40
4.599999999999997
100
AcDbArc
 50
110.3539999999999
 51
137.6579999999999
  0
ARC
  5
9A97
330
9942
100
AcDbEntity
  8
1
  6
Continuous
100
AcDbCircle
 10
18.715776
 20
253.438453
 30
0.0
 40
3.299999999999998
100
AcDbArc
 50
299.0029999999998
 51
310.749
  0
ARC
  5
9A98
330
9942
100
AcDbEntity
  8
1
  6
Continuous
100
AcDbCircle
 10
18.715776
 20
253.438453
 30
0.0
 40
4.599999999999997
100
AcDbArc
 50
290.3539999999999
 51
327.079
  0
ARC
  5
9A99
330
9942
100
AcDbEntity
  8
1
  6
Continuous
100
AcDbCircle
 10
18.715776
 20
253.438453
 30
0.0
 40
3.299999999999998
100
AcDbArc
 50
49.2509
 51
60.9979
  0
ARC
  5
9A9A
330
9942
100
AcDbEntity
  8
1
  6
Continuous
100
AcDbCircle
 10
18.715776
 20
253.438453
 30
0.0
 40
4.599999999999997
100
AcDbArc
 50
42.34329999999999
 51
69.6456
  0
ARC
  5
9A9B
330
9942
100
AcDbEntity
  8
1
  6
Continuous
100
AcDbCircle
 10
45.715776
 20
253.438453
 30
0.0
 40
4.599999999999997
100
AcDbArc
 50
258.031
 51
101.9689999999998
  0
ARC
  5
9A9C
330
9942
100
AcDbEntity
  8
1
  6
Continuous
100
AcDbCircle
 10
45.715776
 20
253.438453
 30
0.0
 40
3.299999999999998
100
AcDbArc
 50
270.0
 51
90.0
  0
ARC
  5
9A9D
330
9942
100
AcDbEntity
  8
1
  6
Continuous
100
AcDbCircle
 10
45.715776
 20
253.438453
 30
0.0
 40
4.599999999999997
100
AcDbArc
 50
212.921
 51
249.646
  0
ARC
  5
9A9E
330
9942
100
AcDbEntity
  8
1
  6
Continuous
100
AcDbCircle
 10
45.715776
 20
253.438453
 30
0.0
 40
3.299999999999998
100
AcDbArc
 50
229.2509999999998
 51
240.997
  0
ARC
  5
9A9F
330
9942
100
AcDbEntity
  8
1
  6
Continuous
100
AcDbCircle
 10
18.715776
 20
49.438153
 30
0.0
 40
4.599999999999997
100
AcDbArc
 50
110.3539999999999
 51
249.646
  0
ARC
  5
9AA0
330
9942
100
AcDbEntity
  8
1
  6
Continuous
100
AcDbCircle
 10
18.715776
 20
49.438153
 30
0.0
 40
3.299999999999998
100
AcDbArc
 50
119.0029999999999
 51
240.997
  0
ARC
  5
9AA1
330
9942
100
AcDbEntity
  8
1
  6
Continuous
100
AcDbCircle
 10
45.715776
 20
49.438153
 30
0.0
 40
3.299999999999998
100
AcDbArc
 50
229.2509999999998
 51
270.0
  0
ARC
  5
9AA2
330
9942
100
AcDbEntity
  8
1
  6
Continuous
100
AcDbCircle
 10
45.715776
 20
49.438153
 30
0.0
 40
4.599999999999997
100
AcDbArc
 50
212.921
 51
281.9689999999998
  0
ARC
  5
9AA3
330
9942
100
AcDbEntity
  8
1
  6
Continuous
100
AcDbCircle
 10
18.715776
 20
49.438153
 30
0.0
 40
3.299999999999998
100
AcDbArc
 50
49.2509
 51
90.0
  0
ARC
  5
9AA4
330
9942
100
AcDbEntity
  8
1
  6
Continuous
100
AcDbCircle
 10
18.715776
 20
49.438153
 30
0.0
 40
4.599999999999997
100
AcDbArc
 50
32.92069999999998
 51
101.9689999999998
  0
ARC
  5
9AA5
330
9942
100
AcDbEntity
  8
1
  6
Continuous
100
AcDbCircle
 10
18.715776
 20
49.438153
 30
0.0
 40
3.299999999999998
100
AcDbArc
 50
270.0
 51
310.749
  0
ARC
  5
9AA6
330
9942
100
AcDbEntity
  8
1
  6
Continuous
100
AcDbCircle
 10
18.715776
 20
49.438153
 30
0.0
 40
4.599999999999997
100
AcDbArc
 50
258.031
 51
327.079
  0
ARC
  5
9AA7
330
9942
100
AcDbEntity
  8
1
  6
Continuous
100
AcDbCircle
 10
45.715776
 20
49.438153
 30
0.0
 40
4.599999999999997
100
AcDbArc
 50
290.3539999999999
 51
69.6456
  0
ARC
  5
9AA8
330
9942
100
AcDbEntity
  8
1
  6
Continuous
100
AcDbCircle
 10
45.715776
 20
49.438153
 30
0.0
 40
3.299999999999998
100
AcDbArc
 50
299.0029999999998
 51
60.9974
  0
ARC
  5
9AA9
330
9942
100
AcDbEntity
  8
1
  6
Continuous
100
AcDbCircle
 10
45.715776
 20
49.438153
 30
0.0
 40
4.599999999999997
100
AcDbArc
 50
78.0313
 51
147.079
  0
ARC
  5
9AAA
330
9942
100
AcDbEntity
  8
1
  6
Continuous
100
AcDbCircle
 10
45.715776
 20
49.438153
 30
0.0
 40
3.299999999999998
100
AcDbArc
 50
90.0
 51
130.749
  0
ARC
  5
9AAB
330
9942
100
AcDbEntity
  8
1
  6
Continuous
100
AcDbCircle
 10
32.21577599999999
 20
45.455253
 30
0.0
 40
9.479269999999999
100
AcDbArc
 50
48.3478
 51
131.6519999999999
  0
ARC
  5
9AAC
330
9942
100
AcDbEntity
  8
1
  6
Continuous
100
AcDbCircle
 10
32.21577599999999
 20
44.55075299999999
 30
0.0
 40
8.97151
100
AcDbArc
 50
45.39450000000001
 51
134.606
  0
CIRCLE
  5
9AAD
330
9942
100
AcDbEntity
  8
1
  6
Continuous
100
AcDbCircle
 10
173.915876
 20
162.9884529999999
 30
0.0
 40
1.0
  0
CIRCLE
  5
9AAE
330
9942
100
AcDbEntity
  8
1
  6
Continuous
100
AcDbCircle
 10
172.215876
 20
128.638453
 30
0.0
 40
1.0
  0
ARC
  5
9AAF
330
9942
100
AcDbEntity
  8
1
  6
Continuous
100
AcDbCircle
 10
45.715776
 20
253.438453
 30
0.0
 40
3.299999999999998
100
AcDbArc
 50
119.0029999999999
 51
130.749
  0
LINE
  5
9AB0
330
9942
100
AcDbEntity
  8
4
  6
CENTER
100
AcDbLine
 10
170.8785969999999
 20
162.9884529999999
 30
0.0
 11
176.9681359999999
 21
162.9884529999999
 31
0.0
  0
LINE
  5
9AB1
330
9942
100
AcDbEntity
  8
4
  6
CENTER
100
AcDbLine
 10
173.915876
 20
159.9436839999999
 30
0.0
 11
173.915876
 21
166.0332229999999
 31
0.0
  0
LINE
  5
9AB2
330
9942
100
AcDbEntity
  8
1
  6
Continuous
100
AcDbLine
 10
175.043005
 20
151.099694
 30
0.0
 11
177.0427929999999
 21
151.070593
 31
0.0
  0
LINE
  5
9AB3
330
9942
100
AcDbEntity
  8
1
  6
Continuous
100
AcDbLine
 10
174.844458
 20
137.4561129999999
 30
0.0
 11
174.8301419999999
 21
136.4723429999999
 31
0.0
  0
LINE
  5
9AB4
330
9942
100
AcDbEntity
  8
1
  6
Continuous
100
AcDbLine
 10
169.8312709999999
 20
136.7616179999999
 30
0.0
 11
169.8306719999999
 21
136.5450969999999
 31
0.0
  0
LINE
  5
9AB5
330
9942
100
AcDbEntity
  8
1
  6
Continuous
100
AcDbLine
 10
174.8301419999999
 20
136.4723429999999
 30
0.0
 11
176.9299199999999
 21
136.441786
 31
0.0
  0
ARC
  5
9AB6
330
9942
100
AcDbEntity
  8
1
  6
Continuous
100
AcDbCircle
 10
296.6158759999999
 20
130.3985419999999
 30
0.0
 40
0.5
100
AcDbArc
 50
0.0
 51
51.19951499999999
  0
ARC
  5
9AB7
330
9942
100
AcDbEntity
  8
1
  6
Continuous
100
AcDbCircle
 10
296.6158759999999
 20
130.461782
 30
0.0
 40
2.1
100
AcDbArc
 50
0.0
 51
51.19951499999999
  0
LINE
  5
9AB8
330
9942
100
AcDbEntity
  8
1
  6
Continuous
100
AcDbLine
 10
322.315876
 20
155.56886
 30
0.0
 11
322.315876
 21
150.848501
 31
0.0
  0
LINE
  5
9AB9
330
9942
100
AcDbEntity
  8
1
  6
Continuous
100
AcDbLine
 10
320.7158759999999
 20
155.56886
 30
0.0
 11
320.7158759999999
 21
150.603134
 31
0.0
  0
LINE
  5
9ABA
330
9942
100
AcDbEntity
  8
1
  6
Continuous
100
AcDbLine
 10
317.192855
 20
157.6688599999999
 30
0.0
 11
316.192855
 21
157.6688599999999
 31
0.0
  0
LINE
  5
9ABB
330
9942
100
AcDbEntity
  8
1
  6
Continuous
100
AcDbLine
 10
315.7158759999999
 20
165.4884529999999
 30
0.0
 11
315.7158759999999
 21
158.1688599999999
 31
0.0
  0
LINE
  5
9ABC
330
9942
100
AcDbEntity
  8
1
  6
Continuous
100
AcDbLine
 10
317.315876
 20
165.4884529999999
 30
0.0
 11
317.315876
 21
158.1688599999999
 31
0.0
  0
ARC
  5
9ABD
330
9942
100
AcDbEntity
  8
1
  6
Continuous
100
AcDbCircle
 10
320.2158759999999
 20
155.56886
 30
0.0
 40
0.5
100
AcDbArc
 50
0.0
 51
90.0
  0
ARC
  5
9ABE
330
9942
100
AcDbEntity
  8
1
  6
Continuous
100
AcDbCircle
 10
320.2158759999999
 20
155.56886
 30
0.0
 40
2.1
100
AcDbArc
 50
0.0
 51
90.0
  0
LINE
  5
9ABF
330
9942
100
AcDbEntity
  8
1
  6
Continuous
100
AcDbLine
 10
317.815876
 20
156.0688599999998
 30
0.0
 11
320.2158759999999
 21
156.0688599999998
 31
0.0
  0
LINE
  5
9AC0
330
9942
100
AcDbEntity
  8
1
  6
Continuous
100
AcDbLine
 10
317.815876
 20
157.6688599999999
 30
0.0
 11
320.2158759999999
 21
157.6688599999999
 31
0.0
  0
ARC
  5
9AC1
330
9942
100
AcDbEntity
  8
1
  6
Continuous
100
AcDbCircle
 10
317.815876
 20
158.1688599999999
 30
0.0
 40
0.5
100
AcDbArc
 50
179.9999949999999
 51
270.0
  0
ARC
  5
9AC2
330
9942
100
AcDbEntity
  8
1
  6
Continuous
100
AcDbCircle
 10
317.815876
 20
158.1688599999999
 30
0.0
 40
2.1
100
AcDbArc
 50
179.9999949999999
 51
270.0
  0
LINE
  5
9AC3
330
9942
100
AcDbEntity
  8
1
  6
Continuous
100
AcDbLine
 10
316.1158759999999
 20
151.201285
 30
0.0
 11
320.7158759999999
 21
151.201285
 31
0.0
  0
LINE
  5
9AC4
330
9942
100
AcDbEntity
  8
1
  6
Continuous
100
AcDbLine
 10
318.928876
 20
134.051285
 30
0.0
 11
316.499994
 21
132.09838
 31
0.0
  0
LINE
  5
9AC5
330
9942
100
AcDbEntity
  8
1
  6
Continuous
100
AcDbLine
 10
322.315876
 20
137.4182039999998
 30
0.0
 11
322.315876
 21
134.0744629999998
 31
0.0
  0
LINE
  5
9AC6
330
9942
100
AcDbEntity
  8
1
  6
Continuous
100
AcDbLine
 10
320.7158759999999
 20
137.1727709999998
 30
0.0
 11
320.7158759999999
 21
134.0744629999998
 31
0.0
  0
LINE
  5
9AC7
330
9942
100
AcDbEntity
  8
1
  6
Continuous
100
AcDbLine
 10
319.1158759999999
 20
136.9273389999999
 30
0.0
 11
319.1158759999999
 21
134.4402849999999
 31
0.0
  0
LINE
  5
9AC8
330
9942
100
AcDbEntity
  8
1
  6
Continuous
100
AcDbLine
 10
319.1158759999999
 20
153.701285
 30
0.0
 11
319.1158759999999
 21
150.357767
 31
0.0
  0
LINE
  5
9AC9
330
9942
100
AcDbEntity
  8
1
  6
Continuous
100
AcDbLine
 10
320.7158759999999
 20
134.0744629999998
 30
0.0
 11
322.315876
 21
134.0744629999998
 31
0.0
  0
LINE
  5
9ACA
330
9942
100
AcDbEntity
  8
1
  6
Continuous
100
AcDbLine
 10
320.7158759999999
 20
153.701285
 30
0.0
 11
319.1158759999999
 21
153.701285
 31
0.0
  0
ARC
  5
9ACB
330
9942
100
AcDbEntity
  8
1
  6
Continuous
100
AcDbCircle
 10
318.6158759999999
 20
134.4402849999999
 30
0.0
 40
2.1
100
AcDbArc
 50
308.797
 51
0.0
  0
ARC
  5
9ACC
330
9942
100
AcDbEntity
  8
1
  6
Continuous
100
AcDbCircle
 10
318.6158759999999
 20
134.4402849999999
 30
0.0
 40
0.5
100
AcDbArc
 50
308.797
 51
0.0
  0
ARC
  5
9ACD
330
9942
100
AcDbEntity
  8
1
  6
Continuous
100
AcDbCircle
 10
317.815876
 20
130.461782
 30
0.0
 40
2.1
100
AcDbArc
 50
128.800485
 51
180.0
  0
LINE
  5
9ACE
330
9942
100
AcDbEntity
  8
1
  6
Continuous
100
AcDbLine
 10
317.5025709999999
 20
130.7882079999999
 30
0.0
 11
319.931876
 21
132.741453
 31
0.0
  0
ARC
  5
9ACF
330
9942
100
AcDbEntity
  8
1
  6
Continuous
100
AcDbCircle
 10
317.815876
 20
130.3985419999999
 30
0.0
 40
0.5
100
AcDbArc
 50
128.800485
 51
180.0
  0
LINE
  5
9AD0
330
9942
100
AcDbEntity
  8
1
  6
Continuous
100
AcDbLine
 10
317.315876
 20
130.3985419999999
 30
0.0
 11
317.315876
 21
124.1384529999999
 31
0.0
  0
LINE
  5
9AD1
330
9942
100
AcDbEntity
  8
1
  6
Continuous
100
AcDbLine
 10
315.7158759999999
 20
130.461782
 30
0.0
 11
315.7158759999999
 21
124.1384529999999
 31
0.0
  0
LINE
  5
9AD2
330
9942
100
AcDbEntity
  8
1
  6
Continuous
100
AcDbLine
 10
315.7158759999999
 20
124.1384529999999
 30
0.0
 11
317.315876
 21
124.1384529999999
 31
0.0
  0
LINE
  5
9AD3
330
9942
100
AcDbEntity
  8
1
  6
Continuous
100
AcDbLine
 10
315.7158759999999
 20
165.4884529999999
 30
0.0
 11
317.315876
 21
165.4884529999999
 31
0.0
  0
LINE
  5
9AD4
330
9942
100
AcDbEntity
  8
1
  6
Continuous
100
AcDbLine
 10
24.315776
 20
127.1384529999999
 30
0.0
 11
23.715776
 21
127.1384529999999
 31
0.0
  0
LINE
  5
9AD5
330
9942
100
AcDbEntity
  8
1
  6
Continuous
100
AcDbLine
 10
24.315776
 20
130.1384529999999
 30
0.0
 11
23.715776
 21
130.1384529999999
 31
0.0
  0
LINE
  5
9AD6
330
9942
100
AcDbEntity
  8
1
  6
Continuous
100
AcDbLine
 10
40.715776
 20
127.1384529999999
 30
0.0
 11
40.11577599999998
 21
127.1384529999999
 31
0.0
  0
LINE
  5
9AD7
330
9942
100
AcDbEntity
  8
1
  6
Continuous
100
AcDbLine
 10
40.715776
 20
130.1384529999999
 30
0.0
 11
40.11577599999998
 21
130.1384529999999
 31
0.0
  0
LINE
  5
9AD8
330
9942
100
AcDbEntity
  8
1
  6
Continuous
100
AcDbLine
 10
42.315776
 20
257.6384529999999
 30
0.0
 11
40.715776
 21
257.6384529999999
 31
0.0
  0
LINE
  5
9AD9
330
9942
100
AcDbEntity
  8
1
  6
Continuous
100
AcDbLine
 10
22.115776
 20
257.6384529999999
 30
0.0
 11
23.715776
 21
257.6384529999999
 31
0.0
  0
LINE
  5
9ADA
330
9942
100
AcDbEntity
  8
4
  6
CENTER
100
AcDbLine
 10
19.215776
 20
47.73815299999998
 30
0.0
 11
45.21577599999999
 21
47.73815299999998
 31
0.0
  0
LINE
  5
9ADB
330
9942
100
AcDbEntity
  8
1
  6
Continuous
100
AcDbLine
 10
22.115776
 20
45.23815299999998
 30
0.0
 11
23.715776
 21
45.23815299999998
 31
0.0
  0
LINE
  5
9ADC
330
9942
100
AcDbEntity
  8
1
  6
Continuous
100
AcDbLine
 10
42.315776
 20
45.23815299999998
 30
0.0
 11
40.715776
 21
45.23815299999998
 31
0.0
  0
ARC
  5
9ADD
330
9942
100
AcDbEntity
  8
1
  6
Continuous
100
AcDbCircle
 10
25.915776
 20
248.0384529999998
 30
0.0
 40
1.6
100
AcDbArc
 50
180.0
 51
270.0
  0
ARC
  5
9ADE
330
9942
100
AcDbEntity
  8
1
  6
Continuous
100
AcDbCircle
 10
38.515776
 20
248.0384529999998
 30
0.0
 40
1.6
100
AcDbArc
 50
270.0
 51
0.0
  0
ARC
  5
9ADF
330
9942
100
AcDbEntity
  8
1
  6
Continuous
100
AcDbCircle
 10
25.915776
 20
54.83815299999999
 30
0.0
 40
1.6
100
AcDbArc
 50
90.0
 51
180.0
  0
ARC
  5
9AE0
330
9942
100
AcDbEntity
  8
1
  6
Continuous
100
AcDbCircle
 10
38.515776
 20
54.83815299999999
 30
0.0
 40
1.6
100
AcDbArc
 50
0.0
 51
90.0
  0
LINE
  5
9AE1
330
9942
100
AcDbEntity
  8
1
  6
Continuous
100
AcDbLine
 10
316.765876
 20
136.5744629999998
 30
0.0
 11
319.1158759999999
 21
136.5744629999998
 31
0.0
  0
LINE
  5
9AE2
330
9942
100
AcDbEntity
  8
1
  6
Continuous
100
AcDbLine
 10
322.315876
 20
151.201285
 30
0.0
 11
324.6658759999998
 21
151.201285
 31
0.0
  0
LINE
  5
9AE3
330
9942
100
AcDbEntity
  8
1
  6
Continuous
100
AcDbLine
 10
324.5673479999999
 20
151.193774
 30
0.0
 11
316.667348
 21
149.9822739999999
 31
0.0
  0
LINE
  5
9AE4
330
9942
100
AcDbEntity
  8
1
  6
Continuous
100
AcDbLine
 10
324.7644049999999
 20
149.9087959999999
 30
0.0
 11
316.8644049999999
 21
148.6972959999999
 31
0.0
  0
LINE
  5
9AE5
330
9942
100
AcDbEntity
  8
1
  6
Continuous
100
AcDbLine
 10
316.667348
 20
147.5592739999999
 30
0.0
 11
324.5673479999999
 21
148.7707739999999
 31
0.0
  0
LINE
  5
9AE6
330
9942
100
AcDbEntity
  8
1
  6
Continuous
100
AcDbLine
 10
316.8644049999999
 20
146.2742959999999
 30
0.0
 11
324.7644049999999
 21
147.485796
 31
0.0
  0
LINE
  5
9AE7
330
9942
100
AcDbEntity
  8
1
  6
Continuous
100
AcDbLine
 10
324.5673479999999
 20
146.3477739999999
 30
0.0
 11
316.667348
 21
145.1362739999999
 31
0.0
  0
LINE
  5
9AE8
330
9942
100
AcDbEntity
  8
1
  6
Continuous
100
AcDbLine
 10
316.8644049999999
 20
143.8512959999999
 30
0.0
 11
324.7644049999999
 21
145.062796
 31
0.0
  0
LINE
  5
9AE9
330
9942
100
AcDbEntity
  8
1
  6
Continuous
100
AcDbLine
 10
324.5673479999999
 20
143.9247739999998
 30
0.0
 11
316.667348
 21
142.713274
 31
0.0
  0
LINE
  5
9AEA
330
9942
100
AcDbEntity
  8
1
  6
Continuous
100
AcDbLine
 10
316.8644049999999
 20
141.4282959999999
 30
0.0
 11
324.7644049999999
 21
142.6397959999999
 31
0.0
  0
LINE
  5
9AEB
330
9942
100
AcDbEntity
  8
1
  6
Continuous
100
AcDbLine
 10
324.5673479999999
 20
141.501774
 30
0.0
 11
316.667348
 21
140.290274
 31
0.0
  0
LINE
  5
9AEC
330
9942
100
AcDbEntity
  8
1
  6
Continuous
100
AcDbLine
 10
316.8644049999999
 20
139.005296
 30
0.0
 11
324.7644049999999
 21
140.2167959999998
 31
0.0
  0
LINE
  5
9AED
330
9942
100
AcDbEntity
  8
1
  6
Continuous
100
AcDbLine
 10
324.567322
 20
139.0787699999999
 30
0.0
 11
316.667322
 21
137.866948
 31
0.0
  0
LINE
  5
9AEE
330
9942
100
AcDbEntity
  8
1
  6
Continuous
100
AcDbLine
 10
316.8644299999999
 20
136.581978
 30
0.0
 11
324.76443
 21
137.7938
 31
0.0
  0
ARC
  5
9AEF
330
9942
100
AcDbEntity
  8
1
  6
Continuous
100
AcDbCircle
 10
316.765876
 20
151.201285
 30
0.0
 40
0.65
100
AcDbArc
 50
180.0
 51
265.2963849999998
  0
LINE
  5
9AF0
330
9942
100
AcDbEntity
  8
1
  6
Continuous
100
AcDbLine
 10
316.712575
 20
150.5534739999999
 30
0.0
 11
319.10725
 21
150.3564439999999
 31
0.0
  0
LINE
  5
9AF1
330
9942
100
AcDbEntity
  8
1
  6
Continuous
100
AcDbLine
 10
316.667348
 20
148.6972959999999
 30
0.0
 11
319.1158759999999
 21
148.3218029999999
 31
0.0
  0
LINE
  5
9AF2
330
9942
100
AcDbEntity
  8
1
  6
Continuous
100
AcDbLine
 10
322.315876
 20
149.1462669999999
 30
0.0
 11
324.7644049999999
 21
148.7707739999999
 31
0.0
  0
LINE
  5
9AF3
330
9942
100
AcDbEntity
  8
1
  6
Continuous
100
AcDbLine
 10
316.667348
 20
146.2742959999999
 30
0.0
 11
319.1158759999999
 21
145.8988029999999
 31
0.0
  0
LINE
  5
9AF4
330
9942
100
AcDbEntity
  8
1
  6
Continuous
100
AcDbLine
 10
324.7644049999999
 20
146.3477739999999
 30
0.0
 11
322.315876
 21
146.723267
 31
0.0
  0
LINE
  5
9AF5
330
9942
100
AcDbEntity
  8
1
  6
Continuous
100
AcDbLine
 10
322.315876
 20
144.300267
 30
0.0
 11
324.7644049999999
 21
143.9247739999998
 31
0.0
  0
LINE
  5
9AF6
330
9942
100
AcDbEntity
  8
1
  6
Continuous
100
AcDbLine
 10
319.1158759999999
 20
143.475803
 30
0.0
 11
316.667348
 21
143.8512959999999
 31
0.0
  0
LINE
  5
9AF7
330
9942
100
AcDbEntity
  8
1
  6
Continuous
100
AcDbLine
 10
322.315876
 20
141.8772669999999
 30
0.0
 11
324.7644049999999
 21
141.501774
 31
0.0
  0
LINE
  5
9AF8
330
9942
100
AcDbEntity
  8
1
  6
Continuous
100
AcDbLine
 10
316.667348
 20
141.4282959999999
 30
0.0
 11
319.1158759999999
 21
141.052803
 31
0.0
  0
LINE
  5
9AF9
330
9942
100
AcDbEntity
  8
1
  6
Continuous
100
AcDbLine
 10
319.1158759999999
 20
138.629803
 30
0.0
 11
316.667348
 21
139.005296
 31
0.0
  0
LINE
  5
9AFA
330
9942
100
AcDbEntity
  8
1
  6
Continuous
100
AcDbLine
 10
324.7644049999999
 20
139.078774
 30
0.0
 11
322.315876
 21
139.4542669999998
 31
0.0
  0
LINE
  5
9AFB
330
9942
100
AcDbEntity
  8
1
  6
Continuous
100
AcDbLine
 10
324.719177
 20
137.2222739999999
 30
0.0
 11
322.3235579999998
 21
137.419382
 31
0.0
  0
ARC
  5
9AFC
330
9942
100
AcDbEntity
  8
1
  6
Continuous
100
AcDbCircle
 10
324.6658759999998
 20
136.5744629999998
 30
0.0
 40
0.65
100
AcDbArc
 50
0.0
 51
85.296385
  0
ARC
  5
9AFD
330
9942
100
AcDbEntity
  8
1
  6
Continuous
100
AcDbCircle
 10
316.765876
 20
139.6477849999999
 30
0.0
 40
0.65
100
AcDbArc
 50
98.71863799999999
 51
278.718638
  0
ARC
  5
9AFE
330
9942
100
AcDbEntity
  8
1
  6
Continuous
100
AcDbCircle
 10
324.6658759999998
 20
140.8592849999998
 30
0.0
 40
0.65
100
AcDbArc
 50
278.718638
 51
98.71863799999999
  0
ARC
  5
9AFF
330
9942
100
AcDbEntity
  8
1
  6
Continuous
100
AcDbCircle
 10
316.765876
 20
137.2244629999999
 30
0.0
 40
0.65
100
AcDbArc
 50
98.72092100000003
 51
278.7209209999999
  0
ARC
  5
9B00
330
9942
100
AcDbEntity
  8
1
  6
Continuous
100
AcDbCircle
 10
324.6658759999998
 20
138.436285
 30
0.0
 40
0.65
100
AcDbArc
 50
278.7209209999999
 51
98.72092100000003
  0
ARC
  5
9B01
330
9942
100
AcDbEntity
  8
1
  6
Continuous
100
AcDbCircle
 10
316.765876
 20
142.070785
 30
0.0
 40
0.65
100
AcDbArc
 50
98.71863799999999
 51
278.718638
  0
ARC
  5
9B02
330
9942
100
AcDbEntity
  8
1
  6
Continuous
100
AcDbCircle
 10
324.6658759999998
 20
143.2822849999998
 30
0.0
 40
0.65
100
AcDbArc
 50
278.718638
 51
98.71863799999999
  0
ARC
  5
9B03
330
9942
100
AcDbEntity
  8
1
  6
Continuous
100
AcDbCircle
 10
316.765876
 20
144.493785
 30
0.0
 40
0.65
100
AcDbArc
 50
98.71863799999999
 51
278.718638
  0
ARC
  5
9B04
330
9942
100
AcDbEntity
  8
1
  6
Continuous
100
AcDbCircle
 10
324.6658759999998
 20
145.7052849999998
 30
0.0
 40
0.65
100
AcDbArc
 50
278.718638
 51
98.71863799999999
  0
ARC
  5
9B05
330
9942
100
AcDbEntity
  8
1
  6
Continuous
100
AcDbCircle
 10
316.765876
 20
146.916785
 30
0.0
 40
0.65
100
AcDbArc
 50
98.71863799999999
 51
278.718638
  0
ARC
  5
9B06
330
9942
100
AcDbEntity
  8
1
  6
Continuous
100
AcDbCircle
 10
324.6658759999998
 20
148.128285
 30
0.0
 40
0.65
100
AcDbArc
 50
278.718638
 51
98.71863799999999
  0
ARC
  5
9B07
330
9942
100
AcDbEntity
  8
1
  6
Continuous
100
AcDbCircle
 10
316.765876
 20
149.339785
 30
0.0
 40
0.65
100
AcDbArc
 50
98.71863799999999
 51
278.718638
  0
ARC
  5
9B08
330
9942
100
AcDbEntity
  8
1
  6
Continuous
100
AcDbCircle
 10
324.6658759999998
 20
150.551285
 30
0.0
 40
0.65
100
AcDbArc
 50
278.718638
 51
98.71863799999999
  0
LINE
  5
9B09
330
9942
100
AcDbEntity
  8
1
  6
Continuous
100
AcDbLine
 10
319.1158759999999
 20
139.350569
 30
0.0
 11
319.1158759999999
 21
138.242545
 31
0.0
  0
LINE
  5
9B0A
330
9942
100
AcDbEntity
  8
1
  6
Continuous
100
AcDbLine
 10
320.7158759999999
 20
139.5959359999999
 30
0.0
 11
320.7158759999999
 21
138.4879769999998
 31
0.0
  0
LINE
  5
9B0B
330
9942
100
AcDbEntity
  8
1
  6
Continuous
100
AcDbLine
 10
322.315876
 20
139.841303
 30
0.0
 11
322.315876
 21
138.7334089999999
 31
0.0
  0
LINE
  5
9B0C
330
9942
100
AcDbEntity
  8
1
  6
Continuous
100
AcDbLine
 10
319.1158759999999
 20
141.7735689999998
 30
0.0
 11
319.1158759999999
 21
140.6657669999999
 31
0.0
  0
LINE
  5
9B0D
330
9942
100
AcDbEntity
  8
1
  6
Continuous
100
AcDbLine
 10
320.7158759999999
 20
142.018936
 30
0.0
 11
320.7158759999999
 21
140.911134
 31
0.0
  0
LINE
  5
9B0E
330
9942
100
AcDbEntity
  8
1
  6
Continuous
100
AcDbLine
 10
322.315876
 20
142.264303
 30
0.0
 11
322.315876
 21
141.1565009999999
 31
0.0
  0
LINE
  5
9B0F
330
9942
100
AcDbEntity
  8
1
  6
Continuous
100
AcDbLine
 10
322.315876
 20
144.687303
 30
0.0
 11
322.315876
 21
143.5795009999999
 31
0.0
  0
LINE
  5
9B10
330
9942
100
AcDbEntity
  8
1
  6
Continuous
100
AcDbLine
 10
320.7158759999999
 20
144.4419359999999
 30
0.0
 11
320.7158759999999
 21
143.334134
 31
0.0
  0
LINE
  5
9B11
330
9942
100
AcDbEntity
  8
1
  6
Continuous
100
AcDbLine
 10
319.1158759999999
 20
144.1965689999999
 30
0.0
 11
319.1158759999999
 21
143.0887669999999
 31
0.0
  0
LINE
  5
9B12
330
9942
100
AcDbEntity
  8
1
  6
Continuous
100
AcDbLine
 10
319.1158759999999
 20
146.6195689999999
 30
0.0
 11
319.1158759999999
 21
145.5117669999999
 31
0.0
  0
LINE
  5
9B13
330
9942
100
AcDbEntity
  8
1
  6
Continuous
100
AcDbLine
 10
320.7158759999999
 20
146.864936
 30
0.0
 11
320.7158759999999
 21
145.757134
 31
0.0
  0
LINE
  5
9B14
330
9942
100
AcDbEntity
  8
1
  6
Continuous
100
AcDbLine
 10
322.315876
 20
147.1103029999999
 30
0.0
 11
322.315876
 21
146.002501
 31
0.0
  0
LINE
  5
9B15
330
9942
100
AcDbEntity
  8
1
  6
Continuous
100
AcDbLine
 10
319.1158759999999
 20
149.0425689999999
 30
0.0
 11
319.1158759999999
 21
147.9347669999999
 31
0.0
  0
LINE
  5
9B16
330
9942
100
AcDbEntity
  8
1
  6
Continuous
100
AcDbLine
 10
320.7158759999999
 20
149.287936
 30
0.0
 11
320.7158759999999
 21
148.180134
 31
0.0
  0
LINE
  5
9B17
330
9942
100
AcDbEntity
  8
1
  6
Continuous
100
AcDbLine
 10
322.315876
 20
149.5333029999999
 30
0.0
 11
322.315876
 21
148.425501
 31
0.0
  0
LINE
  5
9B18
330
9942
100
AcDbEntity
  8
1
  6
Continuous
100
AcDbLine
 10
320.7158759999999
 20
136.5744629999998
 30
0.0
 11
325.315876
 21
136.5744629999998
 31
0.0
  0
LINE
  5
9B19
330
9942
100
AcDbEntity
  8
1
  6
Continuous
100
AcDbLine
 10
289.765876
 20
136.5744629999998
 30
0.0
 11
293.7158759999999
 21
136.5744629999998
 31
0.0
  0
LINE
  5
9B1A
330
9942
100
AcDbEntity
  8
1
  6
Continuous
100
AcDbLine
 10
293.7158759999999
 20
151.201285
 30
0.0
 11
297.6658759999999
 21
151.201285
 31
0.0
  0
LINE
  5
9B1B
330
9942
100
AcDbEntity
  8
1
  6
Continuous
100
AcDbLine
 10
297.5673479999999
 20
151.193774
 30
0.0
 11
289.667348
 21
149.9822739999999
 31
0.0
  0
LINE
  5
9B1C
330
9942
100
AcDbEntity
  8
1
  6
Continuous
100
AcDbLine
 10
297.7644049999998
 20
149.9087959999999
 30
0.0
 11
289.8644049999999
 21
148.6972959999999
 31
0.0
  0
LINE
  5
9B1D
330
9942
100
AcDbEntity
  8
1
  6
Continuous
100
AcDbLine
 10
289.667348
 20
147.5592739999999
 30
0.0
 11
297.5673479999999
 21
148.7707739999999
 31
0.0
  0
LINE
  5
9B1E
330
9942
100
AcDbEntity
  8
1
  6
Continuous
100
AcDbLine
 10
289.8644049999999
 20
146.2742959999999
 30
0.0
 11
297.7644049999998
 21
147.485796
 31
0.0
  0
LINE
  5
9B1F
330
9942
100
AcDbEntity
  8
1
  6
Continuous
100
AcDbLine
 10
297.5673479999999
 20
146.3477739999999
 30
0.0
 11
289.667348
 21
145.1362739999999
 31
0.0
  0
LINE
  5
9B20
330
9942
100
AcDbEntity
  8
1
  6
Continuous
100
AcDbLine
 10
289.8644049999999
 20
143.8512959999999
 30
0.0
 11
297.7644049999998
 21
145.062796
 31
0.0
  0
LINE
  5
9B21
330
9942
100
AcDbEntity
  8
1
  6
Continuous
100
AcDbLine
 10
297.5673479999999
 20
143.9247739999998
 30
0.0
 11
289.667348
 21
142.713274
 31
0.0
  0
LINE
  5
9B22
330
9942
100
AcDbEntity
  8
1
  6
Continuous
100
AcDbLine
 10
289.8644049999999
 20
141.4282959999999
 30
0.0
 11
297.7644049999998
 21
142.6397959999999
 31
0.0
  0
LINE
  5
9B23
330
9942
100
AcDbEntity
  8
1
  6
Continuous
100
AcDbLine
 10
297.5673479999999
 20
141.501774
 30
0.0
 11
289.667348
 21
140.290274
 31
0.0
  0
LINE
  5
9B24
330
9942
100
AcDbEntity
  8
1
  6
Continuous
100
AcDbLine
 10
289.8644049999999
 20
139.005296
 30
0.0
 11
297.7644049999998
 21
140.2167959999998
 31
0.0
  0
LINE
  5
9B25
330
9942
100
AcDbEntity
  8
1
  6
Continuous
100
AcDbLine
 10
297.567322
 20
139.0787699999999
 30
0.0
 11
289.667322
 21
137.866948
 31
0.0
  0
LINE
  5
9B26
330
9942
100
AcDbEntity
  8
1
  6
Continuous
100
AcDbLine
 10
289.8644299999999
 20
136.581978
 30
0.0
 11
297.76443
 21
137.7938
 31
0.0
  0
ARC
  5
9B27
330
9942
100
AcDbEntity
  8
1
  6
Continuous
100
AcDbCircle
 10
289.765876
 20
151.201285
 30
0.0
 40
0.65
100
AcDbArc
 50
180.0
 51
265.2963849999998
  0
LINE
  5
9B28
330
9942
100
AcDbEntity
  8
1
  6
Continuous
100
AcDbLine
 10
289.712575
 20
150.5534739999999
 30
0.0
 11
292.10725
 21
150.3564439999999
 31
0.0
  0
LINE
  5
9B29
330
9942
100
AcDbEntity
  8
1
  6
Continuous
100
AcDbLine
 10
289.667348
 20
148.6972959999999
 30
0.0
 11
292.1158759999999
 21
148.3218029999999
 31
0.0
  0
LINE
  5
9B2A
330
9942
100
AcDbEntity
  8
1
  6
Continuous
100
AcDbLine
 10
295.3158759999999
 20
149.1462669999999
 30
0.0
 11
297.7644049999998
 21
148.7707739999999
 31
0.0
  0
LINE
  5
9B2B
330
9942
100
AcDbEntity
  8
1
  6
Continuous
100
AcDbLine
 10
289.667348
 20
146.2742959999999
 30
0.0
 11
292.1158759999999
 21
145.8988029999999
 31
0.0
  0
LINE
  5
9B2C
330
9942
100
AcDbEntity
  8
1
  6
Continuous
100
AcDbLine
 10
297.7644049999998
 20
146.3477739999999
 30
0.0
 11
295.3158759999999
 21
146.723267
 31
0.0
  0
LINE
  5
9B2D
330
9942
100
AcDbEntity
  8
1
  6
Continuous
100
AcDbLine
 10
295.3158759999999
 20
144.300267
 30
0.0
 11
297.7644049999998
 21
143.9247739999998
 31
0.0
  0
LINE
  5
9B2E
330
9942
100
AcDbEntity
  8
1
  6
Continuous
100
AcDbLine
 10
292.1158759999999
 20
143.475803
 30
0.0
 11
289.667348
 21
143.8512959999999
 31
0.0
  0
LINE
  5
9B2F
330
9942
100
AcDbEntity
  8
1
  6
Continuous
100
AcDbLine
 10
295.3158759999999
 20
141.8772669999999
 30
0.0
 11
297.7644049999998
 21
141.501774
 31
0.0
  0
LINE
  5
9B30
330
9942
100
AcDbEntity
  8
1
  6
Continuous
100
AcDbLine
 10
289.667348
 20
141.4282959999999
 30
0.0
 11
292.1158759999999
 21
141.052803
 31
0.0
  0
LINE
  5
9B31
330
9942
100
AcDbEntity
  8
1
  6
Continuous
100
AcDbLine
 10
292.1158759999999
 20
138.629803
 30
0.0
 11
289.667348
 21
139.005296
 31
0.0
  0
LINE
  5
9B32
330
9942
100
AcDbEntity
  8
1
  6
Continuous
100
AcDbLine
 10
297.7644049999998
 20
139.078774
 30
0.0
 11
295.3158759999999
 21
139.4542669999998
 31
0.0
  0
LINE
  5
9B33
330
9942
100
AcDbEntity
  8
1
  6
Continuous
100
AcDbLine
 10
297.719177
 20
137.2222739999999
 30
0.0
 11
295.3235579999999
 21
137.419382
 31
0.0
  0
ARC
  5
9B34
330
9942
100
AcDbEntity
  8
1
  6
Continuous
100
AcDbCircle
 10
297.6658759999999
 20
136.5744629999998
 30
0.0
 40
0.65
100
AcDbArc
 50
0.0
 51
85.296385
  0
ARC
  5
9B35
330
9942
100
AcDbEntity
  8
1
  6
Continuous
100
AcDbCircle
 10
289.765876
 20
139.6477849999999
 30
0.0
 40
0.65
100
AcDbArc
 50
98.71863799999999
 51
278.718638
  0
ARC
  5
9B36
330
9942
100
AcDbEntity
  8
1
  6
Continuous
100
AcDbCircle
 10
297.6658759999999
 20
140.8592849999998
 30
0.0
 40
0.65
100
AcDbArc
 50
278.718638
 51
98.71863799999999
  0
ARC
  5
9B37
330
9942
100
AcDbEntity
  8
1
  6
Continuous
100
AcDbCircle
 10
289.765876
 20
137.2244629999999
 30
0.0
 40
0.65
100
AcDbArc
 50
98.72092100000003
 51
278.7209209999999
  0
ARC
  5
9B38
330
9942
100
AcDbEntity
  8
1
  6
Continuous
100
AcDbCircle
 10
297.6658759999999
 20
138.436285
 30
0.0
 40
0.65
100
AcDbArc
 50
278.7209209999999
 51
98.72092100000003
  0
ARC
  5
9B39
330
9942
100
AcDbEntity
  8
1
  6
Continuous
100
AcDbCircle
 10
289.765876
 20
142.070785
 30
0.0
 40
0.65
100
AcDbArc
 50
98.71863799999999
 51
278.718638
  0
ARC
  5
9B3A
330
9942
100
AcDbEntity
  8
1
  6
Continuous
100
AcDbCircle
 10
297.6658759999999
 20
143.2822849999998
 30
0.0
 40
0.65
100
AcDbArc
 50
278.718638
 51
98.71863799999999
  0
ARC
  5
9B3B
330
9942
100
AcDbEntity
  8
1
  6
Continuous
100
AcDbCircle
 10
289.765876
 20
144.493785
 30
0.0
 40
0.65
100
AcDbArc
 50
98.71863799999999
 51
278.718638
  0
ARC
  5
9B3C
330
9942
100
AcDbEntity
  8
1
  6
Continuous
100
AcDbCircle
 10
297.6658759999999
 20
145.7052849999998
 30
0.0
 40
0.65
100
AcDbArc
 50
278.718638
 51
98.71863799999999
  0
ARC
  5
9B3D
330
9942
100
AcDbEntity
  8
1
  6
Continuous
100
AcDbCircle
 10
289.765876
 20
146.916785
 30
0.0
 40
0.65
100
AcDbArc
 50
98.71863799999999
 51
278.718638
  0
ARC
  5
9B3E
330
9942
100
AcDbEntity
  8
1
  6
Continuous
100
AcDbCircle
 10
297.6658759999999
 20
148.128285
 30
0.0
 40
0.65
100
AcDbArc
 50
278.718638
 51
98.71863799999999
  0
ARC
  5
9B3F
330
9942
100
AcDbEntity
  8
1
  6
Continuous
100
AcDbCircle
 10
289.765876
 20
149.339785
 30
0.0
 40
0.65
100
AcDbArc
 50
98.71863799999999
 51
278.718638
  0
ARC
  5
9B40
330
9942
100
AcDbEntity
  8
1
  6
Continuous
100
AcDbCircle
 10
297.6658759999999
 20
150.551285
 30
0.0
 40
0.65
100
AcDbArc
 50
278.718638
 51
98.71863799999999
  0
LINE
  5
9B41
330
9942
100
AcDbEntity
  8
1
  6
Continuous
100
AcDbLine
 10
292.1158759999999
 20
139.350569
 30
0.0
 11
292.1158759999999
 21
138.242545
 31
0.0
  0
LINE
  5
9B42
330
9942
100
AcDbEntity
  8
1
  6
Continuous
100
AcDbLine
 10
293.7158759999999
 20
139.5959359999999
 30
0.0
 11
293.7158759999999
 21
138.4879769999998
 31
0.0
  0
LINE
  5
9B43
330
9942
100
AcDbEntity
  8
1
  6
Continuous
100
AcDbLine
 10
295.3158759999999
 20
139.841303
 30
0.0
 11
295.3158759999999
 21
138.7334089999999
 31
0.0
  0
LINE
  5
9B44
330
9942
100
AcDbEntity
  8
1
  6
Continuous
100
AcDbLine
 10
292.1158759999999
 20
141.7735689999998
 30
0.0
 11
292.1158759999999
 21
140.6657669999999
 31
0.0
  0
LINE
  5
9B45
330
9942
100
AcDbEntity
  8
1
  6
Continuous
100
AcDbLine
 10
293.7158759999999
 20
142.018936
 30
0.0
 11
293.7158759999999
 21
140.911134
 31
0.0
  0
LINE
  5
9B46
330
9942
100
AcDbEntity
  8
1
  6
Continuous
100
AcDbLine
 10
295.3158759999999
 20
142.264303
 30
0.0
 11
295.3158759999999
 21
141.1565009999999
 31
0.0
  0
LINE
  5
9B47
330
9942
100
AcDbEntity
  8
1
  6
Continuous
100
AcDbLine
 10
295.3158759999999
 20
144.687303
 30
0.0
 11
295.3158759999999
 21
143.5795009999999
 31
0.0
  0
LINE
  5
9B48
330
9942
100
AcDbEntity
  8
1
  6
Continuous
100
AcDbLine
 10
293.7158759999999
 20
144.4419359999999
 30
0.0
 11
293.7158759999999
 21
143.334134
 31
0.0
  0
LINE
  5
9B49
330
9942
100
AcDbEntity
  8
1
  6
Continuous
100
AcDbLine
 10
292.1158759999999
 20
144.1965689999999
 30
0.0
 11
292.1158759999999
 21
143.0887669999999
 31
0.0
  0
LINE
  5
9B4A
330
9942
100
AcDbEntity
  8
1
  6
Continuous
100
AcDbLine
 10
292.1158759999999
 20
146.6195689999999
 30
0.0
 11
292.1158759999999
 21
145.5117669999999
 31
0.0
  0
LINE
  5
9B4B
330
9942
100
AcDbEntity
  8
1
  6
Continuous
100
AcDbLine
 10
293.7158759999999
 20
146.864936
 30
0.0
 11
293.7158759999999
 21
145.757134
 31
0.0
  0
LINE
  5
9B4C
330
9942
100
AcDbEntity
  8
1
  6
Continuous
100
AcDbLine
 10
295.3158759999999
 20
147.1103029999999
 30
0.0
 11
295.3158759999999
 21
146.002501
 31
0.0
  0
LINE
  5
9B4D
330
9942
100
AcDbEntity
  8
1
  6
Continuous
100
AcDbLine
 10
292.1158759999999
 20
149.0425689999999
 30
0.0
 11
292.1158759999999
 21
147.9347669999999
 31
0.0
  0
LINE
  5
9B4E
330
9942
100
AcDbEntity
  8
1
  6
Continuous
100
AcDbLine
 10
293.7158759999999
 20
149.287936
 30
0.0
 11
293.7158759999999
 21
148.180134
 31
0.0
  0
LINE
  5
9B4F
330
9942
100
AcDbEntity
  8
1
  6
Continuous
100
AcDbLine
 10
295.3158759999999
 20
149.5333029999999
 30
0.0
 11
295.3158759999999
 21
148.425501
 31
0.0
  0
LINE
  5
9B50
330
9942
100
AcDbEntity
  8
1
  6
Continuous
100
AcDbLine
 10
295.3158759999999
 20
136.5744629999998
 30
0.0
 11
298.315876
 21
136.5744629999998
 31
0.0
  0
LINE
  5
9B51
330
9942
100
AcDbEntity
  8
1
  6
Continuous
100
AcDbLine
 10
42.815776
 20
157.6688599999999
 30
0.0
 11
45.21577599999999
 21
157.6688599999999
 31
0.0
  0
LINE
  5
9B52
330
9942
100
AcDbEntity
  8
1
  6
Continuous
100
AcDbLine
 10
42.815776
 20
156.0688599999998
 30
0.0
 11
45.21577599999999
 21
156.0688599999998
 31
0.0
  0
LINE
  5
9B53
330
9942
100
AcDbEntity
  8
4
  6
CENTER
100
AcDbLine
 10
45.21577599999999
 20
162.9884529999999
 30
0.0
 11
19.215776
 21
162.9884529999999
 31
0.0
  0
LINE
  5
9B54
330
9942
100
AcDbEntity
  8
1
  6
Continuous
100
AcDbLine
 10
40.715776
 20
161.4884529999999
 30
0.0
 11
23.715776
 21
161.4884529999999
 31
0.0
  0
LINE
  5
9B55
330
9942
100
AcDbEntity
  8
1
  6
Continuous
100
AcDbLine
 10
40.715776
 20
164.4884529999998
 30
0.0
 11
23.715776
 21
164.4884529999998
 31
0.0
  0
LINE
  5
9B56
330
9942
100
AcDbEntity
  8
1
  6
Continuous
100
AcDbLine
 10
40.715776
 20
165.4884529999999
 30
0.0
 11
42.315776
 21
165.4884529999999
 31
0.0
  0
ARC
  5
9B57
330
9942
100
AcDbEntity
  8
1
  6
Continuous
100
AcDbCircle
 10
42.815776
 20
158.1688599999999
 30
0.0
 40
2.1
100
AcDbArc
 50
179.9999949999999
 51
270.0
  0
ARC
  5
9B58
330
9942
100
AcDbEntity
  8
1
  6
Continuous
100
AcDbCircle
 10
42.815776
 20
158.1688599999999
 30
0.0
 40
0.5
100
AcDbArc
 50
179.9999949999999
 51
270.0
  0
LINE
  5
9B59
330
9942
100
AcDbEntity
  8
1
  6
Continuous
100
AcDbLine
 10
42.315776
 20
165.4884529999999
 30
0.0
 11
42.315776
 21
158.1688599999999
 31
0.0
  0
LINE
  5
9B5A
330
9942
100
AcDbEntity
  8
1
  6
Continuous
100
AcDbLine
 10
40.715776
 20
165.4884529999999
 30
0.0
 11
40.715776
 21
158.1688599999999
 31
0.0
  0
LINE
  5
9B5B
330
9942
100
AcDbEntity
  8
1
  6
Continuous
100
AcDbLine
 10
42.192755
 20
157.6688599999999
 30
0.0
 11
41.19275499999999
 21
157.6688599999999
 31
0.0
  0
LINE
  5
9B5C
330
9942
100
AcDbEntity
  8
1
  6
Continuous
100
AcDbLine
 10
43.215776
 20
161.988453
 30
0.0
 11
42.315776
 21
161.988453
 31
0.0
  0
LINE
  5
9B5D
330
9942
100
AcDbEntity
  8
1
  6
Continuous
100
AcDbLine
 10
43.215776
 20
163.9884529999999
 30
0.0
 11
42.315776
 21
163.9884529999999
 31
0.0
  0
LINE
  5
9B5E
330
9942
100
AcDbEntity
  8
1
  6
Continuous
100
AcDbLine
 10
43.215776
 20
163.9884529999999
 30
0.0
 11
43.215776
 21
161.988453
 31
0.0
  0
LINE
  5
9B5F
330
9942
100
AcDbEntity
  8
1
  6
Continuous
100
AcDbLine
 10
47.315776
 20
155.56886
 30
0.0
 11
47.315776
 21
150.848501
 31
0.0
  0
LINE
  5
9B60
330
9942
100
AcDbEntity
  8
1
  6
Continuous
100
AcDbLine
 10
45.715776
 20
155.56886
 30
0.0
 11
45.715776
 21
150.603134
 31
0.0
  0
ARC
  5
9B61
330
9942
100
AcDbEntity
  8
1
  6
Continuous
100
AcDbCircle
 10
45.21577599999999
 20
155.56886
 30
0.0
 40
2.1
100
AcDbArc
 50
0.0
 51
90.0
  0
ARC
  5
9B62
330
9942
100
AcDbEntity
  8
1
  6
Continuous
100
AcDbCircle
 10
45.21577599999999
 20
155.56886
 30
0.0
 40
0.5
100
AcDbArc
 50
0.0
 51
90.0
  0
LINE
  5
9B63
330
9942
100
AcDbEntity
  8
1
  6
Continuous
100
AcDbLine
 10
17.115776
 20
155.56886
 30
0.0
 11
17.115776
 21
150.357767
 31
0.0
  0
LINE
  5
9B64
330
9942
100
AcDbEntity
  8
1
  6
Continuous
100
AcDbLine
 10
18.715776
 20
155.56886
 30
0.0
 11
18.715776
 21
150.603134
 31
0.0
  0
ARC
  5
9B65
330
9942
100
AcDbEntity
  8
1
  6
Continuous
100
AcDbCircle
 10
19.215776
 20
155.56886
 30
0.0
 40
0.5
100
AcDbArc
 50
90.0
 51
180.0
  0
ARC
  5
9B66
330
9942
100
AcDbEntity
  8
1
  6
Continuous
100
AcDbCircle
 10
19.215776
 20
155.56886
 30
0.0
 40
2.1
100
AcDbArc
 50
90.0
 51
180.0
  0
ARC
  5
9B67
330
9942
100
AcDbEntity
  8
1
  6
Continuous
100
AcDbCircle
 10
21.615776
 20
158.1688599999999
 30
0.0
 40
2.1
100
AcDbArc
 50
270.0
 51
0.000005
  0
ARC
  5
9B68
330
9942
100
AcDbEntity
  8
1
  6
Continuous
100
AcDbCircle
 10
21.615776
 20
158.1688599999999
 30
0.0
 40
0.5
100
AcDbArc
 50
270.0
 51
0.000005
  0
LINE
  5
9B69
330
9942
100
AcDbEntity
  8
1
  6
Continuous
100
AcDbLine
 10
22.238797
 20
157.6688599999999
 30
0.0
 11
23.238797
 21
157.6688599999999
 31
0.0
  0
LINE
  5
9B6A
330
9942
100
AcDbEntity
  8
1
  6
Continuous
100
AcDbLine
 10
22.115776
 20
161.988453
 30
0.0
 11
21.215776
 21
161.988453
 31
0.0
  0
LINE
  5
9B6B
330
9942
100
AcDbEntity
  8
1
  6
Continuous
100
AcDbLine
 10
22.115776
 20
163.9884529999999
 30
0.0
 11
21.215776
 21
163.9884529999999
 31
0.0
  0
LINE
  5
9B6C
330
9942
100
AcDbEntity
  8
1
  6
Continuous
100
AcDbLine
 10
21.215776
 20
163.9884529999999
 30
0.0
 11
21.215776
 21
161.988453
 31
0.0
  0
LINE
  5
9B6D
330
9942
100
AcDbEntity
  8
1
  6
Continuous
100
AcDbLine
 10
21.615776
 20
157.6688599999999
 30
0.0
 11
19.215776
 21
157.6688599999999
 31
0.0
  0
LINE
  5
9B6E
330
9942
100
AcDbEntity
  8
1
  6
Continuous
100
AcDbLine
 10
22.115776
 20
165.4884529999999
 30
0.0
 11
22.115776
 21
158.1688599999999
 31
0.0
  0
LINE
  5
9B6F
330
9942
100
AcDbEntity
  8
1
  6
Continuous
100
AcDbLine
 10
23.715776
 20
165.4884529999999
 30
0.0
 11
23.715776
 21
158.1688599999999
 31
0.0
  0
LINE
  5
9B70
330
9942
100
AcDbEntity
  8
1
  6
Continuous
100
AcDbLine
 10
21.615776
 20
156.0688599999998
 30
0.0
 11
19.215776
 21
156.0688599999998
 31
0.0
  0
LINE
  5
9B71
330
9942
100
AcDbEntity
  8
1
  6
Continuous
100
AcDbLine
 10
23.715776
 20
165.4884529999999
 30
0.0
 11
22.115776
 21
165.4884529999999
 31
0.0
  0
ARC
  5
9B72
330
9942
100
AcDbEntity
  8
1
  6
Continuous
100
AcDbCircle
 10
21.615776
 20
130.461782
 30
0.0
 40
2.1
100
AcDbArc
 50
0.0
 51
51.19951499999999
  0
LINE
  5
9B73
330
9942
100
AcDbEntity
  8
1
  6
Continuous
100
AcDbLine
 10
21.92908099999999
 20
130.7882079999999
 30
0.0
 11
19.499776
 21
132.741453
 31
0.0
  0
ARC
  5
9B74
330
9942
100
AcDbEntity
  8
1
  6
Continuous
100
AcDbCircle
 10
21.615776
 20
130.3985419999999
 30
0.0
 40
0.5
100
AcDbArc
 50
0.0
 51
51.19951499999999
  0
LINE
  5
9B75
330
9942
100
AcDbEntity
  8
1
  6
Continuous
100
AcDbLine
 10
22.115776
 20
127.638453
 30
0.0
 11
21.215776
 21
127.638453
 31
0.0
  0
LINE
  5
9B76
330
9942
100
AcDbEntity
  8
1
  6
Continuous
100
AcDbLine
 10
22.115776
 20
129.638453
 30
0.0
 11
21.215776
 21
129.638453
 31
0.0
  0
LINE
  5
9B77
330
9942
100
AcDbEntity
  8
1
  6
Continuous
100
AcDbLine
 10
21.215776
 20
129.638453
 30
0.0
 11
21.215776
 21
127.638453
 31
0.0
  0
LINE
  5
9B78
330
9942
100
AcDbEntity
  8
1
  6
Continuous
100
AcDbLine
 10
22.115776
 20
130.3985419999999
 30
0.0
 11
22.115776
 21
124.1384529999999
 31
0.0
  0
LINE
  5
9B79
330
9942
100
AcDbEntity
  8
1
  6
Continuous
100
AcDbLine
 10
23.715776
 20
124.1384529999999
 30
0.0
 11
22.115776
 21
124.1384529999999
 31
0.0
  0
LINE
  5
9B7A
330
9942
100
AcDbEntity
  8
1
  6
Continuous
100
AcDbLine
 10
23.715776
 20
130.461782
 30
0.0
 11
23.715776
 21
124.1384529999999
 31
0.0
  0
LINE
  5
9B7B
330
9942
100
AcDbEntity
  8
1
  6
Continuous
100
AcDbLine
 10
17.115776
 20
136.9273389999999
 30
0.0
 11
17.115776
 21
134.0744629999998
 31
0.0
  0
LINE
  5
9B7C
330
9942
100
AcDbEntity
  8
1
  6
Continuous
100
AcDbLine
 10
18.715776
 20
137.1727709999998
 30
0.0
 11
18.715776
 21
134.0744629999998
 31
0.0
  0
LINE
  5
9B7D
330
9942
100
AcDbEntity
  8
1
  6
Continuous
100
AcDbLine
 10
20.31577599999998
 20
137.4182039999998
 30
0.0
 11
20.31577599999998
 21
134.4402849999999
 31
0.0
  0
LINE
  5
9B7E
330
9942
100
AcDbEntity
  8
1
  6
Continuous
100
AcDbLine
 10
20.31577599999998
 20
153.701285
 30
0.0
 11
20.31577599999998
 21
150.848501
 31
0.0
  0
LINE
  5
9B7F
330
9942
100
AcDbEntity
  8
1
  6
Continuous
100
AcDbLine
 10
20.31577599999998
 20
136.5744629999998
 30
0.0
 11
23.315776
 21
136.5744629999998
 31
0.0
  0
LINE
  5
9B80
330
9942
100
AcDbEntity
  8
1
  6
Continuous
100
AcDbLine
 10
20.31577599999998
 20
149.5333029999999
 30
0.0
 11
20.31577599999998
 21
148.425501
 31
0.0
  0
LINE
  5
9B81
330
9942
100
AcDbEntity
  8
1
  6
Continuous
100
AcDbLine
 10
18.715776
 20
149.287936
 30
0.0
 11
18.715776
 21
148.180134
 31
0.0
  0
LINE
  5
9B82
330
9942
100
AcDbEntity
  8
1
  6
Continuous
100
AcDbLine
 10
17.115776
 20
149.0425689999999
 30
0.0
 11
17.115776
 21
147.9347669999999
 31
0.0
  0
LINE
  5
9B83
330
9942
100
AcDbEntity
  8
1
  6
Continuous
100
AcDbLine
 10
20.31577599999998
 20
147.1103029999999
 30
0.0
 11
20.31577599999998
 21
146.002501
 31
0.0
  0
LINE
  5
9B84
330
9942
100
AcDbEntity
  8
1
  6
Continuous
100
AcDbLine
 10
18.715776
 20
146.864936
 30
0.0
 11
18.715776
 21
145.757134
 31
0.0
  0
LINE
  5
9B85
330
9942
100
AcDbEntity
  8
1
  6
Continuous
100
AcDbLine
 10
17.115776
 20
146.6195689999999
 30
0.0
 11
17.115776
 21
145.5117669999999
 31
0.0
  0
LINE
  5
9B86
330
9942
100
AcDbEntity
  8
1
  6
Continuous
100
AcDbLine
 10
17.115776
 20
144.1965689999999
 30
0.0
 11
17.115776
 21
143.0887669999999
 31
0.0
  0
LINE
  5
9B87
330
9942
100
AcDbEntity
  8
1
  6
Continuous
100
AcDbLine
 10
18.715776
 20
144.4419359999999
 30
0.0
 11
18.715776
 21
143.334134
 31
0.0
  0
LINE
  5
9B88
330
9942
100
AcDbEntity
  8
1
  6
Continuous
100
AcDbLine
 10
20.31577599999998
 20
144.687303
 30
0.0
 11
20.31577599999998
 21
143.5795009999999
 31
0.0
  0
LINE
  5
9B89
330
9942
100
AcDbEntity
  8
1
  6
Continuous
100
AcDbLine
 10
20.31577599999998
 20
142.264303
 30
0.0
 11
20.31577599999998
 21
141.1565009999999
 31
0.0
  0
LINE
  5
9B8A
330
9942
100
AcDbEntity
  8
1
  6
Continuous
100
AcDbLine
 10
18.715776
 20
142.018936
 30
0.0
 11
18.715776
 21
140.911134
 31
0.0
  0
LINE
  5
9B8B
330
9942
100
AcDbEntity
  8
1
  6
Continuous
100
AcDbLine
 10
17.115776
 20
141.7735689999998
 30
0.0
 11
17.115776
 21
140.6657669999999
 31
0.0
  0
LINE
  5
9B8C
330
9942
100
AcDbEntity
  8
1
  6
Continuous
100
AcDbLine
 10
20.31577599999998
 20
139.841303
 30
0.0
 11
20.31577599999998
 21
138.7334089999999
 31
0.0
  0
LINE
  5
9B8D
330
9942
100
AcDbEntity
  8
1
  6
Continuous
100
AcDbLine
 10
18.715776
 20
139.5959359999999
 30
0.0
 11
18.715776
 21
138.4879769999998
 31
0.0
  0
LINE
  5
9B8E
330
9942
100
AcDbEntity
  8
1
  6
Continuous
100
AcDbLine
 10
17.115776
 20
139.350569
 30
0.0
 11
17.115776
 21
138.242545
 31
0.0
  0
ARC
  5
9B8F
330
9942
100
AcDbEntity
  8
1
  6
Continuous
100
AcDbCircle
 10
22.665776
 20
150.551285
 30
0.0
 40
0.65
100
AcDbArc
 50
278.718638
 51
98.71863799999999
  0
ARC
  5
9B90
330
9942
100
AcDbEntity
  8
1
  6
Continuous
100
AcDbCircle
 10
14.765776
 20
149.339785
 30
0.0
 40
0.65
100
AcDbArc
 50
98.71863799999999
 51
278.718638
  0
ARC
  5
9B91
330
9942
100
AcDbEntity
  8
1
  6
Continuous
100
AcDbCircle
 10
22.665776
 20
148.128285
 30
0.0
 40
0.65
100
AcDbArc
 50
278.718638
 51
98.71863799999999
  0
ARC
  5
9B92
330
9942
100
AcDbEntity
  8
1
  6
Continuous
100
AcDbCircle
 10
14.765776
 20
146.916785
 30
0.0
 40
0.65
100
AcDbArc
 50
98.71863799999999
 51
278.718638
  0
ARC
  5
9B93
330
9942
100
AcDbEntity
  8
1
  6
Continuous
100
AcDbCircle
 10
22.665776
 20
145.7052849999998
 30
0.0
 40
0.65
100
AcDbArc
 50
278.718638
 51
98.71863799999999
  0
ARC
  5
9B94
330
9942
100
AcDbEntity
  8
1
  6
Continuous
100
AcDbCircle
 10
14.765776
 20
144.493785
 30
0.0
 40
0.65
100
AcDbArc
 50
98.71863799999999
 51
278.718638
  0
ARC
  5
9B95
330
9942
100
AcDbEntity
  8
1
  6
Continuous
100
AcDbCircle
 10
22.665776
 20
143.2822849999998
 30
0.0
 40
0.65
100
AcDbArc
 50
278.718638
 51
98.71863799999999
  0
ARC
  5
9B96
330
9942
100
AcDbEntity
  8
1
  6
Continuous
100
AcDbCircle
 10
14.765776
 20
142.070785
 30
0.0
 40
0.65
100
AcDbArc
 50
98.71863799999999
 51
278.718638
  0
ARC
  5
9B97
330
9942
100
AcDbEntity
  8
1
  6
Continuous
100
AcDbCircle
 10
22.665776
 20
138.436285
 30
0.0
 40
0.65
100
AcDbArc
 50
278.7209209999999
 51
98.72092100000003
  0
ARC
  5
9B98
330
9942
100
AcDbEntity
  8
1
  6
Continuous
100
AcDbCircle
 10
14.765776
 20
137.2244629999999
 30
0.0
 40
0.65
100
AcDbArc
 50
98.72092100000003
 51
278.7209209999999
  0
ARC
  5
9B99
330
9942
100
AcDbEntity
  8
1
  6
Continuous
100
AcDbCircle
 10
22.665776
 20
140.8592849999998
 30
0.0
 40
0.65
100
AcDbArc
 50
278.718638
 51
98.71863799999999
  0
ARC
  5
9B9A
330
9942
100
AcDbEntity
  8
1
  6
Continuous
100
AcDbCircle
 10
14.765776
 20
139.6477849999999
 30
0.0
 40
0.65
100
AcDbArc
 50
98.71863799999999
 51
278.718638
  0
ARC
  5
9B9B
330
9942
100
AcDbEntity
  8
1
  6
Continuous
100
AcDbCircle
 10
22.665776
 20
136.5744629999998
 30
0.0
 40
0.65
100
AcDbArc
 50
0.0
 51
85.296385
  0
LINE
  5
9B9C
330
9942
100
AcDbEntity
  8
1
  6
Continuous
100
AcDbLine
 10
22.71907699999999
 20
137.2222739999999
 30
0.0
 11
20.32345799999999
 21
137.419382
 31
0.0
  0
LINE
  5
9B9D
330
9942
100
AcDbEntity
  8
1
  6
Continuous
100
AcDbLine
 10
22.764305
 20
139.078774
 30
0.0
 11
20.31577599999998
 21
139.4542669999998
 31
0.0
  0
LINE
  5
9B9E
330
9942
100
AcDbEntity
  8
1
  6
Continuous
100
AcDbLine
 10
17.115776
 20
138.629803
 30
0.0
 11
14.667248
 21
139.005296
 31
0.0
  0
LINE
  5
9B9F
330
9942
100
AcDbEntity
  8
1
  6
Continuous
100
AcDbLine
 10
14.667248
 20
141.4282959999999
 30
0.0
 11
17.115776
 21
141.052803
 31
0.0
  0
LINE
  5
9BA0
330
9942
100
AcDbEntity
  8
1
  6
Continuous
100
AcDbLine
 10
20.31577599999998
 20
141.8772669999999
 30
0.0
 11
22.764305
 21
141.501774
 31
0.0
  0
LINE
  5
9BA1
330
9942
100
AcDbEntity
  8
1
  6
Continuous
100
AcDbLine
 10
17.115776
 20
143.475803
 30
0.0
 11
14.667248
 21
143.8512959999999
 31
0.0
  0
LINE
  5
9BA2
330
9942
100
AcDbEntity
  8
1
  6
Continuous
100
AcDbLine
 10
20.31577599999998
 20
144.300267
 30
0.0
 11
22.764305
 21
143.9247739999998
 31
0.0
  0
LINE
  5
9BA3
330
9942
100
AcDbEntity
  8
1
  6
Continuous
100
AcDbLine
 10
22.764305
 20
146.3477739999999
 30
0.0
 11
20.31577599999998
 21
146.723267
 31
0.0
  0
LINE
  5
9BA4
330
9942
100
AcDbEntity
  8
1
  6
Continuous
100
AcDbLine
 10
14.667248
 20
146.2742959999999
 30
0.0
 11
17.115776
 21
145.8988029999999
 31
0.0
  0
LINE
  5
9BA5
330
9942
100
AcDbEntity
  8
1
  6
Continuous
100
AcDbLine
 10
20.31577599999998
 20
149.1462669999999
 30
0.0
 11
22.764305
 21
148.7707739999999
 31
0.0
  0
LINE
  5
9BA6
330
9942
100
AcDbEntity
  8
1
  6
Continuous
100
AcDbLine
 10
14.667248
 20
148.6972959999999
 30
0.0
 11
17.115776
 21
148.3218029999999
 31
0.0
  0
LINE
  5
9BA7
330
9942
100
AcDbEntity
  8
1
  6
Continuous
100
AcDbLine
 10
14.712475
 20
150.5534739999999
 30
0.0
 11
17.10715
 21
150.3564439999999
 31
0.0
  0
ARC
  5
9BA8
330
9942
100
AcDbEntity
  8
1
  6
Continuous
100
AcDbCircle
 10
14.765776
 20
151.201285
 30
0.0
 40
0.65
100
AcDbArc
 50
180.0
 51
265.2963849999998
  0
LINE
  5
9BA9
330
9942
100
AcDbEntity
  8
1
  6
Continuous
100
AcDbLine
 10
14.86432999999999
 20
136.581978
 30
0.0
 11
22.76432999999999
 21
137.7938
 31
0.0
  0
LINE
  5
9BAA
330
9942
100
AcDbEntity
  8
1
  6
Continuous
100
AcDbLine
 10
22.567222
 20
139.0787699999999
 30
0.0
 11
14.667222
 21
137.866948
 31
0.0
  0
LINE
  5
9BAB
330
9942
100
AcDbEntity
  8
1
  6
Continuous
100
AcDbLine
 10
14.86430499999998
 20
139.005296
 30
0.0
 11
22.764305
 21
140.2167959999998
 31
0.0
  0
LINE
  5
9BAC
330
9942
100
AcDbEntity
  8
1
  6
Continuous
100
AcDbLine
 10
22.567248
 20
141.501774
 30
0.0
 11
14.667248
 21
140.290274
 31
0.0
  0
LINE
  5
9BAD
330
9942
100
AcDbEntity
  8
1
  6
Continuous
100
AcDbLine
 10
14.86430499999998
 20
141.4282959999999
 30
0.0
 11
22.764305
 21
142.6397959999999
 31
0.0
  0
LINE
  5
9BAE
330
9942
100
AcDbEntity
  8
1
  6
Continuous
100
AcDbLine
 10
22.567248
 20
143.9247739999998
 30
0.0
 11
14.667248
 21
142.713274
 31
0.0
  0
LINE
  5
9BAF
330
9942
100
AcDbEntity
  8
1
  6
Continuous
100
AcDbLine
 10
14.86430499999998
 20
143.8512959999999
 30
0.0
 11
22.764305
 21
145.062796
 31
0.0
  0
LINE
  5
9BB0
330
9942
100
AcDbEntity
  8
1
  6
Continuous
100
AcDbLine
 10
22.567248
 20
146.3477739999999
 30
0.0
 11
14.667248
 21
145.1362739999999
 31
0.0
  0
LINE
  5
9BB1
330
9942
100
AcDbEntity
  8
1
  6
Continuous
100
AcDbLine
 10
14.86430499999998
 20
146.2742959999999
 30
0.0
 11
22.764305
 21
147.485796
 31
0.0
  0
LINE
  5
9BB2
330
9942
100
AcDbEntity
  8
1
  6
Continuous
100
AcDbLine
 10
14.667248
 20
147.5592739999999
 30
0.0
 11
22.567248
 21
148.7707739999999
 31
0.0
  0
LINE
  5
9BB3
330
9942
100
AcDbEntity
  8
1
  6
Continuous
100
AcDbLine
 10
22.764305
 20
149.9087959999999
 30
0.0
 11
14.86430499999998
 21
148.6972959999999
 31
0.0
  0
LINE
  5
9BB4
330
9942
100
AcDbEntity
  8
1
  6
Continuous
100
AcDbLine
 10
22.567248
 20
151.193774
 30
0.0
 11
14.667248
 21
149.9822739999999
 31
0.0
  0
LINE
  5
9BB5
330
9942
100
AcDbEntity
  8
1
  6
Continuous
100
AcDbLine
 10
18.715776
 20
151.201285
 30
0.0
 11
22.665776
 21
151.201285
 31
0.0
  0
LINE
  5
9BB6
330
9942
100
AcDbEntity
  8
1
  6
Continuous
100
AcDbLine
 10
14.765776
 20
136.5744629999998
 30
0.0
 11
18.715776
 21
136.5744629999998
 31
0.0
  0
ARC
  5
9BB7
330
9942
100
AcDbEntity
  8
1
  6
Continuous
100
AcDbCircle
 10
20.815776
 20
134.4402849999999
 30
0.0
 40
0.5
100
AcDbArc
 50
180.0
 51
231.203
  0
ARC
  5
9BB8
330
9942
100
AcDbEntity
  8
1
  6
Continuous
100
AcDbCircle
 10
20.815776
 20
134.4402849999999
 30
0.0
 40
2.1
100
AcDbArc
 50
180.0
 51
231.203
  0
LINE
  5
9BB9
330
9942
100
AcDbEntity
  8
1
  6
Continuous
100
AcDbLine
 10
18.715776
 20
153.701285
 30
0.0
 11
20.31577599999998
 21
153.701285
 31
0.0
  0
LINE
  5
9BBA
330
9942
100
AcDbEntity
  8
1
  6
Continuous
100
AcDbLine
 10
14.115776
 20
151.201285
 30
0.0
 11
17.115776
 21
151.201285
 31
0.0
  0
LINE
  5
9BBB
330
9942
100
AcDbEntity
  8
1
  6
Continuous
100
AcDbLine
 10
20.502776
 20
134.051285
 30
0.0
 11
22.931658
 21
132.09838
 31
0.0
  0
LINE
  5
9BBC
330
9942
100
AcDbEntity
  8
1
  6
Continuous
100
AcDbLine
 10
18.715776
 20
134.0744629999998
 30
0.0
 11
17.115776
 21
134.0744629999998
 31
0.0
  0
LINE
  5
9BBD
330
9942
100
AcDbEntity
  8
1
  6
Continuous
100
AcDbLine
 10
41.11577599999999
 20
151.201285
 30
0.0
 11
45.715776
 21
151.201285
 31
0.0
  0
LINE
  5
9BBE
330
9942
100
AcDbEntity
  8
1
  6
Continuous
100
AcDbLine
 10
41.86433
 20
136.581978
 30
0.0
 11
49.76433
 21
137.7938
 31
0.0
  0
LINE
  5
9BBF
330
9942
100
AcDbEntity
  8
1
  6
Continuous
100
AcDbLine
 10
49.56722199999999
 20
139.0787699999999
 30
0.0
 11
41.66722199999997
 21
137.866948
 31
0.0
  0
LINE
  5
9BC0
330
9942
100
AcDbEntity
  8
1
  6
Continuous
100
AcDbLine
 10
41.864305
 20
139.005296
 30
0.0
 11
49.764305
 21
140.2167959999998
 31
0.0
  0
LINE
  5
9BC1
330
9942
100
AcDbEntity
  8
1
  6
Continuous
100
AcDbLine
 10
49.56724799999999
 20
141.501774
 30
0.0
 11
41.66724799999999
 21
140.290274
 31
0.0
  0
LINE
  5
9BC2
330
9942
100
AcDbEntity
  8
1
  6
Continuous
100
AcDbLine
 10
41.864305
 20
141.4282959999999
 30
0.0
 11
49.764305
 21
142.6397959999999
 31
0.0
  0
LINE
  5
9BC3
330
9942
100
AcDbEntity
  8
1
  6
Continuous
100
AcDbLine
 10
49.56724799999999
 20
143.9247739999998
 30
0.0
 11
41.66724799999999
 21
142.713274
 31
0.0
  0
LINE
  5
9BC4
330
9942
100
AcDbEntity
  8
1
  6
Continuous
100
AcDbLine
 10
41.864305
 20
143.8512959999999
 30
0.0
 11
49.764305
 21
145.062796
 31
0.0
  0
LINE
  5
9BC5
330
9942
100
AcDbEntity
  8
1
  6
Continuous
100
AcDbLine
 10
49.56724799999999
 20
146.3477739999999
 30
0.0
 11
41.66724799999999
 21
145.1362739999999
 31
0.0
  0
LINE
  5
9BC6
330
9942
100
AcDbEntity
  8
1
  6
Continuous
100
AcDbLine
 10
41.864305
 20
146.2742959999999
 30
0.0
 11
49.764305
 21
147.485796
 31
0.0
  0
LINE
  5
9BC7
330
9942
100
AcDbEntity
  8
1
  6
Continuous
100
AcDbLine
 10
41.66724799999999
 20
147.5592739999999
 30
0.0
 11
49.56724799999999
 21
148.7707739999999
 31
0.0
  0
LINE
  5
9BC8
330
9942
100
AcDbEntity
  8
1
  6
Continuous
100
AcDbLine
 10
49.764305
 20
149.9087959999999
 30
0.0
 11
41.864305
 21
148.6972959999999
 31
0.0
  0
LINE
  5
9BC9
330
9942
100
AcDbEntity
  8
1
  6
Continuous
100
AcDbLine
 10
49.56724799999999
 20
151.193774
 30
0.0
 11
41.66724799999999
 21
149.9822739999999
 31
0.0
  0
LINE
  5
9BCA
330
9942
100
AcDbEntity
  8
1
  6
Continuous
100
AcDbLine
 10
42.502471
 20
130.7882079999999
 30
0.0
 11
44.931776
 21
132.741453
 31
0.0
  0
ARC
  5
9BCB
330
9942
100
AcDbEntity
  8
1
  6
Continuous
100
AcDbCircle
 10
43.61577599999999
 20
134.4402849999999
 30
0.0
 40
0.5
100
AcDbArc
 50
308.797
 51
0.0
  0
LINE
  5
9BCC
330
9942
100
AcDbEntity
  8
1
  6
Continuous
100
AcDbLine
 10
45.715776
 20
153.701285
 30
0.0
 11
44.115776
 21
153.701285
 31
0.0
  0
LINE
  5
9BCD
330
9942
100
AcDbEntity
  8
1
  6
Continuous
100
AcDbLine
 10
42.315776
 20
130.3985419999999
 30
0.0
 11
42.315776
 21
124.1384529999999
 31
0.0
  0
ARC
  5
9BCE
330
9942
100
AcDbEntity
  8
1
  6
Continuous
100
AcDbCircle
 10
42.815776
 20
130.3985419999999
 30
0.0
 40
0.5
100
AcDbArc
 50
128.800485
 51
180.0
  0
LINE
  5
9BCF
330
9942
100
AcDbEntity
  8
1
  6
Continuous
100
AcDbLine
 10
43.215776
 20
129.638453
 30
0.0
 11
42.315776
 21
129.638453
 31
0.0
  0
LINE
  5
9BD0
330
9942
100
AcDbEntity
  8
1
  6
Continuous
100
AcDbLine
 10
43.215776
 20
127.638453
 30
0.0
 11
42.315776
 21
127.638453
 31
0.0
  0
LINE
  5
9BD1
330
9942
100
AcDbEntity
  8
1
  6
Continuous
100
AcDbLine
 10
43.215776
 20
129.638453
 30
0.0
 11
43.215776
 21
127.638453
 31
0.0
  0
LINE
  5
9BD2
330
9942
100
AcDbEntity
  8
1
  6
Continuous
100
AcDbLine
 10
41.765776
 20
136.5744629999998
 30
0.0
 11
44.115776
 21
136.5744629999998
 31
0.0
  0
LINE
  5
9BD3
330
9942
100
AcDbEntity
  8
1
  6
Continuous
100
AcDbLine
 10
44.115776
 20
136.9273389999999
 30
0.0
 11
44.115776
 21
134.4402849999999
 31
0.0
  0
LINE
  5
9BD4
330
9942
100
AcDbEntity
  8
1
  6
Continuous
100
AcDbLine
 10
44.115776
 20
153.701285
 30
0.0
 11
44.115776
 21
150.357767
 31
0.0
  0
LINE
  5
9BD5
330
9942
100
AcDbEntity
  8
1
  6
Continuous
100
AcDbLine
 10
44.115776
 20
149.0425689999999
 30
0.0
 11
44.115776
 21
147.9347669999999
 31
0.0
  0
LINE
  5
9BD6
330
9942
100
AcDbEntity
  8
1
  6
Continuous
100
AcDbLine
 10
44.115776
 20
146.6195689999999
 30
0.0
 11
44.115776
 21
145.5117669999999
 31
0.0
  0
LINE
  5
9BD7
330
9942
100
AcDbEntity
  8
1
  6
Continuous
100
AcDbLine
 10
44.115776
 20
144.1965689999999
 30
0.0
 11
44.115776
 21
143.0887669999999
 31
0.0
  0
LINE
  5
9BD8
330
9942
100
AcDbEntity
  8
1
  6
Continuous
100
AcDbLine
 10
44.115776
 20
141.7735689999998
 30
0.0
 11
44.115776
 21
140.6657669999999
 31
0.0
  0
LINE
  5
9BD9
330
9942
100
AcDbEntity
  8
1
  6
Continuous
100
AcDbLine
 10
44.115776
 20
139.350569
 30
0.0
 11
44.115776
 21
138.242545
 31
0.0
  0
ARC
  5
9BDA
330
9942
100
AcDbEntity
  8
1
  6
Continuous
100
AcDbCircle
 10
41.765776
 20
149.339785
 30
0.0
 40
0.65
100
AcDbArc
 50
98.71863799999999
 51
278.718638
  0
ARC
  5
9BDB
330
9942
100
AcDbEntity
  8
1
  6
Continuous
100
AcDbCircle
 10
41.765776
 20
146.916785
 30
0.0
 40
0.65
100
AcDbArc
 50
98.71863799999999
 51
278.718638
  0
ARC
  5
9BDC
330
9942
100
AcDbEntity
  8
1
  6
Continuous
100
AcDbCircle
 10
41.765776
 20
144.493785
 30
0.0
 40
0.65
100
AcDbArc
 50
98.71863799999999
 51
278.718638
  0
ARC
  5
9BDD
330
9942
100
AcDbEntity
  8
1
  6
Continuous
100
AcDbCircle
 10
41.765776
 20
142.070785
 30
0.0
 40
0.65
100
AcDbArc
 50
98.71863799999999
 51
278.718638
  0
ARC
  5
9BDE
330
9942
100
AcDbEntity
  8
1
  6
Continuous
100
AcDbCircle
 10
41.765776
 20
137.2244629999999
 30
0.0
 40
0.65
100
AcDbArc
 50
98.72092100000003
 51
278.7209209999999
  0
ARC
  5
9BDF
330
9942
100
AcDbEntity
  8
1
  6
Continuous
100
AcDbCircle
 10
41.765776
 20
139.6477849999999
 30
0.0
 40
0.65
100
AcDbArc
 50
98.71863799999999
 51
278.718638
  0
LINE
  5
9BE0
330
9942
100
AcDbEntity
  8
1
  6
Continuous
100
AcDbLine
 10
44.115776
 20
138.629803
 30
0.0
 11
41.66724799999999
 21
139.005296
 31
0.0
  0
LINE
  5
9BE1
330
9942
100
AcDbEntity
  8
1
  6
Continuous
100
AcDbLine
 10
41.66724799999999
 20
141.4282959999999
 30
0.0
 11
44.115776
 21
141.052803
 31
0.0
  0
LINE
  5
9BE2
330
9942
100
AcDbEntity
  8
1
  6
Continuous
100
AcDbLine
 10
44.115776
 20
143.475803
 30
0.0
 11
41.66724799999999
 21
143.8512959999999
 31
0.0
  0
LINE
  5
9BE3
330
9942
100
AcDbEntity
  8
1
  6
Continuous
100
AcDbLine
 10
41.66724799999999
 20
146.2742959999999
 30
0.0
 11
44.115776
 21
145.8988029999999
 31
0.0
  0
LINE
  5
9BE4
330
9942
100
AcDbEntity
  8
1
  6
Continuous
100
AcDbLine
 10
41.66724799999999
 20
148.6972959999999
 30
0.0
 11
44.115776
 21
148.3218029999999
 31
0.0
  0
LINE
  5
9BE5
330
9942
100
AcDbEntity
  8
1
  6
Continuous
100
AcDbLine
 10
41.71247499999997
 20
150.5534739999999
 30
0.0
 11
44.10714999999998
 21
150.3564439999999
 31
0.0
  0
ARC
  5
9BE6
330
9942
100
AcDbEntity
  8
1
  6
Continuous
100
AcDbCircle
 10
41.765776
 20
151.201285
 30
0.0
 40
0.65
100
AcDbArc
 50
180.0
 51
265.2963849999998
  0
LINE
  5
9BE7
330
9942
100
AcDbEntity
  8
1
  6
Continuous
100
AcDbLine
 10
43.928776
 20
134.051285
 30
0.0
 11
41.49989399999999
 21
132.09838
 31
0.0
  0
LINE
  5
9BE8
330
9942
100
AcDbEntity
  8
1
  6
Continuous
100
AcDbLine
 10
47.315776
 20
151.201285
 30
0.0
 11
49.665776
 21
151.201285
 31
0.0
  0
LINE
  5
9BE9
330
9942
100
AcDbEntity
  8
1
  6
Continuous
100
AcDbLine
 10
45.715776
 20
137.1727709999998
 30
0.0
 11
45.715776
 21
134.0744629999998
 31
0.0
  0
LINE
  5
9BEA
330
9942
100
AcDbEntity
  8
1
  6
Continuous
100
AcDbLine
 10
47.315776
 20
137.4182039999998
 30
0.0
 11
47.315776
 21
134.0744629999998
 31
0.0
  0
LINE
  5
9BEB
330
9942
100
AcDbEntity
  8
1
  6
Continuous
100
AcDbLine
 10
45.715776
 20
136.5744629999998
 30
0.0
 11
50.315776
 21
136.5744629999998
 31
0.0
  0
LINE
  5
9BEC
330
9942
100
AcDbEntity
  8
1
  6
Continuous
100
AcDbLine
 10
47.315776
 20
149.5333029999999
 30
0.0
 11
47.315776
 21
148.425501
 31
0.0
  0
LINE
  5
9BED
330
9942
100
AcDbEntity
  8
1
  6
Continuous
100
AcDbLine
 10
45.715776
 20
149.287936
 30
0.0
 11
45.715776
 21
148.180134
 31
0.0
  0
LINE
  5
9BEE
330
9942
100
AcDbEntity
  8
1
  6
Continuous
100
AcDbLine
 10
47.315776
 20
147.1103029999999
 30
0.0
 11
47.315776
 21
146.002501
 31
0.0
  0
LINE
  5
9BEF
330
9942
100
AcDbEntity
  8
1
  6
Continuous
100
AcDbLine
 10
45.715776
 20
146.864936
 30
0.0
 11
45.715776
 21
145.757134
 31
0.0
  0
LINE
  5
9BF0
330
9942
100
AcDbEntity
  8
1
  6
Continuous
100
AcDbLine
 10
45.715776
 20
144.4419359999999
 30
0.0
 11
45.715776
 21
143.334134
 31
0.0
  0
LINE
  5
9BF1
330
9942
100
AcDbEntity
  8
1
  6
Continuous
100
AcDbLine
 10
47.315776
 20
144.687303
 30
0.0
 11
47.315776
 21
143.5795009999999
 31
0.0
  0
LINE
  5
9BF2
330
9942
100
AcDbEntity
  8
1
  6
Continuous
100
AcDbLine
 10
47.315776
 20
142.264303
 30
0.0
 11
47.315776
 21
141.1565009999999
 31
0.0
  0
LINE
  5
9BF3
330
9942
100
AcDbEntity
  8
1
  6
Continuous
100
AcDbLine
 10
45.715776
 20
142.018936
 30
0.0
 11
45.715776
 21
140.911134
 31
0.0
  0
LINE
  5
9BF4
330
9942
100
AcDbEntity
  8
1
  6
Continuous
100
AcDbLine
 10
47.315776
 20
139.841303
 30
0.0
 11
47.315776
 21
138.7334089999999
 31
0.0
  0
LINE
  5
9BF5
330
9942
100
AcDbEntity
  8
1
  6
Continuous
100
AcDbLine
 10
45.715776
 20
139.5959359999999
 30
0.0
 11
45.715776
 21
138.4879769999998
 31
0.0
  0
ARC
  5
9BF6
330
9942
100
AcDbEntity
  8
1
  6
Continuous
100
AcDbCircle
 10
49.665776
 20
150.551285
 30
0.0
 40
0.65
100
AcDbArc
 50
278.718638
 51
98.71863799999999
  0
ARC
  5
9BF7
330
9942
100
AcDbEntity
  8
1
  6
Continuous
100
AcDbCircle
 10
49.665776
 20
148.128285
 30
0.0
 40
0.65
100
AcDbArc
 50
278.718638
 51
98.71863799999999
  0
ARC
  5
9BF8
330
9942
100
AcDbEntity
  8
1
  6
Continuous
100
AcDbCircle
 10
49.665776
 20
145.7052849999998
 30
0.0
 40
0.65
100
AcDbArc
 50
278.718638
 51
98.71863799999999
  0
ARC
  5
9BF9
330
9942
100
AcDbEntity
  8
1
  6
Continuous
100
AcDbCircle
 10
49.665776
 20
143.2822849999998
 30
0.0
 40
0.65
100
AcDbArc
 50
278.718638
 51
98.71863799999999
  0
ARC
  5
9BFA
330
9942
100
AcDbEntity
  8
1
  6
Continuous
100
AcDbCircle
 10
49.665776
 20
138.436285
 30
0.0
 40
0.65
100
AcDbArc
 50
278.7209209999999
 51
98.72092100000003
  0
ARC
  5
9BFB
330
9942
100
AcDbEntity
  8
1
  6
Continuous
100
AcDbCircle
 10
49.665776
 20
140.8592849999998
 30
0.0
 40
0.65
100
AcDbArc
 50
278.718638
 51
98.71863799999999
  0
ARC
  5
9BFC
330
9942
100
AcDbEntity
  8
1
  6
Continuous
100
AcDbCircle
 10
49.665776
 20
136.5744629999998
 30
0.0
 40
0.65
100
AcDbArc
 50
0.0
 51
85.296385
  0
LINE
  5
9BFD
330
9942
100
AcDbEntity
  8
1
  6
Continuous
100
AcDbLine
 10
49.719077
 20
137.2222739999999
 30
0.0
 11
47.323458
 21
137.419382
 31
0.0
  0
LINE
  5
9BFE
330
9942
100
AcDbEntity
  8
1
  6
Continuous
100
AcDbLine
 10
49.764305
 20
139.078774
 30
0.0
 11
47.315776
 21
139.4542669999998
 31
0.0
  0
LINE
  5
9BFF
330
9942
100
AcDbEntity
  8
1
  6
Continuous
100
AcDbLine
 10
47.315776
 20
141.8772669999999
 30
0.0
 11
49.764305
 21
141.501774
 31
0.0
  0
LINE
  5
9C00
330
9942
100
AcDbEntity
  8
1
  6
Continuous
100
AcDbLine
 10
47.315776
 20
144.300267
 30
0.0
 11
49.764305
 21
143.9247739999998
 31
0.0
  0
LINE
  5
9C01
330
9942
100
AcDbEntity
  8
1
  6
Continuous
100
AcDbLine
 10
49.764305
 20
146.3477739999999
 30
0.0
 11
47.315776
 21
146.723267
 31
0.0
  0
LINE
  5
9C02
330
9942
100
AcDbEntity
  8
1
  6
Continuous
100
AcDbLine
 10
47.315776
 20
149.1462669999999
 30
0.0
 11
49.764305
 21
148.7707739999999
 31
0.0
  0
ARC
  5
9C03
330
9942
100
AcDbEntity
  8
1
  6
Continuous
100
AcDbCircle
 10
43.61577599999999
 20
134.4402849999999
 30
0.0
 40
2.1
100
AcDbArc
 50
308.797
 51
0.0
  0
LINE
  5
9C04
330
9942
100
AcDbEntity
  8
1
  6
Continuous
100
AcDbLine
 10
45.715776
 20
134.0744629999998
 30
0.0
 11
47.315776
 21
134.0744629999998
 31
0.0
  0
ARC
  5
9C05
330
9942
100
AcDbEntity
  8
1
  6
Continuous
100
AcDbCircle
 10
42.815776
 20
130.461782
 30
0.0
 40
2.1
100
AcDbArc
 50
128.800485
 51
180.0
  0
LINE
  5
9C06
330
9942
100
AcDbEntity
  8
1
  6
Continuous
100
AcDbLine
 10
40.715776
 20
124.1384529999999
 30
0.0
 11
42.315776
 21
124.1384529999999
 31
0.0
  0
LINE
  5
9C07
330
9942
100
AcDbEntity
  8
1
  6
Continuous
100
AcDbLine
 10
40.715776
 20
130.461782
 30
0.0
 11
40.715776
 21
124.1384529999999
 31
0.0
  0
LINE
  5
9C08
330
9942
100
AcDbEntity
  8
1
  6
Continuous
100
AcDbLine
 10
176.394224
 20
151.072519
 30
0.0
 11
168.477432
 21
149.976099
 31
0.0
  0
LINE
  5
9C09
330
9942
100
AcDbEntity
  8
1
  6
Continuous
100
AcDbLine
 10
176.5725619999998
 20
149.7848099999999
 30
0.0
 11
168.6557699999999
 21
148.688389
 31
0.0
  0
LINE
  5
9C0A
330
9942
100
AcDbEntity
  8
1
  6
Continuous
100
AcDbLine
 10
168.442175
 20
147.553355
 30
0.0
 11
176.3589669999998
 21
148.6497759999998
 31
0.0
  0
LINE
  5
9C0B
330
9942
100
AcDbEntity
  8
1
  6
Continuous
100
AcDbLine
 10
168.620514
 20
146.265646
 30
0.0
 11
176.5373059999998
 21
147.3620659999999
 31
0.0
  0
LINE
  5
9C0C
330
9942
100
AcDbEntity
  8
1
  6
Continuous
100
AcDbLine
 10
176.32371
 20
146.227032
 30
0.0
 11
168.4069189999999
 21
145.130612
 31
0.0
  0
LINE
  5
9C0D
330
9942
100
AcDbEntity
  8
1
  6
Continuous
100
AcDbLine
 10
168.585257
 20
143.842902
 30
0.0
 11
176.5020489999998
 21
144.939323
 31
0.0
  0
LINE
  5
9C0E
330
9942
100
AcDbEntity
  8
1
  6
Continuous
100
AcDbLine
 10
176.2884539999998
 20
143.804289
 30
0.0
 11
168.371662
 21
142.7078679999999
 31
0.0
  0
LINE
  5
9C0F
330
9942
100
AcDbEntity
  8
1
  6
Continuous
100
AcDbLine
 10
168.550001
 20
141.420159
 30
0.0
 11
176.4667929999999
 21
142.516579
 31
0.0
  0
LINE
  5
9C10
330
9942
100
AcDbEntity
  8
1
  6
Continuous
100
AcDbLine
 10
176.2531969999998
 20
141.3815449999999
 30
0.0
 11
168.336405
 21
140.2851249999999
 31
0.0
  0
LINE
  5
9C11
330
9942
100
AcDbEntity
  8
1
  6
Continuous
100
AcDbLine
 10
168.514744
 20
138.997415
 30
0.0
 11
176.4315359999999
 21
140.093836
 31
0.0
  0
LINE
  5
9C12
330
9942
100
AcDbEntity
  8
1
  6
Continuous
100
AcDbLine
 10
176.2179149999998
 20
138.9587979999998
 30
0.0
 11
168.301118
 21
137.8620559999999
 31
0.0
  0
LINE
  5
9C13
330
9942
100
AcDbEntity
  8
1
  6
Continuous
100
AcDbLine
 10
168.479508
 20
136.574353
 30
0.0
 11
176.396305
 21
137.671096
 31
0.0
  0
LINE
  5
9C14
330
9942
100
AcDbEntity
  8
1
  6
Continuous
100
AcDbLine
 10
175.0110939999999
 20
148.9068889999998
 30
0.0
 11
176.556003
 21
148.6469079999999
 31
0.0
  0
LINE
  5
9C15
330
9942
100
AcDbEntity
  8
1
  6
Continuous
100
AcDbLine
 10
176.520747
 20
146.2241649999999
 30
0.0
 11
174.975837
 21
146.484146
 31
0.0
  0
LINE
  5
9C16
330
9942
100
AcDbEntity
  8
1
  6
Continuous
100
AcDbLine
 10
174.9017509999999
 20
144.0679369999998
 30
0.0
 11
176.48549
 21
143.801421
 31
0.0
  0
LINE
  5
9C17
330
9942
100
AcDbEntity
  8
1
  6
Continuous
100
AcDbLine
 10
174.905324
 20
141.6386589999999
 30
0.0
 11
176.450233
 21
141.378678
 31
0.0
  0
LINE
  5
9C18
330
9942
100
AcDbEntity
  8
1
  6
Continuous
100
AcDbLine
 10
176.4149769999999
 20
138.955934
 30
0.0
 11
174.8700679999998
 21
139.2159149999999
 31
0.0
  0
LINE
  5
9C19
330
9942
100
AcDbEntity
  8
1
  6
Continuous
100
AcDbLine
 10
176.3427399999999
 20
137.1002889999997
 30
0.0
 11
174.841398
 21
137.245839
 31
0.0
  0
ARC
  5
9C1A
330
9942
100
AcDbEntity
  8
1
  6
Continuous
100
AcDbCircle
 10
168.5936869999999
 20
151.193547
 30
0.0
 40
0.65
100
AcDbArc
 50
179.1662709999999
 51
264.4626559999999
  0
LINE
  5
9C1B
330
9942
100
AcDbEntity
  8
1
  6
Continuous
100
AcDbLine
 10
168.5309659999998
 20
150.54658
 30
0.0
 11
170.0323079999998
 21
150.40103
 31
0.0
  0
LINE
  5
9C1C
330
9942
100
AcDbEntity
  8
1
  6
Continuous
100
AcDbLine
 10
168.458734
 20
148.691257
 30
0.0
 11
170.0036429999999
 21
148.4312759999999
 31
0.0
  0
LINE
  5
9C1D
330
9942
100
AcDbEntity
  8
1
  6
Continuous
100
AcDbLine
 10
168.4234779999998
 20
146.2685129999998
 30
0.0
 11
169.968387
 21
146.008532
 31
0.0
  0
LINE
  5
9C1E
330
9942
100
AcDbEntity
  8
1
  6
Continuous
100
AcDbLine
 10
169.8942999999998
 20
143.592323
 30
0.0
 11
168.3882209999999
 21
143.8457699999998
 31
0.0
  0
LINE
  5
9C1F
330
9942
100
AcDbEntity
  8
1
  6
Continuous
100
AcDbLine
 10
168.3529639999999
 20
141.4230259999999
 30
0.0
 11
169.897874
 21
141.1630449999998
 31
0.0
  0
LINE
  5
9C20
330
9942
100
AcDbEntity
  8
1
  6
Continuous
100
AcDbLine
 10
169.862617
 20
138.740302
 30
0.0
 11
168.317708
 21
139.000283
 31
0.0
  0
ARC
  5
9C21
330
9942
100
AcDbEntity
  8
1
  6
Continuous
100
AcDbCircle
 10
168.425575
 20
139.6412699999999
 30
0.0
 40
0.65
100
AcDbArc
 50
97.88490899999999
 51
277.884909
  0
ARC
  5
9C22
330
9942
100
AcDbEntity
  8
1
  6
Continuous
100
AcDbCircle
 10
168.390313
 20
137.2182039999999
 30
0.0
 40
0.65
100
AcDbArc
 50
97.887192
 51
277.8871919999999
  0
ARC
  5
9C23
330
9942
100
AcDbEntity
  8
1
  6
Continuous
100
AcDbCircle
 10
168.460831
 20
142.0640139999999
 30
0.0
 40
0.65
100
AcDbArc
 50
97.88490899999999
 51
277.884909
  0
ARC
  5
9C24
330
9942
100
AcDbEntity
  8
1
  6
Continuous
100
AcDbCircle
 10
168.496088
 20
144.486757
 30
0.0
 40
0.65
100
AcDbArc
 50
97.88490899999999
 51
277.884909
  0
ARC
  5
9C25
330
9942
100
AcDbEntity
  8
1
  6
Continuous
100
AcDbCircle
 10
168.5313439999999
 20
146.909501
 30
0.0
 40
0.65
100
AcDbArc
 50
97.88490899999999
 51
277.884909
  0
ARC
  5
9C26
330
9942
100
AcDbEntity
  8
1
  6
Continuous
100
AcDbCircle
 10
168.566601
 20
149.332244
 30
0.0
 40
0.65
100
AcDbArc
 50
97.88490899999999
 51
277.884909
  0
ARC
  5
9C27
330
9942
100
AcDbEntity
  8
1
  6
Continuous
100
AcDbCircle
 10
176.2800189999999
 20
136.4533219999999
 30
0.0
 40
0.65
100
AcDbArc
 50
359.166271
 51
84.46265600000002
  0
ARC
  5
9C28
330
9942
100
AcDbEntity
  8
1
  6
Continuous
100
AcDbCircle
 10
176.3423669999999
 20
140.7376899999998
 30
0.0
 40
0.65
100
AcDbArc
 50
277.884909
 51
97.88490899999999
  0
ARC
  5
9C29
330
9942
100
AcDbEntity
  8
1
  6
Continuous
100
AcDbCircle
 10
176.3071099999999
 20
138.314947
 30
0.0
 40
0.65
100
AcDbArc
 50
277.8871919999999
 51
97.887192
  0
ARC
  5
9C2A
330
9942
100
AcDbEntity
  8
1
  6
Continuous
100
AcDbCircle
 10
176.3776229999998
 20
143.1604339999998
 30
0.0
 40
0.65
100
AcDbArc
 50
277.884909
 51
97.88490899999999
  0
ARC
  5
9C2B
330
9942
100
AcDbEntity
  8
1
  6
Continuous
100
AcDbCircle
 10
176.4128799999998
 20
145.583177
 30
0.0
 40
0.65
100
AcDbArc
 50
277.884909
 51
97.88490899999999
  0
ARC
  5
9C2C
330
9942
100
AcDbEntity
  8
1
  6
Continuous
100
AcDbCircle
 10
176.4481359999998
 20
148.005921
 30
0.0
 40
0.65
100
AcDbArc
 50
277.884909
 51
97.88490899999999
  0
ARC
  5
9C2D
330
9942
100
AcDbEntity
  8
1
  6
Continuous
100
AcDbCircle
 10
176.4833929999998
 20
150.428664
 30
0.0
 40
0.65
100
AcDbArc
 50
277.884909
 51
97.88490899999999
  0
LINE
  5
9C2E
330
9942
100
AcDbEntity
  8
1
  6
Continuous
100
AcDbLine
 10
174.911225
 20
144.719005
 30
0.0
 11
174.895106
 21
143.61132
 31
0.0
  0
LINE
  5
9C2F
330
9942
100
AcDbEntity
  8
1
  6
Continuous
100
AcDbLine
 10
169.9005969999998
 20
144.025068
 30
0.0
 11
169.8844779999998
 21
142.917383
 31
0.0
  0
LINE
  5
9C30
330
9942
100
AcDbEntity
  8
1
  6
Continuous
100
AcDbLine
 10
40.11577599999998
 20
50.938153
 30
0.0
 11
40.715776
 21
50.938153
 31
0.0
  0
LINE
  5
9C31
330
9942
100
AcDbEntity
  8
1
  6
Continuous
100
AcDbLine
 10
40.11577599999998
 20
47.938153
 30
0.0
 11
40.715776
 21
47.938153
 31
0.0
  0
LINE
  5
9C32
330
9942
100
AcDbEntity
  8
1
  6
Continuous
100
AcDbLine
 10
25.915776
 20
47.938153
 30
0.0
 11
38.515776
 21
47.938153
 31
0.0
  0
LINE
  5
9C33
330
9942
100
AcDbEntity
  8
1
  6
Continuous
100
AcDbLine
 10
25.915776
 20
50.938153
 30
0.0
 11
38.515776
 21
50.938153
 31
0.0
  0
LINE
  5
9C34
330
9942
100
AcDbEntity
  8
4
  6
CENTER
100
AcDbLine
 10
173.1850579999999
 20
127.1384529999999
 30
0.0
 11
178.681358
 21
127.1384529999999
 31
0.0
  0
LINE
  5
9C35
330
9942
100
AcDbEntity
  8
4
  6
CENTER
100
AcDbLine
 10
173.1850579999999
 20
115.6384529999999
 30
0.0
 11
178.681358
 21
115.6384529999999
 31
0.0
  0
ENDSEC
  0
SECTION
  2
OBJECTS
  0
DICTIONARY
  5
9930
330
0
100
AcDbDictionary
281
     1
  3
ACAD_CIP_PREVIOUS_PRODUCT_INFO
350
9C99
  3
ACAD_COLOR
350
9C7B
  3
ACAD_DETAILVIEWSTYLE
350
9C94
  3
ACAD_GROUP
350
9931
  3
ACAD_LAYOUT
350
993D
  3
ACAD_MATERIAL
350
9C49
  3
ACAD_MLEADERSTYLE
350
9C90
  3
ACAD_MLINESTYLE
350
993A
  3
ACAD_PLOTSETTINGS
350
993C
  3
ACAD_PLOTSTYLENAME
350
9C47
  3
ACAD_SCALELIST
350
9C7E
  3
ACAD_SECTIONVIEWSTYLE
350
9C92
  3
ACAD_TABLESTYLE
350
9C7C
  3
ACAD_VISUALSTYLE
350
9C62
  3
ACDB_RECOMPOSE_DATA
350
9CB7
  3
AcDbVariableDictionary
350
9CAA
  3
DWGPROPS
350
9CB8
  0
DICTIONARY
  5
9C9A
330
9934
100
AcDbDictionary
280
     1
281
     1
  3
ADSK_XREC_LAYER_RECONCILED
360
9C9B
  0
DICTIONARY
  5
9C9C
330
994A
100
AcDbDictionary
280
     1
281
     1
  3
ADSK_XREC_LAYER_RECONCILED
360
9C9D
  0
DICTIONARY
  5
9C9E
330
994B
100
AcDbDictionary
280
     1
281
     1
  3
ADSK_XREC_LAYER_RECONCILED
360
9C9F
  0
DICTIONARY
  5
9CA0
330
994C
100
AcDbDictionary
280
     1
281
     1
  3
ADSK_XREC_LAYER_RECONCILED
360
9CA1
  0
DICTIONARY
  5
9CA2
330
994D
100
AcDbDictionary
280
     1
281
     1
  3
ADSK_XREC_LAYER_RECONCILED
360
9CA3
  0
DICTIONARY
  5
9CA4
330
994E
100
AcDbDictionary
280
     1
281
     1
  3
ADSK_XREC_LAYER_RECONCILED
360
9CA5
  0
DICTIONARY
  5
9CA6
330
994F
100
AcDbDictionary
280
     1
281
     1
  3
ADSK_XREC_LAYER_RECONCILED
360
9CA7
  0
DICTIONARY
  5
9CA8
330
9950
100
AcDbDictionary
280
     1
281
     1
  3
ADSK_XREC_LAYER_RECONCILED
360
9CA9
  0
DICTIONARY
  5
9C42
330
9942
100
AcDbDictionary
281
     1
  3
ACAD_LAYOUTSELFREF
350
9C43
  0
DICTIONARY
  5
9C40
330
993E
100
AcDbDictionary
281
     1
  3
ACAD_LAYOUTSELFREF
350
9C41
  0
XRECORD
  5
9C99
102
{ACAD_REACTORS
330
9930
102
}
330
9930
100
AcDbXrecord
280
     1
300
ACDLT
300
2014
300
ACDLT_F_S
  0
DICTIONARY
  5
9C7B
102
{ACAD_REACTORS
330
9930
102
}
330
9930
100
AcDbDictionary
281
     1
  0
DICTIONARY
  5
9C94
102
{ACAD_REACTORS
330
9930
102
}
330
9930
100
AcDbDictionary
281
     1
  3
Imperial24
350
9C95
  0
DICTIONARY
  5
9931
102
{ACAD_REACTORS
330
9930
102
}
330
9930
100
AcDbDictionary
281
     1
  0
DICTIONARY
  5
993D
102
{ACAD_REACTORS
330
9930
102
}
330
9930
100
AcDbDictionary
281
     1
  3
Model
350
9C96
  3
レイアウト1
350
9C97
  0
DICTIONARY
  5
9C49
102
{ACAD_REACTORS
330
9930
102
}
330
9930
100
AcDbDictionary
281
     1
  3
ByBlock
350
9C52
  3
ByLayer
350
9C4A
  3
Global
350
9C5A
  0
DICTIONARY
  5
9C90
102
{ACAD_REACTORS
330
9930
102
}
330
9930
100
AcDbDictionary
281
     1
  3
Standard
350
9C91
  0
DICTIONARY
  5
993A
102
{ACAD_REACTORS
330
9930
102
}
330
9930
100
AcDbDictionary
281
     1
  3
STANDARD
350
993B
  0
DICTIONARY
  5
993C
102
{ACAD_REACTORS
330
9930
102
}
330
9930
100
AcDbDictionary
281
     1
  0
ACDBDICTIONARYWDFLT
  5
9C47
102
{ACAD_REACTORS
330
9930
102
}
330
9930
100
AcDbDictionary
281
     1
  3
Normal
350
9C48
100
AcDbDictionaryWithDefault
340
9C48
  0
DICTIONARY
  5
9C7E
102
{ACAD_REACTORS
330
9930
102
}
330
9930
100
AcDbDictionary
281
     1
  3
A0
350
9C7F
  3
A1
350
9C80
  3
A2
350
9C81
  3
A3
350
9C82
  3
A4
350
9C83
  3
A5
350
9C84
  3
A6
350
9C85
  3
A7
350
9C86
  3
A8
350
9C87
  3
A9
350
9C88
  3
B0
350
9C89
  3
B1
350
9C8A
  3
B2
350
9C8B
  3
B3
350
9C8C
  3
B4
350
9C8D
  3
B5
350
9C8E
  3
B6
350
9C8F
  0
DICTIONARY
  5
9C92
102
{ACAD_REACTORS
330
9930
102
}
330
9930
100
AcDbDictionary
281
     1
  3
Imperial24
350
9C93
  0
DICTIONARY
  5
9C7C
102
{ACAD_REACTORS
330
9930
102
}
330
9930
100
AcDbDictionary
281
     1
  3
Standard
350
9C7D
  0
DICTIONARY
  5
9C62
102
{ACAD_REACTORS
330
9930
102
}
330
9930
100
AcDbDictionary
281
     1
  3
2dWireframe
350
9C68
  3
Basic
350
9C67
  3
Brighten
350
9C6E
  3
ColorChange
350
9C72
  3
Conceptual
350
9C6B
  3
Dim
350
9C6D
  3
EdgeColorOff
350
9C7A
  3
Facepattern
350
9C71
  3
Flat
350
9C63
  3
FlatWithEdges
350
9C64
  3
Gouraud
350
9C65
  3
GouraudWithEdges
350
9C66
  3
Hidden
350
9C6A
  3
JitterOff
350
9C78
  3
Linepattern
350
9C70
  3
OverhangOff
350
9C79
  3
Realistic
350
9C6C
  3
Shaded
350
9C77
  3
Shaded with edges
350
9C76
  3
Shades of Gray
350
9C73
  3
Sketchy
350
9C74
  3
Thicken
350
9C6F
  3
Wireframe
350
9C69
  3
X-Ray
350
9C75
  0
XRECORD
  5
9CB7
102
{ACAD_REACTORS
330
9930
102
}
330
9930
100
AcDbXrecord
280
     1
 90
        1
330
9C7D
  0
DICTIONARY
  5
9CAA
102
{ACAD_REACTORS
330
9930
102
}
330
9930
100
AcDbDictionary
281
     1
  3
CANNOSCALE
350
9CAF
  3
CMLEADERSTYLE
350
9CAC
  3
CTABLESTYLE
350
9CAB
  3
CVIEWDETAILSTYLE
350
9CAD
  3
CVIEWSECTIONSTYLE
350
9CAE
  3
DIMASSOC
350
9CB2
  3
INDEXCTL
350
9CB1
  3
SORTENTS
350
9CB0
  3
XCLIPFRAME
350
9CB3
  0
XRECORD
  5
9CB8
102
{ACAD_REACTORS
330
9930
102
}
330
9930
100
AcDbXrecord
280
     1
  1
DWGPROPS COOKIE
  2

  3

  4

  6

  7

  8
Yoshitsune
  9

300
=
301
=
302
=
303
=
304
=
305
=
306
=
307
=
308
=
309
=
 40
0.0000144444444444
 41
2451066.406160648
 42
2457192.598693091
  1

 90
        0
  0
XRECORD
  5
9C9B
102
{ACAD_REACTORS
330
9C9A
102
}
330
9C9A
100
AcDbXrecord
280
     1
290
     1
  0
XRECORD
  5
9C9D
102
{ACAD_REACTORS
330
9C9C
102
}
330
9C9C
100
AcDbXrecord
280
     1
290
     1
  0
XRECORD
  5
9C9F
102
{ACAD_REACTORS
330
9C9E
102
}
330
9C9E
100
AcDbXrecord
280
     1
290
     1
  0
XRECORD
  5
9CA1
102
{ACAD_REACTORS
330
9CA0
102
}
330
9CA0
100
AcDbXrecord
280
     1
290
     1
  0
XRECORD
  5
9CA3
102
{ACAD_REACTORS
330
9CA2
102
}
330
9CA2
100
AcDbXrecord
280
     1
290
     1
  0
XRECORD
  5
9CA5
102
{ACAD_REACTORS
330
9CA4
102
}
330
9CA4
100
AcDbXrecord
280
     1
290
     1
  0
XRECORD
  5
9CA7
102
{ACAD_REACTORS
330
9CA6
102
}
330
9CA6
100
AcDbXrecord
280
     1
290
     1
  0
XRECORD
  5
9CA9
102
{ACAD_REACTORS
330
9CA8
102
}
330
9CA8
100
AcDbXrecord
280
     1
290
     1
  0
XRECORD
  5
9C43
102
{ACAD_REACTORS
330
9C42
102
}
330
9C42
100
AcDbXrecord
280
     1
340
9942
  0
XRECORD
  5
9C41
102
{ACAD_REACTORS
330
9C40
102
}
330
9C40
100
AcDbXrecord
280
     1
340
993E
  0
ACDBDETAILVIEWSTYLE
  5
9C95
102
{ACAD_XDICTIONARY
360
9CF0
102
}
102
{ACAD_REACTORS
330
9C94
102
}
330
9C94
100
AcDbModelDocViewStyle
 70
     0
  3
Imperial24
290
     0
100
AcDbDetailViewStyle
 70
     0
 71
     0
 90
        3
 71
     1
340
9935
 40
0.24
340
0
 40
0.24
300

 40
0.36
280
     3
 71
     2
340
9939
 90
       25
 71
     3
340
9935
 40
0.24
 90
        1
 40
0.75
 90
        1
300
%<\AcVar ViewType \f "%tc1">% %<\AcVar ViewDetailId>%\PSCALE %<\AcVar ViewScale \f "%sn">%
 71
     4
340
9939
 90
       25
340
9939
 90
       25
280
     0
  0
LAYOUT
  5
9C96
102
{ACAD_XDICTIONARY
360
9CF2
102
}
102
{ACAD_REACTORS
330
993D
102
}
330
993D
100
AcDbPlotSettings
  1

  2
Canon LBP9100C
  4

  6

 40
0.0
 41
0.0
 42
0.0
 43
0.0
 44
0.0
 45
0.0
 46
0.0
 47
0.0
 48
0.0
 49
0.0
140
0.0
141
0.0
142
1.0
143
1.0
 70
  1712
 72
     0
 73
     0
 74
     0
  7

 75
     0
147
1.0
148
0.0
149
0.0
100
AcDbLayout
  1
Model
 70
     1
 71
     0
 10
0.0
 20
0.0
 11
12.0
 21
9.0
 12
0.0
 22
0.0
 32
0.0
 14
0.0
 24
0.0
 34
0.0
 15
0.0
 25
0.0
 35
0.0
146
0.0
 13
0.0
 23
0.0
 33
0.0
 16
1.0
 26
0.0
 36
0.0
 17
0.0
 27
1.0
 37
0.0
 76
     0
330
9942
331
9C3F
  0
LAYOUT
  5
9C97
102
{ACAD_XDICTIONARY
360
9CF4
102
}
102
{ACAD_REACTORS
330
993D
102
}
330
993D
100
AcDbPlotSettings
  1

  2
Canon LBP9100C
  4

  6

 40
0.0
 41
0.0
 42
0.0
 43
0.0
 44
0.0
 45
0.0
 46
0.0
 47
0.0
 48
0.0
 49
0.0
140
0.0
141
0.0
142
1.0
143
1.0
 70
   688
 72
     0
 73
     0
 74
     5
  7

 75
    16
147
1.0
148
0.0
149
0.0
100
AcDbLayout
  1
レイアウト1
 70
     0
 71
     1
 10
0.0
 20
0.0
 11
420.0
 21
297.0
 12
0.0
 22
0.0
 32
0.0
 14
1.000000000000000E+20
 24
1.000000000000000E+20
 34
1.000000000000000E+20
 15
-1.000000000000000E+20
 25
-1.000000000000000E+20
 35
-1.000000000000000E+20
146
0.0
 13
0.0
 23
0.0
 33
0.0
 16
1.0
 26
0.0
 36
0.0
 17
0.0
 27
1.0
 37
0.0
 76
     0
330
993E
  0
MATERIAL
  5
9C52
102
{ACAD_XDICTIONARY
360
9C53
102
}
102
{ACAD_REACTORS
330
9C49
102
}
330
9C49
100
AcDbMaterial
  1
ByBlock
 72
     0
 43
0.0208333333333333
 43
0.0
 43
0.0
 43
0.0
 43
0.0
 43
0.0208333333333333
 43
0.0
 43
0.0
 43
0.0
 43
0.0
 43
1.0
 43
0.0
 43
0.0
 43
0.0
 43
0.0
 43
1.0
 77
     0
 47
0.0208333333333333
 47
0.0
 47
0.0
 47
0.0
 47
0.0
 47
0.0208333333333333
 47
0.0
 47
0.0
 47
0.0
 47
0.0
 47
1.0
 47
0.0
 47
0.0
 47
0.0
 47
0.0
 47
1.0
171
     0
 49
0.0208333333333333
 49
0.0
 49
0.0
 49
0.0
 49
0.0
 49
0.0208333333333333
 49
0.0
 49
0.0
 49
0.0
 49
0.0
 49
1.0
 49
0.0
 49
0.0
 49
0.0
 49
0.0
 49
1.0
175
     0
142
0.0208333333333333
142
0.0
142
0.0
142
0.0
142
0.0
142
0.0208333333333333
142
0.0
142
0.0
142
0.0
142
0.0
142
1.0
142
0.0
142
0.0
142
0.0
142
0.0
142
1.0
179
     0
144
0.0208333333333333
144
0.0
144
0.0
144
0.0
144
0.0
144
0.0208333333333333
144
0.0
144
0.0
144
0.0
144
0.0
144
1.0
144
0.0
144
0.0
144
0.0
144
0.0
144
1.0
147
0.0208333333333333
147
0.0
147
0.0
147
0.0
147
0.0
147
0.0208333333333333
147
0.0
147
0.0
147
0.0
147
0.0
147
1.0
147
0.0
147
0.0
147
0.0
147
0.0
147
1.0
  0
MATERIAL
  5
9C4A
102
{ACAD_XDICTIONARY
360
9C4B
102
}
102
{ACAD_REACTORS
330
9C49
102
}
330
9C49
100
AcDbMaterial
  1
ByLayer
 72
     0
 43
0.0208333333333333
 43
0.0
 43
0.0
 43
0.0
 43
0.0
 43
0.0208333333333333
 43
0.0
 43
0.0
 43
0.0
 43
0.0
 43
1.0
 43
0.0
 43
0.0
 43
0.0
 43
0.0
 43
1.0
 77
     0
 47
0.0208333333333333
 47
0.0
 47
0.0
 47
0.0
 47
0.0
 47
0.0208333333333333
 47
0.0
 47
0.0
 47
0.0
 47
0.0
 47
1.0
 47
0.0
 47
0.0
 47
0.0
 47
0.0
 47
1.0
171
     0
 49
0.0208333333333333
 49
0.0
 49
0.0
 49
0.0
 49
0.0
 49
0.0208333333333333
 49
0.0
 49
0.0
 49
0.0
 49
0.0
 49
1.0
 49
0.0
 49
0.0
 49
0.0
 49
0.0
 49
1.0
175
     0
142
0.0208333333333333
142
0.0
142
0.0
142
0.0
142
0.0
142
0.0208333333333333
142
0.0
142
0.0
142
0.0
142
0.0
142
1.0
142
0.0
142
0.0
142
0.0
142
0.0
142
1.0
179
     0
144
0.0208333333333333
144
0.0
144
0.0
144
0.0
144
0.0
144
0.0208333333333333
144
0.0
144
0.0
144
0.0
144
0.0
144
1.0
144
0.0
144
0.0
144
0.0
144
0.0
144
1.0
147
0.0208333333333333
147
0.0
147
0.0
147
0.0
147
0.0
147
0.0208333333333333
147
0.0
147
0.0
147
0.0
147
0.0
147
1.0
147
0.0
147
0.0
147
0.0
147
0.0
147
1.0
  0
MATERIAL
  5
9C5A
102
{ACAD_XDICTIONARY
360
9C5B
102
}
102
{ACAD_REACTORS
330
9C49
102
}
330
9C49
100
AcDbMaterial
  1
Global
 72
     0
 43
0.0208333333333333
 43
0.0
 43
0.0
 43
0.0
 43
0.0
 43
0.0208333333333333
 43
0.0
 43
0.0
 43
0.0
 43
0.0
 43
1.0
 43
0.0
 43
0.0
 43
0.0
 43
0.0
 43
1.0
 77
     0
 47
0.0208333333333333
 47
0.0
 47
0.0
 47
0.0
 47
0.0
 47
0.0208333333333333
 47
0.0
 47
0.0
 47
0.0
 47
0.0
 47
1.0
 47
0.0
 47
0.0
 47
0.0
 47
0.0
 47
1.0
171
     0
 49
0.0208333333333333
 49
0.0
 49
0.0
 49
0.0
 49
0.0
 49
0.0208333333333333
 49
0.0
 49
0.0
 49
0.0
 49
0.0
 49
1.0
 49
0.0
 49
0.0
 49
0.0
 49
0.0
 49
1.0
175
     0
142
0.0208333333333333
142
0.0
142
0.0
142
0.0
142
0.0
142
0.0208333333333333
142
0.0
142
0.0
142
0.0
142
0.0
142
1.0
142
0.0
142
0.0
142
0.0
142
0.0
142
1.0
179
     0
144
0.0208333333333333
144
0.0
144
0.0
144
0.0
144
0.0
144
0.0208333333333333
144
0.0
144
0.0
144
0.0
144
0.0
144
1.0
144
0.0
144
0.0
144
0.0
144
0.0
144
1.0
147
0.0208333333333333
147
0.0
147
0.0
147
0.0
147
0.0
147
0.0208333333333333
147
0.0
147
0.0
147
0.0
147
0.0
147
1.0
147
0.0
147
0.0
147
0.0
147
0.0
147
1.0
  0
MLEADERSTYLE
  5
9C91
102
{ACAD_REACTORS
330
9C90
102
}
330
9C90
100
AcDbMLeaderStyle
170
     2
171
     1
172
     0
 90
        2
 40
0.0
 41
0.0
173
     1
 91
-1056964608
340
9937
 92
       -2
290
     1
 42
0.09
291
     1
 43
0.36
  3
Standard
 44
0.18
300

342
9935
174
     1
178
     6
175
     1
176
     0
 93
-1056964608
 45
0.18
292
     0
297
     0
 46
0.18
 94
-1056964608
 47
1.0
 49
1.0
140
1.0
293
     1
141
0.0
294
     1
177
     0
142
1.0
295
     0
296
     0
143
0.125
1001
ACAD_MLEADERVER
1070
     2
  0
MLINESTYLE
  5
993B
102
{ACAD_REACTORS
330
993A
102
}
330
993A
100
AcDbMlineStyle
  2
STANDARD
 70
     0
  3

 62
   256
 51
90.0
 52
90.0
 71
     2
 49
0.5
 62
   256
  6
BYLAYER
 49
-0.5
 62
   256
  6
BYLAYER
  0
ACDBPLACEHOLDER
  5
9C48
102
{ACAD_REACTORS
330
9C47
102
}
330
9C47
  0
SCALE
  5
9C7F
102
{ACAD_REACTORS
330
9C7E
102
}
330
9C7E
100
AcDbScale
 70
     0
300
1:1
140
1.0
141
1.0
290
     1
  0
SCALE
  5
9C80
102
{ACAD_REACTORS
330
9C7E
102
}
330
9C7E
100
AcDbScale
 70
     0
300
1/128" = 1'-0"
140
0.0078125
141
12.0
290
     0
  0
SCALE
  5
9C81
102
{ACAD_REACTORS
330
9C7E
102
}
330
9C7E
100
AcDbScale
 70
     0
300
1/64" = 1'-0"
140
0.015625
141
12.0
290
     0
  0
SCALE
  5
9C82
102
{ACAD_REACTORS
330
9C7E
102
}
330
9C7E
100
AcDbScale
 70
     0
300
1/32" = 1'-0"
140
0.03125
141
12.0
290
     0
  0
SCALE
  5
9C83
102
{ACAD_REACTORS
330
9C7E
102
}
330
9C7E
100
AcDbScale
 70
     0
300
1/16" = 1'-0"
140
0.0625
141
12.0
290
     0
  0
SCALE
  5
9C84
102
{ACAD_REACTORS
330
9C7E
102
}
330
9C7E
100
AcDbScale
 70
     0
300
3/32" = 1'-0"
140
0.09375
141
12.0
290
     0
  0
SCALE
  5
9C85
102
{ACAD_REACTORS
330
9C7E
102
}
330
9C7E
100
AcDbScale
 70
     0
300
1/8" = 1'-0"
140
0.125
141
12.0
290
     0
  0
SCALE
  5
9C86
102
{ACAD_REACTORS
330
9C7E
102
}
330
9C7E
100
AcDbScale
 70
     0
300
3/16" = 1'-0"
140
0.1875
141
12.0
290
     0
  0
SCALE
  5
9C87
102
{ACAD_REACTORS
330
9C7E
102
}
330
9C7E
100
AcDbScale
 70
     0
300
1/4" = 1'-0"
140
0.25
141
12.0
290
     0
  0
SCALE
  5
9C88
102
{ACAD_REACTORS
330
9C7E
102
}
330
9C7E
100
AcDbScale
 70
     0
300
3/8" = 1'-0"
140
0.375
141
12.0
290
     0
  0
SCALE
  5
9C89
102
{ACAD_REACTORS
330
9C7E
102
}
330
9C7E
100
AcDbScale
 70
     0
300
1/2" = 1'-0"
140
0.5
141
12.0
290
     0
  0
SCALE
  5
9C8A
102
{ACAD_REACTORS
330
9C7E
102
}
330
9C7E
100
AcDbScale
 70
     0
300
3/4" = 1'-0"
140
0.75
141
12.0
290
     0
  0
SCALE
  5
9C8B
102
{ACAD_REACTORS
330
9C7E
102
}
330
9C7E
100
AcDbScale
 70
     0
300
1" = 1'-0"
140
1.0
141
12.0
290
     0
  0
SCALE
  5
9C8C
102
{ACAD_REACTORS
330
9C7E
102
}
330
9C7E
100
AcDbScale
 70
     0
300
1-1/2" = 1'-0"
140
1.5
141
12.0
290
     0
  0
SCALE
  5
9C8D
102
{ACAD_REACTORS
330
9C7E
102
}
330
9C7E
100
AcDbScale
 70
     0
300
3" = 1'-0"
140
3.0
141
12.0
290
     0
  0
SCALE
  5
9C8E
102
{ACAD_REACTORS
330
9C7E
102
}
330
9C7E
100
AcDbScale
 70
     0
300
6" = 1'-0"
140
6.0
141
12.0
290
     0
  0
SCALE
  5
9C8F
102
{ACAD_REACTORS
330
9C7E
102
}
330
9C7E
100
AcDbScale
 70
     0
300
1'-0" = 1'-0"
140
12.0
141
12.0
290
     0
  0
ACDBSECTIONVIEWSTYLE
  5
9C93
102
{ACAD_XDICTIONARY
360
9CEE
102
}
102
{ACAD_REACTORS
330
9C92
102
}
330
9C92
100
AcDbModelDocViewStyle
 70
     0
  3
Imperial24
290
     0
100
AcDbSectionViewStyle
 70
     0
 71
     0
 90
       78
 71
     1
340
9935
 40
0.24
340
0
340
0
 40
0.24
300
I, O, Q, S, X, Z
 40
0.48
 90
        3
 40
0.18
 90
        1
 71
     2
340
9939
 90
       25
340
9939
 90
       50
 40
0.24
 40
0.0
 40
0.24
 71
     3
340
9935
 40
0.24
 90
        1
 40
0.75
 90
        1
300
%<\AcVar ViewType \f "%tc1">% %<\AcVar ViewSectionStartId>%-%<\AcVar ViewSectionEndId>%\PSCALE %<\AcVar ViewScale \f "%sn">%
 71
     4
300
ANSI31
 40
1.0
 90
        0
290
     0
290
     0
 90
        6
 40
0.0
 40
1.570796326794896
 40
0.2617993877991494
 40
1.308996938995747
 40
-0.2617993877991494
 40
1.832595714594046
  0
TABLESTYLE
  5
9C7D
102
{ACAD_XDICTIONARY
360
9CB5
102
}
102
{ACAD_REACTORS
330
9C7C
102
}
330
9C7C
100
AcDbTableStyle
  3
Standard
 70
     0
 71
     0
 40
0.06
 41
0.06
280
     0
281
     0
  7
STANDARD
140
0.18
170
     2
 62
     0
 63
     7
283
     0
274
    -2
284
     1
 64
     0
275
    -2
285
     1
 65
     0
276
    -2
286
     1
 66
     0
277
    -2
287
     1
 67
     0
278
    -2
288
     1
 68
     0
279
    -2
289
     1
 69
     0
  7
STANDARD
140
0.25
170
     5
 62
     0
 63
     7
283
     0
274
    -2
284
     1
 64
     0
275
    -2
285
     1
 65
     0
276
    -2
286
     1
 66
     0
277
    -2
287
     1
 67
     0
278
    -2
288
     1
 68
     0
279
    -2
289
     1
 69
     0
  7
STANDARD
140
0.18
170
     5
 62
     0
 63
     7
283
     0
274
    -2
284
     1
 64
     0
275
    -2
285
     1
 65
     0
276
    -2
286
     1
 66
     0
277
    -2
287
     1
 67
     0
278
    -2
288
     1
 68
     0
279
    -2
289
     1
 69
     0
  0
VISUALSTYLE
  5
9C68
102
{ACAD_XDICTIONARY
360
9CC6
102
}
102
{ACAD_REACTORS
330
9C62
102
}
330
9C62
100
AcDbVisualStyle
  2
2dWireframe
 70
     4
 71
     0
 72
     2
 73
     0
 90
        0
 40
-0.6
 41
-30.0
 62
     5
 63
     7
 74
     1
 91
        4
 64
     7
 65
   257
 75
     1
175
     1
 42
1.0
 92
        0
 66
   257
 43
1.0
 76
     1
 77
     6
 78
     2
 67
     7
 79
     5
170
     0
171
     0
290
     0
174
     0
 93
        1
 44
0.0
173
     0
291
     0
 45
0.0
1001
ACAD
1000
AcDbSavedByObjectVersion
1070
     0
  0
VISUALSTYLE
  5
9C67
102
{ACAD_XDICTIONARY
360
9CC4
102
}
102
{ACAD_REACTORS
330
9C62
102
}
330
9C62
100
AcDbVisualStyle
  2
Basic
 70
     7
 71
     1
 72
     0
 73
     1
 90
        0
 40
-0.6
 41
-30.0
 62
     5
 63
     7
 74
     0
 91
        4
 64
     7
 65
   257
 75
     1
175
     1
 42
1.0
 92
        8
 66
     7
 43
1.0
 76
     1
 77
     6
 78
     2
 67
     7
 79
     5
170
     0
171
     0
290
     0
174
     0
 93
        1
 44
0.0
173
     0
291
     1
 45
0.0
1001
ACAD
1000
AcDbSavedByObjectVersion
1070
     0
  0
VISUALSTYLE
  5
9C6E
102
{ACAD_XDICTIONARY
360
9CD2
102
}
102
{ACAD_REACTORS
330
9C62
102
}
330
9C62
100
AcDbVisualStyle
  2
Brighten
 70
    12
 71
     2
 72
     2
 73
     0
 90
        0
 40
-0.6
 41
-30.0
 62
     5
 63
     7
 74
     1
 91
        4
 64
     7
 65
   257
 75
     1
175
     1
 42
1.0
 92
        8
 66
     7
 43
1.0
 76
     1
 77
     6
 78
     2
 67
     7
 79
     5
170
     0
171
     0
290
     0
174
     0
 93
        1
 44
50.0
173
     0
291
     1
 45
0.0
1001
ACAD
1000
AcDbSavedByObjectVersion
1070
     0
  0
VISUALSTYLE
  5
9C72
102
{ACAD_XDICTIONARY
360
9CDA
102
}
102
{ACAD_REACTORS
330
9C62
102
}
330
9C62
100
AcDbVisualStyle
  2
ColorChange
 70
    16
 71
     2
 72
     2
 73
     3
 90
        0
 40
-0.6
 41
-30.0
 62
     5
 63
     8
 74
     1
 91
        4
 64
     7
 65
   257
 75
     1
175
     1
 42
1.0
 92
        8
 66
     8
 43
1.0
 76
     1
 77
     6
 78
     2
 67
     7
 79
     5
170
     0
171
     0
290
     0
174
     0
 93
        1
 44
0.0
173
     0
291
     1
 45
0.0
1001
ACAD
1000
AcDbSavedByObjectVersion
1070
     0
  0
VISUALSTYLE
  5
9C6B
102
{ACAD_XDICTIONARY
360
9CCC
102
}
102
{ACAD_REACTORS
330
9C62
102
}
330
9C62
100
AcDbVisualStyle
  2
Conceptual
 70
     9
 71
     3
 72
     2
 73
     0
 90
        0
 40
-0.6
 41
-30.0
 62
     5
 63
     7
 74
     2
 91
        2
 64
     7
 65
   257
 75
     1
175
     1
 42
179.0
 92
        8
 66
     7
 43
1.0
 76
     1
 77
     6
 78
     2
 67
     7
 79
     3
170
     0
171
     0
290
     0
174
     0
 93
        1
 44
0.0
173
     0
291
     0
 45
0.0
1001
ACAD
1000
AcDbSavedByObjectVersion
1070
     0
  0
VISUALSTYLE
  5
9C6D
102
{ACAD_XDICTIONARY
360
9CD0
102
}
102
{ACAD_REACTORS
330
9C62
102
}
330
9C62
100
AcDbVisualStyle
  2
Dim
 70
    11
 71
     2
 72
     2
 73
     0
 90
        0
 40
-0.6
 41
-30.0
 62
     5
 63
     7
 74
     1
 91
        4
 64
     7
 65
   257
 75
     1
175
     1
 42
1.0
 92
        8
 66
     7
 43
1.0
 76
     1
 77
     6
 78
     2
 67
     7
 79
     5
170
     0
171
     0
290
     0
174
     0
 93
        1
 44
-50.0
173
     0
291
     1
 45
0.0
1001
ACAD
1000
AcDbSavedByObjectVersion
1070
     0
  0
VISUALSTYLE
  5
9C7A
102
{ACAD_XDICTIONARY
360
9CEA
102
}
102
{ACAD_REACTORS
330
9C62
102
}
330
9C62
100
AcDbVisualStyle
  2
EdgeColorOff
 70
    22
 71
     2
 72
     2
 73
     0
 90
        0
 40
-0.6
 41
-30.0
 62
     5
 63
     7
 74
     1
 91
        4
 64
     7
 65
   257
 75
     1
175
     1
 42
1.0
 92
        8
 66
     7
 43
1.0
 76
     1
 77
     6
 78
     2
 67
     7
 79
     5
170
     0
171
     0
290
     0
174
     0
 93
        1
 44
0.0
173
     0
291
     1
 45
0.0
1001
ACAD
1000
AcDbSavedByObjectVersion
1070
     0
  0
VISUALSTYLE
  5
9C71
102
{ACAD_XDICTIONARY
360
9CD8
102
}
102
{ACAD_REACTORS
330
9C62
102
}
330
9C62
100
AcDbVisualStyle
  2
Facepattern
 70
    15
 71
     2
 72
     2
 73
     0
 90
        0
 40
-0.6
 41
-30.0
 62
     5
 63
     7
 74
     1
 91
        4
 64
     7
 65
   257
 75
     1
175
     1
 42
1.0
 92
        8
 66
     7
 43
1.0
 76
     1
 77
     6
 78
     2
 67
     7
 79
     5
170
     0
171
     0
290
     0
174
     0
 93
        1
 44
0.0
173
     0
291
     1
 45
0.0
1001
ACAD
1000
AcDbSavedByObjectVersion
1070
     0
  0
VISUALSTYLE
  5
9C63
102
{ACAD_XDICTIONARY
360
9CBC
102
}
102
{ACAD_REACTORS
330
9C62
102
}
330
9C62
100
AcDbVisualStyle
  2
Flat
 70
     0
 71
     2
 72
     1
 73
     1
 90
        2
 40
-0.6
 41
30.0
 62
     5
 63
     7
 74
     0
 91
        0
 64
     7
 65
   257
 75
     1
175
     1
 42
1.0
 92
        8
 66
     7
 43
1.0
 76
     1
 77
     6
 78
     2
 67
     7
 79
     5
170
     0
171
     0
290
     0
174
     0
 93
       13
 44
0.0
173
     0
291
     1
 45
0.0
1001
ACAD
1000
AcDbSavedByObjectVersion
1070
     0
  0
VISUALSTYLE
  5
9C64
102
{ACAD_XDICTIONARY
360
9CBE
102
}
102
{ACAD_REACTORS
330
9C62
102
}
330
9C62
100
AcDbVisualStyle
  2
FlatWithEdges
 70
     1
 71
     2
 72
     1
 73
     1
 90
        2
 40
-0.6
 41
30.0
 62
     5
 63
     7
 74
     1
 91
        0
 64
     7
 65
   257
 75
     1
175
     1
 42
1.0
 92
        0
 66
   257
 43
1.0
 76
     1
 77
     6
 78
     2
 67
     7
 79
     5
170
     0
171
     0
290
     0
174
     0
 93
       13
 44
0.0
173
     0
291
     1
 45
0.0
1001
ACAD
1000
AcDbSavedByObjectVersion
1070
     0
  0
VISUALSTYLE
  5
9C65
102
{ACAD_XDICTIONARY
360
9CC0
102
}
102
{ACAD_REACTORS
330
9C62
102
}
330
9C62
100
AcDbVisualStyle
  2
Gouraud
 70
     2
 71
     2
 72
     2
 73
     1
 90
        2
 40
-0.6
 41
30.0
 62
     5
 63
     7
 74
     0
 91
        0
 64
     7
 65
   257
 75
     1
175
     1
 42
1.0
 92
        0
 66
     7
 43
1.0
 76
     1
 77
     6
 78
     2
 67
     7
 79
     5
170
     0
171
     0
290
     0
174
     0
 93
       13
 44
0.0
173
     0
291
     1
 45
0.0
1001
ACAD
1000
AcDbSavedByObjectVersion
1070
     0
  0
VISUALSTYLE
  5
9C66
102
{ACAD_XDICTIONARY
360
9CC2
102
}
102
{ACAD_REACTORS
330
9C62
102
}
330
9C62
100
AcDbVisualStyle
  2
GouraudWithEdges
 70
     3
 71
     2
 72
     2
 73
     1
 90
        2
 40
-0.6
 41
30.0
 62
     5
 63
     7
 74
     1
 91
        0
 64
     7
 65
   257
 75
     1
175
     1
 42
1.0
 92
        0
 66
   257
 43
1.0
 76
     1
 77
     6
 78
     2
 67
     7
 79
     5
170
     0
171
     0
290
     0
174
     0
 93
       13
 44
0.0
173
     0
291
     1
 45
0.0
1001
ACAD
1000
AcDbSavedByObjectVersion
1070
     0
  0
VISUALSTYLE
  5
9C6A
102
{ACAD_XDICTIONARY
360
9CCA
102
}
102
{ACAD_REACTORS
330
9C62
102
}
330
9C62
100
AcDbVisualStyle
  2
Hidden
 70
     6
 71
     1
 72
     2
 73
     2
 90
        0
 40
-0.6
 41
-30.0
 62
     5
 63
     7
 74
     2
 91
        2
 64
     7
 65
   257
 75
     2
175
     1
 42
40.0
 92
        0
 66
   257
 43
1.0
 76
     1
 77
     6
 78
     2
 67
     7
 79
     3
170
     0
171
     0
290
     0
174
     0
 93
        1
 44
0.0
173
     0
291
     0
 45
0.0
1001
ACAD
1000
AcDbSavedByObjectVersion
1070
     0
  0
VISUALSTYLE
  5
9C78
102
{ACAD_XDICTIONARY
360
9CE6
102
}
102
{ACAD_REACTORS
330
9C62
102
}
330
9C62
100
AcDbVisualStyle
  2
JitterOff
 70
    20
 71
     2
 72
     2
 73
     0
 90
        0
 40
-0.6
 41
-30.0
 62
     5
 63
     7
 74
     1
 91
        4
 64
     7
 65
   257
 75
     1
175
     1
 42
1.0
 92
       10
 66
     7
 43
1.0
 76
     1
 77
     6
 78
     2
 67
     7
 79
     5
170
     0
171
     0
290
     0
174
     0
 93
        1
 44
0.0
173
     0
291
     1
 45
0.0
1001
ACAD
1000
AcDbSavedByObjectVersion
1070
     0
  0
VISUALSTYLE
  5
9C70
102
{ACAD_XDICTIONARY
360
9CD6
102
}
102
{ACAD_REACTORS
330
9C62
102
}
330
9C62
100
AcDbVisualStyle
  2
Linepattern
 70
    14
 71
     2
 72
     2
 73
     0
 90
        0
 40
-0.6
 41
-30.0
 62
     5
 63
     7
 74
     1
 91
        4
 64
     7
 65
   257
 75
     7
175
     7
 42
1.0
 92
        8
 66
     7
 43
1.0
 76
     1
 77
     6
 78
     2
 67
     7
 79
     5
170
     0
171
     0
290
     0
174
     0
 93
        1
 44
0.0
173
     0
291
     1
 45
0.0
1001
ACAD
1000
AcDbSavedByObjectVersion
1070
     0
  0
VISUALSTYLE
  5
9C79
102
{ACAD_XDICTIONARY
360
9CE8
102
}
102
{ACAD_REACTORS
330
9C62
102
}
330
9C62
100
AcDbVisualStyle
  2
OverhangOff
 70
    21
 71
     2
 72
     2
 73
     0
 90
        0
 40
-0.6
 41
-30.0
 62
     5
 63
     7
 74
     1
 91
        4
 64
     7
 65
   257
 75
     1
175
     1
 42
1.0
 92
        9
 66
     7
 43
1.0
 76
     1
 77
     6
 78
     2
 67
     7
 79
     5
170
     0
171
     0
290
     0
174
     0
 93
        1
 44
0.0
173
     0
291
     1
 45
0.0
1001
ACAD
1000
AcDbSavedByObjectVersion
1070
     0
  0
VISUALSTYLE
  5
9C6C
102
{ACAD_XDICTIONARY
360
9CCE
102
}
102
{ACAD_REACTORS
330
9C62
102
}
330
9C62
100
AcDbVisualStyle
  2
Realistic
 70
     8
 71
     2
 72
     3
 73
     0
 90
        2
 40
-0.6
 41
30.0
 62
     5
 63
     7
 74
     0
 91
        0
 64
     7
 65
   257
 75
     1
175
     1
 42
1.0
 92
        8
 66
   257
 43
1.0
 76
     1
 77
     6
 78
     2
 67
     7
 79
     3
170
     0
171
     0
290
     0
174
     0
 93
       13
 44
0.0
173
     0
291
     0
 45
0.0
1001
ACAD
1000
AcDbSavedByObjectVersion
1070
     0
  0
VISUALSTYLE
  5
9C77
102
{ACAD_XDICTIONARY
360
9CE4
102
}
102
{ACAD_REACTORS
330
9C62
102
}
330
9C62
100
AcDbVisualStyle
  2
Shaded
 70
    27
 71
     2
 72
     2
 73
     1
 90
        2
 40
-0.6
 41
30.0
 62
     5
 63
     7
 74
     0
 91
        4
 64
     7
 65
   257
 75
     1
175
     1
 42
1.0
 92
        8
 66
   257
 43
1.0
 76
     1
 77
     6
 78
     2
 67
     8
 79
     3
170
     0
171
     0
290
     0
174
     0
 93
        5
 44
0.0
173
     0
291
     0
 45
0.0
1001
ACAD
1000
AcDbSavedByObjectVersion
1070
     0
  0
VISUALSTYLE
  5
9C76
102
{ACAD_XDICTIONARY
360
9CE2
102
}
102
{ACAD_REACTORS
330
9C62
102
}
330
9C62
100
AcDbVisualStyle
  2
Shaded with edges
 70
    26
 71
     2
 72
     2
 73
     1
 90
        2
 40
-0.6
 41
30.0
 62
     5
 63
     7
 74
     1
 91
       10
 64
     7
 65
   257
 75
     2
175
     1
 42
1.0
 92
        8
 66
   257
 43
1.0
 76
     1
 77
     6
 78
     2
 67
     7
 79
     3
170
     0
171
     0
290
     0
174
     0
 93
        5
 44
0.0
173
     0
291
     0
 45
0.0
1001
ACAD
1000
AcDbSavedByObjectVersion
1070
     0
  0
VISUALSTYLE
  5
9C73
102
{ACAD_XDICTIONARY
360
9CDC
102
}
102
{ACAD_REACTORS
330
9C62
102
}
330
9C62
100
AcDbVisualStyle
  2
Shades of Gray
 70
    23
 71
     2
 72
     2
 73
     3
 90
        0
 40
-0.6
 41
-30.0
 62
     5
 63
     7
 74
     2
 91
        2
 64
     7
 65
     7
 75
     1
175
     1
 42
40.0
 92
        8
 66
     7
 43
1.0
 76
     1
 77
     6
 78
     2
 67
     7
 79
     3
170
     0
171
     0
290
     0
174
     0
 93
        1
 44
0.0
173
     0
291
     0
 45
0.0
1001
ACAD
1000
AcDbSavedByObjectVersion
1070
     0
  0
VISUALSTYLE
  5
9C74
102
{ACAD_XDICTIONARY
360
9CDE
102
}
102
{ACAD_REACTORS
330
9C62
102
}
330
9C62
100
AcDbVisualStyle
  2
Sketchy
 70
    24
 71
     1
 72
     2
 73
     2
 90
        0
 40
-0.6
 41
-30.0
 62
     5
 63
     7
 74
     2
 91
        2
 64
     7
 65
     7
 75
     1
175
     1
 42
40.0
 92
       11
 66
     7
 43
1.0
 76
     1
 77
     6
 78
     2
 67
     7
 79
     6
170
     0
171
     0
290
     0
174
     0
 93
        1
 44
0.0
173
     0
291
     0
 45
0.0
1001
ACAD
1000
AcDbSavedByObjectVersion
1070
     0
  0
VISUALSTYLE
  5
9C6F
102
{ACAD_XDICTIONARY
360
9CD4
102
}
102
{ACAD_REACTORS
330
9C62
102
}
330
9C62
100
AcDbVisualStyle
  2
Thicken
 70
    13
 71
     2
 72
     2
 73
     0
 90
        0
 40
-0.6
 41
-30.0
 62
     5
 63
     7
 74
     1
 91
        4
 64
     7
 65
   257
 75
     1
175
     1
 42
1.0
 92
       12
 66
     7
 43
1.0
 76
     1
 77
     6
 78
     2
 67
     7
 79
     5
170
     0
171
     0
290
     0
174
     0
 93
        1
 44
0.0
173
     0
291
     1
 45
0.0
1001
ACAD
1000
AcDbSavedByObjectVersion
1070
     0
  0
VISUALSTYLE
  5
9C69
102
{ACAD_XDICTIONARY
360
9CC8
102
}
102
{ACAD_REACTORS
330
9C62
102
}
330
9C62
100
AcDbVisualStyle
  2
Wireframe
 70
     5
 71
     0
 72
     2
 73
     0
 90
        0
 40
-0.6
 41
-30.0
 62
     5
 63
     7
 74
     1
 91
        4
 64
     7
 65
   257
 75
     1
175
     1
 42
1.0
 92
        0
 66
   257
 43
1.0
 76
     1
 77
     6
 78
     2
 67
     7
 79
     3
170
     0
171
     0
290
     0
174
     0
 93
        1
 44
0.0
173
     0
291
     0
 45
0.0
1001
ACAD
1000
AcDbSavedByObjectVersion
1070
     0
  0
VISUALSTYLE
  5
9C75
102
{ACAD_XDICTIONARY
360
9CE0
102
}
102
{ACAD_REACTORS
330
9C62
102
}
330
9C62
100
AcDbVisualStyle
  2
X-Ray
 70
    25
 71
     2
 72
     2
 73
     1
 90
        1
 40
0.5
 41
-30.0
 62
     5
 63
     7
 74
     1
 91
        0
 64
     7
 65
   257
 75
     1
175
     1
 42
1.0
 92
        8
 66
     7
 43
1.0
 76
     1
 77
     6
 78
     2
 67
     7
 79
     3
170
     0
171
     0
290
     0
174
     0
 93
       13
 44
0.0
173
     0
291
     0
 45
0.0
1001
ACAD
1000
AcDbSavedByObjectVersion
1070
     0
  0
DICTIONARYVAR
  5
9CAF
102
{ACAD_REACTORS
330
9CAA
102
}
330
9CAA
100
DictionaryVariables
280
     0
  1
1:1
  0
DICTIONARYVAR
  5
9CAC
102
{ACAD_REACTORS
330
9CAA
102
}
330
9CAA
100
DictionaryVariables
280
     0
  1
STANDARD
  0
DICTIONARYVAR
  5
9CAB
102
{ACAD_REACTORS
330
9CAA
102
}
330
9CAA
100
DictionaryVariables
280
     0
  1
STANDARD
  0
DICTIONARYVAR
  5
9CAD
102
{ACAD_REACTORS
330
9CAA
102
}
330
9CAA
100
DictionaryVariables
280
     0
  1
Imperial24
  0
DICTIONARYVAR
  5
9CAE
102
{ACAD_REACTORS
330
9CAA
102
}
330
9CAA
100
DictionaryVariables
280
     0
  1
Imperial24
  0
DICTIONARYVAR
  5
9CB2
102
{ACAD_REACTORS
330
9CAA
102
}
330
9CAA
100
DictionaryVariables
280
     0
  1
1
  0
DICTIONARYVAR
  5
9CB1
102
{ACAD_REACTORS
330
9CAA
102
}
330
9CAA
100
DictionaryVariables
280
     0
  1
0
  0
DICTIONARYVAR
  5
9CB0
102
{ACAD_REACTORS
330
9CAA
102
}
330
9CAA
100
DictionaryVariables
280
     0
  1
127
  0
DICTIONARYVAR
  5
9CB3
102
{ACAD_REACTORS
330
9CAA
102
}
330
9CAA
100
DictionaryVariables
280
     0
  1
2
  0
DICTIONARY
  5
9CF0
330
9C95
100
AcDbDictionary
280
     1
281
     1
  3
ACAD_XREC_ROUNDTRIP
360
9CF1
  0
DICTIONARY
  5
9CF2
330
9C96
100
AcDbDictionary
280
     1
281
     1
  3
ACAD_XREC_ROUNDTRIP
360
9CF3
  0
DICTIONARY
  5
9CF4
330
9C97
100
AcDbDictionary
280
     1
281
     1
  3
ACAD_XREC_ROUNDTRIP
360
9CF5
  0
DICTIONARY
  5
9C53
330
9C52
100
AcDbDictionary
280
     1
281
     1
  3
ACAD_XREC_ROUNDTRIP
360
9CBA
  3
BUMPTILE
360
9C55
  3
DIFFUSETILE
360
9C54
  3
OPACITYTILE
360
9C58
  3
REFLECTIONTILE
360
9C57
  3
REFRACTIONTILE
360
9C59
  3
SPECULARTILE
360
9C56
  0
DICTIONARY
  5
9C4B
330
9C4A
100
AcDbDictionary
280
     1
281
     1
  3
ACAD_XREC_ROUNDTRIP
360
9CB9
  3
BUMPTILE
360
9C4D
  3
DIFFUSETILE
360
9C4C
  3
OPACITYTILE
360
9C50
  3
REFLECTIONTILE
360
9C4F
  3
REFRACTIONTILE
360
9C51
  3
SPECULARTILE
360
9C4E
  0
DICTIONARY
  5
9C5B
330
9C5A
100
AcDbDictionary
280
     1
281
     1
  3
ACAD_XREC_ROUNDTRIP
360
9CBB
  3
BUMPTILE
360
9C5D
  3
DIFFUSETILE
360
9C5C
  3
OPACITYTILE
360
9C60
  3
REFLECTIONTILE
360
9C5F
  3
REFRACTIONTILE
360
9C61
  3
SPECULARTILE
360
9C5E
  0
DICTIONARY
  5
9CEE
330
9C93
100
AcDbDictionary
280
     1
281
     1
  3
ACAD_XREC_ROUNDTRIP
360
9CEF
  0
DICTIONARY
  5
9CB5
330
9C7D
100
AcDbDictionary
280
     1
281
     1
  3
ACAD_ROUNDTRIP_2008_TABLESTYLE_CELLSTYLEMAP
360
9CB6
  3
ACAD_XREC_ROUNDTRIP
360
9CEC
  0
DICTIONARY
  5
9CC6
330
9C68
100
AcDbDictionary
280
     1
281
     1
  3
ACAD_XREC_ROUNDTRIP
360
9CC7
  0
DICTIONARY
  5
9CC4
330
9C67
100
AcDbDictionary
280
     1
281
     1
  3
ACAD_XREC_ROUNDTRIP
360
9CC5
  0
DICTIONARY
  5
9CD2
330
9C6E
100
AcDbDictionary
280
     1
281
     1
  3
ACAD_XREC_ROUNDTRIP
360
9CD3
  0
DICTIONARY
  5
9CDA
330
9C72
100
AcDbDictionary
280
     1
281
     1
  3
ACAD_XREC_ROUNDTRIP
360
9CDB
  0
DICTIONARY
  5
9CCC
330
9C6B
100
AcDbDictionary
280
     1
281
     1
  3
ACAD_XREC_ROUNDTRIP
360
9CCD
  0
DICTIONARY
  5
9CD0
330
9C6D
100
AcDbDictionary
280
     1
281
     1
  3
ACAD_XREC_ROUNDTRIP
360
9CD1
  0
DICTIONARY
  5
9CEA
330
9C7A
100
AcDbDictionary
280
     1
281
     1
  3
ACAD_XREC_ROUNDTRIP
360
9CEB
  0
DICTIONARY
  5
9CD8
330
9C71
100
AcDbDictionary
280
     1
281
     1
  3
ACAD_XREC_ROUNDTRIP
360
9CD9
  0
DICTIONARY
  5
9CBC
330
9C63
100
AcDbDictionary
280
     1
281
     1
  3
ACAD_XREC_ROUNDTRIP
360
9CBD
  0
DICTIONARY
  5
9CBE
330
9C64
100
AcDbDictionary
280
     1
281
     1
  3
ACAD_XREC_ROUNDTRIP
360
9CBF
  0
DICTIONARY
  5
9CC0
330
9C65
100
AcDbDictionary
280
     1
281
     1
  3
ACAD_XREC_ROUNDTRIP
360
9CC1
  0
DICTIONARY
  5
9CC2
330
9C66
100
AcDbDictionary
280
     1
281
     1
  3
ACAD_XREC_ROUNDTRIP
360
9CC3
  0
DICTIONARY
  5
9CCA
330
9C6A
100
AcDbDictionary
280
     1
281
     1
  3
ACAD_XREC_ROUNDTRIP
360
9CCB
  0
DICTIONARY
  5
9CE6
330
9C78
100
AcDbDictionary
280
     1
281
     1
  3
ACAD_XREC_ROUNDTRIP
360
9CE7
  0
DICTIONARY
  5
9CD6
330
9C70
100
AcDbDictionary
280
     1
281
     1
  3
ACAD_XREC_ROUNDTRIP
360
9CD7
  0
DICTIONARY
  5
9CE8
330
9C79
100
AcDbDictionary
280
     1
281
     1
  3
ACAD_XREC_ROUNDTRIP
360
9CE9
  0
DICTIONARY
  5
9CCE
330
9C6C
100
AcDbDictionary
280
     1
281
     1
  3
ACAD_XREC_ROUNDTRIP
360
9CCF
  0
DICTIONARY
  5
9CE4
330
9C77
100
AcDbDictionary
280
     1
281
     1
  3
ACAD_XREC_ROUNDTRIP
360
9CE5
  0
DICTIONARY
  5
9CE2
330
9C76
100
AcDbDictionary
280
     1
281
     1
  3
ACAD_XREC_ROUNDTRIP
360
9CE3
  0
DICTIONARY
  5
9CDC
330
9C73
100
AcDbDictionary
280
     1
281
     1
  3
ACAD_XREC_ROUNDTRIP
360
9CDD
  0
DICTIONARY
  5
9CDE
330
9C74
100
AcDbDictionary
280
     1
281
     1
  3
ACAD_XREC_ROUNDTRIP
360
9CDF
  0
DICTIONARY
  5
9CD4
330
9C6F
100
AcDbDictionary
280
     1
281
     1
  3
ACAD_XREC_ROUNDTRIP
360
9CD5
  0
DICTIONARY
  5
9CC8
330
9C69
100
AcDbDictionary
280
     1
281
     1
  3
ACAD_XREC_ROUNDTRIP
360
9CC9
  0
DICTIONARY
  5
9CE0
330
9C75
100
AcDbDictionary
280
     1
281
     1
  3
ACAD_XREC_ROUNDTRIP
360
9CE1
  0
XRECORD
  5
9CF1
102
{ACAD_REACTORS
330
9CF0
102
}
330
9CF0
100
AcDbXrecord
280
     1
102
DISPLAYNAME
  1
Imperial24
102
FLAGS
 90
        0
  0
XRECORD
  5
9CF3
102
{ACAD_REACTORS
330
9CF2
102
}
330
9CF2
100
AcDbXrecord
280
     1
102
SHADEPLOT
 70
     0
102
SHADEPLOTRESLEVEL
 70
     2
102
SHADEPLOTCUSTOMDPI
 70
   300
  0
XRECORD
  5
9CF5
102
{ACAD_REACTORS
330
9CF4
102
}
330
9CF4
100
AcDbXrecord
280
     1
102
SHADEPLOT
 70
     0
102
SHADEPLOTRESLEVEL
 70
     2
102
SHADEPLOTCUSTOMDPI
 70
   300
  0
XRECORD
  5
9CBA
102
{ACAD_REACTORS
330
9C53
102
}
330
9C53
100
AcDbXrecord
280
     1
102
MATERIAL
148
0.0
149
0.0
149
0.0
 93
        0
 94
      127
282
     0
 72
     0
 77
     0
171
     0
175
     0
179
     0
273
     0
  0
XRECORD
  5
9C55
102
{ACAD_REACTORS
330
9C53
102
}
330
9C53
100
AcDbXrecord
280
     1
270
     1
271
     1
  0
XRECORD
  5
9C54
102
{ACAD_REACTORS
330
9C53
102
}
330
9C53
100
AcDbXrecord
280
     1
270
     1
271
     1
  0
XRECORD
  5
9C58
102
{ACAD_REACTORS
330
9C53
102
}
330
9C53
100
AcDbXrecord
280
     1
270
     1
271
     1
  0
XRECORD
  5
9C57
102
{ACAD_REACTORS
330
9C53
102
}
330
9C53
100
AcDbXrecord
280
     1
270
     1
271
     1
  0
XRECORD
  5
9C59
102
{ACAD_REACTORS
330
9C53
102
}
330
9C53
100
AcDbXrecord
280
     1
270
     1
271
     1
  0
XRECORD
  5
9C56
102
{ACAD_REACTORS
330
9C53
102
}
330
9C53
100
AcDbXrecord
280
     1
270
     1
271
     1
  0
XRECORD
  5
9CB9
102
{ACAD_REACTORS
330
9C4B
102
}
330
9C4B
100
AcDbXrecord
280
     1
102
MATERIAL
148
0.0
149
0.0
149
0.0
 93
        0
 94
      127
282
     0
 72
     0
 77
     0
171
     0
175
     0
179
     0
273
     0
  0
XRECORD
  5
9C4D
102
{ACAD_REACTORS
330
9C4B
102
}
330
9C4B
100
AcDbXrecord
280
     1
270
     1
271
     1
  0
XRECORD
  5
9C4C
102
{ACAD_REACTORS
330
9C4B
102
}
330
9C4B
100
AcDbXrecord
280
     1
270
     1
271
     1
  0
XRECORD
  5
9C50
102
{ACAD_REACTORS
330
9C4B
102
}
330
9C4B
100
AcDbXrecord
280
     1
270
     1
271
     1
  0
XRECORD
  5
9C4F
102
{ACAD_REACTORS
330
9C4B
102
}
330
9C4B
100
AcDbXrecord
280
     1
270
     1
271
     1
  0
XRECORD
  5
9C51
102
{ACAD_REACTORS
330
9C4B
102
}
330
9C4B
100
AcDbXrecord
280
     1
270
     1
271
     1
  0
XRECORD
  5
9C4E
102
{ACAD_REACTORS
330
9C4B
102
}
330
9C4B
100
AcDbXrecord
280
     1
270
     1
271
     1
  0
XRECORD
  5
9CBB
102
{ACAD_REACTORS
330
9C5B
102
}
330
9C5B
100
AcDbXrecord
280
     1
102
MATERIAL
148
0.0
149
0.0
149
0.0
 93
        0
 94
      127
282
     0
 72
     0
 77
     0
171
     0
175
     0
179
     0
273
     0
  0
XRECORD
  5
9C5D
102
{ACAD_REACTORS
330
9C5B
102
}
330
9C5B
100
AcDbXrecord
280
     1
270
     1
271
     1
  0
XRECORD
  5
9C5C
102
{ACAD_REACTORS
330
9C5B
102
}
330
9C5B
100
AcDbXrecord
280
     1
270
     1
271
     1
  0
XRECORD
  5
9C60
102
{ACAD_REACTORS
330
9C5B
102
}
330
9C5B
100
AcDbXrecord
280
     1
270
     1
271
     1
  0
XRECORD
  5
9C5F
102
{ACAD_REACTORS
330
9C5B
102
}
330
9C5B
100
AcDbXrecord
280
     1
270
     1
271
     1
  0
XRECORD
  5
9C61
102
{ACAD_REACTORS
330
9C5B
102
}
330
9C5B
100
AcDbXrecord
280
     1
270
     1
271
     1
  0
XRECORD
  5
9C5E
102
{ACAD_REACTORS
330
9C5B
102
}
330
9C5B
100
AcDbXrecord
280
     1
270
     1
271
     1
  0
XRECORD
  5
9CEF
102
{ACAD_REACTORS
330
9CEE
102
}
330
9CEE
100
AcDbXrecord
280
     1
102
DISPLAYNAME
  1
Imperial24
102
FLAGS
 90
        0
  0
CELLSTYLEMAP
  5
9CB6
102
{ACAD_REACTORS
330
9CB5
102
}
330
9CB5
100
AcDbCellStyleMap
 90
        3
300
CELLSTYLE
  1
TABLEFORMAT_BEGIN
 90
        5
170
     1
 91
        0
 92
    32768
 62
   257
 93
        1
300
CONTENTFORMAT
  1
CONTENTFORMAT_BEGIN
 90
        0
 91
        0
 92
      512
 93
        0
300

 40
0.0
140
1.0
 94
        5
 62
     0
340
9935
144
0.25
309
CONTENTFORMAT_END
171
     0
 94
        0
309
TABLEFORMAT_END
  1
CELLSTYLE_BEGIN
 90
        1
 91
        1
300
_TITLE
309
CELLSTYLE_END
300
CELLSTYLE
  1
TABLEFORMAT_BEGIN
 90
        5
170
     1
 91
        0
 92
        0
 62
   257
 93
        1
300
CONTENTFORMAT
  1
CONTENTFORMAT_BEGIN
 90
        0
 91
        0
 92
      512
 93
        0
300

 40
0.0
140
1.0
 94
        5
 62
     0
340
9935
144
0.18
309
CONTENTFORMAT_END
171
     0
 94
        0
309
TABLEFORMAT_END
  1
CELLSTYLE_BEGIN
 90
        2
 91
        1
300
_HEADER
309
CELLSTYLE_END
300
CELLSTYLE
  1
TABLEFORMAT_BEGIN
 90
        5
170
     1
 91
        0
 92
        0
 62
   257
 93
        1
300
CONTENTFORMAT
  1
CONTENTFORMAT_BEGIN
 90
        0
 91
        0
 92
      512
 93
        0
300

 40
0.0
140
1.0
 94
        2
 62
     0
340
9935
144
0.18
309
CONTENTFORMAT_END
171
     0
 94
        0
309
TABLEFORMAT_END
  1
CELLSTYLE_BEGIN
 90
        3
 91
        2
300
_DATA
309
CELLSTYLE_END
  0
XRECORD
  5
9CEC
102
{ACAD_REACTORS
330
9CB5
102
}
330
9CB5
100
AcDbXrecord
280
     1
102
ACAD_ROUNDTRIP_PRE2007_TABLESTYLE
 90
      512
 91
        0
  1

 92
      512
 93
        0
  2

 94
      512
 95
        0
  3

  0
XRECORD
  5
9CC7
102
{ACAD_REACTORS
330
9CC6
102
}
330
9CC6
100
AcDbXrecord
280
     1
102
RTVSPost2010Prop28
280
     1
102
RTVSPost2010PropOp28
 70
     1
102
RTVSPost2010Prop29
280
     1
102
RTVSPost2010PropOp29
 70
     1
102
RTVSPost2010Prop30
280
     0
102
RTVSPost2010PropOp30
 70
     1
102
RTVSPost2010Prop31
280
     0
102
RTVSPost2010PropOp31
 70
     1
102
RTVSPost2010Prop32
280
     0
102
RTVSPost2010PropOp32
 70
     1
102
RTVSPost2010Prop33
280
     0
102
RTVSPost2010PropOp33
 70
     1
102
RTVSPost2010Prop34
280
     0
102
RTVSPost2010PropOp34
 70
     1
102
RTVSPost2010Prop35
280
     0
102
RTVSPost2010PropOp35
 70
     1
102
RTVSPost2010Prop36
280
     0
102
RTVSPost2010PropOp36
 70
     1
102
RTVSPost2010Prop37
 90
       50
102
RTVSPost2010PropOp37
 70
     1
102
RTVSPost2010Prop38
140
0.0
102
RTVSPost2010PropOp38
 70
     1
102
RTVSPost2010Prop39
140
1.0
102
RTVSPost2010PropOp39
 70
     1
102
RTVSPost2010Prop40
 90
        0
102
RTVSPost2010PropOp40
 70
     1
102
RTVSPost2010Prop41ColorIndex
 90
       18
102
RTVSPost2010Prop41ColorRGB
 90
        0
102
RTVSPost2010PropOp41
 70
     1
102
RTVSPost2010Prop42
 90
       50
102
RTVSPost2010PropOp42
 70
     1
102
RTVSPost2010Prop43
 90
        3
102
RTVSPost2010PropOp43
 70
     1
102
RTVSPost2010Prop44ColorIndex
 90
        5
102
RTVSPost2010Prop44ColorRGB
 90
      255
102
RTVSPost2010PropOp44
 70
     1
102
RTVSPost2010Prop45
280
     0
102
RTVSPost2010PropOp45
 70
     1
102
RTVSPost2010Prop46
 90
       50
102
RTVSPost2010PropOp46
 70
     1
102
RTVSPost2010Prop47
 90
       50
102
RTVSPost2010PropOp47
 70
     1
102
RTVSPost2010Prop48
 90
       50
102
RTVSPost2010PropOp48
 70
     1
102
RTVSPost2010Prop49
280
     0
102
RTVSPost2010PropOp49
 70
     1
102
RTVSPost2010Prop50
 90
       50
102
RTVSPost2010PropOp50
 70
     1
102
RTVSPost2010Prop51ColorIndex
 90
      256
102
RTVSPost2010Prop51ColorRGB
 90
-16777216
102
RTVSPost2010PropOp51
 70
     0
102
RTVSPost2010Prop52
140
1.0
102
RTVSPost2010PropOp52
 70
     0
102
RTVSPost2010Prop53
 90
        2
102
RTVSPost2010PropOp53
 70
     1
102
RTVSPost2010Prop54
  1
strokes_ogs.tif
102
RTVSPost2010PropOp54
 70
     1
102
RTVSPost2010Prop55
280
     0
102
RTVSPost2010PropOp55
 70
     1
102
RTVSPost2010Prop56
140
1.0
102
RTVSPost2010PropOp56
 70
     1
102
RTVSPost2010Prop57
140
1.0
102
RTVSPost2010PropOp57
 70
     1
102
RTVSPropertyOp0
 70
     1
102
RTVSPropertyOp1
 70
     1
102
RTVSPropertyOp2
 70
     1
102
RTVSPropertyOp3
 70
     1
102
RTVSPropertyOp4
 70
     1
102
RTVSPropertyOp5
 70
     1
102
RTVSPropertyOp6
 70
     1
102
RTVSPropertyOp7
 70
     1
102
RTVSPropertyOp8
 70
     1
102
RTVSPropertyOp9
 70
     1
102
RTVSPropertyOp10
 70
     1
102
RTVSPropertyOp11
 70
     1
102
RTVSPropertyOp12
 70
     1
102
RTVSPropertyOp13
 70
     1
102
RTVSPropertyOp14
 70
     1
102
RTVSPropertyOp15
 70
     1
102
RTVSPropertyOp16
 70
     1
102
RTVSPropertyOp17
 70
     1
102
RTVSPropertyOp18
 70
     1
102
RTVSPropertyOp19
 70
     1
102
RTVSPropertyOp20
 70
     1
102
RTVSPropertyOp21
 70
     1
102
RTVSPropertyOp22
 70
     1
102
RTVSPropertyOp23
 70
     1
102
RTVSPropertyOp24
 70
     1
102
RTVSPropertyOp25
 70
     1
102
RTVSPropertyOp26
 70
     1
102
RTVSPropertyOp27
 70
     1
102
RTVSPropertyOp28
 70
     1
102
RTVSPropertyOp29
 70
     1
102
RTVSPropertyOp30
 70
     1
102
RTVSPropertyOp31
 70
     1
102
RTVSPropertyOp32
 70
     1
102
RTVSPropertyOp33
 70
     1
102
RTVSPropertyOp34
 70
     1
102
RTVSPropertyOp35
 70
     1
102
RTVSPropertyOp36
 70
     1
102
RTVSPropertyOp37
 70
     1
102
RTVSPropertyOp38
 70
     1
102
RTVSPropertyOp39
 70
     1
102
RTVSPropertyOp40
 70
     1
102
RTVSPropertyOp41
 70
     1
102
RTVSPropertyOp42
 70
     1
102
RTVSPropertyOp43
 70
     1
102
RTVSPropertyOp44
 70
     1
102
RTVSPropertyOp45
 70
     1
102
RTVSPropertyOp46
 70
     1
102
RTVSPropertyOp47
 70
     1
102
RTVSPropertyOp48
 70
     1
102
RTVSPropertyOp49
 70
     1
102
RTVSPropertyOp50
 70
     1
102
RTVSPropertyOp51
 70
     0
102
RTVSPropertyOp52
 70
     0
102
RTVSPropertyOp53
 70
     1
102
RTVSPropertyOp54
 70
     1
102
RTVSPropertyOp55
 70
     1
102
RTVSPropertyOp56
 70
     1
102
RTVSPropertyOp57
 70
     1
102
RTVSPropertyOp58
 70
     1
102
RTVSPropertyOp59
 70
     1
102
RTVSPropertyOp60
 70
     1
102
RTVSPropertyOp61
 70
     1
102
RTVSPropertyOp62
 70
     1
  0
XRECORD
  5
9CC5
102
{ACAD_REACTORS
330
9CC4
102
}
330
9CC4
100
AcDbXrecord
280
     1
102
RTVSPost2010Prop28
280
     0
102
RTVSPost2010PropOp28
 70
     1
102
RTVSPost2010Prop29
280
     1
102
RTVSPost2010PropOp29
 70
     1
102
RTVSPost2010Prop30
280
     1
102
RTVSPost2010PropOp30
 70
     1
102
RTVSPost2010Prop31
280
     0
102
RTVSPost2010PropOp31
 70
     1
102
RTVSPost2010Prop32
280
     0
102
RTVSPost2010PropOp32
 70
     1
102
RTVSPost2010Prop33
280
     0
102
RTVSPost2010PropOp33
 70
     1
102
RTVSPost2010Prop34
280
     0
102
RTVSPost2010PropOp34
 70
     1
102
RTVSPost2010Prop35
280
     0
102
RTVSPost2010PropOp35
 70
     1
102
RTVSPost2010Prop36
280
     0
102
RTVSPost2010PropOp36
 70
     1
102
RTVSPost2010Prop37
 90
       50
102
RTVSPost2010PropOp37
 70
     1
102
RTVSPost2010Prop38
140
0.0
102
RTVSPost2010PropOp38
 70
     1
102
RTVSPost2010Prop39
140
1.0
102
RTVSPost2010PropOp39
 70
     1
102
RTVSPost2010Prop40
 90
        0
102
RTVSPost2010PropOp40
 70
     1
102
RTVSPost2010Prop41ColorIndex
 90
       18
102
RTVSPost2010Prop41ColorRGB
 90
        0
102
RTVSPost2010PropOp41
 70
     1
102
RTVSPost2010Prop42
 90
       50
102
RTVSPost2010PropOp42
 70
     1
102
RTVSPost2010Prop43
 90
        3
102
RTVSPost2010PropOp43
 70
     1
102
RTVSPost2010Prop44ColorIndex
 90
        5
102
RTVSPost2010Prop44ColorRGB
 90
      255
102
RTVSPost2010PropOp44
 70
     1
102
RTVSPost2010Prop45
280
     0
102
RTVSPost2010PropOp45
 70
     1
102
RTVSPost2010Prop46
 90
       50
102
RTVSPost2010PropOp46
 70
     1
102
RTVSPost2010Prop47
 90
       50
102
RTVSPost2010PropOp47
 70
     1
102
RTVSPost2010Prop48
 90
       50
102
RTVSPost2010PropOp48
 70
     1
102
RTVSPost2010Prop49
280
     0
102
RTVSPost2010PropOp49
 70
     1
102
RTVSPost2010Prop50
 90
       50
102
RTVSPost2010PropOp50
 70
     1
102
RTVSPost2010Prop51ColorIndex
 90
      256
102
RTVSPost2010Prop51ColorRGB
 90
-16777216
102
RTVSPost2010PropOp51
 70
     0
102
RTVSPost2010Prop52
140
1.0
102
RTVSPost2010PropOp52
 70
     0
102
RTVSPost2010Prop53
 90
        2
102
RTVSPost2010PropOp53
 70
     1
102
RTVSPost2010Prop54
  1
strokes_ogs.tif
102
RTVSPost2010PropOp54
 70
     1
102
RTVSPost2010Prop55
280
     0
102
RTVSPost2010PropOp55
 70
     1
102
RTVSPost2010Prop56
140
1.0
102
RTVSPost2010PropOp56
 70
     1
102
RTVSPost2010Prop57
140
1.0
102
RTVSPost2010PropOp57
 70
     1
102
RTVSPropertyOp0
 70
     1
102
RTVSPropertyOp1
 70
     1
102
RTVSPropertyOp2
 70
     1
102
RTVSPropertyOp3
 70
     1
102
RTVSPropertyOp4
 70
     1
102
RTVSPropertyOp5
 70
     1
102
RTVSPropertyOp6
 70
     1
102
RTVSPropertyOp7
 70
     1
102
RTVSPropertyOp8
 70
     1
102
RTVSPropertyOp9
 70
     1
102
RTVSPropertyOp10
 70
     1
102
RTVSPropertyOp11
 70
     1
102
RTVSPropertyOp12
 70
     1
102
RTVSPropertyOp13
 70
     1
102
RTVSPropertyOp14
 70
     1
102
RTVSPropertyOp15
 70
     1
102
RTVSPropertyOp16
 70
     1
102
RTVSPropertyOp17
 70
     1
102
RTVSPropertyOp18
 70
     1
102
RTVSPropertyOp19
 70
     1
102
RTVSPropertyOp20
 70
     1
102
RTVSPropertyOp21
 70
     1
102
RTVSPropertyOp22
 70
     1
102
RTVSPropertyOp23
 70
     1
102
RTVSPropertyOp24
 70
     1
102
RTVSPropertyOp25
 70
     1
102
RTVSPropertyOp26
 70
     1
102
RTVSPropertyOp27
 70
     1
102
RTVSPropertyOp28
 70
     1
102
RTVSPropertyOp29
 70
     1
102
RTVSPropertyOp30
 70
     1
102
RTVSPropertyOp31
 70
     1
102
RTVSPropertyOp32
 70
     1
102
RTVSPropertyOp33
 70
     1
102
RTVSPropertyOp34
 70
     1
102
RTVSPropertyOp35
 70
     1
102
RTVSPropertyOp36
 70
     1
102
RTVSPropertyOp37
 70
     1
102
RTVSPropertyOp38
 70
     1
102
RTVSPropertyOp39
 70
     1
102
RTVSPropertyOp40
 70
     1
102
RTVSPropertyOp41
 70
     1
102
RTVSPropertyOp42
 70
     1
102
RTVSPropertyOp43
 70
     1
102
RTVSPropertyOp44
 70
     1
102
RTVSPropertyOp45
 70
     1
102
RTVSPropertyOp46
 70
     1
102
RTVSPropertyOp47
 70
     1
102
RTVSPropertyOp48
 70
     1
102
RTVSPropertyOp49
 70
     1
102
RTVSPropertyOp50
 70
     1
102
RTVSPropertyOp51
 70
     0
102
RTVSPropertyOp52
 70
     0
102
RTVSPropertyOp53
 70
     1
102
RTVSPropertyOp54
 70
     1
102
RTVSPropertyOp55
 70
     1
102
RTVSPropertyOp56
 70
     1
102
RTVSPropertyOp57
 70
     1
102
RTVSPropertyOp58
 70
     1
102
RTVSPropertyOp59
 70
     1
102
RTVSPropertyOp60
 70
     1
102
RTVSPropertyOp61
 70
     1
102
RTVSPropertyOp62
 70
     1
  0
XRECORD
  5
9CD3
102
{ACAD_REACTORS
330
9CD2
102
}
330
9CD2
100
AcDbXrecord
280
     1
102
RTVSPost2010Prop28
280
     0
102
RTVSPost2010PropOp28
 70
     1
102
RTVSPost2010Prop29
280
     1
102
RTVSPost2010PropOp29
 70
     1
102
RTVSPost2010Prop30
280
     1
102
RTVSPost2010PropOp30
 70
     1
102
RTVSPost2010Prop31
280
     0
102
RTVSPost2010PropOp31
 70
     1
102
RTVSPost2010Prop32
280
     0
102
RTVSPost2010PropOp32
 70
     1
102
RTVSPost2010Prop33
280
     0
102
RTVSPost2010PropOp33
 70
     1
102
RTVSPost2010Prop34
280
     0
102
RTVSPost2010PropOp34
 70
     1
102
RTVSPost2010Prop35
280
     0
102
RTVSPost2010PropOp35
 70
     1
102
RTVSPost2010Prop36
280
     0
102
RTVSPost2010PropOp36
 70
     1
102
RTVSPost2010Prop37
 90
       50
102
RTVSPost2010PropOp37
 70
     1
102
RTVSPost2010Prop38
140
0.0
102
RTVSPost2010PropOp38
 70
     1
102
RTVSPost2010Prop39
140
1.0
102
RTVSPost2010PropOp39
 70
     1
102
RTVSPost2010Prop40
 90
        0
102
RTVSPost2010PropOp40
 70
     1
102
RTVSPost2010Prop41ColorIndex
 90
       18
102
RTVSPost2010Prop41ColorRGB
 90
        0
102
RTVSPost2010PropOp41
 70
     1
102
RTVSPost2010Prop42
 90
       50
102
RTVSPost2010PropOp42
 70
     1
102
RTVSPost2010Prop43
 90
        3
102
RTVSPost2010PropOp43
 70
     1
102
RTVSPost2010Prop44ColorIndex
 90
        5
102
RTVSPost2010Prop44ColorRGB
 90
      255
102
RTVSPost2010PropOp44
 70
     1
102
RTVSPost2010Prop45
280
     0
102
RTVSPost2010PropOp45
 70
     1
102
RTVSPost2010Prop46
 90
       50
102
RTVSPost2010PropOp46
 70
     1
102
RTVSPost2010Prop47
 90
       50
102
RTVSPost2010PropOp47
 70
     1
102
RTVSPost2010Prop48
 90
       50
102
RTVSPost2010PropOp48
 70
     1
102
RTVSPost2010Prop49
280
     0
102
RTVSPost2010PropOp49
 70
     1
102
RTVSPost2010Prop50
 90
       50
102
RTVSPost2010PropOp50
 70
     1
102
RTVSPost2010Prop51ColorIndex
 90
      256
102
RTVSPost2010Prop51ColorRGB
 90
-16777216
102
RTVSPost2010PropOp51
 70
     0
102
RTVSPost2010Prop52
140
1.0
102
RTVSPost2010PropOp52
 70
     0
102
RTVSPost2010Prop53
 90
        2
102
RTVSPost2010PropOp53
 70
     1
102
RTVSPost2010Prop54
  1
strokes_ogs.tif
102
RTVSPost2010PropOp54
 70
     1
102
RTVSPost2010Prop55
280
     0
102
RTVSPost2010PropOp55
 70
     1
102
RTVSPost2010Prop56
140
1.0
102
RTVSPost2010PropOp56
 70
     1
102
RTVSPost2010Prop57
140
1.0
102
RTVSPost2010PropOp57
 70
     1
102
RTVSPropertyOp0
 70
     1
102
RTVSPropertyOp1
 70
     1
102
RTVSPropertyOp2
 70
     1
102
RTVSPropertyOp3
 70
     1
102
RTVSPropertyOp4
 70
     1
102
RTVSPropertyOp5
 70
     1
102
RTVSPropertyOp6
 70
     1
102
RTVSPropertyOp7
 70
     1
102
RTVSPropertyOp8
 70
     1
102
RTVSPropertyOp9
 70
     1
102
RTVSPropertyOp10
 70
     1
102
RTVSPropertyOp11
 70
     1
102
RTVSPropertyOp12
 70
     1
102
RTVSPropertyOp13
 70
     1
102
RTVSPropertyOp14
 70
     1
102
RTVSPropertyOp15
 70
     1
102
RTVSPropertyOp16
 70
     1
102
RTVSPropertyOp17
 70
     1
102
RTVSPropertyOp18
 70
     1
102
RTVSPropertyOp19
 70
     1
102
RTVSPropertyOp20
 70
     1
102
RTVSPropertyOp21
 70
     1
102
RTVSPropertyOp22
 70
     1
102
RTVSPropertyOp23
 70
     1
102
RTVSPropertyOp24
 70
     1
102
RTVSPropertyOp25
 70
     1
102
RTVSPropertyOp26
 70
     1
102
RTVSPropertyOp27
 70
     1
102
RTVSPropertyOp28
 70
     1
102
RTVSPropertyOp29
 70
     1
102
RTVSPropertyOp30
 70
     1
102
RTVSPropertyOp31
 70
     1
102
RTVSPropertyOp32
 70
     1
102
RTVSPropertyOp33
 70
     1
102
RTVSPropertyOp34
 70
     1
102
RTVSPropertyOp35
 70
     1
102
RTVSPropertyOp36
 70
     1
102
RTVSPropertyOp37
 70
     1
102
RTVSPropertyOp38
 70
     1
102
RTVSPropertyOp39
 70
     1
102
RTVSPropertyOp40
 70
     1
102
RTVSPropertyOp41
 70
     1
102
RTVSPropertyOp42
 70
     1
102
RTVSPropertyOp43
 70
     1
102
RTVSPropertyOp44
 70
     1
102
RTVSPropertyOp45
 70
     1
102
RTVSPropertyOp46
 70
     1
102
RTVSPropertyOp47
 70
     1
102
RTVSPropertyOp48
 70
     1
102
RTVSPropertyOp49
 70
     1
102
RTVSPropertyOp50
 70
     1
102
RTVSPropertyOp51
 70
     0
102
RTVSPropertyOp52
 70
     0
102
RTVSPropertyOp53
 70
     1
102
RTVSPropertyOp54
 70
     1
102
RTVSPropertyOp55
 70
     1
102
RTVSPropertyOp56
 70
     1
102
RTVSPropertyOp57
 70
     1
102
RTVSPropertyOp58
 70
     1
102
RTVSPropertyOp59
 70
     1
102
RTVSPropertyOp60
 70
     1
102
RTVSPropertyOp61
 70
     1
102
RTVSPropertyOp62
 70
     1
  0
XRECORD
  5
9CDB
102
{ACAD_REACTORS
330
9CDA
102
}
330
9CDA
100
AcDbXrecord
280
     1
102
RTVSPost2010Prop28
280
     0
102
RTVSPost2010PropOp28
 70
     1
102
RTVSPost2010Prop29
280
     1
102
RTVSPost2010PropOp29
 70
     1
102
RTVSPost2010Prop30
280
     1
102
RTVSPost2010PropOp30
 70
     1
102
RTVSPost2010Prop31
280
     0
102
RTVSPost2010PropOp31
 70
     1
102
RTVSPost2010Prop32
280
     0
102
RTVSPost2010PropOp32
 70
     1
102
RTVSPost2010Prop33
280
     0
102
RTVSPost2010PropOp33
 70
     1
102
RTVSPost2010Prop34
280
     0
102
RTVSPost2010PropOp34
 70
     1
102
RTVSPost2010Prop35
280
     0
102
RTVSPost2010PropOp35
 70
     1
102
RTVSPost2010Prop36
280
     0
102
RTVSPost2010PropOp36
 70
     1
102
RTVSPost2010Prop37
 90
       50
102
RTVSPost2010PropOp37
 70
     1
102
RTVSPost2010Prop38
140
0.0
102
RTVSPost2010PropOp38
 70
     1
102
RTVSPost2010Prop39
140
1.0
102
RTVSPost2010PropOp39
 70
     1
102
RTVSPost2010Prop40
 90
        0
102
RTVSPost2010PropOp40
 70
     1
102
RTVSPost2010Prop41ColorIndex
 90
       18
102
RTVSPost2010Prop41ColorRGB
 90
        0
102
RTVSPost2010PropOp41
 70
     1
102
RTVSPost2010Prop42
 90
       50
102
RTVSPost2010PropOp42
 70
     1
102
RTVSPost2010Prop43
 90
        3
102
RTVSPost2010PropOp43
 70
     1
102
RTVSPost2010Prop44ColorIndex
 90
        5
102
RTVSPost2010Prop44ColorRGB
 90
      255
102
RTVSPost2010PropOp44
 70
     1
102
RTVSPost2010Prop45
280
     0
102
RTVSPost2010PropOp45
 70
     1
102
RTVSPost2010Prop46
 90
       50
102
RTVSPost2010PropOp46
 70
     1
102
RTVSPost2010Prop47
 90
       50
102
RTVSPost2010PropOp47
 70
     1
102
RTVSPost2010Prop48
 90
       50
102
RTVSPost2010PropOp48
 70
     1
102
RTVSPost2010Prop49
280
     0
102
RTVSPost2010PropOp49
 70
     1
102
RTVSPost2010Prop50
 90
       50
102
RTVSPost2010PropOp50
 70
     1
102
RTVSPost2010Prop51ColorIndex
 90
      256
102
RTVSPost2010Prop51ColorRGB
 90
-16777216
102
RTVSPost2010PropOp51
 70
     0
102
RTVSPost2010Prop52
140
1.0
102
RTVSPost2010PropOp52
 70
     0
102
RTVSPost2010Prop53
 90
        2
102
RTVSPost2010PropOp53
 70
     1
102
RTVSPost2010Prop54
  1
strokes_ogs.tif
102
RTVSPost2010PropOp54
 70
     1
102
RTVSPost2010Prop55
280
     0
102
RTVSPost2010PropOp55
 70
     1
102
RTVSPost2010Prop56
140
1.0
102
RTVSPost2010PropOp56
 70
     1
102
RTVSPost2010Prop57
140
1.0
102
RTVSPost2010PropOp57
 70
     1
102
RTVSPropertyOp0
 70
     1
102
RTVSPropertyOp1
 70
     1
102
RTVSPropertyOp2
 70
     1
102
RTVSPropertyOp3
 70
     1
102
RTVSPropertyOp4
 70
     1
102
RTVSPropertyOp5
 70
     1
102
RTVSPropertyOp6
 70
     1
102
RTVSPropertyOp7
 70
     1
102
RTVSPropertyOp8
 70
     1
102
RTVSPropertyOp9
 70
     1
102
RTVSPropertyOp10
 70
     1
102
RTVSPropertyOp11
 70
     1
102
RTVSPropertyOp12
 70
     1
102
RTVSPropertyOp13
 70
     1
102
RTVSPropertyOp14
 70
     1
102
RTVSPropertyOp15
 70
     1
102
RTVSPropertyOp16
 70
     1
102
RTVSPropertyOp17
 70
     1
102
RTVSPropertyOp18
 70
     1
102
RTVSPropertyOp19
 70
     1
102
RTVSPropertyOp20
 70
     1
102
RTVSPropertyOp21
 70
     1
102
RTVSPropertyOp22
 70
     1
102
RTVSPropertyOp23
 70
     1
102
RTVSPropertyOp24
 70
     1
102
RTVSPropertyOp25
 70
     1
102
RTVSPropertyOp26
 70
     1
102
RTVSPropertyOp27
 70
     1
102
RTVSPropertyOp28
 70
     1
102
RTVSPropertyOp29
 70
     1
102
RTVSPropertyOp30
 70
     1
102
RTVSPropertyOp31
 70
     1
102
RTVSPropertyOp32
 70
     1
102
RTVSPropertyOp33
 70
     1
102
RTVSPropertyOp34
 70
     1
102
RTVSPropertyOp35
 70
     1
102
RTVSPropertyOp36
 70
     1
102
RTVSPropertyOp37
 70
     1
102
RTVSPropertyOp38
 70
     1
102
RTVSPropertyOp39
 70
     1
102
RTVSPropertyOp40
 70
     1
102
RTVSPropertyOp41
 70
     1
102
RTVSPropertyOp42
 70
     1
102
RTVSPropertyOp43
 70
     1
102
RTVSPropertyOp44
 70
     1
102
RTVSPropertyOp45
 70
     1
102
RTVSPropertyOp46
 70
     1
102
RTVSPropertyOp47
 70
     1
102
RTVSPropertyOp48
 70
     1
102
RTVSPropertyOp49
 70
     1
102
RTVSPropertyOp50
 70
     1
102
RTVSPropertyOp51
 70
     0
102
RTVSPropertyOp52
 70
     0
102
RTVSPropertyOp53
 70
     1
102
RTVSPropertyOp54
 70
     1
102
RTVSPropertyOp55
 70
     1
102
RTVSPropertyOp56
 70
     1
102
RTVSPropertyOp57
 70
     1
102
RTVSPropertyOp58
 70
     1
102
RTVSPropertyOp59
 70
     1
102
RTVSPropertyOp60
 70
     1
102
RTVSPropertyOp61
 70
     1
102
RTVSPropertyOp62
 70
     1
  0
XRECORD
  5
9CCD
102
{ACAD_REACTORS
330
9CCC
102
}
330
9CCC
100
AcDbXrecord
280
     1
102
RTVSPost2010Prop28
280
     0
102
RTVSPost2010PropOp28
 70
     1
102
RTVSPost2010Prop29
280
     1
102
RTVSPost2010PropOp29
 70
     1
102
RTVSPost2010Prop30
280
     1
102
RTVSPost2010PropOp30
 70
     1
102
RTVSPost2010Prop31
280
     0
102
RTVSPost2010PropOp31
 70
     1
102
RTVSPost2010Prop32
280
     0
102
RTVSPost2010PropOp32
 70
     1
102
RTVSPost2010Prop33
280
     0
102
RTVSPost2010PropOp33
 70
     1
102
RTVSPost2010Prop34
280
     0
102
RTVSPost2010PropOp34
 70
     1
102
RTVSPost2010Prop35
280
     0
102
RTVSPost2010PropOp35
 70
     1
102
RTVSPost2010Prop36
280
     0
102
RTVSPost2010PropOp36
 70
     1
102
RTVSPost2010Prop37
 90
       50
102
RTVSPost2010PropOp37
 70
     1
102
RTVSPost2010Prop38
140
0.0
102
RTVSPost2010PropOp38
 70
     1
102
RTVSPost2010Prop39
140
1.0
102
RTVSPost2010PropOp39
 70
     1
102
RTVSPost2010Prop40
 90
        0
102
RTVSPost2010PropOp40
 70
     1
102
RTVSPost2010Prop41ColorIndex
 90
       18
102
RTVSPost2010Prop41ColorRGB
 90
        0
102
RTVSPost2010PropOp41
 70
     1
102
RTVSPost2010Prop42
 90
       50
102
RTVSPost2010PropOp42
 70
     1
102
RTVSPost2010Prop43
 90
        3
102
RTVSPost2010PropOp43
 70
     1
102
RTVSPost2010Prop44ColorIndex
 90
        5
102
RTVSPost2010Prop44ColorRGB
 90
      255
102
RTVSPost2010PropOp44
 70
     1
102
RTVSPost2010Prop45
280
     0
102
RTVSPost2010PropOp45
 70
     1
102
RTVSPost2010Prop46
 90
       50
102
RTVSPost2010PropOp46
 70
     1
102
RTVSPost2010Prop47
 90
       50
102
RTVSPost2010PropOp47
 70
     1
102
RTVSPost2010Prop48
 90
       50
102
RTVSPost2010PropOp48
 70
     1
102
RTVSPost2010Prop49
280
     0
102
RTVSPost2010PropOp49
 70
     1
102
RTVSPost2010Prop50
 90
       50
102
RTVSPost2010PropOp50
 70
     1
102
RTVSPost2010Prop51ColorIndex
 90
      256
102
RTVSPost2010Prop51ColorRGB
 90
-16777216
102
RTVSPost2010PropOp51
 70
     0
102
RTVSPost2010Prop52
140
1.0
102
RTVSPost2010PropOp52
 70
     0
102
RTVSPost2010Prop53
 90
        2
102
RTVSPost2010PropOp53
 70
     1
102
RTVSPost2010Prop54
  1
strokes_ogs.tif
102
RTVSPost2010PropOp54
 70
     1
102
RTVSPost2010Prop55
280
     0
102
RTVSPost2010PropOp55
 70
     1
102
RTVSPost2010Prop56
140
1.0
102
RTVSPost2010PropOp56
 70
     1
102
RTVSPost2010Prop57
140
1.0
102
RTVSPost2010PropOp57
 70
     1
102
RTVSPropertyOp0
 70
     1
102
RTVSPropertyOp1
 70
     1
102
RTVSPropertyOp2
 70
     1
102
RTVSPropertyOp3
 70
     1
102
RTVSPropertyOp4
 70
     1
102
RTVSPropertyOp5
 70
     1
102
RTVSPropertyOp6
 70
     1
102
RTVSPropertyOp7
 70
     1
102
RTVSPropertyOp8
 70
     1
102
RTVSPropertyOp9
 70
     1
102
RTVSPropertyOp10
 70
     1
102
RTVSPropertyOp11
 70
     1
102
RTVSPropertyOp12
 70
     1
102
RTVSPropertyOp13
 70
     1
102
RTVSPropertyOp14
 70
     1
102
RTVSPropertyOp15
 70
     1
102
RTVSPropertyOp16
 70
     1
102
RTVSPropertyOp17
 70
     1
102
RTVSPropertyOp18
 70
     1
102
RTVSPropertyOp19
 70
     1
102
RTVSPropertyOp20
 70
     1
102
RTVSPropertyOp21
 70
     1
102
RTVSPropertyOp22
 70
     1
102
RTVSPropertyOp23
 70
     1
102
RTVSPropertyOp24
 70
     1
102
RTVSPropertyOp25
 70
     1
102
RTVSPropertyOp26
 70
     1
102
RTVSPropertyOp27
 70
     1
102
RTVSPropertyOp28
 70
     1
102
RTVSPropertyOp29
 70
     1
102
RTVSPropertyOp30
 70
     1
102
RTVSPropertyOp31
 70
     1
102
RTVSPropertyOp32
 70
     1
102
RTVSPropertyOp33
 70
     1
102
RTVSPropertyOp34
 70
     1
102
RTVSPropertyOp35
 70
     1
102
RTVSPropertyOp36
 70
     1
102
RTVSPropertyOp37
 70
     1
102
RTVSPropertyOp38
 70
     1
102
RTVSPropertyOp39
 70
     1
102
RTVSPropertyOp40
 70
     1
102
RTVSPropertyOp41
 70
     1
102
RTVSPropertyOp42
 70
     1
102
RTVSPropertyOp43
 70
     1
102
RTVSPropertyOp44
 70
     1
102
RTVSPropertyOp45
 70
     1
102
RTVSPropertyOp46
 70
     1
102
RTVSPropertyOp47
 70
     1
102
RTVSPropertyOp48
 70
     1
102
RTVSPropertyOp49
 70
     1
102
RTVSPropertyOp50
 70
     1
102
RTVSPropertyOp51
 70
     0
102
RTVSPropertyOp52
 70
     0
102
RTVSPropertyOp53
 70
     1
102
RTVSPropertyOp54
 70
     1
102
RTVSPropertyOp55
 70
     1
102
RTVSPropertyOp56
 70
     1
102
RTVSPropertyOp57
 70
     1
102
RTVSPropertyOp58
 70
     1
102
RTVSPropertyOp59
 70
     1
102
RTVSPropertyOp60
 70
     1
102
RTVSPropertyOp61
 70
     1
102
RTVSPropertyOp62
 70
     1
  0
XRECORD
  5
9CD1
102
{ACAD_REACTORS
330
9CD0
102
}
330
9CD0
100
AcDbXrecord
280
     1
102
RTVSPost2010Prop28
280
     0
102
RTVSPost2010PropOp28
 70
     1
102
RTVSPost2010Prop29
280
     1
102
RTVSPost2010PropOp29
 70
     1
102
RTVSPost2010Prop30
280
     1
102
RTVSPost2010PropOp30
 70
     1
102
RTVSPost2010Prop31
280
     0
102
RTVSPost2010PropOp31
 70
     1
102
RTVSPost2010Prop32
280
     0
102
RTVSPost2010PropOp32
 70
     1
102
RTVSPost2010Prop33
280
     0
102
RTVSPost2010PropOp33
 70
     1
102
RTVSPost2010Prop34
280
     0
102
RTVSPost2010PropOp34
 70
     1
102
RTVSPost2010Prop35
280
     0
102
RTVSPost2010PropOp35
 70
     1
102
RTVSPost2010Prop36
280
     0
102
RTVSPost2010PropOp36
 70
     1
102
RTVSPost2010Prop37
 90
       50
102
RTVSPost2010PropOp37
 70
     1
102
RTVSPost2010Prop38
140
0.0
102
RTVSPost2010PropOp38
 70
     1
102
RTVSPost2010Prop39
140
1.0
102
RTVSPost2010PropOp39
 70
     1
102
RTVSPost2010Prop40
 90
        0
102
RTVSPost2010PropOp40
 70
     1
102
RTVSPost2010Prop41ColorIndex
 90
       18
102
RTVSPost2010Prop41ColorRGB
 90
        0
102
RTVSPost2010PropOp41
 70
     1
102
RTVSPost2010Prop42
 90
       50
102
RTVSPost2010PropOp42
 70
     1
102
RTVSPost2010Prop43
 90
        3
102
RTVSPost2010PropOp43
 70
     1
102
RTVSPost2010Prop44ColorIndex
 90
        5
102
RTVSPost2010Prop44ColorRGB
 90
      255
102
RTVSPost2010PropOp44
 70
     1
102
RTVSPost2010Prop45
280
     0
102
RTVSPost2010PropOp45
 70
     1
102
RTVSPost2010Prop46
 90
       50
102
RTVSPost2010PropOp46
 70
     1
102
RTVSPost2010Prop47
 90
       50
102
RTVSPost2010PropOp47
 70
     1
102
RTVSPost2010Prop48
 90
       50
102
RTVSPost2010PropOp48
 70
     1
102
RTVSPost2010Prop49
280
     0
102
RTVSPost2010PropOp49
 70
     1
102
RTVSPost2010Prop50
 90
       50
102
RTVSPost2010PropOp50
 70
     1
102
RTVSPost2010Prop51ColorIndex
 90
      256
102
RTVSPost2010Prop51ColorRGB
 90
-16777216
102
RTVSPost2010PropOp51
 70
     0
102
RTVSPost2010Prop52
140
1.0
102
RTVSPost2010PropOp52
 70
     0
102
RTVSPost2010Prop53
 90
        2
102
RTVSPost2010PropOp53
 70
     1
102
RTVSPost2010Prop54
  1
strokes_ogs.tif
102
RTVSPost2010PropOp54
 70
     1
102
RTVSPost2010Prop55
280
     0
102
RTVSPost2010PropOp55
 70
     1
102
RTVSPost2010Prop56
140
1.0
102
RTVSPost2010PropOp56
 70
     1
102
RTVSPost2010Prop57
140
1.0
102
RTVSPost2010PropOp57
 70
     1
102
RTVSPropertyOp0
 70
     1
102
RTVSPropertyOp1
 70
     1
102
RTVSPropertyOp2
 70
     1
102
RTVSPropertyOp3
 70
     1
102
RTVSPropertyOp4
 70
     1
102
RTVSPropertyOp5
 70
     1
102
RTVSPropertyOp6
 70
     1
102
RTVSPropertyOp7
 70
     1
102
RTVSPropertyOp8
 70
     1
102
RTVSPropertyOp9
 70
     1
102
RTVSPropertyOp10
 70
     1
102
RTVSPropertyOp11
 70
     1
102
RTVSPropertyOp12
 70
     1
102
RTVSPropertyOp13
 70
     1
102
RTVSPropertyOp14
 70
     1
102
RTVSPropertyOp15
 70
     1
102
RTVSPropertyOp16
 70
     1
102
RTVSPropertyOp17
 70
     1
102
RTVSPropertyOp18
 70
     1
102
RTVSPropertyOp19
 70
     1
102
RTVSPropertyOp20
 70
     1
102
RTVSPropertyOp21
 70
     1
102
RTVSPropertyOp22
 70
     1
102
RTVSPropertyOp23
 70
     1
102
RTVSPropertyOp24
 70
     1
102
RTVSPropertyOp25
 70
     1
102
RTVSPropertyOp26
 70
     1
102
RTVSPropertyOp27
 70
     1
102
RTVSPropertyOp28
 70
     1
102
RTVSPropertyOp29
 70
     1
102
RTVSPropertyOp30
 70
     1
102
RTVSPropertyOp31
 70
     1
102
RTVSPropertyOp32
 70
     1
102
RTVSPropertyOp33
 70
     1
102
RTVSPropertyOp34
 70
     1
102
RTVSPropertyOp35
 70
     1
102
RTVSPropertyOp36
 70
     1
102
RTVSPropertyOp37
 70
     1
102
RTVSPropertyOp38
 70
     1
102
RTVSPropertyOp39
 70
     1
102
RTVSPropertyOp40
 70
     1
102
RTVSPropertyOp41
 70
     1
102
RTVSPropertyOp42
 70
     1
102
RTVSPropertyOp43
 70
     1
102
RTVSPropertyOp44
 70
     1
102
RTVSPropertyOp45
 70
     1
102
RTVSPropertyOp46
 70
     1
102
RTVSPropertyOp47
 70
     1
102
RTVSPropertyOp48
 70
     1
102
RTVSPropertyOp49
 70
     1
102
RTVSPropertyOp50
 70
     1
102
RTVSPropertyOp51
 70
     0
102
RTVSPropertyOp52
 70
     0
102
RTVSPropertyOp53
 70
     1
102
RTVSPropertyOp54
 70
     1
102
RTVSPropertyOp55
 70
     1
102
RTVSPropertyOp56
 70
     1
102
RTVSPropertyOp57
 70
     1
102
RTVSPropertyOp58
 70
     1
102
RTVSPropertyOp59
 70
     1
102
RTVSPropertyOp60
 70
     1
102
RTVSPropertyOp61
 70
     1
102
RTVSPropertyOp62
 70
     1
  0
XRECORD
  5
9CEB
102
{ACAD_REACTORS
330
9CEA
102
}
330
9CEA
100
AcDbXrecord
280
     1
102
RTVSPost2010Prop28
280
     0
102
RTVSPost2010PropOp28
 70
     1
102
RTVSPost2010Prop29
280
     1
102
RTVSPost2010PropOp29
 70
     1
102
RTVSPost2010Prop30
280
     1
102
RTVSPost2010PropOp30
 70
     1
102
RTVSPost2010Prop31
280
     0
102
RTVSPost2010PropOp31
 70
     1
102
RTVSPost2010Prop32
280
     0
102
RTVSPost2010PropOp32
 70
     1
102
RTVSPost2010Prop33
280
     0
102
RTVSPost2010PropOp33
 70
     1
102
RTVSPost2010Prop34
280
     0
102
RTVSPost2010PropOp34
 70
     1
102
RTVSPost2010Prop35
280
     0
102
RTVSPost2010PropOp35
 70
     1
102
RTVSPost2010Prop36
280
     0
102
RTVSPost2010PropOp36
 70
     1
102
RTVSPost2010Prop37
 90
       50
102
RTVSPost2010PropOp37
 70
     0
102
RTVSPost2010Prop38
140
0.0
102
RTVSPost2010PropOp38
 70
     0
102
RTVSPost2010Prop39
140
1.0
102
RTVSPost2010PropOp39
 70
     0
102
RTVSPost2010Prop40
 90
        0
102
RTVSPost2010PropOp40
 70
     0
102
RTVSPost2010Prop41ColorIndex
 90
       18
102
RTVSPost2010Prop41ColorRGB
 90
        0
102
RTVSPost2010PropOp41
 70
     0
102
RTVSPost2010Prop42
 90
       50
102
RTVSPost2010PropOp42
 70
     0
102
RTVSPost2010Prop43
 90
        3
102
RTVSPost2010PropOp43
 70
     0
102
RTVSPost2010Prop44ColorIndex
 90
        5
102
RTVSPost2010Prop44ColorRGB
 90
      255
102
RTVSPost2010PropOp44
 70
     0
102
RTVSPost2010Prop45
280
     0
102
RTVSPost2010PropOp45
 70
     1
102
RTVSPost2010Prop46
 90
       50
102
RTVSPost2010PropOp46
 70
     0
102
RTVSPost2010Prop47
 90
       50
102
RTVSPost2010PropOp47
 70
     0
102
RTVSPost2010Prop48
 90
       50
102
RTVSPost2010PropOp48
 70
     0
102
RTVSPost2010Prop49
280
     0
102
RTVSPost2010PropOp49
 70
     1
102
RTVSPost2010Prop50
 90
       50
102
RTVSPost2010PropOp50
 70
     0
102
RTVSPost2010Prop51ColorIndex
 90
      256
102
RTVSPost2010Prop51ColorRGB
 90
-16777216
102
RTVSPost2010PropOp51
 70
     0
102
RTVSPost2010Prop52
140
1.0
102
RTVSPost2010PropOp52
 70
     0
102
RTVSPost2010Prop53
 90
        2
102
RTVSPost2010PropOp53
 70
     0
102
RTVSPost2010Prop54
  1
strokes_ogs.tif
102
RTVSPost2010PropOp54
 70
     0
102
RTVSPost2010Prop55
280
     0
102
RTVSPost2010PropOp55
 70
     1
102
RTVSPost2010Prop56
140
1.0
102
RTVSPost2010PropOp56
 70
     0
102
RTVSPost2010Prop57
140
1.0
102
RTVSPost2010PropOp57
 70
     0
102
RTVSPropertyOp0
 70
     0
102
RTVSPropertyOp1
 70
     0
102
RTVSPropertyOp2
 70
     0
102
RTVSPropertyOp3
 70
     0
102
RTVSPropertyOp4
 70
     0
102
RTVSPropertyOp5
 70
     0
102
RTVSPropertyOp6
 70
     0
102
RTVSPropertyOp7
 70
     0
102
RTVSPropertyOp8
 70
     0
102
RTVSPropertyOp9
 70
     0
102
RTVSPropertyOp10
 70
     0
102
RTVSPropertyOp11
 70
     0
102
RTVSPropertyOp12
 70
     0
102
RTVSPropertyOp13
 70
     0
102
RTVSPropertyOp14
 70
     2
102
RTVSPropertyOp15
 70
     0
102
RTVSPropertyOp16
 70
     0
102
RTVSPropertyOp17
 70
     0
102
RTVSPropertyOp18
 70
     0
102
RTVSPropertyOp19
 70
     0
102
RTVSPropertyOp20
 70
     0
102
RTVSPropertyOp21
 70
     0
102
RTVSPropertyOp22
 70
     0
102
RTVSPropertyOp23
 70
     0
102
RTVSPropertyOp24
 70
     0
102
RTVSPropertyOp25
 70
     0
102
RTVSPropertyOp26
 70
     0
102
RTVSPropertyOp27
 70
     0
102
RTVSPropertyOp28
 70
     1
102
RTVSPropertyOp29
 70
     1
102
RTVSPropertyOp30
 70
     1
102
RTVSPropertyOp31
 70
     1
102
RTVSPropertyOp32
 70
     1
102
RTVSPropertyOp33
 70
     1
102
RTVSPropertyOp34
 70
     1
102
RTVSPropertyOp35
 70
     1
102
RTVSPropertyOp36
 70
     1
102
RTVSPropertyOp37
 70
     0
102
RTVSPropertyOp38
 70
     0
102
RTVSPropertyOp39
 70
     0
102
RTVSPropertyOp40
 70
     0
102
RTVSPropertyOp41
 70
     0
102
RTVSPropertyOp42
 70
     0
102
RTVSPropertyOp43
 70
     0
102
RTVSPropertyOp44
 70
     0
102
RTVSPropertyOp45
 70
     1
102
RTVSPropertyOp46
 70
     0
102
RTVSPropertyOp47
 70
     0
102
RTVSPropertyOp48
 70
     0
102
RTVSPropertyOp49
 70
     1
102
RTVSPropertyOp50
 70
     0
102
RTVSPropertyOp51
 70
     0
102
RTVSPropertyOp52
 70
     0
102
RTVSPropertyOp53
 70
     0
102
RTVSPropertyOp54
 70
     0
102
RTVSPropertyOp55
 70
     1
102
RTVSPropertyOp56
 70
     0
102
RTVSPropertyOp57
 70
     0
102
RTVSPropertyOp58
 70
     0
102
RTVSPropertyOp59
 70
     0
102
RTVSPropertyOp60
 70
     0
102
RTVSPropertyOp61
 70
     0
102
RTVSPropertyOp62
 70
     0
  0
XRECORD
  5
9CD9
102
{ACAD_REACTORS
330
9CD8
102
}
330
9CD8
100
AcDbXrecord
280
     1
102
RTVSPost2010Prop28
280
     0
102
RTVSPost2010PropOp28
 70
     1
102
RTVSPost2010Prop29
280
     1
102
RTVSPost2010PropOp29
 70
     1
102
RTVSPost2010Prop30
280
     1
102
RTVSPost2010PropOp30
 70
     1
102
RTVSPost2010Prop31
280
     0
102
RTVSPost2010PropOp31
 70
     1
102
RTVSPost2010Prop32
280
     0
102
RTVSPost2010PropOp32
 70
     1
102
RTVSPost2010Prop33
280
     0
102
RTVSPost2010PropOp33
 70
     1
102
RTVSPost2010Prop34
280
     0
102
RTVSPost2010PropOp34
 70
     1
102
RTVSPost2010Prop35
280
     0
102
RTVSPost2010PropOp35
 70
     1
102
RTVSPost2010Prop36
280
     0
102
RTVSPost2010PropOp36
 70
     1
102
RTVSPost2010Prop37
 90
       50
102
RTVSPost2010PropOp37
 70
     1
102
RTVSPost2010Prop38
140
0.0
102
RTVSPost2010PropOp38
 70
     1
102
RTVSPost2010Prop39
140
1.0
102
RTVSPost2010PropOp39
 70
     1
102
RTVSPost2010Prop40
 90
        0
102
RTVSPost2010PropOp40
 70
     1
102
RTVSPost2010Prop41ColorIndex
 90
       18
102
RTVSPost2010Prop41ColorRGB
 90
        0
102
RTVSPost2010PropOp41
 70
     1
102
RTVSPost2010Prop42
 90
       50
102
RTVSPost2010PropOp42
 70
     1
102
RTVSPost2010Prop43
 90
        3
102
RTVSPost2010PropOp43
 70
     1
102
RTVSPost2010Prop44ColorIndex
 90
        5
102
RTVSPost2010Prop44ColorRGB
 90
      255
102
RTVSPost2010PropOp44
 70
     1
102
RTVSPost2010Prop45
280
     0
102
RTVSPost2010PropOp45
 70
     1
102
RTVSPost2010Prop46
 90
       50
102
RTVSPost2010PropOp46
 70
     1
102
RTVSPost2010Prop47
 90
       50
102
RTVSPost2010PropOp47
 70
     1
102
RTVSPost2010Prop48
 90
       50
102
RTVSPost2010PropOp48
 70
     1
102
RTVSPost2010Prop49
280
     0
102
RTVSPost2010PropOp49
 70
     1
102
RTVSPost2010Prop50
 90
       50
102
RTVSPost2010PropOp50
 70
     1
102
RTVSPost2010Prop51ColorIndex
 90
      256
102
RTVSPost2010Prop51ColorRGB
 90
-16777216
102
RTVSPost2010PropOp51
 70
     0
102
RTVSPost2010Prop52
140
1.0
102
RTVSPost2010PropOp52
 70
     0
102
RTVSPost2010Prop53
 90
        2
102
RTVSPost2010PropOp53
 70
     1
102
RTVSPost2010Prop54
  1
strokes_ogs.tif
102
RTVSPost2010PropOp54
 70
     1
102
RTVSPost2010Prop55
280
     0
102
RTVSPost2010PropOp55
 70
     1
102
RTVSPost2010Prop56
140
1.0
102
RTVSPost2010PropOp56
 70
     1
102
RTVSPost2010Prop57
140
1.0
102
RTVSPost2010PropOp57
 70
     1
102
RTVSPropertyOp0
 70
     1
102
RTVSPropertyOp1
 70
     1
102
RTVSPropertyOp2
 70
     1
102
RTVSPropertyOp3
 70
     1
102
RTVSPropertyOp4
 70
     1
102
RTVSPropertyOp5
 70
     1
102
RTVSPropertyOp6
 70
     1
102
RTVSPropertyOp7
 70
     1
102
RTVSPropertyOp8
 70
     1
102
RTVSPropertyOp9
 70
     1
102
RTVSPropertyOp10
 70
     1
102
RTVSPropertyOp11
 70
     1
102
RTVSPropertyOp12
 70
     1
102
RTVSPropertyOp13
 70
     1
102
RTVSPropertyOp14
 70
     1
102
RTVSPropertyOp15
 70
     1
102
RTVSPropertyOp16
 70
     1
102
RTVSPropertyOp17
 70
     1
102
RTVSPropertyOp18
 70
     1
102
RTVSPropertyOp19
 70
     1
102
RTVSPropertyOp20
 70
     1
102
RTVSPropertyOp21
 70
     1
102
RTVSPropertyOp22
 70
     1
102
RTVSPropertyOp23
 70
     1
102
RTVSPropertyOp24
 70
     1
102
RTVSPropertyOp25
 70
     1
102
RTVSPropertyOp26
 70
     1
102
RTVSPropertyOp27
 70
     1
102
RTVSPropertyOp28
 70
     1
102
RTVSPropertyOp29
 70
     1
102
RTVSPropertyOp30
 70
     1
102
RTVSPropertyOp31
 70
     1
102
RTVSPropertyOp32
 70
     1
102
RTVSPropertyOp33
 70
     1
102
RTVSPropertyOp34
 70
     1
102
RTVSPropertyOp35
 70
     1
102
RTVSPropertyOp36
 70
     1
102
RTVSPropertyOp37
 70
     1
102
RTVSPropertyOp38
 70
     1
102
RTVSPropertyOp39
 70
     1
102
RTVSPropertyOp40
 70
     1
102
RTVSPropertyOp41
 70
     1
102
RTVSPropertyOp42
 70
     1
102
RTVSPropertyOp43
 70
     1
102
RTVSPropertyOp44
 70
     1
102
RTVSPropertyOp45
 70
     1
102
RTVSPropertyOp46
 70
     1
102
RTVSPropertyOp47
 70
     1
102
RTVSPropertyOp48
 70
     1
102
RTVSPropertyOp49
 70
     1
102
RTVSPropertyOp50
 70
     1
102
RTVSPropertyOp51
 70
     0
102
RTVSPropertyOp52
 70
     0
102
RTVSPropertyOp53
 70
     1
102
RTVSPropertyOp54
 70
     1
102
RTVSPropertyOp55
 70
     1
102
RTVSPropertyOp56
 70
     1
102
RTVSPropertyOp57
 70
     1
102
RTVSPropertyOp58
 70
     1
102
RTVSPropertyOp59
 70
     1
102
RTVSPropertyOp60
 70
     1
102
RTVSPropertyOp61
 70
     1
102
RTVSPropertyOp62
 70
     1
  0
XRECORD
  5
9CBD
102
{ACAD_REACTORS
330
9CBC
102
}
330
9CBC
100
AcDbXrecord
280
     1
102
RTVSPost2010Prop28
280
     0
102
RTVSPost2010PropOp28
 70
     1
102
RTVSPost2010Prop29
280
     1
102
RTVSPost2010PropOp29
 70
     1
102
RTVSPost2010Prop30
280
     1
102
RTVSPost2010PropOp30
 70
     1
102
RTVSPost2010Prop31
280
     0
102
RTVSPost2010PropOp31
 70
     1
102
RTVSPost2010Prop32
280
     0
102
RTVSPost2010PropOp32
 70
     1
102
RTVSPost2010Prop33
280
     0
102
RTVSPost2010PropOp33
 70
     1
102
RTVSPost2010Prop34
280
     0
102
RTVSPost2010PropOp34
 70
     1
102
RTVSPost2010Prop35
280
     0
102
RTVSPost2010PropOp35
 70
     1
102
RTVSPost2010Prop36
280
     0
102
RTVSPost2010PropOp36
 70
     1
102
RTVSPost2010Prop37
 90
       50
102
RTVSPost2010PropOp37
 70
     1
102
RTVSPost2010Prop38
140
0.0
102
RTVSPost2010PropOp38
 70
     1
102
RTVSPost2010Prop39
140
1.0
102
RTVSPost2010PropOp39
 70
     1
102
RTVSPost2010Prop40
 90
        0
102
RTVSPost2010PropOp40
 70
     1
102
RTVSPost2010Prop41ColorIndex
 90
       18
102
RTVSPost2010Prop41ColorRGB
 90
        0
102
RTVSPost2010PropOp41
 70
     1
102
RTVSPost2010Prop42
 90
       50
102
RTVSPost2010PropOp42
 70
     1
102
RTVSPost2010Prop43
 90
        3
102
RTVSPost2010PropOp43
 70
     1
102
RTVSPost2010Prop44ColorIndex
 90
        5
102
RTVSPost2010Prop44ColorRGB
 90
      255
102
RTVSPost2010PropOp44
 70
     1
102
RTVSPost2010Prop45
280
     0
102
RTVSPost2010PropOp45
 70
     1
102
RTVSPost2010Prop46
 90
       50
102
RTVSPost2010PropOp46
 70
     1
102
RTVSPost2010Prop47
 90
       50
102
RTVSPost2010PropOp47
 70
     1
102
RTVSPost2010Prop48
 90
       50
102
RTVSPost2010PropOp48
 70
     1
102
RTVSPost2010Prop49
280
     0
102
RTVSPost2010PropOp49
 70
     1
102
RTVSPost2010Prop50
 90
       50
102
RTVSPost2010PropOp50
 70
     1
102
RTVSPost2010Prop51ColorIndex
 90
      256
102
RTVSPost2010Prop51ColorRGB
 90
-16777216
102
RTVSPost2010PropOp51
 70
     0
102
RTVSPost2010Prop52
140
1.0
102
RTVSPost2010PropOp52
 70
     0
102
RTVSPost2010Prop53
 90
        2
102
RTVSPost2010PropOp53
 70
     1
102
RTVSPost2010Prop54
  1
strokes_ogs.tif
102
RTVSPost2010PropOp54
 70
     1
102
RTVSPost2010Prop55
280
     0
102
RTVSPost2010PropOp55
 70
     1
102
RTVSPost2010Prop56
140
1.0
102
RTVSPost2010PropOp56
 70
     1
102
RTVSPost2010Prop57
140
1.0
102
RTVSPost2010PropOp57
 70
     1
102
RTVSPropertyOp0
 70
     1
102
RTVSPropertyOp1
 70
     1
102
RTVSPropertyOp2
 70
     1
102
RTVSPropertyOp3
 70
     1
102
RTVSPropertyOp4
 70
     1
102
RTVSPropertyOp5
 70
     1
102
RTVSPropertyOp6
 70
     1
102
RTVSPropertyOp7
 70
     1
102
RTVSPropertyOp8
 70
     1
102
RTVSPropertyOp9
 70
     1
102
RTVSPropertyOp10
 70
     1
102
RTVSPropertyOp11
 70
     1
102
RTVSPropertyOp12
 70
     1
102
RTVSPropertyOp13
 70
     1
102
RTVSPropertyOp14
 70
     1
102
RTVSPropertyOp15
 70
     1
102
RTVSPropertyOp16
 70
     1
102
RTVSPropertyOp17
 70
     1
102
RTVSPropertyOp18
 70
     1
102
RTVSPropertyOp19
 70
     1
102
RTVSPropertyOp20
 70
     1
102
RTVSPropertyOp21
 70
     1
102
RTVSPropertyOp22
 70
     1
102
RTVSPropertyOp23
 70
     1
102
RTVSPropertyOp24
 70
     1
102
RTVSPropertyOp25
 70
     1
102
RTVSPropertyOp26
 70
     1
102
RTVSPropertyOp27
 70
     1
102
RTVSPropertyOp28
 70
     1
102
RTVSPropertyOp29
 70
     1
102
RTVSPropertyOp30
 70
     1
102
RTVSPropertyOp31
 70
     1
102
RTVSPropertyOp32
 70
     1
102
RTVSPropertyOp33
 70
     1
102
RTVSPropertyOp34
 70
     1
102
RTVSPropertyOp35
 70
     1
102
RTVSPropertyOp36
 70
     1
102
RTVSPropertyOp37
 70
     1
102
RTVSPropertyOp38
 70
     1
102
RTVSPropertyOp39
 70
     1
102
RTVSPropertyOp40
 70
     1
102
RTVSPropertyOp41
 70
     1
102
RTVSPropertyOp42
 70
     1
102
RTVSPropertyOp43
 70
     1
102
RTVSPropertyOp44
 70
     1
102
RTVSPropertyOp45
 70
     1
102
RTVSPropertyOp46
 70
     1
102
RTVSPropertyOp47
 70
     1
102
RTVSPropertyOp48
 70
     1
102
RTVSPropertyOp49
 70
     1
102
RTVSPropertyOp50
 70
     1
102
RTVSPropertyOp51
 70
     0
102
RTVSPropertyOp52
 70
     0
102
RTVSPropertyOp53
 70
     1
102
RTVSPropertyOp54
 70
     1
102
RTVSPropertyOp55
 70
     1
102
RTVSPropertyOp56
 70
     1
102
RTVSPropertyOp57
 70
     1
102
RTVSPropertyOp58
 70
     1
102
RTVSPropertyOp59
 70
     1
102
RTVSPropertyOp60
 70
     1
102
RTVSPropertyOp61
 70
     1
102
RTVSPropertyOp62
 70
     1
  0
XRECORD
  5
9CBF
102
{ACAD_REACTORS
330
9CBE
102
}
330
9CBE
100
AcDbXrecord
280
     1
102
RTVSPost2010Prop28
280
     0
102
RTVSPost2010PropOp28
 70
     1
102
RTVSPost2010Prop29
280
     1
102
RTVSPost2010PropOp29
 70
     1
102
RTVSPost2010Prop30
280
     1
102
RTVSPost2010PropOp30
 70
     1
102
RTVSPost2010Prop31
280
     0
102
RTVSPost2010PropOp31
 70
     1
102
RTVSPost2010Prop32
280
     0
102
RTVSPost2010PropOp32
 70
     1
102
RTVSPost2010Prop33
280
     0
102
RTVSPost2010PropOp33
 70
     1
102
RTVSPost2010Prop34
280
     0
102
RTVSPost2010PropOp34
 70
     1
102
RTVSPost2010Prop35
280
     0
102
RTVSPost2010PropOp35
 70
     1
102
RTVSPost2010Prop36
280
     0
102
RTVSPost2010PropOp36
 70
     1
102
RTVSPost2010Prop37
 90
       50
102
RTVSPost2010PropOp37
 70
     1
102
RTVSPost2010Prop38
140
0.0
102
RTVSPost2010PropOp38
 70
     1
102
RTVSPost2010Prop39
140
1.0
102
RTVSPost2010PropOp39
 70
     1
102
RTVSPost2010Prop40
 90
        0
102
RTVSPost2010PropOp40
 70
     1
102
RTVSPost2010Prop41ColorIndex
 90
       18
102
RTVSPost2010Prop41ColorRGB
 90
        0
102
RTVSPost2010PropOp41
 70
     1
102
RTVSPost2010Prop42
 90
       50
102
RTVSPost2010PropOp42
 70
     1
102
RTVSPost2010Prop43
 90
        3
102
RTVSPost2010PropOp43
 70
     1
102
RTVSPost2010Prop44ColorIndex
 90
        5
102
RTVSPost2010Prop44ColorRGB
 90
      255
102
RTVSPost2010PropOp44
 70
     1
102
RTVSPost2010Prop45
280
     0
102
RTVSPost2010PropOp45
 70
     1
102
RTVSPost2010Prop46
 90
       50
102
RTVSPost2010PropOp46
 70
     1
102
RTVSPost2010Prop47
 90
       50
102
RTVSPost2010PropOp47
 70
     1
102
RTVSPost2010Prop48
 90
       50
102
RTVSPost2010PropOp48
 70
     1
102
RTVSPost2010Prop49
280
     0
102
RTVSPost2010PropOp49
 70
     1
102
RTVSPost2010Prop50
 90
       50
102
RTVSPost2010PropOp50
 70
     1
102
RTVSPost2010Prop51ColorIndex
 90
      256
102
RTVSPost2010Prop51ColorRGB
 90
-16777216
102
RTVSPost2010PropOp51
 70
     0
102
RTVSPost2010Prop52
140
1.0
102
RTVSPost2010PropOp52
 70
     0
102
RTVSPost2010Prop53
 90
        2
102
RTVSPost2010PropOp53
 70
     1
102
RTVSPost2010Prop54
  1
strokes_ogs.tif
102
RTVSPost2010PropOp54
 70
     1
102
RTVSPost2010Prop55
280
     0
102
RTVSPost2010PropOp55
 70
     1
102
RTVSPost2010Prop56
140
1.0
102
RTVSPost2010PropOp56
 70
     1
102
RTVSPost2010Prop57
140
1.0
102
RTVSPost2010PropOp57
 70
     1
102
RTVSPropertyOp0
 70
     1
102
RTVSPropertyOp1
 70
     1
102
RTVSPropertyOp2
 70
     1
102
RTVSPropertyOp3
 70
     1
102
RTVSPropertyOp4
 70
     1
102
RTVSPropertyOp5
 70
     1
102
RTVSPropertyOp6
 70
     1
102
RTVSPropertyOp7
 70
     1
102
RTVSPropertyOp8
 70
     1
102
RTVSPropertyOp9
 70
     1
102
RTVSPropertyOp10
 70
     1
102
RTVSPropertyOp11
 70
     1
102
RTVSPropertyOp12
 70
     1
102
RTVSPropertyOp13
 70
     1
102
RTVSPropertyOp14
 70
     1
102
RTVSPropertyOp15
 70
     1
102
RTVSPropertyOp16
 70
     1
102
RTVSPropertyOp17
 70
     1
102
RTVSPropertyOp18
 70
     1
102
RTVSPropertyOp19
 70
     1
102
RTVSPropertyOp20
 70
     1
102
RTVSPropertyOp21
 70
     1
102
RTVSPropertyOp22
 70
     1
102
RTVSPropertyOp23
 70
     1
102
RTVSPropertyOp24
 70
     1
102
RTVSPropertyOp25
 70
     1
102
RTVSPropertyOp26
 70
     1
102
RTVSPropertyOp27
 70
     1
102
RTVSPropertyOp28
 70
     1
102
RTVSPropertyOp29
 70
     1
102
RTVSPropertyOp30
 70
     1
102
RTVSPropertyOp31
 70
     1
102
RTVSPropertyOp32
 70
     1
102
RTVSPropertyOp33
 70
     1
102
RTVSPropertyOp34
 70
     1
102
RTVSPropertyOp35
 70
     1
102
RTVSPropertyOp36
 70
     1
102
RTVSPropertyOp37
 70
     1
102
RTVSPropertyOp38
 70
     1
102
RTVSPropertyOp39
 70
     1
102
RTVSPropertyOp40
 70
     1
102
RTVSPropertyOp41
 70
     1
102
RTVSPropertyOp42
 70
     1
102
RTVSPropertyOp43
 70
     1
102
RTVSPropertyOp44
 70
     1
102
RTVSPropertyOp45
 70
     1
102
RTVSPropertyOp46
 70
     1
102
RTVSPropertyOp47
 70
     1
102
RTVSPropertyOp48
 70
     1
102
RTVSPropertyOp49
 70
     1
102
RTVSPropertyOp50
 70
     1
102
RTVSPropertyOp51
 70
     0
102
RTVSPropertyOp52
 70
     0
102
RTVSPropertyOp53
 70
     1
102
RTVSPropertyOp54
 70
     1
102
RTVSPropertyOp55
 70
     1
102
RTVSPropertyOp56
 70
     1
102
RTVSPropertyOp57
 70
     1
102
RTVSPropertyOp58
 70
     1
102
RTVSPropertyOp59
 70
     1
102
RTVSPropertyOp60
 70
     1
102
RTVSPropertyOp61
 70
     1
102
RTVSPropertyOp62
 70
     1
  0
XRECORD
  5
9CC1
102
{ACAD_REACTORS
330
9CC0
102
}
330
9CC0
100
AcDbXrecord
280
     1
102
RTVSPost2010Prop28
280
     0
102
RTVSPost2010PropOp28
 70
     1
102
RTVSPost2010Prop29
280
     1
102
RTVSPost2010PropOp29
 70
     1
102
RTVSPost2010Prop30
280
     1
102
RTVSPost2010PropOp30
 70
     1
102
RTVSPost2010Prop31
280
     0
102
RTVSPost2010PropOp31
 70
     1
102
RTVSPost2010Prop32
280
     0
102
RTVSPost2010PropOp32
 70
     1
102
RTVSPost2010Prop33
280
     0
102
RTVSPost2010PropOp33
 70
     1
102
RTVSPost2010Prop34
280
     0
102
RTVSPost2010PropOp34
 70
     1
102
RTVSPost2010Prop35
280
     0
102
RTVSPost2010PropOp35
 70
     1
102
RTVSPost2010Prop36
280
     0
102
RTVSPost2010PropOp36
 70
     1
102
RTVSPost2010Prop37
 90
       50
102
RTVSPost2010PropOp37
 70
     1
102
RTVSPost2010Prop38
140
0.0
102
RTVSPost2010PropOp38
 70
     1
102
RTVSPost2010Prop39
140
1.0
102
RTVSPost2010PropOp39
 70
     1
102
RTVSPost2010Prop40
 90
        0
102
RTVSPost2010PropOp40
 70
     1
102
RTVSPost2010Prop41ColorIndex
 90
       18
102
RTVSPost2010Prop41ColorRGB
 90
        0
102
RTVSPost2010PropOp41
 70
     1
102
RTVSPost2010Prop42
 90
       50
102
RTVSPost2010PropOp42
 70
     1
102
RTVSPost2010Prop43
 90
        3
102
RTVSPost2010PropOp43
 70
     1
102
RTVSPost2010Prop44ColorIndex
 90
        5
102
RTVSPost2010Prop44ColorRGB
 90
      255
102
RTVSPost2010PropOp44
 70
     1
102
RTVSPost2010Prop45
280
     0
102
RTVSPost2010PropOp45
 70
     1
102
RTVSPost2010Prop46
 90
       50
102
RTVSPost2010PropOp46
 70
     1
102
RTVSPost2010Prop47
 90
       50
102
RTVSPost2010PropOp47
 70
     1
102
RTVSPost2010Prop48
 90
       50
102
RTVSPost2010PropOp48
 70
     1
102
RTVSPost2010Prop49
280
     0
102
RTVSPost2010PropOp49
 70
     1
102
RTVSPost2010Prop50
 90
       50
102
RTVSPost2010PropOp50
 70
     1
102
RTVSPost2010Prop51ColorIndex
 90
      256
102
RTVSPost2010Prop51ColorRGB
 90
-16777216
102
RTVSPost2010PropOp51
 70
     0
102
RTVSPost2010Prop52
140
1.0
102
RTVSPost2010PropOp52
 70
     0
102
RTVSPost2010Prop53
 90
        2
102
RTVSPost2010PropOp53
 70
     1
102
RTVSPost2010Prop54
  1
strokes_ogs.tif
102
RTVSPost2010PropOp54
 70
     1
102
RTVSPost2010Prop55
280
     0
102
RTVSPost2010PropOp55
 70
     1
102
RTVSPost2010Prop56
140
1.0
102
RTVSPost2010PropOp56
 70
     1
102
RTVSPost2010Prop57
140
1.0
102
RTVSPost2010PropOp57
 70
     1
102
RTVSPropertyOp0
 70
     1
102
RTVSPropertyOp1
 70
     1
102
RTVSPropertyOp2
 70
     1
102
RTVSPropertyOp3
 70
     1
102
RTVSPropertyOp4
 70
     1
102
RTVSPropertyOp5
 70
     1
102
RTVSPropertyOp6
 70
     1
102
RTVSPropertyOp7
 70
     1
102
RTVSPropertyOp8
 70
     1
102
RTVSPropertyOp9
 70
     1
102
RTVSPropertyOp10
 70
     1
102
RTVSPropertyOp11
 70
     1
102
RTVSPropertyOp12
 70
     1
102
RTVSPropertyOp13
 70
     1
102
RTVSPropertyOp14
 70
     1
102
RTVSPropertyOp15
 70
     1
102
RTVSPropertyOp16
 70
     1
102
RTVSPropertyOp17
 70
     1
102
RTVSPropertyOp18
 70
     1
102
RTVSPropertyOp19
 70
     1
102
RTVSPropertyOp20
 70
     1
102
RTVSPropertyOp21
 70
     1
102
RTVSPropertyOp22
 70
     1
102
RTVSPropertyOp23
 70
     1
102
RTVSPropertyOp24
 70
     1
102
RTVSPropertyOp25
 70
     1
102
RTVSPropertyOp26
 70
     1
102
RTVSPropertyOp27
 70
     1
102
RTVSPropertyOp28
 70
     1
102
RTVSPropertyOp29
 70
     1
102
RTVSPropertyOp30
 70
     1
102
RTVSPropertyOp31
 70
     1
102
RTVSPropertyOp32
 70
     1
102
RTVSPropertyOp33
 70
     1
102
RTVSPropertyOp34
 70
     1
102
RTVSPropertyOp35
 70
     1
102
RTVSPropertyOp36
 70
     1
102
RTVSPropertyOp37
 70
     1
102
RTVSPropertyOp38
 70
     1
102
RTVSPropertyOp39
 70
     1
102
RTVSPropertyOp40
 70
     1
102
RTVSPropertyOp41
 70
     1
102
RTVSPropertyOp42
 70
     1
102
RTVSPropertyOp43
 70
     1
102
RTVSPropertyOp44
 70
     1
102
RTVSPropertyOp45
 70
     1
102
RTVSPropertyOp46
 70
     1
102
RTVSPropertyOp47
 70
     1
102
RTVSPropertyOp48
 70
     1
102
RTVSPropertyOp49
 70
     1
102
RTVSPropertyOp50
 70
     1
102
RTVSPropertyOp51
 70
     0
102
RTVSPropertyOp52
 70
     0
102
RTVSPropertyOp53
 70
     1
102
RTVSPropertyOp54
 70
     1
102
RTVSPropertyOp55
 70
     1
102
RTVSPropertyOp56
 70
     1
102
RTVSPropertyOp57
 70
     1
102
RTVSPropertyOp58
 70
     1
102
RTVSPropertyOp59
 70
     1
102
RTVSPropertyOp60
 70
     1
102
RTVSPropertyOp61
 70
     1
102
RTVSPropertyOp62
 70
     1
  0
XRECORD
  5
9CC3
102
{ACAD_REACTORS
330
9CC2
102
}
330
9CC2
100
AcDbXrecord
280
     1
102
RTVSPost2010Prop28
280
     0
102
RTVSPost2010PropOp28
 70
     1
102
RTVSPost2010Prop29
280
     1
102
RTVSPost2010PropOp29
 70
     1
102
RTVSPost2010Prop30
280
     1
102
RTVSPost2010PropOp30
 70
     1
102
RTVSPost2010Prop31
280
     0
102
RTVSPost2010PropOp31
 70
     1
102
RTVSPost2010Prop32
280
     0
102
RTVSPost2010PropOp32
 70
     1
102
RTVSPost2010Prop33
280
     0
102
RTVSPost2010PropOp33
 70
     1
102
RTVSPost2010Prop34
280
     0
102
RTVSPost2010PropOp34
 70
     1
102
RTVSPost2010Prop35
280
     0
102
RTVSPost2010PropOp35
 70
     1
102
RTVSPost2010Prop36
280
     0
102
RTVSPost2010PropOp36
 70
     1
102
RTVSPost2010Prop37
 90
       50
102
RTVSPost2010PropOp37
 70
     1
102
RTVSPost2010Prop38
140
0.0
102
RTVSPost2010PropOp38
 70
     1
102
RTVSPost2010Prop39
140
1.0
102
RTVSPost2010PropOp39
 70
     1
102
RTVSPost2010Prop40
 90
        0
102
RTVSPost2010PropOp40
 70
     1
102
RTVSPost2010Prop41ColorIndex
 90
       18
102
RTVSPost2010Prop41ColorRGB
 90
        0
102
RTVSPost2010PropOp41
 70
     1
102
RTVSPost2010Prop42
 90
       50
102
RTVSPost2010PropOp42
 70
     1
102
RTVSPost2010Prop43
 90
        3
102
RTVSPost2010PropOp43
 70
     1
102
RTVSPost2010Prop44ColorIndex
 90
        5
102
RTVSPost2010Prop44ColorRGB
 90
      255
102
RTVSPost2010PropOp44
 70
     1
102
RTVSPost2010Prop45
280
     0
102
RTVSPost2010PropOp45
 70
     1
102
RTVSPost2010Prop46
 90
       50
102
RTVSPost2010PropOp46
 70
     1
102
RTVSPost2010Prop47
 90
       50
102
RTVSPost2010PropOp47
 70
     1
102
RTVSPost2010Prop48
 90
       50
102
RTVSPost2010PropOp48
 70
     1
102
RTVSPost2010Prop49
280
     0
102
RTVSPost2010PropOp49
 70
     1
102
RTVSPost2010Prop50
 90
       50
102
RTVSPost2010PropOp50
 70
     1
102
RTVSPost2010Prop51ColorIndex
 90
      256
102
RTVSPost2010Prop51ColorRGB
 90
-16777216
102
RTVSPost2010PropOp51
 70
     0
102
RTVSPost2010Prop52
140
1.0
102
RTVSPost2010PropOp52
 70
     0
102
RTVSPost2010Prop53
 90
        2
102
RTVSPost2010PropOp53
 70
     1
102
RTVSPost2010Prop54
  1
strokes_ogs.tif
102
RTVSPost2010PropOp54
 70
     1
102
RTVSPost2010Prop55
280
     0
102
RTVSPost2010PropOp55
 70
     1
102
RTVSPost2010Prop56
140
1.0
102
RTVSPost2010PropOp56
 70
     1
102
RTVSPost2010Prop57
140
1.0
102
RTVSPost2010PropOp57
 70
     1
102
RTVSPropertyOp0
 70
     1
102
RTVSPropertyOp1
 70
     1
102
RTVSPropertyOp2
 70
     1
102
RTVSPropertyOp3
 70
     1
102
RTVSPropertyOp4
 70
     1
102
RTVSPropertyOp5
 70
     1
102
RTVSPropertyOp6
 70
     1
102
RTVSPropertyOp7
 70
     1
102
RTVSPropertyOp8
 70
     1
102
RTVSPropertyOp9
 70
     1
102
RTVSPropertyOp10
 70
     1
102
RTVSPropertyOp11
 70
     1
102
RTVSPropertyOp12
 70
     1
102
RTVSPropertyOp13
 70
     1
102
RTVSPropertyOp14
 70
     1
102
RTVSPropertyOp15
 70
     1
102
RTVSPropertyOp16
 70
     1
102
RTVSPropertyOp17
 70
     1
102
RTVSPropertyOp18
 70
     1
102
RTVSPropertyOp19
 70
     1
102
RTVSPropertyOp20
 70
     1
102
RTVSPropertyOp21
 70
     1
102
RTVSPropertyOp22
 70
     1
102
RTVSPropertyOp23
 70
     1
102
RTVSPropertyOp24
 70
     1
102
RTVSPropertyOp25
 70
     1
102
RTVSPropertyOp26
 70
     1
102
RTVSPropertyOp27
 70
     1
102
RTVSPropertyOp28
 70
     1
102
RTVSPropertyOp29
 70
     1
102
RTVSPropertyOp30
 70
     1
102
RTVSPropertyOp31
 70
     1
102
RTVSPropertyOp32
 70
     1
102
RTVSPropertyOp33
 70
     1
102
RTVSPropertyOp34
 70
     1
102
RTVSPropertyOp35
 70
     1
102
RTVSPropertyOp36
 70
     1
102
RTVSPropertyOp37
 70
     1
102
RTVSPropertyOp38
 70
     1
102
RTVSPropertyOp39
 70
     1
102
RTVSPropertyOp40
 70
     1
102
RTVSPropertyOp41
 70
     1
102
RTVSPropertyOp42
 70
     1
102
RTVSPropertyOp43
 70
     1
102
RTVSPropertyOp44
 70
     1
102
RTVSPropertyOp45
 70
     1
102
RTVSPropertyOp46
 70
     1
102
RTVSPropertyOp47
 70
     1
102
RTVSPropertyOp48
 70
     1
102
RTVSPropertyOp49
 70
     1
102
RTVSPropertyOp50
 70
     1
102
RTVSPropertyOp51
 70
     0
102
RTVSPropertyOp52
 70
     0
102
RTVSPropertyOp53
 70
     1
102
RTVSPropertyOp54
 70
     1
102
RTVSPropertyOp55
 70
     1
102
RTVSPropertyOp56
 70
     1
102
RTVSPropertyOp57
 70
     1
102
RTVSPropertyOp58
 70
     1
102
RTVSPropertyOp59
 70
     1
102
RTVSPropertyOp60
 70
     1
102
RTVSPropertyOp61
 70
     1
102
RTVSPropertyOp62
 70
     1
  0
XRECORD
  5
9CCB
102
{ACAD_REACTORS
330
9CCA
102
}
330
9CCA
100
AcDbXrecord
280
     1
102
RTVSPost2010Prop28
280
     0
102
RTVSPost2010PropOp28
 70
     1
102
RTVSPost2010Prop29
280
     1
102
RTVSPost2010PropOp29
 70
     1
102
RTVSPost2010Prop30
280
     1
102
RTVSPost2010PropOp30
 70
     1
102
RTVSPost2010Prop31
280
     0
102
RTVSPost2010PropOp31
 70
     1
102
RTVSPost2010Prop32
280
     0
102
RTVSPost2010PropOp32
 70
     1
102
RTVSPost2010Prop33
280
     0
102
RTVSPost2010PropOp33
 70
     1
102
RTVSPost2010Prop34
280
     0
102
RTVSPost2010PropOp34
 70
     1
102
RTVSPost2010Prop35
280
     0
102
RTVSPost2010PropOp35
 70
     1
102
RTVSPost2010Prop36
280
     0
102
RTVSPost2010PropOp36
 70
     1
102
RTVSPost2010Prop37
 90
       50
102
RTVSPost2010PropOp37
 70
     1
102
RTVSPost2010Prop38
140
0.0
102
RTVSPost2010PropOp38
 70
     1
102
RTVSPost2010Prop39
140
1.0
102
RTVSPost2010PropOp39
 70
     1
102
RTVSPost2010Prop40
 90
        0
102
RTVSPost2010PropOp40
 70
     1
102
RTVSPost2010Prop41ColorIndex
 90
       18
102
RTVSPost2010Prop41ColorRGB
 90
        0
102
RTVSPost2010PropOp41
 70
     1
102
RTVSPost2010Prop42
 90
       50
102
RTVSPost2010PropOp42
 70
     1
102
RTVSPost2010Prop43
 90
        3
102
RTVSPost2010PropOp43
 70
     1
102
RTVSPost2010Prop44ColorIndex
 90
        5
102
RTVSPost2010Prop44ColorRGB
 90
      255
102
RTVSPost2010PropOp44
 70
     1
102
RTVSPost2010Prop45
280
     0
102
RTVSPost2010PropOp45
 70
     1
102
RTVSPost2010Prop46
 90
       50
102
RTVSPost2010PropOp46
 70
     1
102
RTVSPost2010Prop47
 90
       50
102
RTVSPost2010PropOp47
 70
     1
102
RTVSPost2010Prop48
 90
       50
102
RTVSPost2010PropOp48
 70
     1
102
RTVSPost2010Prop49
280
     0
102
RTVSPost2010PropOp49
 70
     1
102
RTVSPost2010Prop50
 90
       50
102
RTVSPost2010PropOp50
 70
     1
102
RTVSPost2010Prop51ColorIndex
 90
      256
102
RTVSPost2010Prop51ColorRGB
 90
-16777216
102
RTVSPost2010PropOp51
 70
     0
102
RTVSPost2010Prop52
140
1.0
102
RTVSPost2010PropOp52
 70
     0
102
RTVSPost2010Prop53
 90
        2
102
RTVSPost2010PropOp53
 70
     1
102
RTVSPost2010Prop54
  1
strokes_ogs.tif
102
RTVSPost2010PropOp54
 70
     1
102
RTVSPost2010Prop55
280
     0
102
RTVSPost2010PropOp55
 70
     1
102
RTVSPost2010Prop56
140
1.0
102
RTVSPost2010PropOp56
 70
     1
102
RTVSPost2010Prop57
140
1.0
102
RTVSPost2010PropOp57
 70
     1
102
RTVSPropertyOp0
 70
     1
102
RTVSPropertyOp1
 70
     1
102
RTVSPropertyOp2
 70
     1
102
RTVSPropertyOp3
 70
     1
102
RTVSPropertyOp4
 70
     1
102
RTVSPropertyOp5
 70
     1
102
RTVSPropertyOp6
 70
     1
102
RTVSPropertyOp7
 70
     1
102
RTVSPropertyOp8
 70
     1
102
RTVSPropertyOp9
 70
     1
102
RTVSPropertyOp10
 70
     1
102
RTVSPropertyOp11
 70
     1
102
RTVSPropertyOp12
 70
     1
102
RTVSPropertyOp13
 70
     1
102
RTVSPropertyOp14
 70
     1
102
RTVSPropertyOp15
 70
     1
102
RTVSPropertyOp16
 70
     1
102
RTVSPropertyOp17
 70
     1
102
RTVSPropertyOp18
 70
     1
102
RTVSPropertyOp19
 70
     1
102
RTVSPropertyOp20
 70
     1
102
RTVSPropertyOp21
 70
     1
102
RTVSPropertyOp22
 70
     1
102
RTVSPropertyOp23
 70
     1
102
RTVSPropertyOp24
 70
     1
102
RTVSPropertyOp25
 70
     1
102
RTVSPropertyOp26
 70
     1
102
RTVSPropertyOp27
 70
     1
102
RTVSPropertyOp28
 70
     1
102
RTVSPropertyOp29
 70
     1
102
RTVSPropertyOp30
 70
     1
102
RTVSPropertyOp31
 70
     1
102
RTVSPropertyOp32
 70
     1
102
RTVSPropertyOp33
 70
     1
102
RTVSPropertyOp34
 70
     1
102
RTVSPropertyOp35
 70
     1
102
RTVSPropertyOp36
 70
     1
102
RTVSPropertyOp37
 70
     1
102
RTVSPropertyOp38
 70
     1
102
RTVSPropertyOp39
 70
     1
102
RTVSPropertyOp40
 70
     1
102
RTVSPropertyOp41
 70
     1
102
RTVSPropertyOp42
 70
     1
102
RTVSPropertyOp43
 70
     1
102
RTVSPropertyOp44
 70
     1
102
RTVSPropertyOp45
 70
     1
102
RTVSPropertyOp46
 70
     1
102
RTVSPropertyOp47
 70
     1
102
RTVSPropertyOp48
 70
     1
102
RTVSPropertyOp49
 70
     1
102
RTVSPropertyOp50
 70
     1
102
RTVSPropertyOp51
 70
     0
102
RTVSPropertyOp52
 70
     0
102
RTVSPropertyOp53
 70
     1
102
RTVSPropertyOp54
 70
     1
102
RTVSPropertyOp55
 70
     1
102
RTVSPropertyOp56
 70
     1
102
RTVSPropertyOp57
 70
     1
102
RTVSPropertyOp58
 70
     1
102
RTVSPropertyOp59
 70
     1
102
RTVSPropertyOp60
 70
     1
102
RTVSPropertyOp61
 70
     1
102
RTVSPropertyOp62
 70
     1
  0
XRECORD
  5
9CE7
102
{ACAD_REACTORS
330
9CE6
102
}
330
9CE6
100
AcDbXrecord
280
     1
102
RTVSPost2010Prop28
280
     0
102
RTVSPost2010PropOp28
 70
     1
102
RTVSPost2010Prop29
280
     1
102
RTVSPost2010PropOp29
 70
     1
102
RTVSPost2010Prop30
280
     1
102
RTVSPost2010PropOp30
 70
     1
102
RTVSPost2010Prop31
280
     0
102
RTVSPost2010PropOp31
 70
     1
102
RTVSPost2010Prop32
280
     0
102
RTVSPost2010PropOp32
 70
     1
102
RTVSPost2010Prop33
280
     0
102
RTVSPost2010PropOp33
 70
     1
102
RTVSPost2010Prop34
280
     0
102
RTVSPost2010PropOp34
 70
     1
102
RTVSPost2010Prop35
280
     0
102
RTVSPost2010PropOp35
 70
     1
102
RTVSPost2010Prop36
280
     0
102
RTVSPost2010PropOp36
 70
     1
102
RTVSPost2010Prop37
 90
       50
102
RTVSPost2010PropOp37
 70
     0
102
RTVSPost2010Prop38
140
0.0
102
RTVSPost2010PropOp38
 70
     0
102
RTVSPost2010Prop39
140
1.0
102
RTVSPost2010PropOp39
 70
     0
102
RTVSPost2010Prop40
 90
        0
102
RTVSPost2010PropOp40
 70
     0
102
RTVSPost2010Prop41ColorIndex
 90
       18
102
RTVSPost2010Prop41ColorRGB
 90
        0
102
RTVSPost2010PropOp41
 70
     0
102
RTVSPost2010Prop42
 90
       50
102
RTVSPost2010PropOp42
 70
     0
102
RTVSPost2010Prop43
 90
        3
102
RTVSPost2010PropOp43
 70
     0
102
RTVSPost2010Prop44ColorIndex
 90
        5
102
RTVSPost2010Prop44ColorRGB
 90
      255
102
RTVSPost2010PropOp44
 70
     0
102
RTVSPost2010Prop45
280
     0
102
RTVSPost2010PropOp45
 70
     1
102
RTVSPost2010Prop46
 90
       50
102
RTVSPost2010PropOp46
 70
     0
102
RTVSPost2010Prop47
 90
       50
102
RTVSPost2010PropOp47
 70
     0
102
RTVSPost2010Prop48
 90
       50
102
RTVSPost2010PropOp48
 70
     0
102
RTVSPost2010Prop49
280
     0
102
RTVSPost2010PropOp49
 70
     1
102
RTVSPost2010Prop50
 90
       50
102
RTVSPost2010PropOp50
 70
     0
102
RTVSPost2010Prop51ColorIndex
 90
      256
102
RTVSPost2010Prop51ColorRGB
 90
-16777216
102
RTVSPost2010PropOp51
 70
     0
102
RTVSPost2010Prop52
140
1.0
102
RTVSPost2010PropOp52
 70
     0
102
RTVSPost2010Prop53
 90
        2
102
RTVSPost2010PropOp53
 70
     0
102
RTVSPost2010Prop54
  1
strokes_ogs.tif
102
RTVSPost2010PropOp54
 70
     0
102
RTVSPost2010Prop55
280
     0
102
RTVSPost2010PropOp55
 70
     1
102
RTVSPost2010Prop56
140
1.0
102
RTVSPost2010PropOp56
 70
     0
102
RTVSPost2010Prop57
140
1.0
102
RTVSPost2010PropOp57
 70
     0
102
RTVSPropertyOp0
 70
     0
102
RTVSPropertyOp1
 70
     0
102
RTVSPropertyOp2
 70
     0
102
RTVSPropertyOp3
 70
     0
102
RTVSPropertyOp4
 70
     0
102
RTVSPropertyOp5
 70
     0
102
RTVSPropertyOp6
 70
     0
102
RTVSPropertyOp7
 70
     0
102
RTVSPropertyOp8
 70
     0
102
RTVSPropertyOp9
 70
     0
102
RTVSPropertyOp10
 70
     0
102
RTVSPropertyOp11
 70
     0
102
RTVSPropertyOp12
 70
     0
102
RTVSPropertyOp13
 70
     0
102
RTVSPropertyOp14
 70
     2
102
RTVSPropertyOp15
 70
     0
102
RTVSPropertyOp16
 70
     0
102
RTVSPropertyOp17
 70
     0
102
RTVSPropertyOp18
 70
     0
102
RTVSPropertyOp19
 70
     0
102
RTVSPropertyOp20
 70
     0
102
RTVSPropertyOp21
 70
     0
102
RTVSPropertyOp22
 70
     0
102
RTVSPropertyOp23
 70
     0
102
RTVSPropertyOp24
 70
     0
102
RTVSPropertyOp25
 70
     0
102
RTVSPropertyOp26
 70
     0
102
RTVSPropertyOp27
 70
     0
102
RTVSPropertyOp28
 70
     1
102
RTVSPropertyOp29
 70
     1
102
RTVSPropertyOp30
 70
     1
102
RTVSPropertyOp31
 70
     1
102
RTVSPropertyOp32
 70
     1
102
RTVSPropertyOp33
 70
     1
102
RTVSPropertyOp34
 70
     1
102
RTVSPropertyOp35
 70
     1
102
RTVSPropertyOp36
 70
     1
102
RTVSPropertyOp37
 70
     0
102
RTVSPropertyOp38
 70
     0
102
RTVSPropertyOp39
 70
     0
102
RTVSPropertyOp40
 70
     0
102
RTVSPropertyOp41
 70
     0
102
RTVSPropertyOp42
 70
     0
102
RTVSPropertyOp43
 70
     0
102
RTVSPropertyOp44
 70
     0
102
RTVSPropertyOp45
 70
     1
102
RTVSPropertyOp46
 70
     0
102
RTVSPropertyOp47
 70
     0
102
RTVSPropertyOp48
 70
     0
102
RTVSPropertyOp49
 70
     1
102
RTVSPropertyOp50
 70
     0
102
RTVSPropertyOp51
 70
     0
102
RTVSPropertyOp52
 70
     0
102
RTVSPropertyOp53
 70
     0
102
RTVSPropertyOp54
 70
     0
102
RTVSPropertyOp55
 70
     1
102
RTVSPropertyOp56
 70
     0
102
RTVSPropertyOp57
 70
     0
102
RTVSPropertyOp58
 70
     0
102
RTVSPropertyOp59
 70
     0
102
RTVSPropertyOp60
 70
     0
102
RTVSPropertyOp61
 70
     0
102
RTVSPropertyOp62
 70
     0
  0
XRECORD
  5
9CD7
102
{ACAD_REACTORS
330
9CD6
102
}
330
9CD6
100
AcDbXrecord
280
     1
102
RTVSPost2010Prop28
280
     0
102
RTVSPost2010PropOp28
 70
     1
102
RTVSPost2010Prop29
280
     1
102
RTVSPost2010PropOp29
 70
     1
102
RTVSPost2010Prop30
280
     1
102
RTVSPost2010PropOp30
 70
     1
102
RTVSPost2010Prop31
280
     0
102
RTVSPost2010PropOp31
 70
     1
102
RTVSPost2010Prop32
280
     0
102
RTVSPost2010PropOp32
 70
     1
102
RTVSPost2010Prop33
280
     0
102
RTVSPost2010PropOp33
 70
     1
102
RTVSPost2010Prop34
280
     0
102
RTVSPost2010PropOp34
 70
     1
102
RTVSPost2010Prop35
280
     0
102
RTVSPost2010PropOp35
 70
     1
102
RTVSPost2010Prop36
280
     0
102
RTVSPost2010PropOp36
 70
     1
102
RTVSPost2010Prop37
 90
       50
102
RTVSPost2010PropOp37
 70
     1
102
RTVSPost2010Prop38
140
0.0
102
RTVSPost2010PropOp38
 70
     1
102
RTVSPost2010Prop39
140
1.0
102
RTVSPost2010PropOp39
 70
     1
102
RTVSPost2010Prop40
 90
        0
102
RTVSPost2010PropOp40
 70
     1
102
RTVSPost2010Prop41ColorIndex
 90
       18
102
RTVSPost2010Prop41ColorRGB
 90
        0
102
RTVSPost2010PropOp41
 70
     1
102
RTVSPost2010Prop42
 90
       50
102
RTVSPost2010PropOp42
 70
     1
102
RTVSPost2010Prop43
 90
        3
102
RTVSPost2010PropOp43
 70
     1
102
RTVSPost2010Prop44ColorIndex
 90
        5
102
RTVSPost2010Prop44ColorRGB
 90
      255
102
RTVSPost2010PropOp44
 70
     1
102
RTVSPost2010Prop45
280
     0
102
RTVSPost2010PropOp45
 70
     1
102
RTVSPost2010Prop46
 90
       50
102
RTVSPost2010PropOp46
 70
     1
102
RTVSPost2010Prop47
 90
       50
102
RTVSPost2010PropOp47
 70
     1
102
RTVSPost2010Prop48
 90
       50
102
RTVSPost2010PropOp48
 70
     1
102
RTVSPost2010Prop49
280
     0
102
RTVSPost2010PropOp49
 70
     1
102
RTVSPost2010Prop50
 90
       50
102
RTVSPost2010PropOp50
 70
     1
102
RTVSPost2010Prop51ColorIndex
 90
      256
102
RTVSPost2010Prop51ColorRGB
 90
-16777216
102
RTVSPost2010PropOp51
 70
     0
102
RTVSPost2010Prop52
140
1.0
102
RTVSPost2010PropOp52
 70
     0
102
RTVSPost2010Prop53
 90
        2
102
RTVSPost2010PropOp53
 70
     1
102
RTVSPost2010Prop54
  1
strokes_ogs.tif
102
RTVSPost2010PropOp54
 70
     1
102
RTVSPost2010Prop55
280
     0
102
RTVSPost2010PropOp55
 70
     1
102
RTVSPost2010Prop56
140
1.0
102
RTVSPost2010PropOp56
 70
     1
102
RTVSPost2010Prop57
140
1.0
102
RTVSPost2010PropOp57
 70
     1
102
RTVSPropertyOp0
 70
     1
102
RTVSPropertyOp1
 70
     1
102
RTVSPropertyOp2
 70
     1
102
RTVSPropertyOp3
 70
     1
102
RTVSPropertyOp4
 70
     1
102
RTVSPropertyOp5
 70
     1
102
RTVSPropertyOp6
 70
     1
102
RTVSPropertyOp7
 70
     1
102
RTVSPropertyOp8
 70
     1
102
RTVSPropertyOp9
 70
     1
102
RTVSPropertyOp10
 70
     1
102
RTVSPropertyOp11
 70
     1
102
RTVSPropertyOp12
 70
     1
102
RTVSPropertyOp13
 70
     1
102
RTVSPropertyOp14
 70
     1
102
RTVSPropertyOp15
 70
     1
102
RTVSPropertyOp16
 70
     1
102
RTVSPropertyOp17
 70
     1
102
RTVSPropertyOp18
 70
     1
102
RTVSPropertyOp19
 70
     1
102
RTVSPropertyOp20
 70
     1
102
RTVSPropertyOp21
 70
     1
102
RTVSPropertyOp22
 70
     1
102
RTVSPropertyOp23
 70
     1
102
RTVSPropertyOp24
 70
     1
102
RTVSPropertyOp25
 70
     1
102
RTVSPropertyOp26
 70
     1
102
RTVSPropertyOp27
 70
     1
102
RTVSPropertyOp28
 70
     1
102
RTVSPropertyOp29
 70
     1
102
RTVSPropertyOp30
 70
     1
102
RTVSPropertyOp31
 70
     1
102
RTVSPropertyOp32
 70
     1
102
RTVSPropertyOp33
 70
     1
102
RTVSPropertyOp34
 70
     1
102
RTVSPropertyOp35
 70
     1
102
RTVSPropertyOp36
 70
     1
102
RTVSPropertyOp37
 70
     1
102
RTVSPropertyOp38
 70
     1
102
RTVSPropertyOp39
 70
     1
102
RTVSPropertyOp40
 70
     1
102
RTVSPropertyOp41
 70
     1
102
RTVSPropertyOp42
 70
     1
102
RTVSPropertyOp43
 70
     1
102
RTVSPropertyOp44
 70
     1
102
RTVSPropertyOp45
 70
     1
102
RTVSPropertyOp46
 70
     1
102
RTVSPropertyOp47
 70
     1
102
RTVSPropertyOp48
 70
     1
102
RTVSPropertyOp49
 70
     1
102
RTVSPropertyOp50
 70
     1
102
RTVSPropertyOp51
 70
     0
102
RTVSPropertyOp52
 70
     0
102
RTVSPropertyOp53
 70
     1
102
RTVSPropertyOp54
 70
     1
102
RTVSPropertyOp55
 70
     1
102
RTVSPropertyOp56
 70
     1
102
RTVSPropertyOp57
 70
     1
102
RTVSPropertyOp58
 70
     1
102
RTVSPropertyOp59
 70
     1
102
RTVSPropertyOp60
 70
     1
102
RTVSPropertyOp61
 70
     1
102
RTVSPropertyOp62
 70
     1
  0
XRECORD
  5
9CE9
102
{ACAD_REACTORS
330
9CE8
102
}
330
9CE8
100
AcDbXrecord
280
     1
102
RTVSPost2010Prop28
280
     0
102
RTVSPost2010PropOp28
 70
     1
102
RTVSPost2010Prop29
280
     1
102
RTVSPost2010PropOp29
 70
     1
102
RTVSPost2010Prop30
280
     1
102
RTVSPost2010PropOp30
 70
     1
102
RTVSPost2010Prop31
280
     0
102
RTVSPost2010PropOp31
 70
     1
102
RTVSPost2010Prop32
280
     0
102
RTVSPost2010PropOp32
 70
     1
102
RTVSPost2010Prop33
280
     0
102
RTVSPost2010PropOp33
 70
     1
102
RTVSPost2010Prop34
280
     0
102
RTVSPost2010PropOp34
 70
     1
102
RTVSPost2010Prop35
280
     0
102
RTVSPost2010PropOp35
 70
     1
102
RTVSPost2010Prop36
280
     0
102
RTVSPost2010PropOp36
 70
     1
102
RTVSPost2010Prop37
 90
       50
102
RTVSPost2010PropOp37
 70
     0
102
RTVSPost2010Prop38
140
0.0
102
RTVSPost2010PropOp38
 70
     0
102
RTVSPost2010Prop39
140
1.0
102
RTVSPost2010PropOp39
 70
     0
102
RTVSPost2010Prop40
 90
        0
102
RTVSPost2010PropOp40
 70
     0
102
RTVSPost2010Prop41ColorIndex
 90
       18
102
RTVSPost2010Prop41ColorRGB
 90
        0
102
RTVSPost2010PropOp41
 70
     0
102
RTVSPost2010Prop42
 90
       50
102
RTVSPost2010PropOp42
 70
     0
102
RTVSPost2010Prop43
 90
        3
102
RTVSPost2010PropOp43
 70
     0
102
RTVSPost2010Prop44ColorIndex
 90
        5
102
RTVSPost2010Prop44ColorRGB
 90
      255
102
RTVSPost2010PropOp44
 70
     0
102
RTVSPost2010Prop45
280
     0
102
RTVSPost2010PropOp45
 70
     1
102
RTVSPost2010Prop46
 90
       50
102
RTVSPost2010PropOp46
 70
     0
102
RTVSPost2010Prop47
 90
       50
102
RTVSPost2010PropOp47
 70
     0
102
RTVSPost2010Prop48
 90
       50
102
RTVSPost2010PropOp48
 70
     0
102
RTVSPost2010Prop49
280
     0
102
RTVSPost2010PropOp49
 70
     1
102
RTVSPost2010Prop50
 90
       50
102
RTVSPost2010PropOp50
 70
     0
102
RTVSPost2010Prop51ColorIndex
 90
      256
102
RTVSPost2010Prop51ColorRGB
 90
-16777216
102
RTVSPost2010PropOp51
 70
     0
102
RTVSPost2010Prop52
140
1.0
102
RTVSPost2010PropOp52
 70
     0
102
RTVSPost2010Prop53
 90
        2
102
RTVSPost2010PropOp53
 70
     0
102
RTVSPost2010Prop54
  1
strokes_ogs.tif
102
RTVSPost2010PropOp54
 70
     0
102
RTVSPost2010Prop55
280
     0
102
RTVSPost2010PropOp55
 70
     1
102
RTVSPost2010Prop56
140
1.0
102
RTVSPost2010PropOp56
 70
     0
102
RTVSPost2010Prop57
140
1.0
102
RTVSPost2010PropOp57
 70
     0
102
RTVSPropertyOp0
 70
     0
102
RTVSPropertyOp1
 70
     0
102
RTVSPropertyOp2
 70
     0
102
RTVSPropertyOp3
 70
     0
102
RTVSPropertyOp4
 70
     0
102
RTVSPropertyOp5
 70
     0
102
RTVSPropertyOp6
 70
     0
102
RTVSPropertyOp7
 70
     0
102
RTVSPropertyOp8
 70
     0
102
RTVSPropertyOp9
 70
     0
102
RTVSPropertyOp10
 70
     0
102
RTVSPropertyOp11
 70
     0
102
RTVSPropertyOp12
 70
     0
102
RTVSPropertyOp13
 70
     0
102
RTVSPropertyOp14
 70
     2
102
RTVSPropertyOp15
 70
     0
102
RTVSPropertyOp16
 70
     0
102
RTVSPropertyOp17
 70
     0
102
RTVSPropertyOp18
 70
     0
102
RTVSPropertyOp19
 70
     0
102
RTVSPropertyOp20
 70
     0
102
RTVSPropertyOp21
 70
     0
102
RTVSPropertyOp22
 70
     0
102
RTVSPropertyOp23
 70
     0
102
RTVSPropertyOp24
 70
     0
102
RTVSPropertyOp25
 70
     0
102
RTVSPropertyOp26
 70
     0
102
RTVSPropertyOp27
 70
     0
102
RTVSPropertyOp28
 70
     1
102
RTVSPropertyOp29
 70
     1
102
RTVSPropertyOp30
 70
     1
102
RTVSPropertyOp31
 70
     1
102
RTVSPropertyOp32
 70
     1
102
RTVSPropertyOp33
 70
     1
102
RTVSPropertyOp34
 70
     1
102
RTVSPropertyOp35
 70
     1
102
RTVSPropertyOp36
 70
     1
102
RTVSPropertyOp37
 70
     0
102
RTVSPropertyOp38
 70
     0
102
RTVSPropertyOp39
 70
     0
102
RTVSPropertyOp40
 70
     0
102
RTVSPropertyOp41
 70
     0
102
RTVSPropertyOp42
 70
     0
102
RTVSPropertyOp43
 70
     0
102
RTVSPropertyOp44
 70
     0
102
RTVSPropertyOp45
 70
     1
102
RTVSPropertyOp46
 70
     0
102
RTVSPropertyOp47
 70
     0
102
RTVSPropertyOp48
 70
     0
102
RTVSPropertyOp49
 70
     1
102
RTVSPropertyOp50
 70
     0
102
RTVSPropertyOp51
 70
     0
102
RTVSPropertyOp52
 70
     0
102
RTVSPropertyOp53
 70
     0
102
RTVSPropertyOp54
 70
     0
102
RTVSPropertyOp55
 70
     1
102
RTVSPropertyOp56
 70
     0
102
RTVSPropertyOp57
 70
     0
102
RTVSPropertyOp58
 70
     0
102
RTVSPropertyOp59
 70
     0
102
RTVSPropertyOp60
 70
     0
102
RTVSPropertyOp61
 70
     0
102
RTVSPropertyOp62
 70
     0
  0
XRECORD
  5
9CCF
102
{ACAD_REACTORS
330
9CCE
102
}
330
9CCE
100
AcDbXrecord
280
     1
102
RTVSPost2010Prop28
280
     0
102
RTVSPost2010PropOp28
 70
     1
102
RTVSPost2010Prop29
280
     1
102
RTVSPost2010PropOp29
 70
     1
102
RTVSPost2010Prop30
280
     1
102
RTVSPost2010PropOp30
 70
     1
102
RTVSPost2010Prop31
280
     0
102
RTVSPost2010PropOp31
 70
     1
102
RTVSPost2010Prop32
280
     0
102
RTVSPost2010PropOp32
 70
     1
102
RTVSPost2010Prop33
280
     0
102
RTVSPost2010PropOp33
 70
     1
102
RTVSPost2010Prop34
280
     0
102
RTVSPost2010PropOp34
 70
     1
102
RTVSPost2010Prop35
280
     0
102
RTVSPost2010PropOp35
 70
     1
102
RTVSPost2010Prop36
280
     0
102
RTVSPost2010PropOp36
 70
     1
102
RTVSPost2010Prop37
 90
       50
102
RTVSPost2010PropOp37
 70
     1
102
RTVSPost2010Prop38
140
0.0
102
RTVSPost2010PropOp38
 70
     1
102
RTVSPost2010Prop39
140
1.0
102
RTVSPost2010PropOp39
 70
     1
102
RTVSPost2010Prop40
 90
        0
102
RTVSPost2010PropOp40
 70
     1
102
RTVSPost2010Prop41ColorIndex
 90
       18
102
RTVSPost2010Prop41ColorRGB
 90
        0
102
RTVSPost2010PropOp41
 70
     1
102
RTVSPost2010Prop42
 90
       50
102
RTVSPost2010PropOp42
 70
     1
102
RTVSPost2010Prop43
 90
        3
102
RTVSPost2010PropOp43
 70
     1
102
RTVSPost2010Prop44ColorIndex
 90
        5
102
RTVSPost2010Prop44ColorRGB
 90
      255
102
RTVSPost2010PropOp44
 70
     1
102
RTVSPost2010Prop45
280
     0
102
RTVSPost2010PropOp45
 70
     1
102
RTVSPost2010Prop46
 90
       50
102
RTVSPost2010PropOp46
 70
     1
102
RTVSPost2010Prop47
 90
       50
102
RTVSPost2010PropOp47
 70
     1
102
RTVSPost2010Prop48
 90
       50
102
RTVSPost2010PropOp48
 70
     1
102
RTVSPost2010Prop49
280
     0
102
RTVSPost2010PropOp49
 70
     1
102
RTVSPost2010Prop50
 90
       50
102
RTVSPost2010PropOp50
 70
     1
102
RTVSPost2010Prop51ColorIndex
 90
      256
102
RTVSPost2010Prop51ColorRGB
 90
-16777216
102
RTVSPost2010PropOp51
 70
     0
102
RTVSPost2010Prop52
140
1.0
102
RTVSPost2010PropOp52
 70
     0
102
RTVSPost2010Prop53
 90
        2
102
RTVSPost2010PropOp53
 70
     1
102
RTVSPost2010Prop54
  1
strokes_ogs.tif
102
RTVSPost2010PropOp54
 70
     1
102
RTVSPost2010Prop55
280
     0
102
RTVSPost2010PropOp55
 70
     1
102
RTVSPost2010Prop56
140
1.0
102
RTVSPost2010PropOp56
 70
     1
102
RTVSPost2010Prop57
140
1.0
102
RTVSPost2010PropOp57
 70
     1
102
RTVSPropertyOp0
 70
     1
102
RTVSPropertyOp1
 70
     1
102
RTVSPropertyOp2
 70
     1
102
RTVSPropertyOp3
 70
     1
102
RTVSPropertyOp4
 70
     1
102
RTVSPropertyOp5
 70
     1
102
RTVSPropertyOp6
 70
     1
102
RTVSPropertyOp7
 70
     1
102
RTVSPropertyOp8
 70
     1
102
RTVSPropertyOp9
 70
     1
102
RTVSPropertyOp10
 70
     1
102
RTVSPropertyOp11
 70
     1
102
RTVSPropertyOp12
 70
     1
102
RTVSPropertyOp13
 70
     1
102
RTVSPropertyOp14
 70
     1
102
RTVSPropertyOp15
 70
     1
102
RTVSPropertyOp16
 70
     1
102
RTVSPropertyOp17
 70
     1
102
RTVSPropertyOp18
 70
     1
102
RTVSPropertyOp19
 70
     1
102
RTVSPropertyOp20
 70
     1
102
RTVSPropertyOp21
 70
     1
102
RTVSPropertyOp22
 70
     1
102
RTVSPropertyOp23
 70
     1
102
RTVSPropertyOp24
 70
     1
102
RTVSPropertyOp25
 70
     1
102
RTVSPropertyOp26
 70
     1
102
RTVSPropertyOp27
 70
     1
102
RTVSPropertyOp28
 70
     1
102
RTVSPropertyOp29
 70
     1
102
RTVSPropertyOp30
 70
     1
102
RTVSPropertyOp31
 70
     1
102
RTVSPropertyOp32
 70
     1
102
RTVSPropertyOp33
 70
     1
102
RTVSPropertyOp34
 70
     1
102
RTVSPropertyOp35
 70
     1
102
RTVSPropertyOp36
 70
     1
102
RTVSPropertyOp37
 70
     1
102
RTVSPropertyOp38
 70
     1
102
RTVSPropertyOp39
 70
     1
102
RTVSPropertyOp40
 70
     1
102
RTVSPropertyOp41
 70
     1
102
RTVSPropertyOp42
 70
     1
102
RTVSPropertyOp43
 70
     1
102
RTVSPropertyOp44
 70
     1
102
RTVSPropertyOp45
 70
     1
102
RTVSPropertyOp46
 70
     1
102
RTVSPropertyOp47
 70
     1
102
RTVSPropertyOp48
 70
     1
102
RTVSPropertyOp49
 70
     1
102
RTVSPropertyOp50
 70
     1
102
RTVSPropertyOp51
 70
     0
102
RTVSPropertyOp52
 70
     0
102
RTVSPropertyOp53
 70
     1
102
RTVSPropertyOp54
 70
     1
102
RTVSPropertyOp55
 70
     1
102
RTVSPropertyOp56
 70
     1
102
RTVSPropertyOp57
 70
     1
102
RTVSPropertyOp58
 70
     1
102
RTVSPropertyOp59
 70
     1
102
RTVSPropertyOp60
 70
     1
102
RTVSPropertyOp61
 70
     1
102
RTVSPropertyOp62
 70
     1
  0
XRECORD
  5
9CE5
102
{ACAD_REACTORS
330
9CE4
102
}
330
9CE4
100
AcDbXrecord
280
     1
102
RTVSPost2010Prop28
280
     0
102
RTVSPost2010PropOp28
 70
     1
102
RTVSPost2010Prop29
280
     1
102
RTVSPost2010PropOp29
 70
     1
102
RTVSPost2010Prop30
280
     1
102
RTVSPost2010PropOp30
 70
     1
102
RTVSPost2010Prop31
280
     0
102
RTVSPost2010PropOp31
 70
     1
102
RTVSPost2010Prop32
280
     0
102
RTVSPost2010PropOp32
 70
     1
102
RTVSPost2010Prop33
280
     0
102
RTVSPost2010PropOp33
 70
     1
102
RTVSPost2010Prop34
280
     0
102
RTVSPost2010PropOp34
 70
     1
102
RTVSPost2010Prop35
280
     0
102
RTVSPost2010PropOp35
 70
     1
102
RTVSPost2010Prop36
280
     0
102
RTVSPost2010PropOp36
 70
     1
102
RTVSPost2010Prop37
 90
       50
102
RTVSPost2010PropOp37
 70
     1
102
RTVSPost2010Prop38
140
0.0
102
RTVSPost2010PropOp38
 70
     1
102
RTVSPost2010Prop39
140
1.0
102
RTVSPost2010PropOp39
 70
     1
102
RTVSPost2010Prop40
 90
        0
102
RTVSPost2010PropOp40
 70
     1
102
RTVSPost2010Prop41ColorIndex
 90
       18
102
RTVSPost2010Prop41ColorRGB
 90
        0
102
RTVSPost2010PropOp41
 70
     1
102
RTVSPost2010Prop42
 90
       50
102
RTVSPost2010PropOp42
 70
     1
102
RTVSPost2010Prop43
 90
        3
102
RTVSPost2010PropOp43
 70
     1
102
RTVSPost2010Prop44ColorIndex
 90
        5
102
RTVSPost2010Prop44ColorRGB
 90
      255
102
RTVSPost2010PropOp44
 70
     1
102
RTVSPost2010Prop45
280
     0
102
RTVSPost2010PropOp45
 70
     1
102
RTVSPost2010Prop46
 90
       50
102
RTVSPost2010PropOp46
 70
     1
102
RTVSPost2010Prop47
 90
       50
102
RTVSPost2010PropOp47
 70
     1
102
RTVSPost2010Prop48
 90
       50
102
RTVSPost2010PropOp48
 70
     1
102
RTVSPost2010Prop49
280
     0
102
RTVSPost2010PropOp49
 70
     1
102
RTVSPost2010Prop50
 90
       50
102
RTVSPost2010PropOp50
 70
     1
102
RTVSPost2010Prop51ColorIndex
 90
      256
102
RTVSPost2010Prop51ColorRGB
 90
-16777216
102
RTVSPost2010PropOp51
 70
     0
102
RTVSPost2010Prop52
140
1.0
102
RTVSPost2010PropOp52
 70
     0
102
RTVSPost2010Prop53
 90
        2
102
RTVSPost2010PropOp53
 70
     1
102
RTVSPost2010Prop54
  1
strokes_ogs.tif
102
RTVSPost2010PropOp54
 70
     1
102
RTVSPost2010Prop55
280
     0
102
RTVSPost2010PropOp55
 70
     1
102
RTVSPost2010Prop56
140
1.0
102
RTVSPost2010PropOp56
 70
     1
102
RTVSPost2010Prop57
140
1.0
102
RTVSPost2010PropOp57
 70
     1
102
RTVSPropertyOp0
 70
     1
102
RTVSPropertyOp1
 70
     1
102
RTVSPropertyOp2
 70
     1
102
RTVSPropertyOp3
 70
     1
102
RTVSPropertyOp4
 70
     1
102
RTVSPropertyOp5
 70
     1
102
RTVSPropertyOp6
 70
     1
102
RTVSPropertyOp7
 70
     1
102
RTVSPropertyOp8
 70
     1
102
RTVSPropertyOp9
 70
     1
102
RTVSPropertyOp10
 70
     1
102
RTVSPropertyOp11
 70
     1
102
RTVSPropertyOp12
 70
     1
102
RTVSPropertyOp13
 70
     1
102
RTVSPropertyOp14
 70
     1
102
RTVSPropertyOp15
 70
     1
102
RTVSPropertyOp16
 70
     1
102
RTVSPropertyOp17
 70
     1
102
RTVSPropertyOp18
 70
     1
102
RTVSPropertyOp19
 70
     1
102
RTVSPropertyOp20
 70
     1
102
RTVSPropertyOp21
 70
     1
102
RTVSPropertyOp22
 70
     1
102
RTVSPropertyOp23
 70
     1
102
RTVSPropertyOp24
 70
     1
102
RTVSPropertyOp25
 70
     1
102
RTVSPropertyOp26
 70
     1
102
RTVSPropertyOp27
 70
     1
102
RTVSPropertyOp28
 70
     1
102
RTVSPropertyOp29
 70
     1
102
RTVSPropertyOp30
 70
     1
102
RTVSPropertyOp31
 70
     1
102
RTVSPropertyOp32
 70
     1
102
RTVSPropertyOp33
 70
     1
102
RTVSPropertyOp34
 70
     1
102
RTVSPropertyOp35
 70
     1
102
RTVSPropertyOp36
 70
     1
102
RTVSPropertyOp37
 70
     1
102
RTVSPropertyOp38
 70
     1
102
RTVSPropertyOp39
 70
     1
102
RTVSPropertyOp40
 70
     1
102
RTVSPropertyOp41
 70
     1
102
RTVSPropertyOp42
 70
     1
102
RTVSPropertyOp43
 70
     1
102
RTVSPropertyOp44
 70
     1
102
RTVSPropertyOp45
 70
     1
102
RTVSPropertyOp46
 70
     1
102
RTVSPropertyOp47
 70
     1
102
RTVSPropertyOp48
 70
     1
102
RTVSPropertyOp49
 70
     1
102
RTVSPropertyOp50
 70
     1
102
RTVSPropertyOp51
 70
     0
102
RTVSPropertyOp52
 70
     0
102
RTVSPropertyOp53
 70
     1
102
RTVSPropertyOp54
 70
     1
102
RTVSPropertyOp55
 70
     1
102
RTVSPropertyOp56
 70
     1
102
RTVSPropertyOp57
 70
     1
102
RTVSPropertyOp58
 70
     1
102
RTVSPropertyOp59
 70
     1
102
RTVSPropertyOp60
 70
     1
102
RTVSPropertyOp61
 70
     1
102
RTVSPropertyOp62
 70
     1
  0
XRECORD
  5
9CE3
102
{ACAD_REACTORS
330
9CE2
102
}
330
9CE2
100
AcDbXrecord
280
     1
102
RTVSPost2010Prop28
280
     0
102
RTVSPost2010PropOp28
 70
     1
102
RTVSPost2010Prop29
280
     1
102
RTVSPost2010PropOp29
 70
     1
102
RTVSPost2010Prop30
280
     1
102
RTVSPost2010PropOp30
 70
     1
102
RTVSPost2010Prop31
280
     0
102
RTVSPost2010PropOp31
 70
     1
102
RTVSPost2010Prop32
280
     0
102
RTVSPost2010PropOp32
 70
     1
102
RTVSPost2010Prop33
280
     0
102
RTVSPost2010PropOp33
 70
     1
102
RTVSPost2010Prop34
280
     0
102
RTVSPost2010PropOp34
 70
     1
102
RTVSPost2010Prop35
280
     0
102
RTVSPost2010PropOp35
 70
     1
102
RTVSPost2010Prop36
280
     0
102
RTVSPost2010PropOp36
 70
     1
102
RTVSPost2010Prop37
 90
       50
102
RTVSPost2010PropOp37
 70
     1
102
RTVSPost2010Prop38
140
0.0
102
RTVSPost2010PropOp38
 70
     1
102
RTVSPost2010Prop39
140
1.0
102
RTVSPost2010PropOp39
 70
     1
102
RTVSPost2010Prop40
 90
        0
102
RTVSPost2010PropOp40
 70
     1
102
RTVSPost2010Prop41ColorIndex
 90
       18
102
RTVSPost2010Prop41ColorRGB
 90
        0
102
RTVSPost2010PropOp41
 70
     1
102
RTVSPost2010Prop42
 90
       50
102
RTVSPost2010PropOp42
 70
     1
102
RTVSPost2010Prop43
 90
        3
102
RTVSPost2010PropOp43
 70
     1
102
RTVSPost2010Prop44ColorIndex
 90
        5
102
RTVSPost2010Prop44ColorRGB
 90
      255
102
RTVSPost2010PropOp44
 70
     1
102
RTVSPost2010Prop45
280
     0
102
RTVSPost2010PropOp45
 70
     1
102
RTVSPost2010Prop46
 90
       50
102
RTVSPost2010PropOp46
 70
     1
102
RTVSPost2010Prop47
 90
       50
102
RTVSPost2010PropOp47
 70
     1
102
RTVSPost2010Prop48
 90
       50
102
RTVSPost2010PropOp48
 70
     1
102
RTVSPost2010Prop49
280
     0
102
RTVSPost2010PropOp49
 70
     1
102
RTVSPost2010Prop50
 90
       50
102
RTVSPost2010PropOp50
 70
     1
102
RTVSPost2010Prop51ColorIndex
 90
      256
102
RTVSPost2010Prop51ColorRGB
 90
-16777216
102
RTVSPost2010PropOp51
 70
     0
102
RTVSPost2010Prop52
140
1.0
102
RTVSPost2010PropOp52
 70
     0
102
RTVSPost2010Prop53
 90
        2
102
RTVSPost2010PropOp53
 70
     1
102
RTVSPost2010Prop54
  1
strokes_ogs.tif
102
RTVSPost2010PropOp54
 70
     1
102
RTVSPost2010Prop55
280
     0
102
RTVSPost2010PropOp55
 70
     1
102
RTVSPost2010Prop56
140
1.0
102
RTVSPost2010PropOp56
 70
     1
102
RTVSPost2010Prop57
140
1.0
102
RTVSPost2010PropOp57
 70
     1
102
RTVSPropertyOp0
 70
     1
102
RTVSPropertyOp1
 70
     1
102
RTVSPropertyOp2
 70
     1
102
RTVSPropertyOp3
 70
     1
102
RTVSPropertyOp4
 70
     1
102
RTVSPropertyOp5
 70
     1
102
RTVSPropertyOp6
 70
     1
102
RTVSPropertyOp7
 70
     1
102
RTVSPropertyOp8
 70
     1
102
RTVSPropertyOp9
 70
     1
102
RTVSPropertyOp10
 70
     1
102
RTVSPropertyOp11
 70
     1
102
RTVSPropertyOp12
 70
     1
102
RTVSPropertyOp13
 70
     1
102
RTVSPropertyOp14
 70
     1
102
RTVSPropertyOp15
 70
     1
102
RTVSPropertyOp16
 70
     1
102
RTVSPropertyOp17
 70
     1
102
RTVSPropertyOp18
 70
     1
102
RTVSPropertyOp19
 70
     1
102
RTVSPropertyOp20
 70
     1
102
RTVSPropertyOp21
 70
     1
102
RTVSPropertyOp22
 70
     1
102
RTVSPropertyOp23
 70
     1
102
RTVSPropertyOp24
 70
     1
102
RTVSPropertyOp25
 70
     1
102
RTVSPropertyOp26
 70
     1
102
RTVSPropertyOp27
 70
     1
102
RTVSPropertyOp28
 70
     1
102
RTVSPropertyOp29
 70
     1
102
RTVSPropertyOp30
 70
     1
102
RTVSPropertyOp31
 70
     1
102
RTVSPropertyOp32
 70
     1
102
RTVSPropertyOp33
 70
     1
102
RTVSPropertyOp34
 70
     1
102
RTVSPropertyOp35
 70
     1
102
RTVSPropertyOp36
 70
     1
102
RTVSPropertyOp37
 70
     1
102
RTVSPropertyOp38
 70
     1
102
RTVSPropertyOp39
 70
     1
102
RTVSPropertyOp40
 70
     1
102
RTVSPropertyOp41
 70
     1
102
RTVSPropertyOp42
 70
     1
102
RTVSPropertyOp43
 70
     1
102
RTVSPropertyOp44
 70
     1
102
RTVSPropertyOp45
 70
     1
102
RTVSPropertyOp46
 70
     1
102
RTVSPropertyOp47
 70
     1
102
RTVSPropertyOp48
 70
     1
102
RTVSPropertyOp49
 70
     1
102
RTVSPropertyOp50
 70
     1
102
RTVSPropertyOp51
 70
     0
102
RTVSPropertyOp52
 70
     0
102
RTVSPropertyOp53
 70
     1
102
RTVSPropertyOp54
 70
     1
102
RTVSPropertyOp55
 70
     1
102
RTVSPropertyOp56
 70
     1
102
RTVSPropertyOp57
 70
     1
102
RTVSPropertyOp58
 70
     1
102
RTVSPropertyOp59
 70
     1
102
RTVSPropertyOp60
 70
     1
102
RTVSPropertyOp61
 70
     1
102
RTVSPropertyOp62
 70
     1
  0
XRECORD
  5
9CDD
102
{ACAD_REACTORS
330
9CDC
102
}
330
9CDC
100
AcDbXrecord
280
     1
102
RTVSPost2010Prop28
280
     0
102
RTVSPost2010PropOp28
 70
     1
102
RTVSPost2010Prop29
280
     1
102
RTVSPost2010PropOp29
 70
     1
102
RTVSPost2010Prop30
280
     1
102
RTVSPost2010PropOp30
 70
     1
102
RTVSPost2010Prop31
280
     0
102
RTVSPost2010PropOp31
 70
     1
102
RTVSPost2010Prop32
280
     0
102
RTVSPost2010PropOp32
 70
     1
102
RTVSPost2010Prop33
280
     0
102
RTVSPost2010PropOp33
 70
     1
102
RTVSPost2010Prop34
280
     0
102
RTVSPost2010PropOp34
 70
     1
102
RTVSPost2010Prop35
280
     0
102
RTVSPost2010PropOp35
 70
     1
102
RTVSPost2010Prop36
280
     0
102
RTVSPost2010PropOp36
 70
     1
102
RTVSPost2010Prop37
 90
       50
102
RTVSPost2010PropOp37
 70
     1
102
RTVSPost2010Prop38
140
0.0
102
RTVSPost2010PropOp38
 70
     1
102
RTVSPost2010Prop39
140
1.0
102
RTVSPost2010PropOp39
 70
     1
102
RTVSPost2010Prop40
 90
        0
102
RTVSPost2010PropOp40
 70
     1
102
RTVSPost2010Prop41ColorIndex
 90
       18
102
RTVSPost2010Prop41ColorRGB
 90
        0
102
RTVSPost2010PropOp41
 70
     1
102
RTVSPost2010Prop42
 90
       50
102
RTVSPost2010PropOp42
 70
     1
102
RTVSPost2010Prop43
 90
        3
102
RTVSPost2010PropOp43
 70
     1
102
RTVSPost2010Prop44ColorIndex
 90
        5
102
RTVSPost2010Prop44ColorRGB
 90
      255
102
RTVSPost2010PropOp44
 70
     1
102
RTVSPost2010Prop45
280
     0
102
RTVSPost2010PropOp45
 70
     1
102
RTVSPost2010Prop46
 90
       50
102
RTVSPost2010PropOp46
 70
     1
102
RTVSPost2010Prop47
 90
       50
102
RTVSPost2010PropOp47
 70
     1
102
RTVSPost2010Prop48
 90
       50
102
RTVSPost2010PropOp48
 70
     1
102
RTVSPost2010Prop49
280
     0
102
RTVSPost2010PropOp49
 70
     1
102
RTVSPost2010Prop50
 90
       50
102
RTVSPost2010PropOp50
 70
     1
102
RTVSPost2010Prop51ColorIndex
 90
      256
102
RTVSPost2010Prop51ColorRGB
 90
-16777216
102
RTVSPost2010PropOp51
 70
     0
102
RTVSPost2010Prop52
140
1.0
102
RTVSPost2010PropOp52
 70
     0
102
RTVSPost2010Prop53
 90
        2
102
RTVSPost2010PropOp53
 70
     1
102
RTVSPost2010Prop54
  1
strokes_ogs.tif
102
RTVSPost2010PropOp54
 70
     1
102
RTVSPost2010Prop55
280
     0
102
RTVSPost2010PropOp55
 70
     1
102
RTVSPost2010Prop56
140
1.0
102
RTVSPost2010PropOp56
 70
     1
102
RTVSPost2010Prop57
140
1.0
102
RTVSPost2010PropOp57
 70
     1
102
RTVSPropertyOp0
 70
     1
102
RTVSPropertyOp1
 70
     1
102
RTVSPropertyOp2
 70
     1
102
RTVSPropertyOp3
 70
     1
102
RTVSPropertyOp4
 70
     1
102
RTVSPropertyOp5
 70
     1
102
RTVSPropertyOp6
 70
     1
102
RTVSPropertyOp7
 70
     1
102
RTVSPropertyOp8
 70
     1
102
RTVSPropertyOp9
 70
     1
102
RTVSPropertyOp10
 70
     1
102
RTVSPropertyOp11
 70
     1
102
RTVSPropertyOp12
 70
     1
102
RTVSPropertyOp13
 70
     1
102
RTVSPropertyOp14
 70
     1
102
RTVSPropertyOp15
 70
     1
102
RTVSPropertyOp16
 70
     1
102
RTVSPropertyOp17
 70
     1
102
RTVSPropertyOp18
 70
     1
102
RTVSPropertyOp19
 70
     1
102
RTVSPropertyOp20
 70
     1
102
RTVSPropertyOp21
 70
     1
102
RTVSPropertyOp22
 70
     1
102
RTVSPropertyOp23
 70
     1
102
RTVSPropertyOp24
 70
     1
102
RTVSPropertyOp25
 70
     1
102
RTVSPropertyOp26
 70
     1
102
RTVSPropertyOp27
 70
     1
102
RTVSPropertyOp28
 70
     1
102
RTVSPropertyOp29
 70
     1
102
RTVSPropertyOp30
 70
     1
102
RTVSPropertyOp31
 70
     1
102
RTVSPropertyOp32
 70
     1
102
RTVSPropertyOp33
 70
     1
102
RTVSPropertyOp34
 70
     1
102
RTVSPropertyOp35
 70
     1
102
RTVSPropertyOp36
 70
     1
102
RTVSPropertyOp37
 70
     1
102
RTVSPropertyOp38
 70
     1
102
RTVSPropertyOp39
 70
     1
102
RTVSPropertyOp40
 70
     1
102
RTVSPropertyOp41
 70
     1
102
RTVSPropertyOp42
 70
     1
102
RTVSPropertyOp43
 70
     1
102
RTVSPropertyOp44
 70
     1
102
RTVSPropertyOp45
 70
     1
102
RTVSPropertyOp46
 70
     1
102
RTVSPropertyOp47
 70
     1
102
RTVSPropertyOp48
 70
     1
102
RTVSPropertyOp49
 70
     1
102
RTVSPropertyOp50
 70
     1
102
RTVSPropertyOp51
 70
     0
102
RTVSPropertyOp52
 70
     0
102
RTVSPropertyOp53
 70
     1
102
RTVSPropertyOp54
 70
     1
102
RTVSPropertyOp55
 70
     1
102
RTVSPropertyOp56
 70
     1
102
RTVSPropertyOp57
 70
     1
102
RTVSPropertyOp58
 70
     1
102
RTVSPropertyOp59
 70
     1
102
RTVSPropertyOp60
 70
     1
102
RTVSPropertyOp61
 70
     1
102
RTVSPropertyOp62
 70
     1
  0
XRECORD
  5
9CDF
102
{ACAD_REACTORS
330
9CDE
102
}
330
9CDE
100
AcDbXrecord
280
     1
102
RTVSPost2010Prop28
280
     0
102
RTVSPost2010PropOp28
 70
     1
102
RTVSPost2010Prop29
280
     1
102
RTVSPost2010PropOp29
 70
     1
102
RTVSPost2010Prop30
280
     1
102
RTVSPost2010PropOp30
 70
     1
102
RTVSPost2010Prop31
280
     0
102
RTVSPost2010PropOp31
 70
     1
102
RTVSPost2010Prop32
280
     0
102
RTVSPost2010PropOp32
 70
     1
102
RTVSPost2010Prop33
280
     0
102
RTVSPost2010PropOp33
 70
     1
102
RTVSPost2010Prop34
280
     0
102
RTVSPost2010PropOp34
 70
     1
102
RTVSPost2010Prop35
280
     0
102
RTVSPost2010PropOp35
 70
     1
102
RTVSPost2010Prop36
280
     0
102
RTVSPost2010PropOp36
 70
     1
102
RTVSPost2010Prop37
 90
       50
102
RTVSPost2010PropOp37
 70
     1
102
RTVSPost2010Prop38
140
0.0
102
RTVSPost2010PropOp38
 70
     1
102
RTVSPost2010Prop39
140
1.0
102
RTVSPost2010PropOp39
 70
     1
102
RTVSPost2010Prop40
 90
        0
102
RTVSPost2010PropOp40
 70
     1
102
RTVSPost2010Prop41ColorIndex
 90
       18
102
RTVSPost2010Prop41ColorRGB
 90
        0
102
RTVSPost2010PropOp41
 70
     1
102
RTVSPost2010Prop42
 90
       50
102
RTVSPost2010PropOp42
 70
     1
102
RTVSPost2010Prop43
 90
        3
102
RTVSPost2010PropOp43
 70
     1
102
RTVSPost2010Prop44ColorIndex
 90
        5
102
RTVSPost2010Prop44ColorRGB
 90
      255
102
RTVSPost2010PropOp44
 70
     1
102
RTVSPost2010Prop45
280
     0
102
RTVSPost2010PropOp45
 70
     1
102
RTVSPost2010Prop46
 90
       50
102
RTVSPost2010PropOp46
 70
     1
102
RTVSPost2010Prop47
 90
       50
102
RTVSPost2010PropOp47
 70
     1
102
RTVSPost2010Prop48
 90
       50
102
RTVSPost2010PropOp48
 70
     1
102
RTVSPost2010Prop49
280
     0
102
RTVSPost2010PropOp49
 70
     1
102
RTVSPost2010Prop50
 90
       50
102
RTVSPost2010PropOp50
 70
     1
102
RTVSPost2010Prop51ColorIndex
 90
      256
102
RTVSPost2010Prop51ColorRGB
 90
-16777216
102
RTVSPost2010PropOp51
 70
     0
102
RTVSPost2010Prop52
140
1.0
102
RTVSPost2010PropOp52
 70
     0
102
RTVSPost2010Prop53
 90
        2
102
RTVSPost2010PropOp53
 70
     1
102
RTVSPost2010Prop54
  1
strokes_ogs.tif
102
RTVSPost2010PropOp54
 70
     1
102
RTVSPost2010Prop55
280
     0
102
RTVSPost2010PropOp55
 70
     1
102
RTVSPost2010Prop56
140
1.0
102
RTVSPost2010PropOp56
 70
     1
102
RTVSPost2010Prop57
140
1.0
102
RTVSPost2010PropOp57
 70
     1
102
RTVSPropertyOp0
 70
     1
102
RTVSPropertyOp1
 70
     1
102
RTVSPropertyOp2
 70
     1
102
RTVSPropertyOp3
 70
     1
102
RTVSPropertyOp4
 70
     1
102
RTVSPropertyOp5
 70
     1
102
RTVSPropertyOp6
 70
     1
102
RTVSPropertyOp7
 70
     1
102
RTVSPropertyOp8
 70
     1
102
RTVSPropertyOp9
 70
     1
102
RTVSPropertyOp10
 70
     1
102
RTVSPropertyOp11
 70
     1
102
RTVSPropertyOp12
 70
     1
102
RTVSPropertyOp13
 70
     1
102
RTVSPropertyOp14
 70
     1
102
RTVSPropertyOp15
 70
     1
102
RTVSPropertyOp16
 70
     1
102
RTVSPropertyOp17
 70
     1
102
RTVSPropertyOp18
 70
     1
102
RTVSPropertyOp19
 70
     1
102
RTVSPropertyOp20
 70
     1
102
RTVSPropertyOp21
 70
     1
102
RTVSPropertyOp22
 70
     1
102
RTVSPropertyOp23
 70
     1
102
RTVSPropertyOp24
 70
     1
102
RTVSPropertyOp25
 70
     1
102
RTVSPropertyOp26
 70
     1
102
RTVSPropertyOp27
 70
     1
102
RTVSPropertyOp28
 70
     1
102
RTVSPropertyOp29
 70
     1
102
RTVSPropertyOp30
 70
     1
102
RTVSPropertyOp31
 70
     1
102
RTVSPropertyOp32
 70
     1
102
RTVSPropertyOp33
 70
     1
102
RTVSPropertyOp34
 70
     1
102
RTVSPropertyOp35
 70
     1
102
RTVSPropertyOp36
 70
     1
102
RTVSPropertyOp37
 70
     1
102
RTVSPropertyOp38
 70
     1
102
RTVSPropertyOp39
 70
     1
102
RTVSPropertyOp40
 70
     1
102
RTVSPropertyOp41
 70
     1
102
RTVSPropertyOp42
 70
     1
102
RTVSPropertyOp43
 70
     1
102
RTVSPropertyOp44
 70
     1
102
RTVSPropertyOp45
 70
     1
102
RTVSPropertyOp46
 70
     1
102
RTVSPropertyOp47
 70
     1
102
RTVSPropertyOp48
 70
     1
102
RTVSPropertyOp49
 70
     1
102
RTVSPropertyOp50
 70
     1
102
RTVSPropertyOp51
 70
     0
102
RTVSPropertyOp52
 70
     0
102
RTVSPropertyOp53
 70
     1
102
RTVSPropertyOp54
 70
     1
102
RTVSPropertyOp55
 70
     1
102
RTVSPropertyOp56
 70
     1
102
RTVSPropertyOp57
 70
     1
102
RTVSPropertyOp58
 70
     1
102
RTVSPropertyOp59
 70
     1
102
RTVSPropertyOp60
 70
     1
102
RTVSPropertyOp61
 70
     1
102
RTVSPropertyOp62
 70
     1
  0
XRECORD
  5
9CD5
102
{ACAD_REACTORS
330
9CD4
102
}
330
9CD4
100
AcDbXrecord
280
     1
102
RTVSPost2010Prop28
280
     0
102
RTVSPost2010PropOp28
 70
     1
102
RTVSPost2010Prop29
280
     1
102
RTVSPost2010PropOp29
 70
     1
102
RTVSPost2010Prop30
280
     1
102
RTVSPost2010PropOp30
 70
     1
102
RTVSPost2010Prop31
280
     0
102
RTVSPost2010PropOp31
 70
     1
102
RTVSPost2010Prop32
280
     0
102
RTVSPost2010PropOp32
 70
     1
102
RTVSPost2010Prop33
280
     0
102
RTVSPost2010PropOp33
 70
     1
102
RTVSPost2010Prop34
280
     0
102
RTVSPost2010PropOp34
 70
     1
102
RTVSPost2010Prop35
280
     0
102
RTVSPost2010PropOp35
 70
     1
102
RTVSPost2010Prop36
280
     0
102
RTVSPost2010PropOp36
 70
     1
102
RTVSPost2010Prop37
 90
       50
102
RTVSPost2010PropOp37
 70
     1
102
RTVSPost2010Prop38
140
0.0
102
RTVSPost2010PropOp38
 70
     1
102
RTVSPost2010Prop39
140
1.0
102
RTVSPost2010PropOp39
 70
     1
102
RTVSPost2010Prop40
 90
        0
102
RTVSPost2010PropOp40
 70
     1
102
RTVSPost2010Prop41ColorIndex
 90
       18
102
RTVSPost2010Prop41ColorRGB
 90
        0
102
RTVSPost2010PropOp41
 70
     1
102
RTVSPost2010Prop42
 90
       50
102
RTVSPost2010PropOp42
 70
     1
102
RTVSPost2010Prop43
 90
        3
102
RTVSPost2010PropOp43
 70
     1
102
RTVSPost2010Prop44ColorIndex
 90
        5
102
RTVSPost2010Prop44ColorRGB
 90
      255
102
RTVSPost2010PropOp44
 70
     1
102
RTVSPost2010Prop45
280
     0
102
RTVSPost2010PropOp45
 70
     1
102
RTVSPost2010Prop46
 90
       50
102
RTVSPost2010PropOp46
 70
     1
102
RTVSPost2010Prop47
 90
       50
102
RTVSPost2010PropOp47
 70
     1
102
RTVSPost2010Prop48
 90
       50
102
RTVSPost2010PropOp48
 70
     1
102
RTVSPost2010Prop49
280
     0
102
RTVSPost2010PropOp49
 70
     1
102
RTVSPost2010Prop50
 90
       50
102
RTVSPost2010PropOp50
 70
     1
102
RTVSPost2010Prop51ColorIndex
 90
      256
102
RTVSPost2010Prop51ColorRGB
 90
-16777216
102
RTVSPost2010PropOp51
 70
     0
102
RTVSPost2010Prop52
140
1.0
102
RTVSPost2010PropOp52
 70
     0
102
RTVSPost2010Prop53
 90
        2
102
RTVSPost2010PropOp53
 70
     1
102
RTVSPost2010Prop54
  1
strokes_ogs.tif
102
RTVSPost2010PropOp54
 70
     1
102
RTVSPost2010Prop55
280
     0
102
RTVSPost2010PropOp55
 70
     1
102
RTVSPost2010Prop56
140
1.0
102
RTVSPost2010PropOp56
 70
     1
102
RTVSPost2010Prop57
140
1.0
102
RTVSPost2010PropOp57
 70
     1
102
RTVSPropertyOp0
 70
     1
102
RTVSPropertyOp1
 70
     1
102
RTVSPropertyOp2
 70
     1
102
RTVSPropertyOp3
 70
     1
102
RTVSPropertyOp4
 70
     1
102
RTVSPropertyOp5
 70
     1
102
RTVSPropertyOp6
 70
     1
102
RTVSPropertyOp7
 70
     1
102
RTVSPropertyOp8
 70
     1
102
RTVSPropertyOp9
 70
     1
102
RTVSPropertyOp10
 70
     1
102
RTVSPropertyOp11
 70
     1
102
RTVSPropertyOp12
 70
     1
102
RTVSPropertyOp13
 70
     1
102
RTVSPropertyOp14
 70
     1
102
RTVSPropertyOp15
 70
     1
102
RTVSPropertyOp16
 70
     1
102
RTVSPropertyOp17
 70
     1
102
RTVSPropertyOp18
 70
     1
102
RTVSPropertyOp19
 70
     1
102
RTVSPropertyOp20
 70
     1
102
RTVSPropertyOp21
 70
     1
102
RTVSPropertyOp22
 70
     1
102
RTVSPropertyOp23
 70
     1
102
RTVSPropertyOp24
 70
     1
102
RTVSPropertyOp25
 70
     1
102
RTVSPropertyOp26
 70
     1
102
RTVSPropertyOp27
 70
     1
102
RTVSPropertyOp28
 70
     1
102
RTVSPropertyOp29
 70
     1
102
RTVSPropertyOp30
 70
     1
102
RTVSPropertyOp31
 70
     1
102
RTVSPropertyOp32
 70
     1
102
RTVSPropertyOp33
 70
     1
102
RTVSPropertyOp34
 70
     1
102
RTVSPropertyOp35
 70
     1
102
RTVSPropertyOp36
 70
     1
102
RTVSPropertyOp37
 70
     1
102
RTVSPropertyOp38
 70
     1
102
RTVSPropertyOp39
 70
     1
102
RTVSPropertyOp40
 70
     1
102
RTVSPropertyOp41
 70
     1
102
RTVSPropertyOp42
 70
     1
102
RTVSPropertyOp43
 70
     1
102
RTVSPropertyOp44
 70
     1
102
RTVSPropertyOp45
 70
     1
102
RTVSPropertyOp46
 70
     1
102
RTVSPropertyOp47
 70
     1
102
RTVSPropertyOp48
 70
     1
102
RTVSPropertyOp49
 70
     1
102
RTVSPropertyOp50
 70
     1
102
RTVSPropertyOp51
 70
     0
102
RTVSPropertyOp52
 70
     0
102
RTVSPropertyOp53
 70
     1
102
RTVSPropertyOp54
 70
     1
102
RTVSPropertyOp55
 70
     1
102
RTVSPropertyOp56
 70
     1
102
RTVSPropertyOp57
 70
     1
102
RTVSPropertyOp58
 70
     1
102
RTVSPropertyOp59
 70
     1
102
RTVSPropertyOp60
 70
     1
102
RTVSPropertyOp61
 70
     1
102
RTVSPropertyOp62
 70
     1
  0
XRECORD
  5
9CC9
102
{ACAD_REACTORS
330
9CC8
102
}
330
9CC8
100
AcDbXrecord
280
     1
102
RTVSPost2010Prop28
280
     0
102
RTVSPost2010PropOp28
 70
     1
102
RTVSPost2010Prop29
280
     1
102
RTVSPost2010PropOp29
 70
     1
102
RTVSPost2010Prop30
280
     1
102
RTVSPost2010PropOp30
 70
     1
102
RTVSPost2010Prop31
280
     0
102
RTVSPost2010PropOp31
 70
     1
102
RTVSPost2010Prop32
280
     0
102
RTVSPost2010PropOp32
 70
     1
102
RTVSPost2010Prop33
280
     0
102
RTVSPost2010PropOp33
 70
     1
102
RTVSPost2010Prop34
280
     0
102
RTVSPost2010PropOp34
 70
     1
102
RTVSPost2010Prop35
280
     0
102
RTVSPost2010PropOp35
 70
     1
102
RTVSPost2010Prop36
280
     0
102
RTVSPost2010PropOp36
 70
     1
102
RTVSPost2010Prop37
 90
       50
102
RTVSPost2010PropOp37
 70
     1
102
RTVSPost2010Prop38
140
0.0
102
RTVSPost2010PropOp38
 70
     1
102
RTVSPost2010Prop39
140
1.0
102
RTVSPost2010PropOp39
 70
     1
102
RTVSPost2010Prop40
 90
        0
102
RTVSPost2010PropOp40
 70
     1
102
RTVSPost2010Prop41ColorIndex
 90
       18
102
RTVSPost2010Prop41ColorRGB
 90
        0
102
RTVSPost2010PropOp41
 70
     1
102
RTVSPost2010Prop42
 90
       50
102
RTVSPost2010PropOp42
 70
     1
102
RTVSPost2010Prop43
 90
        3
102
RTVSPost2010PropOp43
 70
     1
102
RTVSPost2010Prop44ColorIndex
 90
        5
102
RTVSPost2010Prop44ColorRGB
 90
      255
102
RTVSPost2010PropOp44
 70
     1
102
RTVSPost2010Prop45
280
     0
102
RTVSPost2010PropOp45
 70
     1
102
RTVSPost2010Prop46
 90
       50
102
RTVSPost2010PropOp46
 70
     1
102
RTVSPost2010Prop47
 90
       50
102
RTVSPost2010PropOp47
 70
     1
102
RTVSPost2010Prop48
 90
       50
102
RTVSPost2010PropOp48
 70
     1
102
RTVSPost2010Prop49
280
     0
102
RTVSPost2010PropOp49
 70
     1
102
RTVSPost2010Prop50
 90
       50
102
RTVSPost2010PropOp50
 70
     1
102
RTVSPost2010Prop51ColorIndex
 90
      256
102
RTVSPost2010Prop51ColorRGB
 90
-16777216
102
RTVSPost2010PropOp51
 70
     0
102
RTVSPost2010Prop52
140
1.0
102
RTVSPost2010PropOp52
 70
     0
102
RTVSPost2010Prop53
 90
        2
102
RTVSPost2010PropOp53
 70
     1
102
RTVSPost2010Prop54
  1
strokes_ogs.tif
102
RTVSPost2010PropOp54
 70
     1
102
RTVSPost2010Prop55
280
     0
102
RTVSPost2010PropOp55
 70
     1
102
RTVSPost2010Prop56
140
1.0
102
RTVSPost2010PropOp56
 70
     1
102
RTVSPost2010Prop57
140
1.0
102
RTVSPost2010PropOp57
 70
     1
102
RTVSPropertyOp0
 70
     1
102
RTVSPropertyOp1
 70
     1
102
RTVSPropertyOp2
 70
     1
102
RTVSPropertyOp3
 70
     1
102
RTVSPropertyOp4
 70
     1
102
RTVSPropertyOp5
 70
     1
102
RTVSPropertyOp6
 70
     1
102
RTVSPropertyOp7
 70
     1
102
RTVSPropertyOp8
 70
     1
102
RTVSPropertyOp9
 70
     1
102
RTVSPropertyOp10
 70
     1
102
RTVSPropertyOp11
 70
     1
102
RTVSPropertyOp12
 70
     1
102
RTVSPropertyOp13
 70
     1
102
RTVSPropertyOp14
 70
     1
102
RTVSPropertyOp15
 70
     1
102
RTVSPropertyOp16
 70
     1
102
RTVSPropertyOp17
 70
     1
102
RTVSPropertyOp18
 70
     1
102
RTVSPropertyOp19
 70
     1
102
RTVSPropertyOp20
 70
     1
102
RTVSPropertyOp21
 70
     1
102
RTVSPropertyOp22
 70
     1
102
RTVSPropertyOp23
 70
     1
102
RTVSPropertyOp24
 70
     1
102
RTVSPropertyOp25
 70
     1
102
RTVSPropertyOp26
 70
     1
102
RTVSPropertyOp27
 70
     1
102
RTVSPropertyOp28
 70
     1
102
RTVSPropertyOp29
 70
     1
102
RTVSPropertyOp30
 70
     1
102
RTVSPropertyOp31
 70
     1
102
RTVSPropertyOp32
 70
     1
102
RTVSPropertyOp33
 70
     1
102
RTVSPropertyOp34
 70
     1
102
RTVSPropertyOp35
 70
     1
102
RTVSPropertyOp36
 70
     1
102
RTVSPropertyOp37
 70
     1
102
RTVSPropertyOp38
 70
     1
102
RTVSPropertyOp39
 70
     1
102
RTVSPropertyOp40
 70
     1
102
RTVSPropertyOp41
 70
     1
102
RTVSPropertyOp42
 70
     1
102
RTVSPropertyOp43
 70
     1
102
RTVSPropertyOp44
 70
     1
102
RTVSPropertyOp45
 70
     1
102
RTVSPropertyOp46
 70
     1
102
RTVSPropertyOp47
 70
     1
102
RTVSPropertyOp48
 70
     1
102
RTVSPropertyOp49
 70
     1
102
RTVSPropertyOp50
 70
     1
102
RTVSPropertyOp51
 70
     0
102
RTVSPropertyOp52
 70
     0
102
RTVSPropertyOp53
 70
     1
102
RTVSPropertyOp54
 70
     1
102
RTVSPropertyOp55
 70
     1
102
RTVSPropertyOp56
 70
     1
102
RTVSPropertyOp57
 70
     1
102
RTVSPropertyOp58
 70
     1
102
RTVSPropertyOp59
 70
     1
102
RTVSPropertyOp60
 70
     1
102
RTVSPropertyOp61
 70
     1
102
RTVSPropertyOp62
 70
     1
  0
XRECORD
  5
9CE1
102
{ACAD_REACTORS
330
9CE0
102
}
330
9CE0
100
AcDbXrecord
280
     1
102
RTVSPost2010Prop28
280
     0
102
RTVSPost2010PropOp28
 70
     1
102
RTVSPost2010Prop29
280
     1
102
RTVSPost2010PropOp29
 70
     1
102
RTVSPost2010Prop30
280
     1
102
RTVSPost2010PropOp30
 70
     1
102
RTVSPost2010Prop31
280
     0
102
RTVSPost2010PropOp31
 70
     1
102
RTVSPost2010Prop32
280
     0
102
RTVSPost2010PropOp32
 70
     1
102
RTVSPost2010Prop33
280
     0
102
RTVSPost2010PropOp33
 70
     1
102
RTVSPost2010Prop34
280
     0
102
RTVSPost2010PropOp34
 70
     1
102
RTVSPost2010Prop35
280
     0
102
RTVSPost2010PropOp35
 70
     1
102
RTVSPost2010Prop36
280
     0
102
RTVSPost2010PropOp36
 70
     1
102
RTVSPost2010Prop37
 90
       50
102
RTVSPost2010PropOp37
 70
     1
102
RTVSPost2010Prop38
140
0.0
102
RTVSPost2010PropOp38
 70
     1
102
RTVSPost2010Prop39
140
1.0
102
RTVSPost2010PropOp39
 70
     1
102
RTVSPost2010Prop40
 90
        0
102
RTVSPost2010PropOp40
 70
     1
102
RTVSPost2010Prop41ColorIndex
 90
       18
102
RTVSPost2010Prop41ColorRGB
 90
        0
102
RTVSPost2010PropOp41
 70
     1
102
RTVSPost2010Prop42
 90
       50
102
RTVSPost2010PropOp42
 70
     1
102
RTVSPost2010Prop43
 90
        3
102
RTVSPost2010PropOp43
 70
     1
102
RTVSPost2010Prop44ColorIndex
 90
        5
102
RTVSPost2010Prop44ColorRGB
 90
      255
102
RTVSPost2010PropOp44
 70
     1
102
RTVSPost2010Prop45
280
     0
102
RTVSPost2010PropOp45
 70
     1
102
RTVSPost2010Prop46
 90
       50
102
RTVSPost2010PropOp46
 70
     1
102
RTVSPost2010Prop47
 90
       50
102
RTVSPost2010PropOp47
 70
     1
102
RTVSPost2010Prop48
 90
       50
102
RTVSPost2010PropOp48
 70
     1
102
RTVSPost2010Prop49
280
     0
102
RTVSPost2010PropOp49
 70
     1
102
RTVSPost2010Prop50
 90
       50
102
RTVSPost2010PropOp50
 70
     1
102
RTVSPost2010Prop51ColorIndex
 90
      256
102
RTVSPost2010Prop51ColorRGB
 90
-16777216
102
RTVSPost2010PropOp51
 70
     0
102
RTVSPost2010Prop52
140
1.0
102
RTVSPost2010PropOp52
 70
     0
102
RTVSPost2010Prop53
 90
        2
102
RTVSPost2010PropOp53
 70
     1
102
RTVSPost2010Prop54
  1
strokes_ogs.tif
102
RTVSPost2010PropOp54
 70
     1
102
RTVSPost2010Prop55
280
     0
102
RTVSPost2010PropOp55
 70
     1
102
RTVSPost2010Prop56
140
1.0
102
RTVSPost2010PropOp56
 70
     1
102
RTVSPost2010Prop57
140
1.0
102
RTVSPost2010PropOp57
 70
     1
102
RTVSPropertyOp0
 70
     1
102
RTVSPropertyOp1
 70
     1
102
RTVSPropertyOp2
 70
     1
102
RTVSPropertyOp3
 70
     1
102
RTVSPropertyOp4
 70
     1
102
RTVSPropertyOp5
 70
     1
102
RTVSPropertyOp6
 70
     1
102
RTVSPropertyOp7
 70
     1
102
RTVSPropertyOp8
 70
     1
102
RTVSPropertyOp9
 70
     1
102
RTVSPropertyOp10
 70
     1
102
RTVSPropertyOp11
 70
     1
102
RTVSPropertyOp12
 70
     1
102
RTVSPropertyOp13
 70
     1
102
RTVSPropertyOp14
 70
     1
102
RTVSPropertyOp15
 70
     1
102
RTVSPropertyOp16
 70
     1
102
RTVSPropertyOp17
 70
     1
102
RTVSPropertyOp18
 70
     1
102
RTVSPropertyOp19
 70
     1
102
RTVSPropertyOp20
 70
     1
102
RTVSPropertyOp21
 70
     1
102
RTVSPropertyOp22
 70
     1
102
RTVSPropertyOp23
 70
     1
102
RTVSPropertyOp24
 70
     1
102
RTVSPropertyOp25
 70
     1
102
RTVSPropertyOp26
 70
     1
102
RTVSPropertyOp27
 70
     1
102
RTVSPropertyOp28
 70
     1
102
RTVSPropertyOp29
 70
     1
102
RTVSPropertyOp30
 70
     1
102
RTVSPropertyOp31
 70
     1
102
RTVSPropertyOp32
 70
     1
102
RTVSPropertyOp33
 70
     1
102
RTVSPropertyOp34
 70
     1
102
RTVSPropertyOp35
 70
     1
102
RTVSPropertyOp36
 70
     1
102
RTVSPropertyOp37
 70
     1
102
RTVSPropertyOp38
 70
     1
102
RTVSPropertyOp39
 70
     1
102
RTVSPropertyOp40
 70
     1
102
RTVSPropertyOp41
 70
     1
102
RTVSPropertyOp42
 70
     1
102
RTVSPropertyOp43
 70
     1
102
RTVSPropertyOp44
 70
     1
102
RTVSPropertyOp45
 70
     1
102
RTVSPropertyOp46
 70
     1
102
RTVSPropertyOp47
 70
     1
102
RTVSPropertyOp48
 70
     1
102
RTVSPropertyOp49
 70
     1
102
RTVSPropertyOp50
 70
     1
102
RTVSPropertyOp51
 70
     0
102
RTVSPropertyOp52
 70
     0
102
RTVSPropertyOp53
 70
     1
102
RTVSPropertyOp54
 70
     1
102
RTVSPropertyOp55
 70
     1
102
RTVSPropertyOp56
 70
     1
102
RTVSPropertyOp57
 70
     1
102
RTVSPropertyOp58
 70
     1
102
RTVSPropertyOp59
 70
     1
102
RTVSPropertyOp60
 70
     1
102
RTVSPropertyOp61
 70
     1
102
RTVSPropertyOp62
 70
     1
  0
ENDSEC
  0
EOF
