  0
SECTION
  2
HEADER
  9
$ACADVER
  1
AC1024
  9
$DWGCODEPAGE
  3
ANSI_932
  9
$LTSCALE
 40
20.0
  9
$FILLMODE
 70
     1
  9
$CLAYER
  8
0
  9
$PDMODE
 70
     0
  9
$SPLFRAME
 70
     0
  9
$SPLINETYPE
 70
     6
  9
$SPLINESEGS
 70
     8
  9
$DIMASZ
 40
2.000000
  9
$DIMEXE
 40
1.500000
  9
$DIMEXO
 40
0.800000
  9
$DIMTAD
 70
     1
  9
$DIMTIH
 70
     0
  9
$DIMTOH
 70
     0
  9
$DIMTVP
 40
0.500000
  9
$DIMTXT
 40
3.100000
  9
$EXTMIN
 10
0.000000
 20
0.000000
 30
0.000000
  9
$EXTMAX
 10
297.000000
 20
420.000000
 30
0.000000
  9
$MEASUREMENT
 70
  1
  9
$LIMMIN
 10
0.000000
 20
0.000000
  9
$LIMMAX
 10
297.000000
 20
420.000000
  9
$HANDSEED
  5
24D
  9
$LWDISPLAY
290
     0
  9
$DIMBLK
  1
_OPEN
  9
$DIMDEC
 70
     2
  9
$DIMADEC
 70
     2
  9
$DIMAUNIT
 70
     0
  9
$DIMZIN
 70
     8
  9
$DIMAZIN
 70
     2
  9
$DIMTOFL
 70
     1
  0
ENDSEC
  0
SECTION
  2
CLASSES
  0
ENDSEC
  0
SECTION
  2
TABLES
  0
TABLE
  2
VPORT
  5
212
100
AcDbSymbolTable
 70
     1
  0
VPORT
  5
213
100
AcDbSymbolTableRecord
100
AcDbViewportTableRecord
  2
*ACTIVE
 70
     0
 12
93.474647
 22
97.676803
 40
159.353604
 41
1.047666
  0
ENDTAB
  0
TABLE
  2
LTYPE
  5
214
100
AcDbSymbolTable
 70
     4
  0
LTYPE
  5
215
100
AcDbSymbolTableRecord
100
AcDbLinetypeTableRecord
  2
BYBLOCK
 70
     0
  3

 72
    65
 73
     0
 40
0.0
  0
LTYPE
  5
216
100
AcDbSymbolTableRecord
100
AcDbLinetypeTableRecord
  2
BYLAYER
 70
     0
  3

 72
    65
 73
     0
 40
0.0
  0
LTYPE
  5
217
100
AcDbSymbolTableRecord
100
AcDbLinetypeTableRecord
  2
CONTINUOUS
 70
     0
  3
Solid line (NEC CAE2D for Win R18.0 : 2025.12.19)
 72
    65
 73
     0
 40
0.0
  0
LTYPE
  5
218
100
AcDbSymbolTableRecord
100
AcDbLinetypeTableRecord
  2
DASHED
 70
     0
  3
__ __ __ __ __ __ __ __ __ __ __ __ __ _
 72
    65
 73
     2
 40
0.75
 49
0.5
 74
     0
 49
-0.25
 74
     0
  0
LTYPE
  5
219
100
AcDbSymbolTableRecord
100
AcDbLinetypeTableRecord
  2
CENTER
 70
     0
  3
____ _ ____ _ ____ _ ____ _ ____ _ ____
 72
    65
 73
     4
 40
2.0
 49
1.25
 74
     0
 49
-0.25
 74
     0
 49
0.25
 74
     0
 49
-0.25
 74
     0
  0
LTYPE
  5
21A
100
AcDbSymbolTableRecord
100
AcDbLinetypeTableRecord
  2
PHANTOM
 70
     0
  3
______  __  __  ______  __  __  ______ 
 72
    65
 73
     6
 40
2.5
 49
1.25
 74
     0
 49
-0.25
 74
     0
 49
0.25
 74
     0
 49
-0.25
 74
     0
 49
0.25
 74
     0
 49
-0.25
 74
     0
  0
ENDTAB
  0
TABLE
  2
LAYER
  5
21B
100
AcDbSymbolTable
 70
    19
  0
LAYER
  5
21C
100
AcDbSymbolTableRecord
100
AcDbLayerTableRecord
  2
0
 70
     0
 62
     7
  6
CONTINUOUS
370
    -3
390

  0
LAYER
  5
21D
100
AcDbSymbolTableRecord
100
AcDbLayerTableRecord
  2
DXF0
 70
     0
 62
     7
  6
CONTINUOUS
370
    -3
390

  0
LAYER
  5
21E
100
AcDbSymbolTableRecord
100
AcDbLayerTableRecord
  2
A0
 70
     0
 62
     9
  6
CONTINUOUS
370
    -3
390

  0
LAYER
  5
21F
100
AcDbSymbolTableRecord
100
AcDbLayerTableRecord
  2
A1
 70
     0
 62
     1
  6
CONTINUOUS
370
    -3
390

  0
LAYER
  5
220
100
AcDbSymbolTableRecord
100
AcDbLayerTableRecord
  2
A2
 70
     0
 62
     9
  6
CONTINUOUS
370
    -3
390

  0
LAYER
  5
221
100
AcDbSymbolTableRecord
100
AcDbLayerTableRecord
  2
A3
 70
     0
 62
    12
  6
CONTINUOUS
370
    -3
390

  0
LAYER
  5
222
100
AcDbSymbolTableRecord
100
AcDbLayerTableRecord
  2
A4
 70
     0
 62
     9
  6
CONTINUOUS
370
    -3
390

  0
LAYER
  5
223
100
AcDbSymbolTableRecord
100
AcDbLayerTableRecord
  2
A5
 70
     0
 62
     8
  6
CONTINUOUS
370
    -3
390

  0
LAYER
  5
224
100
AcDbSymbolTableRecord
100
AcDbLayerTableRecord
  2
A6
 70
     0
 62
    12
  6
CONTINUOUS
370
    -3
390

  0
LAYER
  5
225
100
AcDbSymbolTableRecord
100
AcDbLayerTableRecord
  2
A7
 70
     0
 62
    12
  6
CONTINUOUS
370
    -3
390

  0
LAYER
  5
226
100
AcDbSymbolTableRecord
100
AcDbLayerTableRecord
  2
A8
 70
     0
 62
    10
  6
CONTINUOUS
370
    -3
390

  0
LAYER
  5
227
100
AcDbSymbolTableRecord
100
AcDbLayerTableRecord
  2
A9
 70
     0
 62
     9
  6
CONTINUOUS
370
    -3
390

  0
LAYER
  5
228
100
AcDbSymbolTableRecord
100
AcDbLayerTableRecord
  2
A10
 70
     0
 62
     6
  6
CONTINUOUS
370
    -3
390

  0
LAYER
  5
229
100
AcDbSymbolTableRecord
100
AcDbLayerTableRecord
  2
A20
 70
     0
 62
     1
  6
CONTINUOUS
370
    -3
390

  0
LAYER
  5
22A
100
AcDbSymbolTableRecord
100
AcDbLayerTableRecord
  2
A30
 70
     0
 62
     1
  6
CONTINUOUS
370
    -3
390

  0
LAYER
  5
22B
100
AcDbSymbolTableRecord
100
AcDbLayerTableRecord
  2
A40
 70
     0
 62
     9
  6
CONTINUOUS
370
    -3
390

  0
LAYER
  5
22C
100
AcDbSymbolTableRecord
100
AcDbLayerTableRecord
  2
A50
 70
     0
 62
    12
  6
CONTINUOUS
370
    -3
390

  0
LAYER
  5
22D
100
AcDbSymbolTableRecord
100
AcDbLayerTableRecord
  2
A1023
 70
     0
 62
     8
  6
CONTINUOUS
370
    -3
390

  0
LAYER
  5
22E
100
AcDbSymbolTableRecord
100
AcDbLayerTableRecord
  2
DXF1023
 70
     0
 62
    16
  6
CONTINUOUS
370
    -3
390

  0
ENDTAB
  0
TABLE
  2
STYLE
  5
22F
100
AcDbSymbolTable
 70
     4
  0
STYLE
  5
230
100
AcDbSymbolTableRecord
100
AcDbTextStyleTableRecord
  2
STANDARD
 70
    64
 40
0.0
 41
1.0
 50
0.0
 71
     0
 42
3.000000000000000
  3
TXT
  4

  0
STYLE
  5
231
100
AcDbSymbolTableRecord
100
AcDbTextStyleTableRecord
  2
ANKTATE
 70
    68
 40
0.0
 41
1.0
 50
0.0
 71
     0
 42
3.000000000000000
  3
TXT
  4

  0
STYLE
  5
232
100
AcDbSymbolTableRecord
100
AcDbTextStyleTableRecord
  2
KNJYOKO
 70
    64
 40
0.0
 41
1.0
 50
0.0
 71
     0
 42
3.000000000000000
  3
TXT
  4
BIGFONT
  0
STYLE
  5
233
100
AcDbSymbolTableRecord
100
AcDbTextStyleTableRecord
  2
KNJTATE
 70
    68
 40
0.0
 41
1.0
 50
0.0
 71
     0
 42
3.000000000000000
  3
TXT
  4
BIGFONT
  0
ENDTAB
  0
TABLE
  2
VIEW
  5
234
100
AcDbSymbolTable
 70
     0
  0
ENDTAB
  0
TABLE
  2
UCS
  5
235
100
AcDbSymbolTable
 70
     0
  0
ENDTAB
  0
TABLE
  2
APPID
  5
236
100
AcDbSymbolTable
 70
     1
  0
APPID
  5
237
100
AcDbSymbolTableRecord
100
AcDbRegAppTableRecord
  2
ACAD
 70
     0
  0
ENDTAB
  0
TABLE
  2
DIMSTYLE
  5
238
100
AcDbSymbolTable
 70
     2
100
AcDbDimStyleTable
  0
DIMSTYLE
105
239
100
AcDbSymbolTableRecord
100
AcDbDimStyleTableRecord
  2
STANDARD
 70
     0
 41
2.000000
 44
1.500000
 42
0.800000
145
0.661290
140
3.100000
144
1.000000
146
0.645161
340
230
  0
DIMSTYLE
105
23A
100
AcDbSymbolTableRecord
100
AcDbDimStyleTableRecord
  2
DXF001
 70
     0
 41
2.000000
 44
1.500000
 42
0.800000
145
0.661290
140
3.100000
144
1.000000
146
0.645161
 77
     1
 73
     0
 74
     0
271
     2
179
     2
275
     0
 78
     8
 79
     2
172
     1
340
230
  0
ENDTAB
  0
TABLE
  2
BLOCK_RECORD
  5
23B
100
AcDbSymbolTable
 70
    12
  0
BLOCK_RECORD
  5
23C
100
AcDbSymbolTableRecord
100
AcDbBlockTableRecord
  2
*MODEL_SPACE
  0
BLOCK_RECORD
  5
23D
100
AcDbSymbolTableRecord
100
AcDbBlockTableRecord
  2
*PAPER_SPACE
  0
BLOCK_RECORD
  5
23E
100
AcDbSymbolTableRecord
100
AcDbBlockTableRecord
  2
*PAPER_SPACE0
  0
BLOCK_RECORD
  5
1
100
AcDbSymbolTableRecord
100
AcDbBlockTableRecord
  2
_NONE
  0
BLOCK_RECORD
  5
4
100
AcDbSymbolTableRecord
100
AcDbBlockTableRecord
  2
_CLOSED
  0
BLOCK_RECORD
  5
B
100
AcDbSymbolTableRecord
100
AcDbBlockTableRecord
  2
_DOT
  0
BLOCK_RECORD
  5
13
100
AcDbSymbolTableRecord
100
AcDbBlockTableRecord
  2
_OPEN
  0
BLOCK_RECORD
  5
19
100
AcDbSymbolTableRecord
100
AcDbBlockTableRecord
  2
_ORIGIN
  0
BLOCK_RECORD
  5
1E
100
AcDbSymbolTableRecord
100
AcDbBlockTableRecord
  2
_OPEN30
  0
BLOCK_RECORD
  5
24
100
AcDbSymbolTableRecord
100
AcDbBlockTableRecord
  2
_BOXFILLED
  0
BLOCK_RECORD
  5
29
100
AcDbSymbolTableRecord
100
AcDbBlockTableRecord
  2
_BOXBLANK
  0
BLOCK_RECORD
  5
31
100
AcDbSymbolTableRecord
100
AcDbBlockTableRecord
  2
_OBLIQUE
  0
BLOCK_RECORD
  5
35
100
AcDbSymbolTableRecord
100
AcDbBlockTableRecord
  2
_OPEN90
  0
BLOCK_RECORD
  5
3B
100
AcDbSymbolTableRecord
100
AcDbBlockTableRecord
  2
_CLOSEDBLANK
  0
BLOCK_RECORD
  5
41
100
AcDbSymbolTableRecord
100
AcDbBlockTableRecord
  2
_DOTBLANK
  0
ENDTAB
  0
ENDSEC
  0
SECTION
  2
BLOCKS
  0
BLOCK
  5
23F
100
AcDbEntity
  8
0
100
AcDbBlockBegin
  2
*MODEL_SPACE
 70
     0
 10
0.0
 20
0.0
 30
0.0
  3
*MODEL_SPACE
  1

  0
ENDBLK
  5
240
100
AcDbEntity
  8
0
100
AcDbBlockEnd
  0
BLOCK
  5
241
100
AcDbEntity
  8
0
100
AcDbBlockBegin
  2
*PAPER_SPACE
 70
     0
 10
0.0
 20
0.0
 30
0.0
  3
*PAPER_SPACE
  1

  0
ENDBLK
  5
242
100
AcDbEntity
  8
0
100
AcDbBlockEnd
  0
BLOCK
  5
243
100
AcDbEntity
  8
0
100
AcDbBlockBegin
  2
*PAPER_SPACE0
 70
     0
 10
0.0
 20
0.0
 30
0.0
  3
*PAPER_SPACE0
  1

  0
ENDBLK
  5
244
100
AcDbEntity
  8
0
100
AcDbBlockEnd
  0
BLOCK
  5
2
330
1
100
AcDbEntity
  8
0
100
AcDbBlockBegin
  2
_NONE
 70
     0
 10
0.0
 20
0.0
 30
0.0
  3
_NONE
  1

  0
ENDBLK
  5
3
330
1
100
AcDbEntity
  8
0
100
AcDbBlockEnd
  0
BLOCK
  5
5
330
4
100
AcDbEntity
  8
0
100
AcDbBlockBegin
  2
_CLOSED
 70
     0
 10
0.0
 20
0.0
 30
0.0
  3
_CLOSED
  1

  0
LINE
  5
6
330
4
100
AcDbEntity
  8
0
  6
BYBLOCK
 62
     0
370
    -2
100
AcDbLine
 10
-1.0
 20
0.166667
 30
0.0
 11
0.0
 21
0.0
 31
0.0
  0
LINE
  5
7
330
4
100
AcDbEntity
  8
0
  6
BYBLOCK
 62
     0
370
    -2
100
AcDbLine
 10
0.0
 20
0.0
 30
0.0
 11
-1.0
 21
-0.166667
 31
0.0
  0
LINE
  5
8
330
4
100
AcDbEntity
  8
0
  6
BYBLOCK
 62
     0
370
    -2
100
AcDbLine
 10
-1.0
 20
0.166667
 30
0.0
 11
-1.0
 21
-0.166667
 31
0.0
  0
LINE
  5
9
330
4
100
AcDbEntity
  8
0
  6
BYBLOCK
 62
     0
370
    -2
100
AcDbLine
 10
0.0
 20
0.0
 30
0.0
 11
-1.0
 21
0.0
 31
0.0
  0
ENDBLK
  5
A
330
4
100
AcDbEntity
  8
0
100
AcDbBlockEnd
  0
BLOCK
  5
C
330
B
100
AcDbEntity
  8
0
100
AcDbBlockBegin
  2
_DOT
 70
     0
 10
0.0
 20
0.0
 30
0.0
  3
_DOT
  1

  0
POLYLINE
  5
D
330
B
100
AcDbEntity
  8
0
  6
BYBLOCK
 62
     0
370
    -2
100
AcDb2dPolyline
 66
     1
 10
0.0
 20
0.0
 30
0.0
 70
     1
 40
0.5
 41
0.5
  0
VERTEX
  5
E
330
B
100
AcDbEntity
  8
0
  6
BYBLOCK
 62
     0
370
    -2
100
AcDbVertex
100
AcDb2dVertex
 10
-0.25
 20
0.0
 30
0.0
 42
1.0
  0
VERTEX
  5
F
330
B
100
AcDbEntity
  8
0
  6
BYBLOCK
 62
     0
370
    -2
100
AcDbVertex
100
AcDb2dVertex
 10
0.25
 20
0.0
 30
0.0
 42
1.0
  0
SEQEND
  5
10
330
B
100
AcDbEntity
  8
0
  6
BYBLOCK
 62
     0
370
    -2
  0
LINE
  5
11
330
B
100
AcDbEntity
  8
0
  6
BYBLOCK
 62
     0
370
    -2
100
AcDbLine
 10
-0.5
 20
0.0
 30
0.0
 11
-1.0
 21
0.0
 31
0.0
  0
ENDBLK
  5
12
330
B
100
AcDbEntity
  8
0
100
AcDbBlockEnd
  0
BLOCK
  5
14
330
13
100
AcDbEntity
  8
0
100
AcDbBlockBegin
  2
_OPEN
 70
     0
 10
0.0
 20
0.0
 30
0.0
  3
_OPEN
  1

  0
LINE
  5
15
330
13
100
AcDbEntity
  8
0
  6
BYBLOCK
 62
     0
370
    -2
100
AcDbLine
 10
-1.0
 20
0.166667
 30
0.0
 11
0.0
 21
0.0
 31
0.0
  0
LINE
  5
16
330
13
100
AcDbEntity
  8
0
  6
BYBLOCK
 62
     0
370
    -2
100
AcDbLine
 10
0.0
 20
0.0
 30
0.0
 11
-1.0
 21
-0.166667
 31
0.0
  0
LINE
  5
17
330
13
100
AcDbEntity
  8
0
  6
BYBLOCK
 62
     0
370
    -2
100
AcDbLine
 10
0.0
 20
0.0
 30
0.0
 11
-1.0
 21
0.0
 31
0.0
  0
ENDBLK
  5
18
330
13
100
AcDbEntity
  8
0
100
AcDbBlockEnd
  0
BLOCK
  5
1A
330
19
100
AcDbEntity
  8
0
100
AcDbBlockBegin
  2
_ORIGIN
 70
     0
 10
0.0
 20
0.0
 30
0.0
  3
_ORIGIN
  1

  0
CIRCLE
  5
1B
330
19
100
AcDbEntity
  8
0
  6
BYBLOCK
 62
     0
370
    -2
100
AcDbCircle
 10
0.0
 20
0.0
 30
0.0
 40
0.5
  0
LINE
  5
1C
330
19
100
AcDbEntity
  8
0
  6
BYBLOCK
 62
     0
370
    -2
100
AcDbLine
 10
0.0
 20
0.0
 30
0.0
 11
-1.0
 21
0.0
 31
0.0
  0
ENDBLK
  5
1D
330
19
100
AcDbEntity
  8
0
100
AcDbBlockEnd
  0
BLOCK
  5
1F
330
1E
100
AcDbEntity
  8
0
100
AcDbBlockBegin
  2
_OPEN30
 70
     0
 10
0.0
 20
0.0
 30
0.0
  3
_OPEN30
  1

  0
LINE
  5
20
330
1E
100
AcDbEntity
  8
0
  6
BYBLOCK
 62
     0
370
    -2
100
AcDbLine
 10
-1.0
 20
0.267949
 30
0.0
 11
0.0
 21
0.0
 31
0.0
  0
LINE
  5
21
330
1E
100
AcDbEntity
  8
0
  6
BYBLOCK
 62
     0
370
    -2
100
AcDbLine
 10
0.0
 20
0.0
 30
0.0
 11
-1.0
 21
-0.267949
 31
0.0
  0
LINE
  5
22
330
1E
100
AcDbEntity
  8
0
  6
BYBLOCK
 62
     0
370
    -2
100
AcDbLine
 10
0.0
 20
0.0
 30
0.0
 11
-1.0
 21
0.0
 31
0.0
  0
ENDBLK
  5
23
330
1E
100
AcDbEntity
  8
0
100
AcDbBlockEnd
  0
BLOCK
  5
25
330
24
100
AcDbEntity
  8
0
100
AcDbBlockBegin
  2
_BOXFILLED
 70
     0
 10
0.0
 20
0.0
 30
0.0
  3
_BOXFILLED
  1

  0
SOLID
  5
26
330
24
100
AcDbEntity
  8
0
  6
BYBLOCK
 62
     0
370
    -2
100
AcDbTrace
 10
-0.5
 20
0.5
 30
0.0
 11
0.5
 21
0.5
 31
0.0
 12
-0.5
 22
-0.5
 32
0.0
 13
0.5
 23
-0.5
 33
0.0
  0
LINE
  5
27
330
24
100
AcDbEntity
  8
0
  6
BYBLOCK
 62
     0
370
    -2
100
AcDbLine
 10
-0.5
 20
0.0
 30
0.0
 11
-1.0
 21
0.0
 31
0.0
  0
ENDBLK
  5
28
330
24
100
AcDbEntity
  8
0
100
AcDbBlockEnd
  0
BLOCK
  5
2A
330
29
100
AcDbEntity
  8
0
100
AcDbBlockBegin
  2
_BOXBLANK
 70
     0
 10
0.0
 20
0.0
 30
0.0
  3
_BOXBLANK
  1

  0
LINE
  5
2B
330
29
100
AcDbEntity
  8
0
  6
BYBLOCK
 62
     0
370
    -2
100
AcDbLine
 10
-0.5
 20
-0.5
 30
0.0
 11
0.5
 21
-0.5
 31
0.0
  0
LINE
  5
2C
330
29
100
AcDbEntity
  8
0
  6
BYBLOCK
 62
     0
370
    -2
100
AcDbLine
 10
0.5
 20
-0.5
 30
0.0
 11
0.5
 21
0.5
 31
0.0
  0
LINE
  5
2D
330
29
100
AcDbEntity
  8
0
  6
BYBLOCK
 62
     0
370
    -2
100
AcDbLine
 10
0.5
 20
0.5
 30
0.0
 11
-0.5
 21
0.5
 31
0.0
  0
LINE
  5
2E
330
29
100
AcDbEntity
  8
0
  6
BYBLOCK
 62
     0
370
    -2
100
AcDbLine
 10
-0.5
 20
0.5
 30
0.0
 11
-0.5
 21
-0.5
 31
0.0
  0
LINE
  5
2F
330
29
100
AcDbEntity
  8
0
  6
BYBLOCK
 62
     0
370
    -2
100
AcDbLine
 10
-0.5
 20
0.0
 30
0.0
 11
-1.0
 21
0.0
 31
0.0
  0
ENDBLK
  5
30
330
29
100
AcDbEntity
  8
0
100
AcDbBlockEnd
  0
BLOCK
  5
32
330
31
100
AcDbEntity
  8
0
100
AcDbBlockBegin
  2
_OBLIQUE
 70
     0
 10
0.0
 20
0.0
 30
0.0
  3
_OBLIQUE
  1

  0
LINE
  5
33
330
31
100
AcDbEntity
  8
0
  6
BYBLOCK
 62
     0
370
    -2
100
AcDbLine
 10
-0.5
 20
-0.5
 30
0.0
 11
0.5
 21
0.5
 31
0.0
  0
ENDBLK
  5
34
330
31
100
AcDbEntity
  8
0
100
AcDbBlockEnd
  0
BLOCK
  5
36
330
35
100
AcDbEntity
  8
0
100
AcDbBlockBegin
  2
_OPEN90
 70
     0
 10
0.0
 20
0.0
 30
0.0
  3
_OPEN90
  1

  0
LINE
  5
37
330
35
100
AcDbEntity
  8
0
  6
BYBLOCK
 62
     0
370
    -2
100
AcDbLine
 10
-0.5
 20
0.5
 30
0.0
 11
0.0
 21
0.0
 31
0.0
  0
LINE
  5
38
330
35
100
AcDbEntity
  8
0
  6
BYBLOCK
 62
     0
370
    -2
100
AcDbLine
 10
0.0
 20
0.0
 30
0.0
 11
-0.5
 21
-0.5
 31
0.0
  0
LINE
  5
39
330
35
100
AcDbEntity
  8
0
  6
BYBLOCK
 62
     0
370
    -2
100
AcDbLine
 10
0.0
 20
0.0
 30
0.0
 11
-1.0
 21
0.0
 31
0.0
  0
ENDBLK
  5
3A
330
35
100
AcDbEntity
  8
0
100
AcDbBlockEnd
  0
BLOCK
  5
3C
330
3B
100
AcDbEntity
  8
0
100
AcDbBlockBegin
  2
_CLOSEDBLANK
 70
     0
 10
0.0
 20
0.0
 30
0.0
  3
_CLOSEDBLANK
  1

  0
LINE
  5
3D
330
3B
100
AcDbEntity
  8
0
  6
BYBLOCK
 62
     0
370
    -2
100
AcDbLine
 10
-1.0
 20
0.1666666666666666
 30
0.0
 11
0.0
 21
0.0
 31
0.0
  0
LINE
  5
3E
330
3B
100
AcDbEntity
  8
0
  6
BYBLOCK
 62
     0
370
    -2
100
AcDbLine
 10
0.0
 20
0.0
 30
0.0
 11
-1.0
 21
-0.1666666666666666
 31
0.0
  0
LINE
  5
3F
330
3B
100
AcDbEntity
  8
0
  6
BYBLOCK
 62
     0
370
    -2
100
AcDbLine
 10
-1.0
 20
0.1666666666666666
 30
0.0
 11
-1.0
 21
-0.1666666666666666
 31
0.0
  0
ENDBLK
  5
40
330
3B
100
AcDbEntity
  8
0
100
AcDbBlockEnd
  0
BLOCK
  5
42
330
41
100
AcDbEntity
  8
0
100
AcDbBlockBegin
  2
_DOTBLANK
 70
     0
 10
0.0
 20
0.0
 30
0.0
  3
_DOTBLANK
  1

  0
CIRCLE
  5
43
330
41
100
AcDbEntity
  8
0
  6
BYBLOCK
 62
     0
370
    -2
100
AcDbCircle
 10
0.0
 20
0.0
 30
0.0
 40
0.5
  0
LINE
  5
44
330
41
100
AcDbEntity
  8
0
  6
BYBLOCK
 62
     0
370
    -2
100
AcDbLine
 10
-0.5
 20
0.0
 30
0.0
 11
-1.0
 21
0.0
 31
0.0
  0
ENDBLK
  5
45
330
41
100
AcDbEntity
  8
0
100
AcDbBlockEnd
  0
ENDSEC
  0
SECTION
  2
ENTITIES
  0
MTEXT
  5
46
100
AcDbEntity
  8
A7
  6
CONTINUOUS
 62
3
100
AcDbMText
 10
9.999997526638502
 20
18.00000076076889
 30
0.000000000000000
 40
3.000000000000000
 41
0.000000000000000
 44
0.6739999771118164
 71
     7
 72
     1
  1
{\H0.94x;{TYPE No.TL-208SUS-1-H}}
 11
1.000000000000000
 21
0.000000000000000
 31
0.000000000000000
  7
STANDARD
  0
POINT
  5
47
100
AcDbEntity
  8
A0
  6
CONTINUOUS
 62
3
100
AcDbPoint
 10
9.999997526638502
 20
18.00000076076889
 30
0.000000000000000
  0
ARC
  5
48
100
AcDbEntity
  8
A1
  6
CONTINUOUS
 62
7
100
AcDbCircle
 10
57.49999999999994
 20
98.99999999999989
 30
0.000000000000000
 40
7.000000000000000
100
AcDbArc
 50
132.2911878772125
 51
180.0000000000000
  0
LINE
  5
49
100
AcDbEntity
  8
A1
  6
CONTINUOUS
 62
7
100
AcDbLine
 10
50.49999999999990
 20
98.99999999999989
 30
0.000000000000000
 11
50.49999999999990
 21
80.49999999999989
 31
0.000000000000000
  0
LINE
  5
4A
100
AcDbEntity
  8
A1
  6
CONTINUOUS
 62
7
100
AcDbLine
 10
51.49999999999996
 20
79.49999999999997
 30
0.000000000000000
 11
50.49999999999991
 21
80.49999999999994
 31
0.000000000000000
  0
LINE
  5
4B
100
AcDbEntity
  8
A1
  6
CONTINUOUS
 62
7
100
AcDbLine
 10
61.40000355191738
 20
109.0000066104483
 30
0.000000000000000
 11
53.00000355159646
 21
109.0000076429856
 31
0.000000000000000
  0
ARC
  5
4C
100
AcDbEntity
  8
A1
  6
CONTINUOUS
 62
7
100
AcDbCircle
 10
61.40000204170479
 20
96.70000661110203
 30
0.000000000000000
 40
0.8000000000000000
100
AcDbArc
 50
281.1130334994987
 51
461.1130334994988
  0
ARC
  5
4D
100
AcDbEntity
  8
A1
  6
CONTINUOUS
 62
7
100
AcDbCircle
 10
61.40000244610158
 20
100.0000066109765
 30
0.000000000000000
 40
0.8000000000000000
100
AcDbArc
 50
281.1130334994987
 51
461.1130334994988
  0
ARC
  5
4E
100
AcDbEntity
  8
A1
  6
CONTINUOUS
 62
7
100
AcDbCircle
 10
53.00000183823141
 20
95.05000764217300
 30
0.000000000000000
 40
0.8000000000000000
100
AcDbArc
 50
101.1130334994989
 51
281.1130334994987
  0
ARC
  5
4F
100
AcDbEntity
  8
A1
  6
CONTINUOUS
 62
7
100
AcDbCircle
 10
53.00000224362762
 20
98.35000764207729
 30
0.000000000000000
 40
0.8000000000000000
100
AcDbArc
 50
101.1130334994989
 51
281.1130334994987
  0
ARC
  5
50
100
AcDbEntity
  8
A1
  6
CONTINUOUS
 62
7
100
AcDbCircle
 10
53.00000264899370
 20
101.6500076429811
 30
0.000000000000000
 40
0.8000000000000000
100
AcDbArc
 50
101.1130334994989
 51
281.1130334994987
  0
ARC
  5
51
100
AcDbEntity
  8
A1
  6
CONTINUOUS
 62
7
100
AcDbCircle
 10
61.40000285149773
 20
103.3000066108808
 30
0.000000000000000
 40
0.8000000000000000
100
AcDbArc
 50
281.1130334994987
 51
461.1130334994988
  0
ARC
  5
52
100
AcDbEntity
  8
A1
  6
CONTINUOUS
 62
7
100
AcDbCircle
 10
53.00000305438984
 20
104.9500076428855
 30
0.000000000000000
 40
0.8000000000000000
100
AcDbArc
 50
101.1130334994989
 51
281.1130334994987
  0
CIRCLE
  5
53
100
AcDbEntity
  8
A1
  6
CONTINUOUS
 62
7
100
AcDbCircle
 10
61.40000143965642
 20
91.80000661042277
 30
0.000000000000000
 40
0.8000000000000000
  0
ARC
  5
54
100
AcDbEntity
  8
A1
  6
CONTINUOUS
 62
7
100
AcDbCircle
 10
61.40000163630870
 20
93.40000661119797
 30
0.000000000000000
 40
0.8000000000000000
100
AcDbArc
 50
280.7842908304988
 51
460.7842908304988
  0
ARC
  5
55
100
AcDbEntity
  8
A1
  6
CONTINUOUS
 62
7
100
AcDbCircle
 10
53.00000143933565
 20
91.80000764296022
 30
0.000000000000000
 40
0.8000000000000000
100
AcDbArc
 50
100.7842908304989
 51
280.7842908304989
  0
ARC
  5
56
100
AcDbEntity
  8
A1
  6
CONTINUOUS
 62
7
100
AcDbCircle
 10
61.40000325689397
 20
106.6000066107851
 30
0.000000000000000
 40
0.8000000000000000
100
AcDbArc
 50
281.1130334994987
 51
461.1130334994988
  0
ARC
  5
57
100
AcDbEntity
  8
A1
  6
CONTINUOUS
 62
7
100
AcDbCircle
 10
53.00000345328560
 20
108.2000076420983
 30
0.000000000000000
 40
0.8000000000000000
100
AcDbArc
 50
89.99999296349890
 51
269.9999929634988
  0
ARC
  5
58
100
AcDbEntity
  8
A1
  6
CONTINUOUS
 62
7
100
AcDbCircle
 10
61.40000345357618
 20
108.2000066105607
 30
0.000000000000000
 40
0.8000000000000000
100
AcDbArc
 50
269.9999929634988
 51
449.9999929634988
  0
LINE
  5
59
100
AcDbEntity
  8
A1
  6
CONTINUOUS
 62
7
100
AcDbLine
 10
60.20000097271165
 20
88.00000675821791
 30
0.000000000000000
 11
60.19999990478652
 21
79.30278239635710
 31
0.000000000000000
  0
LINE
  5
5A
100
AcDbEntity
  8
A1
  6
CONTINUOUS
 62
7
100
AcDbLine
 10
54.20000335527570
 20
107.4000074947138
 30
0.000000000000000
 11
54.20000318393328
 21
106.0010093847531
 31
0.000000000000000
  0
LINE
  5
5B
100
AcDbEntity
  8
A1
  6
CONTINUOUS
 62
7
100
AcDbLine
 10
60.20000335490348
 20
107.4000067581694
 30
0.000000000000000
 11
60.20000332826765
 21
107.1795800769580
 31
0.000000000000000
  0
LINE
  5
5C
100
AcDbEntity
  8
A1
  6
CONTINUOUS
 62
7
100
AcDbLine
 10
51.70000355191142
 20
109.0000078025439
 30
0.000000000000000
 11
54.20000355192795
 21
109.0000074954889
 31
0.000000000000000
  0
LINE
  5
5D
100
AcDbEntity
  8
A1
  6
CONTINUOUS
 62
7
100
AcDbLine
 10
51.20000385916909
 20
111.5000078637775
 30
0.000000000000000
 11
51.20000361333122
 21
109.5000078635583
 31
0.000000000000000
  0
LINE
  5
5E
100
AcDbEntity
  8
A1
  6
CONTINUOUS
 62
7
100
AcDbLine
 10
62.70000391987469
 20
112.0000064507039
 30
0.000000000000000
 11
60.20000391985811
 21
112.0000067577589
 31
0.000000000000000
  0
LINE
  5
5F
100
AcDbEntity
  8
A1
  6
CONTINUOUS
 62
7
100
AcDbLine
 10
63.20000361361672
 20
109.5000063895004
 30
0.000000000000000
 11
63.20000385845495
 21
111.5000063896894
 31
0.000000000000000
  0
LINE
  5
60
100
AcDbEntity
  8
A1
  6
CONTINUOUS
 62
7
100
AcDbLine
 10
60.20000355158599
 20
109.0000067579450
 30
0.000000000000000
 11
62.70000355160262
 21
109.0000064508899
 31
0.000000000000000
  0
LINE
  5
61
100
AcDbEntity
  8
A1
  6
CONTINUOUS
 62
7
100
AcDbLine
 10
59.88630016080856
 20
82.50000679709828
 30
0.000000000000000
 11
54.51748646778449
 21
82.50000745582589
 31
0.000000000000000
  0
LINE
  5
62
100
AcDbEntity
  8
A1
  6
CONTINUOUS
 62
7
100
AcDbLine
 10
60.20000312838008
 20
105.5490048679479
 30
0.000000000000000
 11
60.20000292287152
 21
103.8795800770538
 31
0.000000000000000
  0
ARC
  5
63
100
AcDbEntity
  8
A1
  6
CONTINUOUS
 62
7
100
AcDbCircle
 10
57.19999968346065
 20
77.50000712662649
 30
0.000000000000000
 40
3.500000000000000
100
AcDbArc
 50
148.9972738294988
 51
179.9999929634988
  0
LINE
  5
64
100
AcDbEntity
  8
A1
  6
CONTINUOUS
 62
7
100
AcDbLine
 10
53.69999968284966
 20
77.50000755608548
 30
0.000000000000000
 11
53.69999956041541
 21
76.50000755649067
 31
0.000000000000000
  0
LINE
  5
65
100
AcDbEntity
  8
A1
  6
CONTINUOUS
 62
7
100
AcDbLine
 10
60.69999956066771
 20
76.50000669654290
 30
0.000000000000000
 11
60.69999968307179
 21
77.50000669713711
 31
0.000000000000000
  0
ARC
  5
66
100
AcDbEntity
  8
A1
  6
CONTINUOUS
 62
7
100
AcDbCircle
 10
57.19999968346065
 20
77.50000712662649
 30
0.000000000000000
 40
3.500000000000000
100
AcDbArc
 50
359.9999929634989
 51
391.0027120974988
  0
ARC
  5
67
100
AcDbEntity
  8
A1
  6
CONTINUOUS
 62
7
100
AcDbCircle
 10
57.19999956002670
 20
76.50000712700165
 30
0.000000000000000
 40
3.500000000000000
100
AcDbArc
 50
179.9999929634988
 51
359.9999929634989
  0
CIRCLE
  5
68
100
AcDbEntity
  8
A1
  6
CONTINUOUS
 62
7
100
AcDbCircle
 10
57.19999968346065
 20
77.50000712662649
 30
0.000000000000000
 40
1.750000000000000
  0
LINE
  5
69
100
AcDbEntity
  8
A1
  6
CONTINUOUS
 62
7
100
AcDbLine
 10
60.20000231758760
 20
98.94900486813920
 30
0.000000000000000
 11
60.20000211210921
 21
97.27958007624542
 31
0.000000000000000
  0
LINE
  5
6A
100
AcDbEntity
  8
A1
  6
CONTINUOUS
 62
7
100
AcDbLine
 10
60.20000191219133
 20
95.64900486823491
 30
0.000000000000000
 11
60.20000170803253
 21
93.98581850417500
 31
0.000000000000000
  0
LINE
  5
6B
100
AcDbEntity
  8
A1
  6
CONTINUOUS
 62
7
100
AcDbLine
 10
60.20000150831526
 20
92.35705215558131
 30
0.000000000000000
 11
60.20000134098381
 21
91.00000675803157
 31
0.000000000000000
  0
LINE
  5
6C
100
AcDbEntity
  8
A1
  6
CONTINUOUS
 62
7
100
AcDbLine
 10
60.20000272298385
 20
102.2490048680437
 30
0.000000000000000
 11
60.20000251747529
 21
100.5795800771495
 31
0.000000000000000
  0
LINE
  5
6D
100
AcDbEntity
  8
A1
  6
CONTINUOUS
 62
7
100
AcDbLine
 10
61.40000134008661
 20
90.99000594582851
 30
0.000000000000000
 11
60.20000133975518
 21
90.99000609332512
 31
0.000000000000000
  0
LINE
  5
6E
100
AcDbEntity
  8
A1
  6
CONTINUOUS
 62
7
100
AcDbLine
 10
54.20000332592478
 20
107.1570528924877
 30
0.000000000000000
 11
52.85031367061693
 21
107.4141368076411
 31
0.000000000000000
  0
LINE
  5
6F
100
AcDbEntity
  8
A1
  6
CONTINUOUS
 62
7
100
AcDbLine
 10
61.24580711041672
 20
107.3850056860870
 30
0.000000000000000
 11
52.84580690791256
 21
105.7350067181873
 31
0.000000000000000
  0
LINE
  5
70
100
AcDbEntity
  8
A1
  6
CONTINUOUS
 62
7
100
AcDbLine
 10
53.15419920086679
 20
104.1650085675836
 30
0.000000000000000
 11
61.55419940437040
 21
105.8150075355134
 31
0.000000000000000
  0
LINE
  5
71
100
AcDbEntity
  8
A1
  6
CONTINUOUS
 62
7
100
AcDbLine
 10
52.84580671443474
 20
104.1650086046639
 30
0.000000000000000
 11
54.20000292553911
 21
103.8990056050248
 31
0.000000000000000
  0
LINE
  5
72
100
AcDbEntity
  8
A1
  6
CONTINUOUS
 62
7
100
AcDbLine
 10
61.55419919148262
 20
104.0850056481027
 30
0.000000000000000
 11
60.20000298137792
 21
104.3510086477720
 31
0.000000000000000
  0
LINE
  5
73
100
AcDbEntity
  8
A1
  6
CONTINUOUS
 62
7
100
AcDbLine
 10
52.84580650251627
 20
102.4350067182830
 30
0.000000000000000
 11
61.24580670502033
 21
104.0850056861825
 31
0.000000000000000
  0
LINE
  5
74
100
AcDbEntity
  8
A1
  6
CONTINUOUS
 62
7
100
AcDbLine
 10
61.55419899897434
 20
102.5150075356093
 30
0.000000000000000
 11
53.15419879650034
 21
100.8650085667101
 31
0.000000000000000
  0
LINE
  5
75
100
AcDbEntity
  8
A1
  6
CONTINUOUS
 62
7
100
AcDbLine
 10
52.84580631003827
 20
100.8650086047898
 30
0.000000000000000
 11
54.20000252014306
 21
100.5990056051205
 31
0.000000000000000
  0
LINE
  5
76
100
AcDbEntity
  8
A1
  6
CONTINUOUS
 62
7
100
AcDbLine
 10
61.55419878608632
 20
100.7850056481984
 30
0.000000000000000
 11
60.20000257598174
 21
101.0510086478677
 31
0.000000000000000
  0
LINE
  5
77
100
AcDbEntity
  8
A1
  6
CONTINUOUS
 62
7
100
AcDbLine
 10
52.84580609715032
 20
99.13500671737891
 30
0.000000000000000
 11
61.24580629962433
 21
100.7850056862782
 31
0.000000000000000
  0
LINE
  5
78
100
AcDbEntity
  8
A1
  6
CONTINUOUS
 62
7
100
AcDbLine
 10
61.55419859357812
 20
99.21500753570490
 30
0.000000000000000
 11
53.15419839110420
 21
97.56500856680582
 31
0.000000000000000
  0
LINE
  5
79
100
AcDbEntity
  8
A1
  6
CONTINUOUS
 62
7
100
AcDbLine
 10
60.20000217058558
 20
97.75100864796343
 30
0.000000000000000
 11
61.55419838069028
 21
97.48500564829411
 31
0.000000000000000
  0
LINE
  5
7A
100
AcDbEntity
  8
A1
  6
CONTINUOUS
 62
7
100
AcDbLine
 10
54.20000211474677
 20
97.29900560521604
 30
0.000000000000000
 11
52.84580590464202
 21
97.56500860488546
 31
0.000000000000000
  0
LINE
  5
7B
100
AcDbEntity
  8
A1
  6
CONTINUOUS
 62
7
100
AcDbLine
 10
52.84580569175414
 20
95.83500671747461
 30
0.000000000000000
 11
61.24580589422818
 21
97.48500568637391
 31
0.000000000000000
  0
LINE
  5
7C
100
AcDbEntity
  8
A1
  6
CONTINUOUS
 62
7
100
AcDbLine
 10
61.55419818818194
 20
95.91500753580044
 30
0.000000000000000
 11
53.15419798570790
 21
94.26500856690127
 31
0.000000000000000
  0
LINE
  5
7D
100
AcDbEntity
  8
A1
  6
CONTINUOUS
 62
7
100
AcDbLine
 10
60.20000176518923
 20
94.45100864805909
 30
0.000000000000000
 11
61.55419797529392
 21
94.18500564838980
 31
0.000000000000000
  0
LINE
  5
7E
100
AcDbEntity
  8
A1
  6
CONTINUOUS
 62
7
100
AcDbLine
 10
54.20000170935058
 20
93.99900560531184
 30
0.000000000000000
 11
52.84580549924598
 21
94.26500860498126
 31
0.000000000000000
  0
LINE
  5
7F
100
AcDbEntity
  8
A1
  6
CONTINUOUS
 62
7
100
AcDbLine
 10
63.20000127958063
 20
90.50000638996239
 30
0.000000000000000
 11
63.20000103374264
 21
88.50000638974298
 31
0.000000000000000
  0
LINE
  5
80
100
AcDbEntity
  8
A1
  6
CONTINUOUS
 62
7
100
AcDbLine
 10
52.85031184945476
 20
92.58587851370579
 30
0.000000000000000
 11
61.25031204642778
 21
94.18587748194352
 31
0.000000000000000
  0
LINE
  5
81
100
AcDbEntity
  8
A1
  6
CONTINUOUS
 62
7
100
AcDbLine
 10
53.14969102924643
 20
91.01413677121482
 30
0.000000000000000
 11
61.54969122621942
 21
92.61413573945275
 31
0.000000000000000
  0
LINE
  5
82
100
AcDbEntity
  8
A1
  6
CONTINUOUS
 62
7
100
AcDbLine
 10
53.00000335494423
 20
107.4000076422103
 30
0.000000000000000
 11
61.40000335523502
 21
107.4000066106726
 31
0.000000000000000
  0
LINE
  5
83
100
AcDbEntity
  8
A1
  6
CONTINUOUS
 62
7
100
AcDbLine
 10
59.95908163948549
 20
114.0000067875129
 30
0.000000000000000
 11
54.45542579144515
 21
114.0000074638884
 31
0.000000000000000
  0
LINE
  5
84
100
AcDbEntity
  8
A1
  6
CONTINUOUS
 62
7
100
AcDbLine
 10
54.20000392020002
 20
112.0000074953027
 30
0.000000000000000
 11
51.70000392018349
 21
112.0000078023577
 31
0.000000000000000
  0
ARC
  5
85
100
AcDbEntity
  8
A1
  6
CONTINUOUS
 62
7
100
AcDbCircle
 10
53.70000433353907
 20
115.3686729468234
 30
0.000000000000000
 40
0.5000000000000000
100
AcDbArc
 50
359.9999929634989
 51
390.9999929634989
  0
ARC
  5
86
100
AcDbEntity
  8
A1
  6
CONTINUOUS
 62
7
100
AcDbCircle
 10
62.70000103394545
 20
88.50000645096020
 30
0.000000000000000
 40
0.5000000000000000
100
AcDbArc
 50
269.9999929634988
 51
359.9999929634989
  0
ARC
  5
87
100
AcDbEntity
  8
A1
  6
CONTINUOUS
 62
7
100
AcDbCircle
 10
51.70000103425424
 20
88.50000780261405
 30
0.000000000000000
 40
0.5000000000000000
100
AcDbArc
 50
179.9999929634988
 51
269.9999929634988
  0
ARC
  5
88
100
AcDbEntity
  8
A1
  6
CONTINUOUS
 62
7
100
AcDbCircle
 10
51.70000127889377
 20
90.49000713712741
 30
0.000000000000000
 40
0.5000000000000000
100
AcDbArc
 50
89.99999296349890
 51
179.9999929634988
  0
ARC
  5
89
100
AcDbEntity
  8
A1
  6
CONTINUOUS
 62
7
100
AcDbCircle
 10
51.70000361312859
 20
109.5000078023413
 30
0.000000000000000
 40
0.5000000000000000
100
AcDbArc
 50
179.9999929634988
 51
269.9999929634988
  0
ARC
  5
8A
100
AcDbEntity
  8
A1
  6
CONTINUOUS
 62
7
100
AcDbCircle
 10
51.70000385896648
 20
111.5000078025603
 30
0.000000000000000
 40
0.5000000000000000
100
AcDbArc
 50
89.99999296349890
 51
179.9999929634988
  0
ARC
  5
8B
100
AcDbEntity
  8
A1
  6
CONTINUOUS
 62
7
100
AcDbCircle
 10
62.70000361278946
 20
109.5000064516869
 30
0.000000000000000
 40
0.5000000000000000
100
AcDbArc
 50
269.9999929634988
 51
359.9999929634989
  0
ARC
  5
8C
100
AcDbEntity
  8
A1
  6
CONTINUOUS
 62
7
100
AcDbCircle
 10
62.70000385865771
 20
111.5000064509065
 30
0.000000000000000
 40
0.5000000000000000
100
AcDbArc
 50
359.9999929634989
 51
449.9999929634988
  0
ARC
  5
8D
100
AcDbEntity
  8
A1
  6
CONTINUOUS
 62
7
100
AcDbCircle
 10
53.70000433353907
 20
115.3686729468234
 30
0.000000000000000
 40
0.5000000000000000
100
AcDbArc
 50
0.000000000000000
 51
30.99999295001833
  0
ARC
  5
8E
100
AcDbEntity
  8
A1
  6
CONTINUOUS
 62
7
100
AcDbCircle
 10
59.70000453819694
 20
117.0326194737341
 30
0.000000000000000
 40
0.5000000000000000
100
AcDbArc
 50
359.9999929634989
 51
390.9999929634989
  0
LINE
  5
8F
100
AcDbEntity
  8
A1
  6
CONTINUOUS
 62
7
100
AcDbLine
 10
54.20000298301596
 20
104.3704341767125
 30
0.000000000000000
 11
54.20000277853720
 21
102.7010093848489
 31
0.000000000000000
  0
LINE
  5
90
100
AcDbEntity
  8
A1
  6
CONTINUOUS
 62
7
100
AcDbLine
 10
54.20000257761971
 20
101.0704341768079
 30
0.000000000000000
 11
54.20000237314105
 21
99.40100938494446
 31
0.000000000000000
  0
LINE
  5
91
100
AcDbEntity
  8
A1
  6
CONTINUOUS
 62
7
100
AcDbLine
 10
54.20000217322307
 20
97.77043417693363
 30
0.000000000000000
 11
54.20000196774476
 21
96.10100938503996
 31
0.000000000000000
  0
LINE
  5
92
100
AcDbEntity
  8
A1
  6
CONTINUOUS
 62
7
100
AcDbLine
 10
51.18488122089013
 20
119.5545419035131
 30
0.000000000000000
 11
51.69991918988963
 21
118.6973745397179
 31
0.000000000000000
  0
LINE
  5
93
100
AcDbEntity
  8
A1
  6
CONTINUOUS
 62
7
100
AcDbLine
 10
57.70009073830344
 20
122.3026403277724
 30
0.000000000000000
 11
57.18505276830439
 21
123.1598076915374
 31
0.000000000000000
  0
ARC
  5
94
100
AcDbEntity
  8
A1
  6
CONTINUOUS
 62
7
100
AcDbCircle
 10
54.70000496459642
 20
120.5000074337603
 30
0.000000000000000
 40
3.500000000000000
100
AcDbArc
 50
210.9999929634988
 51
242.0027120974988
  0
LINE
  5
95
100
AcDbEntity
  8
A1
  6
CONTINUOUS
 62
7
100
AcDbLine
 10
54.20000176782684
 20
94.47043417702943
 30
0.000000000000000
 11
54.20000156735896
 21
92.84296209757700
 31
0.000000000000000
  0
ARC
  5
96
100
AcDbEntity
  8
A1
  6
CONTINUOUS
 62
7
100
AcDbCircle
 10
54.70000496459642
 20
120.5000074337603
 30
0.000000000000000
 40
3.500000000000000
100
AcDbArc
 50
359.9972738294989
 51
390.9999929634989
  0
LINE
  5
97
100
AcDbEntity
  8
A1
  6
CONTINUOUS
 62
7
100
AcDbLine
 10
54.12858801554089
 20
115.6261919315217
 30
0.000000000000000
 11
53.05700077683080
 21
117.4096130835219
 31
0.000000000000000
  0
LINE
  5
98
100
AcDbEntity
  8
A1
  6
CONTINUOUS
 62
7
100
AcDbLine
 10
60.12858822057896
 20
117.2901384587486
 30
0.000000000000000
 11
58.20000496048016
 21
120.4998409015468
 31
0.000000000000000
  0
ARC
  5
99
100
AcDbEntity
  8
A1
  6
CONTINUOUS
 62
7
100
AcDbCircle
 10
54.18496699459739
 20
121.3571747975251
 30
0.000000000000000
 40
3.500000000000000
100
AcDbArc
 50
30.99999296349889
 51
210.9999929634988
  0
LINE
  5
9A
100
AcDbEntity
  8
A1
  6
CONTINUOUS
 62
7
100
AcDbLine
 10
60.20000355158599
 20
109.0000067579450
 30
0.000000000000000
 11
60.20000453799441
 21
117.0326194125168
 31
0.000000000000000
  0
LINE
  5
9B
100
AcDbEntity
  8
A1
  6
CONTINUOUS
 62
7
100
AcDbLine
 10
54.20000136764168
 20
91.21419574898322
 30
0.000000000000000
 11
54.20000134132571
 21
91.00000749557533
 31
0.000000000000000
  0
LINE
  5
9C
100
AcDbEntity
  8
A1
  6
CONTINUOUS
 62
7
100
AcDbLine
 10
54.20000355192790
 20
109.0000074954887
 30
0.000000000000000
 11
54.20000433436585
 21
115.3686728846366
 31
0.000000000000000
  0
LINE
  5
9D
100
AcDbEntity
  8
A1
  6
CONTINUOUS
 62
7
100
AcDbLine
 10
54.20000134009702
 20
90.99000683086906
 30
0.000000000000000
 11
51.70000134008058
 21
90.99000713792408
 31
0.000000000000000
  0
LINE
  5
9E
100
AcDbEntity
  8
A1
  6
CONTINUOUS
 62
7
100
AcDbLine
 10
54.20000097308387
 20
88.00000749476203
 30
0.000000000000000
 11
54.19999990515878
 21
79.30278313290121
 31
0.000000000000000
  0
LINE
  5
9F
100
AcDbEntity
  8
A1
  6
CONTINUOUS
 62
7
100
AcDbLine
 10
62.70000133977167
 20
90.99000578627036
 30
0.000000000000000
 11
60.20000133975510
 21
90.99000609332538
 31
0.000000000000000
  0
LINE
  5
A0
100
AcDbEntity
  8
A1
  6
CONTINUOUS
 62
7
100
AcDbLine
 10
54.20000355192791
 20
109.0000074954886
 30
0.000000000000000
 11
54.20000433436585
 21
115.3686728853946
 31
0.000000000000000
  0
LINE
  5
A1
100
AcDbEntity
  8
A1
  6
CONTINUOUS
 62
7
100
AcDbLine
 10
51.49999999999999
 20
56.00000000000023
 30
0.000000000000000
 11
49.99999999999999
 21
56.00000000000023
 31
0.000000000000000
  0
LINE
  5
A2
100
AcDbEntity
  8
A1
  6
CONTINUOUS
 62
7
100
AcDbLine
 10
51.49999999999999
 20
69.00000000000000
 30
0.000000000000000
 11
49.99999999999999
 21
69.00000000000000
 31
0.000000000000000
  0
LINE
  5
A3
100
AcDbEntity
  8
A4
  6
CENTER
 62
1
100
AcDbLine
 10
54.06977822600003
 20
85.00000000000000
 30
0.000000000000000
 11
45.99999999999999
 21
85.00000000000000
 31
0.000000000000000
  0
LINE
  5
A4
100
AcDbEntity
  8
A4
  6
CENTER
 62
1
100
AcDbLine
 10
54.06977822600003
 20
71.00000000000000
 30
0.000000000000000
 11
45.99999999999999
 21
71.00000000000000
 31
0.000000000000000
  0
LINE
  5
A5
100
AcDbEntity
  8
A4
  6
CENTER
 62
1
100
AcDbLine
 10
54.06977822600003
 20
57.00000000000000
 30
0.000000000000000
 11
45.99999999999999
 21
57.00000000000000
 31
0.000000000000000
  0
LINE
  5
A6
100
AcDbEntity
  8
A1
  6
CONTINUOUS
 62
7
100
AcDbLine
 10
49.99999999999980
 20
57.71103222547217
 30
0.000000000000000
 11
52.30614820199993
 21
58.15530056800002
 31
0.000000000000000
  0
LINE
  5
A7
100
AcDbEntity
  8
A1
  6
CONTINUOUS
 62
7
100
AcDbLine
 10
51.49999999999999
 20
79.00000000000023
 30
0.000000000000000
 11
49.99999999999999
 21
79.00000000000023
 31
0.000000000000000
  0
LINE
  5
A8
100
AcDbEntity
  8
A1
  6
CONTINUOUS
 62
7
100
AcDbLine
 10
51.49999999999999
 20
50.00000000000000
 30
0.000000000000000
 11
49.99999999999999
 21
50.00000000000000
 31
0.000000000000000
  0
LINE
  5
A9
100
AcDbEntity
  8
A1
  6
CONTINUOUS
 62
7
100
AcDbLine
 10
49.99999999999999
 20
50.00000000000000
 30
0.000000000000000
 11
49.99999999999999
 21
106.0000000000002
 31
0.000000000000000
  0
LINE
  5
AA
100
AcDbEntity
  8
A1
  6
CONTINUOUS
 62
7
100
AcDbLine
 10
51.49999999999999
 20
50.00000000000000
 30
0.000000000000000
 11
51.49999999999999
 21
58.00000000000000
 31
0.000000000000000
  0
ARC
  5
AB
100
AcDbEntity
  8
A1
  6
CONTINUOUS
 62
7
100
AcDbCircle
 10
58.99999999999997
 20
62.50000000000000
 30
0.000000000000000
 40
1.750000000000000
100
AcDbArc
 50
270.0000000000000
 51
435.3758090610000
  0
LINE
  5
AC
100
AcDbEntity
  8
A4
  6
CENTER
 62
1
100
AcDbLine
 10
55.99999999999999
 20
62.50000000000000
 30
0.000000000000000
 11
61.99999999999999
 21
62.50000000000001
 31
0.000000000000000
  0
LINE
  5
AD
100
AcDbEntity
  8
A1
  6
CONTINUOUS
 62
7
100
AcDbLine
 10
58.99999999999999
 20
60.75000000000001
 30
0.000000000000000
 11
50.49999999999999
 21
60.75000000000000
 31
0.000000000000000
  0
LINE
  5
AE
100
AcDbEntity
  8
A1
  6
CONTINUOUS
 62
7
100
AcDbLine
 10
50.49999999999989
 20
66.52651050599995
 30
0.000000000000000
 11
59.44183634899994
 21
64.19330465099996
 31
0.000000000000000
  0
LINE
  5
AF
100
AcDbEntity
  8
A4
  6
CENTER
 62
1
100
AcDbLine
 10
58.99999999999999
 20
65.50000000000000
 30
0.000000000000000
 11
58.99999999999999
 21
59.50000000000012
 31
0.000000000000000
  0
ARC
  5
B0
100
AcDbEntity
  8
A1
  6
CONTINUOUS
 62
7
100
AcDbCircle
 10
62.95482505603829
 20
55.00000000000023
 30
0.000000000000000
 40
2.500000000000000
100
AcDbArc
 50
359.7103489015139
 51
450.0000000000000
  0
ARC
  5
B1
100
AcDbEntity
  8
A1
  6
CONTINUOUS
 62
7
100
AcDbCircle
 10
54.49999999999999
 20
61.50000000000000
 30
0.000000000000000
 40
4.000000000000000
100
AcDbArc
 50
180.0000000000000
 51
270.0000000000000
  0
LINE
  5
B2
100
AcDbEntity
  8
A1
  6
CONTINUOUS
 62
7
100
AcDbLine
 10
50.49999999999999
 20
67.50000000000023
 30
0.000000000000000
 11
50.49999999999999
 21
61.50000000000000
 31
0.000000000000000
  0
LINE
  5
B3
100
AcDbEntity
  8
A1
  6
CONTINUOUS
 62
7
100
AcDbLine
 10
65.34154319899994
 20
57.50000000000001
 30
0.000000000000000
 11
54.49999999999999
 21
57.50000000000000
 31
0.000000000000000
  0
LINE
  5
B4
100
AcDbEntity
  8
A1
  6
CONTINUOUS
 62
7
100
AcDbLine
 10
69.30000000000007
 20
60.20000000000005
 30
0.000000000000000
 11
66.80000000000007
 21
60.20000000000005
 31
0.000000000000000
  0
LINE
  5
B5
100
AcDbEntity
  8
A1
  6
CONTINUOUS
 62
7
100
AcDbLine
 10
69.30000000000007
 20
73.20000000000005
 30
0.000000000000000
 11
66.80000000000007
 21
73.20000000000005
 31
0.000000000000000
  0
LINE
  5
B6
100
AcDbEntity
  8
A1
  6
CONTINUOUS
 62
7
100
AcDbLine
 10
51.49999999999990
 20
68.50000000000020
 30
0.000000000000000
 11
50.49999999999980
 21
67.50000000000018
 31
0.000000000000000
  0
LINE
  5
B7
100
AcDbEntity
  8
A1
  6
CONTINUOUS
 62
7
100
AcDbLine
 10
69.30000000000007
 20
73.20000000000005
 30
0.000000000000000
 11
69.30000000000007
 21
60.20000000000005
 31
0.000000000000000
  0
LINE
  5
B8
100
AcDbEntity
  8
A1
  6
CONTINUOUS
 62
7
100
AcDbLine
 10
63.99999999999999
 20
57.24401373399997
 30
0.000000000000000
 11
63.99999999999999
 21
54.50000000000001
 31
0.000000000000000
  0
ARC
  5
B9
100
AcDbEntity
  8
A1
  6
CONTINUOUS
 62
7
100
AcDbCircle
 10
63.99999999999997
 20
54.50000000000000
 30
0.000000000000000
 40
1.000000000000000
100
AcDbArc
 50
270.0000000000000
 51
360.0000000000000
  0
LINE
  5
BA
100
AcDbEntity
  8
A1
  6
CONTINUOUS
 62
7
100
AcDbLine
 10
64.99999999999997
 20
56.43779673410108
 30
0.000000000000000
 11
64.99999999999997
 21
54.50000000000000
 31
0.000000000000000
  0
LINE
  5
BB
100
AcDbEntity
  8
A1
  6
CONTINUOUS
 62
7
100
AcDbLine
 10
66.80000000000007
 20
101.5000000000000
 30
0.000000000000000
 11
66.80000000000007
 21
56.35057632700023
 31
0.000000000000000
  0
LINE
  5
BC
100
AcDbEntity
  8
A1
  6
CONTINUOUS
 62
7
100
AcDbLine
 10
51.49999999999999
 20
79.50000000000000
 30
0.000000000000000
 11
51.49999999999999
 21
68.50000000000023
 31
0.000000000000000
  0
ARC
  5
BD
100
AcDbEntity
  8
A1
  6
CONTINUOUS
 62
7
100
AcDbCircle
 10
65.34154319899991
 20
56.00000000000023
 30
0.000000000000000
 40
1.500000000000000
100
AcDbArc
 50
2.814759371000029
 51
90.00000000000000
  0
LINE
  5
BE
100
AcDbEntity
  8
A1
  6
CONTINUOUS
 62
7
100
AcDbLine
 10
66.62002929699999
 20
43.99999999999985
 30
0.000000000000000
 11
67.99999999999997
 21
44.58794630499985
 31
0.000000000000000
  0
ARC
  5
BF
100
AcDbEntity
  8
A1
  6
CONTINUOUS
 62
7
100
AcDbCircle
 10
116.8340913539145
 20
55.32254092415155
 30
0.000000000000000
 40
50.00000000000000
100
AcDbArc
 50
179.1392478875946
 51
192.3974519419682
  0
ARC
  5
C0
100
AcDbEntity
  8
A1
  6
CONTINUOUS
 62
7
100
AcDbCircle
 10
115.4541206509146
 20
54.73459461915149
 30
0.000000000000000
 40
50.00000000000000
100
AcDbArc
 50
179.7103489015140
 51
192.3974519419682
  0
LINE
  5
C1
100
AcDbEntity
  8
A4
  6
CENTER
 62
1
100
AcDbLine
 10
58.03831251313892
 20
121.1851789236705
 30
0.000000000000000
 11
50.53831251332610
 21
121.1851789236705
 31
0.000000000000000
  0
LINE
  5
C2
100
AcDbEntity
  8
A4
  6
CENTER
 62
1
100
AcDbLine
 10
54.28831251323252
 20
124.9351789235770
 30
0.000000000000000
 11
54.28831251323252
 21
117.4351789237641
 31
0.000000000000000
  0
CIRCLE
  5
C3
100
AcDbEntity
  8
A1
  6
CONTINUOUS
 62
7
100
AcDbCircle
 10
54.28831251323251
 20
121.1851751741013
 30
0.000000000000000
 40
2.400003749569237
  0
CIRCLE
  5
C4
100
AcDbEntity
  8
A1
  6
CONTINUOUS
 62
7
100
AcDbCircle
 10
54.28831251323253
 20
121.1851751741012
 30
0.000000000000000
 40
2.400003749569237
  0
ARC
  5
C5
100
AcDbEntity
  8
A1
  6
CONTINUOUS
 62
7
100
AcDbCircle
 10
53.70000433455360
 20
115.3686728855971
 30
0.000000000000000
 40
0.5000000000000000
100
AcDbArc
 50
0.000000000000000
 51
30.99999295001822
  0
ARC
  5
C6
100
AcDbEntity
  8
A1
  6
CONTINUOUS
 62
7
100
AcDbCircle
 10
59.70000454071956
 20
117.0326194125717
 30
0.000000000000000
 40
0.5000000000000000
100
AcDbArc
 50
359.9999929634993
 51
390.9999929634992
  0
ARC
  5
C7
100
AcDbEntity
  8
A1
  6
CONTINUOUS
 62
7
100
AcDbCircle
 10
54.70000496655970
 20
120.5000073724697
 30
0.000000000000000
 40
3.499999999999912
100
AcDbArc
 50
359.9972738294989
 51
390.9999929634988
  0
ARC
  5
C8
100
AcDbEntity
  8
A1
  6
CONTINUOUS
 62
7
100
AcDbCircle
 10
54.18496699656058
 20
121.3571747362346
 30
0.000000000000000
 40
3.500000000000000
100
AcDbArc
 50
30.99999296349894
 51
210.9999929634989
  0
ARC
  5
C9
100
AcDbEntity
  8
A1
  6
CONTINUOUS
 62
7
100
AcDbCircle
 10
54.70000496556007
 20
120.5000073724395
 30
0.000000000000000
 40
3.500000000000000
100
AcDbArc
 50
210.9999929634989
 51
242.0027120974988
  0
ARC
  5
CA
100
AcDbEntity
  8
A1
  6
CONTINUOUS
 62
7
100
AcDbCircle
 10
62.70000128127978
 20
90.49000707577716
 30
0.000000000000000
 40
0.5000000000001513
100
AcDbArc
 50
0.000000000000000
 51
89.99999296349883
  0
ARC
  5
CB
100
AcDbEntity
  8
A1
  6
CONTINUOUS
 62
7
100
AcDbCircle
 10
51.70000127908152
 20
90.49000713732988
 30
0.000000000000000
 40
0.5000000000000000
100
AcDbArc
 50
89.99999296349877
 51
179.9999929634988
  0
ARC
  5
CC
100
AcDbEntity
  8
A1
  6
CONTINUOUS
 62
7
100
AcDbCircle
 10
51.70000103447218
 20
88.50000780181711
 30
0.000000000000000
 40
0.5000000000000000
100
AcDbArc
 50
179.9999929634988
 51
269.9999929634988
  0
LINE
  5
CD
100
AcDbEntity
  8
A1
  6
CONTINUOUS
 62
7
100
AcDbLine
 10
54.20000425854598
 20
114.7500071249660
 30
0.000000000000000
 11
54.20000433455358
 21
115.3686728855970
 31
0.000000000000000
  0
LINE
  5
CE
100
AcDbEntity
  8
A1
  6
CONTINUOUS
 62
7
100
AcDbLine
 10
60.20000454071954
 20
117.0326193511666
 30
0.000000000000000
 11
60.20000426041371
 21
114.7500071249660
 31
0.000000000000000
  0
LINE
  5
CF
100
AcDbEntity
  8
A1
  6
CONTINUOUS
 62
7
100
AcDbLine
 10
58.20000496259772
 20
120.4998408401905
 30
0.000000000000000
 11
60.12858822269654
 21
117.2901383973923
 31
0.000000000000000
  0
LINE
  5
D0
100
AcDbEntity
  8
A1
  6
CONTINUOUS
 62
7
100
AcDbLine
 10
57.18505277039954
 20
123.1598076299789
 30
0.000000000000000
 11
57.70009074039859
 21
122.3026402662139
 31
0.000000000000000
  0
LINE
  5
D1
100
AcDbEntity
  8
A1
  6
CONTINUOUS
 62
7
100
AcDbLine
 10
51.69991919172121
 20
118.6973744786951
 30
0.000000000000000
 11
51.18488122272171
 21
119.5545418424902
 31
0.000000000000000
  0
LINE
  5
D2
100
AcDbEntity
  8
A1
  6
CONTINUOUS
 62
7
100
AcDbLine
 10
54.12858801659127
 20
115.6261918703168
 30
0.000000000000000
 11
53.05700077788115
 21
117.4096130223170
 31
0.000000000000000
  0
LINE
  5
D3
100
AcDbEntity
  8
A1
  6
CONTINUOUS
 62
7
100
AcDbLine
 10
54.20000425854598
 20
114.7500071249660
 30
0.000000000000000
 11
54.20000416640291
 21
114.0000071249660
 31
0.000000000000000
  0
LINE
  5
D4
100
AcDbEntity
  8
A1
  6
CONTINUOUS
 62
7
100
AcDbLine
 10
60.20000416831341
 20
114.0000071249660
 30
0.000000000000000
 11
60.20000426041375
 21
114.7500071249660
 31
0.000000000000000
  0
LINE
  5
D5
100
AcDbEntity
  8
A1
  6
CONTINUOUS
 62
7
100
AcDbLine
 10
54.20000425854600
 20
114.7500071249660
 30
0.000000000000000
 11
60.20000426041372
 21
114.7500071249660
 31
0.000000000000000
  0
LINE
  5
D6
100
AcDbEntity
  8
A3
  6
DASHED
 62
2
100
AcDbLine
 10
54.20000398211668
 20
112.5000071249660
 30
0.000000000000000
 11
60.20000398411275
 21
112.5000071249660
 31
0.000000000000000
  0
LINE
  5
D7
100
AcDbEntity
  8
A1
  6
CONTINUOUS
 62
7
100
AcDbLine
 10
54.20000416640282
 20
114.0000071249660
 30
0.000000000000000
 11
54.20000388997358
 21
111.7500071249659
 31
0.000000000000000
  0
LINE
  5
D8
100
AcDbEntity
  8
A1
  6
CONTINUOUS
 62
7
100
AcDbLine
 10
60.20000389201243
 20
111.7500071249659
 30
0.000000000000000
 11
60.20000416831344
 21
114.0000071249660
 31
0.000000000000000
  0
LINE
  5
D9
100
AcDbEntity
  8
A1
  6
CONTINUOUS
 62
7
100
AcDbLine
 10
54.20000416640282
 20
114.0000071249663
 30
0.000000000000000
 11
60.20000416831340
 21
114.0000071249663
 31
0.000000000000000
  0
LINE
  5
DA
100
AcDbEntity
  8
A1
  6
CONTINUOUS
 62
7
100
AcDbLine
 10
51.70000097306713
 20
88.00000780181715
 30
0.000000000000000
 11
62.70000097526559
 21
88.00000774026417
 31
0.000000000000000
  0
LINE
  5
DB
100
AcDbEntity
  8
A1
  6
CONTINUOUS
 62
7
100
AcDbLine
 10
62.70000134268483
 20
90.99000707577727
 30
0.000000000000000
 11
60.20000134267451
 21
90.99000707577727
 31
0.000000000000000
  0
LINE
  5
DC
100
AcDbEntity
  8
A1
  6
CONTINUOUS
 62
7
100
AcDbLine
 10
54.20000388997357
 20
111.7500071249659
 30
0.000000000000000
 11
60.20000389201243
 21
111.7500071249660
 31
0.000000000000000
  0
LINE
  5
DD
100
AcDbEntity
  8
A1
  6
CONTINUOUS
 62
7
100
AcDbLine
 10
54.20000133945304
 20
90.99000713732988
 30
0.000000000000000
 11
51.70000134048657
 21
90.99000713732988
 31
0.000000000000000
  0
LINE
  5
DE
100
AcDbEntity
  8
A1
  6
CONTINUOUS
 62
7
100
AcDbLine
 10
51.20000127908089
 20
90.49000719853250
 30
0.000000000000000
 11
51.20000103447218
 21
88.50000786322215
 31
0.000000000000000
  0
LINE
  5
DF
100
AcDbEntity
  8
A1
  6
CONTINUOUS
 62
7
100
AcDbLine
 10
54.20000388997357
 20
111.7500071249659
 30
0.000000000000000
 11
54.20000355211563
 21
109.0000074954801
 31
0.000000000000000
  0
LINE
  5
E0
100
AcDbEntity
  8
A1
  6
CONTINUOUS
 62
7
100
AcDbLine
 10
60.20000355431115
 20
109.0000067579449
 30
0.000000000000000
 11
60.20000389201243
 21
111.7500071249660
 31
0.000000000000000
  0
LINE
  5
E1
100
AcDbEntity
  8
A1
  6
CONTINUOUS
 62
7
100
AcDbLine
 10
60.20000333076192
 20
107.1795800771039
 30
0.000000000000000
 11
60.20000335783042
 21
107.4000067580350
 31
0.000000000000000
  0
LINE
  5
E2
100
AcDbEntity
  8
A1
  6
CONTINUOUS
 62
7
100
AcDbLine
 10
54.20000298333808
 20
104.3704341770990
 30
0.000000000000000
 11
54.20000277823682
 21
102.7010093853549
 31
0.000000000000000
  0
LINE
  5
E3
100
AcDbEntity
  8
A1
  6
CONTINUOUS
 62
7
100
AcDbLine
 10
54.20000257790852
 20
101.0704341761624
 30
0.000000000000000
 11
54.20000237280725
 21
99.40100938460056
 31
0.000000000000000
  0
LINE
  5
E4
100
AcDbEntity
  8
A1
  6
CONTINUOUS
 62
7
100
AcDbLine
 10
54.20000217247896
 20
97.77043417625178
 30
0.000000000000000
 11
54.20000196737772
 21
96.10100938468975
 31
0.000000000000000
  0
LINE
  5
E5
100
AcDbEntity
  8
A1
  6
CONTINUOUS
 62
7
100
AcDbLine
 10
54.20000136699627
 20
91.21419574946751
 30
0.000000000000000
 11
54.20000133945303
 21
90.99000713733025
 31
0.000000000000000
  0
LINE
  5
E6
100
AcDbEntity
  8
A1
  6
CONTINUOUS
 62
7
100
AcDbLine
 10
54.20000176704940
 20
94.47043417634058
 30
0.000000000000000
 11
54.20000156710234
 21
92.84296209763899
 31
0.000000000000000
  0
LINE
  5
E7
100
AcDbEntity
  8
A1
  6
CONTINUOUS
 62
7
100
AcDbLine
 10
60.20000134267512
 20
90.99000707577738
 30
0.000000000000000
 11
60.20000151054887
 21
92.35705215589611
 31
0.000000000000000
  0
LINE
  5
E8
100
AcDbEntity
  8
A1
  6
CONTINUOUS
 62
7
100
AcDbLine
 10
60.20000171056206
 20
93.98581850404962
 30
0.000000000000000
 11
60.20000191480209
 21
95.64900486902590
 31
0.000000000000000
  0
LINE
  5
E9
100
AcDbEntity
  8
A1
  6
CONTINUOUS
 62
7
100
AcDbLine
 10
60.20000211503746
 20
97.27958007735697
 30
0.000000000000000
 11
60.20000232004358
 21
98.94900486890002
 31
0.000000000000000
  0
LINE
  5
EA
100
AcDbEntity
  8
A1
  6
CONTINUOUS
 62
7
100
AcDbLine
 10
60.20000252027894
 20
100.5795800772308
 30
0.000000000000000
 11
60.20000272528506
 21
102.2490048687739
 31
0.000000000000000
  0
LINE
  5
EB
100
AcDbEntity
  8
A1
  6
CONTINUOUS
 62
7
100
AcDbLine
 10
60.20000292552043
 20
103.8795800772299
 30
0.000000000000000
 11
60.20000313052655
 21
105.5490048688368
 31
0.000000000000000
  0
ARC
  5
EC
100
AcDbEntity
  8
A1
  6
CONTINUOUS
 62
7
100
AcDbCircle
 10
62.30000000000007
 20
101.5000000000000
 30
0.000000000000000
 40
4.500000000000000
100
AcDbArc
 50
0.000000000000000
 51
90.00000000000000
  0
LINE
  5
ED
100
AcDbEntity
  8
A1
  6
CONTINUOUS
 62
7
100
AcDbLine
 10
54.19486449170277
 20
106.0000000000002
 30
0.000000000000000
 11
49.99999999999999
 21
106.0000000000002
 31
0.000000000000000
  0
LINE
  5
EE
100
AcDbEntity
  8
A1
  6
CONTINUOUS
 62
7
100
AcDbLine
 10
62.30000000000007
 20
106.0000000000002
 30
0.000000000000000
 11
61.92914602308704
 21
106.0000000000002
 31
0.000000000000000
  0
LINE
  5
EF
100
AcDbEntity
  8
A4
  6
CENTER
 62
1
100
AcDbLine
 10
60.44999968346065
 20
77.50000712662649
 30
0.000000000000000
 11
53.94999968346066
 21
77.50000712662649
 31
0.000000000000000
  0
LINE
  5
F0
100
AcDbEntity
  8
A4
  6
CENTER
 62
1
100
AcDbLine
 10
57.19999968346070
 20
80.75000712662647
 30
0.000000000000000
 11
57.19999968346069
 21
74.25000712662647
 31
0.000000000000000
  0
LINE
  5
F1
100
AcDbEntity
  8
A1
  6
CONTINUOUS
 62
7
100
AcDbLine
 10
58.99999999999994
 20
54.50000000000001
 30
0.000000000000000
 11
58.99999999999994
 21
53.50000000000001
 31
0.000000000000000
  0
LINE
  5
F2
100
AcDbEntity
  8
A1
  6
CONTINUOUS
 62
7
100
AcDbLine
 10
58.99999999999994
 20
53.50000000000001
 30
0.000000000000000
 11
63.99999999999999
 21
53.50000000000001
 31
0.000000000000000
  0
LINE
  5
F3
100
AcDbEntity
  8
A1
  6
CONTINUOUS
 62
7
100
AcDbLine
 10
58.99999999999994
 20
54.50000000000001
 30
0.000000000000000
 11
63.99999999999999
 21
54.50000000000001
 31
0.000000000000000
  0
LINE
  5
F4
100
AcDbEntity
  8
A5
  6
PHANTOM
 62
6
100
AcDbLine
 10
64.00000000000028
 20
57.00000000000000
 30
0.000000000000000
 11
59.00000000000023
 21
57.00000000000000
 31
0.000000000000000
  0
LINE
  5
F5
100
AcDbEntity
  8
A5
  6
PHANTOM
 62
6
100
AcDbLine
 10
59.00000000000022
 20
57.00000000000003
 30
0.000000000000000
 11
59.00000000000052
 21
57.50000000000003
 31
0.000000000000000
  0
LINE
  5
F6
100
AcDbEntity
  8
A1
  6
CONTINUOUS
 62
7
100
AcDbLine
 10
145.2492958855454
 20
96.75000000000001
 30
0.000000000000000
 11
144.9492958855454
 21
96.75000000000001
 31
0.000000000000000
  0
LINE
  5
F7
100
AcDbEntity
  8
A1
  6
CONTINUOUS
 62
7
100
AcDbLine
 10
146.2492958855453
 20
101.2500000000000
 30
0.000000000000000
 11
146.5492958855453
 21
101.2500000000000
 31
0.000000000000000
  0
LINE
  5
F8
100
AcDbEntity
  8
A1
  6
CONTINUOUS
 62
7
100
AcDbLine
 10
160.4492958855453
 20
101.2500000000000
 30
0.000000000000000
 11
160.1492958855453
 21
101.2500000000000
 31
0.000000000000000
  0
LINE
  5
F9
100
AcDbEntity
  8
A1
  6
CONTINUOUS
 62
7
100
AcDbLine
 10
160.4492958855453
 20
96.75000000000001
 30
0.000000000000000
 11
160.1492958855453
 21
96.75000000000001
 31
0.000000000000000
  0
LINE
  5
FA
100
AcDbEntity
  8
A1
  6
CONTINUOUS
 62
7
100
AcDbLine
 10
176.3034921285454
 20
100.7850061820000
 30
0.000000000000000
 11
173.4492958855455
 21
101.3456518720000
 31
0.000000000000000
  0
LINE
  5
FB
100
AcDbEntity
  8
A1
  6
CONTINUOUS
 62
7
100
AcDbLine
 10
170.4492958855453
 20
97.00436237799985
 30
0.000000000000000
 11
167.5950996415455
 21
97.56500806899996
 31
0.000000000000000
  0
LINE
  5
FC
100
AcDbEntity
  8
A1
  6
CONTINUOUS
 62
7
100
AcDbLine
 10
167.5950996415455
 20
95.83500618200011
 30
0.000000000000000
 11
175.9950996415454
 21
97.48500618200009
 31
0.000000000000000
  0
LINE
  5
FD
100
AcDbEntity
  8
A1
  6
CONTINUOUS
 62
7
100
AcDbLine
 10
173.4492958855455
 20
94.74565187200002
 30
0.000000000000000
 11
176.3034921285452
 21
94.18500618200005
 31
0.000000000000000
  0
LINE
  5
FE
100
AcDbEntity
  8
A1
  6
CONTINUOUS
 62
7
100
AcDbLine
 10
167.5996061985454
 20
92.58587797800001
 30
0.000000000000000
 11
175.9996061985454
 21
94.18587797799999
 31
0.000000000000000
  0
LINE
  5
FF
100
AcDbEntity
  8
A1
  6
CONTINUOUS
 62
7
100
AcDbLine
 10
167.5950996415455
 20
102.4350061820001
 30
0.000000000000000
 11
175.9950996415456
 21
104.0850061820002
 31
0.000000000000000
  0
LINE
  5
100
100
AcDbEntity
  8
A1
  6
CONTINUOUS
 62
7
100
AcDbLine
 10
167.5950996415455
 20
99.13500618199998
 30
0.000000000000000
 11
175.9950996415455
 21
100.7850061819999
 31
0.000000000000000
  0
LINE
  5
101
100
AcDbEntity
  8
A1
  6
CONTINUOUS
 62
7
100
AcDbLine
 10
173.4492958855454
 20
98.04565187200015
 30
0.000000000000000
 11
176.3034921285453
 21
97.48500618200015
 31
0.000000000000000
  0
LINE
  5
102
100
AcDbEntity
  8
A1
  6
CONTINUOUS
 62
7
100
AcDbLine
 10
176.3034921285454
 20
95.91500806900015
 30
0.000000000000000
 11
167.9034921285455
 21
94.26500806900015
 31
0.000000000000000
  0
LINE
  5
103
100
AcDbEntity
  8
A1
  6
CONTINUOUS
 62
7
100
AcDbLine
 10
167.7492958855455
 20
107.4000071250000
 30
0.000000000000000
 11
176.1492958855454
 21
107.4000071250000
 31
0.000000000000000
  0
LINE
  5
104
100
AcDbEntity
  8
A1
  6
CONTINUOUS
 62
7
100
AcDbLine
 10
176.3034921285453
 20
104.0850061820002
 30
0.000000000000000
 11
173.4492958855454
 21
104.6456518720000
 31
0.000000000000000
  0
LINE
  5
105
100
AcDbEntity
  8
A1
  6
CONTINUOUS
 62
7
100
AcDbLine
 10
170.4492958855454
 20
93.70436237800007
 30
0.000000000000000
 11
167.5950996415456
 21
94.26500806900006
 31
0.000000000000000
  0
LINE
  5
106
100
AcDbEntity
  8
A1
  6
CONTINUOUS
 62
7
100
AcDbLine
 10
176.3034921285454
 20
102.5150080690001
 30
0.000000000000000
 11
167.9034921285455
 21
100.8650080690000
 31
0.000000000000000
  0
LINE
  5
107
100
AcDbEntity
  8
A1
  6
CONTINUOUS
 62
7
100
AcDbLine
 10
167.5950996415454
 20
100.8650080690000
 30
0.000000000000000
 11
170.4492958855454
 21
100.3043623780001
 31
0.000000000000000
  0
LINE
  5
108
100
AcDbEntity
  8
A1
  6
CONTINUOUS
 62
7
100
AcDbLine
 10
176.3034921285455
 20
99.21500806899998
 30
0.000000000000000
 11
167.9034921285456
 21
97.56500806900007
 31
0.000000000000000
  0
LINE
  5
109
100
AcDbEntity
  8
A1
  6
CONTINUOUS
 62
7
100
AcDbLine
 10
167.8989855715454
 20
91.01413627200000
 30
0.000000000000000
 11
176.2989855715454
 21
92.61413627200000
 31
0.000000000000000
  0
LINE
  5
10A
100
AcDbEntity
  8
A1
  6
CONTINUOUS
 62
7
100
AcDbLine
 10
170.4492958855456
 20
106.8713382360001
 30
0.000000000000000
 11
167.5996061985457
 21
107.4141362720001
 31
0.000000000000000
  0
LINE
  5
10B
100
AcDbEntity
  8
A1
  6
CONTINUOUS
 62
7
100
AcDbLine
 10
133.2492958855455
 20
106.8713382360001
 30
0.000000000000000
 11
130.3996061985455
 21
107.4141362720001
 31
0.000000000000000
  0
LINE
  5
10C
100
AcDbEntity
  8
A1
  6
CONTINUOUS
 62
7
100
AcDbLine
 10
138.7950996415455
 20
107.3850061820000
 30
0.000000000000000
 11
130.3950996415455
 21
105.7350061819999
 31
0.000000000000000
  0
LINE
  5
10D
100
AcDbEntity
  8
A1
  6
CONTINUOUS
 62
7
100
AcDbLine
 10
130.7034921285455
 20
104.1650080690000
 30
0.000000000000000
 11
139.1034921285455
 21
105.8150080690001
 31
0.000000000000000
  0
LINE
  5
10E
100
AcDbEntity
  8
A1
  6
CONTINUOUS
 62
7
100
AcDbLine
 10
130.3950996415456
 20
104.1650080690000
 30
0.000000000000000
 11
133.2492958855455
 21
103.6043623780000
 31
0.000000000000000
  0
LINE
  5
10F
100
AcDbEntity
  8
A1
  6
CONTINUOUS
 62
7
100
AcDbLine
 10
139.1034921285456
 20
104.0850061820000
 30
0.000000000000000
 11
136.2492958855454
 21
104.6456518719999
 31
0.000000000000000
  0
LINE
  5
110
100
AcDbEntity
  8
A1
  6
CONTINUOUS
 62
7
100
AcDbLine
 10
130.3950996415456
 20
102.4350061820001
 30
0.000000000000000
 11
138.7950996415456
 21
104.0850061820003
 31
0.000000000000000
  0
LINE
  5
111
100
AcDbEntity
  8
A1
  6
CONTINUOUS
 62
7
100
AcDbLine
 10
139.1034921285455
 20
102.5150080690001
 30
0.000000000000000
 11
130.7034921285455
 21
100.8650080690000
 31
0.000000000000000
  0
LINE
  5
112
100
AcDbEntity
  8
A1
  6
CONTINUOUS
 62
7
100
AcDbLine
 10
130.3950996415457
 20
100.8650080690000
 30
0.000000000000000
 11
133.2492958855456
 21
100.3043623780001
 31
0.000000000000000
  0
LINE
  5
113
100
AcDbEntity
  8
A1
  6
CONTINUOUS
 62
7
100
AcDbLine
 10
139.1034921285456
 20
100.7850061820000
 30
0.000000000000000
 11
136.2492958855455
 21
101.3456518720000
 31
0.000000000000000
  0
LINE
  5
114
100
AcDbEntity
  8
A1
  6
CONTINUOUS
 62
7
100
AcDbLine
 10
130.3950996415456
 20
99.13500618199996
 30
0.000000000000000
 11
138.7950996415455
 21
100.7850061819999
 31
0.000000000000000
  0
LINE
  5
115
100
AcDbEntity
  8
A1
  6
CONTINUOUS
 62
7
100
AcDbLine
 10
139.1034921285454
 20
99.21500806899986
 30
0.000000000000000
 11
130.7034921285455
 21
97.56500806899999
 31
0.000000000000000
  0
LINE
  5
116
100
AcDbEntity
  8
A1
  6
CONTINUOUS
 62
7
100
AcDbLine
 10
136.2492958855455
 20
98.04565187200011
 30
0.000000000000000
 11
139.1034921285456
 21
97.48500618200009
 31
0.000000000000000
  0
LINE
  5
117
100
AcDbEntity
  8
A1
  6
CONTINUOUS
 62
7
100
AcDbLine
 10
133.2492958855456
 20
97.00436237799998
 30
0.000000000000000
 11
130.3950996415456
 21
97.56500806900009
 31
0.000000000000000
  0
LINE
  5
118
100
AcDbEntity
  8
A1
  6
CONTINUOUS
 62
7
100
AcDbLine
 10
130.3950996415455
 20
95.83500618200021
 30
0.000000000000000
 11
138.7950996415454
 21
97.48500618200019
 31
0.000000000000000
  0
LINE
  5
119
100
AcDbEntity
  8
A1
  6
CONTINUOUS
 62
7
100
AcDbLine
 10
139.1034921285455
 20
95.91500806900000
 30
0.000000000000000
 11
130.7034921285454
 21
94.26500806899998
 31
0.000000000000000
  0
LINE
  5
11A
100
AcDbEntity
  8
A1
  6
CONTINUOUS
 62
7
100
AcDbLine
 10
136.2492958855455
 20
94.74565187200000
 30
0.000000000000000
 11
139.1034921285456
 21
94.18500618200001
 31
0.000000000000000
  0
LINE
  5
11B
100
AcDbEntity
  8
A1
  6
CONTINUOUS
 62
7
100
AcDbLine
 10
133.2492958855455
 20
93.70436237800013
 30
0.000000000000000
 11
130.3950996415455
 21
94.26500806900009
 31
0.000000000000000
  0
LINE
  5
11C
100
AcDbEntity
  8
A1
  6
CONTINUOUS
 62
7
100
AcDbLine
 10
130.3996061985454
 20
92.58587797800000
 30
0.000000000000000
 11
138.7996061985453
 21
94.18587797799999
 31
0.000000000000000
  0
LINE
  5
11D
100
AcDbEntity
  8
A1
  6
CONTINUOUS
 62
7
100
AcDbLine
 10
130.6989855715454
 20
91.01413627199990
 30
0.000000000000000
 11
139.0989855715453
 21
92.61413627199990
 31
0.000000000000000
  0
LINE
  5
11E
100
AcDbEntity
  8
A1
  6
CONTINUOUS
 62
7
100
AcDbLine
 10
130.5492958855455
 20
107.4000071250000
 30
0.000000000000000
 11
138.9492958855456
 21
107.4000071250000
 31
0.000000000000000
  0
ARC
  5
11F
100
AcDbEntity
  8
A1
  6
CONTINUOUS
 62
7
100
AcDbCircle
 10
138.9492958855455
 20
96.70000712499996
 30
0.000000000000000
 40
0.8000000000000000
100
AcDbArc
 50
281.1130405360000
 51
461.1130405360000
  0
ARC
  5
120
100
AcDbEntity
  8
A1
  6
CONTINUOUS
 62
7
100
AcDbCircle
 10
130.5492958855454
 20
95.05000712500009
 30
0.000000000000000
 40
0.8000000000000000
100
AcDbArc
 50
101.1130405359999
 51
281.1130405360000
  0
ARC
  5
121
100
AcDbEntity
  8
A1
  6
CONTINUOUS
 62
7
100
AcDbCircle
 10
130.5492958855454
 20
98.35000712500005
 30
0.000000000000000
 40
0.8000000000000000
100
AcDbArc
 50
101.1130405359999
 51
281.1130405360000
  0
ARC
  5
122
100
AcDbEntity
  8
A1
  6
CONTINUOUS
 62
7
100
AcDbCircle
 10
130.5492958855454
 20
101.6500071250001
 30
0.000000000000000
 40
0.8000000000000000
100
AcDbArc
 50
101.1130405359999
 51
281.1130405360000
  0
LINE
  5
123
100
AcDbEntity
  8
A1
  6
CONTINUOUS
 62
7
100
AcDbLine
 10
141.0992958855454
 20
82.34235773100001
 30
0.000000000000000
 11
141.0992958855454
 21
73.00000712500004
 31
0.000000000000000
  0
LINE
  5
124
100
AcDbEntity
  8
A1
  6
CONTINUOUS
 62
7
100
AcDbLine
 10
138.9492958855456
 20
91.00000712500004
 30
0.000000000000000
 11
136.2492958855455
 21
91.00000712500004
 31
0.000000000000000
  0
LINE
  5
125
100
AcDbEntity
  8
A1
  6
CONTINUOUS
 62
7
100
AcDbLine
 10
134.7492958855455
 20
91.78562395099995
 30
0.000000000000000
 11
134.7492958855455
 21
88.00000712500015
 31
0.000000000000000
  0
LINE
  5
126
100
AcDbEntity
  8
A1
  6
CONTINUOUS
 62
7
100
AcDbLine
 10
136.2492958855455
 20
92.07133823600010
 30
0.000000000000000
 11
136.2492958855455
 21
90.98541874000001
 31
0.000000000000000
  0
LINE
  5
127
100
AcDbEntity
  8
A1
  6
CONTINUOUS
 62
7
100
AcDbLine
 10
133.2492958855455
 20
109.0000071250000
 30
0.000000000000000
 11
133.2492958855455
 21
111.7500071250000
 31
0.000000000000000
  0
LINE
  5
128
100
AcDbEntity
  8
A1
  6
CONTINUOUS
 62
7
100
AcDbLine
 10
139.5992958855453
 20
73.00000712500004
 30
0.000000000000000
 11
139.5992958855453
 21
82.34235773100001
 31
0.000000000000000
  0
LINE
  5
129
100
AcDbEntity
  8
A1
  6
CONTINUOUS
 62
7
100
AcDbLine
 10
139.5992958855453
 20
73.00000712500004
 30
0.000000000000000
 11
141.0992958855454
 21
73.00000712500004
 31
0.000000000000000
  0
LINE
  5
12A
100
AcDbEntity
  8
A1
  6
CONTINUOUS
 62
7
100
AcDbLine
 10
134.7492958855455
 20
109.0000071250000
 30
0.000000000000000
 11
136.2492958855455
 21
109.0000071250000
 31
0.000000000000000
  0
ARC
  5
12B
100
AcDbEntity
  8
A1
  6
CONTINUOUS
 62
7
100
AcDbCircle
 10
139.0992958855454
 20
82.34235773099999
 30
0.000000000000000
 40
0.5000000000000000
100
AcDbArc
 50
0.000000000000000
 51
34.99999999999999
  0
ARC
  5
12C
100
AcDbEntity
  8
A1
  6
CONTINUOUS
 62
7
100
AcDbCircle
 10
136.7492958855454
 20
90.98541874000000
 30
0.000000000000000
 40
0.5000000000000000
100
AcDbArc
 50
180.0000000000000
 51
215.0000000000000
  0
ARC
  5
12D
100
AcDbEntity
  8
A1
  6
CONTINUOUS
 62
7
100
AcDbCircle
 10
139.0992958855454
 20
82.34235773099999
 30
0.000000000000000
 40
2.000000000000000
100
AcDbArc
 50
0.000000000000000
 51
34.99999999999999
  0
ARC
  5
12E
100
AcDbEntity
  8
A1
  6
CONTINUOUS
 62
7
100
AcDbCircle
 10
136.7492958855454
 20
90.98541874000000
 30
0.000000000000000
 40
2.000000000000000
100
AcDbArc
 50
180.0000000000000
 51
215.0000000000000
  0
LINE
  5
12F
100
AcDbEntity
  8
A1
  6
CONTINUOUS
 62
7
100
AcDbLine
 10
134.7921891035455
 20
112.0000071250002
 30
0.000000000000000
 11
136.2492958855455
 21
112.0000071250002
 31
0.000000000000000
  0
LINE
  5
130
100
AcDbEntity
  8
A1
  6
CONTINUOUS
 62
7
100
AcDbLine
 10
141.0992958855454
 20
124.8571744260001
 30
0.000000000000000
 11
141.0992958855454
 21
114.7500071250000
 31
0.000000000000000
  0
LINE
  5
131
100
AcDbEntity
  8
A1
  6
CONTINUOUS
 62
7
100
AcDbLine
 10
139.5992958855453
 20
124.8571744260001
 30
0.000000000000000
 11
141.0992958855454
 21
124.8571744260001
 31
0.000000000000000
  0
LINE
  5
132
100
AcDbEntity
  8
A1
  6
CONTINUOUS
 62
7
100
AcDbLine
 10
136.2492958855455
 20
112.0000071250002
 30
0.000000000000000
 11
136.2492958855455
 21
109.0000071250000
 31
0.000000000000000
  0
LINE
  5
133
100
AcDbEntity
  8
A1
  6
CONTINUOUS
 62
7
100
AcDbLine
 10
134.7492958855455
 20
88.00000712500015
 30
0.000000000000000
 11
133.2492958855455
 21
88.00000712500015
 31
0.000000000000000
  0
LINE
  5
134
100
AcDbEntity
  8
A1
  6
CONTINUOUS
 62
7
100
AcDbLine
 10
135.4992958855455
 20
114.0000071250002
 30
0.000000000000000
 11
138.8492958855454
 21
114.0000071250002
 31
0.000000000000000
  0
LINE
  5
135
100
AcDbEntity
  8
A1
  6
CONTINUOUS
 62
7
100
AcDbLine
 10
139.5992958855453
 20
114.7500071250000
 30
0.000000000000000
 11
139.5992958855453
 21
124.8571744260001
 31
0.000000000000000
  0
LINE
  5
136
100
AcDbEntity
  8
A1
  6
CONTINUOUS
 62
7
100
AcDbLine
 10
133.2492958855455
 20
88.00000712500015
 30
0.000000000000000
 11
133.2492958855455
 21
91.49990966500015
 31
0.000000000000000
  0
ARC
  5
137
100
AcDbEntity
  8
A1
  6
CONTINUOUS
 62
7
100
AcDbCircle
 10
138.8492958855454
 20
114.7500071250000
 30
0.000000000000000
 40
0.7500000000000000
100
AcDbArc
 50
270.0000000000000
 51
360.0000000000000
  0
ARC
  5
138
100
AcDbEntity
  8
A1
  6
CONTINUOUS
 62
7
100
AcDbCircle
 10
138.8492958855454
 20
114.7500071250000
 30
0.000000000000000
 40
2.250000000000000
100
AcDbArc
 50
270.0000000000000
 51
360.0000000000000
  0
ARC
  5
139
100
AcDbEntity
  8
A1
  6
CONTINUOUS
 62
7
100
AcDbCircle
 10
135.4992958855455
 20
111.7500071250000
 30
0.000000000000000
 40
2.250000000000000
100
AcDbArc
 50
90.00000000000000
 51
180.0000000000000
  0
LINE
  5
13A
100
AcDbEntity
  8
A1
  6
CONTINUOUS
 62
7
100
AcDbLine
 10
171.9529697175456
 20
100.0089978750000
 30
0.000000000000000
 11
171.9987408095456
 21
100.0000071250000
 31
0.000000000000000
  0
LINE
  5
13B
100
AcDbEntity
  8
A1
  6
CONTINUOUS
 62
7
100
AcDbLine
 10
171.9492958855456
 20
91.78562395099995
 30
0.000000000000000
 11
171.9492958855456
 21
88.00000712500015
 31
0.000000000000000
  0
LINE
  5
13C
100
AcDbEntity
  8
A1
  6
CONTINUOUS
 62
7
100
AcDbLine
 10
171.9492958855456
 20
95.05000712500011
 30
0.000000000000000
 11
171.9492958855456
 21
93.41209083900004
 31
0.000000000000000
  0
LINE
  5
13D
100
AcDbEntity
  8
A1
  6
CONTINUOUS
 62
7
100
AcDbLine
 10
171.9492958855456
 20
98.35971952100000
 30
0.000000000000000
 11
171.9492958855456
 21
96.70971952100003
 31
0.000000000000000
  0
LINE
  5
13E
100
AcDbEntity
  8
A1
  6
CONTINUOUS
 62
7
100
AcDbLine
 10
173.4492958855456
 20
93.70010458500009
 30
0.000000000000000
 11
173.4492958855456
 21
95.35436237800003
 31
0.000000000000000
  0
LINE
  5
13F
100
AcDbEntity
  8
A1
  6
CONTINUOUS
 62
7
100
AcDbLine
 10
173.4492958855456
 20
96.98493758600002
 30
0.000000000000000
 11
173.4492958855456
 21
98.65436237800010
 31
0.000000000000000
  0
LINE
  5
140
100
AcDbEntity
  8
A1
  6
CONTINUOUS
 62
7
100
AcDbLine
 10
173.4492958855456
 20
100.2849375860001
 30
0.000000000000000
 11
173.4492958855456
 21
101.9543623780001
 31
0.000000000000000
  0
LINE
  5
141
100
AcDbEntity
  8
A1
  6
CONTINUOUS
 62
7
100
AcDbLine
 10
170.4492958855454
 20
91.49990966500015
 30
0.000000000000000
 11
170.4492958855454
 21
90.98541874000001
 31
0.000000000000000
  0
LINE
  5
142
100
AcDbEntity
  8
A1
  6
CONTINUOUS
 62
7
100
AcDbLine
 10
170.4492958855454
 20
94.76507666399995
 30
0.000000000000000
 11
170.4492958855454
 21
93.12867601400013
 31
0.000000000000000
  0
LINE
  5
143
100
AcDbEntity
  8
A1
  6
CONTINUOUS
 62
7
100
AcDbLine
 10
170.4492958855454
 20
98.06507666400002
 30
0.000000000000000
 11
170.4492958855454
 21
96.39565187200004
 31
0.000000000000000
  0
LINE
  5
144
100
AcDbEntity
  8
A1
  6
CONTINUOUS
 62
7
100
AcDbLine
 10
170.4492958855454
 20
101.3650766640001
 30
0.000000000000000
 11
170.4492958855454
 21
99.69565187200000
 31
0.000000000000000
  0
LINE
  5
145
100
AcDbEntity
  8
A1
  6
CONTINUOUS
 62
7
100
AcDbLine
 10
171.9492958855456
 20
101.6402947290001
 30
0.000000000000000
 11
171.9492958855456
 21
99.99029472899998
 31
0.000000000000000
  0
LINE
  5
146
100
AcDbEntity
  8
A1
  6
CONTINUOUS
 62
7
100
AcDbLine
 10
173.4492958855456
 20
103.5849375860000
 30
0.000000000000000
 11
173.4492958855456
 21
105.2543623780000
 31
0.000000000000000
  0
LINE
  5
147
100
AcDbEntity
  8
A1
  6
CONTINUOUS
 62
7
100
AcDbLine
 10
170.4492958855454
 20
104.6650766640002
 30
0.000000000000000
 11
170.4492958855454
 21
102.9956518720001
 31
0.000000000000000
  0
LINE
  5
148
100
AcDbEntity
  8
A1
  6
CONTINUOUS
 62
7
100
AcDbLine
 10
171.9492958855456
 20
104.9597195210000
 30
0.000000000000000
 11
171.9492958855456
 21
103.2902947290001
 31
0.000000000000000
  0
LINE
  5
149
100
AcDbEntity
  8
A4
  6
CENTER
 62
1
100
AcDbLine
 10
169.4206496035454
 20
77.50000712500004
 30
0.000000000000000
 11
137.2270354385454
 21
77.50000712500004
 31
0.000000000000000
  0
ARC
  5
14A
100
AcDbEntity
  8
A1
  6
CONTINUOUS
 62
7
100
AcDbCircle
 10
164.8492958855453
 20
100.7500000000001
 30
0.000000000000000
 40
1.000000000000000
100
AcDbArc
 50
0.000000000000000
 51
90.00000000000000
  0
LINE
  5
14B
100
AcDbEntity
  8
A1
  6
CONTINUOUS
 62
7
100
AcDbLine
 10
173.4492958855456
 20
106.8849375860000
 30
0.000000000000000
 11
173.4492958855456
 21
107.4000071250000
 31
0.000000000000000
  0
LINE
  5
14C
100
AcDbEntity
  8
A1
  6
CONTINUOUS
 62
7
100
AcDbLine
 10
167.0992958855453
 20
79.25000712175667
 30
0.000000000000000
 11
167.3492958855453
 21
79.25000712175667
 31
0.000000000000000
  0
LINE
  5
14D
100
AcDbEntity
  8
A1
  6
CONTINUOUS
 62
7
100
AcDbLine
 10
170.4492958855454
 20
91.00000712500004
 30
0.000000000000000
 11
167.7492958855455
 21
91.00000712500004
 31
0.000000000000000
  0
LINE
  5
14E
100
AcDbEntity
  8
A1
  6
CONTINUOUS
 62
7
100
AcDbLine
 10
170.4492958855454
 20
109.0000071250000
 30
0.000000000000000
 11
167.7492958855455
 21
109.0000071250000
 31
0.000000000000000
  0
LINE
  5
14F
100
AcDbEntity
  8
A1
  6
CONTINUOUS
 62
7
100
AcDbLine
 10
170.4492958855454
 20
107.4000071250000
 30
0.000000000000000
 11
170.4492958855454
 21
106.2956518720001
 31
0.000000000000000
  0
LINE
  5
150
100
AcDbEntity
  8
A1
  6
CONTINUOUS
 62
7
100
AcDbLine
 10
171.9492958855456
 20
107.4000071250000
 30
0.000000000000000
 11
171.9492958855456
 21
106.5902947290000
 31
0.000000000000000
  0
LINE
  5
151
100
AcDbEntity
  8
A1
  6
CONTINUOUS
 62
7
100
AcDbLine
 10
173.4492958855456
 20
109.0000071250000
 30
0.000000000000000
 11
173.4492958855456
 21
111.7500071250000
 31
0.000000000000000
  0
ARC
  5
152
100
AcDbEntity
  8
A1
  6
CONTINUOUS
 62
7
100
AcDbCircle
 10
167.7492958855454
 20
108.2000071250001
 30
0.000000000000000
 40
0.8000000000000000
100
AcDbArc
 50
90.00000000000000
 51
270.0000000000000
  0
ARC
  5
153
100
AcDbEntity
  8
A1
  6
CONTINUOUS
 62
7
100
AcDbCircle
 10
167.7492958855454
 20
91.80000712500009
 30
0.000000000000000
 40
0.8000000000000000
100
AcDbArc
 50
100.7842978670000
 51
280.7842978670000
  0
ARC
  5
154
100
AcDbEntity
  8
A1
  6
CONTINUOUS
 62
7
100
AcDbCircle
 10
167.7492958855454
 20
104.9500071250001
 30
0.000000000000000
 40
0.8000000000000000
100
AcDbArc
 50
101.1130405359999
 51
281.1130405360000
  0
ARC
  5
155
100
AcDbEntity
  8
A1
  6
CONTINUOUS
 62
7
100
AcDbCircle
 10
167.7492958855454
 20
101.6500071250001
 30
0.000000000000000
 40
0.8000000000000000
100
AcDbArc
 50
101.1130405359999
 51
281.1130405360000
  0
ARC
  5
156
100
AcDbEntity
  8
A1
  6
CONTINUOUS
 62
7
100
AcDbCircle
 10
138.9492958855455
 20
100.0000071250000
 30
0.000000000000000
 40
0.8000000000000000
100
AcDbArc
 50
281.1130405360000
 51
461.1130405360000
  0
ARC
  5
157
100
AcDbEntity
  8
A1
  6
CONTINUOUS
 62
7
100
AcDbCircle
 10
167.7492958855454
 20
98.35000712500005
 30
0.000000000000000
 40
0.8000000000000000
100
AcDbArc
 50
101.1130405359999
 51
281.1130405360000
  0
ARC
  5
158
100
AcDbEntity
  8
A1
  6
CONTINUOUS
 62
7
100
AcDbCircle
 10
167.7492958855454
 20
95.05000712500009
 30
0.000000000000000
 40
0.8000000000000000
100
AcDbArc
 50
101.1130405359999
 51
281.1130405360000
  0
LINE
  5
159
100
AcDbEntity
  8
A1
  6
CONTINUOUS
 62
7
100
AcDbLine
 10
144.9492958855454
 20
101.2500000000000
 30
0.000000000000000
 11
145.2492958855454
 21
101.2500000000000
 31
0.000000000000000
  0
LINE
  5
15A
100
AcDbEntity
  8
A1
  6
CONTINUOUS
 62
7
100
AcDbLine
 10
165.8492958855454
 20
100.7500000000001
 30
0.000000000000000
 11
165.8492958855454
 21
97.25000000000001
 31
0.000000000000000
  0
ARC
  5
15B
100
AcDbEntity
  8
A1
  6
CONTINUOUS
 62
7
100
AcDbCircle
 10
164.8492958855453
 20
97.25000000000000
 30
0.000000000000000
 40
1.000000000000000
100
AcDbArc
 50
270.0000000000000
 51
360.0000000000000
  0
LINE
  5
15C
100
AcDbEntity
  8
A1
  6
CONTINUOUS
 62
7
100
AcDbLine
 10
143.4492958855453
 20
101.2500000000000
 30
0.000000000000000
 11
143.3492958855454
 21
101.2500000000000
 31
0.000000000000000
  0
LINE
  5
15D
100
AcDbEntity
  8
A1
  6
CONTINUOUS
 62
7
100
AcDbLine
 10
143.4492958855453
 20
96.75000000000001
 30
0.000000000000000
 11
143.3492958855454
 21
96.75000000000001
 31
0.000000000000000
  0
LINE
  5
15E
100
AcDbEntity
  8
A1
  6
CONTINUOUS
 62
7
100
AcDbLine
 10
146.5492958855453
 20
96.75000000000001
 30
0.000000000000000
 11
146.2492958855453
 21
96.75000000000001
 31
0.000000000000000
  0
LINE
  5
15F
100
AcDbEntity
  8
A1
  6
CONTINUOUS
 62
7
100
AcDbLine
 10
161.7492958855454
 20
96.75000000000001
 30
0.000000000000000
 11
161.4492958855454
 21
96.75000000000001
 31
0.000000000000000
  0
LINE
  5
160
100
AcDbEntity
  8
A1
  6
CONTINUOUS
 62
7
100
AcDbLine
 10
163.3492958855453
 20
96.75000000000001
 30
0.000000000000000
 11
163.2492958855453
 21
96.75000000000001
 31
0.000000000000000
  0
LINE
  5
161
100
AcDbEntity
  8
A1
  6
CONTINUOUS
 62
7
100
AcDbLine
 10
161.7492958855454
 20
101.2500000000000
 30
0.000000000000000
 11
161.4492958855454
 21
101.2500000000000
 31
0.000000000000000
  0
LINE
  5
162
100
AcDbEntity
  8
A1
  6
CONTINUOUS
 62
7
100
AcDbLine
 10
163.3492958855453
 20
101.2500000000000
 30
0.000000000000000
 11
163.2492958855453
 21
101.2500000000000
 31
0.000000000000000
  0
LINE
  5
163
100
AcDbEntity
  8
A1
  6
CONTINUOUS
 62
7
100
AcDbLine
 10
164.8492958855453
 20
79.75000712500015
 30
0.000000000000000
 11
165.5992958855453
 21
79.75000712500015
 31
0.000000000000000
  0
LINE
  5
164
100
AcDbEntity
  8
A1
  6
CONTINUOUS
 62
7
100
AcDbLine
 10
165.5992958855453
 20
75.25000712500004
 30
0.000000000000000
 11
164.8492958855453
 21
75.25000712500004
 31
0.000000000000000
  0
LINE
  5
165
100
AcDbEntity
  8
A1
  6
CONTINUOUS
 62
7
100
AcDbLine
 10
141.8492958855453
 20
79.75000712500015
 30
0.000000000000000
 11
141.0992958855454
 21
79.75000712500015
 31
0.000000000000000
  0
LINE
  5
166
100
AcDbEntity
  8
A1
  6
CONTINUOUS
 62
7
100
AcDbLine
 10
141.8492958855453
 20
75.25000712500004
 30
0.000000000000000
 11
141.0992958855454
 21
75.25000712500004
 31
0.000000000000000
  0
LINE
  5
167
100
AcDbEntity
  8
A1
  6
CONTINUOUS
 62
7
100
AcDbLine
 10
176.1492958855454
 20
109.0000071250000
 30
0.000000000000000
 11
171.9492958855456
 21
109.0000071250000
 31
0.000000000000000
  0
ARC
  5
168
100
AcDbEntity
  8
A1
  6
CONTINUOUS
 62
7
100
AcDbCircle
 10
167.3492958855453
 20
78.25000712175665
 30
0.000000000000000
 40
1.000000000000000
100
AcDbArc
 50
0.000000000000000
 51
90.00000000000000
  0
LINE
  5
169
100
AcDbEntity
  8
A1
  6
CONTINUOUS
 62
7
100
AcDbLine
 10
167.9034921285456
 20
104.1650080690000
 30
0.000000000000000
 11
176.3034921285455
 21
105.8150080690001
 31
0.000000000000000
  0
LINE
  5
16A
100
AcDbEntity
  8
A1
  6
CONTINUOUS
 62
7
100
AcDbLine
 10
167.5950996415456
 20
104.1650080690000
 30
0.000000000000000
 11
170.4492958855454
 21
103.6043623779999
 31
0.000000000000000
  0
LINE
  5
16B
100
AcDbEntity
  8
A1
  6
CONTINUOUS
 62
7
100
AcDbLine
 10
175.9950996415455
 20
107.3850061820000
 30
0.000000000000000
 11
167.5950996415454
 21
105.7350061820000
 31
0.000000000000000
  0
LINE
  5
16C
100
AcDbEntity
  8
A1
  6
CONTINUOUS
 62
7
100
AcDbLine
 10
167.0992958855453
 20
73.00000712500004
 30
0.000000000000000
 11
167.0992958855453
 21
82.34235773100001
 31
0.000000000000000
  0
LINE
  5
16D
100
AcDbEntity
  8
A1
  6
CONTINUOUS
 62
7
100
AcDbLine
 10
165.5992958855453
 20
82.34235773100001
 30
0.000000000000000
 11
165.5992958855453
 21
73.00000712500004
 31
0.000000000000000
  0
LINE
  5
16E
100
AcDbEntity
  8
A1
  6
CONTINUOUS
 62
7
100
AcDbLine
 10
170.4492958855454
 20
112.0000071250002
 30
0.000000000000000
 11
170.4492958855454
 21
109.0000071250000
 31
0.000000000000000
  0
ARC
  5
16F
100
AcDbEntity
  8
A1
  6
CONTINUOUS
 62
7
100
AcDbCircle
 10
169.9492958855454
 20
90.98541874000000
 30
0.000000000000000
 40
2.000000000000000
100
AcDbArc
 50
325.0000000000000
 51
360.0000000000000
  0
LINE
  5
170
100
AcDbEntity
  8
A1
  6
CONTINUOUS
 62
7
100
AcDbLine
 10
167.0992958855453
 20
124.8571744260001
 30
0.000000000000000
 11
165.5992958855453
 21
124.8571744260001
 31
0.000000000000000
  0
ARC
  5
171
100
AcDbEntity
  8
A1
  6
CONTINUOUS
 62
7
100
AcDbCircle
 10
167.5992958855453
 20
82.34235773099999
 30
0.000000000000000
 40
0.5000000000000000
100
AcDbArc
 50
145.0000000000000
 51
180.0000000000000
  0
LINE
  5
172
100
AcDbEntity
  8
A1
  6
CONTINUOUS
 62
7
100
AcDbLine
 10
171.9492958855456
 20
109.0000071250000
 30
0.000000000000000
 11
170.4492958855454
 21
109.0000071250000
 31
0.000000000000000
  0
ARC
  5
173
100
AcDbEntity
  8
A1
  6
CONTINUOUS
 62
7
100
AcDbCircle
 10
167.5992958855453
 20
82.34235773099999
 30
0.000000000000000
 40
2.000000000000000
100
AcDbArc
 50
145.0000000000000
 51
180.0000000000000
  0
ARC
  5
174
100
AcDbEntity
  8
A1
  6
CONTINUOUS
 62
7
100
AcDbCircle
 10
169.9492958855454
 20
90.98541874000000
 30
0.000000000000000
 40
0.5000000000000000
100
AcDbArc
 50
325.0000000000000
 51
360.0000000000000
  0
LINE
  5
175
100
AcDbEntity
  8
A1
  6
CONTINUOUS
 62
7
100
AcDbLine
 10
167.0992958855453
 20
73.00000712500004
 30
0.000000000000000
 11
165.5992958855453
 21
73.00000712500004
 31
0.000000000000000
  0
LINE
  5
176
100
AcDbEntity
  8
A1
  6
CONTINUOUS
 62
7
100
AcDbLine
 10
165.5992958855453
 20
124.8571744260001
 30
0.000000000000000
 11
165.5992958855453
 21
114.7500071250000
 31
0.000000000000000
  0
LINE
  5
177
100
AcDbEntity
  8
A1
  6
CONTINUOUS
 62
7
100
AcDbLine
 10
171.9064026665455
 20
112.0000071250002
 30
0.000000000000000
 11
170.4492958855454
 21
112.0000071250002
 31
0.000000000000000
  0
LINE
  5
178
100
AcDbEntity
  8
A1
  6
CONTINUOUS
 62
7
100
AcDbLine
 10
176.1492958855454
 20
91.00000712500004
 30
0.000000000000000
 11
173.4492958855456
 21
91.00000712500004
 31
0.000000000000000
  0
LINE
  5
179
100
AcDbEntity
  8
A1
  6
CONTINUOUS
 62
7
100
AcDbLine
 10
171.9492958855456
 20
88.00000712500015
 30
0.000000000000000
 11
173.4492958855456
 21
88.00000712500015
 31
0.000000000000000
  0
LINE
  5
17A
100
AcDbEntity
  8
A1
  6
CONTINUOUS
 62
7
100
AcDbLine
 10
171.1992958855455
 20
114.0000071250001
 30
0.000000000000000
 11
167.8492958855454
 21
114.0000071250001
 31
0.000000000000000
  0
LINE
  5
17B
100
AcDbEntity
  8
A1
  6
CONTINUOUS
 62
7
100
AcDbLine
 10
167.0992958855453
 20
114.7500071250000
 30
0.000000000000000
 11
167.0992958855453
 21
124.8571744260001
 31
0.000000000000000
  0
LINE
  5
17C
100
AcDbEntity
  8
A1
  6
CONTINUOUS
 62
7
100
AcDbLine
 10
173.4492958855456
 20
88.00000712500015
 30
0.000000000000000
 11
173.4492958855456
 21
92.07133823600010
 31
0.000000000000000
  0
ARC
  5
17D
100
AcDbEntity
  8
A1
  6
CONTINUOUS
 62
7
100
AcDbCircle
 10
167.8492958855454
 20
114.7500071250000
 30
0.000000000000000
 40
0.7500000000000000
100
AcDbArc
 50
180.0000000000000
 51
270.0000000000000
  0
LINE
  5
17E
100
AcDbEntity
  8
A1
  6
CONTINUOUS
 62
7
100
AcDbLine
 10
134.7492958855455
 20
104.9597195210000
 30
0.000000000000000
 11
134.7492958855455
 21
103.2902947290001
 31
0.000000000000000
  0
LINE
  5
17F
100
AcDbEntity
  8
A1
  6
CONTINUOUS
 62
7
100
AcDbLine
 10
136.2492958855455
 20
106.8849375860000
 30
0.000000000000000
 11
136.2492958855455
 21
107.4000071250000
 31
0.000000000000000
  0
LINE
  5
180
100
AcDbEntity
  8
A1
  6
CONTINUOUS
 62
7
100
AcDbLine
 10
133.2492958855455
 20
91.00000712500004
 30
0.000000000000000
 11
130.5492958855455
 21
91.00000712500004
 31
0.000000000000000
  0
LINE
  5
181
100
AcDbEntity
  8
A1
  6
CONTINUOUS
 62
7
100
AcDbLine
 10
134.7492958855455
 20
109.0000071250000
 30
0.000000000000000
 11
130.5492958855455
 21
109.0000071250000
 31
0.000000000000000
  0
LINE
  5
182
100
AcDbEntity
  8
A1
  6
CONTINUOUS
 62
7
100
AcDbLine
 10
133.2492958855455
 20
107.4000071250000
 30
0.000000000000000
 11
133.2492958855455
 21
106.2956518720001
 31
0.000000000000000
  0
LINE
  5
183
100
AcDbEntity
  8
A1
  6
CONTINUOUS
 62
7
100
AcDbLine
 10
134.7492958855455
 20
107.4000071250000
 30
0.000000000000000
 11
134.7492958855455
 21
106.5902947290000
 31
0.000000000000000
  0
ARC
  5
184
100
AcDbEntity
  8
A1
  6
CONTINUOUS
 62
7
100
AcDbCircle
 10
138.9492958855455
 20
108.2000071250001
 30
0.000000000000000
 40
0.8000000000000000
100
AcDbArc
 50
270.0000000000000
 51
450.0000000000000
  0
ARC
  5
185
100
AcDbEntity
  8
A1
  6
CONTINUOUS
 62
7
100
AcDbCircle
 10
130.5492958855454
 20
108.2000071250001
 30
0.000000000000000
 40
0.8000000000000000
100
AcDbArc
 50
90.00000000000000
 51
270.0000000000000
  0
ARC
  5
186
100
AcDbEntity
  8
A1
  6
CONTINUOUS
 62
7
100
AcDbCircle
 10
138.9492958855455
 20
106.6000071250000
 30
0.000000000000000
 40
0.8000000000000000
100
AcDbArc
 50
281.1130405360000
 51
461.1130405360000
  0
ARC
  5
187
100
AcDbEntity
  8
A1
  6
CONTINUOUS
 62
7
100
AcDbCircle
 10
130.5492958855454
 20
91.80000712500009
 30
0.000000000000000
 40
0.8000000000000000
100
AcDbArc
 50
100.7842978670000
 51
280.7842978670000
  0
ARC
  5
188
100
AcDbEntity
  8
A1
  6
CONTINUOUS
 62
7
100
AcDbCircle
 10
138.9492958855455
 20
93.40000712500012
 30
0.000000000000000
 40
0.8000000000000000
100
AcDbArc
 50
280.7842978670000
 51
460.7842978670000
  0
CIRCLE
  5
189
100
AcDbEntity
  8
A1
  6
CONTINUOUS
 62
7
100
AcDbCircle
 10
138.9492958855455
 20
91.80000712500009
 30
0.000000000000000
 40
0.8000000000000000
  0
LINE
  5
18A
100
AcDbEntity
  8
A1
  6
CONTINUOUS
 62
7
100
AcDbLine
 10
134.7529697175456
 20
100.0089978750001
 30
0.000000000000000
 11
134.7987408095456
 21
100.0000071250000
 31
0.000000000000000
  0
LINE
  5
18B
100
AcDbEntity
  8
A1
  6
CONTINUOUS
 62
7
100
AcDbLine
 10
134.7492958855455
 20
95.05000712500011
 30
0.000000000000000
 11
134.7492958855455
 21
93.41209083900004
 31
0.000000000000000
  0
LINE
  5
18C
100
AcDbEntity
  8
A1
  6
CONTINUOUS
 62
7
100
AcDbLine
 10
145.2492958855454
 20
104.0000000000001
 30
0.000000000000000
 11
146.2492958855453
 21
104.0000000000001
 31
0.000000000000000
  0
ARC
  5
18D
100
AcDbEntity
  8
A1
  6
CONTINUOUS
 62
7
100
AcDbCircle
 10
142.3492958855453
 20
55.00000000000011
 30
0.000000000000000
 40
1.000000000000000
100
AcDbArc
 50
90.00000000000000
 51
180.0000000000000
  0
LINE
  5
18E
100
AcDbEntity
  8
A1
  6
CONTINUOUS
 62
7
100
AcDbLine
 10
142.3492958855453
 20
56.00000000000012
 30
0.000000000000000
 11
143.1517691805453
 21
56.00000000000012
 31
0.000000000000000
  0
LINE
  5
18F
100
AcDbEntity
  8
A1
  6
CONTINUOUS
 62
7
100
AcDbLine
 10
143.3492958855454
 20
50.00000000000001
 30
0.000000000000000
 11
142.8492958855454
 21
50.00000000000001
 31
0.000000000000000
  0
LINE
  5
190
100
AcDbEntity
  8
A1
  6
CONTINUOUS
 62
7
100
AcDbLine
 10
146.2492958855453
 20
104.0000000000001
 30
0.000000000000000
 11
146.2492958855453
 21
92.28585715700002
 31
0.000000000000000
  0
ARC
  5
191
100
AcDbEntity
  8
A1
  6
CONTINUOUS
 62
7
100
AcDbCircle
 10
142.3492958855453
 20
70.00000000000000
 30
0.000000000000000
 40
1.000000000000000
100
AcDbArc
 50
180.0000000000000
 51
240.0000000240000
  0
ARC
  5
192
100
AcDbEntity
  8
A1
  6
CONTINUOUS
 62
7
100
AcDbCircle
 10
141.8492958855453
 20
97.25000000000000
 30
0.000000000000000
 40
1.000000000000000
100
AcDbArc
 50
180.0000000000000
 51
270.0000000000000
  0
ARC
  5
193
100
AcDbEntity
  8
A1
  6
CONTINUOUS
 62
7
100
AcDbCircle
 10
141.8492958855453
 20
100.7500000000001
 30
0.000000000000000
 40
1.000000000000000
100
AcDbArc
 50
90.00000000000000
 51
180.0000000000000
  0
LINE
  5
194
100
AcDbEntity
  8
A1
  6
CONTINUOUS
 62
7
100
AcDbLine
 10
136.2492958855455
 20
109.0000071250000
 30
0.000000000000000
 11
138.9492958855456
 21
109.0000071250000
 31
0.000000000000000
  0
LINE
  5
195
100
AcDbEntity
  8
A1
  6
CONTINUOUS
 62
7
100
AcDbLine
 10
136.2492958855455
 20
93.70010458500009
 30
0.000000000000000
 11
136.2492958855455
 21
95.35436237800003
 31
0.000000000000000
  0
ARC
  5
196
100
AcDbEntity
  8
A1
  6
CONTINUOUS
 62
7
100
AcDbCircle
 10
142.8492958855454
 20
51.50000000000000
 30
0.000000000000000
 40
1.500000000000000
100
AcDbArc
 50
180.0000000000000
 51
270.0000000000000
  0
LINE
  5
197
100
AcDbEntity
  8
A1
  6
CONTINUOUS
 62
7
100
AcDbLine
 10
141.3492958855454
 20
55.00000000000012
 30
0.000000000000000
 11
141.3492958855454
 21
51.50000000000001
 31
0.000000000000000
  0
LINE
  5
198
100
AcDbEntity
  8
A1
  6
CONTINUOUS
 62
7
100
AcDbLine
 10
136.2492958855455
 20
96.98493758600002
 30
0.000000000000000
 11
136.2492958855455
 21
98.65436237800010
 31
0.000000000000000
  0
ARC
  5
199
100
AcDbEntity
  8
A1
  6
CONTINUOUS
 62
7
100
AcDbCircle
 10
164.3492958855453
 20
55.00000000000011
 30
0.000000000000000
 40
1.000000000000000
100
AcDbArc
 50
0.000000000000000
 51
90.00000000000000
  0
LINE
  5
19A
100
AcDbEntity
  8
A1
  6
CONTINUOUS
 62
7
100
AcDbLine
 10
164.3492958855453
 20
56.00000000000012
 30
0.000000000000000
 11
163.5468225905453
 21
56.00000000000012
 31
0.000000000000000
  0
LINE
  5
19B
100
AcDbEntity
  8
A1
  6
CONTINUOUS
 62
7
100
AcDbLine
 10
136.2492958855455
 20
100.2849375860001
 30
0.000000000000000
 11
136.2492958855455
 21
101.9543623780001
 31
0.000000000000000
  0
LINE
  5
19C
100
AcDbEntity
  8
A4
  6
CENTER
 62
1
100
AcDbLine
 10
153.3492958855454
 20
126.3571744260000
 30
0.000000000000000
 11
153.3492958855454
 21
41.89195531800010
 31
0.000000000000000
  0
LINE
  5
19D
100
AcDbEntity
  8
A1
  6
CONTINUOUS
 62
7
100
AcDbLine
 10
133.2492958855455
 20
94.76507666399995
 30
0.000000000000000
 11
133.2492958855455
 21
93.12867601400013
 31
0.000000000000000
  0
ARC
  5
19E
100
AcDbEntity
  8
A1
  6
CONTINUOUS
 62
7
100
AcDbCircle
 10
163.8492958855454
 20
51.50000000000000
 30
0.000000000000000
 40
1.500000000000000
100
AcDbArc
 50
270.0000000000000
 51
360.0000000000000
  0
LINE
  5
19F
100
AcDbEntity
  8
A1
  6
CONTINUOUS
 62
7
100
AcDbLine
 10
163.8492958855454
 20
50.00000000000001
 30
0.000000000000000
 11
163.3492958855453
 21
50.00000000000001
 31
0.000000000000000
  0
LINE
  5
1A0
100
AcDbEntity
  8
A1
  6
CONTINUOUS
 62
7
100
AcDbLine
 10
161.4492958855454
 20
92.00000000000001
 30
0.000000000000000
 11
161.4492958855454
 21
104.0000000000001
 31
0.000000000000000
  0
LINE
  5
1A1
100
AcDbEntity
  8
A1
  6
CONTINUOUS
 62
7
100
AcDbLine
 10
133.2492958855455
 20
98.06507666400002
 30
0.000000000000000
 11
133.2492958855455
 21
96.39565187200004
 31
0.000000000000000
  0
LINE
  5
1A2
100
AcDbEntity
  8
A1
  6
CONTINUOUS
 62
7
100
AcDbLine
 10
141.3492958855454
 20
75.25000712500004
 30
0.000000000000000
 11
141.3492958855454
 21
70.00000000000001
 31
0.000000000000000
  0
LINE
  5
1A3
100
AcDbEntity
  8
A1
  6
CONTINUOUS
 62
7
100
AcDbLine
 10
133.2492958855455
 20
101.3650766640001
 30
0.000000000000000
 11
133.2492958855455
 21
99.69565187200000
 31
0.000000000000000
  0
ARC
  5
1A4
100
AcDbEntity
  8
A1
  6
CONTINUOUS
 62
7
100
AcDbCircle
 10
164.3492958855453
 20
70.00000000000000
 30
0.000000000000000
 40
1.000000000000000
100
AcDbArc
 50
299.9999999999998
 51
360.0000000000000
  0
LINE
  5
1A5
100
AcDbEntity
  8
A1
  6
CONTINUOUS
 62
7
100
AcDbLine
 10
134.7492958855455
 20
101.6402947290001
 30
0.000000000000000
 11
134.7492958855455
 21
99.99029472899998
 31
0.000000000000000
  0
LINE
  5
1A6
100
AcDbEntity
  8
A4
  6
CENTER
 62
1
100
AcDbLine
 10
166.9216997705453
 20
99.00000000000001
 30
0.000000000000000
 11
139.6519837615454
 21
99.00000000000001
 31
0.000000000000000
  0
LINE
  5
1A7
100
AcDbEntity
  8
A1
  6
CONTINUOUS
 62
7
100
AcDbLine
 10
144.9492958855454
 20
106.0000000000001
 30
0.000000000000000
 11
144.9492958855454
 21
92.00000000000001
 31
0.000000000000000
  0
LINE
  5
1A8
100
AcDbEntity
  8
A1
  6
CONTINUOUS
 62
7
100
AcDbLine
 10
143.4492958855453
 20
106.0000000000001
 30
0.000000000000000
 11
143.4492958855453
 21
92.00000000000001
 31
0.000000000000000
  0
LINE
  5
1A9
100
AcDbEntity
  8
A1
  6
CONTINUOUS
 62
7
100
AcDbLine
 10
161.4492958855454
 20
104.0000000000001
 30
0.000000000000000
 11
160.4492958855453
 21
104.0000000000001
 31
0.000000000000000
  0
LINE
  5
1AA
100
AcDbEntity
  8
A1
  6
CONTINUOUS
 62
7
100
AcDbLine
 10
160.4492958855453
 20
104.0000000000001
 30
0.000000000000000
 11
160.4492958855453
 21
92.28585715700002
 31
0.000000000000000
  0
LINE
  5
1AB
100
AcDbEntity
  8
A1
  6
CONTINUOUS
 62
7
100
AcDbLine
 10
165.3492958855453
 20
55.00000000000012
 30
0.000000000000000
 11
165.3492958855453
 21
51.50000000000001
 31
0.000000000000000
  0
LINE
  5
1AC
100
AcDbEntity
  8
A1
  6
CONTINUOUS
 62
7
100
AcDbLine
 10
145.2492958855454
 20
92.00000000000001
 30
0.000000000000000
 11
145.2492958855454
 21
104.0000000000001
 31
0.000000000000000
  0
LINE
  5
1AD
100
AcDbEntity
  8
A1
  6
CONTINUOUS
 62
7
100
AcDbLine
 10
136.2492958855455
 20
103.5849375860000
 30
0.000000000000000
 11
136.2492958855455
 21
105.2543623780000
 31
0.000000000000000
  0
LINE
  5
1AE
100
AcDbEntity
  8
A1
  6
CONTINUOUS
 62
7
100
AcDbLine
 10
161.7492958855454
 20
106.0000000000001
 30
0.000000000000000
 11
161.7492958855454
 21
92.00000000000001
 31
0.000000000000000
  0
LINE
  5
1AF
100
AcDbEntity
  8
A1
  6
CONTINUOUS
 62
7
100
AcDbLine
 10
163.2492958855453
 20
106.0000000000001
 30
0.000000000000000
 11
163.2492958855453
 21
92.00000000000001
 31
0.000000000000000
  0
LINE
  5
1B0
100
AcDbEntity
  8
A1
  6
CONTINUOUS
 62
7
100
AcDbLine
 10
163.2492958855453
 20
106.0000000000001
 30
0.000000000000000
 11
160.1492958855453
 21
106.0000000000001
 31
0.000000000000000
  0
LINE
  5
1B1
100
AcDbEntity
  8
A1
  6
CONTINUOUS
 62
7
100
AcDbLine
 10
165.3492958855453
 20
75.25000712500004
 30
0.000000000000000
 11
165.3492958855453
 21
70.00000000000001
 31
0.000000000000000
  0
LINE
  5
1B2
100
AcDbEntity
  8
A1
  6
CONTINUOUS
 62
7
100
AcDbLine
 10
133.2492958855455
 20
104.6650766640002
 30
0.000000000000000
 11
133.2492958855455
 21
102.9956518720001
 31
0.000000000000000
  0
ARC
  5
1B3
100
AcDbEntity
  8
A1
  6
CONTINUOUS
 62
7
100
AcDbCircle
 10
140.3630781655453
 20
54.89401517900001
 30
0.000000000000000
 40
3.000000000000000
100
AcDbArc
 50
5.494193513999994
 51
60.30348016899990
  0
ARC
  5
1B4
100
AcDbEntity
  8
A1
  6
CONTINUOUS
 62
7
100
AcDbCircle
 10
166.3355136045454
 20
54.89401517900001
 30
0.000000000000000
 40
3.000000000000000
100
AcDbArc
 50
119.6965198309999
 51
174.5058064859999
  0
LINE
  5
1B5
100
AcDbEntity
  8
A1
  6
CONTINUOUS
 62
7
100
AcDbLine
 10
143.3492958855454
 20
55.18124980700009
 30
0.000000000000000
 11
143.3492958855454
 21
47.00000000000012
 31
0.000000000000000
  0
LINE
  5
1B6
100
AcDbEntity
  8
A1
  6
CONTINUOUS
 62
7
100
AcDbLine
 10
163.3492958855453
 20
55.18124980700009
 30
0.000000000000000
 11
163.3492958855453
 21
47.00000000000012
 31
0.000000000000000
  0
ARC
  5
1B7
100
AcDbEntity
  8
A1
  6
CONTINUOUS
 62
7
100
AcDbCircle
 10
160.3492958855453
 20
47.00000000000011
 30
0.000000000000000
 40
3.000000000000000
100
AcDbArc
 50
270.0000000000000
 51
360.0000000000000
  0
ARC
  5
1B8
100
AcDbEntity
  8
A1
  6
CONTINUOUS
 62
7
100
AcDbCircle
 10
146.3492958855453
 20
47.00000000000011
 30
0.000000000000000
 40
3.000000000000000
100
AcDbArc
 50
180.0000000000000
 51
270.0000000000000
  0
LINE
  5
1B9
100
AcDbEntity
  8
A1
  6
CONTINUOUS
 62
7
100
AcDbLine
 10
160.3492958855453
 20
44.00000000000001
 30
0.000000000000000
 11
146.3492958855453
 21
44.00000000000001
 31
0.000000000000000
  0
ARC
  5
1BA
100
AcDbEntity
  8
A1
  6
CONTINUOUS
 62
7
100
AcDbCircle
 10
167.8492958855454
 20
114.7500071250000
 30
0.000000000000000
 40
2.250000000000000
100
AcDbArc
 50
180.0000000000000
 51
270.0000000000000
  0
ARC
  5
1BB
100
AcDbEntity
  8
A1
  6
CONTINUOUS
 62
7
100
AcDbCircle
 10
141.7492958855454
 20
65.82651050599998
 30
0.000000000000000
 40
0.7000000000000000
100
AcDbArc
 50
90.00000000000000
 51
180.0000000000000
  0
LINE
  5
1BC
100
AcDbEntity
  8
A1
  6
CONTINUOUS
 62
7
100
AcDbLine
 10
141.8492958855453
 20
66.52651050600004
 30
0.000000000000000
 11
141.7492958855454
 21
66.52651050600004
 31
0.000000000000000
  0
ARC
  5
1BD
100
AcDbEntity
  8
A1
  6
CONTINUOUS
 62
7
100
AcDbCircle
 10
141.7492958855454
 20
61.45000000000005
 30
0.000000000000000
 40
0.7000000000000000
100
AcDbArc
 50
180.0000000000000
 51
270.0000000000000
  0
LINE
  5
1BE
100
AcDbEntity
  8
A1
  6
CONTINUOUS
 62
7
100
AcDbLine
 10
141.8492958855453
 20
60.75000000000001
 30
0.000000000000000
 11
141.7492958855454
 21
60.75000000000001
 31
0.000000000000000
  0
LINE
  5
1BF
100
AcDbEntity
  8
A1
  6
CONTINUOUS
 62
7
100
AcDbLine
 10
134.7492958855455
 20
98.35971952100000
 30
0.000000000000000
 11
134.7492958855455
 21
96.70971952100003
 31
0.000000000000000
  0
LINE
  5
1C0
100
AcDbEntity
  8
A1
  6
CONTINUOUS
 62
7
100
AcDbLine
 10
141.0492958855453
 20
61.45000000000005
 30
0.000000000000000
 11
141.0492958855453
 21
65.82651050599999
 31
0.000000000000000
  0
ARC
  5
1C1
100
AcDbEntity
  8
A1
  6
CONTINUOUS
 62
7
100
AcDbCircle
 10
164.9492958855453
 20
65.82651050599998
 30
0.000000000000000
 40
0.7000000000000000
100
AcDbArc
 50
0.000000000000000
 51
90.00000000000000
  0
LINE
  5
1C2
100
AcDbEntity
  8
A1
  6
CONTINUOUS
 62
7
100
AcDbLine
 10
164.8492958855453
 20
66.52651050600004
 30
0.000000000000000
 11
164.9492958855453
 21
66.52651050600004
 31
0.000000000000000
  0
ARC
  5
1C3
100
AcDbEntity
  8
A1
  6
CONTINUOUS
 62
7
100
AcDbCircle
 10
164.9492958855453
 20
61.45000000000005
 30
0.000000000000000
 40
0.7000000000000000
100
AcDbArc
 50
270.0000000000000
 51
360.0000000000000
  0
LINE
  5
1C4
100
AcDbEntity
  8
A1
  6
CONTINUOUS
 62
7
100
AcDbLine
 10
164.8492958855453
 20
60.75000000000001
 30
0.000000000000000
 11
164.9492958855453
 21
60.75000000000001
 31
0.000000000000000
  0
ARC
  5
1C5
100
AcDbEntity
  8
A1
  6
CONTINUOUS
 62
7
100
AcDbCircle
 10
171.1992958855455
 20
111.7500071250000
 30
0.000000000000000
 40
2.250000000000000
100
AcDbArc
 50
0.000000000000000
 51
90.00000000000000
  0
LINE
  5
1C6
100
AcDbEntity
  8
A1
  6
CONTINUOUS
 62
7
100
AcDbLine
 10
165.6492958855453
 20
61.45000000000005
 30
0.000000000000000
 11
165.6492958855453
 21
65.82651050599999
 31
0.000000000000000
  0
LINE
  5
1C7
100
AcDbEntity
  8
A1
  6
CONTINUOUS
 62
7
100
AcDbLine
 10
143.3492958855454
 20
106.0000000000001
 30
0.000000000000000
 11
141.8492958855453
 21
106.0000000000001
 31
0.000000000000000
  0
ARC
  5
1C8
100
AcDbEntity
  8
A1
  6
CONTINUOUS
 62
7
100
AcDbCircle
 10
145.5492958855452
 20
93.00000000000000
 30
0.000000000000000
 40
1.000000000000000
100
AcDbArc
 50
270.0000000000000
 51
360.0000000000000
  0
LINE
  5
1C9
100
AcDbEntity
  8
A1
  6
CONTINUOUS
 62
7
100
AcDbLine
 10
145.5492958855453
 20
92.00000000000001
 30
0.000000000000000
 11
142.3492958855453
 21
92.00000000000001
 31
0.000000000000000
  0
LINE
  5
1CA
100
AcDbEntity
  8
A1
  6
CONTINUOUS
 62
7
100
AcDbLine
 10
146.5492958855453
 20
93.00000000000001
 30
0.000000000000000
 11
146.5492958855453
 21
106.0000000000001
 31
0.000000000000000
  0
ARC
  5
1CB
100
AcDbEntity
  8
A1
  6
CONTINUOUS
 62
7
100
AcDbCircle
 10
161.1492958855452
 20
93.00000000000000
 30
0.000000000000000
 40
1.000000000000000
100
AcDbArc
 50
180.0000000000000
 51
270.0000000000000
  0
LINE
  5
1CC
100
AcDbEntity
  8
A1
  6
CONTINUOUS
 62
7
100
AcDbLine
 10
161.1492958855453
 20
92.00000000000001
 30
0.000000000000000
 11
164.3492958855453
 21
92.00000000000001
 31
0.000000000000000
  0
LINE
  5
1CD
100
AcDbEntity
  8
A1
  6
CONTINUOUS
 62
7
100
AcDbLine
 10
160.1492958855453
 20
93.00000000000001
 30
0.000000000000000
 11
160.1492958855453
 21
106.0000000000001
 31
0.000000000000000
  0
LINE
  5
1CE
100
AcDbEntity
  8
A1
  6
CONTINUOUS
 62
7
100
AcDbLine
 10
156.8848297915454
 20
73.20000000000006
 30
0.000000000000000
 11
149.8137619795454
 21
73.20000000000006
 31
0.000000000000000
  0
LINE
  5
1CF
100
AcDbEntity
  8
A1
  6
CONTINUOUS
 62
7
100
AcDbLine
 10
140.8492958855454
 20
100.7500000000001
 30
0.000000000000000
 11
140.8492958855454
 21
97.25000000000001
 31
0.000000000000000
  0
LINE
  5
1D0
100
AcDbEntity
  8
A1
  6
CONTINUOUS
 62
7
100
AcDbLine
 10
155.5992958855454
 20
73.20000000000006
 30
0.000000000000000
 11
155.5992958855454
 21
60.20000000000005
 31
0.000000000000000
  0
LINE
  5
1D1
100
AcDbEntity
  8
A1
  6
CONTINUOUS
 62
7
100
AcDbLine
 10
151.0992958855454
 20
73.20000000000006
 30
0.000000000000000
 11
151.0992958855454
 21
60.20000000000005
 31
0.000000000000000
  0
LINE
  5
1D2
100
AcDbEntity
  8
A1
  6
CONTINUOUS
 62
7
100
AcDbLine
 10
146.5492958855453
 20
106.0000000000001
 30
0.000000000000000
 11
143.4492958855453
 21
106.0000000000001
 31
0.000000000000000
  0
ARC
  5
1D3
100
AcDbEntity
  8
A1
  6
CONTINUOUS
 62
7
100
AcDbCircle
 10
138.9492958855455
 20
103.3000071250001
 30
0.000000000000000
 40
0.8000000000000000
100
AcDbArc
 50
281.1130405360000
 51
461.1130405360000
  0
LINE
  5
1D4
100
AcDbEntity
  8
A1
  6
CONTINUOUS
 62
7
100
AcDbLine
 10
164.8492958855453
 20
57.50000000000001
 30
0.000000000000000
 11
164.8492958855453
 21
106.0000000000001
 31
0.000000000000000
  0
LINE
  5
1D5
100
AcDbEntity
  8
A1
  6
CONTINUOUS
 62
7
100
AcDbLine
 10
141.8492958855453
 20
106.0000000000001
 30
0.000000000000000
 11
141.8492958855453
 21
57.50000000000001
 31
0.000000000000000
  0
LINE
  5
1D6
100
AcDbEntity
  8
A1
  6
CONTINUOUS
 62
7
100
AcDbLine
 10
160.1492958855453
 20
106.0000000000001
 30
0.000000000000000
 11
146.5492958855453
 21
106.0000000000001
 31
0.000000000000000
  0
LINE
  5
1D7
100
AcDbEntity
  8
A1
  6
CONTINUOUS
 62
7
100
AcDbLine
 10
164.8492958855453
 20
106.0000000000001
 30
0.000000000000000
 11
163.3492958855453
 21
106.0000000000001
 31
0.000000000000000
  0
LINE
  5
1D8
100
AcDbEntity
  8
A1
  6
CONTINUOUS
 62
7
100
AcDbLine
 10
156.8848297915454
 20
73.20000000000006
 30
0.000000000000000
 11
149.8137619795454
 21
73.20000000000006
 31
0.000000000000000
  0
LINE
  5
1D9
100
AcDbEntity
  8
A1
  6
CONTINUOUS
 62
7
100
AcDbLine
 10
156.8848297915454
 20
60.20000000000005
 30
0.000000000000000
 11
149.8137619795454
 21
60.20000000000005
 31
0.000000000000000
  0
LINE
  5
1DA
100
AcDbEntity
  8
A1
  6
CONTINUOUS
 62
7
100
AcDbLine
 10
155.5992958855454
 20
73.20000000000006
 30
0.000000000000000
 11
155.5992958855454
 21
60.20000000000005
 31
0.000000000000000
  0
LINE
  5
1DB
100
AcDbEntity
  8
A1
  6
CONTINUOUS
 62
7
100
AcDbLine
 10
151.0992958855454
 20
73.20000000000006
 30
0.000000000000000
 11
151.0992958855454
 21
60.20000000000005
 31
0.000000000000000
  0
LINE
  5
1DC
100
AcDbEntity
  8
A1
  6
CONTINUOUS
 62
7
100
AcDbLine
 10
163.3492958855453
 20
92.00000000000001
 30
0.000000000000000
 11
163.3492958855453
 21
106.0000000000001
 31
0.000000000000000
  0
LINE
  5
1DD
100
AcDbEntity
  8
A1
  6
CONTINUOUS
 62
7
100
AcDbLine
 10
164.8492958855453
 20
57.50000000000001
 30
0.000000000000000
 11
164.8492958855453
 21
106.0000000000001
 31
0.000000000000000
  0
LINE
  5
1DE
100
AcDbEntity
  8
A1
  6
CONTINUOUS
 62
7
100
AcDbLine
 10
143.3492958855454
 20
106.0000000000001
 30
0.000000000000000
 11
143.3492958855454
 21
92.00000000000001
 31
0.000000000000000
  0
LINE
  5
1DF
100
AcDbEntity
  8
A1
  6
CONTINUOUS
 62
7
100
AcDbLine
 10
141.8492958855453
 20
106.0000000000001
 30
0.000000000000000
 11
141.8492958855453
 21
57.50000000000001
 31
0.000000000000000
  0
LINE
  5
1E0
100
AcDbEntity
  8
A1
  6
CONTINUOUS
 62
7
100
AcDbLine
 10
160.1492958855453
 20
106.0000000000001
 30
0.000000000000000
 11
146.5492958855453
 21
106.0000000000001
 31
0.000000000000000
  0
LINE
  5
1E1
100
AcDbEntity
  8
A1
  6
CONTINUOUS
 62
7
100
AcDbLine
 10
164.8492958855453
 20
106.0000000000001
 30
0.000000000000000
 11
163.3492958855453
 21
106.0000000000001
 31
0.000000000000000
  0
ARC
  5
1E2
100
AcDbEntity
  8
A1
  6
CONTINUOUS
 62
7
100
AcDbCircle
 10
130.5492958855454
 20
104.9500071250001
 30
0.000000000000000
 40
0.8000000000000000
100
AcDbArc
 50
101.1130405359999
 51
281.1130405360000
  0
CIRCLE
  5
1E3
100
AcDbEntity
  8
A3
  6
DASHED
 62
2
100
AcDbCircle
 10
153.3492958855454
 20
85.00000000000000
 30
0.000000000000000
 40
2.600000000000000
  0
CIRCLE
  5
1E4
100
AcDbEntity
  8
A3
  6
DASHED
 62
2
100
AcDbCircle
 10
153.3492958855454
 20
71.00000000000000
 30
0.000000000000000
 40
2.600000000000000
  0
CIRCLE
  5
1E5
100
AcDbEntity
  8
A3
  6
DASHED
 62
2
100
AcDbCircle
 10
153.3492958855454
 20
57.00000000000000
 30
0.000000000000000
 40
2.600000000000000
  0
LINE
  5
1E6
100
AcDbEntity
  8
A4
  6
CENTER
 62
1
100
AcDbLine
 10
157.4492958855454
 20
85.00000000000000
 30
0.000000000000000
 11
149.2492958855454
 21
85.00000000000000
 31
0.000000000000000
  0
LINE
  5
1E7
100
AcDbEntity
  8
A4
  6
CENTER
 62
1
100
AcDbLine
 10
157.4492958855454
 20
71.00000000000000
 30
0.000000000000000
 11
149.2492958855454
 21
71.00000000000000
 31
0.000000000000000
  0
LINE
  5
1E8
100
AcDbEntity
  8
A4
  6
CENTER
 62
1
100
AcDbLine
 10
157.4492958855454
 20
57.00000000000000
 30
0.000000000000000
 11
149.2492958855454
 21
57.00000000000000
 31
0.000000000000000
  0
LINE
  5
1E9
100
AcDbEntity
  8
A3
  6
DASHED
 62
2
100
AcDbLine
 10
143.3492958855454
 20
50.00000000000000
 30
0.000000000000000
 11
163.3492958855453
 21
50.00000000000000
 31
0.000000000000000
  0
LINE
  5
1EA
100
AcDbEntity
  8
A1
  6
CONTINUOUS
 62
7
100
AcDbLine
 10
170.3588719076900
 20
90.69863052182438
 30
0.000000000000000
 11
165.9609917969674
 21
83.48951060370200
 31
0.000000000000000
  0
LINE
  5
1EB
100
AcDbEntity
  8
A1
  6
CONTINUOUS
 62
7
100
AcDbLine
 10
171.5875999741234
 20
89.83826586729788
 30
0.000000000000000
 11
167.1897198634008
 21
82.62914594917555
 31
0.000000000000000
  0
LINE
  5
1EC
100
AcDbEntity
  8
A1
  6
CONTINUOUS
 62
7
100
AcDbLine
 10
136.3397198634009
 20
90.69863052182450
 30
0.000000000000000
 11
140.7375999741234
 21
83.48951060370213
 31
0.000000000000000
  0
LINE
  5
1ED
100
AcDbEntity
  8
A1
  6
CONTINUOUS
 62
7
100
AcDbLine
 10
135.1109917969674
 20
89.83826586729791
 30
0.000000000000000
 11
139.5088719076898
 21
82.62914594917554
 31
0.000000000000000
  0
LINE
  5
1EE
100
AcDbEntity
  8
A1
  6
CONTINUOUS
 62
7
100
AcDbLine
 10
167.0992958855453
 20
75.75000712824287
 30
0.000000000000000
 11
167.3492958855453
 21
75.75000712824287
 31
0.000000000000000
  0
ARC
  5
1EF
100
AcDbEntity
  8
A1
  6
CONTINUOUS
 62
7
100
AcDbCircle
 10
167.3492958855453
 20
76.75000712824288
 30
0.000000000000000
 40
1.000000000000000
100
AcDbArc
 50
270.0000000000000
 51
360.0000000000000
  0
LINE
  5
1F0
100
AcDbEntity
  8
A1
  6
CONTINUOUS
 62
7
100
AcDbLine
 10
168.3492958855453
 20
78.25000712175664
 30
0.000000000000000
 11
168.3492958855453
 21
76.75000712824287
 31
0.000000000000000
  0
LINE
  5
1F1
100
AcDbEntity
  8
A1
  6
CONTINUOUS
 62
7
100
AcDbLine
 10
139.5992958855458
 20
79.25000712175670
 30
0.000000000000000
 11
139.3492958855458
 21
79.25000712175670
 31
0.000000000000000
  0
ARC
  5
1F2
100
AcDbEntity
  8
A1
  6
CONTINUOUS
 62
7
100
AcDbCircle
 10
139.3492958855457
 20
78.25000712175665
 30
0.000000000000000
 40
1.000000000000000
100
AcDbArc
 50
90.00000000000000
 51
180.0000000000000
  0
LINE
  5
1F3
100
AcDbEntity
  8
A1
  6
CONTINUOUS
 62
7
100
AcDbLine
 10
139.5992958855458
 20
75.75000712824284
 30
0.000000000000000
 11
139.3492958855458
 21
75.75000712824284
 31
0.000000000000000
  0
ARC
  5
1F4
100
AcDbEntity
  8
A1
  6
CONTINUOUS
 62
7
100
AcDbCircle
 10
139.3492958855457
 20
76.75000712824288
 30
0.000000000000000
 40
1.000000000000000
100
AcDbArc
 50
180.0000000000000
 51
270.0000000000000
  0
LINE
  5
1F5
100
AcDbEntity
  8
A1
  6
CONTINUOUS
 62
7
100
AcDbLine
 10
138.3492958855458
 20
78.25000712175667
 30
0.000000000000000
 11
138.3492958855458
 21
76.75000712824290
 31
0.000000000000000
  0
LINE
  5
1F6
100
AcDbEntity
  8
A4
  6
CENTER
 62
1
100
AcDbLine
 10
171.3492958855453
 20
121.1851789236705
 30
0.000000000000000
 11
135.3492958855453
 21
121.1851789236705
 31
0.000000000000000
  0
ARC
  5
1F7
100
AcDbEntity
  8
A1
  6
CONTINUOUS
 62
7
100
AcDbCircle
 10
139.3492958855452
 20
119.7851789236705
 30
0.000000000000000
 40
1.000000000000000
100
AcDbArc
 50
180.0000000000000
 51
270.0000000000000
  0
ARC
  5
1F8
100
AcDbEntity
  8
A1
  6
CONTINUOUS
 62
7
100
AcDbCircle
 10
139.3492958855452
 20
122.5851789236705
 30
0.000000000000000
 40
1.000000000000000
100
AcDbArc
 50
90.00000000000000
 51
180.0000000000000
  0
LINE
  5
1F9
100
AcDbEntity
  8
A1
  6
CONTINUOUS
 62
7
100
AcDbLine
 10
138.3492958855452
 20
122.5851789236705
 30
0.000000000000000
 11
138.3492958855452
 21
119.7851789236705
 31
0.000000000000000
  0
LINE
  5
1FA
100
AcDbEntity
  8
A1
  6
CONTINUOUS
 62
7
100
AcDbLine
 10
141.0992958855453
 20
123.4351751736706
 30
0.000000000000000
 11
165.5992958855453
 21
123.4351751736706
 31
0.000000000000000
  0
LINE
  5
1FB
100
AcDbEntity
  8
A1
  6
CONTINUOUS
 62
7
100
AcDbLine
 10
141.0992958855453
 20
118.9351751736706
 30
0.000000000000000
 11
165.5992958855453
 21
118.9351751736706
 31
0.000000000000000
  0
LINE
  5
1FC
100
AcDbEntity
  8
A1
  6
CONTINUOUS
 62
7
100
AcDbLine
 10
139.5992958855452
 20
118.7851789236705
 30
0.000000000000000
 11
139.3492958855452
 21
118.7851789236705
 31
0.000000000000000
  0
LINE
  5
1FD
100
AcDbEntity
  8
A1
  6
CONTINUOUS
 62
7
100
AcDbLine
 10
139.5992958855452
 20
123.5851789236705
 30
0.000000000000000
 11
139.3492958855452
 21
123.5851789236705
 31
0.000000000000000
  0
ARC
  5
1FE
100
AcDbEntity
  8
A1
  6
CONTINUOUS
 62
7
100
AcDbCircle
 10
167.3492958855455
 20
119.7851789236705
 30
0.000000000000000
 40
1.000000000000000
100
AcDbArc
 50
270.0000000000000
 51
360.0000000000000
  0
ARC
  5
1FF
100
AcDbEntity
  8
A1
  6
CONTINUOUS
 62
7
100
AcDbCircle
 10
167.3492958855455
 20
122.5851789236705
 30
0.000000000000000
 40
1.000000000000000
100
AcDbArc
 50
0.000000000000000
 51
90.00000000000000
  0
LINE
  5
200
100
AcDbEntity
  8
A1
  6
CONTINUOUS
 62
7
100
AcDbLine
 10
168.3492958855455
 20
122.5851789236705
 30
0.000000000000000
 11
168.3492958855455
 21
119.7851789236705
 31
0.000000000000000
  0
LINE
  5
201
100
AcDbEntity
  8
A1
  6
CONTINUOUS
 62
7
100
AcDbLine
 10
167.0992958855455
 20
118.7851789236705
 30
0.000000000000000
 11
167.3492958855455
 21
118.7851789236705
 31
0.000000000000000
  0
LINE
  5
202
100
AcDbEntity
  8
A1
  6
CONTINUOUS
 62
7
100
AcDbLine
 10
167.0992958855455
 20
123.5851789236705
 30
0.000000000000000
 11
167.3492958855455
 21
123.5851789236705
 31
0.000000000000000
  0
ARC
  5
203
100
AcDbEntity
  8
A1
  6
CONTINUOUS
 62
7
100
AcDbCircle
 10
135.2492958855454
 20
112.0000071250001
 30
0.000000000000000
 40
0.5000000000000000
100
AcDbArc
 50
90.00000000000000
 51
180.0000000000000
  0
LINE
  5
204
100
AcDbEntity
  8
A1
  6
CONTINUOUS
 62
7
100
AcDbLine
 10
138.8492958855454
 20
112.5000071250001
 30
0.000000000000000
 11
135.2492958855454
 21
112.5000071250001
 31
0.000000000000000
  0
LINE
  5
205
100
AcDbEntity
  8
A1
  6
CONTINUOUS
 62
7
100
AcDbLine
 10
134.7492958855454
 20
112.0000071250002
 30
0.000000000000000
 11
134.7492958855454
 21
109.0000071250001
 31
0.000000000000000
  0
LINE
  5
206
100
AcDbEntity
  8
A1
  6
CONTINUOUS
 62
7
100
AcDbLine
 10
167.8492958855454
 20
112.5000071250000
 30
0.000000000000000
 11
171.4492958855455
 21
112.5000071250000
 31
0.000000000000000
  0
LINE
  5
207
100
AcDbEntity
  8
A1
  6
CONTINUOUS
 62
7
100
AcDbLine
 10
171.9492958855455
 20
112.0000071249999
 30
0.000000000000000
 11
171.9492958855455
 21
109.0000071250001
 31
0.000000000000000
  0
ARC
  5
208
100
AcDbEntity
  8
A1
  6
CONTINUOUS
 62
7
100
AcDbCircle
 10
171.4492958855455
 20
112.0000071249999
 30
0.000000000000000
 40
0.5000000000000000
100
AcDbArc
 50
0.000000000000000
 51
90.00000000000000
  0
LINE
  5
209
100
AcDbEntity
  8
A1
  6
CONTINUOUS
 62
7
100
AcDbLine
 10
133.2492958855456
 20
90.99000712500013
 30
0.000000000000000
 11
134.7492958855455
 21
90.99000712500013
 31
0.000000000000000
  0
LINE
  5
20A
100
AcDbEntity
  8
A1
  6
CONTINUOUS
 62
7
100
AcDbLine
 10
173.4492958855456
 20
90.99000712500013
 30
0.000000000000000
 11
171.9492958855456
 21
90.99000712500013
 31
0.000000000000000
  0
ARC
  5
20B
100
AcDbEntity
  8
A1
  6
CONTINUOUS
 62
7
100
AcDbCircle
 10
176.1492958855455
 20
108.2000071250002
 30
0.000000000000000
 40
0.8000000000000000
100
AcDbArc
 50
270.0000000000000
 51
450.0000000000000
  0
ARC
  5
20C
100
AcDbEntity
  8
A1
  6
CONTINUOUS
 62
7
100
AcDbCircle
 10
176.1492958855455
 20
106.6000071250001
 30
0.000000000000000
 40
0.8000000000000000
100
AcDbArc
 50
281.1130405360000
 51
461.1130405360000
  0
ARC
  5
20D
100
AcDbEntity
  8
A1
  6
CONTINUOUS
 62
7
100
AcDbCircle
 10
176.1492958855455
 20
103.3000071250002
 30
0.000000000000000
 40
0.8000000000000000
100
AcDbArc
 50
281.1130405360000
 51
461.1130405360000
  0
ARC
  5
20E
100
AcDbEntity
  8
A1
  6
CONTINUOUS
 62
7
100
AcDbCircle
 10
176.1492958855455
 20
100.0000071250001
 30
0.000000000000000
 40
0.8000000000000000
100
AcDbArc
 50
281.1130405360000
 51
461.1130405360000
  0
ARC
  5
20F
100
AcDbEntity
  8
A1
  6
CONTINUOUS
 62
7
100
AcDbCircle
 10
176.1492958855455
 20
96.70000712500006
 30
0.000000000000000
 40
0.8000000000000000
100
AcDbArc
 50
281.1130405360000
 51
461.1130405360000
  0
ARC
  5
210
100
AcDbEntity
  8
A1
  6
CONTINUOUS
 62
7
100
AcDbCircle
 10
176.1492958855455
 20
93.40000712500022
 30
0.000000000000000
 40
0.8000000000000000
100
AcDbArc
 50
280.7842978670000
 51
460.7842978670000
  0
CIRCLE
  5
211
100
AcDbEntity
  8
A1
  6
CONTINUOUS
 62
7
100
AcDbCircle
 10
176.1492958855455
 20
91.80000712500019
 30
0.000000000000000
 40
0.8000000000000000
  0
ENDSEC
  0
SECTION
  2
OBJECTS
  0
DICTIONARY
  5
245
100
AcDbDictionary
  3
ACAD_GROUP
350
246
  3
ACAD_LAYOUT
350
247
  3
ACAD_MLINESTYLE
350
248
  0
DICTIONARY
  5
246
102
{ACAD_REACTORS
330
245
102
}
330
245
100
AcDbDictionary
  0
DICTIONARY
  5
247
102
{ACAD_REACTORS
330
245
102
}
330
245
100
AcDbDictionary
  3
Model
350
249
  3
ﾚｲｱｳﾄ1
350
24A
  3
ﾚｲｱｳﾄ2
350
24B
  0
DICTIONARY
  5
248
102
{ACAD_REACTORS
330
245
102
}
330
245
100
AcDbDictionary
  3
STANDARD
350
24C
  0
LAYOUT
  5
249
102
{ACAD_REACTORS
330
247
102
}
330
247
100
AcDbPlotSettings
 70
11952
  4
A3
 44
297.000000
 45
420.000000
 73
  1
 72
  1
100
AcDbLayout
  1
Model
 71
0
330
23C
  0
LAYOUT
  5
24A
102
{ACAD_REACTORS
330
247
102
}
330
247
100
AcDbPlotSettings
100
AcDbLayout
  1
ﾚｲｱｳﾄ1
 71
1
330
23D
  0
LAYOUT
  5
24B
102
{ACAD_REACTORS
330
247
102
}
330
247
100
AcDbPlotSettings
100
AcDbLayout
  1
ﾚｲｱｳﾄ2
 71
2
330
23E
  0
MLINESTYLE
  5
24C
102
{ACAD_REACTORS
330
248
102
}
330
248
100
AcDbMlineStyle
  2
STANDARD
 70
     0
  3

 62
   256
 51
90.00
 52
90.00
 71
     2
 49
0.50
 62
   256
  6
BYLAYER
 49
-0.50
 62
   256
  6
BYLAYER
  0
ENDSEC
  0
EOF
