  0
SECTION
  2
HEADER
  9
$ACADVER
  1
AC1014
  9
$DWGCODEPAGE
  3
ANSI_932
  9
$LTSCALE
 40
20.0
  9
$FILLMODE
 70
     1
  9
$CLAYER
  8
0
  9
$PDMODE
 70
     0
  9
$SPLFRAME
 70
     0
  9
$SPLINETYPE
 70
     6
  9
$SPLINESEGS
 70
     8
  9
$DIMASZ
 40
2.000000
  9
$DIMEXE
 40
1.500000
  9
$DIMEXO
 40
0.800000
  9
$DIMTAD
 70
     1
  9
$DIMTIH
 70
     0
  9
$DIMTOH
 70
     0
  9
$DIMTVP
 40
0.500000
  9
$DIMTXT
 40
3.100000
  9
$EXTMIN
 10
0.000000
 20
0.000000
 30
0.000000
  9
$EXTMAX
 10
297.000000
 20
420.000000
 30
0.000000
  9
$MEASUREMENT
 70
  1
  9
$LIMMIN
 10
0.000000
 20
0.000000
  9
$LIMMAX
 10
297.000000
 20
420.000000
  9
$HANDLING
 70
     1
  9
$HANDSEED
  5
22D
  9
$DIMBLK
  1
_OPEN
  9
$DIMDEC
 70
     2
  9
$DIMAUNIT
 70
     0
  9
$DIMZIN
 70
     8
  9
$DIMTOFL
 70
     1
  0
ENDSEC
  0
SECTION
  2
CLASSES
  0
ENDSEC
  0
SECTION
  2
TABLES
  0
TABLE
  2
VPORT
  5
1FB
100
AcDbSymbolTable
 70
     1
  0
VPORT
  5
1FC
100
AcDbSymbolTableRecord
100
AcDbViewportTableRecord
  2
*ACTIVE
 70
     0
 12
111.057363
 22
69.122755
 40
102.245508
 41
1.976759
  0
ENDTAB
  0
TABLE
  2
LTYPE
  5
1FD
100
AcDbSymbolTable
 70
     4
  0
LTYPE
  5
1FE
100
AcDbSymbolTableRecord
100
AcDbLinetypeTableRecord
  2
BYBLOCK
 70
     0
  3

 72
    65
 73
     0
 40
0.0
  0
LTYPE
  5
1FF
100
AcDbSymbolTableRecord
100
AcDbLinetypeTableRecord
  2
BYLAYER
 70
     0
  3

 72
    65
 73
     0
 40
0.0
  0
LTYPE
  5
200
100
AcDbSymbolTableRecord
100
AcDbLinetypeTableRecord
  2
CONTINUOUS
 70
     0
  3
Solid line (NEC CAE2D for Win R18.0 : 2025.12.02)
 72
    65
 73
     0
 40
0.0
  0
LTYPE
  5
201
100
AcDbSymbolTableRecord
100
AcDbLinetypeTableRecord
  2
DASHED
 70
     0
  3
__ __ __ __ __ __ __ __ __ __ __ __ __ _
 72
    65
 73
     2
 40
0.75
 49
0.5
 74
     0
 49
-0.25
 74
     0
  0
LTYPE
  5
202
100
AcDbSymbolTableRecord
100
AcDbLinetypeTableRecord
  2
CENTER
 70
     0
  3
____ _ ____ _ ____ _ ____ _ ____ _ ____
 72
    65
 73
     4
 40
2.0
 49
1.25
 74
     0
 49
-0.25
 74
     0
 49
0.25
 74
     0
 49
-0.25
 74
     0
  0
LTYPE
  5
203
100
AcDbSymbolTableRecord
100
AcDbLinetypeTableRecord
  2
PHANTOM
 70
     0
  3
______  __  __  ______  __  __  ______ 
 72
    65
 73
     6
 40
2.5
 49
1.25
 74
     0
 49
-0.25
 74
     0
 49
0.25
 74
     0
 49
-0.25
 74
     0
 49
0.25
 74
     0
 49
-0.25
 74
     0
  0
ENDTAB
  0
TABLE
  2
LAYER
  5
204
100
AcDbSymbolTable
 70
    17
  0
LAYER
  5
205
100
AcDbSymbolTableRecord
100
AcDbLayerTableRecord
  2
0
 70
     0
 62
     7
  6
CONTINUOUS
  0
LAYER
  5
206
100
AcDbSymbolTableRecord
100
AcDbLayerTableRecord
  2
A0
 70
     0
 62
     9
  6
CONTINUOUS
  0
LAYER
  5
207
100
AcDbSymbolTableRecord
100
AcDbLayerTableRecord
  2
A1
 70
     0
 62
    12
  6
CONTINUOUS
  0
LAYER
  5
208
100
AcDbSymbolTableRecord
100
AcDbLayerTableRecord
  2
A2
 70
     0
 62
     9
  6
CONTINUOUS
  0
LAYER
  5
209
100
AcDbSymbolTableRecord
100
AcDbLayerTableRecord
  2
A3
 70
     0
 62
    12
  6
CONTINUOUS
  0
LAYER
  5
20A
100
AcDbSymbolTableRecord
100
AcDbLayerTableRecord
  2
A4
 70
     0
 62
     9
  6
CONTINUOUS
  0
LAYER
  5
20B
100
AcDbSymbolTableRecord
100
AcDbLayerTableRecord
  2
A5
 70
     0
 62
     8
  6
CONTINUOUS
  0
LAYER
  5
20C
100
AcDbSymbolTableRecord
100
AcDbLayerTableRecord
  2
A6
 70
     0
 62
    12
  6
CONTINUOUS
  0
LAYER
  5
20D
100
AcDbSymbolTableRecord
100
AcDbLayerTableRecord
  2
A7
 70
     0
 62
    12
  6
CONTINUOUS
  0
LAYER
  5
20E
100
AcDbSymbolTableRecord
100
AcDbLayerTableRecord
  2
A8
 70
     0
 62
    10
  6
CONTINUOUS
  0
LAYER
  5
20F
100
AcDbSymbolTableRecord
100
AcDbLayerTableRecord
  2
A9
 70
     0
 62
     9
  6
CONTINUOUS
  0
LAYER
  5
210
100
AcDbSymbolTableRecord
100
AcDbLayerTableRecord
  2
A10
 70
     0
 62
     6
  6
CONTINUOUS
  0
LAYER
  5
211
100
AcDbSymbolTableRecord
100
AcDbLayerTableRecord
  2
A20
 70
     0
 62
     1
  6
CONTINUOUS
  0
LAYER
  5
212
100
AcDbSymbolTableRecord
100
AcDbLayerTableRecord
  2
A30
 70
     0
 62
     1
  6
CONTINUOUS
  0
LAYER
  5
213
100
AcDbSymbolTableRecord
100
AcDbLayerTableRecord
  2
A40
 70
     0
 62
     9
  6
CONTINUOUS
  0
LAYER
  5
214
100
AcDbSymbolTableRecord
100
AcDbLayerTableRecord
  2
A50
 70
     0
 62
    12
  6
CONTINUOUS
  0
LAYER
  5
215
100
AcDbSymbolTableRecord
100
AcDbLayerTableRecord
  2
A1023
 70
     0
 62
    16
  6
CONTINUOUS
  0
ENDTAB
  0
TABLE
  2
STYLE
  5
216
100
AcDbSymbolTable
 70
     4
  0
STYLE
  5
217
100
AcDbSymbolTableRecord
100
AcDbTextStyleTableRecord
  2
STANDARD
 70
    64
 40
0.0
 41
1.0
 50
0.0
 71
     0
 42
3.000000000000000
  3
TXT
  4

  0
STYLE
  5
218
100
AcDbSymbolTableRecord
100
AcDbTextStyleTableRecord
  2
ANKTATE
 70
    68
 40
0.0
 41
1.0
 50
0.0
 71
     0
 42
3.000000000000000
  3
TXT
  4

  0
STYLE
  5
219
100
AcDbSymbolTableRecord
100
AcDbTextStyleTableRecord
  2
KNJYOKO
 70
    64
 40
0.0
 41
1.0
 50
0.0
 71
     0
 42
3.000000000000000
  3
TXT
  4
BIGFONT
  0
STYLE
  5
21A
100
AcDbSymbolTableRecord
100
AcDbTextStyleTableRecord
  2
KNJTATE
 70
    68
 40
0.0
 41
1.0
 50
0.0
 71
     0
 42
3.000000000000000
  3
TXT
  4
BIGFONT
  0
ENDTAB
  0
TABLE
  2
VIEW
  5
21B
100
AcDbSymbolTable
 70
     0
  0
ENDTAB
  0
TABLE
  2
UCS
  5
21C
100
AcDbSymbolTable
 70
     0
  0
ENDTAB
  0
TABLE
  2
APPID
  5
21D
100
AcDbSymbolTable
 70
     1
  0
APPID
  5
21E
100
AcDbSymbolTableRecord
100
AcDbRegAppTableRecord
  2
ACAD
 70
     0
  0
ENDTAB
  0
TABLE
  2
DIMSTYLE
  5
21F
100
AcDbSymbolTable
 70
     2
  0
DIMSTYLE
105
220
100
AcDbSymbolTableRecord
100
AcDbDimStyleTableRecord
  2
STANDARD
 70
     0
 41
2.000000
 44
1.500000
 42
0.800000
145
0.661290
140
3.100000
144
1.000000
146
0.645161
340
217
  0
DIMSTYLE
105
221
100
AcDbSymbolTableRecord
100
AcDbDimStyleTableRecord
  2
A001
 70
     0
 41
2.000000
 44
1.500000
 42
0.800000
145
0.661290
140
3.100000
144
1.000000
146
0.645161
 77
     1
 73
     0
 74
     0
271
     2
275
     0
 78
     8
172
     1
340
217
  0
ENDTAB
  0
TABLE
  2
BLOCK_RECORD
  5
222
100
AcDbSymbolTable
 70
    12
  0
BLOCK_RECORD
  5
223
100
AcDbSymbolTableRecord
100
AcDbBlockTableRecord
  2
*MODEL_SPACE
  0
BLOCK_RECORD
  5
224
100
AcDbSymbolTableRecord
100
AcDbBlockTableRecord
  2
*PAPER_SPACE
  0
BLOCK_RECORD
  5
1
100
AcDbSymbolTableRecord
100
AcDbBlockTableRecord
  2
_NONE
  0
BLOCK_RECORD
  5
4
100
AcDbSymbolTableRecord
100
AcDbBlockTableRecord
  2
_CLOSED
  0
BLOCK_RECORD
  5
B
100
AcDbSymbolTableRecord
100
AcDbBlockTableRecord
  2
_DOT
  0
BLOCK_RECORD
  5
13
100
AcDbSymbolTableRecord
100
AcDbBlockTableRecord
  2
_OPEN
  0
BLOCK_RECORD
  5
19
100
AcDbSymbolTableRecord
100
AcDbBlockTableRecord
  2
_ORIGIN
  0
BLOCK_RECORD
  5
1E
100
AcDbSymbolTableRecord
100
AcDbBlockTableRecord
  2
_OPEN30
  0
BLOCK_RECORD
  5
24
100
AcDbSymbolTableRecord
100
AcDbBlockTableRecord
  2
_BOXFILLED
  0
BLOCK_RECORD
  5
29
100
AcDbSymbolTableRecord
100
AcDbBlockTableRecord
  2
_BOXBLANK
  0
BLOCK_RECORD
  5
31
100
AcDbSymbolTableRecord
100
AcDbBlockTableRecord
  2
_OBLIQUE
  0
BLOCK_RECORD
  5
35
100
AcDbSymbolTableRecord
100
AcDbBlockTableRecord
  2
_OPEN90
  0
BLOCK_RECORD
  5
3B
100
AcDbSymbolTableRecord
100
AcDbBlockTableRecord
  2
_CLOSEDBLANK
  0
BLOCK_RECORD
  5
41
100
AcDbSymbolTableRecord
100
AcDbBlockTableRecord
  2
_DOTBLANK
  0
ENDTAB
  0
ENDSEC
  0
SECTION
  2
BLOCKS
  0
BLOCK
  5
225
100
AcDbEntity
  8
0
100
AcDbBlockBegin
  2
*MODEL_SPACE
 70
     0
 10
0.0
 20
0.0
 30
0.0
  3
*MODEL_SPACE
  1

  0
ENDBLK
  5
226
100
AcDbEntity
  8
0
100
AcDbBlockEnd
  0
BLOCK
  5
227
100
AcDbEntity
  8
0
100
AcDbBlockBegin
  2
*PAPER_SPACE
 70
     0
 10
0.0
 20
0.0
 30
0.0
  3
*PAPER_SPACE
  1

  0
ENDBLK
  5
228
100
AcDbEntity
  8
0
100
AcDbBlockEnd
  0
BLOCK
  5
2
100
AcDbEntity
  8
0
100
AcDbBlockBegin
  2
_NONE
 70
     0
 10
0.0
 20
0.0
 30
0.0
  3
_NONE
  1

  0
ENDBLK
  5
3
100
AcDbEntity
  8
0
100
AcDbBlockEnd
  0
BLOCK
  5
5
100
AcDbEntity
  8
0
100
AcDbBlockBegin
  2
_CLOSED
 70
     0
 10
0.0
 20
0.0
 30
0.0
  3
_CLOSED
  1

  0
LINE
  5
6
100
AcDbEntity
  8
0
  6
BYBLOCK
 62
     0
100
AcDbLine
 10
-1.0
 20
0.166667
 30
0.0
 11
0.0
 21
0.0
 31
0.0
  0
LINE
  5
7
100
AcDbEntity
  8
0
  6
BYBLOCK
 62
     0
100
AcDbLine
 10
0.0
 20
0.0
 30
0.0
 11
-1.0
 21
-0.166667
 31
0.0
  0
LINE
  5
8
100
AcDbEntity
  8
0
  6
BYBLOCK
 62
     0
100
AcDbLine
 10
-1.0
 20
0.166667
 30
0.0
 11
-1.0
 21
-0.166667
 31
0.0
  0
LINE
  5
9
100
AcDbEntity
  8
0
  6
BYBLOCK
 62
     0
100
AcDbLine
 10
0.0
 20
0.0
 30
0.0
 11
-1.0
 21
0.0
 31
0.0
  0
ENDBLK
  5
A
100
AcDbEntity
  8
0
100
AcDbBlockEnd
  0
BLOCK
  5
C
100
AcDbEntity
  8
0
100
AcDbBlockBegin
  2
_DOT
 70
     0
 10
0.0
 20
0.0
 30
0.0
  3
_DOT
  1

  0
POLYLINE
  5
D
100
AcDbEntity
  8
0
  6
BYBLOCK
 62
     0
100
AcDb2dPolyline
 66
     1
 10
0.0
 20
0.0
 30
0.0
 70
     1
 40
0.5
 41
0.5
  0
VERTEX
  5
E
100
AcDbEntity
  8
0
  6
BYBLOCK
 62
     0
100
AcDbVertex
100
AcDb2dVertex
 10
-0.25
 20
0.0
 30
0.0
 42
1.0
  0
VERTEX
  5
F
100
AcDbEntity
  8
0
  6
BYBLOCK
 62
     0
100
AcDbVertex
100
AcDb2dVertex
 10
0.25
 20
0.0
 30
0.0
 42
1.0
  0
SEQEND
  5
10
100
AcDbEntity
  8
0
  6
BYBLOCK
 62
     0
  0
LINE
  5
11
100
AcDbEntity
  8
0
  6
BYBLOCK
 62
     0
100
AcDbLine
 10
-0.5
 20
0.0
 30
0.0
 11
-1.0
 21
0.0
 31
0.0
  0
ENDBLK
  5
12
100
AcDbEntity
  8
0
100
AcDbBlockEnd
  0
BLOCK
  5
14
100
AcDbEntity
  8
0
100
AcDbBlockBegin
  2
_OPEN
 70
     0
 10
0.0
 20
0.0
 30
0.0
  3
_OPEN
  1

  0
LINE
  5
15
100
AcDbEntity
  8
0
  6
BYBLOCK
 62
     0
100
AcDbLine
 10
-1.0
 20
0.166667
 30
0.0
 11
0.0
 21
0.0
 31
0.0
  0
LINE
  5
16
100
AcDbEntity
  8
0
  6
BYBLOCK
 62
     0
100
AcDbLine
 10
0.0
 20
0.0
 30
0.0
 11
-1.0
 21
-0.166667
 31
0.0
  0
LINE
  5
17
100
AcDbEntity
  8
0
  6
BYBLOCK
 62
     0
100
AcDbLine
 10
0.0
 20
0.0
 30
0.0
 11
-1.0
 21
0.0
 31
0.0
  0
ENDBLK
  5
18
100
AcDbEntity
  8
0
100
AcDbBlockEnd
  0
BLOCK
  5
1A
100
AcDbEntity
  8
0
100
AcDbBlockBegin
  2
_ORIGIN
 70
     0
 10
0.0
 20
0.0
 30
0.0
  3
_ORIGIN
  1

  0
CIRCLE
  5
1B
100
AcDbEntity
  8
0
  6
BYBLOCK
 62
     0
100
AcDbCircle
 10
0.0
 20
0.0
 30
0.0
 40
0.5
  0
LINE
  5
1C
100
AcDbEntity
  8
0
  6
BYBLOCK
 62
     0
100
AcDbLine
 10
0.0
 20
0.0
 30
0.0
 11
-1.0
 21
0.0
 31
0.0
  0
ENDBLK
  5
1D
100
AcDbEntity
  8
0
100
AcDbBlockEnd
  0
BLOCK
  5
1F
100
AcDbEntity
  8
0
100
AcDbBlockBegin
  2
_OPEN30
 70
     0
 10
0.0
 20
0.0
 30
0.0
  3
_OPEN30
  1

  0
LINE
  5
20
100
AcDbEntity
  8
0
  6
BYBLOCK
 62
     0
100
AcDbLine
 10
-1.0
 20
0.267949
 30
0.0
 11
0.0
 21
0.0
 31
0.0
  0
LINE
  5
21
100
AcDbEntity
  8
0
  6
BYBLOCK
 62
     0
100
AcDbLine
 10
0.0
 20
0.0
 30
0.0
 11
-1.0
 21
-0.267949
 31
0.0
  0
LINE
  5
22
100
AcDbEntity
  8
0
  6
BYBLOCK
 62
     0
100
AcDbLine
 10
0.0
 20
0.0
 30
0.0
 11
-1.0
 21
0.0
 31
0.0
  0
ENDBLK
  5
23
100
AcDbEntity
  8
0
100
AcDbBlockEnd
  0
BLOCK
  5
25
100
AcDbEntity
  8
0
100
AcDbBlockBegin
  2
_BOXFILLED
 70
     0
 10
0.0
 20
0.0
 30
0.0
  3
_BOXFILLED
  1

  0
SOLID
  5
26
100
AcDbEntity
  8
0
  6
BYBLOCK
 62
     0
100
AcDbTrace
 10
-0.5
 20
0.5
 30
0.0
 11
0.5
 21
0.5
 31
0.0
 12
-0.5
 22
-0.5
 32
0.0
 13
0.5
 23
-0.5
 33
0.0
  0
LINE
  5
27
100
AcDbEntity
  8
0
  6
BYBLOCK
 62
     0
100
AcDbLine
 10
-0.5
 20
0.0
 30
0.0
 11
-1.0
 21
0.0
 31
0.0
  0
ENDBLK
  5
28
100
AcDbEntity
  8
0
100
AcDbBlockEnd
  0
BLOCK
  5
2A
100
AcDbEntity
  8
0
100
AcDbBlockBegin
  2
_BOXBLANK
 70
     0
 10
0.0
 20
0.0
 30
0.0
  3
_BOXBLANK
  1

  0
LINE
  5
2B
100
AcDbEntity
  8
0
  6
BYBLOCK
 62
     0
100
AcDbLine
 10
-0.5
 20
-0.5
 30
0.0
 11
0.5
 21
-0.5
 31
0.0
  0
LINE
  5
2C
100
AcDbEntity
  8
0
  6
BYBLOCK
 62
     0
100
AcDbLine
 10
0.5
 20
-0.5
 30
0.0
 11
0.5
 21
0.5
 31
0.0
  0
LINE
  5
2D
100
AcDbEntity
  8
0
  6
BYBLOCK
 62
     0
100
AcDbLine
 10
0.5
 20
0.5
 30
0.0
 11
-0.5
 21
0.5
 31
0.0
  0
LINE
  5
2E
100
AcDbEntity
  8
0
  6
BYBLOCK
 62
     0
100
AcDbLine
 10
-0.5
 20
0.5
 30
0.0
 11
-0.5
 21
-0.5
 31
0.0
  0
LINE
  5
2F
100
AcDbEntity
  8
0
  6
BYBLOCK
 62
     0
100
AcDbLine
 10
-0.5
 20
0.0
 30
0.0
 11
-1.0
 21
0.0
 31
0.0
  0
ENDBLK
  5
30
100
AcDbEntity
  8
0
100
AcDbBlockEnd
  0
BLOCK
  5
32
100
AcDbEntity
  8
0
100
AcDbBlockBegin
  2
_OBLIQUE
 70
     0
 10
0.0
 20
0.0
 30
0.0
  3
_OBLIQUE
  1

  0
LINE
  5
33
100
AcDbEntity
  8
0
  6
BYBLOCK
 62
     0
100
AcDbLine
 10
-0.5
 20
-0.5
 30
0.0
 11
0.5
 21
0.5
 31
0.0
  0
ENDBLK
  5
34
100
AcDbEntity
  8
0
100
AcDbBlockEnd
  0
BLOCK
  5
36
100
AcDbEntity
  8
0
100
AcDbBlockBegin
  2
_OPEN90
 70
     0
 10
0.0
 20
0.0
 30
0.0
  3
_OPEN90
  1

  0
LINE
  5
37
100
AcDbEntity
  8
0
  6
BYBLOCK
 62
     0
100
AcDbLine
 10
-0.5
 20
0.5
 30
0.0
 11
0.0
 21
0.0
 31
0.0
  0
LINE
  5
38
100
AcDbEntity
  8
0
  6
BYBLOCK
 62
     0
100
AcDbLine
 10
0.0
 20
0.0
 30
0.0
 11
-0.5
 21
-0.5
 31
0.0
  0
LINE
  5
39
100
AcDbEntity
  8
0
  6
BYBLOCK
 62
     0
100
AcDbLine
 10
0.0
 20
0.0
 30
0.0
 11
-1.0
 21
0.0
 31
0.0
  0
ENDBLK
  5
3A
100
AcDbEntity
  8
0
100
AcDbBlockEnd
  0
BLOCK
  5
3C
100
AcDbEntity
  8
0
100
AcDbBlockBegin
  2
_CLOSEDBLANK
 70
     0
 10
0.0
 20
0.0
 30
0.0
  3
_CLOSEDBLANK
  1

  0
LINE
  5
3D
100
AcDbEntity
  8
0
  6
BYBLOCK
 62
     0
100
AcDbLine
 10
-1.0
 20
0.1666666666666666
 30
0.0
 11
0.0
 21
0.0
 31
0.0
  0
LINE
  5
3E
100
AcDbEntity
  8
0
  6
BYBLOCK
 62
     0
100
AcDbLine
 10
0.0
 20
0.0
 30
0.0
 11
-1.0
 21
-0.1666666666666666
 31
0.0
  0
LINE
  5
3F
100
AcDbEntity
  8
0
  6
BYBLOCK
 62
     0
100
AcDbLine
 10
-1.0
 20
0.1666666666666666
 30
0.0
 11
-1.0
 21
-0.1666666666666666
 31
0.0
  0
ENDBLK
  5
40
100
AcDbEntity
  8
0
100
AcDbBlockEnd
  0
BLOCK
  5
42
100
AcDbEntity
  8
0
100
AcDbBlockBegin
  2
_DOTBLANK
 70
     0
 10
0.0
 20
0.0
 30
0.0
  3
_DOTBLANK
  1

  0
CIRCLE
  5
43
100
AcDbEntity
  8
0
  6
BYBLOCK
 62
     0
100
AcDbCircle
 10
0.0
 20
0.0
 30
0.0
 40
0.5
  0
LINE
  5
44
100
AcDbEntity
  8
0
  6
BYBLOCK
 62
     0
100
AcDbLine
 10
-0.5
 20
0.0
 30
0.0
 11
-1.0
 21
0.0
 31
0.0
  0
ENDBLK
  5
45
100
AcDbEntity
  8
0
100
AcDbBlockEnd
  0
ENDSEC
  0
SECTION
  2
ENTITIES
  0
MTEXT
  5
46
100
AcDbEntity
  8
A7
  6
CONTINUOUS
 62
3
100
AcDbMText
 10
9.999997526638502
 20
18.00000076076889
 30
0.000000000000000
 40
3.000000000000000
 41
0.000000000000000
 71
     7
 72
     1
  1
{\H0.94x;{TYPE No.TL-208SUS-2-H}}
 11
1.000000000000000
 21
0.000000000000000
 31
0.000000000000000
  7
STANDARD
  0
POINT
  5
47
100
AcDbEntity
  8
A0
  6
CONTINUOUS
 62
3
100
AcDbPoint
 10
9.999997526638502
 20
18.00000076076889
 30
0.000000000000000
  0
LINE
  5
48
100
AcDbEntity
  8
A1
  6
CONTINUOUS
 62
7
100
AcDbLine
 10
174.9754945031162
 20
72.99310089141009
 30
0.000000000000000
 11
174.9754945031162
 21
69.49310089140998
 31
0.000000000000000
  0
LINE
  5
49
100
AcDbEntity
  8
A1
  6
CONTINUOUS
 62
7
100
AcDbLine
 10
176.4754945031162
 20
73.24310089141009
 30
0.000000000000000
 11
176.4754945031162
 21
69.24310089141009
 31
0.000000000000000
  0
LINE
  5
4A
100
AcDbEntity
  8
A1
  6
CONTINUOUS
 62
7
100
AcDbLine
 10
154.9754945031162
 20
73.24310089141009
 30
0.000000000000000
 11
154.9754945031162
 21
69.24310089141009
 31
0.000000000000000
  0
LINE
  5
4B
100
AcDbEntity
  8
A1
  6
CONTINUOUS
 62
7
100
AcDbLine
 10
156.4754945031162
 20
72.99310089141009
 30
0.000000000000000
 11
156.4754945031162
 21
69.49310089140998
 31
0.000000000000000
  0
LINE
  5
4C
100
AcDbEntity
  8
A1
  6
CONTINUOUS
 62
7
100
AcDbLine
 10
153.9754945031162
 20
72.64310089140996
 30
0.000000000000000
 11
153.9754945031162
 21
69.84310089141000
 31
0.000000000000000
  0
LINE
  5
4D
100
AcDbEntity
  8
A1
  6
CONTINUOUS
 62
7
100
AcDbLine
 10
156.4754945031162
 20
72.39310089141007
 30
0.000000000000000
 11
156.4754945031162
 21
70.09310089141000
 31
0.000000000000000
  0
LINE
  5
4E
100
AcDbEntity
  8
A1
  6
CONTINUOUS
 62
7
100
AcDbLine
 10
174.9754945031162
 20
72.39310089141007
 30
0.000000000000000
 11
174.9754945031162
 21
70.09310089141000
 31
0.000000000000000
  0
ARC
  5
4F
100
AcDbEntity
  8
A1
  6
CONTINUOUS
 62
7
100
AcDbCircle
 10
173.2254945031162
 20
56.76550894841003
 30
0.000000000000000
 40
0.5000000000000000
100
AcDbArc
 50
0.000000000000000
 51
90.00000000000000
  0
LINE
  5
50
100
AcDbEntity
  8
A1
  6
CONTINUOUS
 62
7
100
AcDbLine
 10
173.7254945031162
 20
56.76550894840998
 30
0.000000000000000
 11
173.7254945031162
 21
53.24310089140997
 31
0.000000000000000
  0
ARC
  5
51
100
AcDbEntity
  8
A1
  6
CONTINUOUS
 62
7
100
AcDbCircle
 10
172.6254945031161
 20
58.56550894840998
 30
0.000000000000000
 40
1.300000000000000
100
AcDbArc
 50
263.3741904351705
 51
270.0000000000000
  0
LINE
  5
52
100
AcDbEntity
  8
A1
  6
CONTINUOUS
 62
7
100
AcDbLine
 10
173.2254945031162
 20
57.26550894840998
 30
0.000000000000000
 11
172.6254945031161
 21
57.26550894840998
 31
0.000000000000000
  0
LINE
  5
53
100
AcDbEntity
  8
A1
  6
CONTINUOUS
 62
7
100
AcDbLine
 10
172.4254945031161
 20
91.24310089140998
 30
0.000000000000000
 11
159.0254945031162
 21
91.24310089140998
 31
0.000000000000000
  0
LINE
  5
54
100
AcDbEntity
  8
A1
  6
CONTINUOUS
 62
7
100
AcDbLine
 10
170.9254945031161
 20
91.24310089140998
 30
0.000000000000000
 11
170.9254945031161
 21
81.74310089141009
 31
0.000000000000000
  0
LINE
  5
55
100
AcDbEntity
  8
A1
  6
CONTINUOUS
 62
7
100
AcDbLine
 10
172.4254945031161
 20
91.24310089140998
 30
0.000000000000000
 11
172.4254945031161
 21
81.74310089141009
 31
0.000000000000000
  0
LINE
  5
56
100
AcDbEntity
  8
A1
  6
CONTINUOUS
 62
7
100
AcDbLine
 10
160.5254945031162
 20
91.24310089140998
 30
0.000000000000000
 11
160.5254945031162
 21
81.74310089141009
 31
0.000000000000000
  0
LINE
  5
57
100
AcDbEntity
  8
A1
  6
CONTINUOUS
 62
7
100
AcDbLine
 10
159.0254945031162
 20
91.24310089140998
 30
0.000000000000000
 11
159.0254945031162
 21
81.74310089141009
 31
0.000000000000000
  0
LINE
  5
58
100
AcDbEntity
  8
A1
  6
CONTINUOUS
 62
7
100
AcDbLine
 10
177.4754945031162
 20
72.64310089140996
 30
0.000000000000000
 11
177.4754945031162
 21
69.84310089141000
 31
0.000000000000000
  0
LINE
  5
59
100
AcDbEntity
  8
A1
  6
CONTINUOUS
 62
7
100
AcDbLine
 10
153.9754945031162
 20
107.6455089484045
 30
0.000000000000000
 11
153.9754945031162
 21
104.8455089484045
 31
0.000000000000000
  0
LINE
  5
5A
100
AcDbEntity
  8
A1
  6
CONTINUOUS
 62
7
100
AcDbLine
 10
154.9754945031162
 20
102.4431008914100
 30
0.000000000000000
 11
154.9754945031162
 21
109.5455089484101
 31
0.000000000000000
  0
LINE
  5
5B
100
AcDbEntity
  8
A1
  6
CONTINUOUS
 62
7
100
AcDbLine
 10
156.4754945031162
 20
105.1205089484045
 30
0.000000000000000
 11
156.4754945031162
 21
107.3705089484045
 31
0.000000000000000
  0
LINE
  5
5C
100
AcDbEntity
  8
A1
  6
CONTINUOUS
 62
7
100
AcDbLine
 10
156.4754945031162
 20
107.9955089484045
 30
0.000000000000000
 11
156.4754945031162
 21
104.4955089484045
 31
0.000000000000000
  0
LINE
  5
5D
100
AcDbEntity
  8
A1
  6
CONTINUOUS
 62
7
100
AcDbLine
 10
156.4754945031162
 20
109.5455089484101
 30
0.000000000000000
 11
156.4754945031162
 21
107.0681008914100
 31
0.000000000000000
  0
ARC
  5
5E
100
AcDbEntity
  8
A1
  6
CONTINUOUS
 62
7
100
AcDbCircle
 10
154.5754945031161
 20
107.6455089484045
 30
0.000000000000000
 40
0.6000000000000000
100
AcDbArc
 50
90.00000000000000
 51
180.0000000000000
  0
LINE
  5
5F
100
AcDbEntity
  8
A1
  6
CONTINUOUS
 62
7
100
AcDbLine
 10
154.9754945031162
 20
108.2455089484045
 30
0.000000000000000
 11
154.5754945031161
 21
108.2455089484045
 31
0.000000000000000
  0
ARC
  5
60
100
AcDbEntity
  8
A1
  6
CONTINUOUS
 62
7
100
AcDbCircle
 10
154.9754945031162
 20
102.4431008914101
 30
0.000000000000000
 40
1.500002999999999
100
AcDbArc
 50
270.0000000000000
 51
360.0000000000000
  0
LINE
  5
61
100
AcDbEntity
  8
A1
  6
CONTINUOUS
 62
7
100
AcDbLine
 10
152.4754945031162
 20
100.9431008914100
 30
0.000000000000000
 11
154.9754945031162
 21
100.9431008914100
 31
0.000000000000000
  0
LINE
  5
62
100
AcDbEntity
  8
A1
  6
CONTINUOUS
 62
7
100
AcDbLine
 10
152.4754945031162
 20
102.4431008914100
 30
0.000000000000000
 11
154.9754945031162
 21
102.4431008914100
 31
0.000000000000000
  0
ARC
  5
63
100
AcDbEntity
  8
A1
  6
CONTINUOUS
 62
7
100
AcDbCircle
 10
152.4754945031162
 20
100.9431008914101
 30
0.000000000000000
 40
1.500002999999999
100
AcDbArc
 50
90.00000000000000
 51
180.0000000000000
  0
LINE
  5
64
100
AcDbEntity
  8
A1
  6
CONTINUOUS
 62
7
100
AcDbLine
 10
156.4754945031162
 20
104.8181008914100
 30
0.000000000000000
 11
156.4754945031162
 21
102.4431008914100
 31
0.000000000000000
  0
ARC
  5
65
100
AcDbEntity
  8
A1
  6
CONTINUOUS
 62
7
100
AcDbCircle
 10
154.5754945031161
 20
104.8455089484046
 30
0.000000000000000
 40
0.6000000000000000
100
AcDbArc
 50
180.0000000000000
 51
270.0000000000000
  0
LINE
  5
66
100
AcDbEntity
  8
A1
  6
CONTINUOUS
 62
7
100
AcDbLine
 10
154.9754945031162
 20
104.2455089484045
 30
0.000000000000000
 11
154.5754945031161
 21
104.2455089484045
 31
0.000000000000000
  0
LINE
  5
67
100
AcDbEntity
  8
A1
  6
CONTINUOUS
 62
7
100
AcDbLine
 10
152.4754945031162
 20
100.2431008914100
 30
0.000000000000000
 11
153.9754945031162
 21
100.2431008914100
 31
0.000000000000000
  0
LINE
  5
68
100
AcDbEntity
  8
A1
  6
CONTINUOUS
 62
7
100
AcDbLine
 10
152.4754945031162
 20
97.24310089140997
 30
0.000000000000000
 11
153.9754945031162
 21
97.24310089140997
 31
0.000000000000000
  0
LINE
  5
69
100
AcDbEntity
  8
A1
  6
CONTINUOUS
 62
7
100
AcDbLine
 10
152.4754945031162
 20
78.74310089140988
 30
0.000000000000000
 11
154.9754945031162
 21
74.41297387240996
 31
0.000000000000000
  0
LINE
  5
6A
100
AcDbEntity
  8
A1
  6
CONTINUOUS
 62
7
100
AcDbLine
 10
153.9754945031162
 20
79.14502467940997
 30
0.000000000000000
 11
156.4754945031161
 21
74.81489766041004
 31
0.000000000000000
  0
LINE
  5
6B
100
AcDbEntity
  8
A1
  6
CONTINUOUS
 62
7
100
AcDbLine
 10
152.4754945031162
 20
77.94310089141003
 30
0.000000000000000
 11
150.9754945031162
 21
77.94310089141003
 31
0.000000000000000
  0
LINE
  5
6C
100
AcDbEntity
  8
A1
  6
CONTINUOUS
 62
7
100
AcDbLine
 10
154.9754945031162
 20
74.41297387241012
 30
0.000000000000000
 11
154.9754945031162
 21
72.64310089140996
 31
0.000000000000000
  0
LINE
  5
6D
100
AcDbEntity
  8
A1
  6
CONTINUOUS
 62
7
100
AcDbLine
 10
156.4754945031162
 20
72.39310089141007
 30
0.000000000000000
 11
156.4754945031162
 21
74.81489766041010
 31
0.000000000000000
  0
LINE
  5
6E
100
AcDbEntity
  8
A1
  6
CONTINUOUS
 62
7
100
AcDbLine
 10
154.9754945031162
 20
73.24310089141009
 30
0.000000000000000
 11
154.5754945031161
 21
73.24310089141009
 31
0.000000000000000
  0
ARC
  5
6F
100
AcDbEntity
  8
A1
  6
CONTINUOUS
 62
7
100
AcDbCircle
 10
154.5754945031161
 20
72.64310089141000
 30
0.000000000000000
 40
0.6000000000000000
100
AcDbArc
 50
90.00000000000000
 51
180.0000000000000
  0
LINE
  5
70
100
AcDbEntity
  8
A1
  6
CONTINUOUS
 62
7
100
AcDbLine
 10
156.4754945031162
 20
72.99310089141009
 30
0.000000000000000
 11
157.7254945031162
 21
72.99310089141009
 31
0.000000000000000
  0
LINE
  5
71
100
AcDbEntity
  8
A1
  6
CONTINUOUS
 62
7
100
AcDbLine
 10
177.4754945031162
 20
107.6455089484045
 30
0.000000000000000
 11
177.4754945031162
 21
104.8455089484045
 31
0.000000000000000
  0
LINE
  5
72
100
AcDbEntity
  8
A1
  6
CONTINUOUS
 62
7
100
AcDbLine
 10
174.9754945031162
 20
105.1205089484045
 30
0.000000000000000
 11
174.9754945031162
 21
107.3705089484045
 31
0.000000000000000
  0
LINE
  5
73
100
AcDbEntity
  8
A1
  6
CONTINUOUS
 62
7
100
AcDbLine
 10
176.4754945031162
 20
102.4431008914100
 30
0.000000000000000
 11
176.4754945031162
 21
109.5455089484101
 31
0.000000000000000
  0
LINE
  5
74
100
AcDbEntity
  8
A1
  6
CONTINUOUS
 62
7
100
AcDbLine
 10
174.9754945031162
 20
107.9955089484045
 30
0.000000000000000
 11
174.9754945031162
 21
104.4955089484045
 31
0.000000000000000
  0
LINE
  5
75
100
AcDbEntity
  8
A1
  6
CONTINUOUS
 62
7
100
AcDbLine
 10
174.9754945031162
 20
109.5455089484101
 30
0.000000000000000
 11
174.9754945031162
 21
107.0681008914100
 31
0.000000000000000
  0
ARC
  5
76
100
AcDbEntity
  8
A1
  6
CONTINUOUS
 62
7
100
AcDbCircle
 10
176.8754945031161
 20
107.6455089484045
 30
0.000000000000000
 40
0.6000000000000000
100
AcDbArc
 50
0.000000000000000
 51
90.00000000000000
  0
LINE
  5
77
100
AcDbEntity
  8
A1
  6
CONTINUOUS
 62
7
100
AcDbLine
 10
176.4754945031162
 20
108.2455089484045
 30
0.000000000000000
 11
176.8754945031161
 21
108.2455089484045
 31
0.000000000000000
  0
LINE
  5
78
100
AcDbEntity
  8
A1
  6
CONTINUOUS
 62
7
100
AcDbLine
 10
180.4754945031162
 20
77.94310089141003
 30
0.000000000000000
 11
180.4754945031162
 21
80.94310089141014
 31
0.000000000000000
  0
LINE
  5
79
100
AcDbEntity
  8
A1
  6
CONTINUOUS
 62
7
100
AcDbLine
 10
178.9754945031162
 20
77.94310089141003
 30
0.000000000000000
 11
178.9754945031162
 21
80.94310089141014
 31
0.000000000000000
  0
ARC
  5
7A
100
AcDbEntity
  8
A1
  6
CONTINUOUS
 62
7
100
AcDbCircle
 10
176.4754945031162
 20
102.4431008914101
 30
0.000000000000000
 40
1.500002999999999
100
AcDbArc
 50
180.0000000000000
 51
270.0000000000000
  0
ARC
  5
7B
100
AcDbEntity
  8
A1
  6
CONTINUOUS
 62
7
100
AcDbCircle
 10
176.8754945031161
 20
104.8455089484046
 30
0.000000000000000
 40
0.6000000000000000
100
AcDbArc
 50
270.0000000000000
 51
360.0000000000000
  0
LINE
  5
7C
100
AcDbEntity
  8
A1
  6
CONTINUOUS
 62
7
100
AcDbLine
 10
178.9754945031162
 20
102.4431008914100
 30
0.000000000000000
 11
176.4754945031162
 21
102.4431008914100
 31
0.000000000000000
  0
LINE
  5
7D
100
AcDbEntity
  8
A1
  6
CONTINUOUS
 62
7
100
AcDbLine
 10
178.9754945031162
 20
100.9431008914100
 30
0.000000000000000
 11
176.4754945031162
 21
100.9431008914100
 31
0.000000000000000
  0
LINE
  5
7E
100
AcDbEntity
  8
A1
  6
CONTINUOUS
 62
7
100
AcDbLine
 10
174.9754945031162
 20
104.8181008914100
 30
0.000000000000000
 11
174.9754945031162
 21
102.4431008914100
 31
0.000000000000000
  0
LINE
  5
7F
100
AcDbEntity
  8
A1
  6
CONTINUOUS
 62
7
100
AcDbLine
 10
176.4754945031162
 20
104.2455089484045
 30
0.000000000000000
 11
176.8754945031161
 21
104.2455089484045
 31
0.000000000000000
  0
ARC
  5
80
100
AcDbEntity
  8
A1
  6
CONTINUOUS
 62
7
100
AcDbCircle
 10
178.9754945031162
 20
100.9431008914101
 30
0.000000000000000
 40
1.500002999999999
100
AcDbArc
 50
0.000000000000000
 51
90.00000000000000
  0
LINE
  5
81
100
AcDbEntity
  8
A1
  6
CONTINUOUS
 62
7
100
AcDbLine
 10
178.9754945031162
 20
100.2431008914100
 30
0.000000000000000
 11
177.4754945031162
 21
100.2431008914100
 31
0.000000000000000
  0
LINE
  5
82
100
AcDbEntity
  8
A1
  6
CONTINUOUS
 62
7
100
AcDbLine
 10
177.4754945031161
 20
79.14502467941000
 30
0.000000000000000
 11
174.9754945031161
 21
74.81489766040997
 31
0.000000000000000
  0
LINE
  5
83
100
AcDbEntity
  8
A1
  6
CONTINUOUS
 62
7
100
AcDbLine
 10
178.9754945031162
 20
78.74310089140997
 30
0.000000000000000
 11
176.4754945031162
 21
74.41297387241005
 31
0.000000000000000
  0
LINE
  5
84
100
AcDbEntity
  8
A1
  6
CONTINUOUS
 62
7
100
AcDbLine
 10
178.9754945031162
 20
77.94310089141003
 30
0.000000000000000
 11
180.4754945031162
 21
77.94310089141003
 31
0.000000000000000
  0
ARC
  5
85
100
AcDbEntity
  8
A1
  6
CONTINUOUS
 62
7
100
AcDbCircle
 10
176.8754945031161
 20
72.64310089141000
 30
0.000000000000000
 40
0.6000000000000000
100
AcDbArc
 50
0.000000000000000
 51
90.00000000000000
  0
LINE
  5
86
100
AcDbEntity
  8
A1
  6
CONTINUOUS
 62
7
100
AcDbLine
 10
174.9754945031162
 20
72.39310089141007
 30
0.000000000000000
 11
174.9754945031162
 21
74.81489766041010
 31
0.000000000000000
  0
LINE
  5
87
100
AcDbEntity
  8
A1
  6
CONTINUOUS
 62
7
100
AcDbLine
 10
176.4754945031162
 20
74.41297387241012
 30
0.000000000000000
 11
176.4754945031162
 21
72.64310089140996
 31
0.000000000000000
  0
LINE
  5
88
100
AcDbEntity
  8
A1
  6
CONTINUOUS
 62
7
100
AcDbLine
 10
173.7254945031162
 20
72.99310089141009
 30
0.000000000000000
 11
174.9754945031162
 21
72.99310089141009
 31
0.000000000000000
  0
LINE
  5
89
100
AcDbEntity
  8
A1
  6
CONTINUOUS
 62
7
100
AcDbLine
 10
176.4754945031162
 20
73.24310089141009
 30
0.000000000000000
 11
176.8754945031161
 21
73.24310089141009
 31
0.000000000000000
  0
LINE
  5
8A
100
AcDbEntity
  8
A1
  6
CONTINUOUS
 62
7
100
AcDbLine
 10
156.4754945031162
 20
70.09310089141000
 30
0.000000000000000
 11
156.4754945031162
 21
67.24310089140998
 31
0.000000000000000
  0
LINE
  5
8B
100
AcDbEntity
  8
A1
  6
CONTINUOUS
 62
7
100
AcDbLine
 10
154.9754945031162
 20
67.24310089140998
 30
0.000000000000000
 11
154.9754945031162
 21
69.84310089141000
 31
0.000000000000000
  0
LINE
  5
8C
100
AcDbEntity
  8
A1
  6
CONTINUOUS
 62
7
100
AcDbLine
 10
157.7254945031162
 20
69.49310089140998
 30
0.000000000000000
 11
156.4754945031162
 21
69.49310089140998
 31
0.000000000000000
  0
LINE
  5
8D
100
AcDbEntity
  8
A1
  6
CONTINUOUS
 62
7
100
AcDbLine
 10
154.9754945031162
 20
69.24310089141009
 30
0.000000000000000
 11
154.5754945031161
 21
69.24310089141009
 31
0.000000000000000
  0
ARC
  5
8E
100
AcDbEntity
  8
A1
  6
CONTINUOUS
 62
7
100
AcDbCircle
 10
154.5754945031161
 20
69.84310089141005
 30
0.000000000000000
 40
0.6000000000000000
100
AcDbArc
 50
180.0000000000000
 51
270.0000000000000
  0
LINE
  5
8F
100
AcDbEntity
  8
A1
  6
CONTINUOUS
 62
7
100
AcDbLine
 10
156.4754945031162
 20
67.24310089140998
 30
0.000000000000000
 11
154.9754945031162
 21
67.24310089140998
 31
0.000000000000000
  0
LINE
  5
90
100
AcDbEntity
  8
A1
  6
CONTINUOUS
 62
7
100
AcDbLine
 10
176.4754945031162
 20
67.24310089140998
 30
0.000000000000000
 11
176.4754945031162
 21
69.84310089141000
 31
0.000000000000000
  0
LINE
  5
91
100
AcDbEntity
  8
A1
  6
CONTINUOUS
 62
7
100
AcDbLine
 10
174.9754945031162
 20
70.09310089141000
 30
0.000000000000000
 11
174.9754945031162
 21
67.24310089140998
 31
0.000000000000000
  0
ARC
  5
92
100
AcDbEntity
  8
A1
  6
CONTINUOUS
 62
7
100
AcDbCircle
 10
176.8754945031161
 20
69.84310089141005
 30
0.000000000000000
 40
0.6000000000000000
100
AcDbArc
 50
270.0000000000000
 51
360.0000000000000
  0
LINE
  5
93
100
AcDbEntity
  8
A1
  6
CONTINUOUS
 62
7
100
AcDbLine
 10
176.4754945031162
 20
69.24310089141009
 30
0.000000000000000
 11
176.8754945031161
 21
69.24310089141009
 31
0.000000000000000
  0
LINE
  5
94
100
AcDbEntity
  8
A1
  6
CONTINUOUS
 62
7
100
AcDbLine
 10
174.9754945031162
 20
69.49310089140998
 30
0.000000000000000
 11
173.7254945031162
 21
69.49310089140998
 31
0.000000000000000
  0
LINE
  5
95
100
AcDbEntity
  8
A1
  6
CONTINUOUS
 62
7
100
AcDbLine
 10
174.9754945031162
 20
67.24310089140998
 30
0.000000000000000
 11
176.4754945031162
 21
67.24310089140998
 31
0.000000000000000
  0
ARC
  5
96
100
AcDbEntity
  8
A1
  6
CONTINUOUS
 62
7
100
AcDbCircle
 10
158.2254945031162
 20
56.76550894841003
 30
0.000000000000000
 40
0.5000000000000000
100
AcDbArc
 50
90.00000000000000
 51
180.0000000000000
  0
LINE
  5
97
100
AcDbEntity
  8
A1
  6
CONTINUOUS
 62
7
100
AcDbLine
 10
158.2254945031162
 20
57.26550894840998
 30
0.000000000000000
 11
158.8254945031161
 21
57.26550894840998
 31
0.000000000000000
  0
ARC
  5
98
100
AcDbEntity
  8
A1
  6
CONTINUOUS
 62
7
100
AcDbCircle
 10
158.8254945031161
 20
58.56550894840998
 30
0.000000000000000
 40
1.300000000000000
100
AcDbArc
 50
270.0000000000000
 51
276.6258095648194
  0
LINE
  5
99
100
AcDbEntity
  8
A1
  6
CONTINUOUS
 62
7
100
AcDbLine
 10
157.7254945031162
 20
56.76550894840998
 30
0.000000000000000
 11
157.7254945031162
 21
53.24310089140997
 31
0.000000000000000
  0
LINE
  5
9A
100
AcDbEntity
  8
A1
  6
CONTINUOUS
 62
7
100
AcDbLine
 10
174.7254945031162
 20
87.64310089141007
 30
0.000000000000000
 11
174.7254945031162
 21
84.84310089141000
 31
0.000000000000000
  0
LINE
  5
9B
100
AcDbEntity
  8
A1
  6
CONTINUOUS
 62
7
100
AcDbLine
 10
173.7254945031162
 20
88.24310089140998
 30
0.000000000000000
 11
174.1254945031161
 21
88.24310089140998
 31
0.000000000000000
  0
ARC
  5
9C
100
AcDbEntity
  8
A1
  6
CONTINUOUS
 62
7
100
AcDbCircle
 10
174.1254945031161
 20
87.64310089141011
 30
0.000000000000000
 40
0.6000000000000000
100
AcDbArc
 50
0.000000000000000
 51
90.00000000000000
  0
LINE
  5
9D
100
AcDbEntity
  8
A1
  6
CONTINUOUS
 62
7
100
AcDbLine
 10
173.7254945031162
 20
84.24310089141009
 30
0.000000000000000
 11
174.1254945031161
 21
84.24310089141009
 31
0.000000000000000
  0
ARC
  5
9E
100
AcDbEntity
  8
A1
  6
CONTINUOUS
 62
7
100
AcDbCircle
 10
174.1254945031161
 20
84.84310089141005
 30
0.000000000000000
 40
0.6000000000000000
100
AcDbArc
 50
270.0000000000000
 51
360.0000000000000
  0
ARC
  5
9F
100
AcDbEntity
  8
A1
  6
CONTINUOUS
 62
7
100
AcDbCircle
 10
157.3254945031161
 20
84.84310089141005
 30
0.000000000000000
 40
0.6000000000000000
100
AcDbArc
 50
180.0000000000000
 51
270.0000000000000
  0
ARC
  5
A0
100
AcDbEntity
  8
A1
  6
CONTINUOUS
 62
7
100
AcDbCircle
 10
157.3254945031161
 20
87.64310089141011
 30
0.000000000000000
 40
0.6000000000000000
100
AcDbArc
 50
90.00000000000000
 51
180.0000000000000
  0
LINE
  5
A1
100
AcDbEntity
  8
A1
  6
CONTINUOUS
 62
7
100
AcDbLine
 10
156.7254945031162
 20
87.64310089141007
 30
0.000000000000000
 11
156.7254945031162
 21
84.84310089141000
 31
0.000000000000000
  0
LINE
  5
A2
100
AcDbEntity
  8
A1
  6
CONTINUOUS
 62
7
100
AcDbLine
 10
157.7254945031162
 20
88.24310089140998
 30
0.000000000000000
 11
157.3254945031161
 21
88.24310089140998
 31
0.000000000000000
  0
LINE
  5
A3
100
AcDbEntity
  8
A1
  6
CONTINUOUS
 62
7
100
AcDbLine
 10
157.7254945031162
 20
84.24310089141009
 30
0.000000000000000
 11
157.3254945031161
 21
84.24310089141009
 31
0.000000000000000
  0
LINE
  5
A4
100
AcDbEntity
  8
A1
  6
CONTINUOUS
 62
7
100
AcDbLine
 10
152.4254945031162
 20
80.94310089141014
 30
0.000000000000000
 11
150.9254945031162
 21
80.94310089141014
 31
0.000000000000000
  0
LINE
  5
A5
100
AcDbEntity
  8
A1
  6
CONTINUOUS
 62
7
100
AcDbLine
 10
179.0254945031162
 20
80.94310089141014
 30
0.000000000000000
 11
180.5254945031162
 21
80.94310089141014
 31
0.000000000000000
  0
LINE
  5
A6
100
AcDbEntity
  8
A1
  6
CONTINUOUS
 62
7
100
AcDbLine
 10
157.7254945031162
 20
82.74310089140998
 30
0.000000000000000
 11
157.7254945031162
 21
67.14310089140996
 31
0.000000000000000
  0
LINE
  5
A7
100
AcDbEntity
  8
A1
  6
CONTINUOUS
 62
7
100
AcDbLine
 10
173.7254945031162
 20
82.74310089140998
 30
0.000000000000000
 11
173.7254945031162
 21
67.14310089140996
 31
0.000000000000000
  0
LINE
  5
A8
100
AcDbEntity
  8
A1
  6
CONTINUOUS
 62
7
100
AcDbLine
 10
169.5254945031162
 20
91.22069283340998
 30
0.000000000000000
 11
161.9254945031161
 21
91.22069283340998
 31
0.000000000000000
  0
LINE
  5
A9
100
AcDbEntity
  8
A1
  6
CONTINUOUS
 62
7
100
AcDbLine
 10
158.9254945031161
 20
81.74310089141009
 30
0.000000000000000
 11
158.9254945031161
 21
91.24310089140998
 31
0.000000000000000
  0
LINE
  5
AA
100
AcDbEntity
  8
A1
  6
CONTINUOUS
 62
7
100
AcDbLine
 10
157.7254945031162
 20
91.24310089140998
 30
0.000000000000000
 11
157.7254945031162
 21
82.74310089140998
 31
0.000000000000000
  0
LINE
  5
AB
100
AcDbEntity
  8
A1
  6
CONTINUOUS
 62
7
100
AcDbLine
 10
161.9254945031161
 20
91.22069283340998
 30
0.000000000000000
 11
161.9254945031161
 21
82.24310089141009
 31
0.000000000000000
  0
LINE
  5
AC
100
AcDbEntity
  8
A1
  6
CONTINUOUS
 62
7
100
AcDbLine
 10
158.9254945031161
 20
91.24310089140998
 30
0.000000000000000
 11
157.7254945031162
 21
91.24310089140998
 31
0.000000000000000
  0
LINE
  5
AD
100
AcDbEntity
  8
A1
  6
CONTINUOUS
 62
7
100
AcDbLine
 10
161.4254945031161
 20
81.74310089141009
 30
0.000000000000000
 11
158.7254945031162
 21
81.74310089141009
 31
0.000000000000000
  0
ARC
  5
AE
100
AcDbEntity
  8
A1
  6
CONTINUOUS
 62
7
100
AcDbCircle
 10
158.7254945031162
 20
82.74310089141002
 30
0.000000000000000
 40
1.000000000000000
100
AcDbArc
 50
180.0000000000000
 51
270.0000000000000
  0
ARC
  5
AF
100
AcDbEntity
  8
A1
  6
CONTINUOUS
 62
7
100
AcDbCircle
 10
161.4254945031162
 20
82.24310089141014
 30
0.000000000000000
 40
0.5000000000000000
100
AcDbArc
 50
270.0000000000000
 51
360.0000000000000
  0
LINE
  5
B0
100
AcDbEntity
  8
A1
  6
CONTINUOUS
 62
7
100
AcDbLine
 10
172.5254945031160
 20
81.74310089141009
 30
0.000000000000000
 11
172.5254945031160
 21
91.24310089140998
 31
0.000000000000000
  0
LINE
  5
B1
100
AcDbEntity
  8
A1
  6
CONTINUOUS
 62
7
100
AcDbLine
 10
169.5254945031162
 20
82.24310089141009
 30
0.000000000000000
 11
169.5254945031162
 21
91.22069283340998
 31
0.000000000000000
  0
LINE
  5
B2
100
AcDbEntity
  8
A1
  6
CONTINUOUS
 62
7
100
AcDbLine
 10
173.7254945031162
 20
91.24310089140998
 30
0.000000000000000
 11
173.7254945031162
 21
82.74310089140998
 31
0.000000000000000
  0
LINE
  5
B3
100
AcDbEntity
  8
A1
  6
CONTINUOUS
 62
7
100
AcDbLine
 10
173.7254945031162
 20
91.24310089140998
 30
0.000000000000000
 11
172.5254945031160
 21
91.24310089140998
 31
0.000000000000000
  0
ARC
  5
B4
100
AcDbEntity
  8
A1
  6
CONTINUOUS
 62
7
100
AcDbCircle
 10
172.7254945031162
 20
82.74310089141002
 30
0.000000000000000
 40
1.000000000000000
100
AcDbArc
 50
270.0000000000000
 51
360.0000000000000
  0
ARC
  5
B5
100
AcDbEntity
  8
A1
  6
CONTINUOUS
 62
7
100
AcDbCircle
 10
170.0254945031162
 20
82.24310089141014
 30
0.000000000000000
 40
0.5000000000000000
100
AcDbArc
 50
180.0000000000000
 51
270.0000000000000
  0
LINE
  5
B6
100
AcDbEntity
  8
A1
  6
CONTINUOUS
 62
7
100
AcDbLine
 10
172.7254945031162
 20
81.74310089141009
 30
0.000000000000000
 11
170.0254945031162
 21
81.74310089141009
 31
0.000000000000000
  0
LINE
  5
B7
100
AcDbEntity
  8
A1
  6
CONTINUOUS
 62
7
100
AcDbLine
 10
168.6919738981161
 20
74.24310089141009
 30
0.000000000000000
 11
162.7590151081162
 21
74.24310089141009
 31
0.000000000000000
  0
LINE
  5
B8
100
AcDbEntity
  8
A1
  6
CONTINUOUS
 62
7
100
AcDbLine
 10
168.6919738981161
 20
61.24310089140997
 30
0.000000000000000
 11
162.7590151081162
 21
61.24310089140997
 31
0.000000000000000
  0
LINE
  5
B9
100
AcDbEntity
  8
A1
  6
CONTINUOUS
 62
7
100
AcDbLine
 10
170.0254945031162
 20
48.24310089140997
 30
0.000000000000000
 11
161.4254945031161
 21
48.24310089140997
 31
0.000000000000000
  0
LINE
  5
BA
100
AcDbEntity
  8
A1
  6
CONTINUOUS
 62
7
100
AcDbLine
 10
157.7254945031162
 20
61.69310089141002
 30
0.000000000000000
 11
157.7254945031162
 21
58.49122897641005
 31
0.000000000000000
  0
LINE
  5
BB
100
AcDbEntity
  8
A1
  6
CONTINUOUS
 62
7
100
AcDbLine
 10
162.7590151081162
 20
74.24310089141009
 30
0.000000000000000
 11
162.7590151081162
 21
61.24310089140997
 31
0.000000000000000
  0
LINE
  5
BC
100
AcDbEntity
  8
A1
  6
CONTINUOUS
 62
7
100
AcDbLine
 10
157.0254945031162
 20
62.09310089141000
 30
0.000000000000000
 11
157.0254945031162
 21
66.74310089140998
 31
0.000000000000000
  0
LINE
  5
BD
100
AcDbEntity
  8
A1
  6
CONTINUOUS
 62
7
100
AcDbLine
 10
157.7254945031161
 20
67.14310089141028
 30
0.000000000000000
 11
157.0254945031162
 21
66.74310089141029
 31
0.000000000000000
  0
LINE
  5
BE
100
AcDbEntity
  8
A1
  6
CONTINUOUS
 62
7
100
AcDbLine
 10
157.7254945031165
 20
61.69310089140977
 30
0.000000000000000
 11
157.0254945031164
 21
62.09310089140983
 31
0.000000000000000
  0
LINE
  5
BF
100
AcDbEntity
  8
A1
  6
CONTINUOUS
 62
7
100
AcDbLine
 10
158.9754945031161
 20
58.15948697745171
 30
0.000000000000000
 11
158.9754945031161
 21
50.74310089141014
 31
0.000000000000000
  0
LINE
  5
C0
100
AcDbEntity
  8
A1
  6
CONTINUOUS
 62
7
100
AcDbLine
 10
158.9754945031161
 20
58.15948697745171
 30
0.000000000000000
 11
157.7254945031160
 21
58.49122897640996
 31
0.000000000000000
  0
ARC
  5
C1
100
AcDbEntity
  8
A1
  6
CONTINUOUS
 62
7
100
AcDbCircle
 10
161.4754945031162
 20
50.74310089141018
 30
0.000000000000000
 40
2.500003500000000
100
AcDbArc
 50
180.0000000000000
 51
270.0000000000000
  0
LINE
  5
C2
100
AcDbEntity
  8
A1
  6
CONTINUOUS
 62
7
100
AcDbLine
 10
173.7254945031162
 20
61.69310089141002
 30
0.000000000000000
 11
173.7254945031162
 21
58.49122897641005
 31
0.000000000000000
  0
LINE
  5
C3
100
AcDbEntity
  8
A1
  6
CONTINUOUS
 62
7
100
AcDbLine
 10
168.6919738981161
 20
61.24310089140997
 30
0.000000000000000
 11
168.6919738981161
 21
74.24310089141009
 31
0.000000000000000
  0
LINE
  5
C4
100
AcDbEntity
  8
A1
  6
CONTINUOUS
 62
7
100
AcDbLine
 10
174.4254945031161
 20
62.09310089141000
 30
0.000000000000000
 11
174.4254945031161
 21
66.74310089140998
 31
0.000000000000000
  0
LINE
  5
C5
100
AcDbEntity
  8
A1
  6
CONTINUOUS
 62
7
100
AcDbLine
 10
173.7254945031164
 20
67.14310089140994
 30
0.000000000000000
 11
174.4254945031165
 21
66.74310089140990
 31
0.000000000000000
  0
LINE
  5
C6
100
AcDbEntity
  8
A1
  6
CONTINUOUS
 62
7
100
AcDbLine
 10
173.7254945031162
 20
61.69310089141018
 30
0.000000000000000
 11
174.4254945031162
 21
62.09310089141018
 31
0.000000000000000
  0
LINE
  5
C7
100
AcDbEntity
  8
A1
  6
CONTINUOUS
 62
7
100
AcDbLine
 10
172.4754945031160
 20
58.15948697745171
 30
0.000000000000000
 11
172.4754945031160
 21
50.74310089140982
 31
0.000000000000000
  0
LINE
  5
C8
100
AcDbEntity
  8
A1
  6
CONTINUOUS
 62
7
100
AcDbLine
 10
172.4754945031159
 20
58.15948697745169
 30
0.000000000000000
 11
173.7254945031162
 21
58.49122897640997
 31
0.000000000000000
  0
ARC
  5
C9
100
AcDbEntity
  8
A1
  6
CONTINUOUS
 62
7
100
AcDbCircle
 10
169.9754945031162
 20
50.74310089140987
 30
0.000000000000000
 40
2.500003500000000
100
AcDbArc
 50
270.0000000000000
 51
360.0000000000000
  0
LINE
  5
CA
100
AcDbEntity
  8
A1
  6
CONTINUOUS
 62
7
100
AcDbLine
 10
77.94025679778780
 20
81.74310089141008
 30
0.000000000000000
 11
77.94025679778780
 21
59.34089893063252
 31
0.000000000000000
  0
LINE
  5
CB
100
AcDbEntity
  8
A1
  6
CONTINUOUS
 62
7
100
AcDbLine
 10
70.44025679778781
 20
55.64310089140998
 30
0.000000000000000
 11
70.44025679778781
 21
54.64310089140998
 31
0.000000000000000
  0
LINE
  5
CC
100
AcDbEntity
  8
A1
  6
CONTINUOUS
 62
7
100
AcDbLine
 10
64.94025679778792
 20
86.24310089141008
 30
0.000000000000000
 11
64.94025679778792
 21
76.54310089141003
 31
0.000000000000000
  0
ARC
  5
CD
100
AcDbEntity
  8
A1
  6
CONTINUOUS
 62
7
100
AcDbCircle
 10
74.44025679778802
 20
87.74310089141002
 30
0.000000000000000
 40
3.500000000000000
100
AcDbArc
 50
0.000000000000000
 51
88.19604540299999
  0
ARC
  5
CE
100
AcDbEntity
  8
A1
  6
CONTINUOUS
 62
7
100
AcDbCircle
 10
74.34025679778800
 20
88.24310089141002
 30
0.000000000000000
 40
3.000000000000000
100
AcDbArc
 50
0.000000000000000
 51
86.11186083099986
  0
ARC
  5
CF
100
AcDbEntity
  8
A1
  6
CONTINUOUS
 62
7
100
AcDbCircle
 10
69.94025679778802
 20
86.24310089141014
 30
0.000000000000000
 40
5.000000000000000
100
AcDbArc
 50
132.7005107490000
 51
180.0000000000000
  0
ARC
  5
D0
100
AcDbEntity
  8
A1
  6
CONTINUOUS
 62
7
100
AcDbCircle
 10
67.18684516878794
 20
85.25313176241005
 30
0.000000000000000
 40
0.6000000000000000
100
AcDbArc
 50
101.3083221920000
 51
281.3083221920000
  0
ARC
  5
D1
100
AcDbEntity
  8
A1
  6
CONTINUOUS
 62
7
100
AcDbCircle
 10
72.94025679778802
 20
86.24310089141014
 30
0.000000000000000
 40
1.799999549999999
100
AcDbArc
 50
308.3272407070000
 51
359.6940800319999
  0
LINE
  5
D2
100
AcDbEntity
  8
A1
  6
CONTINUOUS
 62
7
100
AcDbLine
 10
77.94025679778781
 20
87.74310089140997
 30
0.000000000000000
 11
77.94025679778781
 21
81.74310089141008
 31
0.000000000000000
  0
LINE
  5
D3
100
AcDbEntity
  8
A1
  6
CONTINUOUS
 62
7
100
AcDbLine
 10
77.34025679778790
 20
88.24310089140997
 30
0.000000000000000
 11
77.34025679778790
 21
81.74310089141008
 31
0.000000000000000
  0
ARC
  5
D4
100
AcDbEntity
  8
A1
  6
CONTINUOUS
 62
7
100
AcDbCircle
 10
75.44025679778802
 20
55.64310089141003
 30
0.000000000000000
 40
1.000000000000000
100
AcDbArc
 50
270.0000000000000
 51
360.0000000000000
  0
LINE
  5
D5
100
AcDbEntity
  8
A1
  6
CONTINUOUS
 62
7
100
AcDbLine
 10
77.34025679778790
 20
81.74310089141008
 30
0.000000000000000
 11
77.94025679778781
 21
81.74310089141008
 31
0.000000000000000
  0
LINE
  5
D6
100
AcDbEntity
  8
A1
  6
CONTINUOUS
 62
7
100
AcDbLine
 10
79.94025679778792
 20
74.24310089141008
 30
0.000000000000000
 11
77.94025679778781
 21
74.24310089141008
 31
0.000000000000000
  0
LINE
  5
D7
100
AcDbEntity
  8
A1
  6
CONTINUOUS
 62
7
100
AcDbLine
 10
79.94025679778792
 20
61.24310089140997
 30
0.000000000000000
 11
77.94025679778781
 21
61.24310089140997
 31
0.000000000000000
  0
LINE
  5
D8
100
AcDbEntity
  8
A1
  6
CONTINUOUS
 62
7
100
AcDbLine
 10
66.04025679778808
 20
68.37489470140981
 30
0.000000000000000
 11
64.94025679778809
 21
67.27489470140981
 31
0.000000000000000
  0
LINE
  5
D9
100
AcDbEntity
  8
A1
  6
CONTINUOUS
 62
7
100
AcDbLine
 10
66.04025679778795
 20
75.44310089141001
 30
0.000000000000000
 11
66.04025679778795
 21
68.37489470140994
 31
0.000000000000000
  0
LINE
  5
DA
100
AcDbEntity
  8
A1
  6
CONTINUOUS
 62
7
100
AcDbLine
 10
66.04025679778820
 20
75.44310089141013
 30
0.000000000000000
 11
64.94025679778827
 21
76.54310089141018
 31
0.000000000000000
  0
LINE
  5
DB
100
AcDbEntity
  8
A1
  6
CONTINUOUS
 62
7
100
AcDbLine
 10
77.52896798178801
 20
58.74310089140997
 30
0.000000000000000
 11
68.44025679778792
 21
58.74310089140997
 31
0.000000000000000
  0
LINE
  5
DC
100
AcDbEntity
  8
A1
  6
CONTINUOUS
 62
7
100
AcDbLine
 10
64.94025679778792
 20
67.27489470141003
 30
0.000000000000000
 11
64.94025679778792
 21
62.24310089140997
 31
0.000000000000000
  0
ARC
  5
DD
100
AcDbEntity
  8
A1
  6
CONTINUOUS
 62
7
100
AcDbCircle
 10
68.44025679778802
 20
62.24310089141002
 30
0.000000000000000
 40
3.500000000000000
100
AcDbArc
 50
180.0000000000000
 51
270.0000000000000
  0
ARC
  5
DE
100
AcDbEntity
  8
A1
  6
CONTINUOUS
 62
7
100
AcDbCircle
 10
77.52896798178800
 20
58.24310089141002
 30
0.000000000000000
 40
0.5000000000000000
100
AcDbArc
 50
5.904906099309129
 51
90.00000000000000
  0
LINE
  5
DF
100
AcDbEntity
  8
A1
  6
CONTINUOUS
 62
7
100
AcDbLine
 10
79.94025679778792
 20
74.24310089141008
 30
0.000000000000000
 11
79.94025679778792
 21
61.24310089140997
 31
0.000000000000000
  0
LINE
  5
E0
100
AcDbEntity
  8
A1
  6
CONTINUOUS
 62
7
100
AcDbLine
 10
66.04025679778795
 20
75.44310089141001
 30
0.000000000000000
 11
66.04025679778795
 21
68.37489470140994
 31
0.000000000000000
  0
LINE
  5
E1
100
AcDbEntity
  8
A1
  6
CONTINUOUS
 62
7
100
AcDbLine
 10
64.54025679778795
 20
91.24310089140997
 30
0.000000000000000
 11
64.54025679778795
 21
51.24310089140997
 31
0.000000000000000
  0
LINE
  5
E2
100
AcDbEntity
  8
A1
  6
CONTINUOUS
 62
7
100
AcDbLine
 10
73.10838403878793
 20
90.88853191341011
 30
0.000000000000000
 11
73.15026488078803
 21
89.58909248341008
 31
0.000000000000000
  0
LINE
  5
E3
100
AcDbEntity
  8
A1
  6
CONTINUOUS
 62
7
100
AcDbLine
 10
66.04025679778795
 20
74.66550894840995
 30
0.000000000000000
 11
64.54025679778795
 21
74.66550894840995
 31
0.000000000000000
  0
ARC
  5
E4
100
AcDbEntity
  8
A1
  6
CONTINUOUS
 62
7
100
AcDbCircle
 10
72.94025679778802
 20
86.24310089141014
 30
0.000000000000000
 40
5.000000000000000
100
AcDbArc
 50
331.6423634240000
 51
388.3576365759999
  0
ARC
  5
E5
100
AcDbEntity
  8
A1
  6
CONTINUOUS
 62
7
100
AcDbCircle
 10
72.94025679778802
 20
86.24310089141014
 30
0.000000000000000
 40
1.850000000000000
100
AcDbArc
 50
309.7624437680000
 51
361.2175399320000
  0
LINE
  5
E6
100
AcDbEntity
  8
A1
  6
CONTINUOUS
 62
7
100
AcDbLine
 10
66.04025679778795
 20
69.66550894840995
 30
0.000000000000000
 11
64.54025679778795
 21
69.66550894840995
 31
0.000000000000000
  0
LINE
  5
E7
100
AcDbEntity
  8
A1
  6
CONTINUOUS
 62
7
100
AcDbLine
 10
66.04025679778795
 20
59.69555305040999
 30
0.000000000000000
 11
66.04025679778795
 21
51.24310089140997
 31
0.000000000000000
  0
LINE
  5
E8
100
AcDbEntity
  8
A1
  6
CONTINUOUS
 62
7
100
AcDbLine
 10
66.04025679778795
 20
57.26550894840998
 30
0.000000000000000
 11
64.54025679778795
 21
57.26550894840998
 31
0.000000000000000
  0
LINE
  5
E9
100
AcDbEntity
  8
A1
  6
CONTINUOUS
 62
7
100
AcDbLine
 10
66.04025679778795
 20
51.24310089140997
 30
0.000000000000000
 11
64.54025679778795
 21
51.24310089140997
 31
0.000000000000000
  0
LINE
  5
EA
100
AcDbEntity
  8
A1
  6
CONTINUOUS
 62
7
100
AcDbLine
 10
75.44025679778791
 20
58.74310089140997
 30
0.000000000000000
 11
75.44025679778791
 21
55.64310089140997
 31
0.000000000000000
  0
CIRCLE
  5
EB
100
AcDbEntity
  8
A1
  6
CONTINUOUS
 62
7
100
AcDbCircle
 10
71.24025679778798
 20
71.24310089141002
 30
0.000000000000000
 40
2.000000000000000
  0
ARC
  5
EC
100
AcDbEntity
  8
A1
  6
CONTINUOUS
 62
7
100
AcDbCircle
 10
71.24025679778798
 20
71.24310089141002
 30
0.000000000000000
 40
3.000000000000000
100
AcDbArc
 50
148.2886902380000
 51
181.8459999999999
  0
ARC
  5
ED
100
AcDbEntity
  8
A1
  6
CONTINUOUS
 62
7
100
AcDbCircle
 10
71.24025679778798
 20
71.24310089141002
 30
0.000000000000000
 40
3.000000000000000
100
AcDbArc
 50
1.845999999999997
 51
35.40330976200001
  0
LINE
  5
EE
100
AcDbEntity
  8
A1
  6
CONTINUOUS
 62
7
100
AcDbLine
 10
72.73390737808994
 20
102.5074417273876
 30
0.000000000000000
 11
72.90705518978787
 21
97.13517419141013
 31
0.000000000000000
  0
LINE
  5
EF
100
AcDbEntity
  8
A1
  6
CONTINUOUS
 62
7
100
AcDbLine
 10
67.71612741294518
 20
102.9785478781377
 30
0.000000000000000
 11
67.93649442578794
 21
96.14120732241018
 31
0.000000000000000
  0
LINE
  5
F0
100
AcDbEntity
  8
A1
  6
CONTINUOUS
 62
7
100
AcDbLine
 10
72.73390737878789
 20
102.5074417274101
 30
0.000000000000000
 11
67.73650227778795
 21
102.3463757064100
 31
0.000000000000000
  0
LINE
  5
F1
100
AcDbEntity
  8
A1
  6
CONTINUOUS
 62
7
100
AcDbLine
 10
65.32477537878783
 20
99.56724394240993
 30
0.000000000000000
 11
65.38920178778794
 21
97.56828190241008
 31
0.000000000000000
  0
LINE
  5
F2
100
AcDbEntity
  8
A1
  6
CONTINUOUS
 62
7
100
AcDbLine
 10
67.80737132678783
 20
100.1475174624100
 30
0.000000000000000
 11
65.80840928678793
 21
100.0830910544099
 31
0.000000000000000
  0
ARC
  5
F3
100
AcDbEntity
  8
A1
  6
CONTINUOUS
 62
7
100
AcDbCircle
 10
65.82451588878790
 20
99.58335054441002
 30
0.000000000000000
 40
0.5000000000000000
100
AcDbArc
 50
91.84599999999988
 51
181.8459999999999
  0
LINE
  5
F4
100
AcDbEntity
  8
A1
  6
CONTINUOUS
 62
7
100
AcDbLine
 10
65.90504889978793
 20
97.08464799440998
 30
0.000000000000000
 11
67.90401093978795
 21
97.14907440241009
 31
0.000000000000000
  0
ARC
  5
F5
100
AcDbEntity
  8
A1
  6
CONTINUOUS
 62
7
100
AcDbCircle
 10
65.88894229778803
 20
97.58438850440999
 30
0.000000000000000
 40
0.5000000000000000
100
AcDbArc
 50
181.8459999999999
 51
271.8460000000001
  0
LINE
  5
F6
100
AcDbEntity
  8
A1
  6
CONTINUOUS
 62
7
100
AcDbLine
 10
67.17905136178791
 20
82.14438831241002
 30
0.000000000000000
 11
67.87426299678788
 21
82.04027496140992
 31
0.000000000000000
  0
LINE
  5
F7
100
AcDbEntity
  8
A1
  6
CONTINUOUS
 62
7
100
AcDbLine
 10
74.80373846778798
 20
100.3730098914100
 30
0.000000000000000
 11
72.80477642778797
 21
100.3085834834099
 31
0.000000000000000
  0
LINE
  5
F8
100
AcDbEntity
  8
A1
  6
CONTINUOUS
 62
7
100
AcDbLine
 10
74.59545616478778
 20
82.24710580941013
 30
0.000000000000000
 11
73.38103497778792
 21
82.42897483141012
 31
0.000000000000000
  0
LINE
  5
F9
100
AcDbEntity
  8
A1
  6
CONTINUOUS
 62
7
100
AcDbLine
 10
75.38401198778797
 20
97.89041394341018
 30
0.000000000000000
 11
75.31958557978798
 21
99.88937598340998
 31
0.000000000000000
  0
ARC
  5
FA
100
AcDbEntity
  8
A1
  6
CONTINUOUS
 62
7
100
AcDbCircle
 10
74.81984506978789
 20
99.87326938141010
 30
0.000000000000000
 40
0.5000000000000000
100
AcDbArc
 50
1.845999999999997
 51
91.84599999999988
  0
ARC
  5
FB
100
AcDbEntity
  8
A1
  6
CONTINUOUS
 62
7
100
AcDbCircle
 10
74.88427147778803
 20
97.87430734141017
 30
0.000000000000000
 40
0.5000000000000000
100
AcDbArc
 50
271.8460000000000
 51
361.8460000000000
  0
LINE
  5
FC
100
AcDbEntity
  8
A1
  6
CONTINUOUS
 62
7
100
AcDbLine
 10
75.52209292078800
 20
78.08458314441008
 30
0.000000000000000
 11
66.52676373978804
 21
77.79466430641017
 31
0.000000000000000
  0
LINE
  5
FD
100
AcDbEntity
  8
A1
  6
CONTINUOUS
 62
7
100
AcDbLine
 10
73.12415981978793
 20
74.87747037841011
 30
0.000000000000000
 11
69.12623573978804
 21
74.74861756141011
 31
0.000000000000000
  0
LINE
  5
FE
100
AcDbEntity
  8
A1
  6
CONTINUOUS
 62
7
100
AcDbLine
 10
66.01091662778794
 20
78.27829821441010
 30
0.000000000000000
 11
65.94649021978785
 21
80.27726025441012
 31
0.000000000000000
  0
LINE
  5
FF
100
AcDbEntity
  8
A1
  6
CONTINUOUS
 62
7
100
AcDbLine
 10
66.93584167178778
 20
89.69047002141008
 30
0.000000000000000
 11
68.15026286878765
 21
89.50860099541006
 31
0.000000000000000
  0
LINE
  5
100
100
AcDbEntity
  8
A1
  6
CONTINUOUS
 62
7
100
AcDbLine
 10
66.43012412778792
 20
80.79310736741004
 30
0.000000000000000
 11
68.42908616778783
 21
80.85753377541005
 31
0.000000000000000
  0
ARC
  5
101
100
AcDbEntity
  8
A1
  6
CONTINUOUS
 62
7
100
AcDbCircle
 10
66.44623072978798
 20
80.29336685741012
 30
0.000000000000000
 40
0.5000000000000000
100
AcDbArc
 50
91.84599999999988
 51
181.8459999999999
  0
LINE
  5
102
100
AcDbEntity
  8
A1
  6
CONTINUOUS
 62
7
100
AcDbLine
 10
68.52572577978776
 20
77.85909071541015
 30
0.000000000000000
 11
68.68813469178787
 21
72.82001964541007
 31
0.000000000000000
  0
ARC
  5
103
100
AcDbEntity
  8
A1
  6
CONTINUOUS
 62
7
100
AcDbCircle
 10
66.51065713778790
 20
78.29440481641009
 30
0.000000000000000
 40
0.5000000000000000
100
AcDbArc
 50
181.8459999999999
 51
271.8460000000001
  0
ARC
  5
104
100
AcDbEntity
  8
A1
  6
CONTINUOUS
 62
7
100
AcDbCircle
 10
75.44155990978798
 20
80.58328569441019
 30
0.000000000000000
 40
0.5000000000000000
100
AcDbArc
 50
1.845999999999997
 51
91.84599999999988
  0
LINE
  5
105
100
AcDbEntity
  8
A1
  6
CONTINUOUS
 62
7
100
AcDbLine
 10
74.43331637278789
 20
87.27782693440994
 30
0.000000000000000
 11
73.21889518378778
 21
87.45969595840992
 31
0.000000000000000
  0
LINE
  5
106
100
AcDbEntity
  8
A1
  6
CONTINUOUS
 62
7
100
AcDbLine
 10
73.52313088078805
 20
78.02015673641019
 30
0.000000000000000
 11
73.68553979278805
 21
72.98108566541005
 31
0.000000000000000
  0
ARC
  5
107
100
AcDbEntity
  8
A1
  6
CONTINUOUS
 62
7
100
AcDbCircle
 10
75.50598631878789
 20
78.58432365441016
 30
0.000000000000000
 40
0.5000000000000000
100
AcDbArc
 50
271.8460000000000
 51
361.8460000000000
  0
LINE
  5
108
100
AcDbEntity
  8
A1
  6
CONTINUOUS
 62
7
100
AcDbLine
 10
75.94130041978789
 20
80.59939229641016
 30
0.000000000000000
 11
76.00572682878781
 21
78.60043025641006
 31
0.000000000000000
  0
ARC
  5
109
100
AcDbEntity
  8
A1
  6
CONTINUOUS
 62
7
100
AcDbCircle
 10
71.27247000278781
 20
70.24361987141017
 30
0.000000000000000
 40
3.000000000000000
100
AcDbArc
 50
181.8459999999999
 51
361.8460000000000
  0
LINE
  5
10A
100
AcDbEntity
  8
A1
  6
CONTINUOUS
 62
7
100
AcDbLine
 10
68.27402694178816
 20
70.14698025840997
 30
0.000000000000000
 11
68.24181373778814
 21
71.14646127840997
 31
0.000000000000000
  0
LINE
  5
10B
100
AcDbEntity
  8
A1
  6
CONTINUOUS
 62
7
100
AcDbLine
 10
74.27091306278788
 20
70.34025948341008
 30
0.000000000000000
 11
74.23869985878790
 21
71.33974050340987
 31
0.000000000000000
  0
LINE
  5
10C
100
AcDbEntity
  8
A1
  6
CONTINUOUS
 62
7
100
AcDbLine
 10
65.04124796378791
 20
67.13014195441008
 30
0.000000000000000
 11
72.68209314678792
 21
65.13640554240999
 31
0.000000000000000
  0
LINE
  5
10D
100
AcDbEntity
  8
A1
  6
CONTINUOUS
 62
7
100
AcDbLine
 10
72.24025679778799
 20
61.69310089141002
 30
0.000000000000000
 11
64.98374121178801
 21
61.69310089141002
 31
0.000000000000000
  0
LINE
  5
10E
100
AcDbEntity
  8
A1
  6
CONTINUOUS
 62
7
100
AcDbLine
 10
76.44025679778791
 20
58.74310089140997
 30
0.000000000000000
 11
76.44025679778791
 21
55.64310089140997
 31
0.000000000000000
  0
LINE
  5
10F
100
AcDbEntity
  8
A1
  6
CONTINUOUS
 62
7
100
AcDbLine
 10
70.44025679778781
 20
54.64310089140998
 30
0.000000000000000
 11
75.44025679778792
 21
54.64310089140998
 31
0.000000000000000
  0
ARC
  5
110
100
AcDbEntity
  8
A1
  6
CONTINUOUS
 62
7
100
AcDbCircle
 10
72.24025679778798
 20
63.44310089141007
 30
0.000000000000000
 40
1.750000000000000
100
AcDbArc
 50
270.0000000000000
 51
435.3758090610000
  0
LINE
  5
111
100
AcDbEntity
  8
A1
  6
CONTINUOUS
 62
7
100
AcDbLine
 10
70.44025679778781
 20
55.64310089140998
 30
0.000000000000000
 11
75.44025679778792
 21
55.64310089140998
 31
0.000000000000000
  0
LINE
  5
112
100
AcDbEntity
  8
A1
  6
CONTINUOUS
 62
7
100
AcDbLine
 10
74.19010668378795
 20
94.82390864241012
 30
0.000000000000000
 11
72.97568549278802
 21
95.00577766841002
 31
0.000000000000000
  0
LINE
  5
113
100
AcDbEntity
  8
A1
  6
CONTINUOUS
 62
7
100
AcDbLine
 10
175.8175621541159
 20
84.78622187341000
 30
0.000000000000000
 11
177.4754945031162
 21
84.48303516995112
 31
0.000000000000000
  0
LINE
  5
114
100
AcDbEntity
  8
A1
  6
CONTINUOUS
 62
7
100
AcDbLine
 10
183.2334268531162
 20
84.64997988741003
 30
0.000000000000000
 11
180.4754945031162
 21
85.15432399793268
 31
0.000000000000000
  0
LINE
  5
115
100
AcDbEntity
  8
A1
  6
CONTINUOUS
 62
7
100
AcDbLine
 10
175.8175621541164
 20
87.30288854240997
 30
0.000000000000000
 11
177.4754945031163
 21
86.99970183895105
 31
0.000000000000000
  0
LINE
  5
116
100
AcDbEntity
  8
A1
  6
CONTINUOUS
 62
7
100
AcDbLine
 10
183.2334268531161
 20
87.16664655641021
 30
0.000000000000000
 11
180.4754945031163
 21
87.67099066693262
 31
0.000000000000000
  0
LINE
  5
117
100
AcDbEntity
  8
A1
  6
CONTINUOUS
 62
7
100
AcDbLine
 10
175.8175621541161
 20
89.81955521141003
 30
0.000000000000000
 11
177.4754945031163
 21
89.51636850795100
 31
0.000000000000000
  0
LINE
  5
118
100
AcDbEntity
  8
A1
  6
CONTINUOUS
 62
7
100
AcDbLine
 10
183.2334268531164
 20
89.68331322540985
 30
0.000000000000000
 11
180.4754945031163
 21
90.18765733593249
 31
0.000000000000000
  0
LINE
  5
119
100
AcDbEntity
  8
A1
  6
CONTINUOUS
 62
7
100
AcDbLine
 10
177.4754945031163
 20
92.03303517695109
 30
0.000000000000000
 11
175.8175621541164
 21
92.33622188040998
 31
0.000000000000000
  0
LINE
  5
11A
100
AcDbEntity
  8
A1
  6
CONTINUOUS
 62
7
100
AcDbLine
 10
183.2334268531162
 20
92.19997989441002
 30
0.000000000000000
 11
180.4754945031163
 21
92.70432400595114
 31
0.000000000000000
  0
ARC
  5
11B
100
AcDbEntity
  8
A1
  6
CONTINUOUS
 62
7
100
AcDbCircle
 10
175.9254945031161
 20
96.64310089141011
 30
0.000000000000000
 40
0.6000000000000000
100
AcDbArc
 50
292.8593626410000
 51
626.0652817760001
  0
ARC
  5
11C
100
AcDbEntity
  8
A1
  6
CONTINUOUS
 62
7
100
AcDbCircle
 10
183.1254945031162
 20
96.64310089141011
 30
0.000000000000000
 40
0.6000000000000000
100
AcDbArc
 50
279.4623222080000
 51
459.4623222079999
  0
LINE
  5
11D
100
AcDbEntity
  8
A1
  6
CONTINUOUS
 62
7
100
AcDbLine
 10
177.4754945031162
 20
94.54970184595109
 30
0.000000000000000
 11
175.8175621541163
 21
94.85288854940998
 31
0.000000000000000
  0
ARC
  5
11E
100
AcDbEntity
  8
A1
  6
CONTINUOUS
 62
7
100
AcDbCircle
 10
175.9254945031161
 20
95.44310089141007
 30
0.000000000000000
 40
0.6000000000000000
100
AcDbArc
 50
99.46232220799992
 51
279.4623222080000
  0
LINE
  5
11F
100
AcDbEntity
  8
A1
  6
CONTINUOUS
 62
7
100
AcDbLine
 10
183.2334268531163
 20
94.71664656340999
 30
0.000000000000000
 11
180.4754945031162
 21
95.22099067495111
 31
0.000000000000000
  0
ARC
  5
120
100
AcDbEntity
  8
A1
  6
CONTINUOUS
 62
7
100
AcDbCircle
 10
175.9254945031161
 20
81.54310089141009
 30
0.000000000000000
 40
0.6000000000000000
100
AcDbArc
 50
90.00000000000000
 51
270.0000000000000
  0
ARC
  5
121
100
AcDbEntity
  8
A1
  6
CONTINUOUS
 62
7
100
AcDbCircle
 10
183.1254945031162
 20
81.54310089141009
 30
0.000000000000000
 40
0.6000000000000000
100
AcDbArc
 50
270.0000000000000
 51
450.0000000000000
  0
LINE
  5
122
100
AcDbEntity
  8
A1
  6
CONTINUOUS
 62
7
100
AcDbLine
 10
183.2241338961163
 20
96.05126453641023
 30
0.000000000000000
 11
176.0241338961162
 21
94.85126453641024
 31
0.000000000000000
  0
ARC
  5
123
100
AcDbEntity
  8
A1
  6
CONTINUOUS
 62
7
100
AcDbCircle
 10
175.9254945031161
 20
92.92643422241011
 30
0.000000000000000
 40
0.6000000000000000
100
AcDbArc
 50
99.46232220799992
 51
279.4623222080000
  0
LINE
  5
124
100
AcDbEntity
  8
A1
  6
CONTINUOUS
 62
7
100
AcDbLine
 10
183.2241338961162
 20
93.53459786740990
 30
0.000000000000000
 11
176.0241338961162
 21
92.33459786741000
 31
0.000000000000000
  0
LINE
  5
125
100
AcDbEntity
  8
A1
  6
CONTINUOUS
 62
7
100
AcDbLine
 10
183.0268551111161
 20
94.71827057641011
 30
0.000000000000000
 11
175.8268551111163
 21
93.51827057641015
 31
0.000000000000000
  0
ARC
  5
126
100
AcDbEntity
  8
A1
  6
CONTINUOUS
 62
7
100
AcDbCircle
 10
175.9254945031161
 20
90.40976755341003
 30
0.000000000000000
 40
0.6000000000000000
100
AcDbArc
 50
99.46232220799992
 51
279.4623222080000
  0
LINE
  5
127
100
AcDbEntity
  8
A1
  6
CONTINUOUS
 62
7
100
AcDbLine
 10
183.2241338961161
 20
91.01793119841003
 30
0.000000000000000
 11
176.0241338961161
 21
89.81793119841002
 31
0.000000000000000
  0
LINE
  5
128
100
AcDbEntity
  8
A1
  6
CONTINUOUS
 62
7
100
AcDbLine
 10
183.0268551111163
 20
92.20160390741015
 30
0.000000000000000
 11
175.8268551111164
 21
91.00160390741004
 31
0.000000000000000
  0
ARC
  5
129
100
AcDbEntity
  8
A1
  6
CONTINUOUS
 62
7
100
AcDbCircle
 10
175.9254945031161
 20
87.89310088341009
 30
0.000000000000000
 40
0.6000000000000000
100
AcDbArc
 50
99.46232220799992
 51
279.4623222080000
  0
LINE
  5
12A
100
AcDbEntity
  8
A1
  6
CONTINUOUS
 62
7
100
AcDbLine
 10
183.0268551111162
 20
97.23493724540998
 30
0.000000000000000
 11
175.8268551111161
 21
96.03493724540996
 31
0.000000000000000
  0
LINE
  5
12B
100
AcDbEntity
  8
A1
  6
CONTINUOUS
 62
7
100
AcDbLine
 10
183.2241338961163
 20
88.50126452941007
 30
0.000000000000000
 11
176.0241338961163
 21
87.30126452941008
 31
0.000000000000000
  0
LINE
  5
12C
100
AcDbEntity
  8
A1
  6
CONTINUOUS
 62
7
100
AcDbLine
 10
183.0268551111161
 20
89.68493723841004
 30
0.000000000000000
 11
175.8268551111162
 21
88.48493723841005
 31
0.000000000000000
  0
ARC
  5
12D
100
AcDbEntity
  8
A1
  6
CONTINUOUS
 62
7
100
AcDbCircle
 10
175.9254945031161
 20
85.37643421441012
 30
0.000000000000000
 40
0.6000000000000000
100
AcDbArc
 50
99.46232220799992
 51
279.4623222080000
  0
LINE
  5
12E
100
AcDbEntity
  8
A1
  6
CONTINUOUS
 62
7
100
AcDbLine
 10
183.2241338961164
 20
85.98459786041010
 30
0.000000000000000
 11
176.0241338961163
 21
84.78459786041010
 31
0.000000000000000
  0
LINE
  5
12F
100
AcDbEntity
  8
A1
  6
CONTINUOUS
 62
7
100
AcDbLine
 10
183.0268551111160
 20
87.16827056941005
 30
0.000000000000000
 11
175.8268551111161
 21
85.96827056941004
 31
0.000000000000000
  0
ARC
  5
130
100
AcDbEntity
  8
A1
  6
CONTINUOUS
 62
7
100
AcDbCircle
 10
183.1254945031162
 20
94.12643422241004
 30
0.000000000000000
 40
0.6000000000000000
100
AcDbArc
 50
279.4623222080000
 51
459.4623222079999
  0
ARC
  5
131
100
AcDbEntity
  8
A1
  6
CONTINUOUS
 62
7
100
AcDbCircle
 10
183.1254945031162
 20
91.60976755341008
 30
0.000000000000000
 40
0.6000000000000000
100
AcDbArc
 50
279.4623222080000
 51
459.4623222079999
  0
ARC
  5
132
100
AcDbEntity
  8
A1
  6
CONTINUOUS
 62
7
100
AcDbCircle
 10
183.1254945031162
 20
89.09310088341002
 30
0.000000000000000
 40
0.6000000000000000
100
AcDbArc
 50
279.4623222080000
 51
459.4623222079999
  0
ARC
  5
133
100
AcDbEntity
  8
A1
  6
CONTINUOUS
 62
7
100
AcDbCircle
 10
183.1254945031162
 20
84.05976754540998
 30
0.000000000000000
 40
0.6000000000000000
100
AcDbArc
 50
279.4623222080000
 51
459.4623222079999
  0
ARC
  5
134
100
AcDbEntity
  8
A1
  6
CONTINUOUS
 62
7
100
AcDbCircle
 10
183.1254945031162
 20
86.57643421441006
 30
0.000000000000000
 40
0.6000000000000000
100
AcDbArc
 50
279.4623222080000
 51
459.4623222079999
  0
ARC
  5
135
100
AcDbEntity
  8
A1
  6
CONTINUOUS
 62
7
100
AcDbCircle
 10
175.9254945031161
 20
82.85976754541016
 30
0.000000000000000
 40
0.6000000000000000
100
AcDbArc
 50
99.46232220799992
 51
279.4623222080000
  0
LINE
  5
136
100
AcDbEntity
  8
A1
  6
CONTINUOUS
 62
7
100
AcDbLine
 10
183.2241338961164
 20
83.46793119141014
 30
0.000000000000000
 11
176.0241338961163
 21
82.26793119141003
 31
0.000000000000000
  0
LINE
  5
137
100
AcDbEntity
  8
A1
  6
CONTINUOUS
 62
7
100
AcDbLine
 10
183.0268551111162
 20
84.65160390041008
 30
0.000000000000000
 11
175.8268551111161
 21
83.45160390041008
 31
0.000000000000000
  0
LINE
  5
138
100
AcDbEntity
  8
A1
  6
CONTINUOUS
 62
7
100
AcDbLine
 10
183.1254945031162
 20
80.94310089141014
 30
0.000000000000000
 11
175.9254945031161
 21
80.94310089141014
 31
0.000000000000000
  0
LINE
  5
139
100
AcDbEntity
  8
A1
  6
CONTINUOUS
 62
7
100
AcDbLine
 10
183.1254945031162
 20
82.14310089140996
 30
0.000000000000000
 11
175.9254945031161
 21
82.14310089140996
 31
0.000000000000000
  0
LINE
  5
13A
100
AcDbEntity
  8
A1
  6
CONTINUOUS
 62
7
100
AcDbLine
 10
183.2334268521165
 20
82.13331323240990
 30
0.000000000000000
 11
180.4754945031163
 21
82.63765733784356
 31
0.000000000000000
  0
LINE
  5
13B
100
AcDbEntity
  8
A1
  6
CONTINUOUS
 62
7
100
AcDbLine
 10
175.8175621551165
 20
82.26955520441014
 30
0.000000000000000
 11
176.5090591641165
 21
82.14310089141006
 31
0.000000000000000
  0
LINE
  5
13C
100
AcDbEntity
  8
A1
  6
CONTINUOUS
 62
7
100
AcDbLine
 10
178.9754945031162
 20
97.24310089140997
 30
0.000000000000000
 11
175.9254945031161
 21
97.24310089140997
 31
0.000000000000000
  0
LINE
  5
13D
100
AcDbEntity
  8
A1
  6
CONTINUOUS
 62
7
100
AcDbLine
 10
148.2175621541161
 20
84.78622187341008
 30
0.000000000000000
 11
150.9754945031163
 21
84.28187776186570
 31
0.000000000000000
  0
LINE
  5
13E
100
AcDbEntity
  8
A1
  6
CONTINUOUS
 62
7
100
AcDbLine
 10
155.6334268531162
 20
84.64997988740986
 30
0.000000000000000
 11
153.9754945031163
 21
84.95316659087420
 31
0.000000000000000
  0
LINE
  5
13F
100
AcDbEntity
  8
A1
  6
CONTINUOUS
 62
7
100
AcDbLine
 10
148.2175621541163
 20
87.30288854241027
 30
0.000000000000000
 11
150.9754945031163
 21
86.79854443086587
 31
0.000000000000000
  0
LINE
  5
140
100
AcDbEntity
  8
A1
  6
CONTINUOUS
 62
7
100
AcDbLine
 10
155.6334268531163
 20
87.16664655641020
 30
0.000000000000000
 11
153.9754945031162
 21
87.46983325987441
 31
0.000000000000000
  0
LINE
  5
141
100
AcDbEntity
  8
A1
  6
CONTINUOUS
 62
7
100
AcDbLine
 10
148.2175621541160
 20
89.81955521141013
 30
0.000000000000000
 11
150.9754945031163
 21
89.31521110088407
 31
0.000000000000000
  0
LINE
  5
142
100
AcDbEntity
  8
A1
  6
CONTINUOUS
 62
7
100
AcDbLine
 10
155.6334268531162
 20
89.68331322540999
 30
0.000000000000000
 11
153.9754945031163
 21
89.98649992887434
 31
0.000000000000000
  0
LINE
  5
143
100
AcDbEntity
  8
A1
  6
CONTINUOUS
 62
7
100
AcDbLine
 10
150.9754945031163
 20
91.83187776988400
 30
0.000000000000000
 11
148.2175621541161
 21
92.33622188040995
 31
0.000000000000000
  0
LINE
  5
144
100
AcDbEntity
  8
A1
  6
CONTINUOUS
 62
7
100
AcDbLine
 10
155.6334268531162
 20
92.19997989441005
 30
0.000000000000000
 11
153.9754945031163
 21
92.50316659787431
 31
0.000000000000000
  0
ARC
  5
145
100
AcDbEntity
  8
A1
  6
CONTINUOUS
 62
7
100
AcDbCircle
 10
148.3254945031161
 20
96.64310089141011
 30
0.000000000000000
 40
0.6000000000000000
100
AcDbArc
 50
292.8593626410000
 51
626.0652817760001
  0
ARC
  5
146
100
AcDbEntity
  8
A1
  6
CONTINUOUS
 62
7
100
AcDbCircle
 10
155.5254945031161
 20
96.64310089141011
 30
0.000000000000000
 40
0.6000000000000000
100
AcDbArc
 50
279.4623222080000
 51
459.4623222079999
  0
LINE
  5
147
100
AcDbEntity
  8
A1
  6
CONTINUOUS
 62
7
100
AcDbLine
 10
150.9754945031162
 20
94.34854443888436
 30
0.000000000000000
 11
148.2175621541162
 21
94.85288854941017
 31
0.000000000000000
  0
ARC
  5
148
100
AcDbEntity
  8
A1
  6
CONTINUOUS
 62
7
100
AcDbCircle
 10
148.3254945031161
 20
95.44310089141007
 30
0.000000000000000
 40
0.6000000000000000
100
AcDbArc
 50
99.46232220799992
 51
279.4623222080000
  0
LINE
  5
149
100
AcDbEntity
  8
A1
  6
CONTINUOUS
 62
7
100
AcDbLine
 10
155.6334268531160
 20
94.71664656341014
 30
0.000000000000000
 11
153.9754945031162
 21
95.01983326687437
 31
0.000000000000000
  0
ARC
  5
14A
100
AcDbEntity
  8
A1
  6
CONTINUOUS
 62
7
100
AcDbCircle
 10
148.3254945031161
 20
81.54310089141009
 30
0.000000000000000
 40
0.6000000000000000
100
AcDbArc
 50
90.00000000000000
 51
270.0000000000000
  0
ARC
  5
14B
100
AcDbEntity
  8
A1
  6
CONTINUOUS
 62
7
100
AcDbCircle
 10
155.5254945031161
 20
81.54310089141009
 30
0.000000000000000
 40
0.6000000000000000
100
AcDbArc
 50
270.0000000000000
 51
450.0000000000000
  0
LINE
  5
14C
100
AcDbEntity
  8
A1
  6
CONTINUOUS
 62
7
100
AcDbLine
 10
155.6241338961163
 20
96.05126453641022
 30
0.000000000000000
 11
148.4241338961162
 21
94.85126453641021
 31
0.000000000000000
  0
ARC
  5
14D
100
AcDbEntity
  8
A1
  6
CONTINUOUS
 62
7
100
AcDbCircle
 10
148.3254945031161
 20
92.92643422241011
 30
0.000000000000000
 40
0.6000000000000000
100
AcDbArc
 50
99.46232220799992
 51
279.4623222080000
  0
LINE
  5
14E
100
AcDbEntity
  8
A1
  6
CONTINUOUS
 62
7
100
AcDbLine
 10
155.6241338961162
 20
93.53459786740986
 30
0.000000000000000
 11
148.4241338961162
 21
92.33459786740995
 31
0.000000000000000
  0
LINE
  5
14F
100
AcDbEntity
  8
A1
  6
CONTINUOUS
 62
7
100
AcDbLine
 10
155.4268551111164
 20
94.71827057640989
 30
0.000000000000000
 11
148.2268551111164
 21
93.51827057640989
 31
0.000000000000000
  0
ARC
  5
150
100
AcDbEntity
  8
A1
  6
CONTINUOUS
 62
7
100
AcDbCircle
 10
148.3254945031161
 20
90.40976755341003
 30
0.000000000000000
 40
0.6000000000000000
100
AcDbArc
 50
99.46232220799992
 51
279.4623222080000
  0
LINE
  5
151
100
AcDbEntity
  8
A1
  6
CONTINUOUS
 62
7
100
AcDbLine
 10
155.6241338961160
 20
91.01793119841014
 30
0.000000000000000
 11
148.4241338961160
 21
89.81793119841012
 31
0.000000000000000
  0
LINE
  5
152
100
AcDbEntity
  8
A1
  6
CONTINUOUS
 62
7
100
AcDbLine
 10
155.4268551111160
 20
92.20160390741003
 30
0.000000000000000
 11
148.2268551111162
 21
91.00160390740994
 31
0.000000000000000
  0
ARC
  5
153
100
AcDbEntity
  8
A1
  6
CONTINUOUS
 62
7
100
AcDbCircle
 10
148.3254945031161
 20
87.89310088341009
 30
0.000000000000000
 40
0.6000000000000000
100
AcDbArc
 50
99.46232220799992
 51
279.4623222080000
  0
LINE
  5
154
100
AcDbEntity
  8
A1
  6
CONTINUOUS
 62
7
100
AcDbLine
 10
155.4268551111163
 20
97.23493724540997
 30
0.000000000000000
 11
148.2268551111164
 21
96.03493724540998
 31
0.000000000000000
  0
LINE
  5
155
100
AcDbEntity
  8
A1
  6
CONTINUOUS
 62
7
100
AcDbLine
 10
155.6241338961162
 20
88.50126452941015
 30
0.000000000000000
 11
148.4241338961162
 21
87.30126452941016
 31
0.000000000000000
  0
LINE
  5
156
100
AcDbEntity
  8
A1
  6
CONTINUOUS
 62
7
100
AcDbLine
 10
155.4268551111163
 20
89.68493723840992
 30
0.000000000000000
 11
148.2268551111164
 21
88.48493723840991
 31
0.000000000000000
  0
ARC
  5
157
100
AcDbEntity
  8
A1
  6
CONTINUOUS
 62
7
100
AcDbCircle
 10
148.3254945031161
 20
85.37643421441012
 30
0.000000000000000
 40
0.6000000000000000
100
AcDbArc
 50
99.46232220799992
 51
279.4623222080000
  0
LINE
  5
158
100
AcDbEntity
  8
A1
  6
CONTINUOUS
 62
7
100
AcDbLine
 10
155.6241338961163
 20
85.98459786041008
 30
0.000000000000000
 11
148.4241338961163
 21
84.78459786041007
 31
0.000000000000000
  0
LINE
  5
159
100
AcDbEntity
  8
A1
  6
CONTINUOUS
 62
7
100
AcDbLine
 10
155.4268551111162
 20
87.16827056940991
 30
0.000000000000000
 11
148.2268551111162
 21
85.96827056940990
 31
0.000000000000000
  0
ARC
  5
15A
100
AcDbEntity
  8
A1
  6
CONTINUOUS
 62
7
100
AcDbCircle
 10
155.5254945031161
 20
94.12643422241004
 30
0.000000000000000
 40
0.6000000000000000
100
AcDbArc
 50
279.4623222080000
 51
459.4623222079999
  0
ARC
  5
15B
100
AcDbEntity
  8
A1
  6
CONTINUOUS
 62
7
100
AcDbCircle
 10
155.5254945031161
 20
91.60976755341008
 30
0.000000000000000
 40
0.6000000000000000
100
AcDbArc
 50
279.4623222080000
 51
459.4623222079999
  0
ARC
  5
15C
100
AcDbEntity
  8
A1
  6
CONTINUOUS
 62
7
100
AcDbCircle
 10
155.5254945031161
 20
89.09310088341002
 30
0.000000000000000
 40
0.6000000000000000
100
AcDbArc
 50
279.4623222080000
 51
459.4623222079999
  0
ARC
  5
15D
100
AcDbEntity
  8
A1
  6
CONTINUOUS
 62
7
100
AcDbCircle
 10
155.5254945031161
 20
84.05976754540998
 30
0.000000000000000
 40
0.6000000000000000
100
AcDbArc
 50
279.4623222080000
 51
459.4623222079999
  0
ARC
  5
15E
100
AcDbEntity
  8
A1
  6
CONTINUOUS
 62
7
100
AcDbCircle
 10
155.5254945031161
 20
86.57643421441006
 30
0.000000000000000
 40
0.6000000000000000
100
AcDbArc
 50
279.4623222080000
 51
459.4623222079999
  0
ARC
  5
15F
100
AcDbEntity
  8
A1
  6
CONTINUOUS
 62
7
100
AcDbCircle
 10
148.3254945031161
 20
82.85976754541016
 30
0.000000000000000
 40
0.6000000000000000
100
AcDbArc
 50
99.46232220799992
 51
279.4623222080000
  0
LINE
  5
160
100
AcDbEntity
  8
A1
  6
CONTINUOUS
 62
7
100
AcDbLine
 10
155.6241338961163
 20
83.46793119141014
 30
0.000000000000000
 11
148.4241338961162
 21
82.26793119141003
 31
0.000000000000000
  0
LINE
  5
161
100
AcDbEntity
  8
A1
  6
CONTINUOUS
 62
7
100
AcDbLine
 10
155.4268551111163
 20
84.65160390040994
 30
0.000000000000000
 11
148.2268551111164
 21
83.45160390040996
 31
0.000000000000000
  0
LINE
  5
162
100
AcDbEntity
  8
A1
  6
CONTINUOUS
 62
7
100
AcDbLine
 10
155.5254945031161
 20
80.94310089141014
 30
0.000000000000000
 11
148.3254945031161
 21
80.94310089141014
 31
0.000000000000000
  0
LINE
  5
163
100
AcDbEntity
  8
A1
  6
CONTINUOUS
 62
7
100
AcDbLine
 10
155.5254945031161
 20
97.24310089140997
 30
0.000000000000000
 11
153.9754945031162
 21
97.24310089140997
 31
0.000000000000000
  0
LINE
  5
164
100
AcDbEntity
  8
A1
  6
CONTINUOUS
 62
7
100
AcDbLine
 10
155.5254945031161
 20
82.14310089140996
 30
0.000000000000000
 11
148.3254945031161
 21
82.14310089140996
 31
0.000000000000000
  0
LINE
  5
165
100
AcDbEntity
  8
A1
  6
CONTINUOUS
 62
7
100
AcDbLine
 10
155.6334268521162
 20
82.13331323240983
 30
0.000000000000000
 11
153.9754945031162
 21
82.43649993295664
 31
0.000000000000000
  0
LINE
  5
166
100
AcDbEntity
  8
A1
  6
CONTINUOUS
 62
7
100
AcDbLine
 10
148.2175621551161
 20
82.26955520441015
 30
0.000000000000000
 11
148.9090591641163
 21
82.14310089141003
 31
0.000000000000000
  0
ARC
  5
167
100
AcDbEntity
  8
A1
  6
CONTINUOUS
 62
7
100
AcDbCircle
 10
66.86256558278806
 20
95.31457404041001
 30
0.000000000000000
 40
0.6000000000000000
100
AcDbArc
 50
101.3083221920000
 51
281.3083221920000
  0
LINE
  5
168
100
AcDbEntity
  8
A1
  6
CONTINUOUS
 62
7
100
AcDbLine
 10
74.14572962678797
 20
89.78815633641008
 30
0.000000000000000
 11
66.98812212678780
 21
88.35684404441008
 31
0.000000000000000
  0
LINE
  5
169
100
AcDbEntity
  8
A1
  6
CONTINUOUS
 62
7
100
AcDbLine
 10
74.38103591778790
 20
88.61145291141023
 30
0.000000000000000
 11
67.22342841778786
 21
87.18014061941024
 31
0.000000000000000
  0
LINE
  5
16A
100
AcDbEntity
  8
A1
  6
CONTINUOUS
 62
7
100
AcDbLine
 10
73.90251993678787
 20
97.33423804541009
 30
0.000000000000000
 11
66.74491243678789
 21
95.90292575241018
 31
0.000000000000000
  0
ARC
  5
16B
100
AcDbEntity
  8
A1
  6
CONTINUOUS
 62
7
100
AcDbCircle
 10
67.10577527278802
 20
87.76849233141004
 30
0.000000000000000
 40
0.6000000000000000
100
AcDbArc
 50
101.3083221920000
 51
281.3083221920000
  0
LINE
  5
16C
100
AcDbEntity
  8
A1
  6
CONTINUOUS
 62
7
100
AcDbLine
 10
74.06465972978771
 20
92.30351690541008
 30
0.000000000000000
 11
66.90705222978799
 21
90.87220461341010
 31
0.000000000000000
  0
LINE
  5
16D
100
AcDbEntity
  8
A1
  6
CONTINUOUS
 62
7
100
AcDbLine
 10
74.48726453878795
 20
82.25341154141014
 30
0.000000000000000
 11
67.29100119478798
 21
82.02147647341005
 31
0.000000000000000
  0
LINE
  5
16E
100
AcDbEntity
  8
A1
  6
CONTINUOUS
 62
7
100
AcDbLine
 10
74.00084516078779
 20
97.34557494440998
 30
0.000000000000000
 11
66.80458181578776
 21
97.11363987641005
 31
0.000000000000000
  0
LINE
  5
16F
100
AcDbEntity
  8
A1
  6
CONTINUOUS
 62
7
100
AcDbLine
 10
74.52592038378781
 20
81.05403431741003
 30
0.000000000000000
 11
67.32965703878779
 21
80.82209924941004
 31
0.000000000000000
  0
LINE
  5
170
100
AcDbEntity
  8
A1
  6
CONTINUOUS
 62
7
100
AcDbLine
 10
74.30786941978778
 20
84.75743519741006
 30
0.000000000000000
 11
67.15026191978770
 21
83.32612290441007
 31
0.000000000000000
  0
LINE
  5
171
100
AcDbEntity
  8
A1
  6
CONTINUOUS
 62
7
100
AcDbLine
 10
74.54317571078803
 20
83.58073177240999
 30
0.000000000000000
 11
67.38556821078809
 21
82.14941948040999
 31
0.000000000000000
  0
ARC
  5
172
100
AcDbEntity
  8
A1
  6
CONTINUOUS
 62
7
100
AcDbCircle
 10
67.26791506578785
 20
82.73777119241018
 30
0.000000000000000
 40
0.6000000000000000
100
AcDbArc
 50
101.3083221920000
 51
281.3083221920000
  0
LINE
  5
173
100
AcDbEntity
  8
A1
  6
CONTINUOUS
 62
7
100
AcDbLine
 10
67.01691156778794
 20
87.17510945241013
 30
0.000000000000000
 11
68.23133276678800
 21
86.99324042641003
 31
0.000000000000000
  0
LINE
  5
174
100
AcDbEntity
  8
A1
  6
CONTINUOUS
 62
7
100
AcDbLine
 10
74.51438626978789
 20
84.76246636441007
 30
0.000000000000000
 11
73.29996508078789
 21
84.94433538941018
 31
0.000000000000000
  0
ARC
  5
175
100
AcDbEntity
  8
A1
  6
CONTINUOUS
 62
7
100
AcDbCircle
 10
74.34445266878798
 20
86.68444405441019
 30
0.000000000000000
 40
0.6000000000000000
100
AcDbArc
 50
281.3083221920000
 51
461.3083221920000
  0
ARC
  5
176
100
AcDbEntity
  8
A1
  6
CONTINUOUS
 62
7
100
AcDbCircle
 10
74.42552256578789
 20
84.16908348440998
 30
0.000000000000000
 40
0.6000000000000000
100
AcDbArc
 50
281.3083221920000
 51
461.3083221920000
  0
ARC
  5
177
100
AcDbEntity
  8
A1
  6
CONTINUOUS
 62
7
100
AcDbCircle
 10
74.26338277278806
 20
89.19980462341007
 30
0.000000000000000
 40
0.6000000000000000
100
AcDbArc
 50
281.3083221920000
 51
461.3083221920000
  0
ARC
  5
178
100
AcDbEntity
  8
A1
  6
CONTINUOUS
 62
7
100
AcDbCircle
 10
74.18231287578793
 20
91.71516519341006
 30
0.000000000000000
 40
0.6000000000000000
100
AcDbArc
 50
281.3083221920000
 51
461.3083221920000
  0
LINE
  5
179
100
AcDbEntity
  8
A1
  6
CONTINUOUS
 62
7
100
AcDbLine
 10
74.29996602178814
 20
91.12681348141001
 30
0.000000000000000
 11
67.14235852178808
 21
89.69550118941000
 31
0.000000000000000
  0
ARC
  5
17A
100
AcDbEntity
  8
A1
  6
CONTINUOUS
 62
7
100
AcDbCircle
 10
67.02470537578800
 20
90.28385290141014
 30
0.000000000000000
 40
0.6000000000000000
100
AcDbArc
 50
101.3083221920000
 51
281.3083221920000
  0
LINE
  5
17B
100
AcDbEntity
  8
A1
  6
CONTINUOUS
 62
7
100
AcDbLine
 10
73.98358983378800
 20
94.81887747541001
 30
0.000000000000000
 11
66.82598233378805
 21
93.38756518341003
 31
0.000000000000000
  0
LINE
  5
17C
100
AcDbEntity
  8
A1
  6
CONTINUOUS
 62
7
100
AcDbLine
 10
74.21889612478796
 20
93.64217405040993
 30
0.000000000000000
 11
67.06128862478803
 21
92.21086175840995
 31
0.000000000000000
  0
ARC
  5
17D
100
AcDbEntity
  8
A1
  6
CONTINUOUS
 62
7
100
AcDbCircle
 10
74.10124297978790
 20
94.23052576341004
 30
0.000000000000000
 40
0.6000000000000000
100
AcDbArc
 50
281.3083221920000
 51
461.3083221920000
  0
ARC
  5
17E
100
AcDbEntity
  8
A1
  6
CONTINUOUS
 62
7
100
AcDbCircle
 10
66.94363547978797
 20
92.79921347141001
 30
0.000000000000000
 40
0.6000000000000000
100
AcDbArc
 50
101.3083221920000
 51
281.3083221920000
  0
LINE
  5
17F
100
AcDbEntity
  8
A1
  6
CONTINUOUS
 62
7
100
AcDbLine
 10
74.13782622878773
 20
96.15753462041005
 30
0.000000000000000
 11
66.98021872878800
 21
94.72622232841007
 31
0.000000000000000
  0
LINE
  5
180
100
AcDbEntity
  8
A1
  6
CONTINUOUS
 62
7
100
AcDbLine
 10
67.98812307478799
 20
94.53932213541010
 30
0.000000000000000
 11
66.77370187878792
 21
94.72119116041010
 31
0.000000000000000
  0
ARC
  5
181
100
AcDbEntity
  8
A1
  6
CONTINUOUS
 62
7
100
AcDbCircle
 10
74.02017308278799
 20
96.74588633241015
 30
0.000000000000000
 40
0.6000000000000000
100
AcDbArc
 50
281.3083221920000
 51
461.3083221920000
  0
ARC
  5
182
100
AcDbEntity
  8
A1
  6
CONTINUOUS
 62
7
100
AcDbCircle
 10
66.82390973778784
 20
96.51395126441017
 30
0.000000000000000
 40
0.6000000000000000
100
AcDbArc
 50
294.7053626240000
 51
627.9112817599998
  0
LINE
  5
183
100
AcDbEntity
  8
A1
  6
CONTINUOUS
 62
7
100
AcDbLine
 10
74.22679952278810
 20
87.27279576641004
 30
0.000000000000000
 11
67.06919202278804
 21
85.84148347441003
 31
0.000000000000000
  0
ARC
  5
184
100
AcDbEntity
  8
A1
  6
CONTINUOUS
 62
7
100
AcDbCircle
 10
74.50659246178803
 20
81.65372292941007
 30
0.000000000000000
 40
0.6000000000000000
100
AcDbArc
 50
271.8459999840001
 51
451.8459999839999
  0
ARC
  5
185
100
AcDbEntity
  8
A1
  6
CONTINUOUS
 62
7
100
AcDbCircle
 10
67.31032911678800
 20
81.42178786141008
 30
0.000000000000000
 40
0.6000000000000000
100
AcDbArc
 50
91.84599998399990
 51
271.8459999840001
  0
LINE
  5
186
100
AcDbEntity
  8
A1
  6
CONTINUOUS
 62
7
100
AcDbLine
 10
74.27117657978802
 20
92.30854807341002
 30
0.000000000000000
 11
73.05675538978790
 21
92.49041709841005
 31
0.000000000000000
  0
LINE
  5
187
100
AcDbEntity
  8
A1
  6
CONTINUOUS
 62
7
100
AcDbLine
 10
68.06919297178800
 20
92.02396156540996
 30
0.000000000000000
 11
66.85477177478803
 21
92.20583059140998
 31
0.000000000000000
  0
LINE
  5
188
100
AcDbEntity
  8
A1
  6
CONTINUOUS
 62
7
100
AcDbLine
 10
67.09798146478784
 20
84.65974888240999
 30
0.000000000000000
 11
68.31240266378792
 21
84.47787985641007
 31
0.000000000000000
  0
LINE
  5
189
100
AcDbEntity
  8
A1
  6
CONTINUOUS
 62
7
100
AcDbLine
 10
74.35224647678812
 20
89.79318750341002
 30
0.000000000000000
 11
73.13782528678813
 21
89.97505652841011
 31
0.000000000000000
  0
LINE
  5
18A
100
AcDbEntity
  8
A1
  6
CONTINUOUS
 62
7
100
AcDbLine
 10
74.46210581478800
 20
86.09609234241022
 30
0.000000000000000
 11
67.30449831478806
 21
84.66478005041023
 31
0.000000000000000
  0
LINE
  5
18B
100
AcDbEntity
  8
A1
  6
CONTINUOUS
 62
7
100
AcDbLine
 10
68.09436005778798
 20
91.24310089140997
 30
0.000000000000000
 11
64.54025679778795
 21
91.24310089140997
 31
0.000000000000000
  0
LINE
  5
18C
100
AcDbEntity
  8
A1
  6
CONTINUOUS
 62
7
100
AcDbLine
 10
74.90037807978786
 20
97.37456683141005
 30
0.000000000000000
 11
72.90141603978783
 21
97.31014042341005
 31
0.000000000000000
  0
LINE
  5
18D
100
AcDbEntity
  8
A1
  6
CONTINUOUS
 62
7
100
AcDbLine
 10
75.42545330778799
 20
81.08302620441007
 30
0.000000000000000
 11
73.42649126778797
 21
81.01859979641014
 31
0.000000000000000
  0
LINE
  5
18E
100
AcDbEntity
  8
A1
  6
CONTINUOUS
 62
7
100
AcDbLine
 10
177.4754945031162
 20
80.94310089141014
 30
0.000000000000000
 11
177.4754945031162
 21
79.14502467941007
 31
0.000000000000000
  0
LINE
  5
18F
100
AcDbEntity
  8
A1
  6
CONTINUOUS
 62
7
100
AcDbLine
 10
150.9754945031162
 20
97.24310089140997
 30
0.000000000000000
 11
148.3254945031161
 21
97.24310089140997
 31
0.000000000000000
  0
LINE
  5
190
100
AcDbEntity
  8
A1
  6
CONTINUOUS
 62
7
100
AcDbLine
 10
72.94624424378794
 20
95.91925305241010
 30
0.000000000000000
 11
72.98812508678806
 21
94.61981362240999
 31
0.000000000000000
  0
LINE
  5
191
100
AcDbEntity
  8
A1
  6
CONTINUOUS
 62
7
100
AcDbLine
 10
67.97568347978778
 20
94.92528618240996
 30
0.000000000000000
 11
68.01756432278785
 21
93.62584675240998
 31
0.000000000000000
  0
LINE
  5
192
100
AcDbEntity
  8
A1
  6
CONTINUOUS
 62
7
100
AcDbLine
 10
73.02731414078792
 20
93.40389248240993
 30
0.000000000000000
 11
73.06919498378792
 21
92.10445305241005
 31
0.000000000000000
  0
LINE
  5
193
100
AcDbEntity
  8
A1
  6
CONTINUOUS
 62
7
100
AcDbLine
 10
68.05675337778810
 20
92.40992561340988
 30
0.000000000000000
 11
68.09863422078801
 21
91.11048618340989
 31
0.000000000000000
  0
LINE
  5
194
100
AcDbEntity
  8
A1
  6
CONTINUOUS
 62
7
100
AcDbLine
 10
68.13782327478782
 20
89.89456504341000
 30
0.000000000000000
 11
68.17970411778791
 21
88.59512561340989
 31
0.000000000000000
  0
LINE
  5
195
100
AcDbEntity
  8
A1
  6
CONTINUOUS
 62
7
100
AcDbLine
 10
73.18945393578802
 20
88.37317134340991
 30
0.000000000000000
 11
73.23133477878791
 21
87.07373191340992
 31
0.000000000000000
  0
LINE
  5
196
100
AcDbEntity
  8
A1
  6
CONTINUOUS
 62
7
100
AcDbLine
 10
68.21889317178795
 20
87.37920447441012
 30
0.000000000000000
 11
68.26077401478796
 21
86.07976504441001
 31
0.000000000000000
  0
LINE
  5
197
100
AcDbEntity
  8
A1
  6
CONTINUOUS
 62
7
100
AcDbLine
 10
73.27052383278799
 20
85.85781077441003
 30
0.000000000000000
 11
73.31240467578799
 21
84.55837134441015
 31
0.000000000000000
  0
LINE
  5
198
100
AcDbEntity
  8
A1
  6
CONTINUOUS
 62
7
100
AcDbLine
 10
68.29996306878796
 20
84.86384390441003
 30
0.000000000000000
 11
68.34184391178796
 21
83.56440447441015
 31
0.000000000000000
  0
ARC
  5
199
100
AcDbEntity
  8
A1
  6
CONTINUOUS
 62
7
100
AcDbCircle
 10
72.94025679778802
 20
86.24310089141014
 30
0.000000000000000
 40
1.799999549999999
100
AcDbArc
 50
35.22056836500000
 51
81.68054812399991
  0
ARC
  5
19A
100
AcDbEntity
  8
A1
  6
CONTINUOUS
 62
7
100
AcDbCircle
 10
72.94025679778802
 20
86.24310089141014
 30
0.000000000000000
 40
1.850000000000000
100
AcDbArc
 50
33.67865363400000
 51
81.95809216299989
  0
LINE
  5
19B
100
AcDbEntity
  8
A1
  6
CONTINUOUS
 62
7
100
AcDbLine
 10
73.35159372978804
 20
83.34245020441014
 30
0.000000000000000
 11
73.38783542278814
 21
82.21797701741016
 31
0.000000000000000
  0
LINE
  5
19C
100
AcDbEntity
  8
A1
  6
CONTINUOUS
 62
7
100
AcDbLine
 10
68.38103296678791
 20
82.34848333540998
 30
0.000000000000000
 11
68.39043032278791
 21
82.05691099840995
 31
0.000000000000000
  0
LINE
  5
19D
100
AcDbEntity
  8
A1
  6
CONTINUOUS
 62
7
100
AcDbLine
 10
183.1254945031162
 20
97.24310089140998
 30
0.000000000000000
 11
180.5254945031162
 21
97.24310089140998
 31
0.000000000000000
  0
LINE
  5
19E
100
AcDbEntity
  8
A4
  6
CENTER
 62
1
100
AcDbLine
 10
152.4754945031161
 20
106.2455089484100
 30
0.000000000000000
 11
178.9754945031783
 21
106.2455089484100
 31
0.000000000000000
  0
LINE
  5
19F
100
AcDbEntity
  8
A4
  6
CENTER
 62
1
100
AcDbLine
 10
155.2254945031161
 20
86.24310089139809
 30
0.000000000000000
 11
176.2254945031783
 21
86.24310089139809
 31
0.000000000000000
  0
LINE
  5
1A0
100
AcDbEntity
  8
A4
  6
CENTER
 62
1
100
AcDbLine
 10
74.74025679778798
 20
71.24310089141002
 30
0.000000000000000
 11
67.74025679778798
 21
71.24310089141002
 31
0.000000000000000
  0
LINE
  5
1A1
100
AcDbEntity
  8
A4
  6
CENTER
 62
1
100
AcDbLine
 10
71.24025679778798
 20
74.74310089141002
 30
0.000000000000000
 11
71.24025679778798
 21
67.74310089141002
 31
0.000000000000000
  0
LINE
  5
1A2
100
AcDbEntity
  8
A4
  6
CENTER
 62
1
100
AcDbLine
 10
152.4754945031161
 20
71.24310089141088
 30
0.000000000000000
 11
159.2254945031201
 21
71.24310089141088
 31
0.000000000000000
  0
LINE
  5
1A3
100
AcDbEntity
  8
A4
  6
CENTER
 62
1
100
AcDbLine
 10
63.04025679782136
 20
57.24310089145499
 30
0.000000000000000
 11
67.54025679778793
 21
57.24310089145499
 31
0.000000000000000
  0
LINE
  5
1A4
100
AcDbEntity
  8
A1
  6
CONTINUOUS
 62
7
100
AcDbLine
 10
66.04025679778802
 20
72.86550894832183
 30
0.000000000000000
 11
64.54025679782144
 21
72.86550894831996
 31
0.000000000000000
  0
LINE
  5
1A5
100
AcDbEntity
  8
A4
  6
CENTER
 62
1
100
AcDbLine
 10
63.04025679782136
 20
71.24550894841005
 30
0.000000000000000
 11
67.54025679778793
 21
71.24550894841005
 31
0.000000000000000
  0
LINE
  5
1A6
100
AcDbEntity
  8
A1
  6
CONTINUOUS
 62
7
100
AcDbLine
 10
156.4754945031161
 20
107.9955089484045
 30
0.000000000000000
 11
174.9754945031161
 21
107.9955089484045
 31
0.000000000000000
  0
LINE
  5
1A7
100
AcDbEntity
  8
A1
  6
CONTINUOUS
 62
7
100
AcDbLine
 10
156.4754945031161
 20
104.4955089484045
 30
0.000000000000000
 11
174.9754945031161
 21
104.4955089484045
 31
0.000000000000000
  0
LINE
  5
1A8
100
AcDbEntity
  8
A4
  6
CENTER
 62
1
100
AcDbLine
 10
165.7254945031161
 20
46.74310089140997
 30
0.000000000000000
 11
165.7254945031161
 21
111.1807530184099
 31
0.000000000000000
  0
LINE
  5
1A9
100
AcDbEntity
  8
A3
  6
DASHED
 62
2
100
AcDbLine
 10
171.7254945031163
 20
51.24310089126182
 30
0.000000000000000
 11
159.7254945031224
 21
51.24310089122504
 31
0.000000000000000
  0
ARC
  5
1AA
100
AcDbEntity
  8
A1
  6
CONTINUOUS
 62
7
100
AcDbCircle
 10
159.7254945031162
 20
53.24310089141002
 30
0.000000000000000
 40
2.000000000000000
100
AcDbArc
 50
180.0000000000000
 51
247.9756871629525
  0
ARC
  5
1AB
100
AcDbEntity
  8
A3
  6
DASHED
 62
2
100
AcDbCircle
 10
159.7254945031162
 20
53.24310089141002
 30
0.000000000000000
 40
2.000000000000000
100
AcDbArc
 50
247.9756871629525
 51
270.0000000000000
  0
ARC
  5
1AC
100
AcDbEntity
  8
A3
  6
DASHED
 62
2
100
AcDbCircle
 10
171.7254945031162
 20
53.24310089141002
 30
0.000000000000000
 40
2.000000000000000
100
AcDbArc
 50
270.0000000000000
 51
292.0243128370334
  0
ARC
  5
1AD
100
AcDbEntity
  8
A1
  6
CONTINUOUS
 62
7
100
AcDbCircle
 10
171.7254945031162
 20
53.24310089141002
 30
0.000000000000000
 40
2.000000000000000
100
AcDbArc
 50
292.0243128370334
 51
360.0000000000000
  0
LINE
  5
1AE
100
AcDbEntity
  8
A4
  6
CENTER
 62
1
100
AcDbLine
 10
172.2254945031201
 20
71.24310089140894
 30
0.000000000000000
 11
178.9754945031161
 21
71.24310089140894
 31
0.000000000000000
  0
LINE
  5
1AF
100
AcDbEntity
  8
A4
  6
CENTER
 62
1
100
AcDbLine
 10
168.8254945031224
 20
71.24550894841005
 30
0.000000000000000
 11
162.6254945031224
 21
71.24550894841005
 31
0.000000000000000
  0
LINE
  5
1B0
100
AcDbEntity
  8
A4
  6
CENTER
 62
1
100
AcDbLine
 10
165.7254945031224
 20
74.34550894841007
 30
0.000000000000000
 11
165.7254945031224
 21
68.14550894841003
 31
0.000000000000000
  0
LINE
  5
1B1
100
AcDbEntity
  8
A4
  6
CENTER
 62
1
100
AcDbLine
 10
168.8254945031224
 20
57.24310089141002
 30
0.000000000000000
 11
162.6254945031224
 21
57.24310089141002
 31
0.000000000000000
  0
LINE
  5
1B2
100
AcDbEntity
  8
A4
  6
CENTER
 62
1
100
AcDbLine
 10
165.7254945031224
 20
60.34310089141005
 30
0.000000000000000
 11
165.7254945031224
 21
54.14310089141000
 31
0.000000000000000
  0
LINE
  5
1B3
100
AcDbEntity
  8
A1
  6
CONTINUOUS
 62
7
100
AcDbLine
 10
177.4754945031162
 20
100.2431008914100
 30
0.000000000000000
 11
177.4754945031162
 21
96.30971047740999
 31
0.000000000000000
  0
LINE
  5
1B4
100
AcDbEntity
  8
A1
  6
CONTINUOUS
 62
7
100
AcDbLine
 10
178.9754945031162
 20
96.55971047740999
 30
0.000000000000000
 11
178.9754945031162
 21
100.9431008914100
 31
0.000000000000000
  0
LINE
  5
1B5
100
AcDbEntity
  8
A1
  6
CONTINUOUS
 62
7
100
AcDbLine
 10
180.4754945031162
 20
96.80971047740996
 30
0.000000000000000
 11
180.4754945031162
 21
100.9431008914100
 31
0.000000000000000
  0
LINE
  5
1B6
100
AcDbEntity
  8
A1
  6
CONTINUOUS
 62
7
100
AcDbLine
 10
180.4754945031162
 20
94.29304380841012
 30
0.000000000000000
 11
180.4754945031162
 21
95.59315797091023
 31
0.000000000000000
  0
LINE
  5
1B7
100
AcDbEntity
  8
A1
  6
CONTINUOUS
 62
7
100
AcDbLine
 10
178.9754945031162
 20
94.04304380841012
 30
0.000000000000000
 11
178.9754945031162
 21
95.34315797091023
 31
0.000000000000000
  0
LINE
  5
1B8
100
AcDbEntity
  8
A1
  6
CONTINUOUS
 62
7
100
AcDbLine
 10
177.4754945031162
 20
95.09315797091026
 30
0.000000000000000
 11
177.4754945031162
 21
93.79304380841015
 31
0.000000000000000
  0
LINE
  5
1B9
100
AcDbEntity
  8
A1
  6
CONTINUOUS
 62
7
100
AcDbLine
 10
177.4754945031162
 20
92.57649130191004
 30
0.000000000000000
 11
177.4754945031162
 21
91.27637713941007
 31
0.000000000000000
  0
LINE
  5
1BA
100
AcDbEntity
  8
A1
  6
CONTINUOUS
 62
7
100
AcDbLine
 10
178.9754945031162
 20
91.52637713941010
 30
0.000000000000000
 11
178.9754945031162
 21
92.82649130191001
 31
0.000000000000000
  0
LINE
  5
1BB
100
AcDbEntity
  8
A1
  6
CONTINUOUS
 62
7
100
AcDbLine
 10
180.4754945031162
 20
91.77637713941013
 30
0.000000000000000
 11
180.4754945031162
 21
93.07649130190998
 31
0.000000000000000
  0
LINE
  5
1BC
100
AcDbEntity
  8
A1
  6
CONTINUOUS
 62
7
100
AcDbLine
 10
180.4754945031162
 20
89.25971047041003
 30
0.000000000000000
 11
180.4754945031162
 21
90.55982463291005
 31
0.000000000000000
  0
LINE
  5
1BD
100
AcDbEntity
  8
A1
  6
CONTINUOUS
 62
7
100
AcDbLine
 10
178.9754945031162
 20
89.00971047041000
 30
0.000000000000000
 11
178.9754945031162
 21
90.30982463291005
 31
0.000000000000000
  0
LINE
  5
1BE
100
AcDbEntity
  8
A1
  6
CONTINUOUS
 62
7
100
AcDbLine
 10
177.4754945031162
 20
90.05982463291005
 30
0.000000000000000
 11
177.4754945031162
 21
88.75971047041003
 31
0.000000000000000
  0
LINE
  5
1BF
100
AcDbEntity
  8
A1
  6
CONTINUOUS
 62
7
100
AcDbLine
 10
177.4754945031162
 20
87.54315796391006
 30
0.000000000000000
 11
177.4754945031162
 21
86.24304380141010
 31
0.000000000000000
  0
LINE
  5
1C0
100
AcDbEntity
  8
A1
  6
CONTINUOUS
 62
7
100
AcDbLine
 10
178.9754945031162
 20
86.49304380141010
 30
0.000000000000000
 11
178.9754945031162
 21
87.79315796391006
 31
0.000000000000000
  0
LINE
  5
1C1
100
AcDbEntity
  8
A1
  6
CONTINUOUS
 62
7
100
AcDbLine
 10
180.4754945031162
 20
86.74304380141010
 30
0.000000000000000
 11
180.4754945031162
 21
88.04315796391006
 31
0.000000000000000
  0
LINE
  5
1C2
100
AcDbEntity
  8
A1
  6
CONTINUOUS
 62
7
100
AcDbLine
 10
180.4754945031162
 20
82.14310089140994
 30
0.000000000000000
 11
180.4754945031162
 21
83.00982462591008
 31
0.000000000000000
  0
LINE
  5
1C3
100
AcDbEntity
  8
A1
  6
CONTINUOUS
 62
7
100
AcDbLine
 10
180.4754945031162
 20
84.22637713241005
 30
0.000000000000000
 11
180.4754945031162
 21
85.52649129491007
 31
0.000000000000000
  0
LINE
  5
1C4
100
AcDbEntity
  8
A1
  6
CONTINUOUS
 62
7
100
AcDbLine
 10
178.9754945031162
 20
82.14310089140994
 30
0.000000000000000
 11
178.9754945031162
 21
82.75982462591006
 31
0.000000000000000
  0
LINE
  5
1C5
100
AcDbEntity
  8
A1
  6
CONTINUOUS
 62
7
100
AcDbLine
 10
178.9754945031162
 20
83.97637713241008
 30
0.000000000000000
 11
178.9754945031162
 21
85.27649129491010
 31
0.000000000000000
  0
LINE
  5
1C6
100
AcDbEntity
  8
A1
  6
CONTINUOUS
 62
7
100
AcDbLine
 10
177.4754945031162
 20
82.50982462591006
 30
0.000000000000000
 11
177.4754945031162
 21
82.14310089140994
 31
0.000000000000000
  0
LINE
  5
1C7
100
AcDbEntity
  8
A1
  6
CONTINUOUS
 62
7
100
AcDbLine
 10
177.4754945031162
 20
85.02649129491010
 30
0.000000000000000
 11
177.4754945031162
 21
83.72637713241005
 31
0.000000000000000
  0
LINE
  5
1C8
100
AcDbEntity
  8
A1
  6
CONTINUOUS
 62
7
100
AcDbLine
 10
153.9754945031162
 20
100.2431008914100
 30
0.000000000000000
 11
153.9754945031162
 21
96.99304381074330
 31
0.000000000000000
  0
LINE
  5
1C9
100
AcDbEntity
  8
A1
  6
CONTINUOUS
 62
7
100
AcDbLine
 10
152.4754945031162
 20
96.74304381074333
 30
0.000000000000000
 11
152.4754945031162
 21
100.9431008914100
 31
0.000000000000000
  0
LINE
  5
1CA
100
AcDbEntity
  8
A1
  6
CONTINUOUS
 62
7
100
AcDbLine
 10
150.9754945031162
 20
96.49304381074333
 30
0.000000000000000
 11
150.9754945031162
 21
100.9431008914100
 31
0.000000000000000
  0
LINE
  5
1CB
100
AcDbEntity
  8
A1
  6
CONTINUOUS
 62
7
100
AcDbLine
 10
150.9754945031162
 20
93.97637714174320
 30
0.000000000000000
 11
150.9754945031162
 21
95.27649130424354
 31
0.000000000000000
  0
LINE
  5
1CC
100
AcDbEntity
  8
A1
  6
CONTINUOUS
 62
7
100
AcDbLine
 10
152.4754945031162
 20
94.22637714174323
 30
0.000000000000000
 11
152.4754945031162
 21
95.52649130424356
 31
0.000000000000000
  0
LINE
  5
1CD
100
AcDbEntity
  8
A1
  6
CONTINUOUS
 62
7
100
AcDbLine
 10
153.9754945031162
 20
95.77649130424359
 30
0.000000000000000
 11
153.9754945031162
 21
94.47637714174320
 31
0.000000000000000
  0
LINE
  5
1CE
100
AcDbEntity
  8
A1
  6
CONTINUOUS
 62
7
100
AcDbLine
 10
153.9754945031162
 20
93.25982463524323
 30
0.000000000000000
 11
153.9754945031162
 21
91.95971047274335
 31
0.000000000000000
  0
LINE
  5
1CF
100
AcDbEntity
  8
A1
  6
CONTINUOUS
 62
7
100
AcDbLine
 10
152.4754945031162
 20
91.70971047274335
 30
0.000000000000000
 11
152.4754945031162
 21
93.00982463524326
 31
0.000000000000000
  0
LINE
  5
1D0
100
AcDbEntity
  8
A1
  6
CONTINUOUS
 62
7
100
AcDbLine
 10
150.9754945031162
 20
91.45971047274332
 30
0.000000000000000
 11
150.9754945031162
 21
92.75982463524326
 31
0.000000000000000
  0
LINE
  5
1D1
100
AcDbEntity
  8
A1
  6
CONTINUOUS
 62
7
100
AcDbLine
 10
152.4754945031162
 20
89.19304380374328
 30
0.000000000000000
 11
152.4754945031162
 21
90.49315796624350
 31
0.000000000000000
  0
LINE
  5
1D2
100
AcDbEntity
  8
A1
  6
CONTINUOUS
 62
7
100
AcDbLine
 10
153.9754945031162
 20
90.74315796624350
 30
0.000000000000000
 11
153.9754945031162
 21
89.44304380374325
 31
0.000000000000000
  0
LINE
  5
1D3
100
AcDbEntity
  8
A1
  6
CONTINUOUS
 62
7
100
AcDbLine
 10
150.9754945031162
 20
88.94304380374325
 30
0.000000000000000
 11
150.9754945031162
 21
90.24315796624350
 31
0.000000000000000
  0
LINE
  5
1D4
100
AcDbEntity
  8
A1
  6
CONTINUOUS
 62
7
100
AcDbLine
 10
150.9754945031162
 20
85.20149129541002
 30
0.000000000000000
 11
150.9754945031162
 21
85.20982462824335
 31
0.000000000000000
  0
LINE
  5
1D5
100
AcDbEntity
  8
A1
  6
CONTINUOUS
 62
7
100
AcDbLine
 10
150.9754945031162
 20
86.42637713474326
 30
0.000000000000000
 11
150.9754945031162
 21
87.72649129724348
 31
0.000000000000000
  0
LINE
  5
1D6
100
AcDbEntity
  8
A1
  6
CONTINUOUS
 62
7
100
AcDbLine
 10
152.4754945031162
 20
86.67637713474326
 30
0.000000000000000
 11
152.4754945031162
 21
87.97649129724348
 31
0.000000000000000
  0
LINE
  5
1D7
100
AcDbEntity
  8
A1
  6
CONTINUOUS
 62
7
100
AcDbLine
 10
153.9754945031162
 20
88.22649129724351
 30
0.000000000000000
 11
153.9754945031162
 21
86.92637713474326
 31
0.000000000000000
  0
LINE
  5
1D8
100
AcDbEntity
  8
A1
  6
CONTINUOUS
 62
7
100
AcDbLine
 10
153.9754945031162
 20
83.19315795924342
 30
0.000000000000000
 11
153.9754945031162
 21
83.18482462641006
 31
0.000000000000000
  0
LINE
  5
1D9
100
AcDbEntity
  8
A1
  6
CONTINUOUS
 62
7
100
AcDbLine
 10
153.9754945031162
 20
85.70982462824341
 30
0.000000000000000
 11
153.9754945031162
 21
84.40971046574325
 31
0.000000000000000
  0
LINE
  5
1DA
100
AcDbEntity
  8
A1
  6
CONTINUOUS
 62
7
100
AcDbLine
 10
152.4754945031162
 20
82.93482462640995
 30
0.000000000000000
 11
152.4754945031162
 21
82.94315795924339
 31
0.000000000000000
  0
LINE
  5
1DB
100
AcDbEntity
  8
A1
  6
CONTINUOUS
 62
7
100
AcDbLine
 10
152.4754945031162
 20
84.15971046574325
 30
0.000000000000000
 11
152.4754945031162
 21
85.45982462824341
 31
0.000000000000000
  0
LINE
  5
1DC
100
AcDbEntity
  8
A1
  6
CONTINUOUS
 62
7
100
AcDbLine
 10
150.9754945031162
 20
83.90971046574327
 30
0.000000000000000
 11
150.9754945031162
 21
85.20149129541002
 31
0.000000000000000
  0
LINE
  5
1DD
100
AcDbEntity
  8
A1
  6
CONTINUOUS
 62
7
100
AcDbLine
 10
150.9754945031162
 20
77.94310089141001
 30
0.000000000000000
 11
150.9754945031162
 21
80.94310089141013
 31
0.000000000000000
  0
LINE
  5
1DE
100
AcDbEntity
  8
A1
  6
CONTINUOUS
 62
7
100
AcDbLine
 10
150.9754945031162
 20
82.14310089140994
 30
0.000000000000000
 11
150.9754945031162
 21
82.69315795924339
 31
0.000000000000000
  0
LINE
  5
1DF
100
AcDbEntity
  8
A1
  6
CONTINUOUS
 62
7
100
AcDbLine
 10
152.4754945031162
 20
77.94310089141001
 30
0.000000000000000
 11
152.4754945031162
 21
80.94310089141013
 31
0.000000000000000
  0
LINE
  5
1E0
100
AcDbEntity
  8
A1
  6
CONTINUOUS
 62
7
100
AcDbLine
 10
152.4754945031162
 20
82.14310089140994
 30
0.000000000000000
 11
152.4754945031162
 21
82.93482462640995
 31
0.000000000000000
  0
LINE
  5
1E1
100
AcDbEntity
  8
A1
  6
CONTINUOUS
 62
7
100
AcDbLine
 10
153.9754945031162
 20
80.94310089141013
 30
0.000000000000000
 11
153.9754945031162
 21
79.14502467941006
 31
0.000000000000000
  0
LINE
  5
1E2
100
AcDbEntity
  8
A1
  6
CONTINUOUS
 62
7
100
AcDbLine
 10
153.9754945031162
 20
83.18482462641006
 30
0.000000000000000
 11
153.9754945031162
 21
82.14310089140994
 31
0.000000000000000
  0
LINE
  5
1E3
100
AcDbEntity
  8
A1
  6
CONTINUOUS
 62
7
100
AcDbLine
 10
157.7177649115175
 20
110.7455089484100
 30
0.000000000000000
 11
157.7254945031272
 21
110.7455089484100
 31
0.000000000000000
  0
LINE
  5
1E4
100
AcDbEntity
  8
A1
  6
CONTINUOUS
 62
7
100
AcDbLine
 10
173.7332240947088
 20
110.7455089484226
 30
0.000000000000000
 11
173.7254945030991
 21
110.7455089484225
 31
0.000000000000000
  0
LINE
  5
1E5
100
AcDbEntity
  8
A1
  6
CONTINUOUS
 62
7
100
AcDbLine
 10
176.4754945031162
 20
109.5455089484101
 30
0.000000000000000
 11
174.9754945031162
 21
109.5455089484101
 31
0.000000000000000
  0
LINE
  5
1E6
100
AcDbEntity
  8
A1
  6
CONTINUOUS
 62
7
100
AcDbLine
 10
156.4754945031162
 20
109.5455089484101
 30
0.000000000000000
 11
154.9754945031162
 21
109.5455089484101
 31
0.000000000000000
  0
LINE
  5
1E7
100
AcDbEntity
  8
A1
  6
CONTINUOUS
 62
7
100
AcDbLine
 10
72.66688741678776
 20
104.5868740854098
 30
0.000000000000000
 11
72.73390737808982
 21
102.5074417273876
 31
0.000000000000000
  0
LINE
  5
1E8
100
AcDbEntity
  8
A1
  6
CONTINUOUS
 62
7
100
AcDbLine
 10
66.48703082746331
 20
103.8849863984101
 30
0.000000000000000
 11
65.85980152546313
 21
104.6638210424101
 31
0.000000000000000
  0
ARC
  5
1E9
100
AcDbEntity
  8
A1
  6
CONTINUOUS
 62
7
100
AcDbCircle
 10
68.19630545746320
 20
106.5455089484101
 30
0.000000000000000
 40
3.000000000000000
100
AcDbArc
 50
38.84600000000001
 51
218.8459999999999
  0
CIRCLE
  5
1EA
100
AcDbEntity
  8
A1
  6
CONTINUOUS
 62
7
100
AcDbCircle
 10
68.64025679778793
 20
106.2455089484100
 30
0.000000000000000
 40
2.000000000000000
  0
ARC
  5
1EB
100
AcDbEntity
  8
A1
  6
CONTINUOUS
 62
7
100
AcDbCircle
 10
68.82353475946302
 20
105.7666743044101
 30
0.000000000000000
 40
3.000000000000000
100
AcDbArc
 50
11.65017120996437
 51
38.84600000000003
  0
LINE
  5
1EC
100
AcDbEntity
  8
A1
  6
CONTINUOUS
 62
7
100
AcDbLine
 10
71.16003869146321
 20
107.6483622104100
 30
0.000000000000000
 11
70.53280938946313
 21
108.4271968544101
 31
0.000000000000000
  0
LINE
  5
1ED
100
AcDbEntity
  8
A1
  6
CONTINUOUS
 62
7
100
AcDbLine
 10
72.73390737878783
 20
102.5074417274101
 30
0.000000000000000
 11
67.73650227778789
 21
102.3463757064100
 31
0.000000000000000
  0
ARC
  5
1EE
100
AcDbEntity
  8
A1
  6
CONTINUOUS
 62
7
100
AcDbCircle
 10
68.82353475946302
 20
105.7666743044101
 30
0.000000000000000
 40
3.000000000000000
100
AcDbArc
 50
218.8459999999999
 51
248.3376713929045
  0
LINE
  5
1EF
100
AcDbEntity
  8
A1
  6
CONTINUOUS
 62
7
100
AcDbLine
 10
72.66688741678776
 20
104.5868740854098
 30
0.000000000000000
 11
71.76173115833224
 21
106.3724811396899
 31
0.000000000000000
  0
LINE
  5
1F0
100
AcDbEntity
  8
A4
  6
CENTER
 62
1
100
AcDbLine
 10
72.14025679778793
 20
106.2455089484100
 30
0.000000000000000
 11
65.14025679778793
 21
106.2455089484100
 31
0.000000000000000
  0
LINE
  5
1F1
100
AcDbEntity
  8
A4
  6
CENTER
 62
1
100
AcDbLine
 10
68.64025679778793
 20
109.7455089484100
 30
0.000000000000000
 11
68.64025679778793
 21
102.7455089484100
 31
0.000000000000000
  0
LINE
  5
1F2
100
AcDbEntity
  8
A1
  6
CONTINUOUS
 62
7
100
AcDbLine
 10
79.99172866036410
 20
48.24310089140999
 30
0.000000000000000
 11
80.84025679778796
 21
49.09162902883384
 31
0.000000000000000
  0
ARC
  5
1F3
100
AcDbEntity
  8
A1
  6
CONTINUOUS
 62
7
100
AcDbCircle
 10
102.8936652774284
 20
60.86648250690840
 30
0.000000000000000
 40
25.00000000000000
100
AcDbArc
 50
183.4985536512007
 51
208.0988476240484
  0
ARC
  5
1F4
100
AcDbEntity
  8
A1
  6
CONTINUOUS
 62
7
100
AcDbCircle
 10
102.8936652774284
 20
60.86648250690840
 30
0.000000000000000
 40
26.15049644313723
100
AcDbArc
 50
184.6574600347015
 51
208.8632356604476
  0
LINE
  5
1F5
100
AcDbEntity
  8
A5
  6
PHANTOM
 62
6
100
AcDbLine
 10
70.44025679778780
 20
58.74310089140997
 30
0.000000000000000
 11
70.44025679778780
 21
58.14310089140997
 31
0.000000000000000
  0
LINE
  5
1F6
100
AcDbEntity
  8
A4
  6
CENTER
 62
1
100
AcDbLine
 10
75.49025679778798
 20
63.44310089141007
 30
0.000000000000000
 11
70.74025679778798
 21
63.44310089141007
 31
0.000000000000000
  0
LINE
  5
1F7
100
AcDbEntity
  8
A4
  6
CENTER
 62
1
100
AcDbLine
 10
72.24025679778798
 20
64.94310089141007
 30
0.000000000000000
 11
72.24025679778798
 21
60.19310089141007
 31
0.000000000000000
  0
CIRCLE
  5
1F8
100
AcDbEntity
  8
A3
  6
DASHED
 62
2
100
AcDbCircle
 10
165.7254945031161
 20
71.24550894841005
 30
0.000000000000000
 40
1.700000000000000
  0
CIRCLE
  5
1F9
100
AcDbEntity
  8
A3
  6
DASHED
 62
2
100
AcDbCircle
 10
165.7254945031161
 20
57.24310089141002
 30
0.000000000000000
 40
1.700000000000000
  0
LINE
  5
1FA
100
AcDbEntity
  8
A5
  6
PHANTOM
 62
6
100
AcDbLine
 10
70.44025679778781
 20
58.14310089140998
 30
0.000000000000000
 11
75.44025679778792
 21
58.14310089140998
 31
0.000000000000000
  0
ENDSEC
  0
SECTION
  2
OBJECTS
  0
DICTIONARY
  5
229
100
AcDbDictionary
  3
ACAD_GROUP
350
22A
  3
ACAD_MLINESTYLE
350
22B
  0
DICTIONARY
  5
22A
102
{ACAD_REACTORS
330
229
102
}
100
AcDbDictionary
  0
DICTIONARY
  5
22B
102
{ACAD_REACTORS
330
229
102
}
100
AcDbDictionary
  3
STANDARD
350
22C
  0
MLINESTYLE
  5
22C
102
{ACAD_REACTORS
330
22B
102
}
100
AcDbMlineStyle
  2
STANDARD
 70
     0
  3

 62
   256
 51
90.00
 52
90.00
 71
     2
 49
0.50
 62
   256
  6
BYLAYER
 49
-0.50
 62
   256
  6
BYLAYER
  0
ENDSEC
  0
EOF
