  0
SECTION
  2
HEADER
  9
$ACADVER
  1
AC1015
  9
$ACADMAINTVER
 70
    20
  9
$DWGCODEPAGE
  3
ANSI_932
  9
$INSBASE
 10
0.0
 20
0.0
 30
0.0
  9
$EXTMIN
 10
10.0
 20
9.999999999999998
 30
0.0
  9
$EXTMAX
 10
281.010558
 20
194.198945
 30
0.0
  9
$LIMMIN
 10
0.0
 20
0.0
  9
$LIMMAX
 10
396.0
 20
273.0
  9
$ORTHOMODE
 70
     1
  9
$REGENMODE
 70
     1
  9
$FILLMODE
 70
     1
  9
$QTEXTMODE
 70
     0
  9
$MIRRTEXT
 70
     1
  9
$LTSCALE
 40
20.0
  9
$ATTMODE
 70
     1
  9
$TEXTSIZE
 40
5.0
  9
$TRACEWID
 40
1.0
  9
$TEXTSTYLE
  7
STANDARD
  9
$CLAYER
  8
0
  9
$CELTYPE
  6
BYLAYER
  9
$CECOLOR
 62
   256
  9
$CELTSCALE
 40
1.0
  9
$DISPSILH
 70
     0
  9
$DIMSCALE
 40
1.0
  9
$DIMASZ
 40
3.0
  9
$DIMEXO
 40
1.0
  9
$DIMDLI
 40
10.0
  9
$DIMRND
 40
0.0
  9
$DIMDLE
 40
0.0
  9
$DIMEXE
 40
1.0
  9
$DIMTP
 40
0.0
  9
$DIMTM
 40
0.0
  9
$DIMTXT
 40
3.2
  9
$DIMCEN
 40
0.0
  9
$DIMTSZ
 40
0.0
  9
$DIMTOL
 70
     0
  9
$DIMLIM
 70
     0
  9
$DIMTIH
 70
     0
  9
$DIMTOH
 70
     0
  9
$DIMSE1
 70
     0
  9
$DIMSE2
 70
     0
  9
$DIMTAD
 70
     3
  9
$DIMZIN
 70
     8
  9
$DIMBLK
  1

  9
$DIMASO
 70
     1
  9
$DIMSHO
 70
     1
  9
$DIMPOST
  1

  9
$DIMAPOST
  1

  9
$DIMALT
 70
     0
  9
$DIMALTD
 70
     2
  9
$DIMALTF
 40
25.4
  9
$DIMLFAC
 40
1.0
  9
$DIMTOFL
 70
     1
  9
$DIMTVP
 40
0.0
  9
$DIMTIX
 70
     0
  9
$DIMSOXD
 70
     0
  9
$DIMSAH
 70
     1
  9
$DIMBLK1
  1

  9
$DIMBLK2
  1

  9
$DIMSTYLE
  2
STANDARD
  9
$DIMCLRD
 70
     0
  9
$DIMCLRE
 70
     0
  9
$DIMCLRT
 70
     0
  9
$DIMTFAC
 40
1.0
  9
$DIMGAP
 40
1.0
  9
$DIMJUST
 70
     0
  9
$DIMSD1
 70
     0
  9
$DIMSD2
 70
     0
  9
$DIMTOLJ
 70
     1
  9
$DIMTZIN
 70
     0
  9
$DIMALTZ
 70
     0
  9
$DIMALTTZ
 70
     0
  9
$DIMUPT
 70
     0
  9
$DIMDEC
 70
     4
  9
$DIMTDEC
 70
     4
  9
$DIMALTU
 70
     2
  9
$DIMALTTD
 70
     2
  9
$DIMTXSTY
  7
STANDARD
  9
$DIMAUNIT
 70
     0
  9
$DIMADEC
 70
     0
  9
$DIMALTRND
 40
0.0
  9
$DIMAZIN
 70
     0
  9
$DIMDSEP
 70
    46
  9
$DIMATFIT
 70
     3
  9
$DIMFRAC
 70
     0
  9
$DIMLDRBLK
  1

  9
$DIMLUNIT
 70
     2
  9
$DIMLWD
 70
    -2
  9
$DIMLWE
 70
    -2
  9
$DIMTMOVE
 70
     0
  9
$LUNITS
 70
     2
  9
$LUPREC
 70
     4
  9
$SKETCHINC
 40
1.0
  9
$FILLETRAD
 40
2.5
  9
$AUNITS
 70
     0
  9
$AUPREC
 70
     2
  9
$MENU
  1
.
  9
$ELEVATION
 40
0.0
  9
$PELEVATION
 40
0.0
  9
$THICKNESS
 40
0.0
  9
$LIMCHECK
 70
     0
  9
$CHAMFERA
 40
10.0
  9
$CHAMFERB
 40
10.0
  9
$CHAMFERC
 40
0.0
  9
$CHAMFERD
 40
0.0
  9
$SKPOLY
 70
     0
  9
$TDCREATE
 40
2450932.560484144
  9
$TDUCREATE
 40
2450932.185484143
  9
$TDUPDATE
 40
2457192.600693727
  9
$TDUUPDATE
 40
2457192.225693727
  9
$TDINDWG
 40
0.0000150926
  9
$TDUSRTIMER
 40
0.0000147801
  9
$USRTIMER
 70
     1
  9
$ANGBASE
 50
0.0
  9
$ANGDIR
 70
     0
  9
$PDMODE
 70
     0
  9
$PDSIZE
 40
0.0
  9
$PLINEWID
 40
0.0
  9
$SPLFRAME
 70
     0
  9
$SPLINETYPE
 70
     6
  9
$SPLINESEGS
 70
     8
  9
$HANDSEED
  5
9B08
  9
$SURFTAB1
 70
     6
  9
$SURFTAB2
 70
     6
  9
$SURFTYPE
 70
     6
  9
$SURFU
 70
     6
  9
$SURFV
 70
     6
  9
$UCSBASE
  2

  9
$UCSNAME
  2

  9
$UCSORG
 10
0.0
 20
0.0
 30
0.0
  9
$UCSXDIR
 10
1.0
 20
0.0
 30
0.0
  9
$UCSYDIR
 10
0.0
 20
1.0
 30
0.0
  9
$UCSORTHOREF
  2

  9
$UCSORTHOVIEW
 70
     0
  9
$UCSORGTOP
 10
0.0
 20
0.0
 30
0.0
  9
$UCSORGBOTTOM
 10
0.0
 20
0.0
 30
0.0
  9
$UCSORGLEFT
 10
0.0
 20
0.0
 30
0.0
  9
$UCSORGRIGHT
 10
0.0
 20
0.0
 30
0.0
  9
$UCSORGFRONT
 10
0.0
 20
0.0
 30
0.0
  9
$UCSORGBACK
 10
0.0
 20
0.0
 30
0.0
  9
$PUCSBASE
  2

  9
$PUCSNAME
  2

  9
$PUCSORG
 10
0.0
 20
0.0
 30
0.0
  9
$PUCSXDIR
 10
1.0
 20
0.0
 30
0.0
  9
$PUCSYDIR
 10
0.0
 20
1.0
 30
0.0
  9
$PUCSORTHOREF
  2

  9
$PUCSORTHOVIEW
 70
     0
  9
$PUCSORGTOP
 10
0.0
 20
0.0
 30
0.0
  9
$PUCSORGBOTTOM
 10
0.0
 20
0.0
 30
0.0
  9
$PUCSORGLEFT
 10
0.0
 20
0.0
 30
0.0
  9
$PUCSORGRIGHT
 10
0.0
 20
0.0
 30
0.0
  9
$PUCSORGFRONT
 10
0.0
 20
0.0
 30
0.0
  9
$PUCSORGBACK
 10
0.0
 20
0.0
 30
0.0
  9
$USERI1
 70
     0
  9
$USERI2
 70
     0
  9
$USERI3
 70
     0
  9
$USERI4
 70
     0
  9
$USERI5
 70
     0
  9
$USERR1
 40
0.0
  9
$USERR2
 40
0.0
  9
$USERR3
 40
0.0
  9
$USERR4
 40
0.0
  9
$USERR5
 40
0.0
  9
$WORLDVIEW
 70
     1
  9
$SHADEDGE
 70
     3
  9
$SHADEDIF
 70
    70
  9
$TILEMODE
 70
     1
  9
$MAXACTVP
 70
    16
  9
$PINSBASE
 10
0.0
 20
0.0
 30
0.0
  9
$PLIMCHECK
 70
     0
  9
$PEXTMIN
 10
1.000000000000000E+20
 20
1.000000000000000E+20
 30
1.000000000000000E+20
  9
$PEXTMAX
 10
-1.000000000000000E+20
 20
-1.000000000000000E+20
 30
-1.000000000000000E+20
  9
$PLIMMIN
 10
0.0
 20
0.0
  9
$PLIMMAX
 10
420.0
 20
297.0
  9
$UNITMODE
 70
     0
  9
$VISRETAIN
 70
     0
  9
$PLINEGEN
 70
     0
  9
$PSLTSCALE
 70
     0
  9
$TREEDEPTH
 70
  3020
  9
$CMLSTYLE
  2
STANDARD
  9
$CMLJUST
 70
     0
  9
$CMLSCALE
 40
1.0
  9
$PROXYGRAPHICS
 70
     1
  9
$MEASUREMENT
 70
     0
  9
$CELWEIGHT
370
    -1
  9
$ENDCAPS
280
     0
  9
$JOINSTYLE
280
     0
  9
$LWDISPLAY
290
     0
  9
$INSUNITS
 70
     0
  9
$HYPERLINKBASE
  1

  9
$STYLESHEET
  1

  9
$XEDIT
290
     1
  9
$CEPSNTYPE
380
     0
  9
$PSTYLEMODE
290
     1
  9
$FINGERPRINTGUID
  2
{6BC258C1-6B54-432E-96EA-C52A87DC282D}
  9
$VERSIONGUID
  2
{D4F448A2-5C6C-4403-9F07-F6CD134DDE86}
  9
$EXTNAMES
290
     1
  9
$PSVPSCALE
 40
0.0
  9
$OLESTARTUP
290
     0
  0
ENDSEC
  0
SECTION
  2
CLASSES
  0
CLASS
  1
ACDBDICTIONARYWDFLT
  2
AcDbDictionaryWithDefault
  3
ObjectDBX Classes
 90
        0
280
     0
281
     0
  0
CLASS
  1
ACDBPLACEHOLDER
  2
AcDbPlaceHolder
  3
ObjectDBX Classes
 90
        0
280
     0
281
     0
  0
CLASS
  1
LAYOUT
  2
AcDbLayout
  3
ObjectDBX Classes
 90
        0
280
     0
281
     0
  0
CLASS
  1
DICTIONARYVAR
  2
AcDbDictionaryVar
  3
ObjectDBX Classes
 90
        0
280
     0
281
     0
  0
CLASS
  1
MATERIAL
  2
AcDbMaterial
  3
ObjectDBX Classes
 90
     1153
280
     0
281
     0
  0
CLASS
  1
VISUALSTYLE
  2
AcDbVisualStyle
  3
ObjectDBX Classes
 90
     4095
280
     0
281
     0
  0
CLASS
  1
TABLESTYLE
  2
AcDbTableStyle
  3
ObjectDBX Classes
 90
     4095
280
     0
281
     0
  0
CLASS
  1
SCALE
  2
AcDbScale
  3
ObjectDBX Classes
 90
     1153
280
     0
281
     0
  0
CLASS
  1
MLEADERSTYLE
  2
AcDbMLeaderStyle
  3
ACDB_MLEADERSTYLE_CLASS
 90
     4095
280
     0
281
     0
  0
CLASS
  1
ACDBSECTIONVIEWSTYLE
  2
AcDbSectionViewStyle
  3
ObjectDBX Classes
 90
     1025
280
     0
281
     0
  0
CLASS
  1
ACDBDETAILVIEWSTYLE
  2
AcDbDetailViewStyle
  3
ObjectDBX Classes
 90
     1025
280
     0
281
     0
  0
CLASS
  1
CELLSTYLEMAP
  2
AcDbCellStyleMap
  3
ObjectDBX Classes
 90
     1152
280
     0
281
     0
  0
ENDSEC
  0
SECTION
  2
TABLES
  0
TABLE
  2
VPORT
  5
97DA
330
0
100
AcDbSymbolTable
 70
     1
  0
VPORT
  5
9A51
330
97DA
100
AcDbSymbolTableRecord
100
AcDbViewportTableRecord
  2
*ACTIVE
 70
     0
 10
0.0
 20
0.0
 11
1.0
 21
1.0
 12
201.3046361011049
 22
102.1021505589621
 13
0.0
 23
0.0
 14
10.0
 24
10.0
 15
10.0
 25
10.0
 16
0.0
 26
0.0
 36
1.0
 17
0.0
 27
0.0
 37
0.0
 40
186.28630403429
 41
1.899603698811096
 42
50.0
 43
0.0
 44
0.0
 50
0.0
 51
0.0
 71
     0
 72
   100
 73
     1
 74
     0
 75
     0
 76
     0
 77
     0
 78
     0
281
     0
 65
     1
110
0.0
120
0.0
130
0.0
111
1.0
121
0.0
131
0.0
112
0.0
122
1.0
132
0.0
 79
     0
146
0.0
1001
ACAD_NAV_VCDISPLAY
1070
     3
  0
ENDTAB
  0
TABLE
  2
LTYPE
  5
97D7
330
0
100
AcDbSymbolTable
 70
     4
  0
LTYPE
  5
97E5
330
97D7
100
AcDbSymbolTableRecord
100
AcDbLinetypeTableRecord
  2
BYBLOCK
 70
     0
  3

 72
    65
 73
     0
 40
0.0
  0
LTYPE
  5
97E6
330
97D7
100
AcDbSymbolTableRecord
100
AcDbLinetypeTableRecord
  2
BYLAYER
 70
     0
  3

 72
    65
 73
     0
 40
0.0
  0
LTYPE
  5
97E7
330
97D7
100
AcDbSymbolTableRecord
100
AcDbLinetypeTableRecord
  2
CONTINUOUS
 70
     0
  3
Solid line
 72
    65
 73
     0
 40
0.0
  0
LTYPE
  5
97F5
330
97D7
100
AcDbSymbolTableRecord
100
AcDbLinetypeTableRecord
  2
DASHED
 70
     0
  3
__ __ __ __ __ __ __ __ __ __ __ __ __ __ __ __
 72
    65
 73
     2
 40
0.75
 49
0.5
 74
     0
 49
-0.25
 74
     0
  0
LTYPE
  5
97F6
330
97D7
100
AcDbSymbolTableRecord
100
AcDbLinetypeTableRecord
  2
CENTER
 70
     0
  3
____ _ ____ _ ____ _ ____ _ ____ _ ____ _ ____ 
 72
    65
 73
     4
 40
2.0
 49
1.25
 74
     0
 49
-0.25
 74
     0
 49
0.25
 74
     0
 49
-0.25
 74
     0
  0
LTYPE
  5
97F7
330
97D7
100
AcDbSymbolTableRecord
100
AcDbLinetypeTableRecord
  2
PHANTOM
 70
     0
  3
______  __  __  ______  __  __  ______  __  __ 
 72
    65
 73
     6
 40
2.5
 49
1.25
 74
     0
 49
-0.25
 74
     0
 49
0.25
 74
     0
 49
-0.25
 74
     0
 49
0.25
 74
     0
 49
-0.25
 74
     0
  0
ENDTAB
  0
TABLE
  2
LAYER
  5
97D4
330
0
100
AcDbSymbolTable
 70
     8
  0
LAYER
  5
97E2
102
{ACAD_XDICTIONARY
360
9AAC
102
}
330
97D4
100
AcDbSymbolTableRecord
100
AcDbLayerTableRecord
  2
0
 70
     0
 62
     7
  6
CONTINUOUS
370
    -3
390
9A5A
  0
LAYER
  5
97F8
102
{ACAD_XDICTIONARY
360
9AAE
102
}
330
97D4
100
AcDbSymbolTableRecord
100
AcDbLayerTableRecord
  2
4
 70
     0
 62
     1
  6
CENTER
370
    -3
390
9A5A
  0
LAYER
  5
97F9
102
{ACAD_XDICTIONARY
360
9AB0
102
}
330
97D4
100
AcDbSymbolTableRecord
100
AcDbLayerTableRecord
  2
5
 70
     0
 62
     6
  6
PHANTOM
370
    -3
390
9A5A
  0
LAYER
  5
97FA
102
{ACAD_XDICTIONARY
360
9AB2
102
}
330
97D4
100
AcDbSymbolTableRecord
100
AcDbLayerTableRecord
  2
1
 70
     0
 62
     7
  6
CONTINUOUS
370
    -3
390
9A5A
  0
LAYER
  5
97FB
102
{ACAD_XDICTIONARY
360
9AB4
102
}
330
97D4
100
AcDbSymbolTableRecord
100
AcDbLayerTableRecord
  2
2
 70
     0
 62
     4
  6
CONTINUOUS
370
    -3
390
9A5A
  0
LAYER
  5
97FC
102
{ACAD_XDICTIONARY
360
9AB6
102
}
330
97D4
100
AcDbSymbolTableRecord
100
AcDbLayerTableRecord
  2
3
 70
     0
 62
     2
  6
DASHED
370
    -3
390
9A5A
  0
LAYER
  5
97FD
102
{ACAD_XDICTIONARY
360
9AB8
102
}
330
97D4
100
AcDbSymbolTableRecord
100
AcDbLayerTableRecord
  2
6
 70
     0
 62
     5
  6
CONTINUOUS
370
    -3
390
9A5A
  0
LAYER
  5
97FE
102
{ACAD_XDICTIONARY
360
9ABA
102
}
330
97D4
100
AcDbSymbolTableRecord
100
AcDbLayerTableRecord
  2
7
 70
     0
 62
     3
  6
CONTINUOUS
370
    -3
390
9A5A
  0
ENDTAB
  0
TABLE
  2
STYLE
  5
97D5
330
0
100
AcDbSymbolTable
 70
     1
  0
STYLE
  5
97E3
330
97D5
100
AcDbSymbolTableRecord
100
AcDbTextStyleTableRecord
  2
STANDARD
 70
     0
 40
0.0
 41
1.0
 50
0.0
 71
     0
 42
5.0
  3
txt
  4

  0
ENDTAB
  0
TABLE
  2
VIEW
  5
97D8
330
0
100
AcDbSymbolTable
 70
     0
  0
ENDTAB
  0
TABLE
  2
UCS
  5
97D9
330
0
100
AcDbSymbolTable
 70
     0
  0
ENDTAB
  0
TABLE
  2
APPID
  5
97DB
330
0
100
AcDbSymbolTable
 70
     3
  0
APPID
  5
97E4
330
97DB
100
AcDbSymbolTableRecord
100
AcDbRegAppTableRecord
  2
ACAD
 70
     0
  0
APPID
  5
9AC6
330
97DB
100
AcDbSymbolTableRecord
100
AcDbRegAppTableRecord
  2
ACAD_NAV_VCDISPLAY
 70
     0
  0
APPID
  5
9AFF
330
97DB
100
AcDbSymbolTableRecord
100
AcDbRegAppTableRecord
  2
ACAD_MLEADERVER
 70
     0
  0
ENDTAB
  0
TABLE
  2
DIMSTYLE
  5
97DC
330
0
100
AcDbSymbolTable
 70
     1
100
AcDbDimStyleTable
 71
     0
  0
DIMSTYLE
105
9800
330
97DC
100
AcDbSymbolTableRecord
100
AcDbDimStyleTableRecord
  2
STANDARD
 70
     0
 41
3.0
 42
1.0
 43
10.0
 44
1.0
 73
     0
 74
     0
 77
     3
 78
     8
140
3.2
141
0.0
147
1.0
172
     1
173
     1
284
     8
285
     8
286
     8
340
97E3
  0
ENDTAB
  0
TABLE
  2
BLOCK_RECORD
  5
97D3
330
0
100
AcDbSymbolTable
 70
     0
  0
BLOCK_RECORD
  5
97F0
102
{ACAD_XDICTIONARY
360
9A54
102
}
330
97D3
100
AcDbSymbolTableRecord
100
AcDbBlockTableRecord
  2
*MODEL_SPACE
340
9AA8
  0
BLOCK_RECORD
  5
97EC
102
{ACAD_XDICTIONARY
360
9A52
102
}
330
97D3
100
AcDbSymbolTableRecord
100
AcDbBlockTableRecord
  2
*PAPER_SPACE
340
9AA9
  0
ENDTAB
  0
ENDSEC
  0
SECTION
  2
BLOCKS
  0
BLOCK
  5
97F1
330
97F0
100
AcDbEntity
  8
0
100
AcDbBlockBegin
  2
*MODEL_SPACE
 70
     0
 10
0.0
 20
0.0
 30
0.0
  3
*MODEL_SPACE
  1

  0
ENDBLK
  5
97F2
330
97F0
100
AcDbEntity
  8
0
100
AcDbBlockEnd
  0
BLOCK
  5
97ED
330
97EC
100
AcDbEntity
 67
     1
  8
0
100
AcDbBlockBegin
  2
*PAPER_SPACE
 70
     0
 10
0.0
 20
0.0
 30
0.0
  3
*PAPER_SPACE
  1

  0
ENDBLK
  5
97EE
330
97EC
100
AcDbEntity
 67
     1
  8
0
100
AcDbBlockEnd
  0
ENDSEC
  0
SECTION
  2
ENTITIES
  0
TEXT
  5
9808
330
97F0
100
AcDbEntity
  8
7
  6
Continuous
100
AcDbText
 10
10.0
 20
18.0
 30
0.0
 40
3.0
  1
TYPE No.TL-247
100
AcDbText
  0
TEXT
  5
9809
330
97F0
100
AcDbEntity
  8
7
  6
Continuous
100
AcDbText
 10
10.0
 20
26.0
 30
0.0
 40
3.0
  1
CODE No.1715
100
AcDbText
  0
TEXT
  5
980A
330
97F0
100
AcDbEntity
  8
1
  6
Continuous
100
AcDbText
 10
10.0
 20
10.0
 30
0.0
 40
1.399999999999999
  1
LAYER
100
AcDbText
  0
TEXT
  5
980B
330
97F0
100
AcDbEntity
  8
1
  6
Continuous
100
AcDbText
 10
17.97951099999998
 20
10.04873699999998
 30
0.0
 40
1.399999999999999
  1
1
100
AcDbText
  0
TEXT
  5
980C
330
97F0
100
AcDbEntity
  8
7
  6
Continuous
100
AcDbText
 10
29.97951099999999
 20
10.04873699999998
 30
0.0
 40
1.399999999999999
  1
7
100
AcDbText
  0
TEXT
  5
980D
330
97F0
100
AcDbEntity
  8
4
  6
CENTER
100
AcDbText
 10
23.97951099999999
 20
10.04873699999998
 30
0.0
 40
1.399999999999999
  1
4
100
AcDbText
  0
TEXT
  5
980E
330
97F0
100
AcDbEntity
  8
3
  6
DASHED
100
AcDbText
 10
21.979511
 20
10.04873699999998
 30
0.0
 40
1.399999999999999
  1
3
100
AcDbText
  0
TEXT
  5
980F
330
97F0
100
AcDbEntity
  8
2
  6
Continuous
100
AcDbText
 10
19.97951099999999
 20
10.04873699999998
 30
0.0
 40
1.399999999999999
  1
2
100
AcDbText
  0
TEXT
  5
9810
330
97F0
100
AcDbEntity
  8
6
  6
Continuous
100
AcDbText
 10
27.979511
 20
10.04873699999998
 30
0.0
 40
1.399999999999999
  1
6
100
AcDbText
  0
TEXT
  5
9811
330
97F0
100
AcDbEntity
  8
5
  6
PHANTOM
100
AcDbText
 10
25.97951099999999
 20
10.04873699999998
 30
0.0
 40
1.399999999999999
  1
5
100
AcDbText
  0
LINE
  5
9812
330
97F0
100
AcDbEntity
  8
4
  6
CENTER
100
AcDbLine
 10
30.226358
 20
127.148945
 30
0.0
 11
30.226358
 21
98.43294499999997
 31
0.0
  0
LINE
  5
9813
330
97F0
100
AcDbEntity
  8
4
  6
CENTER
100
AcDbLine
 10
44.336158
 20
113.198945
 30
0.0
 11
15.971158
 21
113.198945
 31
0.0
  0
LINE
  5
9814
330
97F0
100
AcDbEntity
  8
1
  6
Continuous
100
AcDbLine
 10
29.226358
 20
115.048945
 30
0.0
 11
31.226358
 21
115.048945
 31
0.0
  0
LINE
  5
9815
330
97F0
100
AcDbEntity
  8
1
  6
Continuous
100
AcDbLine
 10
28.976358
 20
118.0399449999999
 30
0.0
 11
28.976358
 21
109.0759449999999
 31
0.0
  0
LINE
  5
9816
330
97F0
100
AcDbEntity
  8
1
  6
Continuous
100
AcDbLine
 10
31.476358
 20
118.0399449999999
 30
0.0
 11
31.476358
 21
109.0759449999999
 31
0.0
  0
LINE
  5
9817
330
97F0
100
AcDbEntity
  8
1
  6
Continuous
100
AcDbLine
 10
31.226358
 20
109.3259449999999
 30
0.0
 11
32.479958
 21
108.0719449999999
 31
0.0
  0
LINE
  5
9818
330
97F0
100
AcDbEntity
  8
1
  6
Continuous
100
AcDbLine
 10
29.226358
 20
109.3259449999999
 30
0.0
 11
27.97275799999999
 21
108.0719449999999
 31
0.0
  0
LINE
  5
9819
330
97F0
100
AcDbEntity
  8
1
  6
Continuous
100
AcDbLine
 10
29.226358
 20
115.048945
 30
0.0
 11
29.226358
 21
109.3259449999999
 31
0.0
  0
LINE
  5
981A
330
97F0
100
AcDbEntity
  8
1
  6
Continuous
100
AcDbLine
 10
31.226358
 20
115.048945
 30
0.0
 11
31.226358
 21
109.3259449999999
 31
0.0
  0
LINE
  5
981B
330
97F0
100
AcDbEntity
  8
1
  6
Continuous
100
AcDbLine
 10
114.055558
 20
32.198745
 30
0.0
 11
114.055558
 21
54.19874499999998
 31
0.0
  0
LINE
  5
981C
330
97F0
100
AcDbEntity
  8
1
  6
Continuous
100
AcDbLine
 10
112.0555579999999
 20
53.198745
 30
0.0
 11
112.0555579999999
 21
33.198745
 31
0.0
  0
LINE
  5
981D
330
97F0
100
AcDbEntity
  8
1
  6
Continuous
100
AcDbLine
 10
115.055558
 20
52.68684499999999
 30
0.0
 11
115.055558
 21
48.474645
 31
0.0
  0
LINE
  5
981E
330
97F0
100
AcDbEntity
  8
4
  6
CENTER
100
AcDbLine
 10
108.598558
 20
43.198745
 30
0.0
 11
140.195558
 21
43.198745
 31
0.0
  0
LINE
  5
981F
330
97F0
100
AcDbEntity
  8
1
  6
Continuous
100
AcDbLine
 10
124.055558
 20
52.68684499999999
 30
0.0
 11
124.055558
 21
48.474645
 31
0.0
  0
LINE
  5
9820
330
97F0
100
AcDbEntity
  8
1
  6
Continuous
100
AcDbLine
 10
125.055558
 20
51.798745
 30
0.0
 11
125.055558
 21
47.499445
 31
0.0
  0
LINE
  5
9821
330
97F0
100
AcDbEntity
  8
1
  6
Continuous
100
AcDbLine
 10
126.354558
 20
51.798745
 30
0.0
 11
126.354558
 21
47.499445
 31
0.0
  0
LINE
  5
9822
330
97F0
100
AcDbEntity
  8
1
  6
Continuous
100
AcDbLine
 10
125.055558
 20
47.474645
 30
0.0
 11
124.055558
 21
48.474645
 31
0.0
  0
LINE
  5
9823
330
97F0
100
AcDbEntity
  8
1
  6
Continuous
100
AcDbLine
 10
126.354558
 20
47.499445
 30
0.0
 11
125.030558
 21
47.499445
 31
0.0
  0
LINE
  5
9824
330
97F0
100
AcDbEntity
  8
1
  6
Continuous
100
AcDbLine
 10
126.354558
 20
47.474645
 30
0.0
 11
127.155558
 21
47.012545
 31
0.0
  0
LINE
  5
9825
330
97F0
100
AcDbEntity
  8
2
  6
Continuous
100
AcDbLine
 10
126.354558
 20
47.499445
 30
0.0
 11
114.055558
 21
37.92274499999999
 31
0.0
  0
LINE
  5
9826
330
97F0
100
AcDbEntity
  8
1
  6
Continuous
100
AcDbLine
 10
125.055558
 20
51.798745
 30
0.0
 11
126.354558
 21
51.798745
 31
0.0
  0
LINE
  5
9827
330
97F0
100
AcDbEntity
  8
1
  6
Continuous
100
AcDbLine
 10
125.055558
 20
51.798745
 30
0.0
 11
124.0435579999999
 21
52.698745
 31
0.0
  0
LINE
  5
9828
330
97F0
100
AcDbEntity
  8
1
  6
Continuous
100
AcDbLine
 10
126.354558
 20
51.798745
 30
0.0
 11
127.155558
 21
51.208745
 31
0.0
  0
LINE
  5
9829
330
97F0
100
AcDbEntity
  8
1
  6
Continuous
100
AcDbLine
 10
115.055558
 20
33.710545
 30
0.0
 11
115.055558
 21
37.92274499999999
 31
0.0
  0
LINE
  5
982A
330
97F0
100
AcDbEntity
  8
1
  6
Continuous
100
AcDbLine
 10
124.055558
 20
33.710545
 30
0.0
 11
124.055558
 21
37.92274499999999
 31
0.0
  0
LINE
  5
982B
330
97F0
100
AcDbEntity
  8
1
  6
Continuous
100
AcDbLine
 10
125.055558
 20
34.598745
 30
0.0
 11
125.055558
 21
38.897945
 31
0.0
  0
LINE
  5
982C
330
97F0
100
AcDbEntity
  8
1
  6
Continuous
100
AcDbLine
 10
126.354558
 20
34.598745
 30
0.0
 11
126.354558
 21
38.897945
 31
0.0
  0
LINE
  5
982D
330
97F0
100
AcDbEntity
  8
1
  6
Continuous
100
AcDbLine
 10
125.055558
 20
38.922745
 30
0.0
 11
124.055558
 21
37.92274499999999
 31
0.0
  0
LINE
  5
982E
330
97F0
100
AcDbEntity
  8
1
  6
Continuous
100
AcDbLine
 10
126.354558
 20
38.897945
 30
0.0
 11
125.030558
 21
38.897945
 31
0.0
  0
LINE
  5
982F
330
97F0
100
AcDbEntity
  8
1
  6
Continuous
100
AcDbLine
 10
126.354558
 20
38.922745
 30
0.0
 11
127.155558
 21
39.384945
 31
0.0
  0
LINE
  5
9830
330
97F0
100
AcDbEntity
  8
1
  6
Continuous
100
AcDbLine
 10
128.4555579999999
 20
37.198745
 30
0.0
 11
127.155558
 21
37.198745
 31
0.0
  0
LINE
  5
9831
330
97F0
100
AcDbEntity
  8
1
  6
Continuous
100
AcDbLine
 10
129.355558
 20
35.49414500000001
 30
0.0
 11
129.355558
 21
36.898745
 31
0.0
  0
LINE
  5
9832
330
97F0
100
AcDbEntity
  8
1
  6
Continuous
100
AcDbLine
 10
125.055558
 20
34.598745
 30
0.0
 11
126.354558
 21
34.598745
 31
0.0
  0
LINE
  5
9833
330
97F0
100
AcDbEntity
  8
1
  6
Continuous
100
AcDbLine
 10
125.055558
 20
34.598745
 30
0.0
 11
124.0435579999999
 21
33.698745
 31
0.0
  0
LINE
  5
9834
330
97F0
100
AcDbEntity
  8
1
  6
Continuous
100
AcDbLine
 10
126.354558
 20
34.598745
 30
0.0
 11
127.155558
 21
35.18874499999999
 31
0.0
  0
LINE
  5
9835
330
97F0
100
AcDbEntity
  8
1
  6
Continuous
100
AcDbLine
 10
113.055558
 20
32.198745
 30
0.0
 11
114.055558
 21
32.198745
 31
0.0
  0
LINE
  5
9836
330
97F0
100
AcDbEntity
  8
1
  6
Continuous
100
AcDbLine
 10
113.055558
 20
54.19874499999998
 30
0.0
 11
114.055558
 21
54.19874499999998
 31
0.0
  0
LINE
  5
9837
330
97F0
100
AcDbEntity
  8
1
  6
Continuous
100
AcDbLine
 10
113.055558
 20
54.19874499999998
 30
0.0
 11
112.0555579999999
 21
53.198745
 31
0.0
  0
LINE
  5
9838
330
97F0
100
AcDbEntity
  8
1
  6
Continuous
100
AcDbLine
 10
112.0555579999999
 20
33.198745
 30
0.0
 11
113.055558
 21
32.198745
 31
0.0
  0
LINE
  5
9839
330
97F0
100
AcDbEntity
  8
1
  6
Continuous
100
AcDbLine
 10
113.055558
 20
54.19874499999998
 30
0.0
 11
113.055558
 21
32.198745
 31
0.0
  0
LINE
  5
983A
330
97F0
100
AcDbEntity
  8
1
  6
Continuous
100
AcDbLine
 10
127.155558
 20
51.208745
 30
0.0
 11
127.155558
 21
35.18874499999999
 31
0.0
  0
LINE
  5
983B
330
97F0
100
AcDbEntity
  8
1
  6
Continuous
100
AcDbLine
 10
127.755558
 20
47.748745
 30
0.0
 11
127.755558
 21
38.64874499999999
 31
0.0
  0
LINE
  5
983C
330
97F0
100
AcDbEntity
  8
1
  6
Continuous
100
AcDbLine
 10
128.4555579999999
 20
47.698745
 30
0.0
 11
127.755558
 21
47.698745
 31
0.0
  0
LINE
  5
983D
330
97F0
100
AcDbEntity
  8
1
  6
Continuous
100
AcDbLine
 10
128.4555579999999
 20
38.698745
 30
0.0
 11
127.755558
 21
38.698745
 31
0.0
  0
LINE
  5
983E
330
97F0
100
AcDbEntity
  8
1
  6
Continuous
100
AcDbLine
 10
111.0555579999999
 20
47.698745
 30
0.0
 11
111.0555579999999
 21
44.448745
 31
0.0
  0
LINE
  5
983F
330
97F0
100
AcDbEntity
  8
1
  6
Continuous
100
AcDbLine
 10
111.0555579999999
 20
47.698745
 30
0.0
 11
112.0555579999999
 21
48.698745
 31
0.0
  0
LINE
  5
9840
330
97F0
100
AcDbEntity
  8
1
  6
Continuous
100
AcDbLine
 10
111.0555579999999
 20
38.698745
 30
0.0
 11
112.0555579999999
 21
37.698745
 31
0.0
  0
LINE
  5
9841
330
97F0
100
AcDbEntity
  8
1
  6
Continuous
100
AcDbLine
 10
111.0555579999999
 20
44.448745
 30
0.0
 11
111.555558
 21
44.448745
 31
0.0
  0
LINE
  5
9842
330
97F0
100
AcDbEntity
  8
1
  6
Continuous
100
AcDbLine
 10
111.555558
 20
41.948745
 30
0.0
 11
111.0555579999999
 21
41.948745
 31
0.0
  0
LINE
  5
9843
330
97F0
100
AcDbEntity
  8
1
  6
Continuous
100
AcDbLine
 10
111.555558
 20
44.448745
 30
0.0
 11
111.555558
 21
41.948745
 31
0.0
  0
LINE
  5
9844
330
97F0
100
AcDbEntity
  8
1
  6
Continuous
100
AcDbLine
 10
111.0555579999999
 20
41.948745
 30
0.0
 11
111.0555579999999
 21
38.698745
 31
0.0
  0
LINE
  5
9845
330
97F0
100
AcDbEntity
  8
1
  6
Continuous
100
AcDbLine
 10
111.0555579999999
 20
44.56704499999999
 30
0.0
 11
112.0555579999999
 21
45.567045
 31
0.0
  0
LINE
  5
9846
330
97F0
100
AcDbEntity
  8
1
  6
Continuous
100
AcDbLine
 10
111.0555579999999
 20
41.830345
 30
0.0
 11
112.0555579999999
 21
40.830345
 31
0.0
  0
LINE
  5
9847
330
97F0
100
AcDbEntity
  8
1
  6
Continuous
100
AcDbLine
 10
111.555558
 20
42.14874499999999
 30
0.0
 11
112.0555579999999
 21
42.14874499999999
 31
0.0
  0
LINE
  5
9848
330
97F0
100
AcDbEntity
  8
1
  6
Continuous
100
AcDbLine
 10
111.555558
 20
44.248745
 30
0.0
 11
112.0555579999999
 21
44.248745
 31
0.0
  0
LINE
  5
9849
330
97F0
100
AcDbEntity
  8
1
  6
Continuous
100
AcDbLine
 10
137.0555579999999
 20
45.698745
 30
0.0
 11
137.0555579999999
 21
40.698745
 31
0.0
  0
LINE
  5
984A
330
97F0
100
AcDbEntity
  8
1
  6
Continuous
100
AcDbLine
 10
114.055558
 20
52.698745
 30
0.0
 11
124.0435579999999
 21
52.698745
 31
0.0
  0
LINE
  5
984B
330
97F0
100
AcDbEntity
  8
1
  6
Continuous
100
AcDbLine
 10
114.055558
 20
48.474645
 30
0.0
 11
124.055558
 21
48.474645
 31
0.0
  0
LINE
  5
984C
330
97F0
100
AcDbEntity
  8
2
  6
Continuous
100
AcDbLine
 10
114.055558
 20
48.474645
 30
0.0
 11
126.354558
 21
38.897945
 31
0.0
  0
LINE
  5
984D
330
97F0
100
AcDbEntity
  8
1
  6
Continuous
100
AcDbLine
 10
114.055558
 20
37.92274499999999
 30
0.0
 11
124.055558
 21
37.92274499999999
 31
0.0
  0
LINE
  5
984E
330
97F0
100
AcDbEntity
  8
1
  6
Continuous
100
AcDbLine
 10
114.055558
 20
33.698745
 30
0.0
 11
124.0435579999999
 21
33.698745
 31
0.0
  0
LINE
  5
984F
330
97F0
100
AcDbEntity
  8
4
  6
CENTER
100
AcDbLine
 10
265.050558
 20
99.31294499999999
 30
0.0
 11
265.050558
 21
127.0849449999999
 31
0.0
  0
LINE
  5
9850
330
97F0
100
AcDbEntity
  8
1
  6
Continuous
100
AcDbLine
 10
259.774558
 20
105.2989449999998
 30
0.0
 11
270.389558
 21
105.2989449999998
 31
0.0
  0
LINE
  5
9851
330
97F0
100
AcDbEntity
  8
1
  6
Continuous
100
AcDbLine
 10
259.774558
 20
121.098945
 30
0.0
 11
270.389558
 21
121.098945
 31
0.0
  0
LINE
  5
9852
330
97F0
100
AcDbEntity
  8
4
  6
CENTER
100
AcDbLine
 10
248.909558
 20
113.198945
 30
0.0
 11
281.010558
 21
113.198945
 31
0.0
  0
LINE
  5
9853
330
97F0
100
AcDbEntity
  8
1
  6
Continuous
100
AcDbLine
 10
272.755558
 20
115.6989449999999
 30
0.0
 11
271.050558
 21
115.6989449999999
 31
0.0
  0
LINE
  5
9854
330
97F0
100
AcDbEntity
  8
1
  6
Continuous
100
AcDbLine
 10
257.346558
 20
115.6989449999999
 30
0.0
 11
259.050558
 21
115.6989449999999
 31
0.0
  0
LINE
  5
9855
330
97F0
100
AcDbEntity
  8
1
  6
Continuous
100
AcDbLine
 10
256.800558
 20
111.198945
 30
0.0
 11
256.800558
 21
115.198945
 31
0.0
  0
LINE
  5
9856
330
97F0
100
AcDbEntity
  8
1
  6
Continuous
100
AcDbLine
 10
256.500558
 20
111.198945
 30
0.0
 11
256.800558
 21
111.198945
 31
0.0
  0
LINE
  5
9857
330
97F0
100
AcDbEntity
  8
1
  6
Continuous
100
AcDbLine
 10
256.500558
 20
115.198945
 30
0.0
 11
256.800558
 21
115.198945
 31
0.0
  0
LINE
  5
9858
330
97F0
100
AcDbEntity
  8
1
  6
Continuous
100
AcDbLine
 10
256.500558
 20
111.198945
 30
0.0
 11
256.500558
 21
115.198945
 31
0.0
  0
LINE
  5
9859
330
97F0
100
AcDbEntity
  8
1
  6
Continuous
100
AcDbLine
 10
256.500558
 20
115.198945
 30
0.0
 11
255.6865579999999
 21
114.7989449999998
 31
0.0
  0
LINE
  5
985A
330
97F0
100
AcDbEntity
  8
1
  6
Continuous
100
AcDbLine
 10
255.6865579999999
 20
111.598945
 30
0.0
 11
256.500558
 21
111.198945
 31
0.0
  0
LINE
  5
985B
330
97F0
100
AcDbEntity
  8
1
  6
Continuous
100
AcDbLine
 10
273.300558
 20
111.198945
 30
0.0
 11
273.300558
 21
115.198945
 31
0.0
  0
LINE
  5
985C
330
97F0
100
AcDbEntity
  8
1
  6
Continuous
100
AcDbLine
 10
273.600558
 20
111.198945
 30
0.0
 11
273.300558
 21
111.198945
 31
0.0
  0
LINE
  5
985D
330
97F0
100
AcDbEntity
  8
1
  6
Continuous
100
AcDbLine
 10
273.600558
 20
115.198945
 30
0.0
 11
273.300558
 21
115.198945
 31
0.0
  0
LINE
  5
985E
330
97F0
100
AcDbEntity
  8
1
  6
Continuous
100
AcDbLine
 10
273.600558
 20
111.198945
 30
0.0
 11
273.600558
 21
115.198945
 31
0.0
  0
LINE
  5
985F
330
97F0
100
AcDbEntity
  8
1
  6
Continuous
100
AcDbLine
 10
273.600558
 20
115.198945
 30
0.0
 11
274.4155579999999
 21
114.7989449999998
 31
0.0
  0
LINE
  5
9860
330
97F0
100
AcDbEntity
  8
1
  6
Continuous
100
AcDbLine
 10
274.4155579999999
 20
111.598945
 30
0.0
 11
273.600558
 21
111.198945
 31
0.0
  0
LINE
  5
9861
330
97F0
100
AcDbEntity
  8
1
  6
Continuous
100
AcDbLine
 10
127.155558
 20
50.903245
 30
0.0
 11
129.355558
 21
50.903245
 31
0.0
  0
LINE
  5
9862
330
97F0
100
AcDbEntity
  8
1
  6
Continuous
100
AcDbLine
 10
127.155558
 20
49.198745
 30
0.0
 11
128.4555579999999
 21
49.198745
 31
0.0
  0
LINE
  5
9863
330
97F0
100
AcDbEntity
  8
1
  6
Continuous
100
AcDbLine
 10
127.155558
 20
35.49414500000001
 30
0.0
 11
129.355558
 21
35.49414500000001
 31
0.0
  0
LINE
  5
9864
330
97F0
100
AcDbEntity
  8
1
  6
Continuous
100
AcDbLine
 10
127.755558
 20
42.14874499999999
 30
0.0
 11
128.4555579999999
 21
42.14874499999999
 31
0.0
  0
LINE
  5
9865
330
97F0
100
AcDbEntity
  8
1
  6
Continuous
100
AcDbLine
 10
127.755558
 20
44.248745
 30
0.0
 11
128.4555579999999
 21
44.248745
 31
0.0
  0
LINE
  5
9866
330
97F0
100
AcDbEntity
  8
1
  6
Continuous
100
AcDbLine
 10
129.655558
 20
39.698745
 30
0.0
 11
136.0555579999999
 21
39.698745
 31
0.0
  0
LINE
  5
9867
330
97F0
100
AcDbEntity
  8
1
  6
Continuous
100
AcDbLine
 10
129.655558
 20
46.698745
 30
0.0
 11
136.0555579999999
 21
46.698745
 31
0.0
  0
LINE
  5
9868
330
97F0
100
AcDbEntity
  8
1
  6
Continuous
100
AcDbLine
 10
137.0555579999999
 20
45.698745
 30
0.0
 11
136.0555579999999
 21
46.698745
 31
0.0
  0
LINE
  5
9869
330
97F0
100
AcDbEntity
  8
1
  6
Continuous
100
AcDbLine
 10
136.0555579999999
 20
39.698745
 30
0.0
 11
137.0555579999999
 21
40.698745
 31
0.0
  0
LINE
  5
986A
330
97F0
100
AcDbEntity
  8
1
  6
Continuous
100
AcDbLine
 10
137.0555579999999
 20
45.698745
 30
0.0
 11
129.655558
 21
45.698745
 31
0.0
  0
LINE
  5
986B
330
97F0
100
AcDbEntity
  8
1
  6
Continuous
100
AcDbLine
 10
137.0555579999999
 20
40.698745
 30
0.0
 11
129.655558
 21
40.698745
 31
0.0
  0
LINE
  5
986C
330
97F0
100
AcDbEntity
  8
1
  6
Continuous
100
AcDbLine
 10
136.0555579999999
 20
46.698745
 30
0.0
 11
136.0555579999999
 21
45.698745
 31
0.0
  0
LINE
  5
986D
330
97F0
100
AcDbEntity
  8
1
  6
Continuous
100
AcDbLine
 10
136.0555579999999
 20
39.698745
 30
0.0
 11
136.0555579999999
 21
40.698745
 31
0.0
  0
LINE
  5
986E
330
97F0
100
AcDbEntity
  8
1
  6
Continuous
100
AcDbLine
 10
129.955558
 20
45.698745
 30
0.0
 11
129.955558
 21
46.698745
 31
0.0
  0
LINE
  5
986F
330
97F0
100
AcDbEntity
  8
1
  6
Continuous
100
AcDbLine
 10
129.955558
 20
40.698745
 30
0.0
 11
129.955558
 21
39.698745
 31
0.0
  0
LINE
  5
9870
330
97F0
100
AcDbEntity
  8
2
  6
Continuous
100
AcDbLine
 10
137.0555579999999
 20
45.698745
 30
0.0
 11
134.561558
 21
44.248745
 31
0.0
  0
LINE
  5
9871
330
97F0
100
AcDbEntity
  8
2
  6
Continuous
100
AcDbLine
 10
129.655558
 20
45.00104499999999
 30
0.0
 11
130.9495579999999
 21
44.248745
 31
0.0
  0
LINE
  5
9872
330
97F0
100
AcDbEntity
  8
2
  6
Continuous
100
AcDbLine
 10
134.561558
 20
42.14874499999999
 30
0.0
 11
137.0555579999999
 21
40.698745
 31
0.0
  0
LINE
  5
9873
330
97F0
100
AcDbEntity
  8
2
  6
Continuous
100
AcDbLine
 10
130.9495579999999
 20
42.14874499999999
 30
0.0
 11
129.655558
 21
41.396445
 31
0.0
  0
LINE
  5
9874
330
97F0
100
AcDbEntity
  8
1
  6
Continuous
100
AcDbLine
 10
128.4555579999999
 20
50.898745
 30
0.0
 11
129.655558
 21
50.898745
 31
0.0
  0
LINE
  5
9875
330
97F0
100
AcDbEntity
  8
1
  6
Continuous
100
AcDbLine
 10
128.4555579999999
 20
36.898745
 30
0.0
 11
129.655558
 21
36.898745
 31
0.0
  0
LINE
  5
9876
330
97F0
100
AcDbEntity
  8
1
  6
Continuous
100
AcDbLine
 10
129.655558
 20
50.898745
 30
0.0
 11
129.655558
 21
36.898745
 31
0.0
  0
LINE
  5
9877
330
97F0
100
AcDbEntity
  8
1
  6
Continuous
100
AcDbLine
 10
128.4555579999999
 20
50.898745
 30
0.0
 11
128.4555579999999
 21
36.898745
 31
0.0
  0
LINE
  5
9878
330
97F0
100
AcDbEntity
  8
1
  6
Continuous
100
AcDbLine
 10
128.4555579999999
 20
40.698745
 30
0.0
 11
129.655558
 21
40.698745
 31
0.0
  0
LINE
  5
9879
330
97F0
100
AcDbEntity
  8
1
  6
Continuous
100
AcDbLine
 10
174.384558
 20
125.898945
 30
0.0
 11
174.384558
 21
100.4989449999999
 31
0.0
  0
LINE
  5
987A
330
97F0
100
AcDbEntity
  8
1
  6
Continuous
100
AcDbLine
 10
177.884558
 20
122.898945
 30
0.0
 11
177.884558
 21
103.4989449999999
 31
0.0
  0
LINE
  5
987B
330
97F0
100
AcDbEntity
  8
1
  6
Continuous
100
AcDbLine
 10
174.384558
 20
125.898945
 30
0.0
 11
176.987558
 21
125.898945
 31
0.0
  0
LINE
  5
987C
330
97F0
100
AcDbEntity
  8
1
  6
Continuous
100
AcDbLine
 10
174.384558
 20
119.5489449999999
 30
0.0
 11
176.987558
 21
119.5489449999999
 31
0.0
  0
LINE
  5
987D
330
97F0
100
AcDbEntity
  8
4
  6
CENTER
100
AcDbLine
 10
171.0255579999999
 20
43.198745
 30
0.0
 11
209.143558
 21
43.198745
 31
0.0
  0
LINE
  5
987E
330
97F0
100
AcDbEntity
  8
1
  6
Continuous
100
AcDbLine
 10
174.384558
 20
100.4989449999999
 30
0.0
 11
176.987558
 21
100.4989449999999
 31
0.0
  0
LINE
  5
987F
330
97F0
100
AcDbEntity
  8
1
  6
Continuous
100
AcDbLine
 10
174.384558
 20
106.8489449999999
 30
0.0
 11
176.987558
 21
106.8489449999999
 31
0.0
  0
LINE
  5
9880
330
97F0
100
AcDbEntity
  8
1
  6
Continuous
100
AcDbLine
 10
204.490558
 20
119.549945
 30
0.0
 11
205.9305579999999
 21
119.549945
 31
0.0
  0
LINE
  5
9881
330
97F0
100
AcDbEntity
  8
1
  6
Continuous
100
AcDbLine
 10
206.2105579999999
 20
117.961945
 30
0.0
 11
206.2105579999999
 21
108.435945
 31
0.0
  0
LINE
  5
9882
330
97F0
100
AcDbEntity
  8
1
  6
Continuous
100
AcDbLine
 10
204.490558
 20
116.373945
 30
0.0
 11
205.9305579999999
 21
116.373945
 31
0.0
  0
LINE
  5
9883
330
97F0
100
AcDbEntity
  8
1
  6
Continuous
100
AcDbLine
 10
204.2105579999999
 20
117.961945
 30
0.0
 11
204.2105579999999
 21
108.435945
 31
0.0
  0
LINE
  5
9884
330
97F0
100
AcDbEntity
  8
1
  6
Continuous
100
AcDbLine
 10
204.490558
 20
106.8479449999999
 30
0.0
 11
205.9305579999999
 21
106.8479449999999
 31
0.0
  0
LINE
  5
9885
330
97F0
100
AcDbEntity
  8
1
  6
Continuous
100
AcDbLine
 10
204.490558
 20
110.022945
 30
0.0
 11
205.9305579999999
 21
110.022945
 31
0.0
  0
LINE
  5
9886
330
97F0
100
AcDbEntity
  8
1
  6
Continuous
100
AcDbLine
 10
190.748558
 20
116.8529449999999
 30
0.0
 11
190.748558
 21
116.4679449999999
 31
0.0
  0
LINE
  5
9887
330
97F0
100
AcDbEntity
  8
1
  6
Continuous
100
AcDbLine
 10
192.748558
 20
116.495945
 30
0.0
 11
192.748558
 21
116.109945
 31
0.0
  0
LINE
  5
9888
330
97F0
100
AcDbEntity
  8
1
  6
Continuous
100
AcDbLine
 10
191.3485579999999
 20
119.698945
 30
0.0
 11
191.3485579999999
 21
106.6989449999999
 31
0.0
  0
LINE
  5
9889
330
97F0
100
AcDbEntity
  8
1
  6
Continuous
100
AcDbLine
 10
192.148558
 20
119.698945
 30
0.0
 11
192.148558
 21
106.6989449999999
 31
0.0
  0
LINE
  5
988A
330
97F0
100
AcDbEntity
  8
1
  6
Continuous
100
AcDbLine
 10
191.3485579999999
 20
119.698945
 30
0.0
 11
192.148558
 21
119.698945
 31
0.0
  0
LINE
  5
988B
330
97F0
100
AcDbEntity
  8
1
  6
Continuous
100
AcDbLine
 10
191.3485579999999
 20
106.6989449999999
 30
0.0
 11
192.148558
 21
106.6989449999999
 31
0.0
  0
LINE
  5
988C
330
97F0
100
AcDbEntity
  8
1
  6
Continuous
100
AcDbLine
 10
190.748558
 20
116.8529449999999
 30
0.0
 11
191.3485579999999
 21
116.7459449999999
 31
0.0
  0
LINE
  5
988D
330
97F0
100
AcDbEntity
  8
1
  6
Continuous
100
AcDbLine
 10
191.147558
 20
115.7159449999999
 30
0.0
 11
191.3485579999999
 21
115.621945
 31
0.0
  0
LINE
  5
988E
330
97F0
100
AcDbEntity
  8
1
  6
Continuous
100
AcDbLine
 10
191.227558
 20
113.8979449999998
 30
0.0
 11
191.3485579999999
 21
113.8269449999999
 31
0.0
  0
LINE
  5
988F
330
97F0
100
AcDbEntity
  8
1
  6
Continuous
100
AcDbLine
 10
190.748558
 20
111.518945
 30
0.0
 11
191.3485579999999
 21
111.2379449999999
 31
0.0
  0
LINE
  5
9890
330
97F0
100
AcDbEntity
  8
1
  6
Continuous
100
AcDbLine
 10
190.748558
 20
109.9019449999999
 30
0.0
 11
191.3485579999999
 21
109.7949449999999
 31
0.0
  0
LINE
  5
9891
330
97F0
100
AcDbEntity
  8
1
  6
Continuous
100
AcDbLine
 10
190.748558
 20
116.4679449999999
 30
0.0
 11
191.3485579999999
 21
116.360945
 31
0.0
  0
LINE
  5
9892
330
97F0
100
AcDbEntity
  8
1
  6
Continuous
100
AcDbLine
 10
190.7515579999999
 20
115.2709449999999
 30
0.0
 11
191.3485579999999
 21
114.9909449999999
 31
0.0
  0
LINE
  5
9893
330
97F0
100
AcDbEntity
  8
1
  6
Continuous
100
AcDbLine
 10
190.8285579999999
 20
113.2039449999999
 30
0.0
 11
191.3485579999999
 21
112.9029449999999
 31
0.0
  0
LINE
  5
9894
330
97F0
100
AcDbEntity
  8
1
  6
Continuous
100
AcDbLine
 10
190.748558
 20
111.0579449999999
 30
0.0
 11
191.3485579999999
 21
110.7769449999999
 31
0.0
  0
LINE
  5
9895
330
97F0
100
AcDbEntity
  8
1
  6
Continuous
100
AcDbLine
 10
190.748558
 20
109.523945
 30
0.0
 11
191.3485579999999
 21
109.416945
 31
0.0
  0
LINE
  5
9896
330
97F0
100
AcDbEntity
  8
1
  6
Continuous
100
AcDbLine
 10
190.748558
 20
111.518945
 30
0.0
 11
190.748558
 21
111.0579449999999
 31
0.0
  0
LINE
  5
9897
330
97F0
100
AcDbEntity
  8
1
  6
Continuous
100
AcDbLine
 10
190.748558
 20
109.9019449999999
 30
0.0
 11
190.748558
 21
109.523945
 31
0.0
  0
LINE
  5
9898
330
97F0
100
AcDbEntity
  8
1
  6
Continuous
100
AcDbLine
 10
190.7635579999999
 20
115.2839449999998
 30
0.0
 11
191.159558
 21
115.7289449999999
 31
0.0
  0
LINE
  5
9899
330
97F0
100
AcDbEntity
  8
1
  6
Continuous
100
AcDbLine
 10
192.353558
 20
114.520945
 30
0.0
 11
192.748558
 21
114.9659449999999
 31
0.0
  0
LINE
  5
989A
330
97F0
100
AcDbEntity
  8
1
  6
Continuous
100
AcDbLine
 10
190.8285579999999
 20
113.2039449999999
 30
0.0
 11
191.227558
 21
113.896945
 31
0.0
  0
LINE
  5
989B
330
97F0
100
AcDbEntity
  8
1
  6
Continuous
100
AcDbLine
 10
192.8285579999999
 20
112.970945
 30
0.0
 11
192.523558
 21
112.222945
 31
0.0
  0
LINE
  5
989C
330
97F0
100
AcDbEntity
  8
1
  6
Continuous
100
AcDbLine
 10
192.148558
 20
116.6029449999999
 30
0.0
 11
192.748558
 21
116.495945
 31
0.0
  0
LINE
  5
989D
330
97F0
100
AcDbEntity
  8
1
  6
Continuous
100
AcDbLine
 10
192.148558
 20
116.217945
 30
0.0
 11
192.748558
 21
116.109945
 31
0.0
  0
LINE
  5
989E
330
97F0
100
AcDbEntity
  8
1
  6
Continuous
100
AcDbLine
 10
192.148558
 20
115.2469449999999
 30
0.0
 11
192.748558
 21
114.9659449999999
 31
0.0
  0
LINE
  5
989F
330
97F0
100
AcDbEntity
  8
1
  6
Continuous
100
AcDbLine
 10
192.148558
 20
114.616945
 30
0.0
 11
192.353558
 21
114.520945
 31
0.0
  0
LINE
  5
98A0
330
97F0
100
AcDbEntity
  8
1
  6
Continuous
100
AcDbLine
 10
192.148558
 20
113.3639449999999
 30
0.0
 11
192.8285579999999
 21
112.970945
 31
0.0
  0
LINE
  5
98A1
330
97F0
100
AcDbEntity
  8
1
  6
Continuous
100
AcDbLine
 10
192.148558
 20
112.439945
 30
0.0
 11
192.523558
 21
112.222945
 31
0.0
  0
LINE
  5
98A2
330
97F0
100
AcDbEntity
  8
1
  6
Continuous
100
AcDbLine
 10
192.148558
 20
110.862945
 30
0.0
 11
192.748558
 21
110.5829449999999
 31
0.0
  0
LINE
  5
98A3
330
97F0
100
AcDbEntity
  8
1
  6
Continuous
100
AcDbLine
 10
192.148558
 20
110.401945
 30
0.0
 11
192.362558
 21
110.3019449999999
 31
0.0
  0
LINE
  5
98A4
330
97F0
100
AcDbEntity
  8
1
  6
Continuous
100
AcDbLine
 10
192.148558
 20
109.6519449999999
 30
0.0
 11
192.748558
 21
109.5439449999998
 31
0.0
  0
LINE
  5
98A5
330
97F0
100
AcDbEntity
  8
1
  6
Continuous
100
AcDbLine
 10
192.148558
 20
109.273945
 30
0.0
 11
192.339558
 21
109.239945
 31
0.0
  0
LINE
  5
98A6
330
97F0
100
AcDbEntity
  8
1
  6
Continuous
100
AcDbLine
 10
21.21875799999998
 20
173.198945
 30
0.0
 11
23.94945799999999
 21
173.198945
 31
0.0
  0
LINE
  5
98A7
330
97F0
100
AcDbEntity
  8
1
  6
Continuous
100
AcDbLine
 10
21.21875799999998
 20
193.198945
 30
0.0
 11
23.94945799999999
 21
193.198945
 31
0.0
  0
LINE
  5
98A8
330
97F0
100
AcDbEntity
  8
1
  6
Continuous
100
AcDbLine
 10
15.726358
 20
186.358945
 30
0.0
 11
15.726358
 21
180.0389449999999
 31
0.0
  0
LINE
  5
98A9
330
97F0
100
AcDbEntity
  8
1
  6
Continuous
100
AcDbLine
 10
15.933758
 20
186.9679449999999
 30
0.0
 11
20.42615799999998
 21
192.808945
 31
0.0
  0
LINE
  5
98AA
330
97F0
100
AcDbEntity
  8
1
  6
Continuous
100
AcDbLine
 10
15.933758
 20
179.4289449999999
 30
0.0
 11
20.42615799999998
 21
173.5889449999999
 31
0.0
  0
LINE
  5
98AB
330
97F0
100
AcDbEntity
  8
1
  6
Continuous
100
AcDbLine
 10
37.22635799999999
 20
179.023945
 30
0.0
 11
37.22635799999999
 21
178.198945
 31
0.0
  0
LINE
  5
98AC
330
97F0
100
AcDbEntity
  8
1
  6
Continuous
100
AcDbLine
 10
31.726358
 20
177.698945
 30
0.0
 11
36.72635800000001
 21
177.698945
 31
0.0
  0
LINE
  5
98AD
330
97F0
100
AcDbEntity
  8
1
  6
Continuous
100
AcDbLine
 10
31.726358
 20
188.698945
 30
0.0
 11
24.46385799999999
 21
193.055945
 31
0.0
  0
LINE
  5
98AE
330
97F0
100
AcDbEntity
  8
1
  6
Continuous
100
AcDbLine
 10
31.726358
 20
177.698945
 30
0.0
 11
24.46385799999999
 21
173.340945
 31
0.0
  0
LINE
  5
98AF
330
97F0
100
AcDbEntity
  8
1
  6
Continuous
100
AcDbLine
 10
36.926358
 20
180.1239449999999
 30
0.0
 11
51.378558
 21
180.1239449999999
 31
0.0
  0
LINE
  5
98B0
330
97F0
100
AcDbEntity
  8
1
  6
Continuous
100
AcDbLine
 10
36.926358
 20
186.273945
 30
0.0
 11
51.378558
 21
186.273945
 31
0.0
  0
LINE
  5
98B1
330
97F0
100
AcDbEntity
  8
1
  6
Continuous
100
AcDbLine
 10
36.926358
 20
180.1239449999999
 30
0.0
 11
36.926358
 21
179.323945
 31
0.0
  0
LINE
  5
98B2
330
97F0
100
AcDbEntity
  8
1
  6
Continuous
100
AcDbLine
 10
36.926358
 20
179.323945
 30
0.0
 11
37.22635799999999
 21
179.023945
 31
0.0
  0
LINE
  5
98B3
330
97F0
100
AcDbEntity
  8
1
  6
Continuous
100
AcDbLine
 10
37.22635799999999
 20
187.373945
 30
0.0
 11
37.22635799999999
 21
188.198945
 31
0.0
  0
LINE
  5
98B4
330
97F0
100
AcDbEntity
  8
1
  6
Continuous
100
AcDbLine
 10
31.726358
 20
188.698945
 30
0.0
 11
36.72635800000001
 21
188.698945
 31
0.0
  0
LINE
  5
98B5
330
97F0
100
AcDbEntity
  8
1
  6
Continuous
100
AcDbLine
 10
36.926358
 20
186.273945
 30
0.0
 11
36.926358
 21
187.073945
 31
0.0
  0
LINE
  5
98B6
330
97F0
100
AcDbEntity
  8
1
  6
Continuous
100
AcDbLine
 10
36.926358
 20
187.073945
 30
0.0
 11
37.22635799999999
 21
187.373945
 31
0.0
  0
LINE
  5
98B7
330
97F0
100
AcDbEntity
  8
1
  6
Continuous
100
AcDbLine
 10
17.72635799999999
 20
185.698945
 30
0.0
 11
17.72635799999999
 21
180.698945
 31
0.0
  0
LINE
  5
98B8
330
97F0
100
AcDbEntity
  8
1
  6
Continuous
100
AcDbLine
 10
20.22635799999999
 20
185.698945
 30
0.0
 11
20.22635799999999
 21
180.698945
 31
0.0
  0
LINE
  5
98B9
330
97F0
100
AcDbEntity
  8
1
  6
Continuous
100
AcDbLine
 10
18.22635799999998
 20
180.198945
 30
0.0
 11
19.72635799999999
 21
180.198945
 31
0.0
  0
LINE
  5
98BA
330
97F0
100
AcDbEntity
  8
1
  6
Continuous
100
AcDbLine
 10
18.22635799999998
 20
186.198945
 30
0.0
 11
19.72635799999999
 21
186.198945
 31
0.0
  0
LINE
  5
98BB
330
97F0
100
AcDbEntity
  8
1
  6
Continuous
100
AcDbLine
 10
53.504258
 20
185.2899449999999
 30
0.0
 11
51.378558
 21
186.273945
 31
0.0
  0
LINE
  5
98BC
330
97F0
100
AcDbEntity
  8
1
  6
Continuous
100
AcDbLine
 10
53.504258
 20
181.1069449999999
 30
0.0
 11
51.378558
 21
180.1239449999999
 31
0.0
  0
LINE
  5
98BD
330
97F0
100
AcDbEntity
  8
4
  6
CENTER
100
AcDbLine
 10
11.52345799999999
 20
183.198945
 30
0.0
 11
58.01655799999998
 21
183.198945
 31
0.0
  0
LINE
  5
98BE
330
97F0
100
AcDbEntity
  8
1
  6
Continuous
100
AcDbLine
 10
262.801558
 20
110.4989449999999
 30
0.0
 11
263.800558
 21
110.4989449999999
 31
0.0
  0
LINE
  5
98BF
330
97F0
100
AcDbEntity
  8
1
  6
Continuous
100
AcDbLine
 10
262.823558
 20
115.8989449999999
 30
0.0
 11
267.276558
 21
115.8989449999999
 31
0.0
  0
LINE
  5
98C0
330
97F0
100
AcDbEntity
  8
1
  6
Continuous
100
AcDbLine
 10
266.300558
 20
111.7569449999999
 30
0.0
 11
266.300558
 21
110.4989449999999
 31
0.0
  0
LINE
  5
98C1
330
97F0
100
AcDbEntity
  8
1
  6
Continuous
100
AcDbLine
 10
263.800558
 20
111.7569449999999
 30
0.0
 11
263.800558
 21
110.4989449999999
 31
0.0
  0
LINE
  5
98C2
330
97F0
100
AcDbEntity
  8
1
  6
Continuous
100
AcDbLine
 10
263.800558
 20
111.7569449999999
 30
0.0
 11
266.300558
 21
111.7569449999999
 31
0.0
  0
LINE
  5
98C3
330
97F0
100
AcDbEntity
  8
1
  6
Continuous
100
AcDbLine
 10
266.300558
 20
110.4989449999999
 30
0.0
 11
267.276558
 21
110.4989449999999
 31
0.0
  0
LINE
  5
98C4
330
97F0
100
AcDbEntity
  8
1
  6
Continuous
100
AcDbLine
 10
267.550558
 20
105.9159449999998
 30
0.0
 11
267.550558
 21
107.415945
 31
0.0
  0
LINE
  5
98C5
330
97F0
100
AcDbEntity
  8
1
  6
Continuous
100
AcDbLine
 10
270.550558
 20
110.022945
 30
0.0
 11
270.550558
 21
116.373945
 31
0.0
  0
LINE
  5
98C6
330
97F0
100
AcDbEntity
  8
1
  6
Continuous
100
AcDbLine
 10
259.550558
 20
110.022945
 30
0.0
 11
259.550558
 21
116.373945
 31
0.0
  0
LINE
  5
98C7
330
97F0
100
AcDbEntity
  8
1
  6
Continuous
100
AcDbLine
 10
259.550558
 20
110.022945
 30
0.0
 11
265.050558
 21
106.8479449999999
 31
0.0
  0
LINE
  5
98C8
330
97F0
100
AcDbEntity
  8
1
  6
Continuous
100
AcDbLine
 10
265.050558
 20
119.549945
 30
0.0
 11
270.550558
 21
116.373945
 31
0.0
  0
LINE
  5
98C9
330
97F0
100
AcDbEntity
  8
1
  6
Continuous
100
AcDbLine
 10
265.050558
 20
119.549945
 30
0.0
 11
259.550558
 21
116.373945
 31
0.0
  0
LINE
  5
98CA
330
97F0
100
AcDbEntity
  8
1
  6
Continuous
100
AcDbLine
 10
270.550558
 20
110.022945
 30
0.0
 11
265.050558
 21
106.8479449999999
 31
0.0
  0
LINE
  5
98CB
330
97F0
100
AcDbEntity
  8
1
  6
Continuous
100
AcDbLine
 10
114.055558
 20
102.1989449999999
 30
0.0
 11
114.055558
 21
124.1989449999999
 31
0.0
  0
LINE
  5
98CC
330
97F0
100
AcDbEntity
  8
1
  6
Continuous
100
AcDbLine
 10
112.0555579999999
 20
103.1989449999999
 30
0.0
 11
112.0555579999999
 21
123.1989449999999
 31
0.0
  0
LINE
  5
98CD
330
97F0
100
AcDbEntity
  8
1
  6
Continuous
100
AcDbLine
 10
113.055558
 20
102.1989449999999
 30
0.0
 11
113.055558
 21
124.1989449999999
 31
0.0
  0
LINE
  5
98CE
330
97F0
100
AcDbEntity
  8
1
  6
Continuous
100
AcDbLine
 10
127.155558
 20
105.2989449999998
 30
0.0
 11
127.155558
 21
121.098945
 31
0.0
  0
LINE
  5
98CF
330
97F0
100
AcDbEntity
  8
1
  6
Continuous
100
AcDbLine
 10
129.355558
 20
121.098945
 30
0.0
 11
129.355558
 21
115.6989449999999
 31
0.0
  0
LINE
  5
98D0
330
97F0
100
AcDbEntity
  8
1
  6
Continuous
100
AcDbLine
 10
129.355558
 20
115.6989449999999
 30
0.0
 11
127.155558
 21
115.6989449999999
 31
0.0
  0
LINE
  5
98D1
330
97F0
100
AcDbEntity
  8
4
  6
CENTER
100
AcDbLine
 10
138.666558
 20
113.198945
 30
0.0
 11
109.750558
 21
113.198945
 31
0.0
  0
LINE
  5
98D2
330
97F0
100
AcDbEntity
  8
1
  6
Continuous
100
AcDbLine
 10
127.755558
 20
115.6989449999999
 30
0.0
 11
127.755558
 21
108.6989449999999
 31
0.0
  0
LINE
  5
98D3
330
97F0
100
AcDbEntity
  8
1
  6
Continuous
100
AcDbLine
 10
128.4555579999999
 20
108.6989449999999
 30
0.0
 11
127.755558
 21
108.6989449999999
 31
0.0
  0
LINE
  5
98D4
330
97F0
100
AcDbEntity
  8
1
  6
Continuous
100
AcDbLine
 10
111.0555579999999
 20
117.6989449999999
 30
0.0
 11
111.0555579999999
 21
108.6989449999999
 31
0.0
  0
LINE
  5
98D5
330
97F0
100
AcDbEntity
  8
1
  6
Continuous
100
AcDbLine
 10
111.0555579999999
 20
117.6989449999999
 30
0.0
 11
112.0555579999999
 21
118.698945
 31
0.0
  0
LINE
  5
98D6
330
97F0
100
AcDbEntity
  8
1
  6
Continuous
100
AcDbLine
 10
111.0555579999999
 20
108.6989449999999
 30
0.0
 11
112.0555579999999
 21
107.6989449999999
 31
0.0
  0
LINE
  5
98D7
330
97F0
100
AcDbEntity
  8
1
  6
Continuous
100
AcDbLine
 10
137.0555579999999
 20
115.8989449999999
 30
0.0
 11
137.0555579999999
 21
110.4989449999999
 31
0.0
  0
LINE
  5
98D8
330
97F0
100
AcDbEntity
  8
1
  6
Continuous
100
AcDbLine
 10
129.655558
 20
119.498945
 30
0.0
 11
129.355558
 21
119.498945
 31
0.0
  0
LINE
  5
98D9
330
97F0
100
AcDbEntity
  8
1
  6
Continuous
100
AcDbLine
 10
129.655558
 20
105.4989449999999
 30
0.0
 11
128.4555579999999
 21
105.4989449999999
 31
0.0
  0
LINE
  5
98DA
330
97F0
100
AcDbEntity
  8
1
  6
Continuous
100
AcDbLine
 10
128.4555579999999
 20
115.6989449999999
 30
0.0
 11
128.4555579999999
 21
105.4989449999999
 31
0.0
  0
LINE
  5
98DB
330
97F0
100
AcDbEntity
  8
1
  6
Continuous
100
AcDbLine
 10
129.655558
 20
119.498945
 30
0.0
 11
129.655558
 21
105.4989449999999
 31
0.0
  0
LINE
  5
98DC
330
97F0
100
AcDbEntity
  8
1
  6
Continuous
100
AcDbLine
 10
129.655558
 20
115.6989449999999
 30
0.0
 11
129.355558
 21
115.6989449999999
 31
0.0
  0
LINE
  5
98DD
330
97F0
100
AcDbEntity
  8
1
  6
Continuous
100
AcDbLine
 10
205.9305579999999
 20
48.698745
 30
0.0
 11
204.4895579999999
 21
48.698745
 31
0.0
  0
LINE
  5
98DE
330
97F0
100
AcDbEntity
  8
1
  6
Continuous
100
AcDbLine
 10
205.9305579999999
 20
37.698745
 30
0.0
 11
204.4895579999999
 21
37.698745
 31
0.0
  0
LINE
  5
98DF
330
97F0
100
AcDbEntity
  8
1
  6
Continuous
100
AcDbLine
 10
206.2105579999999
 20
45.948745
 30
0.0
 11
206.2105579999999
 21
40.448745
 31
0.0
  0
LINE
  5
98E0
330
97F0
100
AcDbEntity
  8
1
  6
Continuous
100
AcDbLine
 10
204.2105579999999
 20
45.948745
 30
0.0
 11
204.2105579999999
 21
40.448745
 31
0.0
  0
LINE
  5
98E1
330
97F0
100
AcDbEntity
  8
1
  6
Continuous
100
AcDbLine
 10
205.9305579999999
 20
43.198745
 30
0.0
 11
204.4895579999999
 21
43.198745
 31
0.0
  0
LINE
  5
98E2
330
97F0
100
AcDbEntity
  8
1
  6
Continuous
100
AcDbLine
 10
176.922558
 20
54.197245
 30
0.0
 11
174.384558
 21
54.197245
 31
0.0
  0
LINE
  5
98E3
330
97F0
100
AcDbEntity
  8
1
  6
Continuous
100
AcDbLine
 10
176.922558
 20
32.200245
 30
0.0
 11
174.384558
 21
32.200245
 31
0.0
  0
LINE
  5
98E4
330
97F0
100
AcDbEntity
  8
1
  6
Continuous
100
AcDbLine
 10
174.384558
 20
54.197245
 30
0.0
 11
174.384558
 21
32.200245
 31
0.0
  0
LINE
  5
98E5
330
97F0
100
AcDbEntity
  8
1
  6
Continuous
100
AcDbLine
 10
177.884558
 20
48.698045
 30
0.0
 11
177.884558
 21
37.69944499999999
 31
0.0
  0
LINE
  5
98E6
330
97F0
100
AcDbEntity
  8
1
  6
Continuous
100
AcDbLine
 10
176.922558
 20
43.198745
 30
0.0
 11
174.384558
 21
43.198745
 31
0.0
  0
LINE
  5
98E7
330
97F0
100
AcDbEntity
  8
1
  6
Continuous
100
AcDbLine
 10
114.055558
 20
105.2989449999998
 30
0.0
 11
127.155558
 21
105.2989449999998
 31
0.0
  0
LINE
  5
98E8
330
97F0
100
AcDbEntity
  8
1
  6
Continuous
100
AcDbLine
 10
115.182558
 20
111.598945
 30
0.0
 11
127.155558
 21
111.598945
 31
0.0
  0
LINE
  5
98E9
330
97F0
100
AcDbEntity
  8
1
  6
Continuous
100
AcDbLine
 10
115.202558
 20
114.7989449999998
 30
0.0
 11
127.155558
 21
114.7989449999998
 31
0.0
  0
LINE
  5
98EA
330
97F0
100
AcDbEntity
  8
1
  6
Continuous
100
AcDbLine
 10
114.055558
 20
121.098945
 30
0.0
 11
129.355558
 21
121.098945
 31
0.0
  0
LINE
  5
98EB
330
97F0
100
AcDbEntity
  8
1
  6
Continuous
100
AcDbLine
 10
190.748558
 20
46.85314499999999
 30
0.0
 11
190.748558
 21
46.468045
 31
0.0
  0
LINE
  5
98EC
330
97F0
100
AcDbEntity
  8
1
  6
Continuous
100
AcDbLine
 10
192.748558
 20
46.495445
 30
0.0
 11
192.748558
 21
46.110245
 31
0.0
  0
LINE
  5
98ED
330
97F0
100
AcDbEntity
  8
1
  6
Continuous
100
AcDbLine
 10
191.3485579999999
 20
49.698745
 30
0.0
 11
191.3485579999999
 21
36.69874500000001
 31
0.0
  0
LINE
  5
98EE
330
97F0
100
AcDbEntity
  8
1
  6
Continuous
100
AcDbLine
 10
192.148558
 20
49.698745
 30
0.0
 11
192.148558
 21
36.69874500000001
 31
0.0
  0
LINE
  5
98EF
330
97F0
100
AcDbEntity
  8
1
  6
Continuous
100
AcDbLine
 10
191.3485579999999
 20
49.698745
 30
0.0
 11
192.148558
 21
49.698745
 31
0.0
  0
LINE
  5
98F0
330
97F0
100
AcDbEntity
  8
1
  6
Continuous
100
AcDbLine
 10
191.3485579999999
 20
36.69874500000001
 30
0.0
 11
192.148558
 21
36.69874500000001
 31
0.0
  0
LINE
  5
98F1
330
97F0
100
AcDbEntity
  8
1
  6
Continuous
100
AcDbLine
 10
190.748558
 20
46.85314499999999
 30
0.0
 11
191.3485579999999
 21
46.745845
 31
0.0
  0
LINE
  5
98F2
330
97F0
100
AcDbEntity
  8
1
  6
Continuous
100
AcDbLine
 10
191.147558
 20
45.716045
 30
0.0
 11
191.3485579999999
 21
45.62184499999999
 31
0.0
  0
LINE
  5
98F3
330
97F0
100
AcDbEntity
  8
1
  6
Continuous
100
AcDbLine
 10
191.227558
 20
43.89744499999999
 30
0.0
 11
191.3485579999999
 21
43.827245
 31
0.0
  0
LINE
  5
98F4
330
97F0
100
AcDbEntity
  8
1
  6
Continuous
100
AcDbLine
 10
190.748558
 20
41.518945
 30
0.0
 11
191.3485579999999
 21
41.238045
 31
0.0
  0
LINE
  5
98F5
330
97F0
100
AcDbEntity
  8
1
  6
Continuous
100
AcDbLine
 10
190.748558
 20
39.902045
 30
0.0
 11
191.3485579999999
 21
39.794645
 31
0.0
  0
LINE
  5
98F6
330
97F0
100
AcDbEntity
  8
1
  6
Continuous
100
AcDbLine
 10
190.748558
 20
46.468045
 30
0.0
 11
191.3485579999999
 21
46.36064499999998
 31
0.0
  0
LINE
  5
98F7
330
97F0
100
AcDbEntity
  8
1
  6
Continuous
100
AcDbLine
 10
190.7515579999999
 20
45.27084499999999
 30
0.0
 11
191.3485579999999
 21
44.991345
 31
0.0
  0
LINE
  5
98F8
330
97F0
100
AcDbEntity
  8
1
  6
Continuous
100
AcDbLine
 10
190.8285579999999
 20
43.204245
 30
0.0
 11
191.3485579999999
 21
42.902845
 31
0.0
  0
LINE
  5
98F9
330
97F0
100
AcDbEntity
  8
1
  6
Continuous
100
AcDbLine
 10
190.748558
 20
41.05774499999998
 30
0.0
 11
191.3485579999999
 21
40.77674499999999
 31
0.0
  0
LINE
  5
98FA
330
97F0
100
AcDbEntity
  8
1
  6
Continuous
100
AcDbLine
 10
190.748558
 20
39.523945
 30
0.0
 11
191.3485579999999
 21
39.416645
 31
0.0
  0
LINE
  5
98FB
330
97F0
100
AcDbEntity
  8
1
  6
Continuous
100
AcDbLine
 10
190.748558
 20
41.518945
 30
0.0
 11
190.748558
 21
41.05774499999998
 31
0.0
  0
LINE
  5
98FC
330
97F0
100
AcDbEntity
  8
1
  6
Continuous
100
AcDbLine
 10
190.748558
 20
39.902045
 30
0.0
 11
190.748558
 21
39.523945
 31
0.0
  0
LINE
  5
98FD
330
97F0
100
AcDbEntity
  8
1
  6
Continuous
100
AcDbLine
 10
190.7635579999999
 20
45.28404499999999
 30
0.0
 11
191.159558
 21
45.729245
 31
0.0
  0
LINE
  5
98FE
330
97F0
100
AcDbEntity
  8
1
  6
Continuous
100
AcDbLine
 10
192.353558
 20
44.52114499999999
 30
0.0
 11
192.748558
 21
44.966245
 31
0.0
  0
LINE
  5
98FF
330
97F0
100
AcDbEntity
  8
1
  6
Continuous
100
AcDbLine
 10
190.8285579999999
 20
43.204245
 30
0.0
 11
191.227558
 21
43.89744499999999
 31
0.0
  0
LINE
  5
9900
330
97F0
100
AcDbEntity
  8
1
  6
Continuous
100
AcDbLine
 10
192.8285579999999
 20
42.970945
 30
0.0
 11
192.523558
 21
42.22284499999999
 31
0.0
  0
LINE
  5
9901
330
97F0
100
AcDbEntity
  8
1
  6
Continuous
100
AcDbLine
 10
192.148558
 20
46.60274499999998
 30
0.0
 11
192.748558
 21
46.495445
 31
0.0
  0
LINE
  5
9902
330
97F0
100
AcDbEntity
  8
1
  6
Continuous
100
AcDbLine
 10
192.148558
 20
46.217645
 30
0.0
 11
192.748558
 21
46.110245
 31
0.0
  0
LINE
  5
9903
330
97F0
100
AcDbEntity
  8
1
  6
Continuous
100
AcDbLine
 10
192.148558
 20
45.247245
 30
0.0
 11
192.748558
 21
44.966245
 31
0.0
  0
LINE
  5
9904
330
97F0
100
AcDbEntity
  8
1
  6
Continuous
100
AcDbLine
 10
192.148558
 20
44.616645
 30
0.0
 11
192.353558
 21
44.52114499999999
 31
0.0
  0
LINE
  5
9905
330
97F0
100
AcDbEntity
  8
1
  6
Continuous
100
AcDbLine
 10
192.148558
 20
43.364145
 30
0.0
 11
192.8285579999999
 21
42.970945
 31
0.0
  0
LINE
  5
9906
330
97F0
100
AcDbEntity
  8
1
  6
Continuous
100
AcDbLine
 10
192.148558
 20
42.43984499999998
 30
0.0
 11
192.523558
 21
42.22284499999999
 31
0.0
  0
LINE
  5
9907
330
97F0
100
AcDbEntity
  8
1
  6
Continuous
100
AcDbLine
 10
192.148558
 20
40.863445
 30
0.0
 11
192.748558
 21
40.58244499999999
 31
0.0
  0
LINE
  5
9908
330
97F0
100
AcDbEntity
  8
1
  6
Continuous
100
AcDbLine
 10
192.148558
 20
40.402145
 30
0.0
 11
192.362558
 21
40.302245
 31
0.0
  0
LINE
  5
9909
330
97F0
100
AcDbEntity
  8
1
  6
Continuous
100
AcDbLine
 10
192.148558
 20
39.651645
 30
0.0
 11
192.748558
 21
39.544245
 31
0.0
  0
LINE
  5
990A
330
97F0
100
AcDbEntity
  8
1
  6
Continuous
100
AcDbLine
 10
192.148558
 20
39.27354499999999
 30
0.0
 11
192.339558
 21
39.23944500000001
 31
0.0
  0
LINE
  5
990B
330
97F0
100
AcDbEntity
  8
1
  6
Continuous
100
AcDbLine
 10
129.655558
 20
110.4989449999999
 30
0.0
 11
137.0555579999999
 21
110.4989449999999
 31
0.0
  0
LINE
  5
990C
330
97F0
100
AcDbEntity
  8
1
  6
Continuous
100
AcDbLine
 10
129.655558
 20
115.8989449999999
 30
0.0
 11
137.0555579999999
 21
115.8989449999999
 31
0.0
  0
LINE
  5
990D
330
97F0
100
AcDbEntity
  8
1
  6
Continuous
100
AcDbLine
 10
129.355558
 20
175.498945
 30
0.0
 11
129.655558
 21
175.498945
 31
0.0
  0
LINE
  5
990E
330
97F0
100
AcDbEntity
  8
1
  6
Continuous
100
AcDbLine
 10
129.355558
 20
189.4989449999999
 30
0.0
 11
129.655558
 21
189.4989449999999
 31
0.0
  0
LINE
  5
990F
330
97F0
100
AcDbEntity
  8
1
  6
Continuous
100
AcDbLine
 10
129.355558
 20
177.4159449999999
 30
0.0
 11
129.655558
 21
177.4159449999999
 31
0.0
  0
LINE
  5
9910
330
97F0
100
AcDbEntity
  8
1
  6
Continuous
100
AcDbLine
 10
129.355558
 20
175.915945
 30
0.0
 11
129.655558
 21
175.915945
 31
0.0
  0
LINE
  5
9911
330
97F0
100
AcDbEntity
  8
1
  6
Continuous
100
AcDbLine
 10
129.655558
 20
175.498945
 30
0.0
 11
129.655558
 21
189.4989449999999
 31
0.0
  0
LINE
  5
9912
330
97F0
100
AcDbEntity
  8
2
  6
Continuous
100
AcDbLine
 10
129.955558
 20
46.292745
 30
0.0
 11
136.4615579999999
 21
46.292745
 31
0.0
  0
LINE
  5
9913
330
97F0
100
AcDbEntity
  8
2
  6
Continuous
100
AcDbLine
 10
129.955558
 20
40.10474499999999
 30
0.0
 11
136.4615579999999
 21
40.10474499999999
 31
0.0
  0
LINE
  5
9914
330
97F0
100
AcDbEntity
  8
2
  6
Continuous
100
AcDbLine
 10
129.655558
 20
39.931545
 30
0.0
 11
129.955558
 21
40.10474499999999
 31
0.0
  0
LINE
  5
9915
330
97F0
100
AcDbEntity
  8
2
  6
Continuous
100
AcDbLine
 10
129.655558
 20
46.46594499999999
 30
0.0
 11
129.955558
 21
46.292745
 31
0.0
  0
LINE
  5
9916
330
97F0
100
AcDbEntity
  8
2
  6
Continuous
100
AcDbLine
 10
115.055558
 20
34.240245
 30
0.0
 11
124.652558
 21
34.240245
 31
0.0
  0
LINE
  5
9917
330
97F0
100
AcDbEntity
  8
2
  6
Continuous
100
AcDbLine
 10
115.055558
 20
52.157245
 30
0.0
 11
124.652558
 21
52.157245
 31
0.0
  0
LINE
  5
9918
330
97F0
100
AcDbEntity
  8
2
  6
Continuous
100
AcDbLine
 10
114.117558
 20
52.698745
 30
0.0
 11
115.055558
 21
52.157245
 31
0.0
  0
LINE
  5
9919
330
97F0
100
AcDbEntity
  8
2
  6
Continuous
100
AcDbLine
 10
114.117558
 20
33.698745
 30
0.0
 11
115.055558
 21
34.240245
 31
0.0
  0
LINE
  5
991A
330
97F0
100
AcDbEntity
  8
1
  6
Continuous
100
AcDbLine
 10
129.655558
 20
42.14874499999999
 30
0.0
 11
137.0555579999999
 21
42.14874499999999
 31
0.0
  0
LINE
  5
991B
330
97F0
100
AcDbEntity
  8
1
  6
Continuous
100
AcDbLine
 10
129.655558
 20
44.248745
 30
0.0
 11
137.0555579999999
 21
44.248745
 31
0.0
  0
LINE
  5
991C
330
97F0
100
AcDbEntity
  8
1
  6
Continuous
100
AcDbLine
 10
129.355558
 20
50.903245
 30
0.0
 11
129.355558
 21
50.898745
 31
0.0
  0
LINE
  5
991D
330
97F0
100
AcDbEntity
  8
4
  6
CENTER
100
AcDbLine
 10
171.0255579999999
 20
113.198945
 30
0.0
 11
209.143558
 21
113.198945
 31
0.0
  0
LINE
  5
991E
330
97F0
100
AcDbEntity
  8
1
  6
Continuous
100
AcDbLine
 10
265.050558
 20
100.4969449999999
 30
0.0
 11
276.050558
 21
106.8479449999999
 31
0.0
  0
LINE
  5
991F
330
97F0
100
AcDbEntity
  8
1
  6
Continuous
100
AcDbLine
 10
254.050558
 20
119.549945
 30
0.0
 11
265.050558
 21
125.899945
 31
0.0
  0
LINE
  5
9920
330
97F0
100
AcDbEntity
  8
1
  6
Continuous
100
AcDbLine
 10
276.050558
 20
119.549945
 30
0.0
 11
276.050558
 21
106.8479449999999
 31
0.0
  0
LINE
  5
9921
330
97F0
100
AcDbEntity
  8
1
  6
Continuous
100
AcDbLine
 10
254.050558
 20
119.549945
 30
0.0
 11
254.050558
 21
106.8479449999999
 31
0.0
  0
LINE
  5
9922
330
97F0
100
AcDbEntity
  8
1
  6
Continuous
100
AcDbLine
 10
265.050558
 20
125.899945
 30
0.0
 11
276.050558
 21
119.549945
 31
0.0
  0
LINE
  5
9923
330
97F0
100
AcDbEntity
  8
1
  6
Continuous
100
AcDbLine
 10
254.050558
 20
106.8479449999999
 30
0.0
 11
265.050558
 21
100.4969449999999
 31
0.0
  0
LINE
  5
9924
330
97F0
100
AcDbEntity
  8
1
  6
Continuous
100
AcDbLine
 10
41.226358
 20
119.549945
 30
0.0
 11
41.226358
 21
106.8479449999999
 31
0.0
  0
LINE
  5
9925
330
97F0
100
AcDbEntity
  8
1
  6
Continuous
100
AcDbLine
 10
41.226358
 20
106.8479449999999
 30
0.0
 11
30.226358
 21
100.4969449999999
 31
0.0
  0
LINE
  5
9926
330
97F0
100
AcDbEntity
  8
1
  6
Continuous
100
AcDbLine
 10
41.226358
 20
119.549945
 30
0.0
 11
30.226358
 21
125.9009449999998
 31
0.0
  0
LINE
  5
9927
330
97F0
100
AcDbEntity
  8
1
  6
Continuous
100
AcDbLine
 10
30.226358
 20
125.9009449999998
 30
0.0
 11
19.22635799999999
 21
119.549945
 31
0.0
  0
LINE
  5
9928
330
97F0
100
AcDbEntity
  8
1
  6
Continuous
100
AcDbLine
 10
19.22635799999999
 20
119.549945
 30
0.0
 11
19.22635799999999
 21
106.8479449999999
 31
0.0
  0
LINE
  5
9929
330
97F0
100
AcDbEntity
  8
1
  6
Continuous
100
AcDbLine
 10
30.226358
 20
100.4969449999999
 30
0.0
 11
19.22635799999999
 21
106.8479449999999
 31
0.0
  0
LINE
  5
992A
330
97F0
100
AcDbEntity
  8
1
  6
Continuous
100
AcDbLine
 10
114.055558
 20
102.1989449999999
 30
0.0
 11
113.055558
 21
102.1989449999999
 31
0.0
  0
LINE
  5
992B
330
97F0
100
AcDbEntity
  8
1
  6
Continuous
100
AcDbLine
 10
114.055558
 20
124.1989449999999
 30
0.0
 11
113.055558
 21
124.1989449999999
 31
0.0
  0
LINE
  5
992C
330
97F0
100
AcDbEntity
  8
1
  6
Continuous
100
AcDbLine
 10
113.055558
 20
124.1989449999999
 30
0.0
 11
112.0555579999999
 21
123.1989449999999
 31
0.0
  0
LINE
  5
992D
330
97F0
100
AcDbEntity
  8
1
  6
Continuous
100
AcDbLine
 10
112.0555579999999
 20
103.1989449999999
 30
0.0
 11
113.055558
 21
102.1989449999999
 31
0.0
  0
LINE
  5
992E
330
97F0
100
AcDbEntity
  8
1
  6
Continuous
100
AcDbLine
 10
114.055558
 20
194.198945
 30
0.0
 11
114.055558
 21
172.198945
 31
0.0
  0
LINE
  5
992F
330
97F0
100
AcDbEntity
  8
1
  6
Continuous
100
AcDbLine
 10
112.0555579999999
 20
173.198945
 30
0.0
 11
112.0555579999999
 21
193.198945
 31
0.0
  0
LINE
  5
9930
330
97F0
100
AcDbEntity
  8
1
  6
Continuous
100
AcDbLine
 10
115.055558
 20
173.710945
 30
0.0
 11
115.055558
 21
177.922945
 31
0.0
  0
LINE
  5
9931
330
97F0
100
AcDbEntity
  8
4
  6
CENTER
100
AcDbLine
 10
108.598558
 20
183.198945
 30
0.0
 11
140.195558
 21
183.198945
 31
0.0
  0
LINE
  5
9932
330
97F0
100
AcDbEntity
  8
1
  6
Continuous
100
AcDbLine
 10
124.055558
 20
173.710945
 30
0.0
 11
124.055558
 21
177.922945
 31
0.0
  0
LINE
  5
9933
330
97F0
100
AcDbEntity
  8
1
  6
Continuous
100
AcDbLine
 10
125.055558
 20
174.5989449999999
 30
0.0
 11
125.055558
 21
178.897945
 31
0.0
  0
LINE
  5
9934
330
97F0
100
AcDbEntity
  8
1
  6
Continuous
100
AcDbLine
 10
126.354558
 20
174.5989449999999
 30
0.0
 11
126.354558
 21
178.897945
 31
0.0
  0
LINE
  5
9935
330
97F0
100
AcDbEntity
  8
1
  6
Continuous
100
AcDbLine
 10
125.055558
 20
178.922945
 30
0.0
 11
124.055558
 21
177.922945
 31
0.0
  0
LINE
  5
9936
330
97F0
100
AcDbEntity
  8
1
  6
Continuous
100
AcDbLine
 10
126.354558
 20
178.897945
 30
0.0
 11
125.030558
 21
178.897945
 31
0.0
  0
LINE
  5
9937
330
97F0
100
AcDbEntity
  8
1
  6
Continuous
100
AcDbLine
 10
126.354558
 20
178.922945
 30
0.0
 11
127.155558
 21
179.3849449999999
 31
0.0
  0
LINE
  5
9938
330
97F0
100
AcDbEntity
  8
2
  6
Continuous
100
AcDbLine
 10
126.354558
 20
178.897945
 30
0.0
 11
114.055558
 21
188.4749449999999
 31
0.0
  0
LINE
  5
9939
330
97F0
100
AcDbEntity
  8
1
  6
Continuous
100
AcDbLine
 10
125.055558
 20
174.5989449999999
 30
0.0
 11
126.354558
 21
174.5989449999999
 31
0.0
  0
LINE
  5
993A
330
97F0
100
AcDbEntity
  8
1
  6
Continuous
100
AcDbLine
 10
125.055558
 20
174.5989449999999
 30
0.0
 11
124.0435579999999
 21
173.698945
 31
0.0
  0
LINE
  5
993B
330
97F0
100
AcDbEntity
  8
1
  6
Continuous
100
AcDbLine
 10
126.354558
 20
174.5989449999999
 30
0.0
 11
127.155558
 21
175.188945
 31
0.0
  0
LINE
  5
993C
330
97F0
100
AcDbEntity
  8
1
  6
Continuous
100
AcDbLine
 10
115.055558
 20
192.686945
 30
0.0
 11
115.055558
 21
188.4749449999999
 31
0.0
  0
LINE
  5
993D
330
97F0
100
AcDbEntity
  8
1
  6
Continuous
100
AcDbLine
 10
124.055558
 20
192.686945
 30
0.0
 11
124.055558
 21
188.4749449999999
 31
0.0
  0
LINE
  5
993E
330
97F0
100
AcDbEntity
  8
1
  6
Continuous
100
AcDbLine
 10
125.055558
 20
191.798945
 30
0.0
 11
125.055558
 21
187.4999449999999
 31
0.0
  0
LINE
  5
993F
330
97F0
100
AcDbEntity
  8
1
  6
Continuous
100
AcDbLine
 10
126.354558
 20
191.798945
 30
0.0
 11
126.354558
 21
187.4999449999999
 31
0.0
  0
LINE
  5
9940
330
97F0
100
AcDbEntity
  8
1
  6
Continuous
100
AcDbLine
 10
125.055558
 20
187.4749449999999
 30
0.0
 11
124.055558
 21
188.4749449999999
 31
0.0
  0
LINE
  5
9941
330
97F0
100
AcDbEntity
  8
1
  6
Continuous
100
AcDbLine
 10
126.354558
 20
187.4999449999999
 30
0.0
 11
125.030558
 21
187.4999449999999
 31
0.0
  0
LINE
  5
9942
330
97F0
100
AcDbEntity
  8
1
  6
Continuous
100
AcDbLine
 10
126.354558
 20
187.4749449999999
 30
0.0
 11
127.155558
 21
187.012945
 31
0.0
  0
LINE
  5
9943
330
97F0
100
AcDbEntity
  8
1
  6
Continuous
100
AcDbLine
 10
129.355558
 20
190.902945
 30
0.0
 11
129.355558
 21
175.493945
 31
0.0
  0
LINE
  5
9944
330
97F0
100
AcDbEntity
  8
1
  6
Continuous
100
AcDbLine
 10
125.055558
 20
191.798945
 30
0.0
 11
126.354558
 21
191.798945
 31
0.0
  0
LINE
  5
9945
330
97F0
100
AcDbEntity
  8
1
  6
Continuous
100
AcDbLine
 10
125.055558
 20
191.798945
 30
0.0
 11
124.0435579999999
 21
192.698945
 31
0.0
  0
LINE
  5
9946
330
97F0
100
AcDbEntity
  8
1
  6
Continuous
100
AcDbLine
 10
126.354558
 20
191.798945
 30
0.0
 11
127.155558
 21
191.208945
 31
0.0
  0
LINE
  5
9947
330
97F0
100
AcDbEntity
  8
1
  6
Continuous
100
AcDbLine
 10
113.055558
 20
194.198945
 30
0.0
 11
114.055558
 21
194.198945
 31
0.0
  0
LINE
  5
9948
330
97F0
100
AcDbEntity
  8
1
  6
Continuous
100
AcDbLine
 10
113.055558
 20
172.198945
 30
0.0
 11
114.055558
 21
172.198945
 31
0.0
  0
LINE
  5
9949
330
97F0
100
AcDbEntity
  8
1
  6
Continuous
100
AcDbLine
 10
113.055558
 20
172.198945
 30
0.0
 11
112.0555579999999
 21
173.198945
 31
0.0
  0
LINE
  5
994A
330
97F0
100
AcDbEntity
  8
1
  6
Continuous
100
AcDbLine
 10
112.0555579999999
 20
193.198945
 30
0.0
 11
113.055558
 21
194.198945
 31
0.0
  0
LINE
  5
994B
330
97F0
100
AcDbEntity
  8
1
  6
Continuous
100
AcDbLine
 10
113.055558
 20
172.198945
 30
0.0
 11
113.055558
 21
194.198945
 31
0.0
  0
LINE
  5
994C
330
97F0
100
AcDbEntity
  8
1
  6
Continuous
100
AcDbLine
 10
127.155558
 20
175.188945
 30
0.0
 11
127.155558
 21
191.208945
 31
0.0
  0
LINE
  5
994D
330
97F0
100
AcDbEntity
  8
1
  6
Continuous
100
AcDbLine
 10
111.0555579999999
 20
178.698945
 30
0.0
 11
111.0555579999999
 21
181.948945
 31
0.0
  0
LINE
  5
994E
330
97F0
100
AcDbEntity
  8
1
  6
Continuous
100
AcDbLine
 10
111.0555579999999
 20
178.698945
 30
0.0
 11
112.0555579999999
 21
177.698945
 31
0.0
  0
LINE
  5
994F
330
97F0
100
AcDbEntity
  8
1
  6
Continuous
100
AcDbLine
 10
111.0555579999999
 20
187.698945
 30
0.0
 11
112.0555579999999
 21
188.698945
 31
0.0
  0
LINE
  5
9950
330
97F0
100
AcDbEntity
  8
1
  6
Continuous
100
AcDbLine
 10
111.0555579999999
 20
181.948945
 30
0.0
 11
111.555558
 21
181.948945
 31
0.0
  0
LINE
  5
9951
330
97F0
100
AcDbEntity
  8
1
  6
Continuous
100
AcDbLine
 10
111.555558
 20
184.448945
 30
0.0
 11
111.0555579999999
 21
184.448945
 31
0.0
  0
LINE
  5
9952
330
97F0
100
AcDbEntity
  8
1
  6
Continuous
100
AcDbLine
 10
111.555558
 20
181.948945
 30
0.0
 11
111.555558
 21
184.448945
 31
0.0
  0
LINE
  5
9953
330
97F0
100
AcDbEntity
  8
1
  6
Continuous
100
AcDbLine
 10
111.0555579999999
 20
184.448945
 30
0.0
 11
111.0555579999999
 21
187.698945
 31
0.0
  0
LINE
  5
9954
330
97F0
100
AcDbEntity
  8
1
  6
Continuous
100
AcDbLine
 10
137.0555579999999
 20
180.698945
 30
0.0
 11
137.0555579999999
 21
185.698945
 31
0.0
  0
LINE
  5
9955
330
97F0
100
AcDbEntity
  8
1
  6
Continuous
100
AcDbLine
 10
114.055558
 20
173.698945
 30
0.0
 11
124.0435579999999
 21
173.698945
 31
0.0
  0
LINE
  5
9956
330
97F0
100
AcDbEntity
  8
1
  6
Continuous
100
AcDbLine
 10
114.055558
 20
177.922945
 30
0.0
 11
124.055558
 21
177.922945
 31
0.0
  0
LINE
  5
9957
330
97F0
100
AcDbEntity
  8
2
  6
Continuous
100
AcDbLine
 10
114.055558
 20
177.922945
 30
0.0
 11
126.354558
 21
187.4999449999999
 31
0.0
  0
LINE
  5
9958
330
97F0
100
AcDbEntity
  8
1
  6
Continuous
100
AcDbLine
 10
114.055558
 20
188.4749449999999
 30
0.0
 11
124.055558
 21
188.4749449999999
 31
0.0
  0
LINE
  5
9959
330
97F0
100
AcDbEntity
  8
1
  6
Continuous
100
AcDbLine
 10
114.055558
 20
192.698945
 30
0.0
 11
124.0435579999999
 21
192.698945
 31
0.0
  0
LINE
  5
995A
330
97F0
100
AcDbEntity
  8
1
  6
Continuous
100
AcDbLine
 10
127.155558
 20
175.493945
 30
0.0
 11
129.355558
 21
175.493945
 31
0.0
  0
LINE
  5
995B
330
97F0
100
AcDbEntity
  8
1
  6
Continuous
100
AcDbLine
 10
127.155558
 20
190.902945
 30
0.0
 11
129.355558
 21
190.902945
 31
0.0
  0
LINE
  5
995C
330
97F0
100
AcDbEntity
  8
1
  6
Continuous
100
AcDbLine
 10
129.655558
 20
186.698945
 30
0.0
 11
136.0555579999999
 21
186.698945
 31
0.0
  0
LINE
  5
995D
330
97F0
100
AcDbEntity
  8
1
  6
Continuous
100
AcDbLine
 10
129.655558
 20
179.698945
 30
0.0
 11
136.0555579999999
 21
179.698945
 31
0.0
  0
LINE
  5
995E
330
97F0
100
AcDbEntity
  8
1
  6
Continuous
100
AcDbLine
 10
137.0555579999999
 20
180.698945
 30
0.0
 11
136.0555579999999
 21
179.698945
 31
0.0
  0
LINE
  5
995F
330
97F0
100
AcDbEntity
  8
1
  6
Continuous
100
AcDbLine
 10
136.0555579999999
 20
186.698945
 30
0.0
 11
137.0555579999999
 21
185.698945
 31
0.0
  0
LINE
  5
9960
330
97F0
100
AcDbEntity
  8
1
  6
Continuous
100
AcDbLine
 10
137.0555579999999
 20
180.698945
 30
0.0
 11
129.655558
 21
180.698945
 31
0.0
  0
LINE
  5
9961
330
97F0
100
AcDbEntity
  8
1
  6
Continuous
100
AcDbLine
 10
137.0555579999999
 20
185.698945
 30
0.0
 11
129.655558
 21
185.698945
 31
0.0
  0
LINE
  5
9962
330
97F0
100
AcDbEntity
  8
1
  6
Continuous
100
AcDbLine
 10
136.0555579999999
 20
179.698945
 30
0.0
 11
136.0555579999999
 21
180.698945
 31
0.0
  0
LINE
  5
9963
330
97F0
100
AcDbEntity
  8
1
  6
Continuous
100
AcDbLine
 10
136.0555579999999
 20
186.698945
 30
0.0
 11
136.0555579999999
 21
185.698945
 31
0.0
  0
LINE
  5
9964
330
97F0
100
AcDbEntity
  8
1
  6
Continuous
100
AcDbLine
 10
129.955558
 20
180.698945
 30
0.0
 11
129.955558
 21
179.698945
 31
0.0
  0
LINE
  5
9965
330
97F0
100
AcDbEntity
  8
1
  6
Continuous
100
AcDbLine
 10
129.955558
 20
185.698945
 30
0.0
 11
129.955558
 21
186.698945
 31
0.0
  0
LINE
  5
9966
330
97F0
100
AcDbEntity
  8
2
  6
Continuous
100
AcDbLine
 10
137.0555579999999
 20
180.698945
 30
0.0
 11
129.655558
 21
185.0009449999998
 31
0.0
  0
LINE
  5
9967
330
97F0
100
AcDbEntity
  8
2
  6
Continuous
100
AcDbLine
 10
129.655558
 20
181.3959449999999
 30
0.0
 11
137.0555579999999
 21
185.698945
 31
0.0
  0
LINE
  5
9968
330
97F0
100
AcDbEntity
  8
2
  6
Continuous
100
AcDbLine
 10
129.955558
 20
180.1049449999999
 30
0.0
 11
136.4615579999999
 21
180.1049449999999
 31
0.0
  0
LINE
  5
9969
330
97F0
100
AcDbEntity
  8
2
  6
Continuous
100
AcDbLine
 10
129.955558
 20
186.292945
 30
0.0
 11
136.4615579999999
 21
186.292945
 31
0.0
  0
LINE
  5
996A
330
97F0
100
AcDbEntity
  8
2
  6
Continuous
100
AcDbLine
 10
129.655558
 20
186.4659449999998
 30
0.0
 11
129.955558
 21
186.292945
 31
0.0
  0
LINE
  5
996B
330
97F0
100
AcDbEntity
  8
2
  6
Continuous
100
AcDbLine
 10
129.655558
 20
179.9319449999999
 30
0.0
 11
129.955558
 21
180.1049449999999
 31
0.0
  0
LINE
  5
996C
330
97F0
100
AcDbEntity
  8
2
  6
Continuous
100
AcDbLine
 10
115.055558
 20
192.1569449999998
 30
0.0
 11
124.652558
 21
192.1569449999998
 31
0.0
  0
LINE
  5
996D
330
97F0
100
AcDbEntity
  8
2
  6
Continuous
100
AcDbLine
 10
115.055558
 20
174.239945
 30
0.0
 11
124.652558
 21
174.239945
 31
0.0
  0
LINE
  5
996E
330
97F0
100
AcDbEntity
  8
2
  6
Continuous
100
AcDbLine
 10
114.117558
 20
173.698945
 30
0.0
 11
115.055558
 21
174.239945
 31
0.0
  0
LINE
  5
996F
330
97F0
100
AcDbEntity
  8
2
  6
Continuous
100
AcDbLine
 10
114.117558
 20
192.698945
 30
0.0
 11
115.055558
 21
192.1569449999998
 31
0.0
  0
LINE
  5
9970
330
97F0
100
AcDbEntity
  8
4
  6
CENTER
100
AcDbLine
 10
171.0255579999999
 20
183.198945
 30
0.0
 11
209.143558
 21
183.198945
 31
0.0
  0
LINE
  5
9971
330
97F0
100
AcDbEntity
  8
1
  6
Continuous
100
AcDbLine
 10
205.9305579999999
 20
188.698945
 30
0.0
 11
204.4895579999999
 21
188.698945
 31
0.0
  0
LINE
  5
9972
330
97F0
100
AcDbEntity
  8
1
  6
Continuous
100
AcDbLine
 10
205.9305579999999
 20
177.698945
 30
0.0
 11
204.4895579999999
 21
177.698945
 31
0.0
  0
LINE
  5
9973
330
97F0
100
AcDbEntity
  8
1
  6
Continuous
100
AcDbLine
 10
206.2105579999999
 20
185.948945
 30
0.0
 11
206.2105579999999
 21
180.448945
 31
0.0
  0
LINE
  5
9974
330
97F0
100
AcDbEntity
  8
1
  6
Continuous
100
AcDbLine
 10
204.2105579999999
 20
185.948945
 30
0.0
 11
204.2105579999999
 21
180.448945
 31
0.0
  0
LINE
  5
9975
330
97F0
100
AcDbEntity
  8
1
  6
Continuous
100
AcDbLine
 10
205.9305579999999
 20
183.198945
 30
0.0
 11
204.4895579999999
 21
183.198945
 31
0.0
  0
LINE
  5
9976
330
97F0
100
AcDbEntity
  8
1
  6
Continuous
100
AcDbLine
 10
176.922558
 20
194.196945
 30
0.0
 11
174.384558
 21
194.196945
 31
0.0
  0
LINE
  5
9977
330
97F0
100
AcDbEntity
  8
1
  6
Continuous
100
AcDbLine
 10
176.922558
 20
172.199945
 30
0.0
 11
174.384558
 21
172.199945
 31
0.0
  0
LINE
  5
9978
330
97F0
100
AcDbEntity
  8
1
  6
Continuous
100
AcDbLine
 10
174.384558
 20
194.196945
 30
0.0
 11
174.384558
 21
172.199945
 31
0.0
  0
LINE
  5
9979
330
97F0
100
AcDbEntity
  8
1
  6
Continuous
100
AcDbLine
 10
177.884558
 20
188.697945
 30
0.0
 11
177.884558
 21
177.6999449999999
 31
0.0
  0
LINE
  5
997A
330
97F0
100
AcDbEntity
  8
1
  6
Continuous
100
AcDbLine
 10
176.922558
 20
183.198945
 30
0.0
 11
174.384558
 21
183.198945
 31
0.0
  0
LINE
  5
997B
330
97F0
100
AcDbEntity
  8
1
  6
Continuous
100
AcDbLine
 10
190.748558
 20
186.852945
 30
0.0
 11
190.748558
 21
186.4679449999999
 31
0.0
  0
LINE
  5
997C
330
97F0
100
AcDbEntity
  8
1
  6
Continuous
100
AcDbLine
 10
192.748558
 20
186.495945
 30
0.0
 11
192.748558
 21
186.1099449999999
 31
0.0
  0
LINE
  5
997D
330
97F0
100
AcDbEntity
  8
1
  6
Continuous
100
AcDbLine
 10
191.3485579999999
 20
189.698945
 30
0.0
 11
191.3485579999999
 21
176.698945
 31
0.0
  0
LINE
  5
997E
330
97F0
100
AcDbEntity
  8
1
  6
Continuous
100
AcDbLine
 10
192.148558
 20
189.698945
 30
0.0
 11
192.148558
 21
176.698945
 31
0.0
  0
LINE
  5
997F
330
97F0
100
AcDbEntity
  8
1
  6
Continuous
100
AcDbLine
 10
191.3485579999999
 20
189.698945
 30
0.0
 11
192.148558
 21
189.698945
 31
0.0
  0
LINE
  5
9980
330
97F0
100
AcDbEntity
  8
1
  6
Continuous
100
AcDbLine
 10
191.3485579999999
 20
176.698945
 30
0.0
 11
192.148558
 21
176.698945
 31
0.0
  0
LINE
  5
9981
330
97F0
100
AcDbEntity
  8
1
  6
Continuous
100
AcDbLine
 10
190.748558
 20
186.852945
 30
0.0
 11
191.3485579999999
 21
186.745945
 31
0.0
  0
LINE
  5
9982
330
97F0
100
AcDbEntity
  8
1
  6
Continuous
100
AcDbLine
 10
191.147558
 20
185.715945
 30
0.0
 11
191.3485579999999
 21
185.6219449999999
 31
0.0
  0
LINE
  5
9983
330
97F0
100
AcDbEntity
  8
1
  6
Continuous
100
AcDbLine
 10
191.227558
 20
183.897945
 30
0.0
 11
191.3485579999999
 21
183.826945
 31
0.0
  0
LINE
  5
9984
330
97F0
100
AcDbEntity
  8
1
  6
Continuous
100
AcDbLine
 10
190.748558
 20
181.518945
 30
0.0
 11
191.3485579999999
 21
181.2379449999999
 31
0.0
  0
LINE
  5
9985
330
97F0
100
AcDbEntity
  8
1
  6
Continuous
100
AcDbLine
 10
190.748558
 20
179.9019449999999
 30
0.0
 11
191.3485579999999
 21
179.7949449999999
 31
0.0
  0
LINE
  5
9986
330
97F0
100
AcDbEntity
  8
1
  6
Continuous
100
AcDbLine
 10
190.748558
 20
186.4679449999999
 30
0.0
 11
191.3485579999999
 21
186.360945
 31
0.0
  0
LINE
  5
9987
330
97F0
100
AcDbEntity
  8
1
  6
Continuous
100
AcDbLine
 10
190.7515579999999
 20
185.2709449999999
 30
0.0
 11
191.3485579999999
 21
184.9909449999999
 31
0.0
  0
LINE
  5
9988
330
97F0
100
AcDbEntity
  8
1
  6
Continuous
100
AcDbLine
 10
190.8285579999999
 20
183.203945
 30
0.0
 11
191.3485579999999
 21
182.9029449999999
 31
0.0
  0
LINE
  5
9989
330
97F0
100
AcDbEntity
  8
1
  6
Continuous
100
AcDbLine
 10
190.748558
 20
181.0579449999999
 30
0.0
 11
191.3485579999999
 21
180.7769449999999
 31
0.0
  0
LINE
  5
998A
330
97F0
100
AcDbEntity
  8
1
  6
Continuous
100
AcDbLine
 10
190.748558
 20
179.5239449999999
 30
0.0
 11
191.3485579999999
 21
179.416945
 31
0.0
  0
LINE
  5
998B
330
97F0
100
AcDbEntity
  8
1
  6
Continuous
100
AcDbLine
 10
190.748558
 20
181.518945
 30
0.0
 11
190.748558
 21
181.0579449999999
 31
0.0
  0
LINE
  5
998C
330
97F0
100
AcDbEntity
  8
1
  6
Continuous
100
AcDbLine
 10
190.748558
 20
179.9019449999999
 30
0.0
 11
190.748558
 21
179.5239449999999
 31
0.0
  0
LINE
  5
998D
330
97F0
100
AcDbEntity
  8
1
  6
Continuous
100
AcDbLine
 10
190.7635579999999
 20
185.2839449999999
 30
0.0
 11
191.159558
 21
185.7289449999999
 31
0.0
  0
LINE
  5
998E
330
97F0
100
AcDbEntity
  8
1
  6
Continuous
100
AcDbLine
 10
192.353558
 20
184.5209449999999
 30
0.0
 11
192.748558
 21
184.965945
 31
0.0
  0
LINE
  5
998F
330
97F0
100
AcDbEntity
  8
1
  6
Continuous
100
AcDbLine
 10
190.8285579999999
 20
183.203945
 30
0.0
 11
191.227558
 21
183.897945
 31
0.0
  0
LINE
  5
9990
330
97F0
100
AcDbEntity
  8
1
  6
Continuous
100
AcDbLine
 10
192.8285579999999
 20
182.970945
 30
0.0
 11
192.523558
 21
182.2229449999999
 31
0.0
  0
LINE
  5
9991
330
97F0
100
AcDbEntity
  8
1
  6
Continuous
100
AcDbLine
 10
192.148558
 20
186.602945
 30
0.0
 11
192.748558
 21
186.495945
 31
0.0
  0
LINE
  5
9992
330
97F0
100
AcDbEntity
  8
1
  6
Continuous
100
AcDbLine
 10
192.148558
 20
186.217945
 30
0.0
 11
192.748558
 21
186.1099449999999
 31
0.0
  0
LINE
  5
9993
330
97F0
100
AcDbEntity
  8
1
  6
Continuous
100
AcDbLine
 10
192.148558
 20
185.2469449999999
 30
0.0
 11
192.748558
 21
184.965945
 31
0.0
  0
LINE
  5
9994
330
97F0
100
AcDbEntity
  8
1
  6
Continuous
100
AcDbLine
 10
192.148558
 20
184.6169449999999
 30
0.0
 11
192.353558
 21
184.5209449999999
 31
0.0
  0
LINE
  5
9995
330
97F0
100
AcDbEntity
  8
1
  6
Continuous
100
AcDbLine
 10
192.148558
 20
183.3639449999998
 30
0.0
 11
192.8285579999999
 21
182.970945
 31
0.0
  0
LINE
  5
9996
330
97F0
100
AcDbEntity
  8
1
  6
Continuous
100
AcDbLine
 10
192.148558
 20
182.4399449999999
 30
0.0
 11
192.523558
 21
182.2229449999999
 31
0.0
  0
LINE
  5
9997
330
97F0
100
AcDbEntity
  8
1
  6
Continuous
100
AcDbLine
 10
192.148558
 20
180.863945
 30
0.0
 11
192.748558
 21
180.582945
 31
0.0
  0
LINE
  5
9998
330
97F0
100
AcDbEntity
  8
1
  6
Continuous
100
AcDbLine
 10
192.148558
 20
180.401945
 30
0.0
 11
192.362558
 21
180.3019449999999
 31
0.0
  0
LINE
  5
9999
330
97F0
100
AcDbEntity
  8
1
  6
Continuous
100
AcDbLine
 10
192.148558
 20
179.6519449999999
 30
0.0
 11
192.748558
 21
179.543945
 31
0.0
  0
LINE
  5
999A
330
97F0
100
AcDbEntity
  8
1
  6
Continuous
100
AcDbLine
 10
192.148558
 20
179.273945
 30
0.0
 11
192.339558
 21
179.239945
 31
0.0
  0
CIRCLE
  5
999B
330
97F0
100
AcDbEntity
  8
1
  6
Continuous
100
AcDbCircle
 10
30.226358
 20
113.198945
 30
0.0
 40
10.0
  0
CIRCLE
  5
999C
330
97F0
100
AcDbEntity
  8
1
  6
Continuous
100
AcDbCircle
 10
30.226358
 20
113.198945
 30
0.0
 40
11.0
  0
ARC
  5
999D
330
97F0
100
AcDbEntity
  8
1
  6
Continuous
100
AcDbCircle
 10
30.226358
 20
113.198945
 30
0.0
 40
4.5
100
AcDbArc
 50
251.8359999999999
 51
73.8724
  0
ARC
  5
999E
330
97F0
100
AcDbEntity
  8
1
  6
Continuous
100
AcDbCircle
 10
30.226358
 20
113.198945
 30
0.0
 40
5.0
100
AcDbArc
 50
75.52249999999998
 51
104.477
  0
ARC
  5
999F
330
97F0
100
AcDbEntity
  8
1
  6
Continuous
100
AcDbCircle
 10
30.226358
 20
113.198945
 30
0.0
 40
4.5
100
AcDbArc
 50
106.128
 51
251.8359999999999
  0
CIRCLE
  5
99A0
330
97F0
100
AcDbEntity
  8
1
  6
Continuous
100
AcDbCircle
 10
30.226358
 20
113.198945
 30
0.0
 40
5.599999999999997
  0
ARC
  5
99A1
330
97F0
100
AcDbEntity
  8
1
  6
Continuous
100
AcDbCircle
 10
127.455558
 20
47.748745
 30
0.0
 40
0.3
100
AcDbArc
 50
0.0
 51
180.0
  0
ARC
  5
99A2
330
97F0
100
AcDbEntity
  8
1
  6
Continuous
100
AcDbCircle
 10
127.455558
 20
38.64874499999999
 30
0.0
 40
0.3
100
AcDbArc
 50
180.0
 51
0.00001
  0
ARC
  5
99A3
330
97F0
100
AcDbEntity
  8
1
  6
Continuous
100
AcDbCircle
 10
265.050558
 20
113.198945
 30
0.0
 40
7.799999999999998
100
AcDbArc
 50
18.6939
 51
161.306
  0
ARC
  5
99A4
330
97F0
100
AcDbEntity
  8
1
  6
Continuous
100
AcDbCircle
 10
265.050558
 20
113.198945
 30
0.0
 40
8.099999999999997
100
AcDbArc
 50
102.759
 51
194.2949999999999
  0
ARC
  5
99A5
330
97F0
100
AcDbEntity
  8
1
  6
Continuous
100
AcDbCircle
 10
265.050558
 20
113.198945
 30
0.0
 40
8.599999999999997
100
AcDbArc
 50
113.277
 51
166.5519999999999
  0
ARC
  5
99A6
330
97F0
100
AcDbEntity
  8
1
  6
Continuous
100
AcDbCircle
 10
265.050558
 20
113.198945
 30
0.0
 40
9.5
100
AcDbArc
 50
123.736
 51
236.264
  0
CIRCLE
  5
99A7
330
97F0
100
AcDbEntity
  8
1
  6
Continuous
100
AcDbCircle
 10
265.050558
 20
113.198945
 30
0.0
 40
11.0
  0
ARC
  5
99A8
330
97F0
100
AcDbEntity
  8
2
  6
Continuous
100
AcDbCircle
 10
265.050558
 20
113.198945
 30
0.0
 40
9.5
100
AcDbArc
 50
236.261
 51
303.7389999999998
  0
ARC
  5
99A9
330
97F0
100
AcDbEntity
  8
1
  6
Continuous
100
AcDbCircle
 10
265.050558
 20
113.198945
 30
0.0
 40
8.599999999999997
100
AcDbArc
 50
293.277
 51
346.5519999999998
  0
ARC
  5
99AA
330
97F0
100
AcDbEntity
  8
1
  6
Continuous
100
AcDbCircle
 10
265.050558
 20
113.198945
 30
0.0
 40
8.099999999999997
100
AcDbArc
 50
282.759
 51
345.7049999999999
  0
ARC
  5
99AB
330
97F0
100
AcDbEntity
  8
1
  6
Continuous
100
AcDbCircle
 10
265.050558
 20
113.198945
 30
0.0
 40
8.599999999999997
100
AcDbArc
 50
193.4479999999999
 51
246.7229999999999
  0
ARC
  5
99AC
330
97F0
100
AcDbEntity
  8
1
  6
Continuous
100
AcDbCircle
 10
265.050558
 20
113.198945
 30
0.0
 40
8.099999999999997
100
AcDbArc
 50
194.2949999999999
 51
257.241
  0
ARC
  5
99AD
330
97F0
100
AcDbEntity
  8
1
  6
Continuous
100
AcDbCircle
 10
265.050558
 20
113.198945
 30
0.0
 40
8.599999999999997
100
AcDbArc
 50
13.4477
 51
66.7229
  0
ARC
  5
99AE
330
97F0
100
AcDbEntity
  8
1
  6
Continuous
100
AcDbCircle
 10
265.050558
 20
113.198945
 30
0.0
 40
8.099999999999997
100
AcDbArc
 50
345.7049999999999
 51
77.24129999999998
  0
ARC
  5
99AF
330
97F0
100
AcDbEntity
  8
1
  6
Continuous
100
AcDbCircle
 10
171.8355579999999
 20
122.723945
 30
0.0
 40
6.0517
100
AcDbArc
 50
328.356
 51
31.64440000000001
  0
ARC
  5
99B0
330
97F0
100
AcDbEntity
  8
1
  6
Continuous
100
AcDbCircle
 10
171.8355579999999
 20
103.673945
 30
0.0
 40
6.0517
100
AcDbArc
 50
328.356
 51
31.64440000000001
  0
ARC
  5
99B1
330
97F0
100
AcDbEntity
  8
1
  6
Continuous
100
AcDbCircle
 10
154.9655579999999
 20
113.198945
 30
0.0
 40
22.9192
100
AcDbArc
 50
343.915
 51
16.0848
  0
ARC
  5
99B2
330
97F0
100
AcDbEntity
  8
1
  6
Continuous
100
AcDbCircle
 10
201.5675579999999
 20
117.961945
 30
0.0
 40
4.642199999999998
100
AcDbArc
 50
340.0
 51
20.0
  0
ARC
  5
99B3
330
97F0
100
AcDbEntity
  8
1
  6
Continuous
100
AcDbCircle
 10
188.0615579999999
 20
113.198945
 30
0.0
 40
18.1487
100
AcDbArc
 50
349.923
 51
10.0767
  0
ARC
  5
99B4
330
97F0
100
AcDbEntity
  8
1
  6
Continuous
100
AcDbCircle
 10
208.8525579999999
 20
117.961945
 30
0.0
 40
4.642199999999998
100
AcDbArc
 50
160.0
 51
200.0
  0
ARC
  5
99B5
330
97F0
100
AcDbEntity
  8
1
  6
Continuous
100
AcDbCircle
 10
222.3585579999999
 20
113.198945
 30
0.0
 40
18.1487
100
AcDbArc
 50
169.923
 51
190.0769999999999
  0
ARC
  5
99B6
330
97F0
100
AcDbEntity
  8
1
  6
Continuous
100
AcDbCircle
 10
201.5675579999999
 20
108.435945
 30
0.0
 40
4.642199999999998
100
AcDbArc
 50
340.0
 51
20.0
  0
ARC
  5
99B7
330
97F0
100
AcDbEntity
  8
1
  6
Continuous
100
AcDbCircle
 10
208.8525579999999
 20
108.435945
 30
0.0
 40
4.642199999999998
100
AcDbArc
 50
160.0
 51
200.0
  0
ARC
  5
99B8
330
97F0
100
AcDbEntity
  8
1
  6
Continuous
100
AcDbCircle
 10
190.312558
 20
118.637945
 30
0.0
 40
1.837099999999999
100
AcDbArc
 50
283.7559999999998
 51
304.361
  0
ARC
  5
99B9
330
97F0
100
AcDbEntity
  8
1
  6
Continuous
100
AcDbCircle
 10
192.928558
 20
117.499945
 30
0.0
 40
1.02
100
AcDbArc
 50
220.1979999999999
 51
259.887
  0
ARC
  5
99BA
330
97F0
100
AcDbEntity
  8
1
  6
Continuous
100
AcDbCircle
 10
190.2835579999999
 20
118.6919449999999
 30
0.0
 40
3.0987
100
AcDbArc
 50
286.201
 51
290.1159999999998
  0
ARC
  5
99BB
330
97F0
100
AcDbEntity
  8
1
  6
Continuous
100
AcDbCircle
 10
187.309558
 20
117.858945
 30
0.0
 40
4.3083
100
AcDbArc
 50
323.293
 51
339.6459999999998
  0
ARC
  5
99BC
330
97F0
100
AcDbEntity
  8
1
  6
Continuous
100
AcDbCircle
 10
191.2155579999999
 20
114.485945
 30
0.0
 40
0.9421000000000001
100
AcDbArc
 50
352.033
 51
7.9668
  0
ARC
  5
99BD
330
97F0
100
AcDbEntity
  8
1
  6
Continuous
100
AcDbCircle
 10
187.0615579999999
 20
115.0409449999998
 30
0.0
 40
4.287499999999997
100
AcDbArc
 50
342.6549999999999
 51
359.3339999999998
  0
ARC
  5
99BE
330
97F0
100
AcDbEntity
  8
1
  6
Continuous
100
AcDbCircle
 10
190.127558
 20
109.988945
 30
0.0
 40
1.236599999999999
100
AcDbArc
 50
350.983
 51
59.83789999999999
  0
ARC
  5
99BF
330
97F0
100
AcDbEntity
  8
1
  6
Continuous
100
AcDbCircle
 10
193.0915579999999
 20
109.7029449999999
 30
0.0
 40
0.9435999999999999
100
AcDbArc
 50
111.261
 51
183.1289999999999
  0
ARC
  5
99C0
330
97F0
100
AcDbEntity
  8
1
  6
Continuous
100
AcDbCircle
 10
193.0805579999999
 20
108.6719449999998
 30
0.0
 40
0.9332
100
AcDbArc
 50
110.826
 51
183.124
  0
ARC
  5
99C1
330
97F0
100
AcDbEntity
  8
1
  6
Continuous
100
AcDbCircle
 10
193.417558
 20
107.4519449999999
 30
0.0
 40
2.0872
100
AcDbArc
 50
121.081
 51
127.4229999999999
  0
ARC
  5
99C2
330
97F0
100
AcDbEntity
  8
1
  6
Continuous
100
AcDbCircle
 10
188.9415579999999
 20
107.9219449999998
 30
0.0
 40
2.415099999999998
100
AcDbArc
 50
355.4669999999999
 51
41.5448
  0
ARC
  5
99C3
330
97F0
100
AcDbEntity
  8
1
  6
Continuous
100
AcDbCircle
 10
192.3825579999999
 20
111.198945
 30
0.0
 40
1.0341
100
AcDbArc
 50
82.1314
 51
103.0399999999999
  0
ARC
  5
99C4
330
97F0
100
AcDbEntity
  8
1
  6
Continuous
100
AcDbCircle
 10
23.94945799999999
 20
192.198945
 30
0.0
 40
1.0
100
AcDbArc
 50
59.0362
 51
90.0
  0
ARC
  5
99C5
330
97F0
100
AcDbEntity
  8
1
  6
Continuous
100
AcDbCircle
 10
21.21875799999998
 20
192.198945
 30
0.0
 40
1.0
100
AcDbArc
 50
90.0
 51
142.431
  0
ARC
  5
99C6
330
97F0
100
AcDbEntity
  8
1
  6
Continuous
100
AcDbCircle
 10
21.21875799999998
 20
174.198945
 30
0.0
 40
1.0
100
AcDbArc
 50
217.5689999999999
 51
270.0
  0
ARC
  5
99C7
330
97F0
100
AcDbEntity
  8
1
  6
Continuous
100
AcDbCircle
 10
23.94945799999999
 20
174.198945
 30
0.0
 40
1.0
100
AcDbArc
 50
270.0
 51
300.964
  0
ARC
  5
99C8
330
97F0
100
AcDbEntity
  8
1
  6
Continuous
100
AcDbCircle
 10
16.72635799999999
 20
180.0389449999999
 30
0.0
 40
1.0
100
AcDbArc
 50
180.0
 51
217.5689999999999
  0
ARC
  5
99C9
330
97F0
100
AcDbEntity
  8
1
  6
Continuous
100
AcDbCircle
 10
16.72635799999999
 20
186.358945
 30
0.0
 40
1.0
100
AcDbArc
 50
142.431
 51
180.0
  0
ARC
  5
99CA
330
97F0
100
AcDbEntity
  8
1
  6
Continuous
100
AcDbCircle
 10
36.72635800000001
 20
188.198945
 30
0.0
 40
0.5
100
AcDbArc
 50
0.0
 51
90.0
  0
ARC
  5
99CB
330
97F0
100
AcDbEntity
  8
1
  6
Continuous
100
AcDbCircle
 10
36.72635800000001
 20
178.198945
 30
0.0
 40
0.5
100
AcDbArc
 50
270.0
 51
0.0
  0
ARC
  5
99CC
330
97F0
100
AcDbEntity
  8
1
  6
Continuous
100
AcDbCircle
 10
18.22635799999998
 20
185.698945
 30
0.0
 40
0.5
100
AcDbArc
 50
90.0
 51
180.0
  0
ARC
  5
99CD
330
97F0
100
AcDbEntity
  8
1
  6
Continuous
100
AcDbCircle
 10
19.72635799999999
 20
185.698945
 30
0.0
 40
0.5
100
AcDbArc
 50
0.0
 51
90.0
  0
ARC
  5
99CE
330
97F0
100
AcDbEntity
  8
1
  6
Continuous
100
AcDbCircle
 10
18.22635799999998
 20
180.698945
 30
0.0
 40
0.5
100
AcDbArc
 50
180.0
 51
270.0
  0
ARC
  5
99CF
330
97F0
100
AcDbEntity
  8
1
  6
Continuous
100
AcDbCircle
 10
19.72635799999999
 20
180.698945
 30
0.0
 40
0.5
100
AcDbArc
 50
270.0
 51
0.0
  0
ARC
  5
99D0
330
97F0
100
AcDbEntity
  8
1
  6
Continuous
100
AcDbCircle
 10
48.226358
 20
183.198945
 30
0.0
 40
6.0
100
AcDbArc
 50
346.3049999999999
 51
13.695
  0
ARC
  5
99D1
330
97F0
100
AcDbEntity
  8
1
  6
Continuous
100
AcDbCircle
 10
46.226358
 20
183.198945
 30
0.0
 40
6.0
100
AcDbArc
 50
329.169
 51
30.8305
  0
ARC
  5
99D2
330
97F0
100
AcDbEntity
  8
1
  6
Continuous
100
AcDbCircle
 10
53.084258
 20
184.382945
 30
0.0
 40
1.0
100
AcDbArc
 50
13.695
 51
65.1671
  0
ARC
  5
99D3
330
97F0
100
AcDbEntity
  8
1
  6
Continuous
100
AcDbCircle
 10
53.084258
 20
182.0149449999999
 30
0.0
 40
1.0
100
AcDbArc
 50
294.8329999999998
 51
346.3049999999999
  0
ARC
  5
99D4
330
97F0
100
AcDbEntity
  8
1
  6
Continuous
100
AcDbCircle
 10
265.050558
 20
113.198945
 30
0.0
 40
2.5
100
AcDbArc
 50
300.0
 51
239.9999999999999
  0
ARC
  5
99D5
330
97F0
100
AcDbEntity
  8
1
  6
Continuous
100
AcDbCircle
 10
265.050558
 20
113.198945
 30
0.0
 40
3.5
100
AcDbArc
 50
129.518
 51
230.4819999999999
  0
ARC
  5
99D6
330
97F0
100
AcDbEntity
  8
2
  6
Continuous
100
AcDbCircle
 10
265.050558
 20
113.198945
 30
0.0
 40
3.5
100
AcDbArc
 50
230.4819999999999
 51
309.5179999999999
  0
ARC
  5
99D7
330
97F0
100
AcDbEntity
  8
1
  6
Continuous
100
AcDbCircle
 10
265.050558
 20
113.198945
 30
0.0
 40
7.7
100
AcDbArc
 50
161.054
 51
288.9459999999999
  0
CIRCLE
  5
99D8
330
97F0
100
AcDbEntity
  8
1
  6
Continuous
100
AcDbCircle
 10
265.050558
 20
113.198945
 30
0.0
 40
5.5
  0
CIRCLE
  5
99D9
330
97F0
100
AcDbEntity
  8
1
  6
Continuous
100
AcDbCircle
 10
265.050558
 20
113.198945
 30
0.0
 40
6.5
  0
ARC
  5
99DA
330
97F0
100
AcDbEntity
  8
1
  6
Continuous
100
AcDbCircle
 10
115.7495579999999
 20
113.194945
 30
0.0
 40
1.694199999999999
100
AcDbArc
 50
108.8329999999998
 51
250.456
  0
ARC
  5
99DB
330
97F0
100
AcDbEntity
  8
1
  6
Continuous
100
AcDbCircle
 10
127.355558
 20
108.798945
 30
0.0
 40
0.4
100
AcDbArc
 50
239.9999999999999
 51
0.0
  0
ARC
  5
99DC
330
97F0
100
AcDbEntity
  8
1
  6
Continuous
100
AcDbCircle
 10
124.5555579999999
 20
113.198945
 30
0.0
 40
2.0
100
AcDbArc
 50
306.87
 51
53.13009999999999
  0
ARC
  5
99DD
330
97F0
100
AcDbEntity
  8
1
  6
Continuous
100
AcDbCircle
 10
192.5635579999998
 20
45.948745
 30
0.0
 40
13.6465
100
AcDbArc
 50
348.374
 51
11.6256
  0
ARC
  5
99DE
330
97F0
100
AcDbEntity
  8
1
  6
Continuous
100
AcDbCircle
 10
192.5635579999998
 20
40.448745
 30
0.0
 40
13.6465
100
AcDbArc
 50
348.374
 51
11.6256
  0
ARC
  5
99DF
330
97F0
100
AcDbEntity
  8
1
  6
Continuous
100
AcDbCircle
 10
217.856558
 20
40.448745
 30
0.0
 40
13.6465
100
AcDbArc
 50
168.374
 51
191.6259999999999
  0
ARC
  5
99E0
330
97F0
100
AcDbEntity
  8
1
  6
Continuous
100
AcDbCircle
 10
217.856558
 20
45.948745
 30
0.0
 40
13.6465
100
AcDbArc
 50
168.374
 51
191.6259999999999
  0
ARC
  5
99E1
330
97F0
100
AcDbEntity
  8
1
  6
Continuous
100
AcDbCircle
 10
161.6895579999998
 20
37.69944499999999
 30
0.0
 40
16.1953
100
AcDbArc
 50
340.1499999999999
 51
19.85
  0
ARC
  5
99E2
330
97F0
100
AcDbEntity
  8
1
  6
Continuous
100
AcDbCircle
 10
161.6895579999998
 20
48.698045
 30
0.0
 40
16.1953
100
AcDbArc
 50
340.1499999999999
 51
19.85
  0
ARC
  5
99E3
330
97F0
100
AcDbEntity
  8
1
  6
Continuous
100
AcDbCircle
 10
190.312558
 20
48.637545
 30
0.0
 40
1.837099999999999
100
AcDbArc
 50
283.7559999999998
 51
304.361
  0
ARC
  5
99E4
330
97F0
100
AcDbEntity
  8
1
  6
Continuous
100
AcDbCircle
 10
192.928558
 20
47.49964499999999
 30
0.0
 40
1.02
100
AcDbArc
 50
220.1979999999999
 51
259.887
  0
ARC
  5
99E5
330
97F0
100
AcDbEntity
  8
1
  6
Continuous
100
AcDbCircle
 10
190.2835579999999
 20
48.69174499999999
 30
0.0
 40
3.0987
100
AcDbArc
 50
286.201
 51
290.1159999999998
  0
ARC
  5
99E6
330
97F0
100
AcDbEntity
  8
1
  6
Continuous
100
AcDbCircle
 10
187.309558
 20
47.859245
 30
0.0
 40
4.3083
100
AcDbArc
 50
323.293
 51
339.6459999999998
  0
ARC
  5
99E7
330
97F0
100
AcDbEntity
  8
1
  6
Continuous
100
AcDbCircle
 10
191.2155579999999
 20
44.486145
 30
0.0
 40
0.9421000000000001
100
AcDbArc
 50
352.033
 51
7.966789999999998
  0
ARC
  5
99E8
330
97F0
100
AcDbEntity
  8
1
  6
Continuous
100
AcDbCircle
 10
187.0615579999999
 20
45.041145
 30
0.0
 40
4.287499999999997
100
AcDbArc
 50
342.6549999999999
 51
359.3339999999998
  0
ARC
  5
99E9
330
97F0
100
AcDbEntity
  8
1
  6
Continuous
100
AcDbCircle
 10
190.127558
 20
39.988545
 30
0.0
 40
1.236599999999999
100
AcDbArc
 50
350.983
 51
59.83789999999999
  0
ARC
  5
99EA
330
97F0
100
AcDbEntity
  8
1
  6
Continuous
100
AcDbCircle
 10
193.0915579999999
 20
39.703145
 30
0.0
 40
0.9435999999999999
100
AcDbArc
 50
111.261
 51
183.1289999999999
  0
ARC
  5
99EB
330
97F0
100
AcDbEntity
  8
1
  6
Continuous
100
AcDbCircle
 10
193.0805579999999
 20
38.672145
 30
0.0
 40
0.9332
100
AcDbArc
 50
110.826
 51
183.124
  0
ARC
  5
99EC
330
97F0
100
AcDbEntity
  8
1
  6
Continuous
100
AcDbCircle
 10
193.417558
 20
37.451845
 30
0.0
 40
2.0872
100
AcDbArc
 50
121.081
 51
127.4229999999999
  0
ARC
  5
99ED
330
97F0
100
AcDbEntity
  8
1
  6
Continuous
100
AcDbCircle
 10
188.9415579999999
 20
37.92224499999999
 30
0.0
 40
2.415099999999998
100
AcDbArc
 50
355.4669999999999
 51
41.5448
  0
ARC
  5
99EE
330
97F0
100
AcDbEntity
  8
1
  6
Continuous
100
AcDbCircle
 10
192.3825579999999
 20
41.198445
 30
0.0
 40
1.0341
100
AcDbArc
 50
82.1314
 51
103.0399999999999
  0
ARC
  5
99EF
330
97F0
100
AcDbEntity
  8
1
  6
Continuous
100
AcDbCircle
 10
265.050558
 20
113.198945
 30
0.0
 40
3.5
100
AcDbArc
 50
309.5179999999999
 51
50.48230000000001
  0
ARC
  5
99F0
330
97F0
100
AcDbEntity
  8
2
  6
Continuous
100
AcDbCircle
 10
265.050558
 20
113.198945
 30
0.0
 40
3.5
100
AcDbArc
 50
50.48230000000001
 51
129.518
  0
ARC
  5
99F1
330
97F0
100
AcDbEntity
  8
2
  6
Continuous
100
AcDbCircle
 10
265.050558
 20
113.198945
 30
0.0
 40
3.093999999999998
100
AcDbArc
 50
119.2309999999999
 51
240.769
  0
ARC
  5
99F2
330
97F0
100
AcDbEntity
  8
1
  6
Continuous
100
AcDbCircle
 10
265.050558
 20
113.198945
 30
0.0
 40
3.093999999999998
100
AcDbArc
 50
240.769
 51
299.2309999999998
  0
ARC
  5
99F3
330
97F0
100
AcDbEntity
  8
2
  6
Continuous
100
AcDbCircle
 10
265.050558
 20
113.198945
 30
0.0
 40
3.093999999999998
100
AcDbArc
 50
299.2309999999998
 51
60.76869999999999
  0
ARC
  5
99F4
330
97F0
100
AcDbEntity
  8
1
  6
Continuous
100
AcDbCircle
 10
265.050558
 20
113.198945
 30
0.0
 40
3.093999999999998
100
AcDbArc
 50
60.76869999999999
 51
119.2309999999999
  0
ARC
  5
99F5
330
97F0
100
AcDbEntity
  8
1
  6
Continuous
100
AcDbCircle
 10
265.050558
 20
113.198945
 30
0.0
 40
9.5
100
AcDbArc
 50
303.7389999999998
 51
56.26140000000001
  0
ARC
  5
99F6
330
97F0
100
AcDbEntity
  8
2
  6
Continuous
100
AcDbCircle
 10
265.050558
 20
113.198945
 30
0.0
 40
9.5
100
AcDbArc
 50
56.26140000000001
 51
123.7389999999999
  0
ARC
  5
99F7
330
97F0
100
AcDbEntity
  8
2
  6
Continuous
100
AcDbCircle
 10
265.050558
 20
113.198945
 30
0.0
 40
8.9585
100
AcDbArc
 50
118.134
 51
167.7589999999999
  0
ARC
  5
99F8
330
97F0
100
AcDbEntity
  8
1
  6
Continuous
100
AcDbCircle
 10
265.050558
 20
113.198945
 30
0.0
 40
8.9585
100
AcDbArc
 50
241.866
 51
298.134
  0
ARC
  5
99F9
330
97F0
100
AcDbEntity
  8
2
  6
Continuous
100
AcDbCircle
 10
265.050558
 20
113.198945
 30
0.0
 40
8.9585
100
AcDbArc
 50
298.134
 51
347.759
  0
ARC
  5
99FA
330
97F0
100
AcDbEntity
  8
1
  6
Continuous
100
AcDbCircle
 10
265.050558
 20
113.198945
 30
0.0
 40
8.9585
100
AcDbArc
 50
61.8657
 51
118.134
  0
ARC
  5
99FB
330
97F0
100
AcDbEntity
  8
2
  6
Continuous
100
AcDbCircle
 10
265.050558
 20
113.198945
 30
0.0
 40
8.9585
100
AcDbArc
 50
12.2409
 51
61.8657
  0
ARC
  5
99FC
330
97F0
100
AcDbEntity
  8
2
  6
Continuous
100
AcDbCircle
 10
265.050558
 20
113.198945
 30
0.0
 40
8.9585
100
AcDbArc
 50
192.2409999999999
 51
241.866
  0
ARC
  5
99FD
330
97F0
100
AcDbEntity
  8
1
  6
Continuous
100
AcDbCircle
 10
192.3825579999999
 20
181.198945
 30
0.0
 40
1.0341
100
AcDbArc
 50
82.1314
 51
103.0399999999999
  0
ARC
  5
99FE
330
97F0
100
AcDbEntity
  8
1
  6
Continuous
100
AcDbCircle
 10
192.5635579999998
 20
185.948945
 30
0.0
 40
13.6465
100
AcDbArc
 50
348.374
 51
11.6256
  0
ARC
  5
99FF
330
97F0
100
AcDbEntity
  8
1
  6
Continuous
100
AcDbCircle
 10
192.5635579999998
 20
180.448945
 30
0.0
 40
13.6465
100
AcDbArc
 50
348.374
 51
11.6256
  0
ARC
  5
9A00
330
97F0
100
AcDbEntity
  8
1
  6
Continuous
100
AcDbCircle
 10
217.856558
 20
180.448945
 30
0.0
 40
13.6465
100
AcDbArc
 50
168.374
 51
191.6259999999999
  0
ARC
  5
9A01
330
97F0
100
AcDbEntity
  8
1
  6
Continuous
100
AcDbCircle
 10
217.856558
 20
185.948945
 30
0.0
 40
13.6465
100
AcDbArc
 50
168.374
 51
191.6259999999999
  0
ARC
  5
9A02
330
97F0
100
AcDbEntity
  8
1
  6
Continuous
100
AcDbCircle
 10
161.6895579999998
 20
177.6999449999999
 30
0.0
 40
16.1953
100
AcDbArc
 50
340.1499999999999
 51
19.85
  0
ARC
  5
9A03
330
97F0
100
AcDbEntity
  8
1
  6
Continuous
100
AcDbCircle
 10
161.6895579999998
 20
188.697945
 30
0.0
 40
16.1953
100
AcDbArc
 50
340.1499999999999
 51
19.85
  0
ARC
  5
9A04
330
97F0
100
AcDbEntity
  8
1
  6
Continuous
100
AcDbCircle
 10
190.312558
 20
188.6379449999998
 30
0.0
 40
1.837099999999999
100
AcDbArc
 50
283.7559999999998
 51
304.361
  0
ARC
  5
9A05
330
97F0
100
AcDbEntity
  8
1
  6
Continuous
100
AcDbCircle
 10
192.928558
 20
187.4999449999999
 30
0.0
 40
1.02
100
AcDbArc
 50
220.1979999999999
 51
259.887
  0
ARC
  5
9A06
330
97F0
100
AcDbEntity
  8
1
  6
Continuous
100
AcDbCircle
 10
190.2835579999999
 20
188.691945
 30
0.0
 40
3.0987
100
AcDbArc
 50
286.201
 51
290.1159999999998
  0
ARC
  5
9A07
330
97F0
100
AcDbEntity
  8
1
  6
Continuous
100
AcDbCircle
 10
187.309558
 20
187.8589449999998
 30
0.0
 40
4.3083
100
AcDbArc
 50
323.293
 51
339.6459999999998
  0
ARC
  5
9A08
330
97F0
100
AcDbEntity
  8
1
  6
Continuous
100
AcDbCircle
 10
191.2155579999999
 20
184.4859449999999
 30
0.0
 40
0.9421000000000001
100
AcDbArc
 50
352.033
 51
7.966789999999998
  0
ARC
  5
9A09
330
97F0
100
AcDbEntity
  8
1
  6
Continuous
100
AcDbCircle
 10
187.0615579999999
 20
185.0409449999999
 30
0.0
 40
4.287499999999997
100
AcDbArc
 50
342.6549999999999
 51
359.3339999999998
  0
ARC
  5
9A0A
330
97F0
100
AcDbEntity
  8
1
  6
Continuous
100
AcDbCircle
 10
190.127558
 20
179.988945
 30
0.0
 40
1.236599999999999
100
AcDbArc
 50
350.983
 51
59.83789999999999
  0
ARC
  5
9A0B
330
97F0
100
AcDbEntity
  8
1
  6
Continuous
100
AcDbCircle
 10
193.0915579999999
 20
179.702945
 30
0.0
 40
0.9435999999999999
100
AcDbArc
 50
111.261
 51
183.1289999999999
  0
ARC
  5
9A0C
330
97F0
100
AcDbEntity
  8
1
  6
Continuous
100
AcDbCircle
 10
193.0805579999999
 20
178.6719449999999
 30
0.0
 40
0.9332
100
AcDbArc
 50
110.826
 51
183.124
  0
ARC
  5
9A0D
330
97F0
100
AcDbEntity
  8
1
  6
Continuous
100
AcDbCircle
 10
193.417558
 20
177.4519449999999
 30
0.0
 40
2.0872
100
AcDbArc
 50
121.081
 51
127.4229999999999
  0
ARC
  5
9A0E
330
97F0
100
AcDbEntity
  8
1
  6
Continuous
100
AcDbCircle
 10
188.9415579999999
 20
177.921945
 30
0.0
 40
2.415099999999998
100
AcDbArc
 50
355.4669999999999
 51
41.5448
  0
ARC
  5
9A0F
330
97F0
100
AcDbEntity
  8
1
  6
Continuous
100
AcDbCircle
 10
31.32574299999999
 20
183.198945
 30
0.0
 40
7.932788
100
AcDbArc
 50
169.896
 51
172.2069999999999
  0
ARC
  5
9A10
330
97F0
100
AcDbEntity
  8
1
  6
Continuous
100
AcDbCircle
 10
20.12697399999998
 20
183.198945
 30
0.0
 40
7.932788
100
AcDbArc
 50
7.792999999999999
 51
10.10399999999999
  0
ARC
  5
9A11
330
97F0
100
AcDbEntity
  8
1
  6
Continuous
100
AcDbCircle
 10
23.531941
 20
184.266719
 30
0.0
 40
0.066678
100
AcDbArc
 50
172.2069999999999
 51
270.0
  0
ARC
  5
9A12
330
97F0
100
AcDbEntity
  8
1
  6
Continuous
100
AcDbCircle
 10
27.920776
 20
184.266719
 30
0.0
 40
0.066678
100
AcDbArc
 50
270.0
 51
7.792999999999999
  0
LINE
  5
9A13
330
97F0
100
AcDbEntity
  8
1
  6
Continuous
100
AcDbLine
 10
23.400668
 20
183.5332169999998
 30
0.0
 11
28.052048
 21
183.5332169999998
 31
0.0
  0
LINE
  5
9A14
330
97F0
100
AcDbEntity
  8
1
  6
Continuous
100
AcDbLine
 10
23.531941
 20
184.1990529999999
 30
0.0
 11
27.920776
 21
184.1990529999999
 31
0.0
  0
LINE
  5
9A15
330
97F0
100
AcDbEntity
  8
1
  6
Continuous
100
AcDbLine
 10
24.925866
 20
184.866242
 30
0.0
 11
23.844559
 21
184.866242
 31
0.0
  0
LINE
  5
9A16
330
97F0
100
AcDbEntity
  8
1
  6
Continuous
100
AcDbLine
 10
25.725682
 20
184.866242
 30
0.0
 11
25.725682
 21
184.533324
 31
0.0
  0
LINE
  5
9A17
330
97F0
100
AcDbEntity
  8
1
  6
Continuous
100
AcDbLine
 10
23.848619
 20
186.199268
 30
0.0
 11
25.392764
 21
186.199268
 31
0.0
  0
LINE
  5
9A18
330
97F0
100
AcDbEntity
  8
1
  6
Continuous
100
AcDbLine
 10
25.392764
 20
186.8664569999999
 30
0.0
 11
23.969065
 21
186.8664569999999
 31
0.0
  0
LINE
  5
9A19
330
97F0
100
AcDbEntity
  8
1
  6
Continuous
100
AcDbLine
 10
25.725682
 20
186.532186
 30
0.0
 11
27.325312
 21
186.532186
 31
0.0
  0
LINE
  5
9A1A
330
97F0
100
AcDbEntity
  8
1
  6
Continuous
100
AcDbLine
 10
26.97344799999999
 20
187.2047889999999
 30
0.0
 11
24.163944
 21
187.9585909999999
 31
0.0
  0
LINE
  5
9A1B
330
97F0
100
AcDbEntity
  8
1
  6
Continuous
100
AcDbLine
 10
25.725682
 20
188.9167459999999
 30
0.0
 11
25.725682
 21
187.53906
 31
0.0
  0
ARC
  5
9A1C
330
97F0
100
AcDbEntity
  8
1
  6
Continuous
100
AcDbCircle
 10
25.392764
 20
186.532186
 30
0.0
 40
0.333392
100
AcDbArc
 50
270.0
 51
90.0
  0
ARC
  5
9A1D
330
97F0
100
AcDbEntity
  8
1
  6
Continuous
100
AcDbCircle
 10
25.725682
 20
187.199375
 30
0.0
 40
1.717978999999998
100
AcDbArc
 50
62.24999999999999
 51
144.462
  0
ARC
  5
9A1E
330
97F0
100
AcDbEntity
  8
1
  6
Continuous
100
AcDbCircle
 10
25.725682
 20
187.199375
 30
0.0
 40
1.717978999999998
100
AcDbArc
 50
35.53799999999999
 51
45.69899999999999
  0
ARC
  5
9A1F
330
97F0
100
AcDbEntity
  8
1
  6
Continuous
100
AcDbCircle
 10
23.844559
 20
184.533324
 30
0.0
 40
0.333392
100
AcDbArc
 50
90.0
 51
169.896
  0
ARC
  5
9A20
330
97F0
100
AcDbEntity
  8
1
  6
Continuous
100
AcDbCircle
 10
27.608157
 20
184.533324
 30
0.0
 40
0.333392
100
AcDbArc
 50
10.10399999999999
 51
90.0
  0
LINE
  5
9A21
330
97F0
100
AcDbEntity
  8
1
  6
Continuous
100
AcDbLine
 10
27.608157
 20
184.866242
 30
0.0
 11
25.725682
 21
184.866242
 31
0.0
  0
LINE
  5
9A22
330
97F0
100
AcDbEntity
  8
1
  6
Continuous
100
AcDbLine
 10
23.534648
 20
185.532078
 30
0.0
 11
27.708303
 21
185.532078
 31
0.0
  0
LINE
  5
9A23
330
97F0
100
AcDbEntity
  8
1
  6
Continuous
100
AcDbLine
 10
23.89733899999999
 20
178.86695
 30
0.0
 11
26.771802
 21
178.86695
 31
0.0
  0
LINE
  5
9A24
330
97F0
100
AcDbEntity
  8
1
  6
Continuous
100
AcDbLine
 10
26.955854
 20
179.5327859999999
 30
0.0
 11
24.496862
 21
179.5327859999999
 31
0.0
  0
LINE
  5
9A25
330
97F0
100
AcDbEntity
  8
1
  6
Continuous
100
AcDbLine
 10
24.081391
 20
180.1999759999999
 30
0.0
 11
27.36997199999999
 21
180.1999759999999
 31
0.0
  0
LINE
  5
9A26
330
97F0
100
AcDbEntity
  8
1
  6
Continuous
100
AcDbLine
 10
24.925866
 20
181.533002
 30
0.0
 11
23.65374
 21
181.533002
 31
0.0
  0
LINE
  5
9A27
330
97F0
100
AcDbEntity
  8
1
  6
Continuous
100
AcDbLine
 10
25.725682
 20
182.866027
 30
0.0
 11
25.725682
 21
182.200191
 31
0.0
  0
ARC
  5
9A28
330
97F0
100
AcDbEntity
  8
1
  6
Continuous
100
AcDbCircle
 10
25.725682
 20
179.1998679999999
 30
0.0
 40
1.717978999999998
100
AcDbArc
 50
215.5377
 51
256.5374
  0
ARC
  5
9A29
330
97F0
100
AcDbEntity
  8
1
  6
Continuous
100
AcDbCircle
 10
25.725682
 20
179.1998679999999
 30
0.0
 40
1.717978999999998
100
AcDbArc
 50
270.0
 51
324.4619999999998
  0
ARC
  5
9A2A
330
97F0
100
AcDbEntity
  8
1
  6
Continuous
100
AcDbCircle
 10
24.496862
 20
179.8670579999999
 30
0.0
 40
0.333392
100
AcDbArc
 50
206.0144
 51
270.0
  0
ARC
  5
9A2B
330
97F0
100
AcDbEntity
  8
1
  6
Continuous
100
AcDbCircle
 10
31.32574299999999
 20
183.198945
 30
0.0
 40
7.932788
100
AcDbArc
 50
202.944
 51
206.0144
  0
ARC
  5
9A2C
330
97F0
100
AcDbEntity
  8
1
  6
Continuous
100
AcDbCircle
 10
24.081391
 20
180.1336629999999
 30
0.0
 40
0.066678
100
AcDbArc
 50
90.0
 51
202.944
  0
ARC
  5
9A2D
330
97F0
100
AcDbEntity
  8
1
  6
Continuous
100
AcDbCircle
 10
26.955854
 20
179.8670579999999
 30
0.0
 40
0.333392
100
AcDbArc
 50
270.0
 51
333.9859999999998
  0
ARC
  5
9A2E
330
97F0
100
AcDbEntity
  8
1
  6
Continuous
100
AcDbCircle
 10
23.65374
 20
181.4666889999998
 30
0.0
 40
0.066678
100
AcDbArc
 50
90.0
 51
192.7289
  0
ARC
  5
9A2F
330
97F0
100
AcDbEntity
  8
1
  6
Continuous
100
AcDbCircle
 10
31.32574299999999
 20
183.198945
 30
0.0
 40
7.932788
100
AcDbArc
 50
192.7289
 51
193.2680999999999
  0
ARC
  5
9A30
330
97F0
100
AcDbEntity
  8
1
  6
Continuous
100
AcDbCircle
 10
31.32574299999999
 20
183.198945
 30
0.0
 40
7.932788
100
AcDbArc
 50
193.2680999999999
 51
195.2574999999999
  0
ARC
  5
9A31
330
97F0
100
AcDbEntity
  8
1
  6
Continuous
100
AcDbCircle
 10
23.994778
 20
181.2000839999998
 30
0.0
 40
0.333392
100
AcDbArc
 50
195.2574999999999
 51
270.0
  0
ARC
  5
9A32
330
97F0
100
AcDbEntity
  8
1
  6
Continuous
100
AcDbCircle
 10
27.45793799999999
 20
181.2000839999998
 30
0.0
 40
0.333392
100
AcDbArc
 50
270.0
 51
344.7419999999998
  0
ARC
  5
9A33
330
97F0
100
AcDbEntity
  8
1
  6
Continuous
100
AcDbCircle
 10
20.12697399999998
 20
183.198945
 30
0.0
 40
7.932788
100
AcDbArc
 50
344.7419999999998
 51
344.794
  0
ARC
  5
9A34
330
97F0
100
AcDbEntity
  8
1
  6
Continuous
100
AcDbCircle
 10
20.12697399999998
 20
183.198945
 30
0.0
 40
7.932788
100
AcDbArc
 50
344.794
 51
347.2709999999998
  0
ARC
  5
9A35
330
97F0
100
AcDbEntity
  8
1
  6
Continuous
100
AcDbCircle
 10
27.79897599999999
 20
181.4666889999998
 30
0.0
 40
0.066678
100
AcDbArc
 50
347.2709999999998
 51
90.0
  0
LINE
  5
9A36
330
97F0
100
AcDbEntity
  8
1
  6
Continuous
100
AcDbLine
 10
23.994778
 20
180.865812
 30
0.0
 11
27.45793799999999
 21
180.865812
 31
0.0
  0
LINE
  5
9A37
330
97F0
100
AcDbEntity
  8
1
  6
Continuous
100
AcDbLine
 10
27.79897599999999
 20
181.533002
 30
0.0
 11
26.52549699999999
 21
181.533002
 31
0.0
  0
LINE
  5
9A38
330
97F0
100
AcDbEntity
  8
1
  6
Continuous
100
AcDbLine
 10
23.456155
 20
182.200191
 30
0.0
 11
27.996562
 21
182.200191
 31
0.0
  0
LINE
  5
9A39
330
97F0
100
AcDbEntity
  8
1
  6
Continuous
100
AcDbLine
 10
23.400668
 20
182.866027
 30
0.0
 11
28.052048
 21
182.866027
 31
0.0
  0
ARC
  5
9A3A
330
97F0
100
AcDbEntity
  8
1
  6
Continuous
100
AcDbCircle
 10
27.36997199999999
 20
180.1336629999999
 30
0.0
 40
0.066678
100
AcDbArc
 50
337.0559999999999
 51
90.0
  0
ARC
  5
9A3B
330
97F0
100
AcDbEntity
  8
1
  6
Continuous
100
AcDbCircle
 10
20.12697399999998
 20
183.198945
 30
0.0
 40
7.932788
100
AcDbArc
 50
333.9859999999998
 51
337.0559999999999
  0
ARC
  5
9A3C
330
97F0
100
AcDbEntity
  8
1
  6
Continuous
100
AcDbCircle
 10
20.12697399999998
 20
183.198945
 30
0.0
 40
8.599396
100
AcDbArc
 50
324.4619999999998
 51
35.53799999999999
  0
ARC
  5
9A3D
330
97F0
100
AcDbEntity
  8
1
  6
Continuous
100
AcDbCircle
 10
31.32574299999999
 20
183.198945
 30
0.0
 40
8.599396
100
AcDbArc
 50
144.462
 51
215.5377
  0
LINE
  5
9A3E
330
97F0
100
AcDbEntity
  8
1
  6
Continuous
100
AcDbLine
 10
136.0555579999999
 20
115.8989449999999
 30
0.0
 11
136.0555579999999
 21
110.4989449999999
 31
0.0
  0
LINE
  5
9A3F
330
97F0
100
AcDbEntity
  8
1
  6
Continuous
100
AcDbLine
 10
126.354558
 20
121.098945
 30
0.0
 11
126.354558
 21
114.7989449999998
 31
0.0
  0
LINE
  5
9A40
330
97F0
100
AcDbEntity
  8
1
  6
Continuous
100
AcDbLine
 10
125.055558
 20
121.098945
 30
0.0
 11
125.055558
 21
114.7989449999998
 31
0.0
  0
LINE
  5
9A41
330
97F0
100
AcDbEntity
  8
1
  6
Continuous
100
AcDbLine
 10
124.055558
 20
121.098945
 30
0.0
 11
124.055558
 21
114.7989449999998
 31
0.0
  0
LINE
  5
9A42
330
97F0
100
AcDbEntity
  8
1
  6
Continuous
100
AcDbLine
 10
124.055558
 20
111.598945
 30
0.0
 11
124.055558
 21
105.2989449999998
 31
0.0
  0
LINE
  5
9A43
330
97F0
100
AcDbEntity
  8
1
  6
Continuous
100
AcDbLine
 10
125.055558
 20
111.598945
 30
0.0
 11
125.055558
 21
105.2989449999998
 31
0.0
  0
LINE
  5
9A44
330
97F0
100
AcDbEntity
  8
1
  6
Continuous
100
AcDbLine
 10
126.354558
 20
111.598945
 30
0.0
 11
126.354558
 21
105.2989449999998
 31
0.0
  0
LINE
  5
9A45
330
97F0
100
AcDbEntity
  8
1
  6
Continuous
100
AcDbLine
 10
115.055558
 20
121.098945
 30
0.0
 11
115.055558
 21
114.7984439999998
 31
0.0
  0
LINE
  5
9A46
330
97F0
100
AcDbEntity
  8
1
  6
Continuous
100
AcDbLine
 10
115.055558
 20
114.7984439999998
 30
0.0
 11
115.055558
 21
114.74048
 31
0.0
  0
LINE
  5
9A47
330
97F0
100
AcDbEntity
  8
1
  6
Continuous
100
AcDbLine
 10
115.055558
 20
111.649411
 30
0.0
 11
115.055558
 21
105.2989449999998
 31
0.0
  0
ENDSEC
  0
SECTION
  2
OBJECTS
  0
DICTIONARY
  5
97DE
330
0
100
AcDbDictionary
281
     1
  3
ACAD_CIP_PREVIOUS_PRODUCT_INFO
350
9AAB
  3
ACAD_COLOR
350
9A8D
  3
ACAD_DETAILVIEWSTYLE
350
9AA6
  3
ACAD_GROUP
350
97DF
  3
ACAD_LAYOUT
350
97EB
  3
ACAD_MATERIAL
350
9A5B
  3
ACAD_MLEADERSTYLE
350
9AA2
  3
ACAD_MLINESTYLE
350
97E8
  3
ACAD_PLOTSETTINGS
350
97EA
  3
ACAD_PLOTSTYLENAME
350
9A59
  3
ACAD_SCALELIST
350
9A90
  3
ACAD_SECTIONVIEWSTYLE
350
9AA4
  3
ACAD_TABLESTYLE
350
9A8E
  3
ACAD_VISUALSTYLE
350
9A74
  3
ACDB_RECOMPOSE_DATA
350
9AC9
  3
AcDbVariableDictionary
350
9ABC
  3
DWGPROPS
350
9ACA
  0
DICTIONARY
  5
9AAC
330
97E2
100
AcDbDictionary
280
     1
281
     1
  3
ADSK_XREC_LAYER_RECONCILED
360
9AAD
  0
DICTIONARY
  5
9AAE
330
97F8
100
AcDbDictionary
280
     1
281
     1
  3
ADSK_XREC_LAYER_RECONCILED
360
9AAF
  0
DICTIONARY
  5
9AB0
330
97F9
100
AcDbDictionary
280
     1
281
     1
  3
ADSK_XREC_LAYER_RECONCILED
360
9AB1
  0
DICTIONARY
  5
9AB2
330
97FA
100
AcDbDictionary
280
     1
281
     1
  3
ADSK_XREC_LAYER_RECONCILED
360
9AB3
  0
DICTIONARY
  5
9AB4
330
97FB
100
AcDbDictionary
280
     1
281
     1
  3
ADSK_XREC_LAYER_RECONCILED
360
9AB5
  0
DICTIONARY
  5
9AB6
330
97FC
100
AcDbDictionary
280
     1
281
     1
  3
ADSK_XREC_LAYER_RECONCILED
360
9AB7
  0
DICTIONARY
  5
9AB8
330
97FD
100
AcDbDictionary
280
     1
281
     1
  3
ADSK_XREC_LAYER_RECONCILED
360
9AB9
  0
DICTIONARY
  5
9ABA
330
97FE
100
AcDbDictionary
280
     1
281
     1
  3
ADSK_XREC_LAYER_RECONCILED
360
9ABB
  0
DICTIONARY
  5
9A54
330
97F0
100
AcDbDictionary
281
     1
  3
ACAD_LAYOUTSELFREF
350
9A55
  0
DICTIONARY
  5
9A52
330
97EC
100
AcDbDictionary
281
     1
  3
ACAD_LAYOUTSELFREF
350
9A53
  0
XRECORD
  5
9AAB
102
{ACAD_REACTORS
330
97DE
102
}
330
97DE
100
AcDbXrecord
280
     1
300
ACDLT
300
2014
300
ACDLT_F_S
  0
DICTIONARY
  5
9A8D
102
{ACAD_REACTORS
330
97DE
102
}
330
97DE
100
AcDbDictionary
281
     1
  0
DICTIONARY
  5
9AA6
102
{ACAD_REACTORS
330
97DE
102
}
330
97DE
100
AcDbDictionary
281
     1
  3
Imperial24
350
9AA7
  0
DICTIONARY
  5
97DF
102
{ACAD_REACTORS
330
97DE
102
}
330
97DE
100
AcDbDictionary
281
     1
  0
DICTIONARY
  5
97EB
102
{ACAD_REACTORS
330
97DE
102
}
330
97DE
100
AcDbDictionary
281
     1
  3
Model
350
9AA8
  3
レイアウト1
350
9AA9
  0
DICTIONARY
  5
9A5B
102
{ACAD_REACTORS
330
97DE
102
}
330
97DE
100
AcDbDictionary
281
     1
  3
ByBlock
350
9A64
  3
ByLayer
350
9A5C
  3
Global
350
9A6C
  0
DICTIONARY
  5
9AA2
102
{ACAD_REACTORS
330
97DE
102
}
330
97DE
100
AcDbDictionary
281
     1
  3
Standard
350
9AA3
  0
DICTIONARY
  5
97E8
102
{ACAD_REACTORS
330
97DE
102
}
330
97DE
100
AcDbDictionary
281
     1
  3
STANDARD
350
97E9
  0
DICTIONARY
  5
97EA
102
{ACAD_REACTORS
330
97DE
102
}
330
97DE
100
AcDbDictionary
281
     1
  0
ACDBDICTIONARYWDFLT
  5
9A59
102
{ACAD_REACTORS
330
97DE
102
}
330
97DE
100
AcDbDictionary
281
     1
  3
Normal
350
9A5A
100
AcDbDictionaryWithDefault
340
9A5A
  0
DICTIONARY
  5
9A90
102
{ACAD_REACTORS
330
97DE
102
}
330
97DE
100
AcDbDictionary
281
     1
  3
A0
350
9A91
  3
A1
350
9A92
  3
A2
350
9A93
  3
A3
350
9A94
  3
A4
350
9A95
  3
A5
350
9A96
  3
A6
350
9A97
  3
A7
350
9A98
  3
A8
350
9A99
  3
A9
350
9A9A
  3
B0
350
9A9B
  3
B1
350
9A9C
  3
B2
350
9A9D
  3
B3
350
9A9E
  3
B4
350
9A9F
  3
B5
350
9AA0
  3
B6
350
9AA1
  0
DICTIONARY
  5
9AA4
102
{ACAD_REACTORS
330
97DE
102
}
330
97DE
100
AcDbDictionary
281
     1
  3
Imperial24
350
9AA5
  0
DICTIONARY
  5
9A8E
102
{ACAD_REACTORS
330
97DE
102
}
330
97DE
100
AcDbDictionary
281
     1
  3
Standard
350
9A8F
  0
DICTIONARY
  5
9A74
102
{ACAD_REACTORS
330
97DE
102
}
330
97DE
100
AcDbDictionary
281
     1
  3
2dWireframe
350
9A7A
  3
Basic
350
9A79
  3
Brighten
350
9A80
  3
ColorChange
350
9A84
  3
Conceptual
350
9A7D
  3
Dim
350
9A7F
  3
EdgeColorOff
350
9A8C
  3
Facepattern
350
9A83
  3
Flat
350
9A75
  3
FlatWithEdges
350
9A76
  3
Gouraud
350
9A77
  3
GouraudWithEdges
350
9A78
  3
Hidden
350
9A7C
  3
JitterOff
350
9A8A
  3
Linepattern
350
9A82
  3
OverhangOff
350
9A8B
  3
Realistic
350
9A7E
  3
Shaded
350
9A89
  3
Shaded with edges
350
9A88
  3
Shades of Gray
350
9A85
  3
Sketchy
350
9A86
  3
Thicken
350
9A81
  3
Wireframe
350
9A7B
  3
X-Ray
350
9A87
  0
XRECORD
  5
9AC9
102
{ACAD_REACTORS
330
97DE
102
}
330
97DE
100
AcDbXrecord
280
     1
 90
        1
330
9A8F
  0
DICTIONARY
  5
9ABC
102
{ACAD_REACTORS
330
97DE
102
}
330
97DE
100
AcDbDictionary
281
     1
  3
CANNOSCALE
350
9AC1
  3
CMLEADERSTYLE
350
9ABE
  3
CTABLESTYLE
350
9ABD
  3
CVIEWDETAILSTYLE
350
9ABF
  3
CVIEWSECTIONSTYLE
350
9AC0
  3
DIMASSOC
350
9AC4
  3
INDEXCTL
350
9AC3
  3
SORTENTS
350
9AC2
  3
XCLIPFRAME
350
9AC5
  0
XRECORD
  5
9ACA
102
{ACAD_REACTORS
330
97DE
102
}
330
97DE
100
AcDbXrecord
280
     1
  1
DWGPROPS COOKIE
  2

  3

  4

  6

  7

  8
Yoshitsune
  9

300
=
301
=
302
=
303
=
304
=
305
=
306
=
307
=
308
=
309
=
 40
0.0000144212962963
 41
2450932.560484144
 42
2457192.600693727
  1

 90
        0
  0
XRECORD
  5
9AAD
102
{ACAD_REACTORS
330
9AAC
102
}
330
9AAC
100
AcDbXrecord
280
     1
290
     1
  0
XRECORD
  5
9AAF
102
{ACAD_REACTORS
330
9AAE
102
}
330
9AAE
100
AcDbXrecord
280
     1
290
     1
  0
XRECORD
  5
9AB1
102
{ACAD_REACTORS
330
9AB0
102
}
330
9AB0
100
AcDbXrecord
280
     1
290
     1
  0
XRECORD
  5
9AB3
102
{ACAD_REACTORS
330
9AB2
102
}
330
9AB2
100
AcDbXrecord
280
     1
290
     1
  0
XRECORD
  5
9AB5
102
{ACAD_REACTORS
330
9AB4
102
}
330
9AB4
100
AcDbXrecord
280
     1
290
     1
  0
XRECORD
  5
9AB7
102
{ACAD_REACTORS
330
9AB6
102
}
330
9AB6
100
AcDbXrecord
280
     1
290
     1
  0
XRECORD
  5
9AB9
102
{ACAD_REACTORS
330
9AB8
102
}
330
9AB8
100
AcDbXrecord
280
     1
290
     1
  0
XRECORD
  5
9ABB
102
{ACAD_REACTORS
330
9ABA
102
}
330
9ABA
100
AcDbXrecord
280
     1
290
     1
  0
XRECORD
  5
9A55
102
{ACAD_REACTORS
330
9A54
102
}
330
9A54
100
AcDbXrecord
280
     1
340
97F0
  0
XRECORD
  5
9A53
102
{ACAD_REACTORS
330
9A52
102
}
330
9A52
100
AcDbXrecord
280
     1
340
97EC
  0
ACDBDETAILVIEWSTYLE
  5
9AA7
102
{ACAD_XDICTIONARY
360
9B02
102
}
102
{ACAD_REACTORS
330
9AA6
102
}
330
9AA6
100
AcDbModelDocViewStyle
 70
     0
  3
Imperial24
290
     0
100
AcDbDetailViewStyle
 70
     0
 71
     0
 90
        3
 71
     1
340
97E3
 40
0.24
340
0
 40
0.24
300

 40
0.36
280
     3
 71
     2
340
97E7
 90
       25
 71
     3
340
97E3
 40
0.24
 90
        1
 40
0.75
 90
        1
300
%<\AcVar ViewType \f "%tc1">% %<\AcVar ViewDetailId>%\PSCALE %<\AcVar ViewScale \f "%sn">%
 71
     4
340
97E7
 90
       25
340
97E7
 90
       25
280
     0
  0
LAYOUT
  5
9AA8
102
{ACAD_XDICTIONARY
360
9B04
102
}
102
{ACAD_REACTORS
330
97EB
102
}
330
97EB
100
AcDbPlotSettings
  1

  2
Canon LBP9100C
  4

  6

 40
0.0
 41
0.0
 42
0.0
 43
0.0
 44
0.0
 45
0.0
 46
0.0
 47
0.0
 48
0.0
 49
0.0
140
0.0
141
0.0
142
1.0
143
1.0
 70
  1712
 72
     0
 73
     0
 74
     0
  7

 75
     0
147
1.0
148
0.0
149
0.0
100
AcDbLayout
  1
Model
 70
     1
 71
     0
 10
0.0
 20
0.0
 11
12.0
 21
9.0
 12
0.0
 22
0.0
 32
0.0
 14
0.0
 24
0.0
 34
0.0
 15
0.0
 25
0.0
 35
0.0
146
0.0
 13
0.0
 23
0.0
 33
0.0
 16
1.0
 26
0.0
 36
0.0
 17
0.0
 27
1.0
 37
0.0
 76
     0
330
97F0
331
9A51
  0
LAYOUT
  5
9AA9
102
{ACAD_XDICTIONARY
360
9B06
102
}
102
{ACAD_REACTORS
330
97EB
102
}
330
97EB
100
AcDbPlotSettings
  1

  2
Canon LBP9100C
  4

  6

 40
0.0
 41
0.0
 42
0.0
 43
0.0
 44
0.0
 45
0.0
 46
0.0
 47
0.0
 48
0.0
 49
0.0
140
0.0
141
0.0
142
1.0
143
1.0
 70
   688
 72
     0
 73
     0
 74
     5
  7

 75
    16
147
1.0
148
0.0
149
0.0
100
AcDbLayout
  1
レイアウト1
 70
     0
 71
     1
 10
0.0
 20
0.0
 11
420.0
 21
297.0
 12
0.0
 22
0.0
 32
0.0
 14
1.000000000000000E+20
 24
1.000000000000000E+20
 34
1.000000000000000E+20
 15
-1.000000000000000E+20
 25
-1.000000000000000E+20
 35
-1.000000000000000E+20
146
0.0
 13
0.0
 23
0.0
 33
0.0
 16
1.0
 26
0.0
 36
0.0
 17
0.0
 27
1.0
 37
0.0
 76
     0
330
97EC
  0
MATERIAL
  5
9A64
102
{ACAD_XDICTIONARY
360
9A65
102
}
102
{ACAD_REACTORS
330
9A5B
102
}
330
9A5B
100
AcDbMaterial
  1
ByBlock
 72
     0
 43
0.0208333333333333
 43
0.0
 43
0.0
 43
0.0
 43
0.0
 43
0.0208333333333333
 43
0.0
 43
0.0
 43
0.0
 43
0.0
 43
1.0
 43
0.0
 43
0.0
 43
0.0
 43
0.0
 43
1.0
 77
     0
 47
0.0208333333333333
 47
0.0
 47
0.0
 47
0.0
 47
0.0
 47
0.0208333333333333
 47
0.0
 47
0.0
 47
0.0
 47
0.0
 47
1.0
 47
0.0
 47
0.0
 47
0.0
 47
0.0
 47
1.0
171
     0
 49
0.0208333333333333
 49
0.0
 49
0.0
 49
0.0
 49
0.0
 49
0.0208333333333333
 49
0.0
 49
0.0
 49
0.0
 49
0.0
 49
1.0
 49
0.0
 49
0.0
 49
0.0
 49
0.0
 49
1.0
175
     0
142
0.0208333333333333
142
0.0
142
0.0
142
0.0
142
0.0
142
0.0208333333333333
142
0.0
142
0.0
142
0.0
142
0.0
142
1.0
142
0.0
142
0.0
142
0.0
142
0.0
142
1.0
179
     0
144
0.0208333333333333
144
0.0
144
0.0
144
0.0
144
0.0
144
0.0208333333333333
144
0.0
144
0.0
144
0.0
144
0.0
144
1.0
144
0.0
144
0.0
144
0.0
144
0.0
144
1.0
147
0.0208333333333333
147
0.0
147
0.0
147
0.0
147
0.0
147
0.0208333333333333
147
0.0
147
0.0
147
0.0
147
0.0
147
1.0
147
0.0
147
0.0
147
0.0
147
0.0
147
1.0
  0
MATERIAL
  5
9A5C
102
{ACAD_XDICTIONARY
360
9A5D
102
}
102
{ACAD_REACTORS
330
9A5B
102
}
330
9A5B
100
AcDbMaterial
  1
ByLayer
 72
     0
 43
0.0208333333333333
 43
0.0
 43
0.0
 43
0.0
 43
0.0
 43
0.0208333333333333
 43
0.0
 43
0.0
 43
0.0
 43
0.0
 43
1.0
 43
0.0
 43
0.0
 43
0.0
 43
0.0
 43
1.0
 77
     0
 47
0.0208333333333333
 47
0.0
 47
0.0
 47
0.0
 47
0.0
 47
0.0208333333333333
 47
0.0
 47
0.0
 47
0.0
 47
0.0
 47
1.0
 47
0.0
 47
0.0
 47
0.0
 47
0.0
 47
1.0
171
     0
 49
0.0208333333333333
 49
0.0
 49
0.0
 49
0.0
 49
0.0
 49
0.0208333333333333
 49
0.0
 49
0.0
 49
0.0
 49
0.0
 49
1.0
 49
0.0
 49
0.0
 49
0.0
 49
0.0
 49
1.0
175
     0
142
0.0208333333333333
142
0.0
142
0.0
142
0.0
142
0.0
142
0.0208333333333333
142
0.0
142
0.0
142
0.0
142
0.0
142
1.0
142
0.0
142
0.0
142
0.0
142
0.0
142
1.0
179
     0
144
0.0208333333333333
144
0.0
144
0.0
144
0.0
144
0.0
144
0.0208333333333333
144
0.0
144
0.0
144
0.0
144
0.0
144
1.0
144
0.0
144
0.0
144
0.0
144
0.0
144
1.0
147
0.0208333333333333
147
0.0
147
0.0
147
0.0
147
0.0
147
0.0208333333333333
147
0.0
147
0.0
147
0.0
147
0.0
147
1.0
147
0.0
147
0.0
147
0.0
147
0.0
147
1.0
  0
MATERIAL
  5
9A6C
102
{ACAD_XDICTIONARY
360
9A6D
102
}
102
{ACAD_REACTORS
330
9A5B
102
}
330
9A5B
100
AcDbMaterial
  1
Global
 72
     0
 43
0.0208333333333333
 43
0.0
 43
0.0
 43
0.0
 43
0.0
 43
0.0208333333333333
 43
0.0
 43
0.0
 43
0.0
 43
0.0
 43
1.0
 43
0.0
 43
0.0
 43
0.0
 43
0.0
 43
1.0
 77
     0
 47
0.0208333333333333
 47
0.0
 47
0.0
 47
0.0
 47
0.0
 47
0.0208333333333333
 47
0.0
 47
0.0
 47
0.0
 47
0.0
 47
1.0
 47
0.0
 47
0.0
 47
0.0
 47
0.0
 47
1.0
171
     0
 49
0.0208333333333333
 49
0.0
 49
0.0
 49
0.0
 49
0.0
 49
0.0208333333333333
 49
0.0
 49
0.0
 49
0.0
 49
0.0
 49
1.0
 49
0.0
 49
0.0
 49
0.0
 49
0.0
 49
1.0
175
     0
142
0.0208333333333333
142
0.0
142
0.0
142
0.0
142
0.0
142
0.0208333333333333
142
0.0
142
0.0
142
0.0
142
0.0
142
1.0
142
0.0
142
0.0
142
0.0
142
0.0
142
1.0
179
     0
144
0.0208333333333333
144
0.0
144
0.0
144
0.0
144
0.0
144
0.0208333333333333
144
0.0
144
0.0
144
0.0
144
0.0
144
1.0
144
0.0
144
0.0
144
0.0
144
0.0
144
1.0
147
0.0208333333333333
147
0.0
147
0.0
147
0.0
147
0.0
147
0.0208333333333333
147
0.0
147
0.0
147
0.0
147
0.0
147
1.0
147
0.0
147
0.0
147
0.0
147
0.0
147
1.0
  0
MLEADERSTYLE
  5
9AA3
102
{ACAD_REACTORS
330
9AA2
102
}
330
9AA2
100
AcDbMLeaderStyle
170
     2
171
     1
172
     0
 90
        2
 40
0.0
 41
0.0
173
     1
 91
-1056964608
340
97E5
 92
       -2
290
     1
 42
0.09
291
     1
 43
0.36
  3
Standard
 44
0.18
300

342
97E3
174
     1
178
     6
175
     1
176
     0
 93
-1056964608
 45
0.18
292
     0
297
     0
 46
0.18
 94
-1056964608
 47
1.0
 49
1.0
140
1.0
293
     1
141
0.0
294
     1
177
     0
142
1.0
295
     0
296
     0
143
0.125
1001
ACAD_MLEADERVER
1070
     2
  0
MLINESTYLE
  5
97E9
102
{ACAD_REACTORS
330
97E8
102
}
330
97E8
100
AcDbMlineStyle
  2
STANDARD
 70
     0
  3

 62
   256
 51
90.0
 52
90.0
 71
     2
 49
0.5
 62
   256
  6
BYLAYER
 49
-0.5
 62
   256
  6
BYLAYER
  0
ACDBPLACEHOLDER
  5
9A5A
102
{ACAD_REACTORS
330
9A59
102
}
330
9A59
  0
SCALE
  5
9A91
102
{ACAD_REACTORS
330
9A90
102
}
330
9A90
100
AcDbScale
 70
     0
300
1:1
140
1.0
141
1.0
290
     1
  0
SCALE
  5
9A92
102
{ACAD_REACTORS
330
9A90
102
}
330
9A90
100
AcDbScale
 70
     0
300
1/128" = 1'-0"
140
0.0078125
141
12.0
290
     0
  0
SCALE
  5
9A93
102
{ACAD_REACTORS
330
9A90
102
}
330
9A90
100
AcDbScale
 70
     0
300
1/64" = 1'-0"
140
0.015625
141
12.0
290
     0
  0
SCALE
  5
9A94
102
{ACAD_REACTORS
330
9A90
102
}
330
9A90
100
AcDbScale
 70
     0
300
1/32" = 1'-0"
140
0.03125
141
12.0
290
     0
  0
SCALE
  5
9A95
102
{ACAD_REACTORS
330
9A90
102
}
330
9A90
100
AcDbScale
 70
     0
300
1/16" = 1'-0"
140
0.0625
141
12.0
290
     0
  0
SCALE
  5
9A96
102
{ACAD_REACTORS
330
9A90
102
}
330
9A90
100
AcDbScale
 70
     0
300
3/32" = 1'-0"
140
0.09375
141
12.0
290
     0
  0
SCALE
  5
9A97
102
{ACAD_REACTORS
330
9A90
102
}
330
9A90
100
AcDbScale
 70
     0
300
1/8" = 1'-0"
140
0.125
141
12.0
290
     0
  0
SCALE
  5
9A98
102
{ACAD_REACTORS
330
9A90
102
}
330
9A90
100
AcDbScale
 70
     0
300
3/16" = 1'-0"
140
0.1875
141
12.0
290
     0
  0
SCALE
  5
9A99
102
{ACAD_REACTORS
330
9A90
102
}
330
9A90
100
AcDbScale
 70
     0
300
1/4" = 1'-0"
140
0.25
141
12.0
290
     0
  0
SCALE
  5
9A9A
102
{ACAD_REACTORS
330
9A90
102
}
330
9A90
100
AcDbScale
 70
     0
300
3/8" = 1'-0"
140
0.375
141
12.0
290
     0
  0
SCALE
  5
9A9B
102
{ACAD_REACTORS
330
9A90
102
}
330
9A90
100
AcDbScale
 70
     0
300
1/2" = 1'-0"
140
0.5
141
12.0
290
     0
  0
SCALE
  5
9A9C
102
{ACAD_REACTORS
330
9A90
102
}
330
9A90
100
AcDbScale
 70
     0
300
3/4" = 1'-0"
140
0.75
141
12.0
290
     0
  0
SCALE
  5
9A9D
102
{ACAD_REACTORS
330
9A90
102
}
330
9A90
100
AcDbScale
 70
     0
300
1" = 1'-0"
140
1.0
141
12.0
290
     0
  0
SCALE
  5
9A9E
102
{ACAD_REACTORS
330
9A90
102
}
330
9A90
100
AcDbScale
 70
     0
300
1-1/2" = 1'-0"
140
1.5
141
12.0
290
     0
  0
SCALE
  5
9A9F
102
{ACAD_REACTORS
330
9A90
102
}
330
9A90
100
AcDbScale
 70
     0
300
3" = 1'-0"
140
3.0
141
12.0
290
     0
  0
SCALE
  5
9AA0
102
{ACAD_REACTORS
330
9A90
102
}
330
9A90
100
AcDbScale
 70
     0
300
6" = 1'-0"
140
6.0
141
12.0
290
     0
  0
SCALE
  5
9AA1
102
{ACAD_REACTORS
330
9A90
102
}
330
9A90
100
AcDbScale
 70
     0
300
1'-0" = 1'-0"
140
12.0
141
12.0
290
     0
  0
ACDBSECTIONVIEWSTYLE
  5
9AA5
102
{ACAD_XDICTIONARY
360
9B00
102
}
102
{ACAD_REACTORS
330
9AA4
102
}
330
9AA4
100
AcDbModelDocViewStyle
 70
     0
  3
Imperial24
290
     0
100
AcDbSectionViewStyle
 70
     0
 71
     0
 90
       78
 71
     1
340
97E3
 40
0.24
340
0
340
0
 40
0.24
300
I, O, Q, S, X, Z
 40
0.48
 90
        3
 40
0.18
 90
        1
 71
     2
340
97E7
 90
       25
340
97E7
 90
       50
 40
0.24
 40
0.0
 40
0.24
 71
     3
340
97E3
 40
0.24
 90
        1
 40
0.75
 90
        1
300
%<\AcVar ViewType \f "%tc1">% %<\AcVar ViewSectionStartId>%-%<\AcVar ViewSectionEndId>%\PSCALE %<\AcVar ViewScale \f "%sn">%
 71
     4
300
ANSI31
 40
1.0
 90
        0
290
     0
290
     0
 90
        6
 40
0.0
 40
1.570796326794896
 40
0.2617993877991494
 40
1.308996938995747
 40
-0.2617993877991494
 40
1.832595714594046
  0
TABLESTYLE
  5
9A8F
102
{ACAD_XDICTIONARY
360
9AC7
102
}
102
{ACAD_REACTORS
330
9A8E
102
}
330
9A8E
100
AcDbTableStyle
  3
Standard
 70
     0
 71
     0
 40
0.06
 41
0.06
280
     0
281
     0
  7
STANDARD
140
0.18
170
     2
 62
     0
 63
     7
283
     0
274
    -2
284
     1
 64
     0
275
    -2
285
     1
 65
     0
276
    -2
286
     1
 66
     0
277
    -2
287
     1
 67
     0
278
    -2
288
     1
 68
     0
279
    -2
289
     1
 69
     0
  7
STANDARD
140
0.25
170
     5
 62
     0
 63
     7
283
     0
274
    -2
284
     1
 64
     0
275
    -2
285
     1
 65
     0
276
    -2
286
     1
 66
     0
277
    -2
287
     1
 67
     0
278
    -2
288
     1
 68
     0
279
    -2
289
     1
 69
     0
  7
STANDARD
140
0.18
170
     5
 62
     0
 63
     7
283
     0
274
    -2
284
     1
 64
     0
275
    -2
285
     1
 65
     0
276
    -2
286
     1
 66
     0
277
    -2
287
     1
 67
     0
278
    -2
288
     1
 68
     0
279
    -2
289
     1
 69
     0
  0
VISUALSTYLE
  5
9A7A
102
{ACAD_XDICTIONARY
360
9AD8
102
}
102
{ACAD_REACTORS
330
9A74
102
}
330
9A74
100
AcDbVisualStyle
  2
2dWireframe
 70
     4
 71
     0
 72
     2
 73
     0
 90
        0
 40
-0.6
 41
-30.0
 62
     5
 63
     7
 74
     1
 91
        4
 64
     7
 65
   257
 75
     1
175
     1
 42
1.0
 92
        0
 66
   257
 43
1.0
 76
     1
 77
     6
 78
     2
 67
     7
 79
     5
170
     0
171
     0
290
     0
174
     0
 93
        1
 44
0.0
173
     0
291
     0
 45
0.0
1001
ACAD
1000
AcDbSavedByObjectVersion
1070
     0
  0
VISUALSTYLE
  5
9A79
102
{ACAD_XDICTIONARY
360
9AD6
102
}
102
{ACAD_REACTORS
330
9A74
102
}
330
9A74
100
AcDbVisualStyle
  2
Basic
 70
     7
 71
     1
 72
     0
 73
     1
 90
        0
 40
-0.6
 41
-30.0
 62
     5
 63
     7
 74
     0
 91
        4
 64
     7
 65
   257
 75
     1
175
     1
 42
1.0
 92
        8
 66
     7
 43
1.0
 76
     1
 77
     6
 78
     2
 67
     7
 79
     5
170
     0
171
     0
290
     0
174
     0
 93
        1
 44
0.0
173
     0
291
     1
 45
0.0
1001
ACAD
1000
AcDbSavedByObjectVersion
1070
     0
  0
VISUALSTYLE
  5
9A80
102
{ACAD_XDICTIONARY
360
9AE4
102
}
102
{ACAD_REACTORS
330
9A74
102
}
330
9A74
100
AcDbVisualStyle
  2
Brighten
 70
    12
 71
     2
 72
     2
 73
     0
 90
        0
 40
-0.6
 41
-30.0
 62
     5
 63
     7
 74
     1
 91
        4
 64
     7
 65
   257
 75
     1
175
     1
 42
1.0
 92
        8
 66
     7
 43
1.0
 76
     1
 77
     6
 78
     2
 67
     7
 79
     5
170
     0
171
     0
290
     0
174
     0
 93
        1
 44
50.0
173
     0
291
     1
 45
0.0
1001
ACAD
1000
AcDbSavedByObjectVersion
1070
     0
  0
VISUALSTYLE
  5
9A84
102
{ACAD_XDICTIONARY
360
9AEC
102
}
102
{ACAD_REACTORS
330
9A74
102
}
330
9A74
100
AcDbVisualStyle
  2
ColorChange
 70
    16
 71
     2
 72
     2
 73
     3
 90
        0
 40
-0.6
 41
-30.0
 62
     5
 63
     8
 74
     1
 91
        4
 64
     7
 65
   257
 75
     1
175
     1
 42
1.0
 92
        8
 66
     8
 43
1.0
 76
     1
 77
     6
 78
     2
 67
     7
 79
     5
170
     0
171
     0
290
     0
174
     0
 93
        1
 44
0.0
173
     0
291
     1
 45
0.0
1001
ACAD
1000
AcDbSavedByObjectVersion
1070
     0
  0
VISUALSTYLE
  5
9A7D
102
{ACAD_XDICTIONARY
360
9ADE
102
}
102
{ACAD_REACTORS
330
9A74
102
}
330
9A74
100
AcDbVisualStyle
  2
Conceptual
 70
     9
 71
     3
 72
     2
 73
     0
 90
        0
 40
-0.6
 41
-30.0
 62
     5
 63
     7
 74
     2
 91
        2
 64
     7
 65
   257
 75
     1
175
     1
 42
179.0
 92
        8
 66
     7
 43
1.0
 76
     1
 77
     6
 78
     2
 67
     7
 79
     3
170
     0
171
     0
290
     0
174
     0
 93
        1
 44
0.0
173
     0
291
     0
 45
0.0
1001
ACAD
1000
AcDbSavedByObjectVersion
1070
     0
  0
VISUALSTYLE
  5
9A7F
102
{ACAD_XDICTIONARY
360
9AE2
102
}
102
{ACAD_REACTORS
330
9A74
102
}
330
9A74
100
AcDbVisualStyle
  2
Dim
 70
    11
 71
     2
 72
     2
 73
     0
 90
        0
 40
-0.6
 41
-30.0
 62
     5
 63
     7
 74
     1
 91
        4
 64
     7
 65
   257
 75
     1
175
     1
 42
1.0
 92
        8
 66
     7
 43
1.0
 76
     1
 77
     6
 78
     2
 67
     7
 79
     5
170
     0
171
     0
290
     0
174
     0
 93
        1
 44
-50.0
173
     0
291
     1
 45
0.0
1001
ACAD
1000
AcDbSavedByObjectVersion
1070
     0
  0
VISUALSTYLE
  5
9A8C
102
{ACAD_XDICTIONARY
360
9AFC
102
}
102
{ACAD_REACTORS
330
9A74
102
}
330
9A74
100
AcDbVisualStyle
  2
EdgeColorOff
 70
    22
 71
     2
 72
     2
 73
     0
 90
        0
 40
-0.6
 41
-30.0
 62
     5
 63
     7
 74
     1
 91
        4
 64
     7
 65
   257
 75
     1
175
     1
 42
1.0
 92
        8
 66
     7
 43
1.0
 76
     1
 77
     6
 78
     2
 67
     7
 79
     5
170
     0
171
     0
290
     0
174
     0
 93
        1
 44
0.0
173
     0
291
     1
 45
0.0
1001
ACAD
1000
AcDbSavedByObjectVersion
1070
     0
  0
VISUALSTYLE
  5
9A83
102
{ACAD_XDICTIONARY
360
9AEA
102
}
102
{ACAD_REACTORS
330
9A74
102
}
330
9A74
100
AcDbVisualStyle
  2
Facepattern
 70
    15
 71
     2
 72
     2
 73
     0
 90
        0
 40
-0.6
 41
-30.0
 62
     5
 63
     7
 74
     1
 91
        4
 64
     7
 65
   257
 75
     1
175
     1
 42
1.0
 92
        8
 66
     7
 43
1.0
 76
     1
 77
     6
 78
     2
 67
     7
 79
     5
170
     0
171
     0
290
     0
174
     0
 93
        1
 44
0.0
173
     0
291
     1
 45
0.0
1001
ACAD
1000
AcDbSavedByObjectVersion
1070
     0
  0
VISUALSTYLE
  5
9A75
102
{ACAD_XDICTIONARY
360
9ACE
102
}
102
{ACAD_REACTORS
330
9A74
102
}
330
9A74
100
AcDbVisualStyle
  2
Flat
 70
     0
 71
     2
 72
     1
 73
     1
 90
        2
 40
-0.6
 41
30.0
 62
     5
 63
     7
 74
     0
 91
        0
 64
     7
 65
   257
 75
     1
175
     1
 42
1.0
 92
        8
 66
     7
 43
1.0
 76
     1
 77
     6
 78
     2
 67
     7
 79
     5
170
     0
171
     0
290
     0
174
     0
 93
       13
 44
0.0
173
     0
291
     1
 45
0.0
1001
ACAD
1000
AcDbSavedByObjectVersion
1070
     0
  0
VISUALSTYLE
  5
9A76
102
{ACAD_XDICTIONARY
360
9AD0
102
}
102
{ACAD_REACTORS
330
9A74
102
}
330
9A74
100
AcDbVisualStyle
  2
FlatWithEdges
 70
     1
 71
     2
 72
     1
 73
     1
 90
        2
 40
-0.6
 41
30.0
 62
     5
 63
     7
 74
     1
 91
        0
 64
     7
 65
   257
 75
     1
175
     1
 42
1.0
 92
        0
 66
   257
 43
1.0
 76
     1
 77
     6
 78
     2
 67
     7
 79
     5
170
     0
171
     0
290
     0
174
     0
 93
       13
 44
0.0
173
     0
291
     1
 45
0.0
1001
ACAD
1000
AcDbSavedByObjectVersion
1070
     0
  0
VISUALSTYLE
  5
9A77
102
{ACAD_XDICTIONARY
360
9AD2
102
}
102
{ACAD_REACTORS
330
9A74
102
}
330
9A74
100
AcDbVisualStyle
  2
Gouraud
 70
     2
 71
     2
 72
     2
 73
     1
 90
        2
 40
-0.6
 41
30.0
 62
     5
 63
     7
 74
     0
 91
        0
 64
     7
 65
   257
 75
     1
175
     1
 42
1.0
 92
        0
 66
     7
 43
1.0
 76
     1
 77
     6
 78
     2
 67
     7
 79
     5
170
     0
171
     0
290
     0
174
     0
 93
       13
 44
0.0
173
     0
291
     1
 45
0.0
1001
ACAD
1000
AcDbSavedByObjectVersion
1070
     0
  0
VISUALSTYLE
  5
9A78
102
{ACAD_XDICTIONARY
360
9AD4
102
}
102
{ACAD_REACTORS
330
9A74
102
}
330
9A74
100
AcDbVisualStyle
  2
GouraudWithEdges
 70
     3
 71
     2
 72
     2
 73
     1
 90
        2
 40
-0.6
 41
30.0
 62
     5
 63
     7
 74
     1
 91
        0
 64
     7
 65
   257
 75
     1
175
     1
 42
1.0
 92
        0
 66
   257
 43
1.0
 76
     1
 77
     6
 78
     2
 67
     7
 79
     5
170
     0
171
     0
290
     0
174
     0
 93
       13
 44
0.0
173
     0
291
     1
 45
0.0
1001
ACAD
1000
AcDbSavedByObjectVersion
1070
     0
  0
VISUALSTYLE
  5
9A7C
102
{ACAD_XDICTIONARY
360
9ADC
102
}
102
{ACAD_REACTORS
330
9A74
102
}
330
9A74
100
AcDbVisualStyle
  2
Hidden
 70
     6
 71
     1
 72
     2
 73
     2
 90
        0
 40
-0.6
 41
-30.0
 62
     5
 63
     7
 74
     2
 91
        2
 64
     7
 65
   257
 75
     2
175
     1
 42
40.0
 92
        0
 66
   257
 43
1.0
 76
     1
 77
     6
 78
     2
 67
     7
 79
     3
170
     0
171
     0
290
     0
174
     0
 93
        1
 44
0.0
173
     0
291
     0
 45
0.0
1001
ACAD
1000
AcDbSavedByObjectVersion
1070
     0
  0
VISUALSTYLE
  5
9A8A
102
{ACAD_XDICTIONARY
360
9AF8
102
}
102
{ACAD_REACTORS
330
9A74
102
}
330
9A74
100
AcDbVisualStyle
  2
JitterOff
 70
    20
 71
     2
 72
     2
 73
     0
 90
        0
 40
-0.6
 41
-30.0
 62
     5
 63
     7
 74
     1
 91
        4
 64
     7
 65
   257
 75
     1
175
     1
 42
1.0
 92
       10
 66
     7
 43
1.0
 76
     1
 77
     6
 78
     2
 67
     7
 79
     5
170
     0
171
     0
290
     0
174
     0
 93
        1
 44
0.0
173
     0
291
     1
 45
0.0
1001
ACAD
1000
AcDbSavedByObjectVersion
1070
     0
  0
VISUALSTYLE
  5
9A82
102
{ACAD_XDICTIONARY
360
9AE8
102
}
102
{ACAD_REACTORS
330
9A74
102
}
330
9A74
100
AcDbVisualStyle
  2
Linepattern
 70
    14
 71
     2
 72
     2
 73
     0
 90
        0
 40
-0.6
 41
-30.0
 62
     5
 63
     7
 74
     1
 91
        4
 64
     7
 65
   257
 75
     7
175
     7
 42
1.0
 92
        8
 66
     7
 43
1.0
 76
     1
 77
     6
 78
     2
 67
     7
 79
     5
170
     0
171
     0
290
     0
174
     0
 93
        1
 44
0.0
173
     0
291
     1
 45
0.0
1001
ACAD
1000
AcDbSavedByObjectVersion
1070
     0
  0
VISUALSTYLE
  5
9A8B
102
{ACAD_XDICTIONARY
360
9AFA
102
}
102
{ACAD_REACTORS
330
9A74
102
}
330
9A74
100
AcDbVisualStyle
  2
OverhangOff
 70
    21
 71
     2
 72
     2
 73
     0
 90
        0
 40
-0.6
 41
-30.0
 62
     5
 63
     7
 74
     1
 91
        4
 64
     7
 65
   257
 75
     1
175
     1
 42
1.0
 92
        9
 66
     7
 43
1.0
 76
     1
 77
     6
 78
     2
 67
     7
 79
     5
170
     0
171
     0
290
     0
174
     0
 93
        1
 44
0.0
173
     0
291
     1
 45
0.0
1001
ACAD
1000
AcDbSavedByObjectVersion
1070
     0
  0
VISUALSTYLE
  5
9A7E
102
{ACAD_XDICTIONARY
360
9AE0
102
}
102
{ACAD_REACTORS
330
9A74
102
}
330
9A74
100
AcDbVisualStyle
  2
Realistic
 70
     8
 71
     2
 72
     3
 73
     0
 90
        2
 40
-0.6
 41
30.0
 62
     5
 63
     7
 74
     0
 91
        0
 64
     7
 65
   257
 75
     1
175
     1
 42
1.0
 92
        8
 66
   257
 43
1.0
 76
     1
 77
     6
 78
     2
 67
     7
 79
     3
170
     0
171
     0
290
     0
174
     0
 93
       13
 44
0.0
173
     0
291
     0
 45
0.0
1001
ACAD
1000
AcDbSavedByObjectVersion
1070
     0
  0
VISUALSTYLE
  5
9A89
102
{ACAD_XDICTIONARY
360
9AF6
102
}
102
{ACAD_REACTORS
330
9A74
102
}
330
9A74
100
AcDbVisualStyle
  2
Shaded
 70
    27
 71
     2
 72
     2
 73
     1
 90
        2
 40
-0.6
 41
30.0
 62
     5
 63
     7
 74
     0
 91
        4
 64
     7
 65
   257
 75
     1
175
     1
 42
1.0
 92
        8
 66
   257
 43
1.0
 76
     1
 77
     6
 78
     2
 67
     8
 79
     3
170
     0
171
     0
290
     0
174
     0
 93
        5
 44
0.0
173
     0
291
     0
 45
0.0
1001
ACAD
1000
AcDbSavedByObjectVersion
1070
     0
  0
VISUALSTYLE
  5
9A88
102
{ACAD_XDICTIONARY
360
9AF4
102
}
102
{ACAD_REACTORS
330
9A74
102
}
330
9A74
100
AcDbVisualStyle
  2
Shaded with edges
 70
    26
 71
     2
 72
     2
 73
     1
 90
        2
 40
-0.6
 41
30.0
 62
     5
 63
     7
 74
     1
 91
       10
 64
     7
 65
   257
 75
     2
175
     1
 42
1.0
 92
        8
 66
   257
 43
1.0
 76
     1
 77
     6
 78
     2
 67
     7
 79
     3
170
     0
171
     0
290
     0
174
     0
 93
        5
 44
0.0
173
     0
291
     0
 45
0.0
1001
ACAD
1000
AcDbSavedByObjectVersion
1070
     0
  0
VISUALSTYLE
  5
9A85
102
{ACAD_XDICTIONARY
360
9AEE
102
}
102
{ACAD_REACTORS
330
9A74
102
}
330
9A74
100
AcDbVisualStyle
  2
Shades of Gray
 70
    23
 71
     2
 72
     2
 73
     3
 90
        0
 40
-0.6
 41
-30.0
 62
     5
 63
     7
 74
     2
 91
        2
 64
     7
 65
     7
 75
     1
175
     1
 42
40.0
 92
        8
 66
     7
 43
1.0
 76
     1
 77
     6
 78
     2
 67
     7
 79
     3
170
     0
171
     0
290
     0
174
     0
 93
        1
 44
0.0
173
     0
291
     0
 45
0.0
1001
ACAD
1000
AcDbSavedByObjectVersion
1070
     0
  0
VISUALSTYLE
  5
9A86
102
{ACAD_XDICTIONARY
360
9AF0
102
}
102
{ACAD_REACTORS
330
9A74
102
}
330
9A74
100
AcDbVisualStyle
  2
Sketchy
 70
    24
 71
     1
 72
     2
 73
     2
 90
        0
 40
-0.6
 41
-30.0
 62
     5
 63
     7
 74
     2
 91
        2
 64
     7
 65
     7
 75
     1
175
     1
 42
40.0
 92
       11
 66
     7
 43
1.0
 76
     1
 77
     6
 78
     2
 67
     7
 79
     6
170
     0
171
     0
290
     0
174
     0
 93
        1
 44
0.0
173
     0
291
     0
 45
0.0
1001
ACAD
1000
AcDbSavedByObjectVersion
1070
     0
  0
VISUALSTYLE
  5
9A81
102
{ACAD_XDICTIONARY
360
9AE6
102
}
102
{ACAD_REACTORS
330
9A74
102
}
330
9A74
100
AcDbVisualStyle
  2
Thicken
 70
    13
 71
     2
 72
     2
 73
     0
 90
        0
 40
-0.6
 41
-30.0
 62
     5
 63
     7
 74
     1
 91
        4
 64
     7
 65
   257
 75
     1
175
     1
 42
1.0
 92
       12
 66
     7
 43
1.0
 76
     1
 77
     6
 78
     2
 67
     7
 79
     5
170
     0
171
     0
290
     0
174
     0
 93
        1
 44
0.0
173
     0
291
     1
 45
0.0
1001
ACAD
1000
AcDbSavedByObjectVersion
1070
     0
  0
VISUALSTYLE
  5
9A7B
102
{ACAD_XDICTIONARY
360
9ADA
102
}
102
{ACAD_REACTORS
330
9A74
102
}
330
9A74
100
AcDbVisualStyle
  2
Wireframe
 70
     5
 71
     0
 72
     2
 73
     0
 90
        0
 40
-0.6
 41
-30.0
 62
     5
 63
     7
 74
     1
 91
        4
 64
     7
 65
   257
 75
     1
175
     1
 42
1.0
 92
        0
 66
   257
 43
1.0
 76
     1
 77
     6
 78
     2
 67
     7
 79
     3
170
     0
171
     0
290
     0
174
     0
 93
        1
 44
0.0
173
     0
291
     0
 45
0.0
1001
ACAD
1000
AcDbSavedByObjectVersion
1070
     0
  0
VISUALSTYLE
  5
9A87
102
{ACAD_XDICTIONARY
360
9AF2
102
}
102
{ACAD_REACTORS
330
9A74
102
}
330
9A74
100
AcDbVisualStyle
  2
X-Ray
 70
    25
 71
     2
 72
     2
 73
     1
 90
        1
 40
0.5
 41
-30.0
 62
     5
 63
     7
 74
     1
 91
        0
 64
     7
 65
   257
 75
     1
175
     1
 42
1.0
 92
        8
 66
     7
 43
1.0
 76
     1
 77
     6
 78
     2
 67
     7
 79
     3
170
     0
171
     0
290
     0
174
     0
 93
       13
 44
0.0
173
     0
291
     0
 45
0.0
1001
ACAD
1000
AcDbSavedByObjectVersion
1070
     0
  0
DICTIONARYVAR
  5
9AC1
102
{ACAD_REACTORS
330
9ABC
102
}
330
9ABC
100
DictionaryVariables
280
     0
  1
1:1
  0
DICTIONARYVAR
  5
9ABE
102
{ACAD_REACTORS
330
9ABC
102
}
330
9ABC
100
DictionaryVariables
280
     0
  1
STANDARD
  0
DICTIONARYVAR
  5
9ABD
102
{ACAD_REACTORS
330
9ABC
102
}
330
9ABC
100
DictionaryVariables
280
     0
  1
STANDARD
  0
DICTIONARYVAR
  5
9ABF
102
{ACAD_REACTORS
330
9ABC
102
}
330
9ABC
100
DictionaryVariables
280
     0
  1
Imperial24
  0
DICTIONARYVAR
  5
9AC0
102
{ACAD_REACTORS
330
9ABC
102
}
330
9ABC
100
DictionaryVariables
280
     0
  1
Imperial24
  0
DICTIONARYVAR
  5
9AC4
102
{ACAD_REACTORS
330
9ABC
102
}
330
9ABC
100
DictionaryVariables
280
     0
  1
1
  0
DICTIONARYVAR
  5
9AC3
102
{ACAD_REACTORS
330
9ABC
102
}
330
9ABC
100
DictionaryVariables
280
     0
  1
0
  0
DICTIONARYVAR
  5
9AC2
102
{ACAD_REACTORS
330
9ABC
102
}
330
9ABC
100
DictionaryVariables
280
     0
  1
127
  0
DICTIONARYVAR
  5
9AC5
102
{ACAD_REACTORS
330
9ABC
102
}
330
9ABC
100
DictionaryVariables
280
     0
  1
2
  0
DICTIONARY
  5
9B02
330
9AA7
100
AcDbDictionary
280
     1
281
     1
  3
ACAD_XREC_ROUNDTRIP
360
9B03
  0
DICTIONARY
  5
9B04
330
9AA8
100
AcDbDictionary
280
     1
281
     1
  3
ACAD_XREC_ROUNDTRIP
360
9B05
  0
DICTIONARY
  5
9B06
330
9AA9
100
AcDbDictionary
280
     1
281
     1
  3
ACAD_XREC_ROUNDTRIP
360
9B07
  0
DICTIONARY
  5
9A65
330
9A64
100
AcDbDictionary
280
     1
281
     1
  3
ACAD_XREC_ROUNDTRIP
360
9ACC
  3
BUMPTILE
360
9A67
  3
DIFFUSETILE
360
9A66
  3
OPACITYTILE
360
9A6A
  3
REFLECTIONTILE
360
9A69
  3
REFRACTIONTILE
360
9A6B
  3
SPECULARTILE
360
9A68
  0
DICTIONARY
  5
9A5D
330
9A5C
100
AcDbDictionary
280
     1
281
     1
  3
ACAD_XREC_ROUNDTRIP
360
9ACB
  3
BUMPTILE
360
9A5F
  3
DIFFUSETILE
360
9A5E
  3
OPACITYTILE
360
9A62
  3
REFLECTIONTILE
360
9A61
  3
REFRACTIONTILE
360
9A63
  3
SPECULARTILE
360
9A60
  0
DICTIONARY
  5
9A6D
330
9A6C
100
AcDbDictionary
280
     1
281
     1
  3
ACAD_XREC_ROUNDTRIP
360
9ACD
  3
BUMPTILE
360
9A6F
  3
DIFFUSETILE
360
9A6E
  3
OPACITYTILE
360
9A72
  3
REFLECTIONTILE
360
9A71
  3
REFRACTIONTILE
360
9A73
  3
SPECULARTILE
360
9A70
  0
DICTIONARY
  5
9B00
330
9AA5
100
AcDbDictionary
280
     1
281
     1
  3
ACAD_XREC_ROUNDTRIP
360
9B01
  0
DICTIONARY
  5
9AC7
330
9A8F
100
AcDbDictionary
280
     1
281
     1
  3
ACAD_ROUNDTRIP_2008_TABLESTYLE_CELLSTYLEMAP
360
9AC8
  3
ACAD_XREC_ROUNDTRIP
360
9AFE
  0
DICTIONARY
  5
9AD8
330
9A7A
100
AcDbDictionary
280
     1
281
     1
  3
ACAD_XREC_ROUNDTRIP
360
9AD9
  0
DICTIONARY
  5
9AD6
330
9A79
100
AcDbDictionary
280
     1
281
     1
  3
ACAD_XREC_ROUNDTRIP
360
9AD7
  0
DICTIONARY
  5
9AE4
330
9A80
100
AcDbDictionary
280
     1
281
     1
  3
ACAD_XREC_ROUNDTRIP
360
9AE5
  0
DICTIONARY
  5
9AEC
330
9A84
100
AcDbDictionary
280
     1
281
     1
  3
ACAD_XREC_ROUNDTRIP
360
9AED
  0
DICTIONARY
  5
9ADE
330
9A7D
100
AcDbDictionary
280
     1
281
     1
  3
ACAD_XREC_ROUNDTRIP
360
9ADF
  0
DICTIONARY
  5
9AE2
330
9A7F
100
AcDbDictionary
280
     1
281
     1
  3
ACAD_XREC_ROUNDTRIP
360
9AE3
  0
DICTIONARY
  5
9AFC
330
9A8C
100
AcDbDictionary
280
     1
281
     1
  3
ACAD_XREC_ROUNDTRIP
360
9AFD
  0
DICTIONARY
  5
9AEA
330
9A83
100
AcDbDictionary
280
     1
281
     1
  3
ACAD_XREC_ROUNDTRIP
360
9AEB
  0
DICTIONARY
  5
9ACE
330
9A75
100
AcDbDictionary
280
     1
281
     1
  3
ACAD_XREC_ROUNDTRIP
360
9ACF
  0
DICTIONARY
  5
9AD0
330
9A76
100
AcDbDictionary
280
     1
281
     1
  3
ACAD_XREC_ROUNDTRIP
360
9AD1
  0
DICTIONARY
  5
9AD2
330
9A77
100
AcDbDictionary
280
     1
281
     1
  3
ACAD_XREC_ROUNDTRIP
360
9AD3
  0
DICTIONARY
  5
9AD4
330
9A78
100
AcDbDictionary
280
     1
281
     1
  3
ACAD_XREC_ROUNDTRIP
360
9AD5
  0
DICTIONARY
  5
9ADC
330
9A7C
100
AcDbDictionary
280
     1
281
     1
  3
ACAD_XREC_ROUNDTRIP
360
9ADD
  0
DICTIONARY
  5
9AF8
330
9A8A
100
AcDbDictionary
280
     1
281
     1
  3
ACAD_XREC_ROUNDTRIP
360
9AF9
  0
DICTIONARY
  5
9AE8
330
9A82
100
AcDbDictionary
280
     1
281
     1
  3
ACAD_XREC_ROUNDTRIP
360
9AE9
  0
DICTIONARY
  5
9AFA
330
9A8B
100
AcDbDictionary
280
     1
281
     1
  3
ACAD_XREC_ROUNDTRIP
360
9AFB
  0
DICTIONARY
  5
9AE0
330
9A7E
100
AcDbDictionary
280
     1
281
     1
  3
ACAD_XREC_ROUNDTRIP
360
9AE1
  0
DICTIONARY
  5
9AF6
330
9A89
100
AcDbDictionary
280
     1
281
     1
  3
ACAD_XREC_ROUNDTRIP
360
9AF7
  0
DICTIONARY
  5
9AF4
330
9A88
100
AcDbDictionary
280
     1
281
     1
  3
ACAD_XREC_ROUNDTRIP
360
9AF5
  0
DICTIONARY
  5
9AEE
330
9A85
100
AcDbDictionary
280
     1
281
     1
  3
ACAD_XREC_ROUNDTRIP
360
9AEF
  0
DICTIONARY
  5
9AF0
330
9A86
100
AcDbDictionary
280
     1
281
     1
  3
ACAD_XREC_ROUNDTRIP
360
9AF1
  0
DICTIONARY
  5
9AE6
330
9A81
100
AcDbDictionary
280
     1
281
     1
  3
ACAD_XREC_ROUNDTRIP
360
9AE7
  0
DICTIONARY
  5
9ADA
330
9A7B
100
AcDbDictionary
280
     1
281
     1
  3
ACAD_XREC_ROUNDTRIP
360
9ADB
  0
DICTIONARY
  5
9AF2
330
9A87
100
AcDbDictionary
280
     1
281
     1
  3
ACAD_XREC_ROUNDTRIP
360
9AF3
  0
XRECORD
  5
9B03
102
{ACAD_REACTORS
330
9B02
102
}
330
9B02
100
AcDbXrecord
280
     1
102
DISPLAYNAME
  1
Imperial24
102
FLAGS
 90
        0
  0
XRECORD
  5
9B05
102
{ACAD_REACTORS
330
9B04
102
}
330
9B04
100
AcDbXrecord
280
     1
102
SHADEPLOT
 70
     0
102
SHADEPLOTRESLEVEL
 70
     2
102
SHADEPLOTCUSTOMDPI
 70
   300
  0
XRECORD
  5
9B07
102
{ACAD_REACTORS
330
9B06
102
}
330
9B06
100
AcDbXrecord
280
     1
102
SHADEPLOT
 70
     0
102
SHADEPLOTRESLEVEL
 70
     2
102
SHADEPLOTCUSTOMDPI
 70
   300
  0
XRECORD
  5
9ACC
102
{ACAD_REACTORS
330
9A65
102
}
330
9A65
100
AcDbXrecord
280
     1
102
MATERIAL
148
0.0
149
0.0
149
0.0
 93
        0
 94
      127
282
     0
 72
     0
 77
     0
171
     0
175
     0
179
     0
273
     0
  0
XRECORD
  5
9A67
102
{ACAD_REACTORS
330
9A65
102
}
330
9A65
100
AcDbXrecord
280
     1
270
     1
271
     1
  0
XRECORD
  5
9A66
102
{ACAD_REACTORS
330
9A65
102
}
330
9A65
100
AcDbXrecord
280
     1
270
     1
271
     1
  0
XRECORD
  5
9A6A
102
{ACAD_REACTORS
330
9A65
102
}
330
9A65
100
AcDbXrecord
280
     1
270
     1
271
     1
  0
XRECORD
  5
9A69
102
{ACAD_REACTORS
330
9A65
102
}
330
9A65
100
AcDbXrecord
280
     1
270
     1
271
     1
  0
XRECORD
  5
9A6B
102
{ACAD_REACTORS
330
9A65
102
}
330
9A65
100
AcDbXrecord
280
     1
270
     1
271
     1
  0
XRECORD
  5
9A68
102
{ACAD_REACTORS
330
9A65
102
}
330
9A65
100
AcDbXrecord
280
     1
270
     1
271
     1
  0
XRECORD
  5
9ACB
102
{ACAD_REACTORS
330
9A5D
102
}
330
9A5D
100
AcDbXrecord
280
     1
102
MATERIAL
148
0.0
149
0.0
149
0.0
 93
        0
 94
      127
282
     0
 72
     0
 77
     0
171
     0
175
     0
179
     0
273
     0
  0
XRECORD
  5
9A5F
102
{ACAD_REACTORS
330
9A5D
102
}
330
9A5D
100
AcDbXrecord
280
     1
270
     1
271
     1
  0
XRECORD
  5
9A5E
102
{ACAD_REACTORS
330
9A5D
102
}
330
9A5D
100
AcDbXrecord
280
     1
270
     1
271
     1
  0
XRECORD
  5
9A62
102
{ACAD_REACTORS
330
9A5D
102
}
330
9A5D
100
AcDbXrecord
280
     1
270
     1
271
     1
  0
XRECORD
  5
9A61
102
{ACAD_REACTORS
330
9A5D
102
}
330
9A5D
100
AcDbXrecord
280
     1
270
     1
271
     1
  0
XRECORD
  5
9A63
102
{ACAD_REACTORS
330
9A5D
102
}
330
9A5D
100
AcDbXrecord
280
     1
270
     1
271
     1
  0
XRECORD
  5
9A60
102
{ACAD_REACTORS
330
9A5D
102
}
330
9A5D
100
AcDbXrecord
280
     1
270
     1
271
     1
  0
XRECORD
  5
9ACD
102
{ACAD_REACTORS
330
9A6D
102
}
330
9A6D
100
AcDbXrecord
280
     1
102
MATERIAL
148
0.0
149
0.0
149
0.0
 93
        0
 94
      127
282
     0
 72
     0
 77
     0
171
     0
175
     0
179
     0
273
     0
  0
XRECORD
  5
9A6F
102
{ACAD_REACTORS
330
9A6D
102
}
330
9A6D
100
AcDbXrecord
280
     1
270
     1
271
     1
  0
XRECORD
  5
9A6E
102
{ACAD_REACTORS
330
9A6D
102
}
330
9A6D
100
AcDbXrecord
280
     1
270
     1
271
     1
  0
XRECORD
  5
9A72
102
{ACAD_REACTORS
330
9A6D
102
}
330
9A6D
100
AcDbXrecord
280
     1
270
     1
271
     1
  0
XRECORD
  5
9A71
102
{ACAD_REACTORS
330
9A6D
102
}
330
9A6D
100
AcDbXrecord
280
     1
270
     1
271
     1
  0
XRECORD
  5
9A73
102
{ACAD_REACTORS
330
9A6D
102
}
330
9A6D
100
AcDbXrecord
280
     1
270
     1
271
     1
  0
XRECORD
  5
9A70
102
{ACAD_REACTORS
330
9A6D
102
}
330
9A6D
100
AcDbXrecord
280
     1
270
     1
271
     1
  0
XRECORD
  5
9B01
102
{ACAD_REACTORS
330
9B00
102
}
330
9B00
100
AcDbXrecord
280
     1
102
DISPLAYNAME
  1
Imperial24
102
FLAGS
 90
        0
  0
CELLSTYLEMAP
  5
9AC8
102
{ACAD_REACTORS
330
9AC7
102
}
330
9AC7
100
AcDbCellStyleMap
 90
        3
300
CELLSTYLE
  1
TABLEFORMAT_BEGIN
 90
        5
170
     1
 91
        0
 92
    32768
 62
   257
 93
        1
300
CONTENTFORMAT
  1
CONTENTFORMAT_BEGIN
 90
        0
 91
        0
 92
      512
 93
        0
300

 40
0.0
140
1.0
 94
        5
 62
     0
340
97E3
144
0.25
309
CONTENTFORMAT_END
171
     0
 94
        0
309
TABLEFORMAT_END
  1
CELLSTYLE_BEGIN
 90
        1
 91
        1
300
_TITLE
309
CELLSTYLE_END
300
CELLSTYLE
  1
TABLEFORMAT_BEGIN
 90
        5
170
     1
 91
        0
 92
        0
 62
   257
 93
        1
300
CONTENTFORMAT
  1
CONTENTFORMAT_BEGIN
 90
        0
 91
        0
 92
      512
 93
        0
300

 40
0.0
140
1.0
 94
        5
 62
     0
340
97E3
144
0.18
309
CONTENTFORMAT_END
171
     0
 94
        0
309
TABLEFORMAT_END
  1
CELLSTYLE_BEGIN
 90
        2
 91
        1
300
_HEADER
309
CELLSTYLE_END
300
CELLSTYLE
  1
TABLEFORMAT_BEGIN
 90
        5
170
     1
 91
        0
 92
        0
 62
   257
 93
        1
300
CONTENTFORMAT
  1
CONTENTFORMAT_BEGIN
 90
        0
 91
        0
 92
      512
 93
        0
300

 40
0.0
140
1.0
 94
        2
 62
     0
340
97E3
144
0.18
309
CONTENTFORMAT_END
171
     0
 94
        0
309
TABLEFORMAT_END
  1
CELLSTYLE_BEGIN
 90
        3
 91
        2
300
_DATA
309
CELLSTYLE_END
  0
XRECORD
  5
9AFE
102
{ACAD_REACTORS
330
9AC7
102
}
330
9AC7
100
AcDbXrecord
280
     1
102
ACAD_ROUNDTRIP_PRE2007_TABLESTYLE
 90
      512
 91
        0
  1

 92
      512
 93
        0
  2

 94
      512
 95
        0
  3

  0
XRECORD
  5
9AD9
102
{ACAD_REACTORS
330
9AD8
102
}
330
9AD8
100
AcDbXrecord
280
     1
102
RTVSPost2010Prop28
280
     1
102
RTVSPost2010PropOp28
 70
     1
102
RTVSPost2010Prop29
280
     1
102
RTVSPost2010PropOp29
 70
     1
102
RTVSPost2010Prop30
280
     0
102
RTVSPost2010PropOp30
 70
     1
102
RTVSPost2010Prop31
280
     0
102
RTVSPost2010PropOp31
 70
     1
102
RTVSPost2010Prop32
280
     0
102
RTVSPost2010PropOp32
 70
     1
102
RTVSPost2010Prop33
280
     0
102
RTVSPost2010PropOp33
 70
     1
102
RTVSPost2010Prop34
280
     0
102
RTVSPost2010PropOp34
 70
     1
102
RTVSPost2010Prop35
280
     0
102
RTVSPost2010PropOp35
 70
     1
102
RTVSPost2010Prop36
280
     0
102
RTVSPost2010PropOp36
 70
     1
102
RTVSPost2010Prop37
 90
       50
102
RTVSPost2010PropOp37
 70
     1
102
RTVSPost2010Prop38
140
0.0
102
RTVSPost2010PropOp38
 70
     1
102
RTVSPost2010Prop39
140
1.0
102
RTVSPost2010PropOp39
 70
     1
102
RTVSPost2010Prop40
 90
        0
102
RTVSPost2010PropOp40
 70
     1
102
RTVSPost2010Prop41ColorIndex
 90
       18
102
RTVSPost2010Prop41ColorRGB
 90
        0
102
RTVSPost2010PropOp41
 70
     1
102
RTVSPost2010Prop42
 90
       50
102
RTVSPost2010PropOp42
 70
     1
102
RTVSPost2010Prop43
 90
        3
102
RTVSPost2010PropOp43
 70
     1
102
RTVSPost2010Prop44ColorIndex
 90
        5
102
RTVSPost2010Prop44ColorRGB
 90
      255
102
RTVSPost2010PropOp44
 70
     1
102
RTVSPost2010Prop45
280
     0
102
RTVSPost2010PropOp45
 70
     1
102
RTVSPost2010Prop46
 90
       50
102
RTVSPost2010PropOp46
 70
     1
102
RTVSPost2010Prop47
 90
       50
102
RTVSPost2010PropOp47
 70
     1
102
RTVSPost2010Prop48
 90
       50
102
RTVSPost2010PropOp48
 70
     1
102
RTVSPost2010Prop49
280
     0
102
RTVSPost2010PropOp49
 70
     1
102
RTVSPost2010Prop50
 90
       50
102
RTVSPost2010PropOp50
 70
     1
102
RTVSPost2010Prop51ColorIndex
 90
      256
102
RTVSPost2010Prop51ColorRGB
 90
-16777216
102
RTVSPost2010PropOp51
 70
     0
102
RTVSPost2010Prop52
140
1.0
102
RTVSPost2010PropOp52
 70
     0
102
RTVSPost2010Prop53
 90
        2
102
RTVSPost2010PropOp53
 70
     1
102
RTVSPost2010Prop54
  1
strokes_ogs.tif
102
RTVSPost2010PropOp54
 70
     1
102
RTVSPost2010Prop55
280
     0
102
RTVSPost2010PropOp55
 70
     1
102
RTVSPost2010Prop56
140
1.0
102
RTVSPost2010PropOp56
 70
     1
102
RTVSPost2010Prop57
140
1.0
102
RTVSPost2010PropOp57
 70
     1
102
RTVSPropertyOp0
 70
     1
102
RTVSPropertyOp1
 70
     1
102
RTVSPropertyOp2
 70
     1
102
RTVSPropertyOp3
 70
     1
102
RTVSPropertyOp4
 70
     1
102
RTVSPropertyOp5
 70
     1
102
RTVSPropertyOp6
 70
     1
102
RTVSPropertyOp7
 70
     1
102
RTVSPropertyOp8
 70
     1
102
RTVSPropertyOp9
 70
     1
102
RTVSPropertyOp10
 70
     1
102
RTVSPropertyOp11
 70
     1
102
RTVSPropertyOp12
 70
     1
102
RTVSPropertyOp13
 70
     1
102
RTVSPropertyOp14
 70
     1
102
RTVSPropertyOp15
 70
     1
102
RTVSPropertyOp16
 70
     1
102
RTVSPropertyOp17
 70
     1
102
RTVSPropertyOp18
 70
     1
102
RTVSPropertyOp19
 70
     1
102
RTVSPropertyOp20
 70
     1
102
RTVSPropertyOp21
 70
     1
102
RTVSPropertyOp22
 70
     1
102
RTVSPropertyOp23
 70
     1
102
RTVSPropertyOp24
 70
     1
102
RTVSPropertyOp25
 70
     1
102
RTVSPropertyOp26
 70
     1
102
RTVSPropertyOp27
 70
     1
102
RTVSPropertyOp28
 70
     1
102
RTVSPropertyOp29
 70
     1
102
RTVSPropertyOp30
 70
     1
102
RTVSPropertyOp31
 70
     1
102
RTVSPropertyOp32
 70
     1
102
RTVSPropertyOp33
 70
     1
102
RTVSPropertyOp34
 70
     1
102
RTVSPropertyOp35
 70
     1
102
RTVSPropertyOp36
 70
     1
102
RTVSPropertyOp37
 70
     1
102
RTVSPropertyOp38
 70
     1
102
RTVSPropertyOp39
 70
     1
102
RTVSPropertyOp40
 70
     1
102
RTVSPropertyOp41
 70
     1
102
RTVSPropertyOp42
 70
     1
102
RTVSPropertyOp43
 70
     1
102
RTVSPropertyOp44
 70
     1
102
RTVSPropertyOp45
 70
     1
102
RTVSPropertyOp46
 70
     1
102
RTVSPropertyOp47
 70
     1
102
RTVSPropertyOp48
 70
     1
102
RTVSPropertyOp49
 70
     1
102
RTVSPropertyOp50
 70
     1
102
RTVSPropertyOp51
 70
     0
102
RTVSPropertyOp52
 70
     0
102
RTVSPropertyOp53
 70
     1
102
RTVSPropertyOp54
 70
     1
102
RTVSPropertyOp55
 70
     1
102
RTVSPropertyOp56
 70
     1
102
RTVSPropertyOp57
 70
     1
102
RTVSPropertyOp58
 70
     1
102
RTVSPropertyOp59
 70
     1
102
RTVSPropertyOp60
 70
     1
102
RTVSPropertyOp61
 70
     1
102
RTVSPropertyOp62
 70
     1
  0
XRECORD
  5
9AD7
102
{ACAD_REACTORS
330
9AD6
102
}
330
9AD6
100
AcDbXrecord
280
     1
102
RTVSPost2010Prop28
280
     0
102
RTVSPost2010PropOp28
 70
     1
102
RTVSPost2010Prop29
280
     1
102
RTVSPost2010PropOp29
 70
     1
102
RTVSPost2010Prop30
280
     1
102
RTVSPost2010PropOp30
 70
     1
102
RTVSPost2010Prop31
280
     0
102
RTVSPost2010PropOp31
 70
     1
102
RTVSPost2010Prop32
280
     0
102
RTVSPost2010PropOp32
 70
     1
102
RTVSPost2010Prop33
280
     0
102
RTVSPost2010PropOp33
 70
     1
102
RTVSPost2010Prop34
280
     0
102
RTVSPost2010PropOp34
 70
     1
102
RTVSPost2010Prop35
280
     0
102
RTVSPost2010PropOp35
 70
     1
102
RTVSPost2010Prop36
280
     0
102
RTVSPost2010PropOp36
 70
     1
102
RTVSPost2010Prop37
 90
       50
102
RTVSPost2010PropOp37
 70
     1
102
RTVSPost2010Prop38
140
0.0
102
RTVSPost2010PropOp38
 70
     1
102
RTVSPost2010Prop39
140
1.0
102
RTVSPost2010PropOp39
 70
     1
102
RTVSPost2010Prop40
 90
        0
102
RTVSPost2010PropOp40
 70
     1
102
RTVSPost2010Prop41ColorIndex
 90
       18
102
RTVSPost2010Prop41ColorRGB
 90
        0
102
RTVSPost2010PropOp41
 70
     1
102
RTVSPost2010Prop42
 90
       50
102
RTVSPost2010PropOp42
 70
     1
102
RTVSPost2010Prop43
 90
        3
102
RTVSPost2010PropOp43
 70
     1
102
RTVSPost2010Prop44ColorIndex
 90
        5
102
RTVSPost2010Prop44ColorRGB
 90
      255
102
RTVSPost2010PropOp44
 70
     1
102
RTVSPost2010Prop45
280
     0
102
RTVSPost2010PropOp45
 70
     1
102
RTVSPost2010Prop46
 90
       50
102
RTVSPost2010PropOp46
 70
     1
102
RTVSPost2010Prop47
 90
       50
102
RTVSPost2010PropOp47
 70
     1
102
RTVSPost2010Prop48
 90
       50
102
RTVSPost2010PropOp48
 70
     1
102
RTVSPost2010Prop49
280
     0
102
RTVSPost2010PropOp49
 70
     1
102
RTVSPost2010Prop50
 90
       50
102
RTVSPost2010PropOp50
 70
     1
102
RTVSPost2010Prop51ColorIndex
 90
      256
102
RTVSPost2010Prop51ColorRGB
 90
-16777216
102
RTVSPost2010PropOp51
 70
     0
102
RTVSPost2010Prop52
140
1.0
102
RTVSPost2010PropOp52
 70
     0
102
RTVSPost2010Prop53
 90
        2
102
RTVSPost2010PropOp53
 70
     1
102
RTVSPost2010Prop54
  1
strokes_ogs.tif
102
RTVSPost2010PropOp54
 70
     1
102
RTVSPost2010Prop55
280
     0
102
RTVSPost2010PropOp55
 70
     1
102
RTVSPost2010Prop56
140
1.0
102
RTVSPost2010PropOp56
 70
     1
102
RTVSPost2010Prop57
140
1.0
102
RTVSPost2010PropOp57
 70
     1
102
RTVSPropertyOp0
 70
     1
102
RTVSPropertyOp1
 70
     1
102
RTVSPropertyOp2
 70
     1
102
RTVSPropertyOp3
 70
     1
102
RTVSPropertyOp4
 70
     1
102
RTVSPropertyOp5
 70
     1
102
RTVSPropertyOp6
 70
     1
102
RTVSPropertyOp7
 70
     1
102
RTVSPropertyOp8
 70
     1
102
RTVSPropertyOp9
 70
     1
102
RTVSPropertyOp10
 70
     1
102
RTVSPropertyOp11
 70
     1
102
RTVSPropertyOp12
 70
     1
102
RTVSPropertyOp13
 70
     1
102
RTVSPropertyOp14
 70
     1
102
RTVSPropertyOp15
 70
     1
102
RTVSPropertyOp16
 70
     1
102
RTVSPropertyOp17
 70
     1
102
RTVSPropertyOp18
 70
     1
102
RTVSPropertyOp19
 70
     1
102
RTVSPropertyOp20
 70
     1
102
RTVSPropertyOp21
 70
     1
102
RTVSPropertyOp22
 70
     1
102
RTVSPropertyOp23
 70
     1
102
RTVSPropertyOp24
 70
     1
102
RTVSPropertyOp25
 70
     1
102
RTVSPropertyOp26
 70
     1
102
RTVSPropertyOp27
 70
     1
102
RTVSPropertyOp28
 70
     1
102
RTVSPropertyOp29
 70
     1
102
RTVSPropertyOp30
 70
     1
102
RTVSPropertyOp31
 70
     1
102
RTVSPropertyOp32
 70
     1
102
RTVSPropertyOp33
 70
     1
102
RTVSPropertyOp34
 70
     1
102
RTVSPropertyOp35
 70
     1
102
RTVSPropertyOp36
 70
     1
102
RTVSPropertyOp37
 70
     1
102
RTVSPropertyOp38
 70
     1
102
RTVSPropertyOp39
 70
     1
102
RTVSPropertyOp40
 70
     1
102
RTVSPropertyOp41
 70
     1
102
RTVSPropertyOp42
 70
     1
102
RTVSPropertyOp43
 70
     1
102
RTVSPropertyOp44
 70
     1
102
RTVSPropertyOp45
 70
     1
102
RTVSPropertyOp46
 70
     1
102
RTVSPropertyOp47
 70
     1
102
RTVSPropertyOp48
 70
     1
102
RTVSPropertyOp49
 70
     1
102
RTVSPropertyOp50
 70
     1
102
RTVSPropertyOp51
 70
     0
102
RTVSPropertyOp52
 70
     0
102
RTVSPropertyOp53
 70
     1
102
RTVSPropertyOp54
 70
     1
102
RTVSPropertyOp55
 70
     1
102
RTVSPropertyOp56
 70
     1
102
RTVSPropertyOp57
 70
     1
102
RTVSPropertyOp58
 70
     1
102
RTVSPropertyOp59
 70
     1
102
RTVSPropertyOp60
 70
     1
102
RTVSPropertyOp61
 70
     1
102
RTVSPropertyOp62
 70
     1
  0
XRECORD
  5
9AE5
102
{ACAD_REACTORS
330
9AE4
102
}
330
9AE4
100
AcDbXrecord
280
     1
102
RTVSPost2010Prop28
280
     0
102
RTVSPost2010PropOp28
 70
     1
102
RTVSPost2010Prop29
280
     1
102
RTVSPost2010PropOp29
 70
     1
102
RTVSPost2010Prop30
280
     1
102
RTVSPost2010PropOp30
 70
     1
102
RTVSPost2010Prop31
280
     0
102
RTVSPost2010PropOp31
 70
     1
102
RTVSPost2010Prop32
280
     0
102
RTVSPost2010PropOp32
 70
     1
102
RTVSPost2010Prop33
280
     0
102
RTVSPost2010PropOp33
 70
     1
102
RTVSPost2010Prop34
280
     0
102
RTVSPost2010PropOp34
 70
     1
102
RTVSPost2010Prop35
280
     0
102
RTVSPost2010PropOp35
 70
     1
102
RTVSPost2010Prop36
280
     0
102
RTVSPost2010PropOp36
 70
     1
102
RTVSPost2010Prop37
 90
       50
102
RTVSPost2010PropOp37
 70
     1
102
RTVSPost2010Prop38
140
0.0
102
RTVSPost2010PropOp38
 70
     1
102
RTVSPost2010Prop39
140
1.0
102
RTVSPost2010PropOp39
 70
     1
102
RTVSPost2010Prop40
 90
        0
102
RTVSPost2010PropOp40
 70
     1
102
RTVSPost2010Prop41ColorIndex
 90
       18
102
RTVSPost2010Prop41ColorRGB
 90
        0
102
RTVSPost2010PropOp41
 70
     1
102
RTVSPost2010Prop42
 90
       50
102
RTVSPost2010PropOp42
 70
     1
102
RTVSPost2010Prop43
 90
        3
102
RTVSPost2010PropOp43
 70
     1
102
RTVSPost2010Prop44ColorIndex
 90
        5
102
RTVSPost2010Prop44ColorRGB
 90
      255
102
RTVSPost2010PropOp44
 70
     1
102
RTVSPost2010Prop45
280
     0
102
RTVSPost2010PropOp45
 70
     1
102
RTVSPost2010Prop46
 90
       50
102
RTVSPost2010PropOp46
 70
     1
102
RTVSPost2010Prop47
 90
       50
102
RTVSPost2010PropOp47
 70
     1
102
RTVSPost2010Prop48
 90
       50
102
RTVSPost2010PropOp48
 70
     1
102
RTVSPost2010Prop49
280
     0
102
RTVSPost2010PropOp49
 70
     1
102
RTVSPost2010Prop50
 90
       50
102
RTVSPost2010PropOp50
 70
     1
102
RTVSPost2010Prop51ColorIndex
 90
      256
102
RTVSPost2010Prop51ColorRGB
 90
-16777216
102
RTVSPost2010PropOp51
 70
     0
102
RTVSPost2010Prop52
140
1.0
102
RTVSPost2010PropOp52
 70
     0
102
RTVSPost2010Prop53
 90
        2
102
RTVSPost2010PropOp53
 70
     1
102
RTVSPost2010Prop54
  1
strokes_ogs.tif
102
RTVSPost2010PropOp54
 70
     1
102
RTVSPost2010Prop55
280
     0
102
RTVSPost2010PropOp55
 70
     1
102
RTVSPost2010Prop56
140
1.0
102
RTVSPost2010PropOp56
 70
     1
102
RTVSPost2010Prop57
140
1.0
102
RTVSPost2010PropOp57
 70
     1
102
RTVSPropertyOp0
 70
     1
102
RTVSPropertyOp1
 70
     1
102
RTVSPropertyOp2
 70
     1
102
RTVSPropertyOp3
 70
     1
102
RTVSPropertyOp4
 70
     1
102
RTVSPropertyOp5
 70
     1
102
RTVSPropertyOp6
 70
     1
102
RTVSPropertyOp7
 70
     1
102
RTVSPropertyOp8
 70
     1
102
RTVSPropertyOp9
 70
     1
102
RTVSPropertyOp10
 70
     1
102
RTVSPropertyOp11
 70
     1
102
RTVSPropertyOp12
 70
     1
102
RTVSPropertyOp13
 70
     1
102
RTVSPropertyOp14
 70
     1
102
RTVSPropertyOp15
 70
     1
102
RTVSPropertyOp16
 70
     1
102
RTVSPropertyOp17
 70
     1
102
RTVSPropertyOp18
 70
     1
102
RTVSPropertyOp19
 70
     1
102
RTVSPropertyOp20
 70
     1
102
RTVSPropertyOp21
 70
     1
102
RTVSPropertyOp22
 70
     1
102
RTVSPropertyOp23
 70
     1
102
RTVSPropertyOp24
 70
     1
102
RTVSPropertyOp25
 70
     1
102
RTVSPropertyOp26
 70
     1
102
RTVSPropertyOp27
 70
     1
102
RTVSPropertyOp28
 70
     1
102
RTVSPropertyOp29
 70
     1
102
RTVSPropertyOp30
 70
     1
102
RTVSPropertyOp31
 70
     1
102
RTVSPropertyOp32
 70
     1
102
RTVSPropertyOp33
 70
     1
102
RTVSPropertyOp34
 70
     1
102
RTVSPropertyOp35
 70
     1
102
RTVSPropertyOp36
 70
     1
102
RTVSPropertyOp37
 70
     1
102
RTVSPropertyOp38
 70
     1
102
RTVSPropertyOp39
 70
     1
102
RTVSPropertyOp40
 70
     1
102
RTVSPropertyOp41
 70
     1
102
RTVSPropertyOp42
 70
     1
102
RTVSPropertyOp43
 70
     1
102
RTVSPropertyOp44
 70
     1
102
RTVSPropertyOp45
 70
     1
102
RTVSPropertyOp46
 70
     1
102
RTVSPropertyOp47
 70
     1
102
RTVSPropertyOp48
 70
     1
102
RTVSPropertyOp49
 70
     1
102
RTVSPropertyOp50
 70
     1
102
RTVSPropertyOp51
 70
     0
102
RTVSPropertyOp52
 70
     0
102
RTVSPropertyOp53
 70
     1
102
RTVSPropertyOp54
 70
     1
102
RTVSPropertyOp55
 70
     1
102
RTVSPropertyOp56
 70
     1
102
RTVSPropertyOp57
 70
     1
102
RTVSPropertyOp58
 70
     1
102
RTVSPropertyOp59
 70
     1
102
RTVSPropertyOp60
 70
     1
102
RTVSPropertyOp61
 70
     1
102
RTVSPropertyOp62
 70
     1
  0
XRECORD
  5
9AED
102
{ACAD_REACTORS
330
9AEC
102
}
330
9AEC
100
AcDbXrecord
280
     1
102
RTVSPost2010Prop28
280
     0
102
RTVSPost2010PropOp28
 70
     1
102
RTVSPost2010Prop29
280
     1
102
RTVSPost2010PropOp29
 70
     1
102
RTVSPost2010Prop30
280
     1
102
RTVSPost2010PropOp30
 70
     1
102
RTVSPost2010Prop31
280
     0
102
RTVSPost2010PropOp31
 70
     1
102
RTVSPost2010Prop32
280
     0
102
RTVSPost2010PropOp32
 70
     1
102
RTVSPost2010Prop33
280
     0
102
RTVSPost2010PropOp33
 70
     1
102
RTVSPost2010Prop34
280
     0
102
RTVSPost2010PropOp34
 70
     1
102
RTVSPost2010Prop35
280
     0
102
RTVSPost2010PropOp35
 70
     1
102
RTVSPost2010Prop36
280
     0
102
RTVSPost2010PropOp36
 70
     1
102
RTVSPost2010Prop37
 90
       50
102
RTVSPost2010PropOp37
 70
     1
102
RTVSPost2010Prop38
140
0.0
102
RTVSPost2010PropOp38
 70
     1
102
RTVSPost2010Prop39
140
1.0
102
RTVSPost2010PropOp39
 70
     1
102
RTVSPost2010Prop40
 90
        0
102
RTVSPost2010PropOp40
 70
     1
102
RTVSPost2010Prop41ColorIndex
 90
       18
102
RTVSPost2010Prop41ColorRGB
 90
        0
102
RTVSPost2010PropOp41
 70
     1
102
RTVSPost2010Prop42
 90
       50
102
RTVSPost2010PropOp42
 70
     1
102
RTVSPost2010Prop43
 90
        3
102
RTVSPost2010PropOp43
 70
     1
102
RTVSPost2010Prop44ColorIndex
 90
        5
102
RTVSPost2010Prop44ColorRGB
 90
      255
102
RTVSPost2010PropOp44
 70
     1
102
RTVSPost2010Prop45
280
     0
102
RTVSPost2010PropOp45
 70
     1
102
RTVSPost2010Prop46
 90
       50
102
RTVSPost2010PropOp46
 70
     1
102
RTVSPost2010Prop47
 90
       50
102
RTVSPost2010PropOp47
 70
     1
102
RTVSPost2010Prop48
 90
       50
102
RTVSPost2010PropOp48
 70
     1
102
RTVSPost2010Prop49
280
     0
102
RTVSPost2010PropOp49
 70
     1
102
RTVSPost2010Prop50
 90
       50
102
RTVSPost2010PropOp50
 70
     1
102
RTVSPost2010Prop51ColorIndex
 90
      256
102
RTVSPost2010Prop51ColorRGB
 90
-16777216
102
RTVSPost2010PropOp51
 70
     0
102
RTVSPost2010Prop52
140
1.0
102
RTVSPost2010PropOp52
 70
     0
102
RTVSPost2010Prop53
 90
        2
102
RTVSPost2010PropOp53
 70
     1
102
RTVSPost2010Prop54
  1
strokes_ogs.tif
102
RTVSPost2010PropOp54
 70
     1
102
RTVSPost2010Prop55
280
     0
102
RTVSPost2010PropOp55
 70
     1
102
RTVSPost2010Prop56
140
1.0
102
RTVSPost2010PropOp56
 70
     1
102
RTVSPost2010Prop57
140
1.0
102
RTVSPost2010PropOp57
 70
     1
102
RTVSPropertyOp0
 70
     1
102
RTVSPropertyOp1
 70
     1
102
RTVSPropertyOp2
 70
     1
102
RTVSPropertyOp3
 70
     1
102
RTVSPropertyOp4
 70
     1
102
RTVSPropertyOp5
 70
     1
102
RTVSPropertyOp6
 70
     1
102
RTVSPropertyOp7
 70
     1
102
RTVSPropertyOp8
 70
     1
102
RTVSPropertyOp9
 70
     1
102
RTVSPropertyOp10
 70
     1
102
RTVSPropertyOp11
 70
     1
102
RTVSPropertyOp12
 70
     1
102
RTVSPropertyOp13
 70
     1
102
RTVSPropertyOp14
 70
     1
102
RTVSPropertyOp15
 70
     1
102
RTVSPropertyOp16
 70
     1
102
RTVSPropertyOp17
 70
     1
102
RTVSPropertyOp18
 70
     1
102
RTVSPropertyOp19
 70
     1
102
RTVSPropertyOp20
 70
     1
102
RTVSPropertyOp21
 70
     1
102
RTVSPropertyOp22
 70
     1
102
RTVSPropertyOp23
 70
     1
102
RTVSPropertyOp24
 70
     1
102
RTVSPropertyOp25
 70
     1
102
RTVSPropertyOp26
 70
     1
102
RTVSPropertyOp27
 70
     1
102
RTVSPropertyOp28
 70
     1
102
RTVSPropertyOp29
 70
     1
102
RTVSPropertyOp30
 70
     1
102
RTVSPropertyOp31
 70
     1
102
RTVSPropertyOp32
 70
     1
102
RTVSPropertyOp33
 70
     1
102
RTVSPropertyOp34
 70
     1
102
RTVSPropertyOp35
 70
     1
102
RTVSPropertyOp36
 70
     1
102
RTVSPropertyOp37
 70
     1
102
RTVSPropertyOp38
 70
     1
102
RTVSPropertyOp39
 70
     1
102
RTVSPropertyOp40
 70
     1
102
RTVSPropertyOp41
 70
     1
102
RTVSPropertyOp42
 70
     1
102
RTVSPropertyOp43
 70
     1
102
RTVSPropertyOp44
 70
     1
102
RTVSPropertyOp45
 70
     1
102
RTVSPropertyOp46
 70
     1
102
RTVSPropertyOp47
 70
     1
102
RTVSPropertyOp48
 70
     1
102
RTVSPropertyOp49
 70
     1
102
RTVSPropertyOp50
 70
     1
102
RTVSPropertyOp51
 70
     0
102
RTVSPropertyOp52
 70
     0
102
RTVSPropertyOp53
 70
     1
102
RTVSPropertyOp54
 70
     1
102
RTVSPropertyOp55
 70
     1
102
RTVSPropertyOp56
 70
     1
102
RTVSPropertyOp57
 70
     1
102
RTVSPropertyOp58
 70
     1
102
RTVSPropertyOp59
 70
     1
102
RTVSPropertyOp60
 70
     1
102
RTVSPropertyOp61
 70
     1
102
RTVSPropertyOp62
 70
     1
  0
XRECORD
  5
9ADF
102
{ACAD_REACTORS
330
9ADE
102
}
330
9ADE
100
AcDbXrecord
280
     1
102
RTVSPost2010Prop28
280
     0
102
RTVSPost2010PropOp28
 70
     1
102
RTVSPost2010Prop29
280
     1
102
RTVSPost2010PropOp29
 70
     1
102
RTVSPost2010Prop30
280
     1
102
RTVSPost2010PropOp30
 70
     1
102
RTVSPost2010Prop31
280
     0
102
RTVSPost2010PropOp31
 70
     1
102
RTVSPost2010Prop32
280
     0
102
RTVSPost2010PropOp32
 70
     1
102
RTVSPost2010Prop33
280
     0
102
RTVSPost2010PropOp33
 70
     1
102
RTVSPost2010Prop34
280
     0
102
RTVSPost2010PropOp34
 70
     1
102
RTVSPost2010Prop35
280
     0
102
RTVSPost2010PropOp35
 70
     1
102
RTVSPost2010Prop36
280
     0
102
RTVSPost2010PropOp36
 70
     1
102
RTVSPost2010Prop37
 90
       50
102
RTVSPost2010PropOp37
 70
     1
102
RTVSPost2010Prop38
140
0.0
102
RTVSPost2010PropOp38
 70
     1
102
RTVSPost2010Prop39
140
1.0
102
RTVSPost2010PropOp39
 70
     1
102
RTVSPost2010Prop40
 90
        0
102
RTVSPost2010PropOp40
 70
     1
102
RTVSPost2010Prop41ColorIndex
 90
       18
102
RTVSPost2010Prop41ColorRGB
 90
        0
102
RTVSPost2010PropOp41
 70
     1
102
RTVSPost2010Prop42
 90
       50
102
RTVSPost2010PropOp42
 70
     1
102
RTVSPost2010Prop43
 90
        3
102
RTVSPost2010PropOp43
 70
     1
102
RTVSPost2010Prop44ColorIndex
 90
        5
102
RTVSPost2010Prop44ColorRGB
 90
      255
102
RTVSPost2010PropOp44
 70
     1
102
RTVSPost2010Prop45
280
     0
102
RTVSPost2010PropOp45
 70
     1
102
RTVSPost2010Prop46
 90
       50
102
RTVSPost2010PropOp46
 70
     1
102
RTVSPost2010Prop47
 90
       50
102
RTVSPost2010PropOp47
 70
     1
102
RTVSPost2010Prop48
 90
       50
102
RTVSPost2010PropOp48
 70
     1
102
RTVSPost2010Prop49
280
     0
102
RTVSPost2010PropOp49
 70
     1
102
RTVSPost2010Prop50
 90
       50
102
RTVSPost2010PropOp50
 70
     1
102
RTVSPost2010Prop51ColorIndex
 90
      256
102
RTVSPost2010Prop51ColorRGB
 90
-16777216
102
RTVSPost2010PropOp51
 70
     0
102
RTVSPost2010Prop52
140
1.0
102
RTVSPost2010PropOp52
 70
     0
102
RTVSPost2010Prop53
 90
        2
102
RTVSPost2010PropOp53
 70
     1
102
RTVSPost2010Prop54
  1
strokes_ogs.tif
102
RTVSPost2010PropOp54
 70
     1
102
RTVSPost2010Prop55
280
     0
102
RTVSPost2010PropOp55
 70
     1
102
RTVSPost2010Prop56
140
1.0
102
RTVSPost2010PropOp56
 70
     1
102
RTVSPost2010Prop57
140
1.0
102
RTVSPost2010PropOp57
 70
     1
102
RTVSPropertyOp0
 70
     1
102
RTVSPropertyOp1
 70
     1
102
RTVSPropertyOp2
 70
     1
102
RTVSPropertyOp3
 70
     1
102
RTVSPropertyOp4
 70
     1
102
RTVSPropertyOp5
 70
     1
102
RTVSPropertyOp6
 70
     1
102
RTVSPropertyOp7
 70
     1
102
RTVSPropertyOp8
 70
     1
102
RTVSPropertyOp9
 70
     1
102
RTVSPropertyOp10
 70
     1
102
RTVSPropertyOp11
 70
     1
102
RTVSPropertyOp12
 70
     1
102
RTVSPropertyOp13
 70
     1
102
RTVSPropertyOp14
 70
     1
102
RTVSPropertyOp15
 70
     1
102
RTVSPropertyOp16
 70
     1
102
RTVSPropertyOp17
 70
     1
102
RTVSPropertyOp18
 70
     1
102
RTVSPropertyOp19
 70
     1
102
RTVSPropertyOp20
 70
     1
102
RTVSPropertyOp21
 70
     1
102
RTVSPropertyOp22
 70
     1
102
RTVSPropertyOp23
 70
     1
102
RTVSPropertyOp24
 70
     1
102
RTVSPropertyOp25
 70
     1
102
RTVSPropertyOp26
 70
     1
102
RTVSPropertyOp27
 70
     1
102
RTVSPropertyOp28
 70
     1
102
RTVSPropertyOp29
 70
     1
102
RTVSPropertyOp30
 70
     1
102
RTVSPropertyOp31
 70
     1
102
RTVSPropertyOp32
 70
     1
102
RTVSPropertyOp33
 70
     1
102
RTVSPropertyOp34
 70
     1
102
RTVSPropertyOp35
 70
     1
102
RTVSPropertyOp36
 70
     1
102
RTVSPropertyOp37
 70
     1
102
RTVSPropertyOp38
 70
     1
102
RTVSPropertyOp39
 70
     1
102
RTVSPropertyOp40
 70
     1
102
RTVSPropertyOp41
 70
     1
102
RTVSPropertyOp42
 70
     1
102
RTVSPropertyOp43
 70
     1
102
RTVSPropertyOp44
 70
     1
102
RTVSPropertyOp45
 70
     1
102
RTVSPropertyOp46
 70
     1
102
RTVSPropertyOp47
 70
     1
102
RTVSPropertyOp48
 70
     1
102
RTVSPropertyOp49
 70
     1
102
RTVSPropertyOp50
 70
     1
102
RTVSPropertyOp51
 70
     0
102
RTVSPropertyOp52
 70
     0
102
RTVSPropertyOp53
 70
     1
102
RTVSPropertyOp54
 70
     1
102
RTVSPropertyOp55
 70
     1
102
RTVSPropertyOp56
 70
     1
102
RTVSPropertyOp57
 70
     1
102
RTVSPropertyOp58
 70
     1
102
RTVSPropertyOp59
 70
     1
102
RTVSPropertyOp60
 70
     1
102
RTVSPropertyOp61
 70
     1
102
RTVSPropertyOp62
 70
     1
  0
XRECORD
  5
9AE3
102
{ACAD_REACTORS
330
9AE2
102
}
330
9AE2
100
AcDbXrecord
280
     1
102
RTVSPost2010Prop28
280
     0
102
RTVSPost2010PropOp28
 70
     1
102
RTVSPost2010Prop29
280
     1
102
RTVSPost2010PropOp29
 70
     1
102
RTVSPost2010Prop30
280
     1
102
RTVSPost2010PropOp30
 70
     1
102
RTVSPost2010Prop31
280
     0
102
RTVSPost2010PropOp31
 70
     1
102
RTVSPost2010Prop32
280
     0
102
RTVSPost2010PropOp32
 70
     1
102
RTVSPost2010Prop33
280
     0
102
RTVSPost2010PropOp33
 70
     1
102
RTVSPost2010Prop34
280
     0
102
RTVSPost2010PropOp34
 70
     1
102
RTVSPost2010Prop35
280
     0
102
RTVSPost2010PropOp35
 70
     1
102
RTVSPost2010Prop36
280
     0
102
RTVSPost2010PropOp36
 70
     1
102
RTVSPost2010Prop37
 90
       50
102
RTVSPost2010PropOp37
 70
     1
102
RTVSPost2010Prop38
140
0.0
102
RTVSPost2010PropOp38
 70
     1
102
RTVSPost2010Prop39
140
1.0
102
RTVSPost2010PropOp39
 70
     1
102
RTVSPost2010Prop40
 90
        0
102
RTVSPost2010PropOp40
 70
     1
102
RTVSPost2010Prop41ColorIndex
 90
       18
102
RTVSPost2010Prop41ColorRGB
 90
        0
102
RTVSPost2010PropOp41
 70
     1
102
RTVSPost2010Prop42
 90
       50
102
RTVSPost2010PropOp42
 70
     1
102
RTVSPost2010Prop43
 90
        3
102
RTVSPost2010PropOp43
 70
     1
102
RTVSPost2010Prop44ColorIndex
 90
        5
102
RTVSPost2010Prop44ColorRGB
 90
      255
102
RTVSPost2010PropOp44
 70
     1
102
RTVSPost2010Prop45
280
     0
102
RTVSPost2010PropOp45
 70
     1
102
RTVSPost2010Prop46
 90
       50
102
RTVSPost2010PropOp46
 70
     1
102
RTVSPost2010Prop47
 90
       50
102
RTVSPost2010PropOp47
 70
     1
102
RTVSPost2010Prop48
 90
       50
102
RTVSPost2010PropOp48
 70
     1
102
RTVSPost2010Prop49
280
     0
102
RTVSPost2010PropOp49
 70
     1
102
RTVSPost2010Prop50
 90
       50
102
RTVSPost2010PropOp50
 70
     1
102
RTVSPost2010Prop51ColorIndex
 90
      256
102
RTVSPost2010Prop51ColorRGB
 90
-16777216
102
RTVSPost2010PropOp51
 70
     0
102
RTVSPost2010Prop52
140
1.0
102
RTVSPost2010PropOp52
 70
     0
102
RTVSPost2010Prop53
 90
        2
102
RTVSPost2010PropOp53
 70
     1
102
RTVSPost2010Prop54
  1
strokes_ogs.tif
102
RTVSPost2010PropOp54
 70
     1
102
RTVSPost2010Prop55
280
     0
102
RTVSPost2010PropOp55
 70
     1
102
RTVSPost2010Prop56
140
1.0
102
RTVSPost2010PropOp56
 70
     1
102
RTVSPost2010Prop57
140
1.0
102
RTVSPost2010PropOp57
 70
     1
102
RTVSPropertyOp0
 70
     1
102
RTVSPropertyOp1
 70
     1
102
RTVSPropertyOp2
 70
     1
102
RTVSPropertyOp3
 70
     1
102
RTVSPropertyOp4
 70
     1
102
RTVSPropertyOp5
 70
     1
102
RTVSPropertyOp6
 70
     1
102
RTVSPropertyOp7
 70
     1
102
RTVSPropertyOp8
 70
     1
102
RTVSPropertyOp9
 70
     1
102
RTVSPropertyOp10
 70
     1
102
RTVSPropertyOp11
 70
     1
102
RTVSPropertyOp12
 70
     1
102
RTVSPropertyOp13
 70
     1
102
RTVSPropertyOp14
 70
     1
102
RTVSPropertyOp15
 70
     1
102
RTVSPropertyOp16
 70
     1
102
RTVSPropertyOp17
 70
     1
102
RTVSPropertyOp18
 70
     1
102
RTVSPropertyOp19
 70
     1
102
RTVSPropertyOp20
 70
     1
102
RTVSPropertyOp21
 70
     1
102
RTVSPropertyOp22
 70
     1
102
RTVSPropertyOp23
 70
     1
102
RTVSPropertyOp24
 70
     1
102
RTVSPropertyOp25
 70
     1
102
RTVSPropertyOp26
 70
     1
102
RTVSPropertyOp27
 70
     1
102
RTVSPropertyOp28
 70
     1
102
RTVSPropertyOp29
 70
     1
102
RTVSPropertyOp30
 70
     1
102
RTVSPropertyOp31
 70
     1
102
RTVSPropertyOp32
 70
     1
102
RTVSPropertyOp33
 70
     1
102
RTVSPropertyOp34
 70
     1
102
RTVSPropertyOp35
 70
     1
102
RTVSPropertyOp36
 70
     1
102
RTVSPropertyOp37
 70
     1
102
RTVSPropertyOp38
 70
     1
102
RTVSPropertyOp39
 70
     1
102
RTVSPropertyOp40
 70
     1
102
RTVSPropertyOp41
 70
     1
102
RTVSPropertyOp42
 70
     1
102
RTVSPropertyOp43
 70
     1
102
RTVSPropertyOp44
 70
     1
102
RTVSPropertyOp45
 70
     1
102
RTVSPropertyOp46
 70
     1
102
RTVSPropertyOp47
 70
     1
102
RTVSPropertyOp48
 70
     1
102
RTVSPropertyOp49
 70
     1
102
RTVSPropertyOp50
 70
     1
102
RTVSPropertyOp51
 70
     0
102
RTVSPropertyOp52
 70
     0
102
RTVSPropertyOp53
 70
     1
102
RTVSPropertyOp54
 70
     1
102
RTVSPropertyOp55
 70
     1
102
RTVSPropertyOp56
 70
     1
102
RTVSPropertyOp57
 70
     1
102
RTVSPropertyOp58
 70
     1
102
RTVSPropertyOp59
 70
     1
102
RTVSPropertyOp60
 70
     1
102
RTVSPropertyOp61
 70
     1
102
RTVSPropertyOp62
 70
     1
  0
XRECORD
  5
9AFD
102
{ACAD_REACTORS
330
9AFC
102
}
330
9AFC
100
AcDbXrecord
280
     1
102
RTVSPost2010Prop28
280
     0
102
RTVSPost2010PropOp28
 70
     1
102
RTVSPost2010Prop29
280
     1
102
RTVSPost2010PropOp29
 70
     1
102
RTVSPost2010Prop30
280
     1
102
RTVSPost2010PropOp30
 70
     1
102
RTVSPost2010Prop31
280
     0
102
RTVSPost2010PropOp31
 70
     1
102
RTVSPost2010Prop32
280
     0
102
RTVSPost2010PropOp32
 70
     1
102
RTVSPost2010Prop33
280
     0
102
RTVSPost2010PropOp33
 70
     1
102
RTVSPost2010Prop34
280
     0
102
RTVSPost2010PropOp34
 70
     1
102
RTVSPost2010Prop35
280
     0
102
RTVSPost2010PropOp35
 70
     1
102
RTVSPost2010Prop36
280
     0
102
RTVSPost2010PropOp36
 70
     1
102
RTVSPost2010Prop37
 90
       50
102
RTVSPost2010PropOp37
 70
     0
102
RTVSPost2010Prop38
140
0.0
102
RTVSPost2010PropOp38
 70
     0
102
RTVSPost2010Prop39
140
1.0
102
RTVSPost2010PropOp39
 70
     0
102
RTVSPost2010Prop40
 90
        0
102
RTVSPost2010PropOp40
 70
     0
102
RTVSPost2010Prop41ColorIndex
 90
       18
102
RTVSPost2010Prop41ColorRGB
 90
        0
102
RTVSPost2010PropOp41
 70
     0
102
RTVSPost2010Prop42
 90
       50
102
RTVSPost2010PropOp42
 70
     0
102
RTVSPost2010Prop43
 90
        3
102
RTVSPost2010PropOp43
 70
     0
102
RTVSPost2010Prop44ColorIndex
 90
        5
102
RTVSPost2010Prop44ColorRGB
 90
      255
102
RTVSPost2010PropOp44
 70
     0
102
RTVSPost2010Prop45
280
     0
102
RTVSPost2010PropOp45
 70
     1
102
RTVSPost2010Prop46
 90
       50
102
RTVSPost2010PropOp46
 70
     0
102
RTVSPost2010Prop47
 90
       50
102
RTVSPost2010PropOp47
 70
     0
102
RTVSPost2010Prop48
 90
       50
102
RTVSPost2010PropOp48
 70
     0
102
RTVSPost2010Prop49
280
     0
102
RTVSPost2010PropOp49
 70
     1
102
RTVSPost2010Prop50
 90
       50
102
RTVSPost2010PropOp50
 70
     0
102
RTVSPost2010Prop51ColorIndex
 90
      256
102
RTVSPost2010Prop51ColorRGB
 90
-16777216
102
RTVSPost2010PropOp51
 70
     0
102
RTVSPost2010Prop52
140
1.0
102
RTVSPost2010PropOp52
 70
     0
102
RTVSPost2010Prop53
 90
        2
102
RTVSPost2010PropOp53
 70
     0
102
RTVSPost2010Prop54
  1
strokes_ogs.tif
102
RTVSPost2010PropOp54
 70
     0
102
RTVSPost2010Prop55
280
     0
102
RTVSPost2010PropOp55
 70
     1
102
RTVSPost2010Prop56
140
1.0
102
RTVSPost2010PropOp56
 70
     0
102
RTVSPost2010Prop57
140
1.0
102
RTVSPost2010PropOp57
 70
     0
102
RTVSPropertyOp0
 70
     0
102
RTVSPropertyOp1
 70
     0
102
RTVSPropertyOp2
 70
     0
102
RTVSPropertyOp3
 70
     0
102
RTVSPropertyOp4
 70
     0
102
RTVSPropertyOp5
 70
     0
102
RTVSPropertyOp6
 70
     0
102
RTVSPropertyOp7
 70
     0
102
RTVSPropertyOp8
 70
     0
102
RTVSPropertyOp9
 70
     0
102
RTVSPropertyOp10
 70
     0
102
RTVSPropertyOp11
 70
     0
102
RTVSPropertyOp12
 70
     0
102
RTVSPropertyOp13
 70
     0
102
RTVSPropertyOp14
 70
     2
102
RTVSPropertyOp15
 70
     0
102
RTVSPropertyOp16
 70
     0
102
RTVSPropertyOp17
 70
     0
102
RTVSPropertyOp18
 70
     0
102
RTVSPropertyOp19
 70
     0
102
RTVSPropertyOp20
 70
     0
102
RTVSPropertyOp21
 70
     0
102
RTVSPropertyOp22
 70
     0
102
RTVSPropertyOp23
 70
     0
102
RTVSPropertyOp24
 70
     0
102
RTVSPropertyOp25
 70
     0
102
RTVSPropertyOp26
 70
     0
102
RTVSPropertyOp27
 70
     0
102
RTVSPropertyOp28
 70
     1
102
RTVSPropertyOp29
 70
     1
102
RTVSPropertyOp30
 70
     1
102
RTVSPropertyOp31
 70
     1
102
RTVSPropertyOp32
 70
     1
102
RTVSPropertyOp33
 70
     1
102
RTVSPropertyOp34
 70
     1
102
RTVSPropertyOp35
 70
     1
102
RTVSPropertyOp36
 70
     1
102
RTVSPropertyOp37
 70
     0
102
RTVSPropertyOp38
 70
     0
102
RTVSPropertyOp39
 70
     0
102
RTVSPropertyOp40
 70
     0
102
RTVSPropertyOp41
 70
     0
102
RTVSPropertyOp42
 70
     0
102
RTVSPropertyOp43
 70
     0
102
RTVSPropertyOp44
 70
     0
102
RTVSPropertyOp45
 70
     1
102
RTVSPropertyOp46
 70
     0
102
RTVSPropertyOp47
 70
     0
102
RTVSPropertyOp48
 70
     0
102
RTVSPropertyOp49
 70
     1
102
RTVSPropertyOp50
 70
     0
102
RTVSPropertyOp51
 70
     0
102
RTVSPropertyOp52
 70
     0
102
RTVSPropertyOp53
 70
     0
102
RTVSPropertyOp54
 70
     0
102
RTVSPropertyOp55
 70
     1
102
RTVSPropertyOp56
 70
     0
102
RTVSPropertyOp57
 70
     0
102
RTVSPropertyOp58
 70
     0
102
RTVSPropertyOp59
 70
     0
102
RTVSPropertyOp60
 70
     0
102
RTVSPropertyOp61
 70
     0
102
RTVSPropertyOp62
 70
     0
  0
XRECORD
  5
9AEB
102
{ACAD_REACTORS
330
9AEA
102
}
330
9AEA
100
AcDbXrecord
280
     1
102
RTVSPost2010Prop28
280
     0
102
RTVSPost2010PropOp28
 70
     1
102
RTVSPost2010Prop29
280
     1
102
RTVSPost2010PropOp29
 70
     1
102
RTVSPost2010Prop30
280
     1
102
RTVSPost2010PropOp30
 70
     1
102
RTVSPost2010Prop31
280
     0
102
RTVSPost2010PropOp31
 70
     1
102
RTVSPost2010Prop32
280
     0
102
RTVSPost2010PropOp32
 70
     1
102
RTVSPost2010Prop33
280
     0
102
RTVSPost2010PropOp33
 70
     1
102
RTVSPost2010Prop34
280
     0
102
RTVSPost2010PropOp34
 70
     1
102
RTVSPost2010Prop35
280
     0
102
RTVSPost2010PropOp35
 70
     1
102
RTVSPost2010Prop36
280
     0
102
RTVSPost2010PropOp36
 70
     1
102
RTVSPost2010Prop37
 90
       50
102
RTVSPost2010PropOp37
 70
     1
102
RTVSPost2010Prop38
140
0.0
102
RTVSPost2010PropOp38
 70
     1
102
RTVSPost2010Prop39
140
1.0
102
RTVSPost2010PropOp39
 70
     1
102
RTVSPost2010Prop40
 90
        0
102
RTVSPost2010PropOp40
 70
     1
102
RTVSPost2010Prop41ColorIndex
 90
       18
102
RTVSPost2010Prop41ColorRGB
 90
        0
102
RTVSPost2010PropOp41
 70
     1
102
RTVSPost2010Prop42
 90
       50
102
RTVSPost2010PropOp42
 70
     1
102
RTVSPost2010Prop43
 90
        3
102
RTVSPost2010PropOp43
 70
     1
102
RTVSPost2010Prop44ColorIndex
 90
        5
102
RTVSPost2010Prop44ColorRGB
 90
      255
102
RTVSPost2010PropOp44
 70
     1
102
RTVSPost2010Prop45
280
     0
102
RTVSPost2010PropOp45
 70
     1
102
RTVSPost2010Prop46
 90
       50
102
RTVSPost2010PropOp46
 70
     1
102
RTVSPost2010Prop47
 90
       50
102
RTVSPost2010PropOp47
 70
     1
102
RTVSPost2010Prop48
 90
       50
102
RTVSPost2010PropOp48
 70
     1
102
RTVSPost2010Prop49
280
     0
102
RTVSPost2010PropOp49
 70
     1
102
RTVSPost2010Prop50
 90
       50
102
RTVSPost2010PropOp50
 70
     1
102
RTVSPost2010Prop51ColorIndex
 90
      256
102
RTVSPost2010Prop51ColorRGB
 90
-16777216
102
RTVSPost2010PropOp51
 70
     0
102
RTVSPost2010Prop52
140
1.0
102
RTVSPost2010PropOp52
 70
     0
102
RTVSPost2010Prop53
 90
        2
102
RTVSPost2010PropOp53
 70
     1
102
RTVSPost2010Prop54
  1
strokes_ogs.tif
102
RTVSPost2010PropOp54
 70
     1
102
RTVSPost2010Prop55
280
     0
102
RTVSPost2010PropOp55
 70
     1
102
RTVSPost2010Prop56
140
1.0
102
RTVSPost2010PropOp56
 70
     1
102
RTVSPost2010Prop57
140
1.0
102
RTVSPost2010PropOp57
 70
     1
102
RTVSPropertyOp0
 70
     1
102
RTVSPropertyOp1
 70
     1
102
RTVSPropertyOp2
 70
     1
102
RTVSPropertyOp3
 70
     1
102
RTVSPropertyOp4
 70
     1
102
RTVSPropertyOp5
 70
     1
102
RTVSPropertyOp6
 70
     1
102
RTVSPropertyOp7
 70
     1
102
RTVSPropertyOp8
 70
     1
102
RTVSPropertyOp9
 70
     1
102
RTVSPropertyOp10
 70
     1
102
RTVSPropertyOp11
 70
     1
102
RTVSPropertyOp12
 70
     1
102
RTVSPropertyOp13
 70
     1
102
RTVSPropertyOp14
 70
     1
102
RTVSPropertyOp15
 70
     1
102
RTVSPropertyOp16
 70
     1
102
RTVSPropertyOp17
 70
     1
102
RTVSPropertyOp18
 70
     1
102
RTVSPropertyOp19
 70
     1
102
RTVSPropertyOp20
 70
     1
102
RTVSPropertyOp21
 70
     1
102
RTVSPropertyOp22
 70
     1
102
RTVSPropertyOp23
 70
     1
102
RTVSPropertyOp24
 70
     1
102
RTVSPropertyOp25
 70
     1
102
RTVSPropertyOp26
 70
     1
102
RTVSPropertyOp27
 70
     1
102
RTVSPropertyOp28
 70
     1
102
RTVSPropertyOp29
 70
     1
102
RTVSPropertyOp30
 70
     1
102
RTVSPropertyOp31
 70
     1
102
RTVSPropertyOp32
 70
     1
102
RTVSPropertyOp33
 70
     1
102
RTVSPropertyOp34
 70
     1
102
RTVSPropertyOp35
 70
     1
102
RTVSPropertyOp36
 70
     1
102
RTVSPropertyOp37
 70
     1
102
RTVSPropertyOp38
 70
     1
102
RTVSPropertyOp39
 70
     1
102
RTVSPropertyOp40
 70
     1
102
RTVSPropertyOp41
 70
     1
102
RTVSPropertyOp42
 70
     1
102
RTVSPropertyOp43
 70
     1
102
RTVSPropertyOp44
 70
     1
102
RTVSPropertyOp45
 70
     1
102
RTVSPropertyOp46
 70
     1
102
RTVSPropertyOp47
 70
     1
102
RTVSPropertyOp48
 70
     1
102
RTVSPropertyOp49
 70
     1
102
RTVSPropertyOp50
 70
     1
102
RTVSPropertyOp51
 70
     0
102
RTVSPropertyOp52
 70
     0
102
RTVSPropertyOp53
 70
     1
102
RTVSPropertyOp54
 70
     1
102
RTVSPropertyOp55
 70
     1
102
RTVSPropertyOp56
 70
     1
102
RTVSPropertyOp57
 70
     1
102
RTVSPropertyOp58
 70
     1
102
RTVSPropertyOp59
 70
     1
102
RTVSPropertyOp60
 70
     1
102
RTVSPropertyOp61
 70
     1
102
RTVSPropertyOp62
 70
     1
  0
XRECORD
  5
9ACF
102
{ACAD_REACTORS
330
9ACE
102
}
330
9ACE
100
AcDbXrecord
280
     1
102
RTVSPost2010Prop28
280
     0
102
RTVSPost2010PropOp28
 70
     1
102
RTVSPost2010Prop29
280
     1
102
RTVSPost2010PropOp29
 70
     1
102
RTVSPost2010Prop30
280
     1
102
RTVSPost2010PropOp30
 70
     1
102
RTVSPost2010Prop31
280
     0
102
RTVSPost2010PropOp31
 70
     1
102
RTVSPost2010Prop32
280
     0
102
RTVSPost2010PropOp32
 70
     1
102
RTVSPost2010Prop33
280
     0
102
RTVSPost2010PropOp33
 70
     1
102
RTVSPost2010Prop34
280
     0
102
RTVSPost2010PropOp34
 70
     1
102
RTVSPost2010Prop35
280
     0
102
RTVSPost2010PropOp35
 70
     1
102
RTVSPost2010Prop36
280
     0
102
RTVSPost2010PropOp36
 70
     1
102
RTVSPost2010Prop37
 90
       50
102
RTVSPost2010PropOp37
 70
     1
102
RTVSPost2010Prop38
140
0.0
102
RTVSPost2010PropOp38
 70
     1
102
RTVSPost2010Prop39
140
1.0
102
RTVSPost2010PropOp39
 70
     1
102
RTVSPost2010Prop40
 90
        0
102
RTVSPost2010PropOp40
 70
     1
102
RTVSPost2010Prop41ColorIndex
 90
       18
102
RTVSPost2010Prop41ColorRGB
 90
        0
102
RTVSPost2010PropOp41
 70
     1
102
RTVSPost2010Prop42
 90
       50
102
RTVSPost2010PropOp42
 70
     1
102
RTVSPost2010Prop43
 90
        3
102
RTVSPost2010PropOp43
 70
     1
102
RTVSPost2010Prop44ColorIndex
 90
        5
102
RTVSPost2010Prop44ColorRGB
 90
      255
102
RTVSPost2010PropOp44
 70
     1
102
RTVSPost2010Prop45
280
     0
102
RTVSPost2010PropOp45
 70
     1
102
RTVSPost2010Prop46
 90
       50
102
RTVSPost2010PropOp46
 70
     1
102
RTVSPost2010Prop47
 90
       50
102
RTVSPost2010PropOp47
 70
     1
102
RTVSPost2010Prop48
 90
       50
102
RTVSPost2010PropOp48
 70
     1
102
RTVSPost2010Prop49
280
     0
102
RTVSPost2010PropOp49
 70
     1
102
RTVSPost2010Prop50
 90
       50
102
RTVSPost2010PropOp50
 70
     1
102
RTVSPost2010Prop51ColorIndex
 90
      256
102
RTVSPost2010Prop51ColorRGB
 90
-16777216
102
RTVSPost2010PropOp51
 70
     0
102
RTVSPost2010Prop52
140
1.0
102
RTVSPost2010PropOp52
 70
     0
102
RTVSPost2010Prop53
 90
        2
102
RTVSPost2010PropOp53
 70
     1
102
RTVSPost2010Prop54
  1
strokes_ogs.tif
102
RTVSPost2010PropOp54
 70
     1
102
RTVSPost2010Prop55
280
     0
102
RTVSPost2010PropOp55
 70
     1
102
RTVSPost2010Prop56
140
1.0
102
RTVSPost2010PropOp56
 70
     1
102
RTVSPost2010Prop57
140
1.0
102
RTVSPost2010PropOp57
 70
     1
102
RTVSPropertyOp0
 70
     1
102
RTVSPropertyOp1
 70
     1
102
RTVSPropertyOp2
 70
     1
102
RTVSPropertyOp3
 70
     1
102
RTVSPropertyOp4
 70
     1
102
RTVSPropertyOp5
 70
     1
102
RTVSPropertyOp6
 70
     1
102
RTVSPropertyOp7
 70
     1
102
RTVSPropertyOp8
 70
     1
102
RTVSPropertyOp9
 70
     1
102
RTVSPropertyOp10
 70
     1
102
RTVSPropertyOp11
 70
     1
102
RTVSPropertyOp12
 70
     1
102
RTVSPropertyOp13
 70
     1
102
RTVSPropertyOp14
 70
     1
102
RTVSPropertyOp15
 70
     1
102
RTVSPropertyOp16
 70
     1
102
RTVSPropertyOp17
 70
     1
102
RTVSPropertyOp18
 70
     1
102
RTVSPropertyOp19
 70
     1
102
RTVSPropertyOp20
 70
     1
102
RTVSPropertyOp21
 70
     1
102
RTVSPropertyOp22
 70
     1
102
RTVSPropertyOp23
 70
     1
102
RTVSPropertyOp24
 70
     1
102
RTVSPropertyOp25
 70
     1
102
RTVSPropertyOp26
 70
     1
102
RTVSPropertyOp27
 70
     1
102
RTVSPropertyOp28
 70
     1
102
RTVSPropertyOp29
 70
     1
102
RTVSPropertyOp30
 70
     1
102
RTVSPropertyOp31
 70
     1
102
RTVSPropertyOp32
 70
     1
102
RTVSPropertyOp33
 70
     1
102
RTVSPropertyOp34
 70
     1
102
RTVSPropertyOp35
 70
     1
102
RTVSPropertyOp36
 70
     1
102
RTVSPropertyOp37
 70
     1
102
RTVSPropertyOp38
 70
     1
102
RTVSPropertyOp39
 70
     1
102
RTVSPropertyOp40
 70
     1
102
RTVSPropertyOp41
 70
     1
102
RTVSPropertyOp42
 70
     1
102
RTVSPropertyOp43
 70
     1
102
RTVSPropertyOp44
 70
     1
102
RTVSPropertyOp45
 70
     1
102
RTVSPropertyOp46
 70
     1
102
RTVSPropertyOp47
 70
     1
102
RTVSPropertyOp48
 70
     1
102
RTVSPropertyOp49
 70
     1
102
RTVSPropertyOp50
 70
     1
102
RTVSPropertyOp51
 70
     0
102
RTVSPropertyOp52
 70
     0
102
RTVSPropertyOp53
 70
     1
102
RTVSPropertyOp54
 70
     1
102
RTVSPropertyOp55
 70
     1
102
RTVSPropertyOp56
 70
     1
102
RTVSPropertyOp57
 70
     1
102
RTVSPropertyOp58
 70
     1
102
RTVSPropertyOp59
 70
     1
102
RTVSPropertyOp60
 70
     1
102
RTVSPropertyOp61
 70
     1
102
RTVSPropertyOp62
 70
     1
  0
XRECORD
  5
9AD1
102
{ACAD_REACTORS
330
9AD0
102
}
330
9AD0
100
AcDbXrecord
280
     1
102
RTVSPost2010Prop28
280
     0
102
RTVSPost2010PropOp28
 70
     1
102
RTVSPost2010Prop29
280
     1
102
RTVSPost2010PropOp29
 70
     1
102
RTVSPost2010Prop30
280
     1
102
RTVSPost2010PropOp30
 70
     1
102
RTVSPost2010Prop31
280
     0
102
RTVSPost2010PropOp31
 70
     1
102
RTVSPost2010Prop32
280
     0
102
RTVSPost2010PropOp32
 70
     1
102
RTVSPost2010Prop33
280
     0
102
RTVSPost2010PropOp33
 70
     1
102
RTVSPost2010Prop34
280
     0
102
RTVSPost2010PropOp34
 70
     1
102
RTVSPost2010Prop35
280
     0
102
RTVSPost2010PropOp35
 70
     1
102
RTVSPost2010Prop36
280
     0
102
RTVSPost2010PropOp36
 70
     1
102
RTVSPost2010Prop37
 90
       50
102
RTVSPost2010PropOp37
 70
     1
102
RTVSPost2010Prop38
140
0.0
102
RTVSPost2010PropOp38
 70
     1
102
RTVSPost2010Prop39
140
1.0
102
RTVSPost2010PropOp39
 70
     1
102
RTVSPost2010Prop40
 90
        0
102
RTVSPost2010PropOp40
 70
     1
102
RTVSPost2010Prop41ColorIndex
 90
       18
102
RTVSPost2010Prop41ColorRGB
 90
        0
102
RTVSPost2010PropOp41
 70
     1
102
RTVSPost2010Prop42
 90
       50
102
RTVSPost2010PropOp42
 70
     1
102
RTVSPost2010Prop43
 90
        3
102
RTVSPost2010PropOp43
 70
     1
102
RTVSPost2010Prop44ColorIndex
 90
        5
102
RTVSPost2010Prop44ColorRGB
 90
      255
102
RTVSPost2010PropOp44
 70
     1
102
RTVSPost2010Prop45
280
     0
102
RTVSPost2010PropOp45
 70
     1
102
RTVSPost2010Prop46
 90
       50
102
RTVSPost2010PropOp46
 70
     1
102
RTVSPost2010Prop47
 90
       50
102
RTVSPost2010PropOp47
 70
     1
102
RTVSPost2010Prop48
 90
       50
102
RTVSPost2010PropOp48
 70
     1
102
RTVSPost2010Prop49
280
     0
102
RTVSPost2010PropOp49
 70
     1
102
RTVSPost2010Prop50
 90
       50
102
RTVSPost2010PropOp50
 70
     1
102
RTVSPost2010Prop51ColorIndex
 90
      256
102
RTVSPost2010Prop51ColorRGB
 90
-16777216
102
RTVSPost2010PropOp51
 70
     0
102
RTVSPost2010Prop52
140
1.0
102
RTVSPost2010PropOp52
 70
     0
102
RTVSPost2010Prop53
 90
        2
102
RTVSPost2010PropOp53
 70
     1
102
RTVSPost2010Prop54
  1
strokes_ogs.tif
102
RTVSPost2010PropOp54
 70
     1
102
RTVSPost2010Prop55
280
     0
102
RTVSPost2010PropOp55
 70
     1
102
RTVSPost2010Prop56
140
1.0
102
RTVSPost2010PropOp56
 70
     1
102
RTVSPost2010Prop57
140
1.0
102
RTVSPost2010PropOp57
 70
     1
102
RTVSPropertyOp0
 70
     1
102
RTVSPropertyOp1
 70
     1
102
RTVSPropertyOp2
 70
     1
102
RTVSPropertyOp3
 70
     1
102
RTVSPropertyOp4
 70
     1
102
RTVSPropertyOp5
 70
     1
102
RTVSPropertyOp6
 70
     1
102
RTVSPropertyOp7
 70
     1
102
RTVSPropertyOp8
 70
     1
102
RTVSPropertyOp9
 70
     1
102
RTVSPropertyOp10
 70
     1
102
RTVSPropertyOp11
 70
     1
102
RTVSPropertyOp12
 70
     1
102
RTVSPropertyOp13
 70
     1
102
RTVSPropertyOp14
 70
     1
102
RTVSPropertyOp15
 70
     1
102
RTVSPropertyOp16
 70
     1
102
RTVSPropertyOp17
 70
     1
102
RTVSPropertyOp18
 70
     1
102
RTVSPropertyOp19
 70
     1
102
RTVSPropertyOp20
 70
     1
102
RTVSPropertyOp21
 70
     1
102
RTVSPropertyOp22
 70
     1
102
RTVSPropertyOp23
 70
     1
102
RTVSPropertyOp24
 70
     1
102
RTVSPropertyOp25
 70
     1
102
RTVSPropertyOp26
 70
     1
102
RTVSPropertyOp27
 70
     1
102
RTVSPropertyOp28
 70
     1
102
RTVSPropertyOp29
 70
     1
102
RTVSPropertyOp30
 70
     1
102
RTVSPropertyOp31
 70
     1
102
RTVSPropertyOp32
 70
     1
102
RTVSPropertyOp33
 70
     1
102
RTVSPropertyOp34
 70
     1
102
RTVSPropertyOp35
 70
     1
102
RTVSPropertyOp36
 70
     1
102
RTVSPropertyOp37
 70
     1
102
RTVSPropertyOp38
 70
     1
102
RTVSPropertyOp39
 70
     1
102
RTVSPropertyOp40
 70
     1
102
RTVSPropertyOp41
 70
     1
102
RTVSPropertyOp42
 70
     1
102
RTVSPropertyOp43
 70
     1
102
RTVSPropertyOp44
 70
     1
102
RTVSPropertyOp45
 70
     1
102
RTVSPropertyOp46
 70
     1
102
RTVSPropertyOp47
 70
     1
102
RTVSPropertyOp48
 70
     1
102
RTVSPropertyOp49
 70
     1
102
RTVSPropertyOp50
 70
     1
102
RTVSPropertyOp51
 70
     0
102
RTVSPropertyOp52
 70
     0
102
RTVSPropertyOp53
 70
     1
102
RTVSPropertyOp54
 70
     1
102
RTVSPropertyOp55
 70
     1
102
RTVSPropertyOp56
 70
     1
102
RTVSPropertyOp57
 70
     1
102
RTVSPropertyOp58
 70
     1
102
RTVSPropertyOp59
 70
     1
102
RTVSPropertyOp60
 70
     1
102
RTVSPropertyOp61
 70
     1
102
RTVSPropertyOp62
 70
     1
  0
XRECORD
  5
9AD3
102
{ACAD_REACTORS
330
9AD2
102
}
330
9AD2
100
AcDbXrecord
280
     1
102
RTVSPost2010Prop28
280
     0
102
RTVSPost2010PropOp28
 70
     1
102
RTVSPost2010Prop29
280
     1
102
RTVSPost2010PropOp29
 70
     1
102
RTVSPost2010Prop30
280
     1
102
RTVSPost2010PropOp30
 70
     1
102
RTVSPost2010Prop31
280
     0
102
RTVSPost2010PropOp31
 70
     1
102
RTVSPost2010Prop32
280
     0
102
RTVSPost2010PropOp32
 70
     1
102
RTVSPost2010Prop33
280
     0
102
RTVSPost2010PropOp33
 70
     1
102
RTVSPost2010Prop34
280
     0
102
RTVSPost2010PropOp34
 70
     1
102
RTVSPost2010Prop35
280
     0
102
RTVSPost2010PropOp35
 70
     1
102
RTVSPost2010Prop36
280
     0
102
RTVSPost2010PropOp36
 70
     1
102
RTVSPost2010Prop37
 90
       50
102
RTVSPost2010PropOp37
 70
     1
102
RTVSPost2010Prop38
140
0.0
102
RTVSPost2010PropOp38
 70
     1
102
RTVSPost2010Prop39
140
1.0
102
RTVSPost2010PropOp39
 70
     1
102
RTVSPost2010Prop40
 90
        0
102
RTVSPost2010PropOp40
 70
     1
102
RTVSPost2010Prop41ColorIndex
 90
       18
102
RTVSPost2010Prop41ColorRGB
 90
        0
102
RTVSPost2010PropOp41
 70
     1
102
RTVSPost2010Prop42
 90
       50
102
RTVSPost2010PropOp42
 70
     1
102
RTVSPost2010Prop43
 90
        3
102
RTVSPost2010PropOp43
 70
     1
102
RTVSPost2010Prop44ColorIndex
 90
        5
102
RTVSPost2010Prop44ColorRGB
 90
      255
102
RTVSPost2010PropOp44
 70
     1
102
RTVSPost2010Prop45
280
     0
102
RTVSPost2010PropOp45
 70
     1
102
RTVSPost2010Prop46
 90
       50
102
RTVSPost2010PropOp46
 70
     1
102
RTVSPost2010Prop47
 90
       50
102
RTVSPost2010PropOp47
 70
     1
102
RTVSPost2010Prop48
 90
       50
102
RTVSPost2010PropOp48
 70
     1
102
RTVSPost2010Prop49
280
     0
102
RTVSPost2010PropOp49
 70
     1
102
RTVSPost2010Prop50
 90
       50
102
RTVSPost2010PropOp50
 70
     1
102
RTVSPost2010Prop51ColorIndex
 90
      256
102
RTVSPost2010Prop51ColorRGB
 90
-16777216
102
RTVSPost2010PropOp51
 70
     0
102
RTVSPost2010Prop52
140
1.0
102
RTVSPost2010PropOp52
 70
     0
102
RTVSPost2010Prop53
 90
        2
102
RTVSPost2010PropOp53
 70
     1
102
RTVSPost2010Prop54
  1
strokes_ogs.tif
102
RTVSPost2010PropOp54
 70
     1
102
RTVSPost2010Prop55
280
     0
102
RTVSPost2010PropOp55
 70
     1
102
RTVSPost2010Prop56
140
1.0
102
RTVSPost2010PropOp56
 70
     1
102
RTVSPost2010Prop57
140
1.0
102
RTVSPost2010PropOp57
 70
     1
102
RTVSPropertyOp0
 70
     1
102
RTVSPropertyOp1
 70
     1
102
RTVSPropertyOp2
 70
     1
102
RTVSPropertyOp3
 70
     1
102
RTVSPropertyOp4
 70
     1
102
RTVSPropertyOp5
 70
     1
102
RTVSPropertyOp6
 70
     1
102
RTVSPropertyOp7
 70
     1
102
RTVSPropertyOp8
 70
     1
102
RTVSPropertyOp9
 70
     1
102
RTVSPropertyOp10
 70
     1
102
RTVSPropertyOp11
 70
     1
102
RTVSPropertyOp12
 70
     1
102
RTVSPropertyOp13
 70
     1
102
RTVSPropertyOp14
 70
     1
102
RTVSPropertyOp15
 70
     1
102
RTVSPropertyOp16
 70
     1
102
RTVSPropertyOp17
 70
     1
102
RTVSPropertyOp18
 70
     1
102
RTVSPropertyOp19
 70
     1
102
RTVSPropertyOp20
 70
     1
102
RTVSPropertyOp21
 70
     1
102
RTVSPropertyOp22
 70
     1
102
RTVSPropertyOp23
 70
     1
102
RTVSPropertyOp24
 70
     1
102
RTVSPropertyOp25
 70
     1
102
RTVSPropertyOp26
 70
     1
102
RTVSPropertyOp27
 70
     1
102
RTVSPropertyOp28
 70
     1
102
RTVSPropertyOp29
 70
     1
102
RTVSPropertyOp30
 70
     1
102
RTVSPropertyOp31
 70
     1
102
RTVSPropertyOp32
 70
     1
102
RTVSPropertyOp33
 70
     1
102
RTVSPropertyOp34
 70
     1
102
RTVSPropertyOp35
 70
     1
102
RTVSPropertyOp36
 70
     1
102
RTVSPropertyOp37
 70
     1
102
RTVSPropertyOp38
 70
     1
102
RTVSPropertyOp39
 70
     1
102
RTVSPropertyOp40
 70
     1
102
RTVSPropertyOp41
 70
     1
102
RTVSPropertyOp42
 70
     1
102
RTVSPropertyOp43
 70
     1
102
RTVSPropertyOp44
 70
     1
102
RTVSPropertyOp45
 70
     1
102
RTVSPropertyOp46
 70
     1
102
RTVSPropertyOp47
 70
     1
102
RTVSPropertyOp48
 70
     1
102
RTVSPropertyOp49
 70
     1
102
RTVSPropertyOp50
 70
     1
102
RTVSPropertyOp51
 70
     0
102
RTVSPropertyOp52
 70
     0
102
RTVSPropertyOp53
 70
     1
102
RTVSPropertyOp54
 70
     1
102
RTVSPropertyOp55
 70
     1
102
RTVSPropertyOp56
 70
     1
102
RTVSPropertyOp57
 70
     1
102
RTVSPropertyOp58
 70
     1
102
RTVSPropertyOp59
 70
     1
102
RTVSPropertyOp60
 70
     1
102
RTVSPropertyOp61
 70
     1
102
RTVSPropertyOp62
 70
     1
  0
XRECORD
  5
9AD5
102
{ACAD_REACTORS
330
9AD4
102
}
330
9AD4
100
AcDbXrecord
280
     1
102
RTVSPost2010Prop28
280
     0
102
RTVSPost2010PropOp28
 70
     1
102
RTVSPost2010Prop29
280
     1
102
RTVSPost2010PropOp29
 70
     1
102
RTVSPost2010Prop30
280
     1
102
RTVSPost2010PropOp30
 70
     1
102
RTVSPost2010Prop31
280
     0
102
RTVSPost2010PropOp31
 70
     1
102
RTVSPost2010Prop32
280
     0
102
RTVSPost2010PropOp32
 70
     1
102
RTVSPost2010Prop33
280
     0
102
RTVSPost2010PropOp33
 70
     1
102
RTVSPost2010Prop34
280
     0
102
RTVSPost2010PropOp34
 70
     1
102
RTVSPost2010Prop35
280
     0
102
RTVSPost2010PropOp35
 70
     1
102
RTVSPost2010Prop36
280
     0
102
RTVSPost2010PropOp36
 70
     1
102
RTVSPost2010Prop37
 90
       50
102
RTVSPost2010PropOp37
 70
     1
102
RTVSPost2010Prop38
140
0.0
102
RTVSPost2010PropOp38
 70
     1
102
RTVSPost2010Prop39
140
1.0
102
RTVSPost2010PropOp39
 70
     1
102
RTVSPost2010Prop40
 90
        0
102
RTVSPost2010PropOp40
 70
     1
102
RTVSPost2010Prop41ColorIndex
 90
       18
102
RTVSPost2010Prop41ColorRGB
 90
        0
102
RTVSPost2010PropOp41
 70
     1
102
RTVSPost2010Prop42
 90
       50
102
RTVSPost2010PropOp42
 70
     1
102
RTVSPost2010Prop43
 90
        3
102
RTVSPost2010PropOp43
 70
     1
102
RTVSPost2010Prop44ColorIndex
 90
        5
102
RTVSPost2010Prop44ColorRGB
 90
      255
102
RTVSPost2010PropOp44
 70
     1
102
RTVSPost2010Prop45
280
     0
102
RTVSPost2010PropOp45
 70
     1
102
RTVSPost2010Prop46
 90
       50
102
RTVSPost2010PropOp46
 70
     1
102
RTVSPost2010Prop47
 90
       50
102
RTVSPost2010PropOp47
 70
     1
102
RTVSPost2010Prop48
 90
       50
102
RTVSPost2010PropOp48
 70
     1
102
RTVSPost2010Prop49
280
     0
102
RTVSPost2010PropOp49
 70
     1
102
RTVSPost2010Prop50
 90
       50
102
RTVSPost2010PropOp50
 70
     1
102
RTVSPost2010Prop51ColorIndex
 90
      256
102
RTVSPost2010Prop51ColorRGB
 90
-16777216
102
RTVSPost2010PropOp51
 70
     0
102
RTVSPost2010Prop52
140
1.0
102
RTVSPost2010PropOp52
 70
     0
102
RTVSPost2010Prop53
 90
        2
102
RTVSPost2010PropOp53
 70
     1
102
RTVSPost2010Prop54
  1
strokes_ogs.tif
102
RTVSPost2010PropOp54
 70
     1
102
RTVSPost2010Prop55
280
     0
102
RTVSPost2010PropOp55
 70
     1
102
RTVSPost2010Prop56
140
1.0
102
RTVSPost2010PropOp56
 70
     1
102
RTVSPost2010Prop57
140
1.0
102
RTVSPost2010PropOp57
 70
     1
102
RTVSPropertyOp0
 70
     1
102
RTVSPropertyOp1
 70
     1
102
RTVSPropertyOp2
 70
     1
102
RTVSPropertyOp3
 70
     1
102
RTVSPropertyOp4
 70
     1
102
RTVSPropertyOp5
 70
     1
102
RTVSPropertyOp6
 70
     1
102
RTVSPropertyOp7
 70
     1
102
RTVSPropertyOp8
 70
     1
102
RTVSPropertyOp9
 70
     1
102
RTVSPropertyOp10
 70
     1
102
RTVSPropertyOp11
 70
     1
102
RTVSPropertyOp12
 70
     1
102
RTVSPropertyOp13
 70
     1
102
RTVSPropertyOp14
 70
     1
102
RTVSPropertyOp15
 70
     1
102
RTVSPropertyOp16
 70
     1
102
RTVSPropertyOp17
 70
     1
102
RTVSPropertyOp18
 70
     1
102
RTVSPropertyOp19
 70
     1
102
RTVSPropertyOp20
 70
     1
102
RTVSPropertyOp21
 70
     1
102
RTVSPropertyOp22
 70
     1
102
RTVSPropertyOp23
 70
     1
102
RTVSPropertyOp24
 70
     1
102
RTVSPropertyOp25
 70
     1
102
RTVSPropertyOp26
 70
     1
102
RTVSPropertyOp27
 70
     1
102
RTVSPropertyOp28
 70
     1
102
RTVSPropertyOp29
 70
     1
102
RTVSPropertyOp30
 70
     1
102
RTVSPropertyOp31
 70
     1
102
RTVSPropertyOp32
 70
     1
102
RTVSPropertyOp33
 70
     1
102
RTVSPropertyOp34
 70
     1
102
RTVSPropertyOp35
 70
     1
102
RTVSPropertyOp36
 70
     1
102
RTVSPropertyOp37
 70
     1
102
RTVSPropertyOp38
 70
     1
102
RTVSPropertyOp39
 70
     1
102
RTVSPropertyOp40
 70
     1
102
RTVSPropertyOp41
 70
     1
102
RTVSPropertyOp42
 70
     1
102
RTVSPropertyOp43
 70
     1
102
RTVSPropertyOp44
 70
     1
102
RTVSPropertyOp45
 70
     1
102
RTVSPropertyOp46
 70
     1
102
RTVSPropertyOp47
 70
     1
102
RTVSPropertyOp48
 70
     1
102
RTVSPropertyOp49
 70
     1
102
RTVSPropertyOp50
 70
     1
102
RTVSPropertyOp51
 70
     0
102
RTVSPropertyOp52
 70
     0
102
RTVSPropertyOp53
 70
     1
102
RTVSPropertyOp54
 70
     1
102
RTVSPropertyOp55
 70
     1
102
RTVSPropertyOp56
 70
     1
102
RTVSPropertyOp57
 70
     1
102
RTVSPropertyOp58
 70
     1
102
RTVSPropertyOp59
 70
     1
102
RTVSPropertyOp60
 70
     1
102
RTVSPropertyOp61
 70
     1
102
RTVSPropertyOp62
 70
     1
  0
XRECORD
  5
9ADD
102
{ACAD_REACTORS
330
9ADC
102
}
330
9ADC
100
AcDbXrecord
280
     1
102
RTVSPost2010Prop28
280
     0
102
RTVSPost2010PropOp28
 70
     1
102
RTVSPost2010Prop29
280
     1
102
RTVSPost2010PropOp29
 70
     1
102
RTVSPost2010Prop30
280
     1
102
RTVSPost2010PropOp30
 70
     1
102
RTVSPost2010Prop31
280
     0
102
RTVSPost2010PropOp31
 70
     1
102
RTVSPost2010Prop32
280
     0
102
RTVSPost2010PropOp32
 70
     1
102
RTVSPost2010Prop33
280
     0
102
RTVSPost2010PropOp33
 70
     1
102
RTVSPost2010Prop34
280
     0
102
RTVSPost2010PropOp34
 70
     1
102
RTVSPost2010Prop35
280
     0
102
RTVSPost2010PropOp35
 70
     1
102
RTVSPost2010Prop36
280
     0
102
RTVSPost2010PropOp36
 70
     1
102
RTVSPost2010Prop37
 90
       50
102
RTVSPost2010PropOp37
 70
     1
102
RTVSPost2010Prop38
140
0.0
102
RTVSPost2010PropOp38
 70
     1
102
RTVSPost2010Prop39
140
1.0
102
RTVSPost2010PropOp39
 70
     1
102
RTVSPost2010Prop40
 90
        0
102
RTVSPost2010PropOp40
 70
     1
102
RTVSPost2010Prop41ColorIndex
 90
       18
102
RTVSPost2010Prop41ColorRGB
 90
        0
102
RTVSPost2010PropOp41
 70
     1
102
RTVSPost2010Prop42
 90
       50
102
RTVSPost2010PropOp42
 70
     1
102
RTVSPost2010Prop43
 90
        3
102
RTVSPost2010PropOp43
 70
     1
102
RTVSPost2010Prop44ColorIndex
 90
        5
102
RTVSPost2010Prop44ColorRGB
 90
      255
102
RTVSPost2010PropOp44
 70
     1
102
RTVSPost2010Prop45
280
     0
102
RTVSPost2010PropOp45
 70
     1
102
RTVSPost2010Prop46
 90
       50
102
RTVSPost2010PropOp46
 70
     1
102
RTVSPost2010Prop47
 90
       50
102
RTVSPost2010PropOp47
 70
     1
102
RTVSPost2010Prop48
 90
       50
102
RTVSPost2010PropOp48
 70
     1
102
RTVSPost2010Prop49
280
     0
102
RTVSPost2010PropOp49
 70
     1
102
RTVSPost2010Prop50
 90
       50
102
RTVSPost2010PropOp50
 70
     1
102
RTVSPost2010Prop51ColorIndex
 90
      256
102
RTVSPost2010Prop51ColorRGB
 90
-16777216
102
RTVSPost2010PropOp51
 70
     0
102
RTVSPost2010Prop52
140
1.0
102
RTVSPost2010PropOp52
 70
     0
102
RTVSPost2010Prop53
 90
        2
102
RTVSPost2010PropOp53
 70
     1
102
RTVSPost2010Prop54
  1
strokes_ogs.tif
102
RTVSPost2010PropOp54
 70
     1
102
RTVSPost2010Prop55
280
     0
102
RTVSPost2010PropOp55
 70
     1
102
RTVSPost2010Prop56
140
1.0
102
RTVSPost2010PropOp56
 70
     1
102
RTVSPost2010Prop57
140
1.0
102
RTVSPost2010PropOp57
 70
     1
102
RTVSPropertyOp0
 70
     1
102
RTVSPropertyOp1
 70
     1
102
RTVSPropertyOp2
 70
     1
102
RTVSPropertyOp3
 70
     1
102
RTVSPropertyOp4
 70
     1
102
RTVSPropertyOp5
 70
     1
102
RTVSPropertyOp6
 70
     1
102
RTVSPropertyOp7
 70
     1
102
RTVSPropertyOp8
 70
     1
102
RTVSPropertyOp9
 70
     1
102
RTVSPropertyOp10
 70
     1
102
RTVSPropertyOp11
 70
     1
102
RTVSPropertyOp12
 70
     1
102
RTVSPropertyOp13
 70
     1
102
RTVSPropertyOp14
 70
     1
102
RTVSPropertyOp15
 70
     1
102
RTVSPropertyOp16
 70
     1
102
RTVSPropertyOp17
 70
     1
102
RTVSPropertyOp18
 70
     1
102
RTVSPropertyOp19
 70
     1
102
RTVSPropertyOp20
 70
     1
102
RTVSPropertyOp21
 70
     1
102
RTVSPropertyOp22
 70
     1
102
RTVSPropertyOp23
 70
     1
102
RTVSPropertyOp24
 70
     1
102
RTVSPropertyOp25
 70
     1
102
RTVSPropertyOp26
 70
     1
102
RTVSPropertyOp27
 70
     1
102
RTVSPropertyOp28
 70
     1
102
RTVSPropertyOp29
 70
     1
102
RTVSPropertyOp30
 70
     1
102
RTVSPropertyOp31
 70
     1
102
RTVSPropertyOp32
 70
     1
102
RTVSPropertyOp33
 70
     1
102
RTVSPropertyOp34
 70
     1
102
RTVSPropertyOp35
 70
     1
102
RTVSPropertyOp36
 70
     1
102
RTVSPropertyOp37
 70
     1
102
RTVSPropertyOp38
 70
     1
102
RTVSPropertyOp39
 70
     1
102
RTVSPropertyOp40
 70
     1
102
RTVSPropertyOp41
 70
     1
102
RTVSPropertyOp42
 70
     1
102
RTVSPropertyOp43
 70
     1
102
RTVSPropertyOp44
 70
     1
102
RTVSPropertyOp45
 70
     1
102
RTVSPropertyOp46
 70
     1
102
RTVSPropertyOp47
 70
     1
102
RTVSPropertyOp48
 70
     1
102
RTVSPropertyOp49
 70
     1
102
RTVSPropertyOp50
 70
     1
102
RTVSPropertyOp51
 70
     0
102
RTVSPropertyOp52
 70
     0
102
RTVSPropertyOp53
 70
     1
102
RTVSPropertyOp54
 70
     1
102
RTVSPropertyOp55
 70
     1
102
RTVSPropertyOp56
 70
     1
102
RTVSPropertyOp57
 70
     1
102
RTVSPropertyOp58
 70
     1
102
RTVSPropertyOp59
 70
     1
102
RTVSPropertyOp60
 70
     1
102
RTVSPropertyOp61
 70
     1
102
RTVSPropertyOp62
 70
     1
  0
XRECORD
  5
9AF9
102
{ACAD_REACTORS
330
9AF8
102
}
330
9AF8
100
AcDbXrecord
280
     1
102
RTVSPost2010Prop28
280
     0
102
RTVSPost2010PropOp28
 70
     1
102
RTVSPost2010Prop29
280
     1
102
RTVSPost2010PropOp29
 70
     1
102
RTVSPost2010Prop30
280
     1
102
RTVSPost2010PropOp30
 70
     1
102
RTVSPost2010Prop31
280
     0
102
RTVSPost2010PropOp31
 70
     1
102
RTVSPost2010Prop32
280
     0
102
RTVSPost2010PropOp32
 70
     1
102
RTVSPost2010Prop33
280
     0
102
RTVSPost2010PropOp33
 70
     1
102
RTVSPost2010Prop34
280
     0
102
RTVSPost2010PropOp34
 70
     1
102
RTVSPost2010Prop35
280
     0
102
RTVSPost2010PropOp35
 70
     1
102
RTVSPost2010Prop36
280
     0
102
RTVSPost2010PropOp36
 70
     1
102
RTVSPost2010Prop37
 90
       50
102
RTVSPost2010PropOp37
 70
     0
102
RTVSPost2010Prop38
140
0.0
102
RTVSPost2010PropOp38
 70
     0
102
RTVSPost2010Prop39
140
1.0
102
RTVSPost2010PropOp39
 70
     0
102
RTVSPost2010Prop40
 90
        0
102
RTVSPost2010PropOp40
 70
     0
102
RTVSPost2010Prop41ColorIndex
 90
       18
102
RTVSPost2010Prop41ColorRGB
 90
        0
102
RTVSPost2010PropOp41
 70
     0
102
RTVSPost2010Prop42
 90
       50
102
RTVSPost2010PropOp42
 70
     0
102
RTVSPost2010Prop43
 90
        3
102
RTVSPost2010PropOp43
 70
     0
102
RTVSPost2010Prop44ColorIndex
 90
        5
102
RTVSPost2010Prop44ColorRGB
 90
      255
102
RTVSPost2010PropOp44
 70
     0
102
RTVSPost2010Prop45
280
     0
102
RTVSPost2010PropOp45
 70
     1
102
RTVSPost2010Prop46
 90
       50
102
RTVSPost2010PropOp46
 70
     0
102
RTVSPost2010Prop47
 90
       50
102
RTVSPost2010PropOp47
 70
     0
102
RTVSPost2010Prop48
 90
       50
102
RTVSPost2010PropOp48
 70
     0
102
RTVSPost2010Prop49
280
     0
102
RTVSPost2010PropOp49
 70
     1
102
RTVSPost2010Prop50
 90
       50
102
RTVSPost2010PropOp50
 70
     0
102
RTVSPost2010Prop51ColorIndex
 90
      256
102
RTVSPost2010Prop51ColorRGB
 90
-16777216
102
RTVSPost2010PropOp51
 70
     0
102
RTVSPost2010Prop52
140
1.0
102
RTVSPost2010PropOp52
 70
     0
102
RTVSPost2010Prop53
 90
        2
102
RTVSPost2010PropOp53
 70
     0
102
RTVSPost2010Prop54
  1
strokes_ogs.tif
102
RTVSPost2010PropOp54
 70
     0
102
RTVSPost2010Prop55
280
     0
102
RTVSPost2010PropOp55
 70
     1
102
RTVSPost2010Prop56
140
1.0
102
RTVSPost2010PropOp56
 70
     0
102
RTVSPost2010Prop57
140
1.0
102
RTVSPost2010PropOp57
 70
     0
102
RTVSPropertyOp0
 70
     0
102
RTVSPropertyOp1
 70
     0
102
RTVSPropertyOp2
 70
     0
102
RTVSPropertyOp3
 70
     0
102
RTVSPropertyOp4
 70
     0
102
RTVSPropertyOp5
 70
     0
102
RTVSPropertyOp6
 70
     0
102
RTVSPropertyOp7
 70
     0
102
RTVSPropertyOp8
 70
     0
102
RTVSPropertyOp9
 70
     0
102
RTVSPropertyOp10
 70
     0
102
RTVSPropertyOp11
 70
     0
102
RTVSPropertyOp12
 70
     0
102
RTVSPropertyOp13
 70
     0
102
RTVSPropertyOp14
 70
     2
102
RTVSPropertyOp15
 70
     0
102
RTVSPropertyOp16
 70
     0
102
RTVSPropertyOp17
 70
     0
102
RTVSPropertyOp18
 70
     0
102
RTVSPropertyOp19
 70
     0
102
RTVSPropertyOp20
 70
     0
102
RTVSPropertyOp21
 70
     0
102
RTVSPropertyOp22
 70
     0
102
RTVSPropertyOp23
 70
     0
102
RTVSPropertyOp24
 70
     0
102
RTVSPropertyOp25
 70
     0
102
RTVSPropertyOp26
 70
     0
102
RTVSPropertyOp27
 70
     0
102
RTVSPropertyOp28
 70
     1
102
RTVSPropertyOp29
 70
     1
102
RTVSPropertyOp30
 70
     1
102
RTVSPropertyOp31
 70
     1
102
RTVSPropertyOp32
 70
     1
102
RTVSPropertyOp33
 70
     1
102
RTVSPropertyOp34
 70
     1
102
RTVSPropertyOp35
 70
     1
102
RTVSPropertyOp36
 70
     1
102
RTVSPropertyOp37
 70
     0
102
RTVSPropertyOp38
 70
     0
102
RTVSPropertyOp39
 70
     0
102
RTVSPropertyOp40
 70
     0
102
RTVSPropertyOp41
 70
     0
102
RTVSPropertyOp42
 70
     0
102
RTVSPropertyOp43
 70
     0
102
RTVSPropertyOp44
 70
     0
102
RTVSPropertyOp45
 70
     1
102
RTVSPropertyOp46
 70
     0
102
RTVSPropertyOp47
 70
     0
102
RTVSPropertyOp48
 70
     0
102
RTVSPropertyOp49
 70
     1
102
RTVSPropertyOp50
 70
     0
102
RTVSPropertyOp51
 70
     0
102
RTVSPropertyOp52
 70
     0
102
RTVSPropertyOp53
 70
     0
102
RTVSPropertyOp54
 70
     0
102
RTVSPropertyOp55
 70
     1
102
RTVSPropertyOp56
 70
     0
102
RTVSPropertyOp57
 70
     0
102
RTVSPropertyOp58
 70
     0
102
RTVSPropertyOp59
 70
     0
102
RTVSPropertyOp60
 70
     0
102
RTVSPropertyOp61
 70
     0
102
RTVSPropertyOp62
 70
     0
  0
XRECORD
  5
9AE9
102
{ACAD_REACTORS
330
9AE8
102
}
330
9AE8
100
AcDbXrecord
280
     1
102
RTVSPost2010Prop28
280
     0
102
RTVSPost2010PropOp28
 70
     1
102
RTVSPost2010Prop29
280
     1
102
RTVSPost2010PropOp29
 70
     1
102
RTVSPost2010Prop30
280
     1
102
RTVSPost2010PropOp30
 70
     1
102
RTVSPost2010Prop31
280
     0
102
RTVSPost2010PropOp31
 70
     1
102
RTVSPost2010Prop32
280
     0
102
RTVSPost2010PropOp32
 70
     1
102
RTVSPost2010Prop33
280
     0
102
RTVSPost2010PropOp33
 70
     1
102
RTVSPost2010Prop34
280
     0
102
RTVSPost2010PropOp34
 70
     1
102
RTVSPost2010Prop35
280
     0
102
RTVSPost2010PropOp35
 70
     1
102
RTVSPost2010Prop36
280
     0
102
RTVSPost2010PropOp36
 70
     1
102
RTVSPost2010Prop37
 90
       50
102
RTVSPost2010PropOp37
 70
     1
102
RTVSPost2010Prop38
140
0.0
102
RTVSPost2010PropOp38
 70
     1
102
RTVSPost2010Prop39
140
1.0
102
RTVSPost2010PropOp39
 70
     1
102
RTVSPost2010Prop40
 90
        0
102
RTVSPost2010PropOp40
 70
     1
102
RTVSPost2010Prop41ColorIndex
 90
       18
102
RTVSPost2010Prop41ColorRGB
 90
        0
102
RTVSPost2010PropOp41
 70
     1
102
RTVSPost2010Prop42
 90
       50
102
RTVSPost2010PropOp42
 70
     1
102
RTVSPost2010Prop43
 90
        3
102
RTVSPost2010PropOp43
 70
     1
102
RTVSPost2010Prop44ColorIndex
 90
        5
102
RTVSPost2010Prop44ColorRGB
 90
      255
102
RTVSPost2010PropOp44
 70
     1
102
RTVSPost2010Prop45
280
     0
102
RTVSPost2010PropOp45
 70
     1
102
RTVSPost2010Prop46
 90
       50
102
RTVSPost2010PropOp46
 70
     1
102
RTVSPost2010Prop47
 90
       50
102
RTVSPost2010PropOp47
 70
     1
102
RTVSPost2010Prop48
 90
       50
102
RTVSPost2010PropOp48
 70
     1
102
RTVSPost2010Prop49
280
     0
102
RTVSPost2010PropOp49
 70
     1
102
RTVSPost2010Prop50
 90
       50
102
RTVSPost2010PropOp50
 70
     1
102
RTVSPost2010Prop51ColorIndex
 90
      256
102
RTVSPost2010Prop51ColorRGB
 90
-16777216
102
RTVSPost2010PropOp51
 70
     0
102
RTVSPost2010Prop52
140
1.0
102
RTVSPost2010PropOp52
 70
     0
102
RTVSPost2010Prop53
 90
        2
102
RTVSPost2010PropOp53
 70
     1
102
RTVSPost2010Prop54
  1
strokes_ogs.tif
102
RTVSPost2010PropOp54
 70
     1
102
RTVSPost2010Prop55
280
     0
102
RTVSPost2010PropOp55
 70
     1
102
RTVSPost2010Prop56
140
1.0
102
RTVSPost2010PropOp56
 70
     1
102
RTVSPost2010Prop57
140
1.0
102
RTVSPost2010PropOp57
 70
     1
102
RTVSPropertyOp0
 70
     1
102
RTVSPropertyOp1
 70
     1
102
RTVSPropertyOp2
 70
     1
102
RTVSPropertyOp3
 70
     1
102
RTVSPropertyOp4
 70
     1
102
RTVSPropertyOp5
 70
     1
102
RTVSPropertyOp6
 70
     1
102
RTVSPropertyOp7
 70
     1
102
RTVSPropertyOp8
 70
     1
102
RTVSPropertyOp9
 70
     1
102
RTVSPropertyOp10
 70
     1
102
RTVSPropertyOp11
 70
     1
102
RTVSPropertyOp12
 70
     1
102
RTVSPropertyOp13
 70
     1
102
RTVSPropertyOp14
 70
     1
102
RTVSPropertyOp15
 70
     1
102
RTVSPropertyOp16
 70
     1
102
RTVSPropertyOp17
 70
     1
102
RTVSPropertyOp18
 70
     1
102
RTVSPropertyOp19
 70
     1
102
RTVSPropertyOp20
 70
     1
102
RTVSPropertyOp21
 70
     1
102
RTVSPropertyOp22
 70
     1
102
RTVSPropertyOp23
 70
     1
102
RTVSPropertyOp24
 70
     1
102
RTVSPropertyOp25
 70
     1
102
RTVSPropertyOp26
 70
     1
102
RTVSPropertyOp27
 70
     1
102
RTVSPropertyOp28
 70
     1
102
RTVSPropertyOp29
 70
     1
102
RTVSPropertyOp30
 70
     1
102
RTVSPropertyOp31
 70
     1
102
RTVSPropertyOp32
 70
     1
102
RTVSPropertyOp33
 70
     1
102
RTVSPropertyOp34
 70
     1
102
RTVSPropertyOp35
 70
     1
102
RTVSPropertyOp36
 70
     1
102
RTVSPropertyOp37
 70
     1
102
RTVSPropertyOp38
 70
     1
102
RTVSPropertyOp39
 70
     1
102
RTVSPropertyOp40
 70
     1
102
RTVSPropertyOp41
 70
     1
102
RTVSPropertyOp42
 70
     1
102
RTVSPropertyOp43
 70
     1
102
RTVSPropertyOp44
 70
     1
102
RTVSPropertyOp45
 70
     1
102
RTVSPropertyOp46
 70
     1
102
RTVSPropertyOp47
 70
     1
102
RTVSPropertyOp48
 70
     1
102
RTVSPropertyOp49
 70
     1
102
RTVSPropertyOp50
 70
     1
102
RTVSPropertyOp51
 70
     0
102
RTVSPropertyOp52
 70
     0
102
RTVSPropertyOp53
 70
     1
102
RTVSPropertyOp54
 70
     1
102
RTVSPropertyOp55
 70
     1
102
RTVSPropertyOp56
 70
     1
102
RTVSPropertyOp57
 70
     1
102
RTVSPropertyOp58
 70
     1
102
RTVSPropertyOp59
 70
     1
102
RTVSPropertyOp60
 70
     1
102
RTVSPropertyOp61
 70
     1
102
RTVSPropertyOp62
 70
     1
  0
XRECORD
  5
9AFB
102
{ACAD_REACTORS
330
9AFA
102
}
330
9AFA
100
AcDbXrecord
280
     1
102
RTVSPost2010Prop28
280
     0
102
RTVSPost2010PropOp28
 70
     1
102
RTVSPost2010Prop29
280
     1
102
RTVSPost2010PropOp29
 70
     1
102
RTVSPost2010Prop30
280
     1
102
RTVSPost2010PropOp30
 70
     1
102
RTVSPost2010Prop31
280
     0
102
RTVSPost2010PropOp31
 70
     1
102
RTVSPost2010Prop32
280
     0
102
RTVSPost2010PropOp32
 70
     1
102
RTVSPost2010Prop33
280
     0
102
RTVSPost2010PropOp33
 70
     1
102
RTVSPost2010Prop34
280
     0
102
RTVSPost2010PropOp34
 70
     1
102
RTVSPost2010Prop35
280
     0
102
RTVSPost2010PropOp35
 70
     1
102
RTVSPost2010Prop36
280
     0
102
RTVSPost2010PropOp36
 70
     1
102
RTVSPost2010Prop37
 90
       50
102
RTVSPost2010PropOp37
 70
     0
102
RTVSPost2010Prop38
140
0.0
102
RTVSPost2010PropOp38
 70
     0
102
RTVSPost2010Prop39
140
1.0
102
RTVSPost2010PropOp39
 70
     0
102
RTVSPost2010Prop40
 90
        0
102
RTVSPost2010PropOp40
 70
     0
102
RTVSPost2010Prop41ColorIndex
 90
       18
102
RTVSPost2010Prop41ColorRGB
 90
        0
102
RTVSPost2010PropOp41
 70
     0
102
RTVSPost2010Prop42
 90
       50
102
RTVSPost2010PropOp42
 70
     0
102
RTVSPost2010Prop43
 90
        3
102
RTVSPost2010PropOp43
 70
     0
102
RTVSPost2010Prop44ColorIndex
 90
        5
102
RTVSPost2010Prop44ColorRGB
 90
      255
102
RTVSPost2010PropOp44
 70
     0
102
RTVSPost2010Prop45
280
     0
102
RTVSPost2010PropOp45
 70
     1
102
RTVSPost2010Prop46
 90
       50
102
RTVSPost2010PropOp46
 70
     0
102
RTVSPost2010Prop47
 90
       50
102
RTVSPost2010PropOp47
 70
     0
102
RTVSPost2010Prop48
 90
       50
102
RTVSPost2010PropOp48
 70
     0
102
RTVSPost2010Prop49
280
     0
102
RTVSPost2010PropOp49
 70
     1
102
RTVSPost2010Prop50
 90
       50
102
RTVSPost2010PropOp50
 70
     0
102
RTVSPost2010Prop51ColorIndex
 90
      256
102
RTVSPost2010Prop51ColorRGB
 90
-16777216
102
RTVSPost2010PropOp51
 70
     0
102
RTVSPost2010Prop52
140
1.0
102
RTVSPost2010PropOp52
 70
     0
102
RTVSPost2010Prop53
 90
        2
102
RTVSPost2010PropOp53
 70
     0
102
RTVSPost2010Prop54
  1
strokes_ogs.tif
102
RTVSPost2010PropOp54
 70
     0
102
RTVSPost2010Prop55
280
     0
102
RTVSPost2010PropOp55
 70
     1
102
RTVSPost2010Prop56
140
1.0
102
RTVSPost2010PropOp56
 70
     0
102
RTVSPost2010Prop57
140
1.0
102
RTVSPost2010PropOp57
 70
     0
102
RTVSPropertyOp0
 70
     0
102
RTVSPropertyOp1
 70
     0
102
RTVSPropertyOp2
 70
     0
102
RTVSPropertyOp3
 70
     0
102
RTVSPropertyOp4
 70
     0
102
RTVSPropertyOp5
 70
     0
102
RTVSPropertyOp6
 70
     0
102
RTVSPropertyOp7
 70
     0
102
RTVSPropertyOp8
 70
     0
102
RTVSPropertyOp9
 70
     0
102
RTVSPropertyOp10
 70
     0
102
RTVSPropertyOp11
 70
     0
102
RTVSPropertyOp12
 70
     0
102
RTVSPropertyOp13
 70
     0
102
RTVSPropertyOp14
 70
     2
102
RTVSPropertyOp15
 70
     0
102
RTVSPropertyOp16
 70
     0
102
RTVSPropertyOp17
 70
     0
102
RTVSPropertyOp18
 70
     0
102
RTVSPropertyOp19
 70
     0
102
RTVSPropertyOp20
 70
     0
102
RTVSPropertyOp21
 70
     0
102
RTVSPropertyOp22
 70
     0
102
RTVSPropertyOp23
 70
     0
102
RTVSPropertyOp24
 70
     0
102
RTVSPropertyOp25
 70
     0
102
RTVSPropertyOp26
 70
     0
102
RTVSPropertyOp27
 70
     0
102
RTVSPropertyOp28
 70
     1
102
RTVSPropertyOp29
 70
     1
102
RTVSPropertyOp30
 70
     1
102
RTVSPropertyOp31
 70
     1
102
RTVSPropertyOp32
 70
     1
102
RTVSPropertyOp33
 70
     1
102
RTVSPropertyOp34
 70
     1
102
RTVSPropertyOp35
 70
     1
102
RTVSPropertyOp36
 70
     1
102
RTVSPropertyOp37
 70
     0
102
RTVSPropertyOp38
 70
     0
102
RTVSPropertyOp39
 70
     0
102
RTVSPropertyOp40
 70
     0
102
RTVSPropertyOp41
 70
     0
102
RTVSPropertyOp42
 70
     0
102
RTVSPropertyOp43
 70
     0
102
RTVSPropertyOp44
 70
     0
102
RTVSPropertyOp45
 70
     1
102
RTVSPropertyOp46
 70
     0
102
RTVSPropertyOp47
 70
     0
102
RTVSPropertyOp48
 70
     0
102
RTVSPropertyOp49
 70
     1
102
RTVSPropertyOp50
 70
     0
102
RTVSPropertyOp51
 70
     0
102
RTVSPropertyOp52
 70
     0
102
RTVSPropertyOp53
 70
     0
102
RTVSPropertyOp54
 70
     0
102
RTVSPropertyOp55
 70
     1
102
RTVSPropertyOp56
 70
     0
102
RTVSPropertyOp57
 70
     0
102
RTVSPropertyOp58
 70
     0
102
RTVSPropertyOp59
 70
     0
102
RTVSPropertyOp60
 70
     0
102
RTVSPropertyOp61
 70
     0
102
RTVSPropertyOp62
 70
     0
  0
XRECORD
  5
9AE1
102
{ACAD_REACTORS
330
9AE0
102
}
330
9AE0
100
AcDbXrecord
280
     1
102
RTVSPost2010Prop28
280
     0
102
RTVSPost2010PropOp28
 70
     1
102
RTVSPost2010Prop29
280
     1
102
RTVSPost2010PropOp29
 70
     1
102
RTVSPost2010Prop30
280
     1
102
RTVSPost2010PropOp30
 70
     1
102
RTVSPost2010Prop31
280
     0
102
RTVSPost2010PropOp31
 70
     1
102
RTVSPost2010Prop32
280
     0
102
RTVSPost2010PropOp32
 70
     1
102
RTVSPost2010Prop33
280
     0
102
RTVSPost2010PropOp33
 70
     1
102
RTVSPost2010Prop34
280
     0
102
RTVSPost2010PropOp34
 70
     1
102
RTVSPost2010Prop35
280
     0
102
RTVSPost2010PropOp35
 70
     1
102
RTVSPost2010Prop36
280
     0
102
RTVSPost2010PropOp36
 70
     1
102
RTVSPost2010Prop37
 90
       50
102
RTVSPost2010PropOp37
 70
     1
102
RTVSPost2010Prop38
140
0.0
102
RTVSPost2010PropOp38
 70
     1
102
RTVSPost2010Prop39
140
1.0
102
RTVSPost2010PropOp39
 70
     1
102
RTVSPost2010Prop40
 90
        0
102
RTVSPost2010PropOp40
 70
     1
102
RTVSPost2010Prop41ColorIndex
 90
       18
102
RTVSPost2010Prop41ColorRGB
 90
        0
102
RTVSPost2010PropOp41
 70
     1
102
RTVSPost2010Prop42
 90
       50
102
RTVSPost2010PropOp42
 70
     1
102
RTVSPost2010Prop43
 90
        3
102
RTVSPost2010PropOp43
 70
     1
102
RTVSPost2010Prop44ColorIndex
 90
        5
102
RTVSPost2010Prop44ColorRGB
 90
      255
102
RTVSPost2010PropOp44
 70
     1
102
RTVSPost2010Prop45
280
     0
102
RTVSPost2010PropOp45
 70
     1
102
RTVSPost2010Prop46
 90
       50
102
RTVSPost2010PropOp46
 70
     1
102
RTVSPost2010Prop47
 90
       50
102
RTVSPost2010PropOp47
 70
     1
102
RTVSPost2010Prop48
 90
       50
102
RTVSPost2010PropOp48
 70
     1
102
RTVSPost2010Prop49
280
     0
102
RTVSPost2010PropOp49
 70
     1
102
RTVSPost2010Prop50
 90
       50
102
RTVSPost2010PropOp50
 70
     1
102
RTVSPost2010Prop51ColorIndex
 90
      256
102
RTVSPost2010Prop51ColorRGB
 90
-16777216
102
RTVSPost2010PropOp51
 70
     0
102
RTVSPost2010Prop52
140
1.0
102
RTVSPost2010PropOp52
 70
     0
102
RTVSPost2010Prop53
 90
        2
102
RTVSPost2010PropOp53
 70
     1
102
RTVSPost2010Prop54
  1
strokes_ogs.tif
102
RTVSPost2010PropOp54
 70
     1
102
RTVSPost2010Prop55
280
     0
102
RTVSPost2010PropOp55
 70
     1
102
RTVSPost2010Prop56
140
1.0
102
RTVSPost2010PropOp56
 70
     1
102
RTVSPost2010Prop57
140
1.0
102
RTVSPost2010PropOp57
 70
     1
102
RTVSPropertyOp0
 70
     1
102
RTVSPropertyOp1
 70
     1
102
RTVSPropertyOp2
 70
     1
102
RTVSPropertyOp3
 70
     1
102
RTVSPropertyOp4
 70
     1
102
RTVSPropertyOp5
 70
     1
102
RTVSPropertyOp6
 70
     1
102
RTVSPropertyOp7
 70
     1
102
RTVSPropertyOp8
 70
     1
102
RTVSPropertyOp9
 70
     1
102
RTVSPropertyOp10
 70
     1
102
RTVSPropertyOp11
 70
     1
102
RTVSPropertyOp12
 70
     1
102
RTVSPropertyOp13
 70
     1
102
RTVSPropertyOp14
 70
     1
102
RTVSPropertyOp15
 70
     1
102
RTVSPropertyOp16
 70
     1
102
RTVSPropertyOp17
 70
     1
102
RTVSPropertyOp18
 70
     1
102
RTVSPropertyOp19
 70
     1
102
RTVSPropertyOp20
 70
     1
102
RTVSPropertyOp21
 70
     1
102
RTVSPropertyOp22
 70
     1
102
RTVSPropertyOp23
 70
     1
102
RTVSPropertyOp24
 70
     1
102
RTVSPropertyOp25
 70
     1
102
RTVSPropertyOp26
 70
     1
102
RTVSPropertyOp27
 70
     1
102
RTVSPropertyOp28
 70
     1
102
RTVSPropertyOp29
 70
     1
102
RTVSPropertyOp30
 70
     1
102
RTVSPropertyOp31
 70
     1
102
RTVSPropertyOp32
 70
     1
102
RTVSPropertyOp33
 70
     1
102
RTVSPropertyOp34
 70
     1
102
RTVSPropertyOp35
 70
     1
102
RTVSPropertyOp36
 70
     1
102
RTVSPropertyOp37
 70
     1
102
RTVSPropertyOp38
 70
     1
102
RTVSPropertyOp39
 70
     1
102
RTVSPropertyOp40
 70
     1
102
RTVSPropertyOp41
 70
     1
102
RTVSPropertyOp42
 70
     1
102
RTVSPropertyOp43
 70
     1
102
RTVSPropertyOp44
 70
     1
102
RTVSPropertyOp45
 70
     1
102
RTVSPropertyOp46
 70
     1
102
RTVSPropertyOp47
 70
     1
102
RTVSPropertyOp48
 70
     1
102
RTVSPropertyOp49
 70
     1
102
RTVSPropertyOp50
 70
     1
102
RTVSPropertyOp51
 70
     0
102
RTVSPropertyOp52
 70
     0
102
RTVSPropertyOp53
 70
     1
102
RTVSPropertyOp54
 70
     1
102
RTVSPropertyOp55
 70
     1
102
RTVSPropertyOp56
 70
     1
102
RTVSPropertyOp57
 70
     1
102
RTVSPropertyOp58
 70
     1
102
RTVSPropertyOp59
 70
     1
102
RTVSPropertyOp60
 70
     1
102
RTVSPropertyOp61
 70
     1
102
RTVSPropertyOp62
 70
     1
  0
XRECORD
  5
9AF7
102
{ACAD_REACTORS
330
9AF6
102
}
330
9AF6
100
AcDbXrecord
280
     1
102
RTVSPost2010Prop28
280
     0
102
RTVSPost2010PropOp28
 70
     1
102
RTVSPost2010Prop29
280
     1
102
RTVSPost2010PropOp29
 70
     1
102
RTVSPost2010Prop30
280
     1
102
RTVSPost2010PropOp30
 70
     1
102
RTVSPost2010Prop31
280
     0
102
RTVSPost2010PropOp31
 70
     1
102
RTVSPost2010Prop32
280
     0
102
RTVSPost2010PropOp32
 70
     1
102
RTVSPost2010Prop33
280
     0
102
RTVSPost2010PropOp33
 70
     1
102
RTVSPost2010Prop34
280
     0
102
RTVSPost2010PropOp34
 70
     1
102
RTVSPost2010Prop35
280
     0
102
RTVSPost2010PropOp35
 70
     1
102
RTVSPost2010Prop36
280
     0
102
RTVSPost2010PropOp36
 70
     1
102
RTVSPost2010Prop37
 90
       50
102
RTVSPost2010PropOp37
 70
     1
102
RTVSPost2010Prop38
140
0.0
102
RTVSPost2010PropOp38
 70
     1
102
RTVSPost2010Prop39
140
1.0
102
RTVSPost2010PropOp39
 70
     1
102
RTVSPost2010Prop40
 90
        0
102
RTVSPost2010PropOp40
 70
     1
102
RTVSPost2010Prop41ColorIndex
 90
       18
102
RTVSPost2010Prop41ColorRGB
 90
        0
102
RTVSPost2010PropOp41
 70
     1
102
RTVSPost2010Prop42
 90
       50
102
RTVSPost2010PropOp42
 70
     1
102
RTVSPost2010Prop43
 90
        3
102
RTVSPost2010PropOp43
 70
     1
102
RTVSPost2010Prop44ColorIndex
 90
        5
102
RTVSPost2010Prop44ColorRGB
 90
      255
102
RTVSPost2010PropOp44
 70
     1
102
RTVSPost2010Prop45
280
     0
102
RTVSPost2010PropOp45
 70
     1
102
RTVSPost2010Prop46
 90
       50
102
RTVSPost2010PropOp46
 70
     1
102
RTVSPost2010Prop47
 90
       50
102
RTVSPost2010PropOp47
 70
     1
102
RTVSPost2010Prop48
 90
       50
102
RTVSPost2010PropOp48
 70
     1
102
RTVSPost2010Prop49
280
     0
102
RTVSPost2010PropOp49
 70
     1
102
RTVSPost2010Prop50
 90
       50
102
RTVSPost2010PropOp50
 70
     1
102
RTVSPost2010Prop51ColorIndex
 90
      256
102
RTVSPost2010Prop51ColorRGB
 90
-16777216
102
RTVSPost2010PropOp51
 70
     0
102
RTVSPost2010Prop52
140
1.0
102
RTVSPost2010PropOp52
 70
     0
102
RTVSPost2010Prop53
 90
        2
102
RTVSPost2010PropOp53
 70
     1
102
RTVSPost2010Prop54
  1
strokes_ogs.tif
102
RTVSPost2010PropOp54
 70
     1
102
RTVSPost2010Prop55
280
     0
102
RTVSPost2010PropOp55
 70
     1
102
RTVSPost2010Prop56
140
1.0
102
RTVSPost2010PropOp56
 70
     1
102
RTVSPost2010Prop57
140
1.0
102
RTVSPost2010PropOp57
 70
     1
102
RTVSPropertyOp0
 70
     1
102
RTVSPropertyOp1
 70
     1
102
RTVSPropertyOp2
 70
     1
102
RTVSPropertyOp3
 70
     1
102
RTVSPropertyOp4
 70
     1
102
RTVSPropertyOp5
 70
     1
102
RTVSPropertyOp6
 70
     1
102
RTVSPropertyOp7
 70
     1
102
RTVSPropertyOp8
 70
     1
102
RTVSPropertyOp9
 70
     1
102
RTVSPropertyOp10
 70
     1
102
RTVSPropertyOp11
 70
     1
102
RTVSPropertyOp12
 70
     1
102
RTVSPropertyOp13
 70
     1
102
RTVSPropertyOp14
 70
     1
102
RTVSPropertyOp15
 70
     1
102
RTVSPropertyOp16
 70
     1
102
RTVSPropertyOp17
 70
     1
102
RTVSPropertyOp18
 70
     1
102
RTVSPropertyOp19
 70
     1
102
RTVSPropertyOp20
 70
     1
102
RTVSPropertyOp21
 70
     1
102
RTVSPropertyOp22
 70
     1
102
RTVSPropertyOp23
 70
     1
102
RTVSPropertyOp24
 70
     1
102
RTVSPropertyOp25
 70
     1
102
RTVSPropertyOp26
 70
     1
102
RTVSPropertyOp27
 70
     1
102
RTVSPropertyOp28
 70
     1
102
RTVSPropertyOp29
 70
     1
102
RTVSPropertyOp30
 70
     1
102
RTVSPropertyOp31
 70
     1
102
RTVSPropertyOp32
 70
     1
102
RTVSPropertyOp33
 70
     1
102
RTVSPropertyOp34
 70
     1
102
RTVSPropertyOp35
 70
     1
102
RTVSPropertyOp36
 70
     1
102
RTVSPropertyOp37
 70
     1
102
RTVSPropertyOp38
 70
     1
102
RTVSPropertyOp39
 70
     1
102
RTVSPropertyOp40
 70
     1
102
RTVSPropertyOp41
 70
     1
102
RTVSPropertyOp42
 70
     1
102
RTVSPropertyOp43
 70
     1
102
RTVSPropertyOp44
 70
     1
102
RTVSPropertyOp45
 70
     1
102
RTVSPropertyOp46
 70
     1
102
RTVSPropertyOp47
 70
     1
102
RTVSPropertyOp48
 70
     1
102
RTVSPropertyOp49
 70
     1
102
RTVSPropertyOp50
 70
     1
102
RTVSPropertyOp51
 70
     0
102
RTVSPropertyOp52
 70
     0
102
RTVSPropertyOp53
 70
     1
102
RTVSPropertyOp54
 70
     1
102
RTVSPropertyOp55
 70
     1
102
RTVSPropertyOp56
 70
     1
102
RTVSPropertyOp57
 70
     1
102
RTVSPropertyOp58
 70
     1
102
RTVSPropertyOp59
 70
     1
102
RTVSPropertyOp60
 70
     1
102
RTVSPropertyOp61
 70
     1
102
RTVSPropertyOp62
 70
     1
  0
XRECORD
  5
9AF5
102
{ACAD_REACTORS
330
9AF4
102
}
330
9AF4
100
AcDbXrecord
280
     1
102
RTVSPost2010Prop28
280
     0
102
RTVSPost2010PropOp28
 70
     1
102
RTVSPost2010Prop29
280
     1
102
RTVSPost2010PropOp29
 70
     1
102
RTVSPost2010Prop30
280
     1
102
RTVSPost2010PropOp30
 70
     1
102
RTVSPost2010Prop31
280
     0
102
RTVSPost2010PropOp31
 70
     1
102
RTVSPost2010Prop32
280
     0
102
RTVSPost2010PropOp32
 70
     1
102
RTVSPost2010Prop33
280
     0
102
RTVSPost2010PropOp33
 70
     1
102
RTVSPost2010Prop34
280
     0
102
RTVSPost2010PropOp34
 70
     1
102
RTVSPost2010Prop35
280
     0
102
RTVSPost2010PropOp35
 70
     1
102
RTVSPost2010Prop36
280
     0
102
RTVSPost2010PropOp36
 70
     1
102
RTVSPost2010Prop37
 90
       50
102
RTVSPost2010PropOp37
 70
     1
102
RTVSPost2010Prop38
140
0.0
102
RTVSPost2010PropOp38
 70
     1
102
RTVSPost2010Prop39
140
1.0
102
RTVSPost2010PropOp39
 70
     1
102
RTVSPost2010Prop40
 90
        0
102
RTVSPost2010PropOp40
 70
     1
102
RTVSPost2010Prop41ColorIndex
 90
       18
102
RTVSPost2010Prop41ColorRGB
 90
        0
102
RTVSPost2010PropOp41
 70
     1
102
RTVSPost2010Prop42
 90
       50
102
RTVSPost2010PropOp42
 70
     1
102
RTVSPost2010Prop43
 90
        3
102
RTVSPost2010PropOp43
 70
     1
102
RTVSPost2010Prop44ColorIndex
 90
        5
102
RTVSPost2010Prop44ColorRGB
 90
      255
102
RTVSPost2010PropOp44
 70
     1
102
RTVSPost2010Prop45
280
     0
102
RTVSPost2010PropOp45
 70
     1
102
RTVSPost2010Prop46
 90
       50
102
RTVSPost2010PropOp46
 70
     1
102
RTVSPost2010Prop47
 90
       50
102
RTVSPost2010PropOp47
 70
     1
102
RTVSPost2010Prop48
 90
       50
102
RTVSPost2010PropOp48
 70
     1
102
RTVSPost2010Prop49
280
     0
102
RTVSPost2010PropOp49
 70
     1
102
RTVSPost2010Prop50
 90
       50
102
RTVSPost2010PropOp50
 70
     1
102
RTVSPost2010Prop51ColorIndex
 90
      256
102
RTVSPost2010Prop51ColorRGB
 90
-16777216
102
RTVSPost2010PropOp51
 70
     0
102
RTVSPost2010Prop52
140
1.0
102
RTVSPost2010PropOp52
 70
     0
102
RTVSPost2010Prop53
 90
        2
102
RTVSPost2010PropOp53
 70
     1
102
RTVSPost2010Prop54
  1
strokes_ogs.tif
102
RTVSPost2010PropOp54
 70
     1
102
RTVSPost2010Prop55
280
     0
102
RTVSPost2010PropOp55
 70
     1
102
RTVSPost2010Prop56
140
1.0
102
RTVSPost2010PropOp56
 70
     1
102
RTVSPost2010Prop57
140
1.0
102
RTVSPost2010PropOp57
 70
     1
102
RTVSPropertyOp0
 70
     1
102
RTVSPropertyOp1
 70
     1
102
RTVSPropertyOp2
 70
     1
102
RTVSPropertyOp3
 70
     1
102
RTVSPropertyOp4
 70
     1
102
RTVSPropertyOp5
 70
     1
102
RTVSPropertyOp6
 70
     1
102
RTVSPropertyOp7
 70
     1
102
RTVSPropertyOp8
 70
     1
102
RTVSPropertyOp9
 70
     1
102
RTVSPropertyOp10
 70
     1
102
RTVSPropertyOp11
 70
     1
102
RTVSPropertyOp12
 70
     1
102
RTVSPropertyOp13
 70
     1
102
RTVSPropertyOp14
 70
     1
102
RTVSPropertyOp15
 70
     1
102
RTVSPropertyOp16
 70
     1
102
RTVSPropertyOp17
 70
     1
102
RTVSPropertyOp18
 70
     1
102
RTVSPropertyOp19
 70
     1
102
RTVSPropertyOp20
 70
     1
102
RTVSPropertyOp21
 70
     1
102
RTVSPropertyOp22
 70
     1
102
RTVSPropertyOp23
 70
     1
102
RTVSPropertyOp24
 70
     1
102
RTVSPropertyOp25
 70
     1
102
RTVSPropertyOp26
 70
     1
102
RTVSPropertyOp27
 70
     1
102
RTVSPropertyOp28
 70
     1
102
RTVSPropertyOp29
 70
     1
102
RTVSPropertyOp30
 70
     1
102
RTVSPropertyOp31
 70
     1
102
RTVSPropertyOp32
 70
     1
102
RTVSPropertyOp33
 70
     1
102
RTVSPropertyOp34
 70
     1
102
RTVSPropertyOp35
 70
     1
102
RTVSPropertyOp36
 70
     1
102
RTVSPropertyOp37
 70
     1
102
RTVSPropertyOp38
 70
     1
102
RTVSPropertyOp39
 70
     1
102
RTVSPropertyOp40
 70
     1
102
RTVSPropertyOp41
 70
     1
102
RTVSPropertyOp42
 70
     1
102
RTVSPropertyOp43
 70
     1
102
RTVSPropertyOp44
 70
     1
102
RTVSPropertyOp45
 70
     1
102
RTVSPropertyOp46
 70
     1
102
RTVSPropertyOp47
 70
     1
102
RTVSPropertyOp48
 70
     1
102
RTVSPropertyOp49
 70
     1
102
RTVSPropertyOp50
 70
     1
102
RTVSPropertyOp51
 70
     0
102
RTVSPropertyOp52
 70
     0
102
RTVSPropertyOp53
 70
     1
102
RTVSPropertyOp54
 70
     1
102
RTVSPropertyOp55
 70
     1
102
RTVSPropertyOp56
 70
     1
102
RTVSPropertyOp57
 70
     1
102
RTVSPropertyOp58
 70
     1
102
RTVSPropertyOp59
 70
     1
102
RTVSPropertyOp60
 70
     1
102
RTVSPropertyOp61
 70
     1
102
RTVSPropertyOp62
 70
     1
  0
XRECORD
  5
9AEF
102
{ACAD_REACTORS
330
9AEE
102
}
330
9AEE
100
AcDbXrecord
280
     1
102
RTVSPost2010Prop28
280
     0
102
RTVSPost2010PropOp28
 70
     1
102
RTVSPost2010Prop29
280
     1
102
RTVSPost2010PropOp29
 70
     1
102
RTVSPost2010Prop30
280
     1
102
RTVSPost2010PropOp30
 70
     1
102
RTVSPost2010Prop31
280
     0
102
RTVSPost2010PropOp31
 70
     1
102
RTVSPost2010Prop32
280
     0
102
RTVSPost2010PropOp32
 70
     1
102
RTVSPost2010Prop33
280
     0
102
RTVSPost2010PropOp33
 70
     1
102
RTVSPost2010Prop34
280
     0
102
RTVSPost2010PropOp34
 70
     1
102
RTVSPost2010Prop35
280
     0
102
RTVSPost2010PropOp35
 70
     1
102
RTVSPost2010Prop36
280
     0
102
RTVSPost2010PropOp36
 70
     1
102
RTVSPost2010Prop37
 90
       50
102
RTVSPost2010PropOp37
 70
     1
102
RTVSPost2010Prop38
140
0.0
102
RTVSPost2010PropOp38
 70
     1
102
RTVSPost2010Prop39
140
1.0
102
RTVSPost2010PropOp39
 70
     1
102
RTVSPost2010Prop40
 90
        0
102
RTVSPost2010PropOp40
 70
     1
102
RTVSPost2010Prop41ColorIndex
 90
       18
102
RTVSPost2010Prop41ColorRGB
 90
        0
102
RTVSPost2010PropOp41
 70
     1
102
RTVSPost2010Prop42
 90
       50
102
RTVSPost2010PropOp42
 70
     1
102
RTVSPost2010Prop43
 90
        3
102
RTVSPost2010PropOp43
 70
     1
102
RTVSPost2010Prop44ColorIndex
 90
        5
102
RTVSPost2010Prop44ColorRGB
 90
      255
102
RTVSPost2010PropOp44
 70
     1
102
RTVSPost2010Prop45
280
     0
102
RTVSPost2010PropOp45
 70
     1
102
RTVSPost2010Prop46
 90
       50
102
RTVSPost2010PropOp46
 70
     1
102
RTVSPost2010Prop47
 90
       50
102
RTVSPost2010PropOp47
 70
     1
102
RTVSPost2010Prop48
 90
       50
102
RTVSPost2010PropOp48
 70
     1
102
RTVSPost2010Prop49
280
     0
102
RTVSPost2010PropOp49
 70
     1
102
RTVSPost2010Prop50
 90
       50
102
RTVSPost2010PropOp50
 70
     1
102
RTVSPost2010Prop51ColorIndex
 90
      256
102
RTVSPost2010Prop51ColorRGB
 90
-16777216
102
RTVSPost2010PropOp51
 70
     0
102
RTVSPost2010Prop52
140
1.0
102
RTVSPost2010PropOp52
 70
     0
102
RTVSPost2010Prop53
 90
        2
102
RTVSPost2010PropOp53
 70
     1
102
RTVSPost2010Prop54
  1
strokes_ogs.tif
102
RTVSPost2010PropOp54
 70
     1
102
RTVSPost2010Prop55
280
     0
102
RTVSPost2010PropOp55
 70
     1
102
RTVSPost2010Prop56
140
1.0
102
RTVSPost2010PropOp56
 70
     1
102
RTVSPost2010Prop57
140
1.0
102
RTVSPost2010PropOp57
 70
     1
102
RTVSPropertyOp0
 70
     1
102
RTVSPropertyOp1
 70
     1
102
RTVSPropertyOp2
 70
     1
102
RTVSPropertyOp3
 70
     1
102
RTVSPropertyOp4
 70
     1
102
RTVSPropertyOp5
 70
     1
102
RTVSPropertyOp6
 70
     1
102
RTVSPropertyOp7
 70
     1
102
RTVSPropertyOp8
 70
     1
102
RTVSPropertyOp9
 70
     1
102
RTVSPropertyOp10
 70
     1
102
RTVSPropertyOp11
 70
     1
102
RTVSPropertyOp12
 70
     1
102
RTVSPropertyOp13
 70
     1
102
RTVSPropertyOp14
 70
     1
102
RTVSPropertyOp15
 70
     1
102
RTVSPropertyOp16
 70
     1
102
RTVSPropertyOp17
 70
     1
102
RTVSPropertyOp18
 70
     1
102
RTVSPropertyOp19
 70
     1
102
RTVSPropertyOp20
 70
     1
102
RTVSPropertyOp21
 70
     1
102
RTVSPropertyOp22
 70
     1
102
RTVSPropertyOp23
 70
     1
102
RTVSPropertyOp24
 70
     1
102
RTVSPropertyOp25
 70
     1
102
RTVSPropertyOp26
 70
     1
102
RTVSPropertyOp27
 70
     1
102
RTVSPropertyOp28
 70
     1
102
RTVSPropertyOp29
 70
     1
102
RTVSPropertyOp30
 70
     1
102
RTVSPropertyOp31
 70
     1
102
RTVSPropertyOp32
 70
     1
102
RTVSPropertyOp33
 70
     1
102
RTVSPropertyOp34
 70
     1
102
RTVSPropertyOp35
 70
     1
102
RTVSPropertyOp36
 70
     1
102
RTVSPropertyOp37
 70
     1
102
RTVSPropertyOp38
 70
     1
102
RTVSPropertyOp39
 70
     1
102
RTVSPropertyOp40
 70
     1
102
RTVSPropertyOp41
 70
     1
102
RTVSPropertyOp42
 70
     1
102
RTVSPropertyOp43
 70
     1
102
RTVSPropertyOp44
 70
     1
102
RTVSPropertyOp45
 70
     1
102
RTVSPropertyOp46
 70
     1
102
RTVSPropertyOp47
 70
     1
102
RTVSPropertyOp48
 70
     1
102
RTVSPropertyOp49
 70
     1
102
RTVSPropertyOp50
 70
     1
102
RTVSPropertyOp51
 70
     0
102
RTVSPropertyOp52
 70
     0
102
RTVSPropertyOp53
 70
     1
102
RTVSPropertyOp54
 70
     1
102
RTVSPropertyOp55
 70
     1
102
RTVSPropertyOp56
 70
     1
102
RTVSPropertyOp57
 70
     1
102
RTVSPropertyOp58
 70
     1
102
RTVSPropertyOp59
 70
     1
102
RTVSPropertyOp60
 70
     1
102
RTVSPropertyOp61
 70
     1
102
RTVSPropertyOp62
 70
     1
  0
XRECORD
  5
9AF1
102
{ACAD_REACTORS
330
9AF0
102
}
330
9AF0
100
AcDbXrecord
280
     1
102
RTVSPost2010Prop28
280
     0
102
RTVSPost2010PropOp28
 70
     1
102
RTVSPost2010Prop29
280
     1
102
RTVSPost2010PropOp29
 70
     1
102
RTVSPost2010Prop30
280
     1
102
RTVSPost2010PropOp30
 70
     1
102
RTVSPost2010Prop31
280
     0
102
RTVSPost2010PropOp31
 70
     1
102
RTVSPost2010Prop32
280
     0
102
RTVSPost2010PropOp32
 70
     1
102
RTVSPost2010Prop33
280
     0
102
RTVSPost2010PropOp33
 70
     1
102
RTVSPost2010Prop34
280
     0
102
RTVSPost2010PropOp34
 70
     1
102
RTVSPost2010Prop35
280
     0
102
RTVSPost2010PropOp35
 70
     1
102
RTVSPost2010Prop36
280
     0
102
RTVSPost2010PropOp36
 70
     1
102
RTVSPost2010Prop37
 90
       50
102
RTVSPost2010PropOp37
 70
     1
102
RTVSPost2010Prop38
140
0.0
102
RTVSPost2010PropOp38
 70
     1
102
RTVSPost2010Prop39
140
1.0
102
RTVSPost2010PropOp39
 70
     1
102
RTVSPost2010Prop40
 90
        0
102
RTVSPost2010PropOp40
 70
     1
102
RTVSPost2010Prop41ColorIndex
 90
       18
102
RTVSPost2010Prop41ColorRGB
 90
        0
102
RTVSPost2010PropOp41
 70
     1
102
RTVSPost2010Prop42
 90
       50
102
RTVSPost2010PropOp42
 70
     1
102
RTVSPost2010Prop43
 90
        3
102
RTVSPost2010PropOp43
 70
     1
102
RTVSPost2010Prop44ColorIndex
 90
        5
102
RTVSPost2010Prop44ColorRGB
 90
      255
102
RTVSPost2010PropOp44
 70
     1
102
RTVSPost2010Prop45
280
     0
102
RTVSPost2010PropOp45
 70
     1
102
RTVSPost2010Prop46
 90
       50
102
RTVSPost2010PropOp46
 70
     1
102
RTVSPost2010Prop47
 90
       50
102
RTVSPost2010PropOp47
 70
     1
102
RTVSPost2010Prop48
 90
       50
102
RTVSPost2010PropOp48
 70
     1
102
RTVSPost2010Prop49
280
     0
102
RTVSPost2010PropOp49
 70
     1
102
RTVSPost2010Prop50
 90
       50
102
RTVSPost2010PropOp50
 70
     1
102
RTVSPost2010Prop51ColorIndex
 90
      256
102
RTVSPost2010Prop51ColorRGB
 90
-16777216
102
RTVSPost2010PropOp51
 70
     0
102
RTVSPost2010Prop52
140
1.0
102
RTVSPost2010PropOp52
 70
     0
102
RTVSPost2010Prop53
 90
        2
102
RTVSPost2010PropOp53
 70
     1
102
RTVSPost2010Prop54
  1
strokes_ogs.tif
102
RTVSPost2010PropOp54
 70
     1
102
RTVSPost2010Prop55
280
     0
102
RTVSPost2010PropOp55
 70
     1
102
RTVSPost2010Prop56
140
1.0
102
RTVSPost2010PropOp56
 70
     1
102
RTVSPost2010Prop57
140
1.0
102
RTVSPost2010PropOp57
 70
     1
102
RTVSPropertyOp0
 70
     1
102
RTVSPropertyOp1
 70
     1
102
RTVSPropertyOp2
 70
     1
102
RTVSPropertyOp3
 70
     1
102
RTVSPropertyOp4
 70
     1
102
RTVSPropertyOp5
 70
     1
102
RTVSPropertyOp6
 70
     1
102
RTVSPropertyOp7
 70
     1
102
RTVSPropertyOp8
 70
     1
102
RTVSPropertyOp9
 70
     1
102
RTVSPropertyOp10
 70
     1
102
RTVSPropertyOp11
 70
     1
102
RTVSPropertyOp12
 70
     1
102
RTVSPropertyOp13
 70
     1
102
RTVSPropertyOp14
 70
     1
102
RTVSPropertyOp15
 70
     1
102
RTVSPropertyOp16
 70
     1
102
RTVSPropertyOp17
 70
     1
102
RTVSPropertyOp18
 70
     1
102
RTVSPropertyOp19
 70
     1
102
RTVSPropertyOp20
 70
     1
102
RTVSPropertyOp21
 70
     1
102
RTVSPropertyOp22
 70
     1
102
RTVSPropertyOp23
 70
     1
102
RTVSPropertyOp24
 70
     1
102
RTVSPropertyOp25
 70
     1
102
RTVSPropertyOp26
 70
     1
102
RTVSPropertyOp27
 70
     1
102
RTVSPropertyOp28
 70
     1
102
RTVSPropertyOp29
 70
     1
102
RTVSPropertyOp30
 70
     1
102
RTVSPropertyOp31
 70
     1
102
RTVSPropertyOp32
 70
     1
102
RTVSPropertyOp33
 70
     1
102
RTVSPropertyOp34
 70
     1
102
RTVSPropertyOp35
 70
     1
102
RTVSPropertyOp36
 70
     1
102
RTVSPropertyOp37
 70
     1
102
RTVSPropertyOp38
 70
     1
102
RTVSPropertyOp39
 70
     1
102
RTVSPropertyOp40
 70
     1
102
RTVSPropertyOp41
 70
     1
102
RTVSPropertyOp42
 70
     1
102
RTVSPropertyOp43
 70
     1
102
RTVSPropertyOp44
 70
     1
102
RTVSPropertyOp45
 70
     1
102
RTVSPropertyOp46
 70
     1
102
RTVSPropertyOp47
 70
     1
102
RTVSPropertyOp48
 70
     1
102
RTVSPropertyOp49
 70
     1
102
RTVSPropertyOp50
 70
     1
102
RTVSPropertyOp51
 70
     0
102
RTVSPropertyOp52
 70
     0
102
RTVSPropertyOp53
 70
     1
102
RTVSPropertyOp54
 70
     1
102
RTVSPropertyOp55
 70
     1
102
RTVSPropertyOp56
 70
     1
102
RTVSPropertyOp57
 70
     1
102
RTVSPropertyOp58
 70
     1
102
RTVSPropertyOp59
 70
     1
102
RTVSPropertyOp60
 70
     1
102
RTVSPropertyOp61
 70
     1
102
RTVSPropertyOp62
 70
     1
  0
XRECORD
  5
9AE7
102
{ACAD_REACTORS
330
9AE6
102
}
330
9AE6
100
AcDbXrecord
280
     1
102
RTVSPost2010Prop28
280
     0
102
RTVSPost2010PropOp28
 70
     1
102
RTVSPost2010Prop29
280
     1
102
RTVSPost2010PropOp29
 70
     1
102
RTVSPost2010Prop30
280
     1
102
RTVSPost2010PropOp30
 70
     1
102
RTVSPost2010Prop31
280
     0
102
RTVSPost2010PropOp31
 70
     1
102
RTVSPost2010Prop32
280
     0
102
RTVSPost2010PropOp32
 70
     1
102
RTVSPost2010Prop33
280
     0
102
RTVSPost2010PropOp33
 70
     1
102
RTVSPost2010Prop34
280
     0
102
RTVSPost2010PropOp34
 70
     1
102
RTVSPost2010Prop35
280
     0
102
RTVSPost2010PropOp35
 70
     1
102
RTVSPost2010Prop36
280
     0
102
RTVSPost2010PropOp36
 70
     1
102
RTVSPost2010Prop37
 90
       50
102
RTVSPost2010PropOp37
 70
     1
102
RTVSPost2010Prop38
140
0.0
102
RTVSPost2010PropOp38
 70
     1
102
RTVSPost2010Prop39
140
1.0
102
RTVSPost2010PropOp39
 70
     1
102
RTVSPost2010Prop40
 90
        0
102
RTVSPost2010PropOp40
 70
     1
102
RTVSPost2010Prop41ColorIndex
 90
       18
102
RTVSPost2010Prop41ColorRGB
 90
        0
102
RTVSPost2010PropOp41
 70
     1
102
RTVSPost2010Prop42
 90
       50
102
RTVSPost2010PropOp42
 70
     1
102
RTVSPost2010Prop43
 90
        3
102
RTVSPost2010PropOp43
 70
     1
102
RTVSPost2010Prop44ColorIndex
 90
        5
102
RTVSPost2010Prop44ColorRGB
 90
      255
102
RTVSPost2010PropOp44
 70
     1
102
RTVSPost2010Prop45
280
     0
102
RTVSPost2010PropOp45
 70
     1
102
RTVSPost2010Prop46
 90
       50
102
RTVSPost2010PropOp46
 70
     1
102
RTVSPost2010Prop47
 90
       50
102
RTVSPost2010PropOp47
 70
     1
102
RTVSPost2010Prop48
 90
       50
102
RTVSPost2010PropOp48
 70
     1
102
RTVSPost2010Prop49
280
     0
102
RTVSPost2010PropOp49
 70
     1
102
RTVSPost2010Prop50
 90
       50
102
RTVSPost2010PropOp50
 70
     1
102
RTVSPost2010Prop51ColorIndex
 90
      256
102
RTVSPost2010Prop51ColorRGB
 90
-16777216
102
RTVSPost2010PropOp51
 70
     0
102
RTVSPost2010Prop52
140
1.0
102
RTVSPost2010PropOp52
 70
     0
102
RTVSPost2010Prop53
 90
        2
102
RTVSPost2010PropOp53
 70
     1
102
RTVSPost2010Prop54
  1
strokes_ogs.tif
102
RTVSPost2010PropOp54
 70
     1
102
RTVSPost2010Prop55
280
     0
102
RTVSPost2010PropOp55
 70
     1
102
RTVSPost2010Prop56
140
1.0
102
RTVSPost2010PropOp56
 70
     1
102
RTVSPost2010Prop57
140
1.0
102
RTVSPost2010PropOp57
 70
     1
102
RTVSPropertyOp0
 70
     1
102
RTVSPropertyOp1
 70
     1
102
RTVSPropertyOp2
 70
     1
102
RTVSPropertyOp3
 70
     1
102
RTVSPropertyOp4
 70
     1
102
RTVSPropertyOp5
 70
     1
102
RTVSPropertyOp6
 70
     1
102
RTVSPropertyOp7
 70
     1
102
RTVSPropertyOp8
 70
     1
102
RTVSPropertyOp9
 70
     1
102
RTVSPropertyOp10
 70
     1
102
RTVSPropertyOp11
 70
     1
102
RTVSPropertyOp12
 70
     1
102
RTVSPropertyOp13
 70
     1
102
RTVSPropertyOp14
 70
     1
102
RTVSPropertyOp15
 70
     1
102
RTVSPropertyOp16
 70
     1
102
RTVSPropertyOp17
 70
     1
102
RTVSPropertyOp18
 70
     1
102
RTVSPropertyOp19
 70
     1
102
RTVSPropertyOp20
 70
     1
102
RTVSPropertyOp21
 70
     1
102
RTVSPropertyOp22
 70
     1
102
RTVSPropertyOp23
 70
     1
102
RTVSPropertyOp24
 70
     1
102
RTVSPropertyOp25
 70
     1
102
RTVSPropertyOp26
 70
     1
102
RTVSPropertyOp27
 70
     1
102
RTVSPropertyOp28
 70
     1
102
RTVSPropertyOp29
 70
     1
102
RTVSPropertyOp30
 70
     1
102
RTVSPropertyOp31
 70
     1
102
RTVSPropertyOp32
 70
     1
102
RTVSPropertyOp33
 70
     1
102
RTVSPropertyOp34
 70
     1
102
RTVSPropertyOp35
 70
     1
102
RTVSPropertyOp36
 70
     1
102
RTVSPropertyOp37
 70
     1
102
RTVSPropertyOp38
 70
     1
102
RTVSPropertyOp39
 70
     1
102
RTVSPropertyOp40
 70
     1
102
RTVSPropertyOp41
 70
     1
102
RTVSPropertyOp42
 70
     1
102
RTVSPropertyOp43
 70
     1
102
RTVSPropertyOp44
 70
     1
102
RTVSPropertyOp45
 70
     1
102
RTVSPropertyOp46
 70
     1
102
RTVSPropertyOp47
 70
     1
102
RTVSPropertyOp48
 70
     1
102
RTVSPropertyOp49
 70
     1
102
RTVSPropertyOp50
 70
     1
102
RTVSPropertyOp51
 70
     0
102
RTVSPropertyOp52
 70
     0
102
RTVSPropertyOp53
 70
     1
102
RTVSPropertyOp54
 70
     1
102
RTVSPropertyOp55
 70
     1
102
RTVSPropertyOp56
 70
     1
102
RTVSPropertyOp57
 70
     1
102
RTVSPropertyOp58
 70
     1
102
RTVSPropertyOp59
 70
     1
102
RTVSPropertyOp60
 70
     1
102
RTVSPropertyOp61
 70
     1
102
RTVSPropertyOp62
 70
     1
  0
XRECORD
  5
9ADB
102
{ACAD_REACTORS
330
9ADA
102
}
330
9ADA
100
AcDbXrecord
280
     1
102
RTVSPost2010Prop28
280
     0
102
RTVSPost2010PropOp28
 70
     1
102
RTVSPost2010Prop29
280
     1
102
RTVSPost2010PropOp29
 70
     1
102
RTVSPost2010Prop30
280
     1
102
RTVSPost2010PropOp30
 70
     1
102
RTVSPost2010Prop31
280
     0
102
RTVSPost2010PropOp31
 70
     1
102
RTVSPost2010Prop32
280
     0
102
RTVSPost2010PropOp32
 70
     1
102
RTVSPost2010Prop33
280
     0
102
RTVSPost2010PropOp33
 70
     1
102
RTVSPost2010Prop34
280
     0
102
RTVSPost2010PropOp34
 70
     1
102
RTVSPost2010Prop35
280
     0
102
RTVSPost2010PropOp35
 70
     1
102
RTVSPost2010Prop36
280
     0
102
RTVSPost2010PropOp36
 70
     1
102
RTVSPost2010Prop37
 90
       50
102
RTVSPost2010PropOp37
 70
     1
102
RTVSPost2010Prop38
140
0.0
102
RTVSPost2010PropOp38
 70
     1
102
RTVSPost2010Prop39
140
1.0
102
RTVSPost2010PropOp39
 70
     1
102
RTVSPost2010Prop40
 90
        0
102
RTVSPost2010PropOp40
 70
     1
102
RTVSPost2010Prop41ColorIndex
 90
       18
102
RTVSPost2010Prop41ColorRGB
 90
        0
102
RTVSPost2010PropOp41
 70
     1
102
RTVSPost2010Prop42
 90
       50
102
RTVSPost2010PropOp42
 70
     1
102
RTVSPost2010Prop43
 90
        3
102
RTVSPost2010PropOp43
 70
     1
102
RTVSPost2010Prop44ColorIndex
 90
        5
102
RTVSPost2010Prop44ColorRGB
 90
      255
102
RTVSPost2010PropOp44
 70
     1
102
RTVSPost2010Prop45
280
     0
102
RTVSPost2010PropOp45
 70
     1
102
RTVSPost2010Prop46
 90
       50
102
RTVSPost2010PropOp46
 70
     1
102
RTVSPost2010Prop47
 90
       50
102
RTVSPost2010PropOp47
 70
     1
102
RTVSPost2010Prop48
 90
       50
102
RTVSPost2010PropOp48
 70
     1
102
RTVSPost2010Prop49
280
     0
102
RTVSPost2010PropOp49
 70
     1
102
RTVSPost2010Prop50
 90
       50
102
RTVSPost2010PropOp50
 70
     1
102
RTVSPost2010Prop51ColorIndex
 90
      256
102
RTVSPost2010Prop51ColorRGB
 90
-16777216
102
RTVSPost2010PropOp51
 70
     0
102
RTVSPost2010Prop52
140
1.0
102
RTVSPost2010PropOp52
 70
     0
102
RTVSPost2010Prop53
 90
        2
102
RTVSPost2010PropOp53
 70
     1
102
RTVSPost2010Prop54
  1
strokes_ogs.tif
102
RTVSPost2010PropOp54
 70
     1
102
RTVSPost2010Prop55
280
     0
102
RTVSPost2010PropOp55
 70
     1
102
RTVSPost2010Prop56
140
1.0
102
RTVSPost2010PropOp56
 70
     1
102
RTVSPost2010Prop57
140
1.0
102
RTVSPost2010PropOp57
 70
     1
102
RTVSPropertyOp0
 70
     1
102
RTVSPropertyOp1
 70
     1
102
RTVSPropertyOp2
 70
     1
102
RTVSPropertyOp3
 70
     1
102
RTVSPropertyOp4
 70
     1
102
RTVSPropertyOp5
 70
     1
102
RTVSPropertyOp6
 70
     1
102
RTVSPropertyOp7
 70
     1
102
RTVSPropertyOp8
 70
     1
102
RTVSPropertyOp9
 70
     1
102
RTVSPropertyOp10
 70
     1
102
RTVSPropertyOp11
 70
     1
102
RTVSPropertyOp12
 70
     1
102
RTVSPropertyOp13
 70
     1
102
RTVSPropertyOp14
 70
     1
102
RTVSPropertyOp15
 70
     1
102
RTVSPropertyOp16
 70
     1
102
RTVSPropertyOp17
 70
     1
102
RTVSPropertyOp18
 70
     1
102
RTVSPropertyOp19
 70
     1
102
RTVSPropertyOp20
 70
     1
102
RTVSPropertyOp21
 70
     1
102
RTVSPropertyOp22
 70
     1
102
RTVSPropertyOp23
 70
     1
102
RTVSPropertyOp24
 70
     1
102
RTVSPropertyOp25
 70
     1
102
RTVSPropertyOp26
 70
     1
102
RTVSPropertyOp27
 70
     1
102
RTVSPropertyOp28
 70
     1
102
RTVSPropertyOp29
 70
     1
102
RTVSPropertyOp30
 70
     1
102
RTVSPropertyOp31
 70
     1
102
RTVSPropertyOp32
 70
     1
102
RTVSPropertyOp33
 70
     1
102
RTVSPropertyOp34
 70
     1
102
RTVSPropertyOp35
 70
     1
102
RTVSPropertyOp36
 70
     1
102
RTVSPropertyOp37
 70
     1
102
RTVSPropertyOp38
 70
     1
102
RTVSPropertyOp39
 70
     1
102
RTVSPropertyOp40
 70
     1
102
RTVSPropertyOp41
 70
     1
102
RTVSPropertyOp42
 70
     1
102
RTVSPropertyOp43
 70
     1
102
RTVSPropertyOp44
 70
     1
102
RTVSPropertyOp45
 70
     1
102
RTVSPropertyOp46
 70
     1
102
RTVSPropertyOp47
 70
     1
102
RTVSPropertyOp48
 70
     1
102
RTVSPropertyOp49
 70
     1
102
RTVSPropertyOp50
 70
     1
102
RTVSPropertyOp51
 70
     0
102
RTVSPropertyOp52
 70
     0
102
RTVSPropertyOp53
 70
     1
102
RTVSPropertyOp54
 70
     1
102
RTVSPropertyOp55
 70
     1
102
RTVSPropertyOp56
 70
     1
102
RTVSPropertyOp57
 70
     1
102
RTVSPropertyOp58
 70
     1
102
RTVSPropertyOp59
 70
     1
102
RTVSPropertyOp60
 70
     1
102
RTVSPropertyOp61
 70
     1
102
RTVSPropertyOp62
 70
     1
  0
XRECORD
  5
9AF3
102
{ACAD_REACTORS
330
9AF2
102
}
330
9AF2
100
AcDbXrecord
280
     1
102
RTVSPost2010Prop28
280
     0
102
RTVSPost2010PropOp28
 70
     1
102
RTVSPost2010Prop29
280
     1
102
RTVSPost2010PropOp29
 70
     1
102
RTVSPost2010Prop30
280
     1
102
RTVSPost2010PropOp30
 70
     1
102
RTVSPost2010Prop31
280
     0
102
RTVSPost2010PropOp31
 70
     1
102
RTVSPost2010Prop32
280
     0
102
RTVSPost2010PropOp32
 70
     1
102
RTVSPost2010Prop33
280
     0
102
RTVSPost2010PropOp33
 70
     1
102
RTVSPost2010Prop34
280
     0
102
RTVSPost2010PropOp34
 70
     1
102
RTVSPost2010Prop35
280
     0
102
RTVSPost2010PropOp35
 70
     1
102
RTVSPost2010Prop36
280
     0
102
RTVSPost2010PropOp36
 70
     1
102
RTVSPost2010Prop37
 90
       50
102
RTVSPost2010PropOp37
 70
     1
102
RTVSPost2010Prop38
140
0.0
102
RTVSPost2010PropOp38
 70
     1
102
RTVSPost2010Prop39
140
1.0
102
RTVSPost2010PropOp39
 70
     1
102
RTVSPost2010Prop40
 90
        0
102
RTVSPost2010PropOp40
 70
     1
102
RTVSPost2010Prop41ColorIndex
 90
       18
102
RTVSPost2010Prop41ColorRGB
 90
        0
102
RTVSPost2010PropOp41
 70
     1
102
RTVSPost2010Prop42
 90
       50
102
RTVSPost2010PropOp42
 70
     1
102
RTVSPost2010Prop43
 90
        3
102
RTVSPost2010PropOp43
 70
     1
102
RTVSPost2010Prop44ColorIndex
 90
        5
102
RTVSPost2010Prop44ColorRGB
 90
      255
102
RTVSPost2010PropOp44
 70
     1
102
RTVSPost2010Prop45
280
     0
102
RTVSPost2010PropOp45
 70
     1
102
RTVSPost2010Prop46
 90
       50
102
RTVSPost2010PropOp46
 70
     1
102
RTVSPost2010Prop47
 90
       50
102
RTVSPost2010PropOp47
 70
     1
102
RTVSPost2010Prop48
 90
       50
102
RTVSPost2010PropOp48
 70
     1
102
RTVSPost2010Prop49
280
     0
102
RTVSPost2010PropOp49
 70
     1
102
RTVSPost2010Prop50
 90
       50
102
RTVSPost2010PropOp50
 70
     1
102
RTVSPost2010Prop51ColorIndex
 90
      256
102
RTVSPost2010Prop51ColorRGB
 90
-16777216
102
RTVSPost2010PropOp51
 70
     0
102
RTVSPost2010Prop52
140
1.0
102
RTVSPost2010PropOp52
 70
     0
102
RTVSPost2010Prop53
 90
        2
102
RTVSPost2010PropOp53
 70
     1
102
RTVSPost2010Prop54
  1
strokes_ogs.tif
102
RTVSPost2010PropOp54
 70
     1
102
RTVSPost2010Prop55
280
     0
102
RTVSPost2010PropOp55
 70
     1
102
RTVSPost2010Prop56
140
1.0
102
RTVSPost2010PropOp56
 70
     1
102
RTVSPost2010Prop57
140
1.0
102
RTVSPost2010PropOp57
 70
     1
102
RTVSPropertyOp0
 70
     1
102
RTVSPropertyOp1
 70
     1
102
RTVSPropertyOp2
 70
     1
102
RTVSPropertyOp3
 70
     1
102
RTVSPropertyOp4
 70
     1
102
RTVSPropertyOp5
 70
     1
102
RTVSPropertyOp6
 70
     1
102
RTVSPropertyOp7
 70
     1
102
RTVSPropertyOp8
 70
     1
102
RTVSPropertyOp9
 70
     1
102
RTVSPropertyOp10
 70
     1
102
RTVSPropertyOp11
 70
     1
102
RTVSPropertyOp12
 70
     1
102
RTVSPropertyOp13
 70
     1
102
RTVSPropertyOp14
 70
     1
102
RTVSPropertyOp15
 70
     1
102
RTVSPropertyOp16
 70
     1
102
RTVSPropertyOp17
 70
     1
102
RTVSPropertyOp18
 70
     1
102
RTVSPropertyOp19
 70
     1
102
RTVSPropertyOp20
 70
     1
102
RTVSPropertyOp21
 70
     1
102
RTVSPropertyOp22
 70
     1
102
RTVSPropertyOp23
 70
     1
102
RTVSPropertyOp24
 70
     1
102
RTVSPropertyOp25
 70
     1
102
RTVSPropertyOp26
 70
     1
102
RTVSPropertyOp27
 70
     1
102
RTVSPropertyOp28
 70
     1
102
RTVSPropertyOp29
 70
     1
102
RTVSPropertyOp30
 70
     1
102
RTVSPropertyOp31
 70
     1
102
RTVSPropertyOp32
 70
     1
102
RTVSPropertyOp33
 70
     1
102
RTVSPropertyOp34
 70
     1
102
RTVSPropertyOp35
 70
     1
102
RTVSPropertyOp36
 70
     1
102
RTVSPropertyOp37
 70
     1
102
RTVSPropertyOp38
 70
     1
102
RTVSPropertyOp39
 70
     1
102
RTVSPropertyOp40
 70
     1
102
RTVSPropertyOp41
 70
     1
102
RTVSPropertyOp42
 70
     1
102
RTVSPropertyOp43
 70
     1
102
RTVSPropertyOp44
 70
     1
102
RTVSPropertyOp45
 70
     1
102
RTVSPropertyOp46
 70
     1
102
RTVSPropertyOp47
 70
     1
102
RTVSPropertyOp48
 70
     1
102
RTVSPropertyOp49
 70
     1
102
RTVSPropertyOp50
 70
     1
102
RTVSPropertyOp51
 70
     0
102
RTVSPropertyOp52
 70
     0
102
RTVSPropertyOp53
 70
     1
102
RTVSPropertyOp54
 70
     1
102
RTVSPropertyOp55
 70
     1
102
RTVSPropertyOp56
 70
     1
102
RTVSPropertyOp57
 70
     1
102
RTVSPropertyOp58
 70
     1
102
RTVSPropertyOp59
 70
     1
102
RTVSPropertyOp60
 70
     1
102
RTVSPropertyOp61
 70
     1
102
RTVSPropertyOp62
 70
     1
  0
ENDSEC
  0
EOF
