  0
SECTION
  2
HEADER
  9
$ACADVER
  1
AC1015
  9
$DWGCODEPAGE
  3
ANSI_932
  9
$LTSCALE
 40
20.0
  9
$FILLMODE
 70
     1
  9
$CLAYER
  8
0
  9
$PDMODE
 70
     0
  9
$SPLFRAME
 70
     0
  9
$SPLINETYPE
 70
     6
  9
$SPLINESEGS
 70
     8
  9
$DIMASZ
 40
2.000000
  9
$DIMEXE
 40
1.500000
  9
$DIMEXO
 40
0.800000
  9
$DIMTAD
 70
     1
  9
$DIMTIH
 70
     0
  9
$DIMTOH
 70
     0
  9
$DIMTVP
 40
0.500000
  9
$DIMTXT
 40
3.100000
  9
$EXTMIN
 10
0.000000
 20
0.000000
 30
0.000000
  9
$EXTMAX
 10
297.000000
 20
420.000000
 30
0.000000
  9
$MEASUREMENT
 70
  1
  9
$LIMMIN
 10
0.000000
 20
0.000000
  9
$LIMMAX
 10
297.000000
 20
420.000000
  9
$HANDSEED
  5
2F0
  9
$LWDISPLAY
290
     0
  9
$DIMBLK
  1
_OPEN
  9
$DIMDEC
 70
     2
  9
$DIMADEC
 70
     2
  9
$DIMAUNIT
 70
     0
  9
$DIMZIN
 70
     8
  9
$DIMAZIN
 70
     2
  9
$DIMTOFL
 70
     1
  0
ENDSEC
  0
SECTION
  2
CLASSES
  0
ENDSEC
  0
SECTION
  2
TABLES
  0
TABLE
  2
VPORT
  5
2BA
100
AcDbSymbolTable
 70
     1
  0
VPORT
  5
2BB
100
AcDbSymbolTableRecord
100
AcDbViewportTableRecord
  2
*ACTIVE
 70
     0
 12
201.653110
 22
135.538544
 40
235.077087
 41
1.630555
  0
ENDTAB
  0
TABLE
  2
LTYPE
  5
2BC
100
AcDbSymbolTable
 70
     2
  0
LTYPE
  5
2BD
100
AcDbSymbolTableRecord
100
AcDbLinetypeTableRecord
  2
BYBLOCK
 70
     0
  3

 72
    65
 73
     0
 40
0.0
  0
LTYPE
  5
2BE
100
AcDbSymbolTableRecord
100
AcDbLinetypeTableRecord
  2
BYLAYER
 70
     0
  3

 72
    65
 73
     0
 40
0.0
  0
LTYPE
  5
2BF
100
AcDbSymbolTableRecord
100
AcDbLinetypeTableRecord
  2
CONTINUOUS
 70
     0
  3
Solid line (NEC CAE2D for Win R18.0 : 2023.11.28)
 72
    65
 73
     0
 40
0.0
  0
LTYPE
  5
2C0
100
AcDbSymbolTableRecord
100
AcDbLinetypeTableRecord
  2
CENTER
 70
     0
  3
____ _ ____ _ ____ _ ____ _ ____ _ ____
 72
    65
 73
     4
 40
2.0
 49
1.25
 74
     0
 49
-0.25
 74
     0
 49
0.25
 74
     0
 49
-0.25
 74
     0
  0
ENDTAB
  0
TABLE
  2
LAYER
  5
2C1
100
AcDbSymbolTable
 70
    16
  0
LAYER
  5
2C2
100
AcDbSymbolTableRecord
100
AcDbLayerTableRecord
  2
0
 70
     0
 62
     7
  6
CONTINUOUS
370
    -3
390

  0
LAYER
  5
2C3
100
AcDbSymbolTableRecord
100
AcDbLayerTableRecord
  2
A0
 70
     0
 62
     9
  6
CONTINUOUS
370
    -3
390

  0
LAYER
  5
2C4
100
AcDbSymbolTableRecord
100
AcDbLayerTableRecord
  2
A1
 70
     0
 62
    12
  6
CONTINUOUS
370
    -3
390

  0
LAYER
  5
2C5
100
AcDbSymbolTableRecord
100
AcDbLayerTableRecord
  2
A2
 70
     0
 62
     9
  6
CONTINUOUS
370
    -3
390

  0
LAYER
  5
2C6
100
AcDbSymbolTableRecord
100
AcDbLayerTableRecord
  2
A4
 70
     0
 62
     9
  6
CONTINUOUS
370
    -3
390

  0
LAYER
  5
2C7
100
AcDbSymbolTableRecord
100
AcDbLayerTableRecord
  2
A5
 70
     0
 62
     8
  6
CONTINUOUS
370
    -3
390

  0
LAYER
  5
2C8
100
AcDbSymbolTableRecord
100
AcDbLayerTableRecord
  2
A6
 70
     0
 62
    12
  6
CONTINUOUS
370
    -3
390

  0
LAYER
  5
2C9
100
AcDbSymbolTableRecord
100
AcDbLayerTableRecord
  2
A7
 70
     0
 62
    12
  6
CONTINUOUS
370
    -3
390

  0
LAYER
  5
2CA
100
AcDbSymbolTableRecord
100
AcDbLayerTableRecord
  2
A8
 70
     0
 62
    10
  6
CONTINUOUS
370
    -3
390

  0
LAYER
  5
2CB
100
AcDbSymbolTableRecord
100
AcDbLayerTableRecord
  2
A9
 70
     0
 62
     9
  6
CONTINUOUS
370
    -3
390

  0
LAYER
  5
2CC
100
AcDbSymbolTableRecord
100
AcDbLayerTableRecord
  2
A10
 70
     0
 62
     6
  6
CONTINUOUS
370
    -3
390

  0
LAYER
  5
2CD
100
AcDbSymbolTableRecord
100
AcDbLayerTableRecord
  2
A20
 70
     0
 62
     1
  6
CONTINUOUS
370
    -3
390

  0
LAYER
  5
2CE
100
AcDbSymbolTableRecord
100
AcDbLayerTableRecord
  2
A30
 70
     0
 62
     1
  6
CONTINUOUS
370
    -3
390

  0
LAYER
  5
2CF
100
AcDbSymbolTableRecord
100
AcDbLayerTableRecord
  2
A40
 70
     0
 62
     9
  6
CONTINUOUS
370
    -3
390

  0
LAYER
  5
2D0
100
AcDbSymbolTableRecord
100
AcDbLayerTableRecord
  2
A50
 70
     0
 62
    12
  6
CONTINUOUS
370
    -3
390

  0
LAYER
  5
2D1
100
AcDbSymbolTableRecord
100
AcDbLayerTableRecord
  2
A1023
 70
     0
 62
    16
  6
CONTINUOUS
370
    -3
390

  0
ENDTAB
  0
TABLE
  2
STYLE
  5
2D2
100
AcDbSymbolTable
 70
     4
  0
STYLE
  5
2D3
100
AcDbSymbolTableRecord
100
AcDbTextStyleTableRecord
  2
STANDARD
 70
    64
 40
0.0
 41
1.0
 50
0.0
 71
     0
 42
3.000000000000000
  3
TXT
  4

  0
STYLE
  5
2D4
100
AcDbSymbolTableRecord
100
AcDbTextStyleTableRecord
  2
ANKTATE
 70
    68
 40
0.0
 41
1.0
 50
0.0
 71
     0
 42
3.000000000000000
  3
TXT
  4

  0
STYLE
  5
2D5
100
AcDbSymbolTableRecord
100
AcDbTextStyleTableRecord
  2
KNJYOKO
 70
    64
 40
0.0
 41
1.0
 50
0.0
 71
     0
 42
3.000000000000000
  3
TXT
  4
BIGFONT
  0
STYLE
  5
2D6
100
AcDbSymbolTableRecord
100
AcDbTextStyleTableRecord
  2
KNJTATE
 70
    68
 40
0.0
 41
1.0
 50
0.0
 71
     0
 42
3.000000000000000
  3
TXT
  4
BIGFONT
  0
ENDTAB
  0
TABLE
  2
VIEW
  5
2D7
100
AcDbSymbolTable
 70
     0
  0
ENDTAB
  0
TABLE
  2
UCS
  5
2D8
100
AcDbSymbolTable
 70
     0
  0
ENDTAB
  0
TABLE
  2
APPID
  5
2D9
100
AcDbSymbolTable
 70
     1
  0
APPID
  5
2DA
100
AcDbSymbolTableRecord
100
AcDbRegAppTableRecord
  2
ACAD
 70
     0
  0
ENDTAB
  0
TABLE
  2
DIMSTYLE
  5
2DB
100
AcDbSymbolTable
 70
     2
100
AcDbDimStyleTable
  0
DIMSTYLE
105
2DC
100
AcDbSymbolTableRecord
100
AcDbDimStyleTableRecord
  2
STANDARD
 70
     0
 41
2.000000
 44
1.500000
 42
0.800000
145
0.661290
140
3.100000
144
1.000000
146
0.645161
340
2D3
  0
DIMSTYLE
105
2DD
100
AcDbSymbolTableRecord
100
AcDbDimStyleTableRecord
  2
A001
 70
     0
 41
2.000000
 44
1.500000
 42
0.800000
145
0.661290
140
3.100000
144
1.000000
146
0.645161
 77
     1
 73
     0
 74
     0
271
     2
179
     2
275
     0
 78
     8
 79
     2
172
     1
340
2D3
  0
ENDTAB
  0
TABLE
  2
BLOCK_RECORD
  5
2DE
100
AcDbSymbolTable
 70
    12
  0
BLOCK_RECORD
  5
2DF
100
AcDbSymbolTableRecord
100
AcDbBlockTableRecord
  2
*MODEL_SPACE
  0
BLOCK_RECORD
  5
2E0
100
AcDbSymbolTableRecord
100
AcDbBlockTableRecord
  2
*PAPER_SPACE
  0
BLOCK_RECORD
  5
2E1
100
AcDbSymbolTableRecord
100
AcDbBlockTableRecord
  2
*PAPER_SPACE0
  0
BLOCK_RECORD
  5
1
100
AcDbSymbolTableRecord
100
AcDbBlockTableRecord
  2
_NONE
  0
BLOCK_RECORD
  5
4
100
AcDbSymbolTableRecord
100
AcDbBlockTableRecord
  2
_CLOSED
  0
BLOCK_RECORD
  5
B
100
AcDbSymbolTableRecord
100
AcDbBlockTableRecord
  2
_DOT
  0
BLOCK_RECORD
  5
13
100
AcDbSymbolTableRecord
100
AcDbBlockTableRecord
  2
_OPEN
  0
BLOCK_RECORD
  5
19
100
AcDbSymbolTableRecord
100
AcDbBlockTableRecord
  2
_ORIGIN
  0
BLOCK_RECORD
  5
1E
100
AcDbSymbolTableRecord
100
AcDbBlockTableRecord
  2
_OPEN30
  0
BLOCK_RECORD
  5
24
100
AcDbSymbolTableRecord
100
AcDbBlockTableRecord
  2
_BOXFILLED
  0
BLOCK_RECORD
  5
29
100
AcDbSymbolTableRecord
100
AcDbBlockTableRecord
  2
_BOXBLANK
  0
BLOCK_RECORD
  5
31
100
AcDbSymbolTableRecord
100
AcDbBlockTableRecord
  2
_OBLIQUE
  0
BLOCK_RECORD
  5
35
100
AcDbSymbolTableRecord
100
AcDbBlockTableRecord
  2
_OPEN90
  0
BLOCK_RECORD
  5
3B
100
AcDbSymbolTableRecord
100
AcDbBlockTableRecord
  2
_CLOSEDBLANK
  0
BLOCK_RECORD
  5
41
100
AcDbSymbolTableRecord
100
AcDbBlockTableRecord
  2
_DOTBLANK
  0
ENDTAB
  0
ENDSEC
  0
SECTION
  2
BLOCKS
  0
BLOCK
  5
2E2
100
AcDbEntity
  8
0
100
AcDbBlockBegin
  2
*MODEL_SPACE
 70
     0
 10
0.0
 20
0.0
 30
0.0
  3
*MODEL_SPACE
  1

  0
ENDBLK
  5
2E3
100
AcDbEntity
  8
0
100
AcDbBlockEnd
  0
BLOCK
  5
2E4
100
AcDbEntity
  8
0
100
AcDbBlockBegin
  2
*PAPER_SPACE
 70
     0
 10
0.0
 20
0.0
 30
0.0
  3
*PAPER_SPACE
  1

  0
ENDBLK
  5
2E5
100
AcDbEntity
  8
0
100
AcDbBlockEnd
  0
BLOCK
  5
2E6
100
AcDbEntity
  8
0
100
AcDbBlockBegin
  2
*PAPER_SPACE0
 70
     0
 10
0.0
 20
0.0
 30
0.0
  3
*PAPER_SPACE0
  1

  0
ENDBLK
  5
2E7
100
AcDbEntity
  8
0
100
AcDbBlockEnd
  0
BLOCK
  5
2
330
1
100
AcDbEntity
  8
0
100
AcDbBlockBegin
  2
_NONE
 70
     0
 10
0.0
 20
0.0
 30
0.0
  3
_NONE
  1

  0
ENDBLK
  5
3
330
1
100
AcDbEntity
  8
0
100
AcDbBlockEnd
  0
BLOCK
  5
5
330
4
100
AcDbEntity
  8
0
100
AcDbBlockBegin
  2
_CLOSED
 70
     0
 10
0.0
 20
0.0
 30
0.0
  3
_CLOSED
  1

  0
LINE
  5
6
330
4
100
AcDbEntity
  8
0
  6
BYBLOCK
 62
     0
370
    -2
100
AcDbLine
 10
-1.0
 20
0.166667
 30
0.0
 11
0.0
 21
0.0
 31
0.0
  0
LINE
  5
7
330
4
100
AcDbEntity
  8
0
  6
BYBLOCK
 62
     0
370
    -2
100
AcDbLine
 10
0.0
 20
0.0
 30
0.0
 11
-1.0
 21
-0.166667
 31
0.0
  0
LINE
  5
8
330
4
100
AcDbEntity
  8
0
  6
BYBLOCK
 62
     0
370
    -2
100
AcDbLine
 10
-1.0
 20
0.166667
 30
0.0
 11
-1.0
 21
-0.166667
 31
0.0
  0
LINE
  5
9
330
4
100
AcDbEntity
  8
0
  6
BYBLOCK
 62
     0
370
    -2
100
AcDbLine
 10
0.0
 20
0.0
 30
0.0
 11
-1.0
 21
0.0
 31
0.0
  0
ENDBLK
  5
A
330
4
100
AcDbEntity
  8
0
100
AcDbBlockEnd
  0
BLOCK
  5
C
330
B
100
AcDbEntity
  8
0
100
AcDbBlockBegin
  2
_DOT
 70
     0
 10
0.0
 20
0.0
 30
0.0
  3
_DOT
  1

  0
POLYLINE
  5
D
330
B
100
AcDbEntity
  8
0
  6
BYBLOCK
 62
     0
370
    -2
100
AcDb2dPolyline
 66
     1
 10
0.0
 20
0.0
 30
0.0
 70
     1
 40
0.5
 41
0.5
  0
VERTEX
  5
E
330
B
100
AcDbEntity
  8
0
  6
BYBLOCK
 62
     0
370
    -2
100
AcDbVertex
100
AcDb2dVertex
 10
-0.25
 20
0.0
 30
0.0
 42
1.0
  0
VERTEX
  5
F
330
B
100
AcDbEntity
  8
0
  6
BYBLOCK
 62
     0
370
    -2
100
AcDbVertex
100
AcDb2dVertex
 10
0.25
 20
0.0
 30
0.0
 42
1.0
  0
SEQEND
  5
10
330
B
100
AcDbEntity
  8
0
  6
BYBLOCK
 62
     0
370
    -2
  0
LINE
  5
11
330
B
100
AcDbEntity
  8
0
  6
BYBLOCK
 62
     0
370
    -2
100
AcDbLine
 10
-0.5
 20
0.0
 30
0.0
 11
-1.0
 21
0.0
 31
0.0
  0
ENDBLK
  5
12
330
B
100
AcDbEntity
  8
0
100
AcDbBlockEnd
  0
BLOCK
  5
14
330
13
100
AcDbEntity
  8
0
100
AcDbBlockBegin
  2
_OPEN
 70
     0
 10
0.0
 20
0.0
 30
0.0
  3
_OPEN
  1

  0
LINE
  5
15
330
13
100
AcDbEntity
  8
0
  6
BYBLOCK
 62
     0
370
    -2
100
AcDbLine
 10
-1.0
 20
0.166667
 30
0.0
 11
0.0
 21
0.0
 31
0.0
  0
LINE
  5
16
330
13
100
AcDbEntity
  8
0
  6
BYBLOCK
 62
     0
370
    -2
100
AcDbLine
 10
0.0
 20
0.0
 30
0.0
 11
-1.0
 21
-0.166667
 31
0.0
  0
LINE
  5
17
330
13
100
AcDbEntity
  8
0
  6
BYBLOCK
 62
     0
370
    -2
100
AcDbLine
 10
0.0
 20
0.0
 30
0.0
 11
-1.0
 21
0.0
 31
0.0
  0
ENDBLK
  5
18
330
13
100
AcDbEntity
  8
0
100
AcDbBlockEnd
  0
BLOCK
  5
1A
330
19
100
AcDbEntity
  8
0
100
AcDbBlockBegin
  2
_ORIGIN
 70
     0
 10
0.0
 20
0.0
 30
0.0
  3
_ORIGIN
  1

  0
CIRCLE
  5
1B
330
19
100
AcDbEntity
  8
0
  6
BYBLOCK
 62
     0
370
    -2
100
AcDbCircle
 10
0.0
 20
0.0
 30
0.0
 40
0.5
  0
LINE
  5
1C
330
19
100
AcDbEntity
  8
0
  6
BYBLOCK
 62
     0
370
    -2
100
AcDbLine
 10
0.0
 20
0.0
 30
0.0
 11
-1.0
 21
0.0
 31
0.0
  0
ENDBLK
  5
1D
330
19
100
AcDbEntity
  8
0
100
AcDbBlockEnd
  0
BLOCK
  5
1F
330
1E
100
AcDbEntity
  8
0
100
AcDbBlockBegin
  2
_OPEN30
 70
     0
 10
0.0
 20
0.0
 30
0.0
  3
_OPEN30
  1

  0
LINE
  5
20
330
1E
100
AcDbEntity
  8
0
  6
BYBLOCK
 62
     0
370
    -2
100
AcDbLine
 10
-1.0
 20
0.267949
 30
0.0
 11
0.0
 21
0.0
 31
0.0
  0
LINE
  5
21
330
1E
100
AcDbEntity
  8
0
  6
BYBLOCK
 62
     0
370
    -2
100
AcDbLine
 10
0.0
 20
0.0
 30
0.0
 11
-1.0
 21
-0.267949
 31
0.0
  0
LINE
  5
22
330
1E
100
AcDbEntity
  8
0
  6
BYBLOCK
 62
     0
370
    -2
100
AcDbLine
 10
0.0
 20
0.0
 30
0.0
 11
-1.0
 21
0.0
 31
0.0
  0
ENDBLK
  5
23
330
1E
100
AcDbEntity
  8
0
100
AcDbBlockEnd
  0
BLOCK
  5
25
330
24
100
AcDbEntity
  8
0
100
AcDbBlockBegin
  2
_BOXFILLED
 70
     0
 10
0.0
 20
0.0
 30
0.0
  3
_BOXFILLED
  1

  0
SOLID
  5
26
330
24
100
AcDbEntity
  8
0
  6
BYBLOCK
 62
     0
370
    -2
100
AcDbTrace
 10
-0.5
 20
0.5
 30
0.0
 11
0.5
 21
0.5
 31
0.0
 12
-0.5
 22
-0.5
 32
0.0
 13
0.5
 23
-0.5
 33
0.0
  0
LINE
  5
27
330
24
100
AcDbEntity
  8
0
  6
BYBLOCK
 62
     0
370
    -2
100
AcDbLine
 10
-0.5
 20
0.0
 30
0.0
 11
-1.0
 21
0.0
 31
0.0
  0
ENDBLK
  5
28
330
24
100
AcDbEntity
  8
0
100
AcDbBlockEnd
  0
BLOCK
  5
2A
330
29
100
AcDbEntity
  8
0
100
AcDbBlockBegin
  2
_BOXBLANK
 70
     0
 10
0.0
 20
0.0
 30
0.0
  3
_BOXBLANK
  1

  0
LINE
  5
2B
330
29
100
AcDbEntity
  8
0
  6
BYBLOCK
 62
     0
370
    -2
100
AcDbLine
 10
-0.5
 20
-0.5
 30
0.0
 11
0.5
 21
-0.5
 31
0.0
  0
LINE
  5
2C
330
29
100
AcDbEntity
  8
0
  6
BYBLOCK
 62
     0
370
    -2
100
AcDbLine
 10
0.5
 20
-0.5
 30
0.0
 11
0.5
 21
0.5
 31
0.0
  0
LINE
  5
2D
330
29
100
AcDbEntity
  8
0
  6
BYBLOCK
 62
     0
370
    -2
100
AcDbLine
 10
0.5
 20
0.5
 30
0.0
 11
-0.5
 21
0.5
 31
0.0
  0
LINE
  5
2E
330
29
100
AcDbEntity
  8
0
  6
BYBLOCK
 62
     0
370
    -2
100
AcDbLine
 10
-0.5
 20
0.5
 30
0.0
 11
-0.5
 21
-0.5
 31
0.0
  0
LINE
  5
2F
330
29
100
AcDbEntity
  8
0
  6
BYBLOCK
 62
     0
370
    -2
100
AcDbLine
 10
-0.5
 20
0.0
 30
0.0
 11
-1.0
 21
0.0
 31
0.0
  0
ENDBLK
  5
30
330
29
100
AcDbEntity
  8
0
100
AcDbBlockEnd
  0
BLOCK
  5
32
330
31
100
AcDbEntity
  8
0
100
AcDbBlockBegin
  2
_OBLIQUE
 70
     0
 10
0.0
 20
0.0
 30
0.0
  3
_OBLIQUE
  1

  0
LINE
  5
33
330
31
100
AcDbEntity
  8
0
  6
BYBLOCK
 62
     0
370
    -2
100
AcDbLine
 10
-0.5
 20
-0.5
 30
0.0
 11
0.5
 21
0.5
 31
0.0
  0
ENDBLK
  5
34
330
31
100
AcDbEntity
  8
0
100
AcDbBlockEnd
  0
BLOCK
  5
36
330
35
100
AcDbEntity
  8
0
100
AcDbBlockBegin
  2
_OPEN90
 70
     0
 10
0.0
 20
0.0
 30
0.0
  3
_OPEN90
  1

  0
LINE
  5
37
330
35
100
AcDbEntity
  8
0
  6
BYBLOCK
 62
     0
370
    -2
100
AcDbLine
 10
-0.5
 20
0.5
 30
0.0
 11
0.0
 21
0.0
 31
0.0
  0
LINE
  5
38
330
35
100
AcDbEntity
  8
0
  6
BYBLOCK
 62
     0
370
    -2
100
AcDbLine
 10
0.0
 20
0.0
 30
0.0
 11
-0.5
 21
-0.5
 31
0.0
  0
LINE
  5
39
330
35
100
AcDbEntity
  8
0
  6
BYBLOCK
 62
     0
370
    -2
100
AcDbLine
 10
0.0
 20
0.0
 30
0.0
 11
-1.0
 21
0.0
 31
0.0
  0
ENDBLK
  5
3A
330
35
100
AcDbEntity
  8
0
100
AcDbBlockEnd
  0
BLOCK
  5
3C
330
3B
100
AcDbEntity
  8
0
100
AcDbBlockBegin
  2
_CLOSEDBLANK
 70
     0
 10
0.0
 20
0.0
 30
0.0
  3
_CLOSEDBLANK
  1

  0
LINE
  5
3D
330
3B
100
AcDbEntity
  8
0
  6
BYBLOCK
 62
     0
370
    -2
100
AcDbLine
 10
-1.0
 20
0.1666666666666666
 30
0.0
 11
0.0
 21
0.0
 31
0.0
  0
LINE
  5
3E
330
3B
100
AcDbEntity
  8
0
  6
BYBLOCK
 62
     0
370
    -2
100
AcDbLine
 10
0.0
 20
0.0
 30
0.0
 11
-1.0
 21
-0.1666666666666666
 31
0.0
  0
LINE
  5
3F
330
3B
100
AcDbEntity
  8
0
  6
BYBLOCK
 62
     0
370
    -2
100
AcDbLine
 10
-1.0
 20
0.1666666666666666
 30
0.0
 11
-1.0
 21
-0.1666666666666666
 31
0.0
  0
ENDBLK
  5
40
330
3B
100
AcDbEntity
  8
0
100
AcDbBlockEnd
  0
BLOCK
  5
42
330
41
100
AcDbEntity
  8
0
100
AcDbBlockBegin
  2
_DOTBLANK
 70
     0
 10
0.0
 20
0.0
 30
0.0
  3
_DOTBLANK
  1

  0
CIRCLE
  5
43
330
41
100
AcDbEntity
  8
0
  6
BYBLOCK
 62
     0
370
    -2
100
AcDbCircle
 10
0.0
 20
0.0
 30
0.0
 40
0.5
  0
LINE
  5
44
330
41
100
AcDbEntity
  8
0
  6
BYBLOCK
 62
     0
370
    -2
100
AcDbLine
 10
-0.5
 20
0.0
 30
0.0
 11
-1.0
 21
0.0
 31
0.0
  0
ENDBLK
  5
45
330
41
100
AcDbEntity
  8
0
100
AcDbBlockEnd
  0
ENDSEC
  0
SECTION
  2
ENTITIES
  0
MTEXT
  5
46
100
AcDbEntity
  8
A7
  6
CONTINUOUS
 62
3
100
AcDbMText
 10
9.999997526638502
 20
18.00000076076889
 30
0.000000000000000
 40
3.000000000000000
 41
0.000000000000000
 44
0.6739999771118164
 71
     7
 72
     1
  1
{\H0.93x;{TYPE No.TL-249-2}}
 11
1.000000000000000
 21
0.000000000000000
 31
0.000000000000000
  7
STANDARD
  0
POINT
  5
47
100
AcDbEntity
  8
A7
  6
CONTINUOUS
 62
3
100
AcDbPoint
 10
9.999997526638502
 20
18.00000076076889
 30
0.000000000000000
  0
LINE
  5
48
100
AcDbEntity
  8
A1
  6
CONTINUOUS
 62
7
100
AcDbLine
 10
254.7727444743960
 20
149.8239069155294
 30
0.000000000000000
 11
270.7727444743959
 21
149.8239069155294
 31
0.000000000000000
  0
LINE
  5
49
100
AcDbEntity
  8
A1
  6
CONTINUOUS
 62
7
100
AcDbLine
 10
250.5727324743961
 20
119.8239069155296
 30
0.000000000000000
 11
270.7727444743959
 21
119.8239069155296
 31
0.000000000000000
  0
LINE
  5
4A
100
AcDbEntity
  8
A1
  6
CONTINUOUS
 62
7
100
AcDbLine
 10
270.7727444743959
 20
149.8239069155294
 30
0.000000000000000
 11
270.7727444743959
 21
119.8239069155296
 31
0.000000000000000
  0
LINE
  5
4B
100
AcDbEntity
  8
A1
  6
CONTINUOUS
 62
7
100
AcDbLine
 10
251.2727444743960
 20
146.3239069155296
 30
0.000000000000000
 11
251.2727444743960
 21
139.8239069155296
 31
0.000000000000000
  0
LINE
  5
4C
100
AcDbEntity
  8
A1
  6
CONTINUOUS
 62
7
100
AcDbLine
 10
250.5727324743961
 20
139.8239069155296
 30
0.000000000000000
 11
250.5727324743961
 21
119.8239069155296
 31
0.000000000000000
  0
LINE
  5
4D
100
AcDbEntity
  8
A1
  6
CONTINUOUS
 62
7
100
AcDbLine
 10
250.5727324743961
 20
139.8239069155296
 30
0.000000000000000
 11
251.2727444743960
 21
139.8239069155296
 31
0.000000000000000
  0
LINE
  5
4E
100
AcDbEntity
  8
A1
  6
CONTINUOUS
 62
7
100
AcDbLine
 10
269.5727324743960
 20
149.8239069155294
 30
0.000000000000000
 11
269.5727324743960
 21
119.8239069155296
 31
0.000000000000000
  0
LINE
  5
4F
100
AcDbEntity
  8
A4
  6
CENTER
 62
1
100
AcDbLine
 10
256.7727444743959
 20
149.3239069155296
 30
0.000000000000000
 11
256.7727444743959
 21
143.3239069155296
 31
0.000000000000000
  0
LINE
  5
50
100
AcDbEntity
  8
A4
  6
CENTER
 62
1
100
AcDbLine
 10
253.7727444743960
 20
146.3239069155296
 30
0.000000000000000
 11
259.7727444743958
 21
146.3239069155296
 31
0.000000000000000
  0
LINE
  5
51
100
AcDbEntity
  8
A4
  6
CENTER
 62
1
100
AcDbLine
 10
267.2727444743959
 20
135.3239069155294
 30
0.000000000000000
 11
267.2727444743959
 21
128.3239069155296
 31
0.000000000000000
  0
LINE
  5
52
100
AcDbEntity
  8
A4
  6
CENTER
 62
1
100
AcDbLine
 10
263.7727444743959
 20
131.8239069155296
 30
0.000000000000000
 11
270.7727444743959
 21
131.8239069155296
 31
0.000000000000000
  0
LINE
  5
53
100
AcDbEntity
  8
A1
  6
CONTINUOUS
 62
7
100
AcDbLine
 10
250.5727324743961
 20
132.3239069155294
 30
0.000000000000000
 11
258.9727574743960
 21
132.3239069155294
 31
0.000000000000000
  0
LINE
  5
54
100
AcDbEntity
  8
A1
  6
CONTINUOUS
 62
7
100
AcDbLine
 10
250.5727324743961
 20
128.3239069155296
 30
0.000000000000000
 11
258.9727574743960
 21
128.3239069155296
 31
0.000000000000000
  0
LINE
  5
55
100
AcDbEntity
  8
A1
  6
CONTINUOUS
 62
7
100
AcDbLine
 10
258.9727574743960
 20
132.3239069155294
 30
0.000000000000000
 11
258.9727574743960
 21
128.3239069155296
 31
0.000000000000000
  0
LINE
  5
56
100
AcDbEntity
  8
A1
  6
CONTINUOUS
 62
7
100
AcDbLine
 10
253.7727444743960
 20
132.3239069155294
 30
0.000000000000000
 11
253.7727444743960
 21
128.3239069155296
 31
0.000000000000000
  0
LINE
  5
57
100
AcDbEntity
  8
A4
  6
CENTER
 62
1
100
AcDbLine
 10
36.40826247439605
 20
131.8239069155296
 30
0.000000000000000
 11
29.40826247439605
 21
131.8239069155296
 31
0.000000000000000
  0
LINE
  5
58
100
AcDbEntity
  8
A1
  6
CONTINUOUS
 62
7
100
AcDbLine
 10
41.20826147439607
 20
132.3239069155294
 30
0.000000000000000
 11
41.20826147439607
 21
128.3239069155296
 31
0.000000000000000
  0
LINE
  5
59
100
AcDbEntity
  8
A1
  6
CONTINUOUS
 62
7
100
AcDbLine
 10
49.60826247439606
 20
128.3239069155296
 30
0.000000000000000
 11
41.20826147439607
 21
128.3239069155296
 31
0.000000000000000
  0
LINE
  5
5A
100
AcDbEntity
  8
A1
  6
CONTINUOUS
 62
7
100
AcDbLine
 10
49.60826247439606
 20
132.3239069155294
 30
0.000000000000000
 11
41.20826147439607
 21
132.3239069155294
 31
0.000000000000000
  0
LINE
  5
5B
100
AcDbEntity
  8
A4
  6
CENTER
 62
1
100
AcDbLine
 10
32.90826247439607
 20
135.3239069155294
 30
0.000000000000000
 11
32.90826247439607
 21
128.3239069155296
 31
0.000000000000000
  0
LINE
  5
5C
100
AcDbEntity
  8
A4
  6
CENTER
 62
1
100
AcDbLine
 10
46.40826247439605
 20
146.3239069155296
 30
0.000000000000000
 11
40.40826247439605
 21
146.3239069155296
 31
0.000000000000000
  0
LINE
  5
5D
100
AcDbEntity
  8
A4
  6
CENTER
 62
1
100
AcDbLine
 10
43.40826247439607
 20
149.3239069155296
 30
0.000000000000000
 11
43.40826247439607
 21
143.3239069155296
 31
0.000000000000000
  0
LINE
  5
5E
100
AcDbEntity
  8
A1
  6
CONTINUOUS
 62
7
100
AcDbLine
 10
30.60826247439606
 20
149.8239069155294
 30
0.000000000000000
 11
30.60826247439606
 21
119.8239069155296
 31
0.000000000000000
  0
LINE
  5
5F
100
AcDbEntity
  8
A1
  6
CONTINUOUS
 62
7
100
AcDbLine
 10
49.60826247439606
 20
139.8239069155296
 30
0.000000000000000
 11
48.90826247439605
 21
139.8239069155296
 31
0.000000000000000
  0
LINE
  5
60
100
AcDbEntity
  8
A1
  6
CONTINUOUS
 62
7
100
AcDbLine
 10
49.60826247439606
 20
139.8239069155296
 30
0.000000000000000
 11
49.60826247439606
 21
119.8239069155296
 31
0.000000000000000
  0
LINE
  5
61
100
AcDbEntity
  8
A1
  6
CONTINUOUS
 62
7
100
AcDbLine
 10
48.90826247439605
 20
146.3239069155296
 30
0.000000000000000
 11
48.90826247439605
 21
139.8239069155296
 31
0.000000000000000
  0
LINE
  5
62
100
AcDbEntity
  8
A1
  6
CONTINUOUS
 62
7
100
AcDbLine
 10
29.40826247439605
 20
149.8239069155294
 30
0.000000000000000
 11
29.40826247439605
 21
119.8239069155296
 31
0.000000000000000
  0
LINE
  5
63
100
AcDbEntity
  8
A1
  6
CONTINUOUS
 62
7
100
AcDbLine
 10
49.60826247439606
 20
119.8239069155296
 30
0.000000000000000
 11
29.40826247439605
 21
119.8239069155296
 31
0.000000000000000
  0
LINE
  5
64
100
AcDbEntity
  8
A1
  6
CONTINUOUS
 62
7
100
AcDbLine
 10
45.40826247439607
 20
149.8239069155294
 30
0.000000000000000
 11
29.40826247439605
 21
149.8239069155294
 31
0.000000000000000
  0
LINE
  5
65
100
AcDbEntity
  8
A4
  6
CENTER
 62
1
100
AcDbLine
 10
267.5727324743959
 20
137.8239069155296
 30
0.000000000000000
 11
272.7727444743959
 21
137.8239069155296
 31
0.000000000000000
  0
LINE
  5
66
100
AcDbEntity
  8
A4
  6
CENTER
 62
1
100
AcDbLine
 10
27.40826247439606
 20
137.8239069155296
 30
0.000000000000000
 11
32.60826247439606
 21
137.8239069155296
 31
0.000000000000000
  0
LINE
  5
67
100
AcDbEntity
  8
A4
  6
CENTER
 62
1
100
AcDbLine
 10
363.3062224743960
 20
131.8239069155296
 30
0.000000000000000
 11
383.3062224743960
 21
131.8239069155296
 31
0.000000000000000
  0
LINE
  5
68
100
AcDbEntity
  8
A4
  6
CENTER
 62
1
100
AcDbLine
 10
373.3062224743959
 20
173.1530689155295
 30
0.000000000000000
 11
373.3062224743959
 21
114.8239069155296
 31
0.000000000000000
  0
LINE
  5
69
100
AcDbEntity
  8
A1
  6
CONTINUOUS
 62
7
100
AcDbLine
 10
365.3062224743959
 20
133.3239069155294
 30
0.000000000000000
 11
372.8062224743959
 21
133.3239069155294
 31
0.000000000000000
  0
LINE
  5
6A
100
AcDbEntity
  8
A1
  6
CONTINUOUS
 62
7
100
AcDbLine
 10
365.3062224743959
 20
130.3239069155294
 30
0.000000000000000
 11
372.8062224743959
 21
130.3239069155294
 31
0.000000000000000
  0
LINE
  5
6B
100
AcDbEntity
  8
A4
  6
CENTER
 62
1
100
AcDbLine
 10
358.3062224743960
 20
145.8239069155294
 30
0.000000000000000
 11
358.3062224743960
 21
129.8239069155296
 31
0.000000000000000
  0
LINE
  5
6C
100
AcDbEntity
  8
A4
  6
CENTER
 62
1
100
AcDbLine
 10
362.8062224743959
 20
137.8239069155296
 30
0.000000000000000
 11
353.8062224743960
 21
137.8239069155296
 31
0.000000000000000
  0
LINE
  5
6D
100
AcDbEntity
  8
A1
  6
CONTINUOUS
 62
7
100
AcDbLine
 10
355.8062224743960
 20
141.3239069155296
 30
0.000000000000000
 11
355.8062224743960
 21
134.3239069155294
 31
0.000000000000000
  0
LINE
  5
6E
100
AcDbEntity
  8
A1
  6
CONTINUOUS
 62
7
100
AcDbLine
 10
360.8062224743959
 20
141.3239069155296
 30
0.000000000000000
 11
360.8062224743959
 21
134.3239069155294
 31
0.000000000000000
  0
LINE
  5
6F
100
AcDbEntity
  8
A1
  6
CONTINUOUS
 62
7
100
AcDbLine
 10
385.8062224743959
 20
141.3239069155296
 30
0.000000000000000
 11
385.8062224743959
 21
134.3239069155294
 31
0.000000000000000
  0
LINE
  5
70
100
AcDbEntity
  8
A1
  6
CONTINUOUS
 62
7
100
AcDbLine
 10
390.8062224743960
 20
141.3239069155296
 30
0.000000000000000
 11
390.8062224743960
 21
134.3239069155294
 31
0.000000000000000
  0
LINE
  5
71
100
AcDbEntity
  8
A4
  6
CENTER
 62
1
100
AcDbLine
 10
383.8062224743959
 20
137.8239069155296
 30
0.000000000000000
 11
392.8062224743960
 21
137.8239069155296
 31
0.000000000000000
  0
LINE
  5
72
100
AcDbEntity
  8
A4
  6
CENTER
 62
1
100
AcDbLine
 10
388.3062224743960
 20
145.8239069155294
 30
0.000000000000000
 11
388.3062224743960
 21
129.8239069155296
 31
0.000000000000000
  0
LINE
  5
73
100
AcDbEntity
  8
A1
  6
CONTINUOUS
 62
7
100
AcDbLine
 10
381.3062224743960
 20
149.8239069155294
 30
0.000000000000000
 11
390.8062224743960
 21
149.8239069155294
 31
0.000000000000000
  0
LINE
  5
74
100
AcDbEntity
  8
A1
  6
CONTINUOUS
 62
7
100
AcDbLine
 10
381.0562224743960
 20
139.8239069155296
 30
0.000000000000000
 11
381.3062224743960
 21
139.8239069155296
 31
0.000000000000000
  0
LINE
  5
75
100
AcDbEntity
  8
A1
  6
CONTINUOUS
 62
7
100
AcDbLine
 10
365.3062224743959
 20
139.8239069155296
 30
0.000000000000000
 11
365.5562224743960
 21
139.8239069155296
 31
0.000000000000000
  0
LINE
  5
76
100
AcDbEntity
  8
A1
  6
CONTINUOUS
 62
7
100
AcDbLine
 10
381.3062224743960
 20
149.8239069155294
 30
0.000000000000000
 11
381.3062224743960
 21
119.8239069155296
 31
0.000000000000000
  0
LINE
  5
77
100
AcDbEntity
  8
A1
  6
CONTINUOUS
 62
7
100
AcDbLine
 10
365.3062224743959
 20
149.8239069155294
 30
0.000000000000000
 11
365.3062224743959
 21
119.8239069155296
 31
0.000000000000000
  0
LINE
  5
78
100
AcDbEntity
  8
A1
  6
CONTINUOUS
 62
7
100
AcDbLine
 10
393.3062224743960
 20
147.3239069155296
 30
0.000000000000000
 11
393.3062224743960
 21
122.3239069155296
 31
0.000000000000000
  0
LINE
  5
79
100
AcDbEntity
  8
A1
  6
CONTINUOUS
 62
7
100
AcDbLine
 10
355.8062224743960
 20
119.8239069155296
 30
0.000000000000000
 11
390.8062224743960
 21
119.8239069155296
 31
0.000000000000000
  0
LINE
  5
7A
100
AcDbEntity
  8
A1
  6
CONTINUOUS
 62
7
100
AcDbLine
 10
355.8062224743960
 20
149.8239069155294
 30
0.000000000000000
 11
365.3062224743959
 21
149.8239069155294
 31
0.000000000000000
  0
LINE
  5
7B
100
AcDbEntity
  8
A1
  6
CONTINUOUS
 62
7
100
AcDbLine
 10
353.3062224743960
 20
147.3239069155296
 30
0.000000000000000
 11
353.3062224743960
 21
122.3239069155296
 31
0.000000000000000
  0
LINE
  5
7C
100
AcDbEntity
  8
A1
  6
CONTINUOUS
 62
7
100
AcDbLine
 10
381.3062224743960
 20
147.3239069155296
 30
0.000000000000000
 11
381.0562224743960
 21
147.3239069155296
 31
0.000000000000000
  0
LINE
  5
7D
100
AcDbEntity
  8
A1
  6
CONTINUOUS
 62
7
100
AcDbLine
 10
378.5062344743960
 20
147.3239069155296
 30
0.000000000000000
 11
378.5062344743960
 21
145.3239069155296
 31
0.000000000000000
  0
LINE
  5
7E
100
AcDbEntity
  8
A1
  6
CONTINUOUS
 62
7
100
AcDbLine
 10
381.3062224743960
 20
145.3239069155296
 30
0.000000000000000
 11
381.0562224743960
 21
145.3239069155296
 31
0.000000000000000
  0
LINE
  5
7F
100
AcDbEntity
  8
A1
  6
CONTINUOUS
 62
7
100
AcDbLine
 10
365.3062224743959
 20
147.3239069155296
 30
0.000000000000000
 11
365.5562224743960
 21
147.3239069155296
 31
0.000000000000000
  0
LINE
  5
80
100
AcDbEntity
  8
A1
  6
CONTINUOUS
 62
7
100
AcDbLine
 10
365.3062224743959
 20
145.3239069155296
 30
0.000000000000000
 11
365.5562224743960
 21
145.3239069155296
 31
0.000000000000000
  0
LINE
  5
81
100
AcDbEntity
  8
A1
  6
CONTINUOUS
 62
7
100
AcDbLine
 10
368.1062104743961
 20
147.3239069155296
 30
0.000000000000000
 11
368.1062104743961
 21
145.3239069155296
 31
0.000000000000000
  0
LINE
  5
82
100
AcDbEntity
  8
A1
  6
CONTINUOUS
 62
7
100
AcDbLine
 10
255.7727444743960
 20
125.3239069155296
 30
0.000000000000000
 11
251.7727444743960
 21
125.3239069155296
 31
0.000000000000000
  0
LINE
  5
83
100
AcDbEntity
  8
A1
  6
CONTINUOUS
 62
7
100
AcDbLine
 10
255.7727444743960
 20
127.3239069155296
 30
0.000000000000000
 11
255.7727444743960
 21
128.3239069155296
 31
0.000000000000000
  0
LINE
  5
84
100
AcDbEntity
  8
A1
  6
CONTINUOUS
 62
7
100
AcDbLine
 10
257.7727444743959
 20
127.3239069155296
 30
0.000000000000000
 11
257.7727444743959
 21
128.3239069155296
 31
0.000000000000000
  0
LINE
  5
85
100
AcDbEntity
  8
A1
  6
CONTINUOUS
 62
7
100
AcDbLine
 10
255.7727444743960
 20
127.3239069155296
 30
0.000000000000000
 11
251.7727444743960
 21
127.3239069155296
 31
0.000000000000000
  0
LINE
  5
86
100
AcDbEntity
  8
A1
  6
CONTINUOUS
 62
7
100
AcDbLine
 10
251.7727444743960
 20
125.3239069155296
 30
0.000000000000000
 11
251.7727444743960
 21
127.3239069155296
 31
0.000000000000000
  0
LINE
  5
87
100
AcDbEntity
  8
A1
  6
CONTINUOUS
 62
7
100
AcDbLine
 10
48.40826247439607
 20
125.3239069155296
 30
0.000000000000000
 11
48.40826247439607
 21
127.3239069155296
 31
0.000000000000000
  0
LINE
  5
88
100
AcDbEntity
  8
A1
  6
CONTINUOUS
 62
7
100
AcDbLine
 10
44.40826247439607
 20
127.3239069155296
 30
0.000000000000000
 11
48.40826247439607
 21
127.3239069155296
 31
0.000000000000000
  0
LINE
  5
89
100
AcDbEntity
  8
A1
  6
CONTINUOUS
 62
7
100
AcDbLine
 10
44.40826247439607
 20
127.3239069155296
 30
0.000000000000000
 11
44.40826247439607
 21
128.3239069155296
 31
0.000000000000000
  0
LINE
  5
8A
100
AcDbEntity
  8
A1
  6
CONTINUOUS
 62
7
100
AcDbLine
 10
44.40826247439607
 20
125.3239069155296
 30
0.000000000000000
 11
48.40826247439607
 21
125.3239069155296
 31
0.000000000000000
  0
LINE
  5
8B
100
AcDbEntity
  8
A1
  6
CONTINUOUS
 62
7
100
AcDbLine
 10
42.40826247439607
 20
127.3239069155296
 30
0.000000000000000
 11
42.40826247439607
 21
128.3239069155296
 31
0.000000000000000
  0
LINE
  5
8C
100
AcDbEntity
  8
A1
  6
CONTINUOUS
 62
7
100
AcDbLine
 10
29.40826247439604
 20
162.4794109155294
 30
0.000000000000000
 11
38.05739647439604
 21
167.4986219155295
 31
0.000000000000000
  0
LINE
  5
8D
100
AcDbEntity
  8
A1
  6
CONTINUOUS
 62
7
100
AcDbLine
 10
29.40826247439605
 20
162.4794109155294
 30
0.000000000000000
 11
36.75242847439607
 21
149.8239069155294
 31
0.000000000000000
  0
LINE
  5
8E
100
AcDbEntity
  8
A1
  6
CONTINUOUS
 62
7
100
AcDbLine
 10
38.05739647439606
 20
167.4986219155295
 30
0.000000000000000
 11
48.59774247439604
 21
149.3354359155295
 31
0.000000000000000
  0
LINE
  5
8F
100
AcDbEntity
  8
A1
  6
CONTINUOUS
 62
7
100
AcDbLine
 10
265.7719204743961
 20
132.7238999155295
 30
0.000000000000000
 11
268.7735684743960
 21
132.7238999155295
 31
0.000000000000000
  0
LINE
  5
90
100
AcDbEntity
  8
A1
  6
CONTINUOUS
 62
7
100
AcDbLine
 10
265.7719204743961
 20
130.9238969155295
 30
0.000000000000000
 11
268.7735684743960
 21
130.9238969155295
 31
0.000000000000000
  0
LINE
  5
91
100
AcDbEntity
  8
A1
  6
CONTINUOUS
 62
7
100
AcDbLine
 10
34.40909747439606
 20
132.7238999155295
 30
0.000000000000000
 11
31.40743047439607
 21
132.7238999155295
 31
0.000000000000000
  0
LINE
  5
92
100
AcDbEntity
  8
A1
  6
CONTINUOUS
 62
7
100
AcDbLine
 10
34.40909747439606
 20
130.9238969155295
 30
0.000000000000000
 11
31.40743047439607
 21
130.9238969155295
 31
0.000000000000000
  0
LINE
  5
93
100
AcDbEntity
  8
A1
  6
CONTINUOUS
 62
7
100
AcDbLine
 10
47.12826347439606
 20
132.3239069155294
 30
0.000000000000000
 11
47.12826347439606
 21
128.3239069155296
 31
0.000000000000000
  0
LINE
  5
94
100
AcDbEntity
  8
A1
  6
CONTINUOUS
 62
7
100
AcDbLine
 10
48.40826247439607
 20
132.3239069155294
 30
0.000000000000000
 11
48.40826247439607
 21
128.3239069155296
 31
0.000000000000000
  0
LINE
  5
95
100
AcDbEntity
  8
A1
  6
CONTINUOUS
 62
7
100
AcDbLine
 10
251.7727444743960
 20
132.3239069155294
 30
0.000000000000000
 11
251.7727444743960
 21
128.3239069155296
 31
0.000000000000000
  0
LINE
  5
96
100
AcDbEntity
  8
A1
  6
CONTINUOUS
 62
7
100
AcDbLine
 10
270.7727444743959
 20
162.4794129155293
 30
0.000000000000000
 11
262.1236244743959
 21
167.4986179155293
 31
0.000000000000000
  0
LINE
  5
97
100
AcDbEntity
  8
A1
  6
CONTINUOUS
 62
7
100
AcDbLine
 10
270.7727444743959
 20
162.4794129155294
 30
0.000000000000000
 11
263.4285624743960
 21
149.8239069155294
 31
0.000000000000000
  0
LINE
  5
98
100
AcDbEntity
  8
A1
  6
CONTINUOUS
 62
7
100
AcDbLine
 10
262.1236244743960
 20
167.4986179155294
 30
0.000000000000000
 11
251.5832634743961
 21
149.3354189155296
 31
0.000000000000000
  0
LINE
  5
99
100
AcDbEntity
  8
A4
  6
CENTER
 62
1
100
AcDbLine
 10
38.77893947439607
 20
155.3088369155295
 30
0.000000000000000
 11
38.77893947439607
 21
149.3088369155295
 31
0.000000000000000
  0
LINE
  5
9A
100
AcDbEntity
  8
A4
  6
CENTER
 62
1
100
AcDbLine
 10
35.77893947439605
 20
152.3088369155296
 30
0.000000000000000
 11
41.77893947439607
 21
152.3088369155296
 31
0.000000000000000
  0
LINE
  5
9B
100
AcDbEntity
  8
A1
  6
CONTINUOUS
 62
7
100
AcDbLine
 10
37.53982147439605
 20
152.4733959155295
 30
0.000000000000000
 11
39.74219947439607
 21
153.1054759155296
 31
0.000000000000000
  0
LINE
  5
9C
100
AcDbEntity
  8
A1
  6
CONTINUOUS
 62
7
100
AcDbLine
 10
37.81568447439604
 20
151.5121989155296
 30
0.000000000000000
 11
40.01806147439606
 21
152.1442789155295
 31
0.000000000000000
  0
LINE
  5
9D
100
AcDbEntity
  8
A1
  6
CONTINUOUS
 62
7
100
AcDbLine
 10
262.3653144743961
 20
151.5122019155294
 30
0.000000000000000
 11
260.1629324743960
 21
152.1442829155296
 31
0.000000000000000
  0
LINE
  5
9E
100
AcDbEntity
  8
A1
  6
CONTINUOUS
 62
7
100
AcDbLine
 10
262.6411764743960
 20
152.4733989155296
 30
0.000000000000000
 11
260.4387954743959
 21
153.1054799155294
 31
0.000000000000000
  0
LINE
  5
9F
100
AcDbEntity
  8
A4
  6
CENTER
 62
1
100
AcDbLine
 10
264.4020694743961
 20
152.3088369155296
 30
0.000000000000000
 11
258.4020694743959
 21
152.3088369155296
 31
0.000000000000000
  0
LINE
  5
A0
100
AcDbEntity
  8
A4
  6
CENTER
 62
1
100
AcDbLine
 10
261.4020694743959
 20
155.3088369155295
 30
0.000000000000000
 11
261.4020694743959
 21
149.3088369155295
 31
0.000000000000000
  0
LINE
  5
A1
100
AcDbEntity
  8
A1
  6
CONTINUOUS
 62
7
100
AcDbLine
 10
363.8062224743960
 20
152.8536609155296
 30
0.000000000000000
 11
365.5562224743960
 21
152.8536609155296
 31
0.000000000000000
  0
LINE
  5
A2
100
AcDbEntity
  8
A1
  6
CONTINUOUS
 62
7
100
AcDbLine
 10
382.8062224743960
 20
152.8536609155296
 30
0.000000000000000
 11
381.0562224743960
 21
152.8536609155296
 31
0.000000000000000
  0
LINE
  5
A3
100
AcDbEntity
  8
A1
  6
CONTINUOUS
 62
7
100
AcDbLine
 10
365.5562224743960
 20
166.5530779155296
 30
0.000000000000000
 11
365.5562224743960
 21
133.3239069155294
 31
0.000000000000000
  0
LINE
  5
A4
100
AcDbEntity
  8
A1
  6
CONTINUOUS
 62
7
100
AcDbLine
 10
379.4562164743961
 20
164.1628959155296
 30
0.000000000000000
 11
379.4562164743961
 21
133.3239069155294
 31
0.000000000000000
  0
LINE
  5
A5
100
AcDbEntity
  8
A1
  6
CONTINUOUS
 62
7
100
AcDbLine
 10
381.0562224743960
 20
166.5530779155296
 30
0.000000000000000
 11
381.0562224743960
 21
133.3239069155294
 31
0.000000000000000
  0
LINE
  5
A6
100
AcDbEntity
  8
A1
  6
CONTINUOUS
 62
7
100
AcDbLine
 10
379.4562164743961
 20
168.1530689155296
 30
0.000000000000000
 11
367.1562284743960
 21
168.1530689155296
 31
0.000000000000000
  0
LINE
  5
A7
100
AcDbEntity
  8
A1
  6
CONTINUOUS
 62
7
100
AcDbLine
 10
367.1562284743960
 20
164.1628959155296
 30
0.000000000000000
 11
367.1562284743960
 21
133.3239069155294
 31
0.000000000000000
  0
LINE
  5
A8
100
AcDbEntity
  8
A1
  6
CONTINUOUS
 62
7
100
AcDbLine
 10
382.8062224743960
 20
153.8536609155296
 30
0.000000000000000
 11
381.0562224743960
 21
153.8536609155296
 31
0.000000000000000
  0
LINE
  5
A9
100
AcDbEntity
  8
A1
  6
CONTINUOUS
 62
7
100
AcDbLine
 10
363.8062224743960
 20
153.8536609155296
 30
0.000000000000000
 11
365.5562224743960
 21
153.8536609155296
 31
0.000000000000000
  0
LINE
  5
AA
100
AcDbEntity
  8
A1
  6
CONTINUOUS
 62
7
100
AcDbLine
 10
363.8062224743960
 20
152.8536609155296
 30
0.000000000000000
 11
363.8062224743960
 21
153.8536609155296
 31
0.000000000000000
  0
LINE
  5
AB
100
AcDbEntity
  8
A1
  6
CONTINUOUS
 62
7
100
AcDbLine
 10
382.8062224743960
 20
152.8536609155296
 30
0.000000000000000
 11
382.8062224743960
 21
153.8536609155296
 31
0.000000000000000
  0
LINE
  5
AC
100
AcDbEntity
  8
A4
  6
CENTER
 62
1
100
AcDbLine
 10
384.8062224743960
 20
153.3536609155295
 30
0.000000000000000
 11
361.8062224743960
 21
153.3536609155295
 31
0.000000000000000
  0
LINE
  5
AD
100
AcDbEntity
  8
A1
  6
CONTINUOUS
 62
7
100
AcDbLine
 10
379.4562164743961
 20
152.3536609155295
 30
0.000000000000000
 11
373.8062224743959
 21
152.3536609155295
 31
0.000000000000000
  0
LINE
  5
AE
100
AcDbEntity
  8
A1
  6
CONTINUOUS
 62
7
100
AcDbLine
 10
379.4562164743961
 20
154.3536609155295
 30
0.000000000000000
 11
373.8062224743959
 21
154.3536609155295
 31
0.000000000000000
  0
LINE
  5
AF
100
AcDbEntity
  8
A1
  6
CONTINUOUS
 62
7
100
AcDbLine
 10
367.1562284743960
 20
165.7145929155295
 30
0.000000000000000
 11
379.4562164743961
 21
165.7145929155295
 31
0.000000000000000
  0
LINE
  5
B0
100
AcDbEntity
  8
A1
  6
CONTINUOUS
 62
7
100
AcDbLine
 10
367.1562284743960
 20
164.1628959155296
 30
0.000000000000000
 11
379.4562164743961
 21
164.1628959155296
 31
0.000000000000000
  0
LINE
  5
B1
100
AcDbEntity
  8
A1
  6
CONTINUOUS
 62
7
100
AcDbLine
 10
44.40826247439607
 20
132.3239069155294
 30
0.000000000000000
 11
44.40826247439607
 21
146.3239069155296
 31
0.000000000000000
  0
LINE
  5
B2
100
AcDbEntity
  8
A1
  6
CONTINUOUS
 62
7
100
AcDbLine
 10
42.40826247439607
 20
132.3239069155294
 30
0.000000000000000
 11
42.40826247439607
 21
146.3239069155296
 31
0.000000000000000
  0
LINE
  5
B3
100
AcDbEntity
  8
A1
  6
CONTINUOUS
 62
7
100
AcDbLine
 10
255.7727444743960
 20
132.3239069155294
 30
0.000000000000000
 11
255.7727444743960
 21
146.3239069155296
 31
0.000000000000000
  0
LINE
  5
B4
100
AcDbEntity
  8
A1
  6
CONTINUOUS
 62
7
100
AcDbLine
 10
257.7727444743959
 20
132.3239069155294
 30
0.000000000000000
 11
257.7727444743959
 21
146.3239069155296
 31
0.000000000000000
  0
LINE
  5
B5
100
AcDbEntity
  8
A1
  6
CONTINUOUS
 62
7
100
AcDbLine
 10
367.1562284743960
 20
147.3239069155296
 30
0.000000000000000
 11
368.1062104743961
 21
147.3239069155296
 31
0.000000000000000
  0
LINE
  5
B6
100
AcDbEntity
  8
A1
  6
CONTINUOUS
 62
7
100
AcDbLine
 10
367.1562284743960
 20
145.3239069155296
 30
0.000000000000000
 11
368.1062104743961
 21
145.3239069155296
 31
0.000000000000000
  0
LINE
  5
B7
100
AcDbEntity
  8
A1
  6
CONTINUOUS
 62
7
100
AcDbLine
 10
379.4562164743961
 20
147.3239069155296
 30
0.000000000000000
 11
378.5062344743960
 21
147.3239069155296
 31
0.000000000000000
  0
LINE
  5
B8
100
AcDbEntity
  8
A1
  6
CONTINUOUS
 62
7
100
AcDbLine
 10
379.4562164743961
 20
145.3239069155296
 30
0.000000000000000
 11
378.5062344743960
 21
145.3239069155296
 31
0.000000000000000
  0
LINE
  5
B9
100
AcDbEntity
  8
A1
  6
CONTINUOUS
 62
7
100
AcDbLine
 10
365.5562224743960
 20
150.3586359155295
 30
0.000000000000000
 11
367.1562284743960
 21
150.3586359155295
 31
0.000000000000000
  0
LINE
  5
BA
100
AcDbEntity
  8
A1
  6
CONTINUOUS
 62
7
100
AcDbLine
 10
379.4562164743961
 20
150.3586359155295
 30
0.000000000000000
 11
381.0562224743960
 21
150.3586359155295
 31
0.000000000000000
  0
LINE
  5
BB
100
AcDbEntity
  8
A1
  6
CONTINUOUS
 62
7
100
AcDbLine
 10
372.8062224743959
 20
154.3536609155295
 30
0.000000000000000
 11
367.1562284743960
 21
154.3536609155295
 31
0.000000000000000
  0
LINE
  5
BC
100
AcDbEntity
  8
A1
  6
CONTINUOUS
 62
7
100
AcDbLine
 10
372.8062224743959
 20
152.3536609155295
 30
0.000000000000000
 11
367.1562284743960
 21
152.3536609155295
 31
0.000000000000000
  0
LINE
  5
BD
100
AcDbEntity
  8
A1
  6
CONTINUOUS
 62
7
100
AcDbLine
 10
373.8062224743959
 20
130.3239069155294
 30
0.000000000000000
 11
381.3062224743960
 21
130.3239069155294
 31
0.000000000000000
  0
LINE
  5
BE
100
AcDbEntity
  8
A1
  6
CONTINUOUS
 62
7
100
AcDbLine
 10
373.8062224743959
 20
133.3239069155294
 30
0.000000000000000
 11
381.3062224743960
 21
133.3239069155294
 31
0.000000000000000
  0
ARC
  5
BF
100
AcDbEntity
  8
A1
  6
CONTINUOUS
 62
7
100
AcDbCircle
 10
254.7727444743960
 20
146.3239069155296
 30
0.000000000000000
 40
3.500000000000000
100
AcDbArc
 50
90.00000300000002
 51
180.0000050000000
  0
ARC
  5
C0
100
AcDbEntity
  8
A1
  6
CONTINUOUS
 62
7
100
AcDbCircle
 10
267.2727444743959
 20
131.8239069155296
 30
0.000000000000000
 40
1.600000000000000
100
AcDbArc
 50
34.22886500000000
 51
145.7711399999998
  0
ARC
  5
C1
100
AcDbEntity
  8
A1
  6
CONTINUOUS
 62
7
100
AcDbCircle
 10
32.90826247439607
 20
131.8239069155296
 30
0.000000000000000
 40
1.600000000000000
100
AcDbArc
 50
34.22886500000000
 51
145.7711399999998
  0
ARC
  5
C2
100
AcDbEntity
  8
A1
  6
CONTINUOUS
 62
7
100
AcDbCircle
 10
45.40826247439607
 20
146.3239069155296
 30
0.000000000000000
 40
3.500000000000000
100
AcDbArc
 50
0.000000000000000
 51
90.00000300000002
  0
ARC
  5
C3
100
AcDbEntity
  8
A1
  6
CONTINUOUS
 62
7
100
AcDbCircle
 10
256.7727444743959
 20
146.3239069155296
 30
0.000000000000000
 40
1.100000000000000
100
AcDbArc
 50
0.000000000000000
 51
204.6199820000000
  0
ARC
  5
C4
100
AcDbEntity
  8
A1
  6
CONTINUOUS
 62
7
100
AcDbCircle
 10
388.3062224743960
 20
141.3239069155296
 30
0.000000000000000
 40
2.500000000000000
100
AcDbArc
 50
0.000000000000000
 51
180.0000050000000
  0
ARC
  5
C5
100
AcDbEntity
  8
A1
  6
CONTINUOUS
 62
7
100
AcDbCircle
 10
358.3062224743960
 20
134.3239069155294
 30
0.000000000000000
 40
2.500000000000000
100
AcDbArc
 50
179.9999909999999
 51
360.0000100000000
  0
ARC
  5
C6
100
AcDbEntity
  8
A1
  6
CONTINUOUS
 62
7
100
AcDbCircle
 10
388.3062224743960
 20
134.3239069155294
 30
0.000000000000000
 40
2.500000000000000
100
AcDbArc
 50
179.9999909999999
 51
360.0000100000000
  0
ARC
  5
C7
100
AcDbEntity
  8
A1
  6
CONTINUOUS
 62
7
100
AcDbCircle
 10
358.3062224743960
 20
141.3239069155296
 30
0.000000000000000
 40
2.500000000000000
100
AcDbArc
 50
0.000000000000000
 51
180.0000050000000
  0
ARC
  5
C8
100
AcDbEntity
  8
A1
  6
CONTINUOUS
 62
7
100
AcDbCircle
 10
373.3062224743959
 20
147.3239069155296
 30
0.000000000000000
 40
10.00000000000000
100
AcDbArc
 50
232.0480859999999
 51
249.5552132464206
  0
ARC
  5
C9
100
AcDbEntity
  8
A1
  6
CONTINUOUS
 62
7
100
AcDbCircle
 10
390.8062224743960
 20
122.3239069155296
 30
0.000000000000000
 40
2.500000000000000
100
AcDbArc
 50
269.9999969999999
 51
360.0000000000000
  0
ARC
  5
CA
100
AcDbEntity
  8
A1
  6
CONTINUOUS
 62
7
100
AcDbCircle
 10
390.8062224743960
 20
147.3239069155296
 30
0.000000000000000
 40
2.500000000000000
100
AcDbArc
 50
0.000000000000000
 51
90.00000300000002
  0
ARC
  5
CB
100
AcDbEntity
  8
A1
  6
CONTINUOUS
 62
7
100
AcDbCircle
 10
355.8062224743960
 20
122.3239069155296
 30
0.000000000000000
 40
2.500000000000000
100
AcDbArc
 50
179.9999909999999
 51
270.0000010000000
  0
ARC
  5
CC
100
AcDbEntity
  8
A1
  6
CONTINUOUS
 62
7
100
AcDbCircle
 10
355.8062224743960
 20
147.3239069155296
 30
0.000000000000000
 40
2.500000000000000
100
AcDbArc
 50
90.00000300000002
 51
180.0000050000000
  0
ARC
  5
CD
100
AcDbEntity
  8
A1
  6
CONTINUOUS
 62
7
100
AcDbCircle
 10
267.2727444743959
 20
131.8239069155296
 30
0.000000000000000
 40
1.500000000000000
100
AcDbArc
 50
216.8699029999999
 51
323.1301029999998
  0
ARC
  5
CE
100
AcDbEntity
  8
A1
  6
CONTINUOUS
 62
7
100
AcDbCircle
 10
255.7727444743960
 20
127.3239069155296
 30
0.000000000000000
 40
2.000000000000000
100
AcDbArc
 50
269.9999969999999
 51
360.0000000000000
  0
ARC
  5
CF
100
AcDbEntity
  8
A1
  6
CONTINUOUS
 62
7
100
AcDbCircle
 10
256.7727444743959
 20
146.3239069155296
 30
0.000000000000000
 40
1.000000000000000
100
AcDbArc
 50
0.000000000000000
 51
180.0000050000000
  0
ARC
  5
D0
100
AcDbEntity
  8
A1
  6
CONTINUOUS
 62
7
100
AcDbCircle
 10
44.40826247439607
 20
127.3239069155296
 30
0.000000000000000
 40
2.000000000000000
100
AcDbArc
 50
179.9999909999999
 51
270.0000010000000
  0
ARC
  5
D1
100
AcDbEntity
  8
A1
  6
CONTINUOUS
 62
7
100
AcDbCircle
 10
43.40826247439607
 20
146.3239069155296
 30
0.000000000000000
 40
1.000000000000000
100
AcDbArc
 50
0.000000000000000
 51
180.0000050000000
  0
ARC
  5
D2
100
AcDbEntity
  8
A1
  6
CONTINUOUS
 62
7
100
AcDbCircle
 10
43.40826247439607
 20
146.3239069155296
 30
0.000000000000000
 40
6.000000000000000
100
AcDbArc
 50
336.4435360000000
 51
390.1271830000001
  0
ARC
  5
D3
100
AcDbEntity
  8
A1
  6
CONTINUOUS
 62
7
100
AcDbCircle
 10
43.40826247439607
 20
146.3239069155296
 30
0.000000000000000
 40
1.100000000000000
100
AcDbArc
 50
335.3800230000000
 51
564.6199819999999
  0
ARC
  5
D4
100
AcDbEntity
  8
A1
  6
CONTINUOUS
 62
7
100
AcDbCircle
 10
267.2727444743959
 20
131.8239069155296
 30
0.000000000000000
 40
1.750000000000000
100
AcDbArc
 50
149.0502730000000
 51
210.9497230000000
  0
ARC
  5
D5
100
AcDbEntity
  8
A1
  6
CONTINUOUS
 62
7
100
AcDbCircle
 10
267.2727444743959
 20
131.8239069155296
 30
0.000000000000000
 40
1.750000000000000
100
AcDbArc
 50
329.0502780000000
 51
390.9497220000000
  0
ARC
  5
D6
100
AcDbEntity
  8
A1
  6
CONTINUOUS
 62
7
100
AcDbCircle
 10
267.2727444743959
 20
131.8239069155296
 30
0.000000000000000
 40
1.500000000000000
100
AcDbArc
 50
36.86989699999998
 51
143.1300970000000
  0
ARC
  5
D7
100
AcDbEntity
  8
A1
  6
CONTINUOUS
 62
7
100
AcDbCircle
 10
32.90826247439607
 20
131.8239069155296
 30
0.000000000000000
 40
1.750000000000000
100
AcDbArc
 50
149.0502730000000
 51
210.9497230000000
  0
ARC
  5
D8
100
AcDbEntity
  8
A1
  6
CONTINUOUS
 62
7
100
AcDbCircle
 10
32.90826247439607
 20
131.8239069155296
 30
0.000000000000000
 40
1.500000000000000
100
AcDbArc
 50
36.86989699999998
 51
143.1300970000000
  0
ARC
  5
D9
100
AcDbEntity
  8
A1
  6
CONTINUOUS
 62
7
100
AcDbCircle
 10
32.90826247439607
 20
131.8239069155296
 30
0.000000000000000
 40
1.750000000000000
100
AcDbArc
 50
329.0502780000000
 51
390.9497220000000
  0
ARC
  5
DA
100
AcDbEntity
  8
A1
  6
CONTINUOUS
 62
7
100
AcDbCircle
 10
32.90826247439607
 20
131.8239069155296
 30
0.000000000000000
 40
1.500000000000000
100
AcDbArc
 50
216.8699029999999
 51
323.1301029999998
  0
ARC
  5
DB
100
AcDbEntity
  8
A1
  6
CONTINUOUS
 62
7
100
AcDbCircle
 10
256.7727444743959
 20
146.3239069155296
 30
0.000000000000000
 40
6.000000000000000
100
AcDbArc
 50
149.8728319999999
 51
203.5564640000000
  0
ARC
  5
DC
100
AcDbEntity
  8
A1
  6
CONTINUOUS
 62
7
100
AcDbCircle
 10
38.77893947439607
 20
152.3088369155296
 30
0.000000000000000
 40
1.100000000000000
100
AcDbArc
 50
223.0491199999999
 51
348.9777409999998
  0
ARC
  5
DD
100
AcDbEntity
  8
A1
  6
CONTINUOUS
 62
7
100
AcDbCircle
 10
38.77893947439607
 20
152.3088369155296
 30
0.000000000000000
 40
1.000000000000000
100
AcDbArc
 50
226.0134359999999
 51
346.0134319999998
  0
ARC
  5
DE
100
AcDbEntity
  8
A1
  6
CONTINUOUS
 62
7
100
AcDbCircle
 10
38.77893947439607
 20
152.3088369155296
 30
0.000000000000000
 40
1.250000000000000
100
AcDbArc
 50
172.4352559999999
 51
219.5916060000000
  0
ARC
  5
DF
100
AcDbEntity
  8
A1
  6
CONTINUOUS
 62
7
100
AcDbCircle
 10
38.77893947439607
 20
152.3088369155296
 30
0.000000000000000
 40
1.250000000000000
100
AcDbArc
 50
352.4352549999999
 51
399.5916120000001
  0
ARC
  5
E0
100
AcDbEntity
  8
A1
  6
CONTINUOUS
 62
7
100
AcDbCircle
 10
38.77893947439607
 20
152.3088369155296
 30
0.000000000000000
 40
1.000000000000000
100
AcDbArc
 50
46.01343400000000
 51
166.0134310000000
  0
ARC
  5
E1
100
AcDbEntity
  8
A1
  6
CONTINUOUS
 62
7
100
AcDbCircle
 10
38.77893947439607
 20
152.3088369155296
 30
0.000000000000000
 40
1.100000000000000
100
AcDbArc
 50
43.04912499999999
 51
168.9777459999999
  0
ARC
  5
E2
100
AcDbEntity
  8
A1
  6
CONTINUOUS
 62
7
100
AcDbCircle
 10
261.4020694743959
 20
152.3088369155296
 30
0.000000000000000
 40
1.100000000000000
100
AcDbArc
 50
11.02227199999999
 51
136.9508929999998
  0
ARC
  5
E3
100
AcDbEntity
  8
A1
  6
CONTINUOUS
 62
7
100
AcDbCircle
 10
261.4020694743959
 20
152.3088369155296
 30
0.000000000000000
 40
1.000000000000000
100
AcDbArc
 50
13.98658099999999
 51
133.9865770000000
  0
ARC
  5
E4
100
AcDbEntity
  8
A1
  6
CONTINUOUS
 62
7
100
AcDbCircle
 10
261.4020694743959
 20
152.3088369155296
 30
0.000000000000000
 40
1.250000000000000
100
AcDbArc
 50
140.4084029999999
 51
187.5647529999999
  0
ARC
  5
E5
100
AcDbEntity
  8
A1
  6
CONTINUOUS
 62
7
100
AcDbCircle
 10
261.4020694743959
 20
152.3088369155296
 30
0.000000000000000
 40
1.250000000000000
100
AcDbArc
 50
320.4084009999998
 51
367.5647580000000
  0
ARC
  5
E6
100
AcDbEntity
  8
A1
  6
CONTINUOUS
 62
7
100
AcDbCircle
 10
261.4020694743959
 20
152.3088369155296
 30
0.000000000000000
 40
1.000000000000000
100
AcDbArc
 50
193.9865819999999
 51
313.9865789999999
  0
ARC
  5
E7
100
AcDbEntity
  8
A1
  6
CONTINUOUS
 62
7
100
AcDbCircle
 10
261.4020694743959
 20
152.3088369155296
 30
0.000000000000000
 40
1.100000000000000
100
AcDbArc
 50
191.0222669999999
 51
316.9508879999999
  0
ARC
  5
E8
100
AcDbEntity
  8
A1
  6
CONTINUOUS
 62
7
100
AcDbCircle
 10
367.1562284743960
 20
166.5530779155296
 30
0.000000000000000
 40
1.600000000000000
100
AcDbArc
 50
90.00000300000002
 51
180.0000050000000
  0
ARC
  5
E9
100
AcDbEntity
  8
A1
  6
CONTINUOUS
 62
7
100
AcDbCircle
 10
379.4562164743961
 20
166.5530779155296
 30
0.000000000000000
 40
1.600000000000000
100
AcDbArc
 50
0.000000000000000
 51
90.00000300000002
  0
ARC
  5
EA
100
AcDbEntity
  8
A1
  6
CONTINUOUS
 62
7
100
AcDbCircle
 10
367.1562284743960
 20
164.1145869155295
 30
0.000000000000000
 40
1.600000000000000
100
AcDbArc
 50
90.00000300000002
 51
180.0000050000000
  0
ARC
  5
EB
100
AcDbEntity
  8
A1
  6
CONTINUOUS
 62
7
100
AcDbCircle
 10
379.4562164743961
 20
164.1145869155295
 30
0.000000000000000
 40
1.600000000000000
100
AcDbArc
 50
0.000000000000000
 51
90.00000300000002
  0
ARC
  5
EC
100
AcDbEntity
  8
A1
  6
CONTINUOUS
 62
7
100
AcDbCircle
 10
256.7727444743959
 20
146.3239069155296
 30
0.000000000000000
 40
1.100000000000000
100
AcDbArc
 50
335.3800230000000
 51
360.0000000000000
  0
ARC
  5
ED
100
AcDbEntity
  8
A1
  6
CONTINUOUS
 62
7
100
AcDbCircle
 10
32.90826247439607
 20
131.8239069155296
 30
0.000000000000000
 40
1.600000000000000
100
AcDbArc
 50
214.2288599999999
 51
325.7711350000000
  0
ARC
  5
EE
100
AcDbEntity
  8
A1
  6
CONTINUOUS
 62
7
100
AcDbCircle
 10
267.2727444743959
 20
131.8239069155296
 30
0.000000000000000
 40
1.600000000000000
100
AcDbArc
 50
214.2288599999999
 51
325.7711350000000
  0
ARC
  5
EF
100
AcDbEntity
  8
A1
  6
CONTINUOUS
 62
7
100
AcDbCircle
 10
261.4916564743961
 20
150.9117039155295
 30
0.000000000000000
 40
3.600000000000000
100
AcDbArc
 50
342.4122650000000
 51
381.7741610000000
  0
ARC
  5
F0
100
AcDbEntity
  8
A1
  6
CONTINUOUS
 62
7
100
AcDbCircle
 10
261.4916564743961
 20
150.9117039155295
 30
0.000000000000000
 40
2.399999999999999
100
AcDbArc
 50
333.0476889999999
 51
352.1249669999999
  0
ARC
  5
F1
100
AcDbEntity
  8
A1
  6
CONTINUOUS
 62
7
100
AcDbCircle
 10
373.3062224743959
 20
147.3239069155296
 30
0.000000000000000
 40
10.00000000000000
100
AcDbArc
 50
288.0277821320854
 51
307.9519199999999
  0
ARC
  5
F2
100
AcDbEntity
  8
A1
  6
CONTINUOUS
 62
7
100
AcDbCircle
 10
38.68935347439606
 20
150.9117039155295
 30
0.000000000000000
 40
3.600000000000000
100
AcDbArc
 50
158.2258539999999
 51
197.5877350000000
  0
ARC
  5
F3
100
AcDbEntity
  8
A1
  6
CONTINUOUS
 62
7
100
AcDbCircle
 10
38.68935347439606
 20
150.9117039155295
 30
0.000000000000000
 40
2.399999999999999
100
AcDbArc
 50
187.8750489999999
 51
206.9523100000000
  0
LINE
  5
F4
100
AcDbEntity
  8
A1
  6
CONTINUOUS
 62
7
100
AcDbLine
 10
372.8062224743959
 20
154.8536609155295
 30
0.000000000000000
 11
372.8062224743959
 21
151.8536609155295
 31
0.000000000000000
  0
LINE
  5
F5
100
AcDbEntity
  8
A1
  6
CONTINUOUS
 62
7
100
AcDbLine
 10
373.8062224743959
 20
154.8536609155295
 30
0.000000000000000
 11
373.8062224743959
 21
151.8536609155295
 31
0.000000000000000
  0
ARC
  5
F6
100
AcDbEntity
  8
A1
  6
CONTINUOUS
 62
7
100
AcDbCircle
 10
373.3062224743959
 20
129.8239069155294
 30
0.000000000000000
 40
0.5000000000000000
100
AcDbArc
 50
180.0000000000000
 51
360.0000000000000
  0
ARC
  5
F7
100
AcDbEntity
  8
A1
  6
CONTINUOUS
 62
7
100
AcDbCircle
 10
373.3062224743959
 20
154.8536609155295
 30
0.000000000000000
 40
0.5000000000000000
100
AcDbArc
 50
0.000000000000000
 51
180.0000000000000
  0
LINE
  5
F8
100
AcDbEntity
  8
A1
  6
CONTINUOUS
 62
7
100
AcDbLine
 10
372.8062224743959
 20
151.8536609155295
 30
0.000000000000000
 11
373.8062224743959
 21
151.8536609155295
 31
0.000000000000000
  0
LINE
  5
F9
100
AcDbEntity
  8
A1
  6
CONTINUOUS
 62
7
100
AcDbLine
 10
372.8062224743959
 20
129.8239069155294
 30
0.000000000000000
 11
372.8062224743959
 21
133.6743652617598
 31
0.000000000000000
  0
LINE
  5
FA
100
AcDbEntity
  8
A1
  6
CONTINUOUS
 62
7
100
AcDbLine
 10
373.8062224743959
 20
129.8239069155294
 30
0.000000000000000
 11
373.8062224743959
 21
133.6743652617598
 31
0.000000000000000
  0
ARC
  5
FB
100
AcDbEntity
  8
A1
  6
CONTINUOUS
 62
7
100
AcDbCircle
 10
376.3062224743959
 20
149.3536609155295
 30
0.000000000000000
 40
0.5000000000000000
100
AcDbArc
 50
275.2072377762024
 51
455.2072377762024
  0
ARC
  5
FC
100
AcDbEntity
  8
A1
  6
CONTINUOUS
 62
7
100
AcDbCircle
 10
376.3062224743959
 20
148.2600469155295
 30
0.000000000000000
 40
0.5000000000000000
100
AcDbArc
 50
275.2072377762021
 51
455.2072377762024
  0
ARC
  5
FD
100
AcDbEntity
  8
A1
  6
CONTINUOUS
 62
7
100
AcDbCircle
 10
370.3062224743958
 20
148.8068539155295
 30
0.000000000000000
 40
0.5000000000000000
100
AcDbArc
 50
95.20723777620239
 51
275.2072377762024
  0
ARC
  5
FE
100
AcDbEntity
  8
A1
  6
CONTINUOUS
 62
7
100
AcDbCircle
 10
370.3062224743958
 20
147.7132399155295
 30
0.000000000000000
 40
0.5000000000000000
100
AcDbArc
 50
95.20723777620239
 51
275.2072377762024
  0
LINE
  5
FF
100
AcDbEntity
  8
A1
  6
CONTINUOUS
 62
7
100
AcDbLine
 10
376.2608432830937
 20
149.8515973863737
 30
0.000000000000000
 11
370.2608432830936
 21
149.3047903863737
 31
0.000000000000000
  0
LINE
  5
100
100
AcDbEntity
  8
A1
  6
CONTINUOUS
 62
7
100
AcDbLine
 10
376.3516016656981
 20
148.8557244446853
 30
0.000000000000000
 11
370.3516016656980
 21
148.3089174446853
 31
0.000000000000000
  0
LINE
  5
101
100
AcDbEntity
  8
A1
  6
CONTINUOUS
 62
7
100
AcDbLine
 10
375.8153554674327
 20
148.8068539155295
 30
0.000000000000000
 11
376.3516016656980
 21
148.7579833863737
 31
0.000000000000000
  0
LINE
  5
102
100
AcDbEntity
  8
A1
  6
CONTINUOUS
 62
7
100
AcDbLine
 10
370.7970894813588
 20
148.2600469155295
 30
0.000000000000000
 11
370.2608432830937
 21
148.3089174446853
 31
0.000000000000000
  0
LINE
  5
103
100
AcDbEntity
  8
A1
  6
CONTINUOUS
 62
7
100
AcDbLine
 10
376.2608432830937
 20
148.7579833863737
 30
0.000000000000000
 11
370.2608432830937
 21
148.2111763863737
 31
0.000000000000000
  0
LINE
  5
104
100
AcDbEntity
  8
A1
  6
CONTINUOUS
 62
7
100
AcDbLine
 10
370.3516016656980
 20
147.2153034446853
 30
0.000000000000000
 11
376.3516016656981
 21
147.7621104446853
 31
0.000000000000000
  0
LINE
  5
105
100
AcDbEntity
  8
A1
  6
CONTINUOUS
 62
7
100
AcDbLine
 10
370.3516016656979
 20
146.1216894446852
 30
0.000000000000000
 11
376.3516016656980
 21
146.6684964446852
 31
0.000000000000000
  0
ARC
  5
106
100
AcDbEntity
  8
A1
  6
CONTINUOUS
 62
7
100
AcDbCircle
 10
376.3062224743959
 20
147.1664329155295
 30
0.000000000000000
 40
0.5000000000000000
100
AcDbArc
 50
275.2072377762021
 51
455.2072377762024
  0
LINE
  5
107
100
AcDbEntity
  8
A1
  6
CONTINUOUS
 62
7
100
AcDbLine
 10
376.2608432830937
 20
147.6643693863737
 30
0.000000000000000
 11
370.2608432830936
 21
147.1175623863737
 31
0.000000000000000
  0
ARC
  5
108
100
AcDbEntity
  8
A1
  6
CONTINUOUS
 62
7
100
AcDbCircle
 10
370.3062224743958
 20
146.6196259155295
 30
0.000000000000000
 40
0.5000000000000000
100
AcDbArc
 50
95.20723777620239
 51
275.2072377762024
  0
LINE
  5
109
100
AcDbEntity
  8
A1
  6
CONTINUOUS
 62
7
100
AcDbLine
 10
370.7970894813587
 20
147.1664329155295
 30
0.000000000000000
 11
370.2608432830936
 21
147.2153034446853
 31
0.000000000000000
  0
LINE
  5
10A
100
AcDbEntity
  8
A1
  6
CONTINUOUS
 62
7
100
AcDbLine
 10
375.8153554674327
 20
147.7132399155294
 30
0.000000000000000
 11
376.3516016656980
 21
147.6643693863737
 31
0.000000000000000
  0
LINE
  5
10B
100
AcDbEntity
  8
A1
  6
CONTINUOUS
 62
7
100
AcDbLine
 10
370.3516016656980
 20
145.0280754446852
 30
0.000000000000000
 11
376.3516016656980
 21
145.5748824446852
 31
0.000000000000000
  0
ARC
  5
10C
100
AcDbEntity
  8
A1
  6
CONTINUOUS
 62
7
100
AcDbCircle
 10
376.3062224743959
 20
146.0728189155295
 30
0.000000000000000
 40
0.5000000000000000
100
AcDbArc
 50
275.2072377762021
 51
455.2072377762024
  0
LINE
  5
10D
100
AcDbEntity
  8
A1
  6
CONTINUOUS
 62
7
100
AcDbLine
 10
376.2608432830936
 20
146.5707553863737
 30
0.000000000000000
 11
370.2608432830937
 21
146.0239483863737
 31
0.000000000000000
  0
ARC
  5
10E
100
AcDbEntity
  8
A1
  6
CONTINUOUS
 62
7
100
AcDbCircle
 10
370.3062224743958
 20
145.5260119155295
 30
0.000000000000000
 40
0.5000000000000000
100
AcDbArc
 50
95.20723777620239
 51
275.2072377762024
  0
LINE
  5
10F
100
AcDbEntity
  8
A1
  6
CONTINUOUS
 62
7
100
AcDbLine
 10
370.7970894813588
 20
146.0728189155295
 30
0.000000000000000
 11
370.2608432830937
 21
146.1216894446853
 31
0.000000000000000
  0
LINE
  5
110
100
AcDbEntity
  8
A1
  6
CONTINUOUS
 62
7
100
AcDbLine
 10
375.8153554674328
 20
146.6196259155294
 30
0.000000000000000
 11
376.3516016656980
 21
146.5707553863736
 31
0.000000000000000
  0
LINE
  5
111
100
AcDbEntity
  8
A1
  6
CONTINUOUS
 62
7
100
AcDbLine
 10
370.3516016656979
 20
143.9344614446852
 30
0.000000000000000
 11
376.3516016656980
 21
144.4812684446852
 31
0.000000000000000
  0
ARC
  5
112
100
AcDbEntity
  8
A1
  6
CONTINUOUS
 62
7
100
AcDbCircle
 10
376.3062224743959
 20
144.9792049155295
 30
0.000000000000000
 40
0.5000000000000000
100
AcDbArc
 50
275.2072377762021
 51
455.2072377762024
  0
LINE
  5
113
100
AcDbEntity
  8
A1
  6
CONTINUOUS
 62
7
100
AcDbLine
 10
376.2608432830936
 20
145.4771413863737
 30
0.000000000000000
 11
370.2608432830935
 21
144.9303343863737
 31
0.000000000000000
  0
ARC
  5
114
100
AcDbEntity
  8
A1
  6
CONTINUOUS
 62
7
100
AcDbCircle
 10
370.3062224743958
 20
144.4323979155295
 30
0.000000000000000
 40
0.5000000000000000
100
AcDbArc
 50
95.20723777620239
 51
275.2072377762024
  0
LINE
  5
115
100
AcDbEntity
  8
A1
  6
CONTINUOUS
 62
7
100
AcDbLine
 10
370.7970894813588
 20
144.9792049155295
 30
0.000000000000000
 11
370.2608432830937
 21
145.0280754446853
 31
0.000000000000000
  0
LINE
  5
116
100
AcDbEntity
  8
A1
  6
CONTINUOUS
 62
7
100
AcDbLine
 10
375.8153554674328
 20
145.5260119155294
 30
0.000000000000000
 11
376.3516016656981
 21
145.4771413863736
 31
0.000000000000000
  0
LINE
  5
117
100
AcDbEntity
  8
A1
  6
CONTINUOUS
 62
7
100
AcDbLine
 10
370.3516016656979
 20
142.8408474446852
 30
0.000000000000000
 11
376.3516016656980
 21
143.3876544446852
 31
0.000000000000000
  0
ARC
  5
118
100
AcDbEntity
  8
A1
  6
CONTINUOUS
 62
7
100
AcDbCircle
 10
376.3062224743959
 20
143.8855909155295
 30
0.000000000000000
 40
0.5000000000000000
100
AcDbArc
 50
275.2072377762021
 51
455.2072377762024
  0
LINE
  5
119
100
AcDbEntity
  8
A1
  6
CONTINUOUS
 62
7
100
AcDbLine
 10
376.2608432830936
 20
144.3835273863736
 30
0.000000000000000
 11
370.2608432830936
 21
143.8367203863736
 31
0.000000000000000
  0
ARC
  5
11A
100
AcDbEntity
  8
A1
  6
CONTINUOUS
 62
7
100
AcDbCircle
 10
370.3062224743958
 20
143.3387839155295
 30
0.000000000000000
 40
0.5000000000000000
100
AcDbArc
 50
95.20723777620239
 51
275.2072377762024
  0
LINE
  5
11B
100
AcDbEntity
  8
A1
  6
CONTINUOUS
 62
7
100
AcDbLine
 10
370.7970894813587
 20
143.8855909155295
 30
0.000000000000000
 11
370.2608432830936
 21
143.9344614446853
 31
0.000000000000000
  0
LINE
  5
11C
100
AcDbEntity
  8
A1
  6
CONTINUOUS
 62
7
100
AcDbLine
 10
375.8153554674328
 20
144.4323979155294
 30
0.000000000000000
 11
376.3516016656981
 21
144.3835273863736
 31
0.000000000000000
  0
LINE
  5
11D
100
AcDbEntity
  8
A1
  6
CONTINUOUS
 62
7
100
AcDbLine
 10
370.3516016656978
 20
141.7472334446852
 30
0.000000000000000
 11
376.3516016656979
 21
142.2940404446852
 31
0.000000000000000
  0
ARC
  5
11E
100
AcDbEntity
  8
A1
  6
CONTINUOUS
 62
7
100
AcDbCircle
 10
376.3062224743959
 20
142.7919769155294
 30
0.000000000000000
 40
0.5000000000000000
100
AcDbArc
 50
275.2072377762021
 51
455.2072377762024
  0
LINE
  5
11F
100
AcDbEntity
  8
A1
  6
CONTINUOUS
 62
7
100
AcDbLine
 10
376.2608432830936
 20
143.2899133863736
 30
0.000000000000000
 11
370.2608432830935
 21
142.7431063863736
 31
0.000000000000000
  0
ARC
  5
120
100
AcDbEntity
  8
A1
  6
CONTINUOUS
 62
7
100
AcDbCircle
 10
370.3062224743958
 20
142.2451699155294
 30
0.000000000000000
 40
0.5000000000000000
100
AcDbArc
 50
95.20723777620239
 51
275.2072377762024
  0
LINE
  5
121
100
AcDbEntity
  8
A1
  6
CONTINUOUS
 62
7
100
AcDbLine
 10
370.7970894813587
 20
142.7919769155294
 30
0.000000000000000
 11
370.2608432830936
 21
142.8408474446852
 31
0.000000000000000
  0
LINE
  5
122
100
AcDbEntity
  8
A1
  6
CONTINUOUS
 62
7
100
AcDbLine
 10
375.8153554674328
 20
143.3387839155293
 30
0.000000000000000
 11
376.3516016656981
 21
143.2899133863736
 31
0.000000000000000
  0
LINE
  5
123
100
AcDbEntity
  8
A1
  6
CONTINUOUS
 62
7
100
AcDbLine
 10
370.3516016656978
 20
140.6536194446852
 30
0.000000000000000
 11
376.3516016656980
 21
141.2004264446852
 31
0.000000000000000
  0
ARC
  5
124
100
AcDbEntity
  8
A1
  6
CONTINUOUS
 62
7
100
AcDbCircle
 10
376.3062224743959
 20
141.6983629155294
 30
0.000000000000000
 40
0.5000000000000000
100
AcDbArc
 50
275.2072377762021
 51
455.2072377762024
  0
LINE
  5
125
100
AcDbEntity
  8
A1
  6
CONTINUOUS
 62
7
100
AcDbLine
 10
376.2608432830935
 20
142.1962993863736
 30
0.000000000000000
 11
370.2608432830935
 21
141.6494923863736
 31
0.000000000000000
  0
ARC
  5
126
100
AcDbEntity
  8
A1
  6
CONTINUOUS
 62
7
100
AcDbCircle
 10
370.3062224743958
 20
141.1515559155294
 30
0.000000000000000
 40
0.5000000000000000
100
AcDbArc
 50
95.20723777620239
 51
275.2072377762024
  0
LINE
  5
127
100
AcDbEntity
  8
A1
  6
CONTINUOUS
 62
7
100
AcDbLine
 10
370.7970894813588
 20
141.6983629155294
 30
0.000000000000000
 11
370.2608432830936
 21
141.7472334446852
 31
0.000000000000000
  0
LINE
  5
128
100
AcDbEntity
  8
A1
  6
CONTINUOUS
 62
7
100
AcDbLine
 10
375.8153554674328
 20
142.2451699155294
 30
0.000000000000000
 11
376.3516016656981
 21
142.1962993863736
 31
0.000000000000000
  0
LINE
  5
129
100
AcDbEntity
  8
A1
  6
CONTINUOUS
 62
7
100
AcDbLine
 10
370.3516016656978
 20
139.5600054446852
 30
0.000000000000000
 11
376.3516016656979
 21
140.1068124446852
 31
0.000000000000000
  0
ARC
  5
12A
100
AcDbEntity
  8
A1
  6
CONTINUOUS
 62
7
100
AcDbCircle
 10
376.3062224743959
 20
140.6047489155294
 30
0.000000000000000
 40
0.5000000000000000
100
AcDbArc
 50
275.2072377762021
 51
455.2072377762024
  0
LINE
  5
12B
100
AcDbEntity
  8
A1
  6
CONTINUOUS
 62
7
100
AcDbLine
 10
376.2608432830935
 20
141.1026853863736
 30
0.000000000000000
 11
370.2608432830934
 21
140.5558783863736
 31
0.000000000000000
  0
ARC
  5
12C
100
AcDbEntity
  8
A1
  6
CONTINUOUS
 62
7
100
AcDbCircle
 10
370.3062224743958
 20
140.0579419155294
 30
0.000000000000000
 40
0.5000000000000000
100
AcDbArc
 50
95.20723777620239
 51
275.2072377762024
  0
LINE
  5
12D
100
AcDbEntity
  8
A1
  6
CONTINUOUS
 62
7
100
AcDbLine
 10
370.7970894813587
 20
140.6047489155294
 30
0.000000000000000
 11
370.2608432830936
 21
140.6536194446852
 31
0.000000000000000
  0
LINE
  5
12E
100
AcDbEntity
  8
A1
  6
CONTINUOUS
 62
7
100
AcDbLine
 10
375.8153554674329
 20
141.1515559155293
 30
0.000000000000000
 11
376.3516016656981
 21
141.1026853863735
 31
0.000000000000000
  0
LINE
  5
12F
100
AcDbEntity
  8
A1
  6
CONTINUOUS
 62
7
100
AcDbLine
 10
370.3516016656978
 20
138.4663914446852
 30
0.000000000000000
 11
376.3516016656979
 21
139.0131984446852
 31
0.000000000000000
  0
ARC
  5
130
100
AcDbEntity
  8
A1
  6
CONTINUOUS
 62
7
100
AcDbCircle
 10
376.3062224743959
 20
139.5111349155294
 30
0.000000000000000
 40
0.5000000000000000
100
AcDbArc
 50
275.2072377762021
 51
455.2072377762024
  0
LINE
  5
131
100
AcDbEntity
  8
A1
  6
CONTINUOUS
 62
7
100
AcDbLine
 10
376.2608432830935
 20
140.0090713863736
 30
0.000000000000000
 11
370.2608432830935
 21
139.4622643863736
 31
0.000000000000000
  0
ARC
  5
132
100
AcDbEntity
  8
A1
  6
CONTINUOUS
 62
7
100
AcDbCircle
 10
370.3062224743958
 20
138.9643279155294
 30
0.000000000000000
 40
0.5000000000000000
100
AcDbArc
 50
95.20723777620239
 51
275.2072377762024
  0
LINE
  5
133
100
AcDbEntity
  8
A1
  6
CONTINUOUS
 62
7
100
AcDbLine
 10
370.7970894813587
 20
139.5111349155294
 30
0.000000000000000
 11
370.2608432830936
 21
139.5600054446852
 31
0.000000000000000
  0
LINE
  5
134
100
AcDbEntity
  8
A1
  6
CONTINUOUS
 62
7
100
AcDbLine
 10
375.8153554674329
 20
140.0579419155293
 30
0.000000000000000
 11
376.3516016656982
 21
140.0090713863736
 31
0.000000000000000
  0
LINE
  5
135
100
AcDbEntity
  8
A1
  6
CONTINUOUS
 62
7
100
AcDbLine
 10
370.3516016656977
 20
137.3727774446851
 30
0.000000000000000
 11
376.3516016656978
 21
137.9195844446851
 31
0.000000000000000
  0
ARC
  5
136
100
AcDbEntity
  8
A1
  6
CONTINUOUS
 62
7
100
AcDbCircle
 10
376.3062224743959
 20
138.4175209155294
 30
0.000000000000000
 40
0.5000000000000000
100
AcDbArc
 50
275.2072377762021
 51
455.2072377762024
  0
LINE
  5
137
100
AcDbEntity
  8
A1
  6
CONTINUOUS
 62
7
100
AcDbLine
 10
376.2608432830935
 20
138.9154573863735
 30
0.000000000000000
 11
370.2608432830934
 21
138.3686503863735
 31
0.000000000000000
  0
ARC
  5
138
100
AcDbEntity
  8
A1
  6
CONTINUOUS
 62
7
100
AcDbCircle
 10
370.3062224743958
 20
137.8707139155294
 30
0.000000000000000
 40
0.5000000000000000
100
AcDbArc
 50
95.20723777620239
 51
275.2072377762024
  0
LINE
  5
139
100
AcDbEntity
  8
A1
  6
CONTINUOUS
 62
7
100
AcDbLine
 10
370.7970894813588
 20
138.4175209155294
 30
0.000000000000000
 11
370.2608432830936
 21
138.4663914446852
 31
0.000000000000000
  0
LINE
  5
13A
100
AcDbEntity
  8
A1
  6
CONTINUOUS
 62
7
100
AcDbLine
 10
375.8153554674329
 20
138.9643279155293
 30
0.000000000000000
 11
376.3516016656982
 21
138.9154573863735
 31
0.000000000000000
  0
LINE
  5
13B
100
AcDbEntity
  8
A1
  6
CONTINUOUS
 62
7
100
AcDbLine
 10
370.2608432830937
 20
137.3727774446852
 30
0.000000000000000
 11
370.7970894813589
 21
137.3239069155294
 31
0.000000000000000
  0
LINE
  5
13C
100
AcDbEntity
  8
A1
  6
CONTINUOUS
 62
7
100
AcDbLine
 10
375.8153554674327
 20
137.8707139155293
 30
0.000000000000000
 11
376.3516016656980
 21
137.8218433863735
 31
0.000000000000000
  0
ARC
  5
13D
100
AcDbEntity
  8
A1
  6
CONTINUOUS
 62
7
100
AcDbCircle
 10
376.3062224743956
 20
137.3239069155294
 30
0.000000000000000
 40
0.5000000000000000
100
AcDbArc
 50
275.2072377762021
 51
455.2072377762024
  0
LINE
  5
13E
100
AcDbEntity
  8
A1
  6
CONTINUOUS
 62
7
100
AcDbLine
 10
370.3516016656977
 20
136.2791634446851
 30
0.000000000000000
 11
376.3516016656978
 21
136.8259704446851
 31
0.000000000000000
  0
LINE
  5
13F
100
AcDbEntity
  8
A1
  6
CONTINUOUS
 62
7
100
AcDbLine
 10
376.2608432830935
 20
137.8218433863735
 30
0.000000000000000
 11
370.2608432830934
 21
137.2750363863735
 31
0.000000000000000
  0
LINE
  5
140
100
AcDbEntity
  8
A1
  6
CONTINUOUS
 62
7
100
AcDbLine
 10
375.6247057091872
 20
135.6661111451365
 30
0.000000000000000
 11
376.3516016656975
 21
135.7323564446851
 31
0.000000000000000
  0
ARC
  5
141
100
AcDbEntity
  8
A1
  6
CONTINUOUS
 62
7
100
AcDbCircle
 10
376.3062224743953
 20
136.2302929155294
 30
0.000000000000000
 40
0.5000000000000000
100
AcDbArc
 50
275.2072377762021
 51
455.2072377762024
  0
LINE
  5
142
100
AcDbEntity
  8
A1
  6
CONTINUOUS
 62
7
100
AcDbLine
 10
376.2608432830933
 20
136.7282293863735
 30
0.000000000000000
 11
375.5339473265829
 21
136.6619840868249
 31
0.000000000000000
  0
ARC
  5
143
100
AcDbEntity
  8
A1
  6
CONTINUOUS
 62
7
100
AcDbCircle
 10
375.8062224743959
 20
133.6743652617598
 30
0.000000000000000
 40
2.000000000000000
100
AcDbArc
 50
95.20723777619922
 51
180.0000000000000
  0
ARC
  5
144
100
AcDbEntity
  8
A1
  6
CONTINUOUS
 62
7
100
AcDbCircle
 10
375.8062224743959
 20
133.6743652617598
 30
0.000000000000000
 40
3.000000000000000
100
AcDbArc
 50
95.20723777619922
 51
180.0000000000000
  0
ARC
  5
145
100
AcDbEntity
  8
A1
  6
CONTINUOUS
 62
7
100
AcDbCircle
 10
370.3062224743959
 20
136.7770999155294
 30
0.000000000000000
 40
0.5000000000000000
100
AcDbArc
 50
95.20723777620239
 51
275.2072377762024
  0
LINE
  5
146
100
AcDbEntity
  8
A1
  6
CONTINUOUS
 62
7
100
AcDbLine
 10
376.3516016656975
 20
136.7282293863736
 30
0.000000000000000
 11
375.8153554674328
 21
136.7770999155293
 31
0.000000000000000
  0
LINE
  5
147
100
AcDbEntity
  8
A1
  6
CONTINUOUS
 62
7
100
AcDbLine
 10
370.2608432830935
 20
136.2791634446852
 30
0.000000000000000
 11
373.8534072692464
 21
135.9517569220891
 31
0.000000000000000
  0
LINE
  5
148
100
AcDbEntity
  8
A1
  6
CONTINUOUS
 62
7
100
AcDbLine
 10
375.6247057091874
 20
149.9178426859223
 30
0.000000000000000
 11
376.3516016656980
 21
149.8515973863737
 31
0.000000000000000
  0
ARC
  5
149
100
AcDbEntity
  8
A1
  6
CONTINUOUS
 62
7
100
AcDbCircle
 10
375.8062224743959
 20
151.9095885692990
 30
0.000000000000000
 40
2.000000000000000
100
AcDbArc
 50
180.0000000000000
 51
264.7927622238040
  0
ARC
  5
14A
100
AcDbEntity
  8
A1
  6
CONTINUOUS
 62
7
100
AcDbCircle
 10
375.8062224743959
 20
151.9095885692990
 30
0.000000000000000
 40
3.000000000000000
100
AcDbArc
 50
181.0682013870739
 51
229.3876092406277
  0
LINE
  5
14B
100
AcDbEntity
  8
A1
  6
CONTINUOUS
 62
7
100
AcDbLine
 10
122.3464604743960
 20
147.3239069155296
 30
0.000000000000000
 11
122.3464604743960
 21
122.3239069155296
 31
0.000000000000000
  0
LINE
  5
14C
100
AcDbEntity
  8
A1
  6
CONTINUOUS
 62
7
100
AcDbLine
 10
162.3464604743959
 20
147.3239069155296
 30
0.000000000000000
 11
162.3464604743959
 21
122.3239069155296
 31
0.000000000000000
  0
LINE
  5
14D
100
AcDbEntity
  8
A1
  6
CONTINUOUS
 62
7
100
AcDbLine
 10
124.8464604743960
 20
149.8239069155294
 30
0.000000000000000
 11
134.3464604743959
 21
149.8239069155294
 31
0.000000000000000
  0
LINE
  5
14E
100
AcDbEntity
  8
A1
  6
CONTINUOUS
 62
7
100
AcDbLine
 10
124.8464604743960
 20
119.8239069155296
 30
0.000000000000000
 11
159.8464604743961
 21
119.8239069155296
 31
0.000000000000000
  0
LINE
  5
14F
100
AcDbEntity
  8
A4
  6
CENTER
 62
1
100
AcDbLine
 10
142.3464604743960
 20
173.1530689155295
 30
0.000000000000000
 11
142.3464604743960
 21
114.8239069155296
 31
0.000000000000000
  0
LINE
  5
150
100
AcDbEntity
  8
A1
  6
CONTINUOUS
 62
7
100
AcDbLine
 10
134.3464604743959
 20
149.8239069155294
 30
0.000000000000000
 11
134.3464604743959
 21
139.8239069155296
 31
0.000000000000000
  0
LINE
  5
151
100
AcDbEntity
  8
A1
  6
CONTINUOUS
 62
7
100
AcDbLine
 10
150.3464604743961
 20
149.8239069155294
 30
0.000000000000000
 11
150.3464604743961
 21
139.8239069155296
 31
0.000000000000000
  0
LINE
  5
152
100
AcDbEntity
  8
A1
  6
CONTINUOUS
 62
7
100
AcDbLine
 10
133.1464474743960
 20
139.8239069155296
 30
0.000000000000000
 11
135.7320804743961
 21
139.8239069155296
 31
0.000000000000000
  0
LINE
  5
153
100
AcDbEntity
  8
A1
  6
CONTINUOUS
 62
7
100
AcDbLine
 10
150.3464604743961
 20
149.8239069155294
 30
0.000000000000000
 11
159.8464604743961
 21
149.8239069155294
 31
0.000000000000000
  0
LINE
  5
154
100
AcDbEntity
  8
A1
  6
CONTINUOUS
 62
7
100
AcDbLine
 10
148.9608244743961
 20
139.8239069155296
 30
0.000000000000000
 11
151.5464574743960
 21
139.8239069155296
 31
0.000000000000000
  0
LINE
  5
155
100
AcDbEntity
  8
A1
  6
CONTINUOUS
 62
7
100
AcDbLine
 10
151.0964604743959
 20
132.3239069155294
 30
0.000000000000000
 11
151.0964604743959
 21
128.3239069155296
 31
0.000000000000000
  0
LINE
  5
156
100
AcDbEntity
  8
A1
  6
CONTINUOUS
 62
7
100
AcDbLine
 10
133.5964604743960
 20
132.3239069155294
 30
0.000000000000000
 11
133.5964604743960
 21
128.3239069155296
 31
0.000000000000000
  0
LINE
  5
157
100
AcDbEntity
  8
A1
  6
CONTINUOUS
 62
7
100
AcDbLine
 10
129.9464504743960
 20
132.3239069155294
 30
0.000000000000000
 11
133.5964604743960
 21
132.3239069155294
 31
0.000000000000000
  0
LINE
  5
158
100
AcDbEntity
  8
A1
  6
CONTINUOUS
 62
7
100
AcDbLine
 10
129.9464504743960
 20
128.3239069155296
 30
0.000000000000000
 11
133.5964604743960
 21
128.3239069155296
 31
0.000000000000000
  0
LINE
  5
159
100
AcDbEntity
  8
A1
  6
CONTINUOUS
 62
7
100
AcDbLine
 10
151.0964604743959
 20
132.3239069155294
 30
0.000000000000000
 11
154.7464534743961
 21
132.3239069155294
 31
0.000000000000000
  0
LINE
  5
15A
100
AcDbEntity
  8
A1
  6
CONTINUOUS
 62
7
100
AcDbLine
 10
151.0964604743959
 20
128.3239069155296
 30
0.000000000000000
 11
154.7464534743961
 21
128.3239069155296
 31
0.000000000000000
  0
LINE
  5
15B
100
AcDbEntity
  8
A1
  6
CONTINUOUS
 62
7
100
AcDbLine
 10
133.1464474743960
 20
149.8239069155294
 30
0.000000000000000
 11
133.1464474743960
 21
119.8239069155296
 31
0.000000000000000
  0
LINE
  5
15C
100
AcDbEntity
  8
A1
  6
CONTINUOUS
 62
7
100
AcDbLine
 10
151.5464574743960
 20
149.8239069155294
 30
0.000000000000000
 11
151.5464574743960
 21
119.8239069155296
 31
0.000000000000000
  0
LINE
  5
15D
100
AcDbEntity
  8
A4
  6
CENTER
 62
1
100
AcDbLine
 10
157.3464604743959
 20
145.8239069155294
 30
0.000000000000000
 11
157.3464604743959
 21
129.8239069155296
 31
0.000000000000000
  0
LINE
  5
15E
100
AcDbEntity
  8
A4
  6
CENTER
 62
1
100
AcDbLine
 10
152.8464604743960
 20
137.8239069155296
 30
0.000000000000000
 11
161.8464604743960
 21
137.8239069155296
 31
0.000000000000000
  0
LINE
  5
15F
100
AcDbEntity
  8
A1
  6
CONTINUOUS
 62
7
100
AcDbLine
 10
159.8464604743961
 20
141.3239069155296
 30
0.000000000000000
 11
159.8464604743961
 21
134.3239069155294
 31
0.000000000000000
  0
LINE
  5
160
100
AcDbEntity
  8
A1
  6
CONTINUOUS
 62
7
100
AcDbLine
 10
154.8464604743960
 20
141.3239069155296
 30
0.000000000000000
 11
154.8464604743960
 21
134.3239069155294
 31
0.000000000000000
  0
LINE
  5
161
100
AcDbEntity
  8
A1
  6
CONTINUOUS
 62
7
100
AcDbLine
 10
129.8464604743960
 20
141.3239069155296
 30
0.000000000000000
 11
129.8464604743960
 21
134.3239069155294
 31
0.000000000000000
  0
LINE
  5
162
100
AcDbEntity
  8
A1
  6
CONTINUOUS
 62
7
100
AcDbLine
 10
124.8464604743960
 20
141.3239069155296
 30
0.000000000000000
 11
124.8464604743960
 21
134.3239069155294
 31
0.000000000000000
  0
LINE
  5
163
100
AcDbEntity
  8
A4
  6
CENTER
 62
1
100
AcDbLine
 10
131.8464604743960
 20
137.8239069155296
 30
0.000000000000000
 11
122.8464604743961
 21
137.8239069155296
 31
0.000000000000000
  0
LINE
  5
164
100
AcDbEntity
  8
A4
  6
CENTER
 62
1
100
AcDbLine
 10
127.3464604743960
 20
145.8239069155294
 30
0.000000000000000
 11
127.3464604743960
 21
129.8239069155296
 31
0.000000000000000
  0
LINE
  5
165
100
AcDbEntity
  8
A1
  6
CONTINUOUS
 62
7
100
AcDbLine
 10
148.4964534743961
 20
166.6013719155296
 30
0.000000000000000
 11
148.4964534743961
 21
139.4386219155295
 31
0.000000000000000
  0
LINE
  5
166
100
AcDbEntity
  8
A1
  6
CONTINUOUS
 62
7
100
AcDbLine
 10
136.1964504743960
 20
166.6013719155296
 30
0.000000000000000
 11
136.1964504743960
 21
139.4386219155295
 31
0.000000000000000
  0
LINE
  5
167
100
AcDbEntity
  8
A1
  6
CONTINUOUS
 62
7
100
AcDbLine
 10
134.5964604743960
 20
166.5530779155296
 30
0.000000000000000
 11
134.5964604743960
 21
139.8239069155296
 31
0.000000000000000
  0
LINE
  5
168
100
AcDbEntity
  8
A1
  6
CONTINUOUS
 62
7
100
AcDbLine
 10
150.0964604743959
 20
166.5530779155296
 30
0.000000000000000
 11
150.0964604743959
 21
139.8239069155296
 31
0.000000000000000
  0
LINE
  5
169
100
AcDbEntity
  8
A1
  6
CONTINUOUS
 62
7
100
AcDbLine
 10
131.1464474743960
 20
145.3239069155296
 30
0.000000000000000
 11
131.1464474743960
 21
132.3239069155294
 31
0.000000000000000
  0
LINE
  5
16A
100
AcDbEntity
  8
A1
  6
CONTINUOUS
 62
7
100
AcDbLine
 10
137.1464474743961
 20
147.3239069155296
 30
0.000000000000000
 11
137.1464474743961
 21
145.3239069155296
 31
0.000000000000000
  0
LINE
  5
16B
100
AcDbEntity
  8
A1
  6
CONTINUOUS
 62
7
100
AcDbLine
 10
134.3464604743959
 20
145.3239069155296
 30
0.000000000000000
 11
134.5964604743960
 21
145.3239069155296
 31
0.000000000000000
  0
LINE
  5
16C
100
AcDbEntity
  8
A1
  6
CONTINUOUS
 62
7
100
AcDbLine
 10
150.3464604743961
 20
147.3239069155296
 30
0.000000000000000
 11
150.0964604743959
 21
147.3239069155296
 31
0.000000000000000
  0
LINE
  5
16D
100
AcDbEntity
  8
A1
  6
CONTINUOUS
 62
7
100
AcDbLine
 10
153.5464574743960
 20
145.3239069155296
 30
0.000000000000000
 11
153.5464574743960
 21
132.3239069155294
 31
0.000000000000000
  0
LINE
  5
16E
100
AcDbEntity
  8
A1
  6
CONTINUOUS
 62
7
100
AcDbLine
 10
147.5464574743960
 20
147.3239069155296
 30
0.000000000000000
 11
147.5464574743960
 21
145.3239069155296
 31
0.000000000000000
  0
LINE
  5
16F
100
AcDbEntity
  8
A1
  6
CONTINUOUS
 62
7
100
AcDbLine
 10
150.3464604743961
 20
145.3239069155296
 30
0.000000000000000
 11
150.0964604743959
 21
145.3239069155296
 31
0.000000000000000
  0
LINE
  5
170
100
AcDbEntity
  8
A1
  6
CONTINUOUS
 62
7
100
AcDbLine
 10
132.8464604743960
 20
152.8536609155296
 30
0.000000000000000
 11
132.8464604743960
 21
153.8536609155296
 31
0.000000000000000
  0
LINE
  5
171
100
AcDbEntity
  8
A4
  6
CENTER
 62
1
100
AcDbLine
 10
130.8464604743960
 20
153.3536609155295
 30
0.000000000000000
 11
153.8464604743960
 21
153.3536609155295
 31
0.000000000000000
  0
LINE
  5
172
100
AcDbEntity
  8
A1
  6
CONTINUOUS
 62
7
100
AcDbLine
 10
132.8464604743960
 20
153.8536609155296
 30
0.000000000000000
 11
134.5964604743960
 21
153.8536609155296
 31
0.000000000000000
  0
LINE
  5
173
100
AcDbEntity
  8
A1
  6
CONTINUOUS
 62
7
100
AcDbLine
 10
132.8464604743960
 20
152.8536609155296
 30
0.000000000000000
 11
134.5964604743960
 21
152.8536609155296
 31
0.000000000000000
  0
LINE
  5
174
100
AcDbEntity
  8
A1
  6
CONTINUOUS
 62
7
100
AcDbLine
 10
151.8464604743960
 20
152.8536609155296
 30
0.000000000000000
 11
150.0964604743959
 21
152.8536609155296
 31
0.000000000000000
  0
LINE
  5
175
100
AcDbEntity
  8
A1
  6
CONTINUOUS
 62
7
100
AcDbLine
 10
151.8464604743960
 20
153.8536609155296
 30
0.000000000000000
 11
150.0964604743959
 21
153.8536609155296
 31
0.000000000000000
  0
LINE
  5
176
100
AcDbEntity
  8
A1
  6
CONTINUOUS
 62
7
100
AcDbLine
 10
151.8464604743960
 20
152.8536609155296
 30
0.000000000000000
 11
151.8464604743960
 21
153.8536609155296
 31
0.000000000000000
  0
LINE
  5
177
100
AcDbEntity
  8
A1
  6
CONTINUOUS
 62
7
100
AcDbLine
 10
132.1864564743960
 20
132.3239069155294
 30
0.000000000000000
 11
132.1864564743960
 21
128.3239069155296
 31
0.000000000000000
  0
LINE
  5
178
100
AcDbEntity
  8
A1
  6
CONTINUOUS
 62
7
100
AcDbLine
 10
131.1464474743960
 20
128.3239069155296
 30
0.000000000000000
 11
131.1464474743960
 21
126.3239069155296
 31
0.000000000000000
  0
LINE
  5
179
100
AcDbEntity
  8
A1
  6
CONTINUOUS
 62
7
100
AcDbLine
 10
152.5064484743960
 20
132.3239069155294
 30
0.000000000000000
 11
152.5064484743960
 21
128.3239069155296
 31
0.000000000000000
  0
LINE
  5
17A
100
AcDbEntity
  8
A1
  6
CONTINUOUS
 62
7
100
AcDbLine
 10
153.5464574743960
 20
128.3239069155296
 30
0.000000000000000
 11
153.5464574743960
 21
126.3239069155296
 31
0.000000000000000
  0
LINE
  5
17B
100
AcDbEntity
  8
A1
  6
CONTINUOUS
 62
7
100
AcDbLine
 10
136.1964504743960
 20
154.3536609155295
 30
0.000000000000000
 11
141.8464604743960
 21
154.3536609155295
 31
0.000000000000000
  0
LINE
  5
17C
100
AcDbEntity
  8
A1
  6
CONTINUOUS
 62
7
100
AcDbLine
 10
136.1964504743960
 20
152.3536609155295
 30
0.000000000000000
 11
141.8464604743960
 21
152.3536609155295
 31
0.000000000000000
  0
LINE
  5
17D
100
AcDbEntity
  8
A1
  6
CONTINUOUS
 62
7
100
AcDbLine
 10
134.5964604743960
 20
141.7653129155294
 30
0.000000000000000
 11
136.1964504743960
 21
141.7653129155294
 31
0.000000000000000
  0
LINE
  5
17E
100
AcDbEntity
  8
A1
  6
CONTINUOUS
 62
7
100
AcDbLine
 10
148.4964534743961
 20
141.7653129155294
 30
0.000000000000000
 11
150.0964604743959
 21
141.7653129155294
 31
0.000000000000000
  0
LINE
  5
17F
100
AcDbEntity
  8
A1
  6
CONTINUOUS
 62
7
100
AcDbLine
 10
136.1964504743960
 20
168.1530689155296
 30
0.000000000000000
 11
148.4964534743961
 21
168.1530689155296
 31
0.000000000000000
  0
LINE
  5
180
100
AcDbEntity
  8
A1
  6
CONTINUOUS
 62
7
100
AcDbLine
 10
136.1964504743960
 20
164.1628959155296
 30
0.000000000000000
 11
148.4964534743961
 21
164.1628959155296
 31
0.000000000000000
  0
LINE
  5
181
100
AcDbEntity
  8
A1
  6
CONTINUOUS
 62
7
100
AcDbLine
 10
136.1964504743960
 20
166.6013719155296
 30
0.000000000000000
 11
148.4964534743961
 21
166.6013719155296
 31
0.000000000000000
  0
LINE
  5
182
100
AcDbEntity
  8
A1
  6
CONTINUOUS
 62
7
100
AcDbLine
 10
148.4964534743961
 20
147.3239069155296
 30
0.000000000000000
 11
147.5464574743960
 21
147.3239069155296
 31
0.000000000000000
  0
LINE
  5
183
100
AcDbEntity
  8
A1
  6
CONTINUOUS
 62
7
100
AcDbLine
 10
148.4964534743961
 20
145.3239069155296
 30
0.000000000000000
 11
147.5464574743960
 21
145.3239069155296
 31
0.000000000000000
  0
LINE
  5
184
100
AcDbEntity
  8
A1
  6
CONTINUOUS
 62
7
100
AcDbLine
 10
136.1964504743960
 20
147.3239069155296
 30
0.000000000000000
 11
137.1464474743961
 21
147.3239069155296
 31
0.000000000000000
  0
LINE
  5
185
100
AcDbEntity
  8
A1
  6
CONTINUOUS
 62
7
100
AcDbLine
 10
136.1964504743960
 20
145.3239069155296
 30
0.000000000000000
 11
137.1464474743961
 21
145.3239069155296
 31
0.000000000000000
  0
LINE
  5
186
100
AcDbEntity
  8
A1
  6
CONTINUOUS
 62
7
100
AcDbLine
 10
134.3464604743959
 20
147.3239069155296
 30
0.000000000000000
 11
134.5964604743960
 21
147.3239069155296
 31
0.000000000000000
  0
LINE
  5
187
100
AcDbEntity
  8
A1
  6
CONTINUOUS
 62
7
100
AcDbLine
 10
142.8464604743960
 20
154.3536609155295
 30
0.000000000000000
 11
148.4964534743961
 21
154.3536609155295
 31
0.000000000000000
  0
LINE
  5
188
100
AcDbEntity
  8
A1
  6
CONTINUOUS
 62
7
100
AcDbLine
 10
142.8464604743960
 20
152.3536609155295
 30
0.000000000000000
 11
148.4964534743961
 21
152.3536609155295
 31
0.000000000000000
  0
LINE
  5
189
100
AcDbEntity
  8
A1
  6
CONTINUOUS
 62
7
100
AcDbLine
 10
150.0905094743959
 20
149.8239069155294
 30
0.000000000000000
 11
150.0905094743959
 21
139.8239069155296
 31
0.000000000000000
  0
LINE
  5
18A
100
AcDbEntity
  8
A1
  6
CONTINUOUS
 62
7
100
AcDbLine
 10
129.9464504743960
 20
132.3239069155294
 30
0.000000000000000
 11
129.9464504743960
 21
128.3239069155296
 31
0.000000000000000
  0
LINE
  5
18B
100
AcDbEntity
  8
A1
  6
CONTINUOUS
 62
7
100
AcDbLine
 10
154.7464534743961
 20
132.3239069155294
 30
0.000000000000000
 11
154.7464534743961
 21
128.3239069155296
 31
0.000000000000000
  0
ARC
  5
18C
100
AcDbEntity
  8
A1
  6
CONTINUOUS
 62
7
100
AcDbCircle
 10
124.8464604743960
 20
147.3239069155296
 30
0.000000000000000
 40
2.500000000000000
100
AcDbArc
 50
90.00000300000002
 51
180.0000050000000
  0
ARC
  5
18D
100
AcDbEntity
  8
A1
  6
CONTINUOUS
 62
7
100
AcDbCircle
 10
159.8464604743961
 20
147.3239069155296
 30
0.000000000000000
 40
2.500000000000000
100
AcDbArc
 50
0.000000000000000
 51
90.00000300000002
  0
ARC
  5
18E
100
AcDbEntity
  8
A1
  6
CONTINUOUS
 62
7
100
AcDbCircle
 10
159.8464604743961
 20
122.3239069155296
 30
0.000000000000000
 40
2.500000000000000
100
AcDbArc
 50
269.9999969999999
 51
360.0000000000000
  0
ARC
  5
18F
100
AcDbEntity
  8
A1
  6
CONTINUOUS
 62
7
100
AcDbCircle
 10
124.8464604743960
 20
122.3239069155296
 30
0.000000000000000
 40
2.500000000000000
100
AcDbArc
 50
179.9999909999999
 51
270.0000010000000
  0
ARC
  5
190
100
AcDbEntity
  8
A1
  6
CONTINUOUS
 62
7
100
AcDbCircle
 10
142.3464604743960
 20
147.3239069155296
 30
0.000000000000000
 40
10.00000000000000
100
AcDbArc
 50
228.5903839999999
 51
311.4096210000000
  0
ARC
  5
191
100
AcDbEntity
  8
A1
  6
CONTINUOUS
 62
7
100
AcDbCircle
 10
157.3464604743959
 20
141.3239069155296
 30
0.000000000000000
 40
2.500000000000000
100
AcDbArc
 50
0.000000000000000
 51
180.0000050000000
  0
ARC
  5
192
100
AcDbEntity
  8
A1
  6
CONTINUOUS
 62
7
100
AcDbCircle
 10
157.3464604743959
 20
134.3239069155294
 30
0.000000000000000
 40
2.500000000000000
100
AcDbArc
 50
179.9999909999999
 51
360.0000100000000
  0
ARC
  5
193
100
AcDbEntity
  8
A1
  6
CONTINUOUS
 62
7
100
AcDbCircle
 10
127.3464604743960
 20
141.3239069155296
 30
0.000000000000000
 40
2.500000000000000
100
AcDbArc
 50
0.000000000000000
 51
180.0000050000000
  0
ARC
  5
194
100
AcDbEntity
  8
A1
  6
CONTINUOUS
 62
7
100
AcDbCircle
 10
127.3464604743960
 20
134.3239069155294
 30
0.000000000000000
 40
2.500000000000000
100
AcDbArc
 50
179.9999909999999
 51
360.0000100000000
  0
ARC
  5
195
100
AcDbEntity
  8
A1
  6
CONTINUOUS
 62
7
100
AcDbCircle
 10
133.1464474743960
 20
145.3239069155296
 30
0.000000000000000
 40
2.000000000000000
100
AcDbArc
 50
90.00000300000002
 51
180.0000050000000
  0
CIRCLE
  5
196
100
AcDbEntity
  8
A1
  6
CONTINUOUS
 62
7
100
AcDbCircle
 10
132.1464474743960
 20
126.3239069155296
 30
0.000000000000000
 40
1.000000000000000
  0
ARC
  5
197
100
AcDbEntity
  8
A1
  6
CONTINUOUS
 62
7
100
AcDbCircle
 10
151.5464574743960
 20
145.3239069155296
 30
0.000000000000000
 40
2.000000000000000
100
AcDbArc
 50
0.000000000000000
 51
90.00000300000002
  0
CIRCLE
  5
198
100
AcDbEntity
  8
A1
  6
CONTINUOUS
 62
7
100
AcDbCircle
 10
152.5464574743960
 20
126.3239069155296
 30
0.000000000000000
 40
1.000000000000000
  0
ARC
  5
199
100
AcDbEntity
  8
A1
  6
CONTINUOUS
 62
7
100
AcDbCircle
 10
136.1964504743960
 20
166.5530779155296
 30
0.000000000000000
 40
1.600000000000000
100
AcDbArc
 50
90.00000300000002
 51
180.0000050000000
  0
ARC
  5
19A
100
AcDbEntity
  8
A1
  6
CONTINUOUS
 62
7
100
AcDbCircle
 10
148.4964534743961
 20
166.5530779155296
 30
0.000000000000000
 40
1.600000000000000
100
AcDbArc
 50
0.000000000000000
 51
90.00000300000002
  0
ARC
  5
19B
100
AcDbEntity
  8
A1
  6
CONTINUOUS
 62
7
100
AcDbCircle
 10
139.8464604743960
 20
151.9095885692990
 30
0.000000000000000
 40
2.000000000000000
100
AcDbArc
 50
275.2072377761959
 51
360.0000000000000
  0
LINE
  5
19C
100
AcDbEntity
  8
A1
  6
CONTINUOUS
 62
7
100
AcDbLine
 10
140.0279772396044
 20
149.9178426859222
 30
0.000000000000000
 11
139.3010812830938
 21
149.8515973863737
 31
0.000000000000000
  0
ARC
  5
19D
100
AcDbEntity
  8
A1
  6
CONTINUOUS
 62
7
100
AcDbCircle
 10
139.8464604743960
 20
151.9095885692990
 30
0.000000000000000
 40
3.000000000000000
100
AcDbArc
 50
275.2072377761992
 51
358.9317986129260
  0
LINE
  5
19E
100
AcDbEntity
  8
A1
  6
CONTINUOUS
 62
7
100
AcDbLine
 10
142.8464604743960
 20
154.8536609155295
 30
0.000000000000000
 11
142.8464604743960
 21
151.8536609155295
 31
0.000000000000000
  0
LINE
  5
19F
100
AcDbEntity
  8
A1
  6
CONTINUOUS
 62
7
100
AcDbLine
 10
141.8464604743960
 20
154.8536609155295
 30
0.000000000000000
 11
141.8464604743960
 21
151.8536609155295
 31
0.000000000000000
  0
ARC
  5
1A0
100
AcDbEntity
  8
A1
  6
CONTINUOUS
 62
7
100
AcDbCircle
 10
142.3464604743960
 20
154.8536609155295
 30
0.000000000000000
 40
0.5000000000000000
100
AcDbArc
 50
0.000000000000000
 51
180.0000000000000
  0
ARC
  5
1A1
100
AcDbEntity
  8
A1
  6
CONTINUOUS
 62
7
100
AcDbCircle
 10
139.3464604743960
 20
149.3536609155295
 30
0.000000000000000
 40
0.5000000000000000
100
AcDbArc
 50
95.20723777619588
 51
275.2072377762024
  0
LINE
  5
1A2
100
AcDbEntity
  8
A1
  6
CONTINUOUS
 62
7
100
AcDbLine
 10
139.3918396656981
 20
148.8557244446853
 30
0.000000000000000
 11
140.1187356222088
 21
148.9219697442339
 31
0.000000000000000
  0
LINE
  5
1A3
100
AcDbEntity
  8
A1
  6
CONTINUOUS
 62
7
100
AcDbLine
 10
141.7992756795453
 20
149.6321969089696
 30
0.000000000000000
 11
145.3918396656981
 21
149.3047903863736
 31
0.000000000000000
  0
LINE
  5
1A4
100
AcDbEntity
  8
A1
  6
CONTINUOUS
 62
7
100
AcDbLine
 10
139.3010812830938
 20
148.8557244446853
 30
0.000000000000000
 11
139.8373274813588
 21
148.8068539155295
 31
0.000000000000000
  0
LINE
  5
1A5
100
AcDbEntity
  8
A1
  6
CONTINUOUS
 62
7
100
AcDbLine
 10
144.8555934674329
 20
148.2600469155295
 30
0.000000000000000
 11
145.3918396656981
 21
148.2111763863737
 31
0.000000000000000
  0
LINE
  5
1A6
100
AcDbEntity
  8
A1
  6
CONTINUOUS
 62
7
100
AcDbLine
 10
139.8373274813593
 20
147.7132399155295
 30
0.000000000000000
 11
139.3010812830937
 21
147.7621104446853
 31
0.000000000000000
  0
ARC
  5
1A7
100
AcDbEntity
  8
A1
  6
CONTINUOUS
 62
7
100
AcDbCircle
 10
139.3464604743960
 20
148.2600469155295
 30
0.000000000000000
 40
0.5000000000000000
100
AcDbArc
 50
95.20723777620208
 51
275.2072377762024
  0
ARC
  5
1A8
100
AcDbEntity
  8
A1
  6
CONTINUOUS
 62
7
100
AcDbCircle
 10
145.3464604743960
 20
147.7132399155295
 30
0.000000000000000
 40
0.5000000000000000
100
AcDbArc
 50
275.2072377762027
 51
455.2072377762027
  0
ARC
  5
1A9
100
AcDbEntity
  8
A1
  6
CONTINUOUS
 62
7
100
AcDbCircle
 10
145.3464604743960
 20
148.8068539155295
 30
0.000000000000000
 40
0.5000000000000000
100
AcDbArc
 50
275.2072377762024
 51
455.2072377762021
  0
ARC
  5
1AA
100
AcDbEntity
  8
A1
  6
CONTINUOUS
 62
7
100
AcDbCircle
 10
139.3464604743960
 20
147.1664329155295
 30
0.000000000000000
 40
0.5000000000000000
100
AcDbArc
 50
95.20723777620267
 51
275.2072377762024
  0
LINE
  5
1AB
100
AcDbEntity
  8
A1
  6
CONTINUOUS
 62
7
100
AcDbLine
 10
145.3010812830938
 20
149.3047903863737
 30
0.000000000000000
 11
139.3010812830938
 21
148.7579833863737
 31
0.000000000000000
  0
LINE
  5
1AC
100
AcDbEntity
  8
A1
  6
CONTINUOUS
 62
7
100
AcDbLine
 10
139.3918396656981
 20
147.7621104446853
 30
0.000000000000000
 11
145.3918396656982
 21
148.3089174446853
 31
0.000000000000000
  0
LINE
  5
1AD
100
AcDbEntity
  8
A1
  6
CONTINUOUS
 62
7
100
AcDbLine
 10
145.3010812830938
 20
148.2111763863737
 30
0.000000000000000
 11
139.3010812830938
 21
147.6643693863736
 31
0.000000000000000
  0
LINE
  5
1AE
100
AcDbEntity
  8
A1
  6
CONTINUOUS
 62
7
100
AcDbLine
 10
139.3918396656981
 20
146.6684964446853
 30
0.000000000000000
 11
145.3918396656981
 21
147.2153034446853
 31
0.000000000000000
  0
LINE
  5
1AF
100
AcDbEntity
  8
A1
  6
CONTINUOUS
 62
7
100
AcDbLine
 10
139.3918396656981
 20
145.5748824446853
 30
0.000000000000000
 11
145.3918396656981
 21
146.1216894446853
 31
0.000000000000000
  0
ARC
  5
1B0
100
AcDbEntity
  8
A1
  6
CONTINUOUS
 62
7
100
AcDbCircle
 10
145.3464604743960
 20
146.6196259155295
 30
0.000000000000000
 40
0.5000000000000000
100
AcDbArc
 50
275.2072377762027
 51
455.2072377762027
  0
LINE
  5
1B1
100
AcDbEntity
  8
A1
  6
CONTINUOUS
 62
7
100
AcDbLine
 10
145.3010812830938
 20
147.1175623863737
 30
0.000000000000000
 11
139.3010812830937
 21
146.5707553863737
 31
0.000000000000000
  0
ARC
  5
1B2
100
AcDbEntity
  8
A1
  6
CONTINUOUS
 62
7
100
AcDbCircle
 10
139.3464604743960
 20
146.0728189155295
 30
0.000000000000000
 40
0.5000000000000000
100
AcDbArc
 50
95.20723777620267
 51
275.2072377762024
  0
LINE
  5
1B3
100
AcDbEntity
  8
A1
  6
CONTINUOUS
 62
7
100
AcDbLine
 10
139.8373274813593
 20
146.6196259155295
 30
0.000000000000000
 11
139.3010812830938
 21
146.6684964446853
 31
0.000000000000000
  0
LINE
  5
1B4
100
AcDbEntity
  8
A1
  6
CONTINUOUS
 62
7
100
AcDbLine
 10
144.8555934674329
 20
147.1664329155295
 30
0.000000000000000
 11
145.3918396656981
 21
147.1175623863737
 31
0.000000000000000
  0
LINE
  5
1B5
100
AcDbEntity
  8
A1
  6
CONTINUOUS
 62
7
100
AcDbLine
 10
139.3918396656981
 20
144.4812684446853
 30
0.000000000000000
 11
145.3918396656981
 21
145.0280754446853
 31
0.000000000000000
  0
ARC
  5
1B6
100
AcDbEntity
  8
A1
  6
CONTINUOUS
 62
7
100
AcDbCircle
 10
145.3464604743960
 20
145.5260119155295
 30
0.000000000000000
 40
0.5000000000000000
100
AcDbArc
 50
275.2072377762027
 51
455.2072377762027
  0
LINE
  5
1B7
100
AcDbEntity
  8
A1
  6
CONTINUOUS
 62
7
100
AcDbLine
 10
145.3010812830937
 20
146.0239483863737
 30
0.000000000000000
 11
139.3010812830937
 21
145.4771413863737
 31
0.000000000000000
  0
ARC
  5
1B8
100
AcDbEntity
  8
A1
  6
CONTINUOUS
 62
7
100
AcDbCircle
 10
139.3464604743960
 20
144.9792049155295
 30
0.000000000000000
 40
0.5000000000000000
100
AcDbArc
 50
95.20723777620267
 51
275.2072377762024
  0
LINE
  5
1B9
100
AcDbEntity
  8
A1
  6
CONTINUOUS
 62
7
100
AcDbLine
 10
139.8373274813593
 20
145.5260119155294
 30
0.000000000000000
 11
139.3010812830938
 21
145.5748824446853
 31
0.000000000000000
  0
LINE
  5
1BA
100
AcDbEntity
  8
A1
  6
CONTINUOUS
 62
7
100
AcDbLine
 10
144.8555934674329
 20
146.0728189155295
 30
0.000000000000000
 11
145.3918396656981
 21
146.0239483863737
 31
0.000000000000000
  0
LINE
  5
1BB
100
AcDbEntity
  8
A1
  6
CONTINUOUS
 62
7
100
AcDbLine
 10
139.3918396656980
 20
143.3876544446853
 30
0.000000000000000
 11
145.3918396656981
 21
143.9344614446853
 31
0.000000000000000
  0
ARC
  5
1BC
100
AcDbEntity
  8
A1
  6
CONTINUOUS
 62
7
100
AcDbCircle
 10
145.3464604743959
 20
144.4323979155295
 30
0.000000000000000
 40
0.5000000000000000
100
AcDbArc
 50
275.2072377762027
 51
455.2072377762027
  0
LINE
  5
1BD
100
AcDbEntity
  8
A1
  6
CONTINUOUS
 62
7
100
AcDbLine
 10
145.3010812830937
 20
144.9303343863737
 30
0.000000000000000
 11
139.3010812830937
 21
144.3835273863737
 31
0.000000000000000
  0
ARC
  5
1BE
100
AcDbEntity
  8
A1
  6
CONTINUOUS
 62
7
100
AcDbCircle
 10
139.3464604743959
 20
143.8855909155295
 30
0.000000000000000
 40
0.5000000000000000
100
AcDbArc
 50
95.20723777620267
 51
275.2072377762024
  0
LINE
  5
1BF
100
AcDbEntity
  8
A1
  6
CONTINUOUS
 62
7
100
AcDbLine
 10
139.8373274813593
 20
144.4323979155295
 30
0.000000000000000
 11
139.3010812830937
 21
144.4812684446853
 31
0.000000000000000
  0
LINE
  5
1C0
100
AcDbEntity
  8
A1
  6
CONTINUOUS
 62
7
100
AcDbLine
 10
144.8555934674328
 20
144.9792049155295
 30
0.000000000000000
 11
145.3918396656981
 21
144.9303343863737
 31
0.000000000000000
  0
LINE
  5
1C1
100
AcDbEntity
  8
A1
  6
CONTINUOUS
 62
7
100
AcDbLine
 10
139.3918396656979
 20
142.2940404446853
 30
0.000000000000000
 11
145.3918396656980
 21
142.8408474446853
 31
0.000000000000000
  0
ARC
  5
1C2
100
AcDbEntity
  8
A1
  6
CONTINUOUS
 62
7
100
AcDbCircle
 10
145.3464604743959
 20
143.3387839155295
 30
0.000000000000000
 40
0.5000000000000000
100
AcDbArc
 50
275.2072377762027
 51
455.2072377762027
  0
LINE
  5
1C3
100
AcDbEntity
  8
A1
  6
CONTINUOUS
 62
7
100
AcDbLine
 10
145.3010812830936
 20
143.8367203863737
 30
0.000000000000000
 11
139.3010812830936
 21
143.2899133863736
 31
0.000000000000000
  0
ARC
  5
1C4
100
AcDbEntity
  8
A1
  6
CONTINUOUS
 62
7
100
AcDbCircle
 10
139.3464604743959
 20
142.7919769155295
 30
0.000000000000000
 40
0.5000000000000000
100
AcDbArc
 50
95.20723777620267
 51
275.2072377762024
  0
LINE
  5
1C5
100
AcDbEntity
  8
A1
  6
CONTINUOUS
 62
7
100
AcDbLine
 10
139.8373274813592
 20
143.3387839155294
 30
0.000000000000000
 11
139.3010812830937
 21
143.3876544446853
 31
0.000000000000000
  0
LINE
  5
1C6
100
AcDbEntity
  8
A1
  6
CONTINUOUS
 62
7
100
AcDbLine
 10
144.8555934674328
 20
143.8855909155295
 30
0.000000000000000
 11
145.3918396656981
 21
143.8367203863737
 31
0.000000000000000
  0
LINE
  5
1C7
100
AcDbEntity
  8
A1
  6
CONTINUOUS
 62
7
100
AcDbLine
 10
139.3918396656979
 20
141.2004264446852
 30
0.000000000000000
 11
145.3918396656979
 21
141.7472334446853
 31
0.000000000000000
  0
ARC
  5
1C8
100
AcDbEntity
  8
A1
  6
CONTINUOUS
 62
7
100
AcDbCircle
 10
145.3464604743958
 20
142.2451699155295
 30
0.000000000000000
 40
0.5000000000000000
100
AcDbArc
 50
275.2072377762027
 51
455.2072377762027
  0
LINE
  5
1C9
100
AcDbEntity
  8
A1
  6
CONTINUOUS
 62
7
100
AcDbLine
 10
145.3010812830935
 20
142.7431063863736
 30
0.000000000000000
 11
139.3010812830935
 21
142.1962993863736
 31
0.000000000000000
  0
ARC
  5
1CA
100
AcDbEntity
  8
A1
  6
CONTINUOUS
 62
7
100
AcDbCircle
 10
139.3464604743958
 20
141.6983629155295
 30
0.000000000000000
 40
0.5000000000000000
100
AcDbArc
 50
95.20723777620267
 51
275.2072377762024
  0
LINE
  5
1CB
100
AcDbEntity
  8
A1
  6
CONTINUOUS
 62
7
100
AcDbLine
 10
139.8373274813592
 20
142.2451699155294
 30
0.000000000000000
 11
139.3010812830936
 21
142.2940404446852
 31
0.000000000000000
  0
LINE
  5
1CC
100
AcDbEntity
  8
A1
  6
CONTINUOUS
 62
7
100
AcDbLine
 10
144.8555934674328
 20
142.7919769155295
 30
0.000000000000000
 11
145.3918396656980
 21
142.7431063863737
 31
0.000000000000000
  0
LINE
  5
1CD
100
AcDbEntity
  8
A1
  6
CONTINUOUS
 62
7
100
AcDbLine
 10
139.3918396656978
 20
140.1068124446852
 30
0.000000000000000
 11
145.3918396656978
 21
140.6536194446852
 31
0.000000000000000
  0
ARC
  5
1CE
100
AcDbEntity
  8
A1
  6
CONTINUOUS
 62
7
100
AcDbCircle
 10
145.3464604743957
 20
141.1515559155295
 30
0.000000000000000
 40
0.5000000000000000
100
AcDbArc
 50
275.2072377762027
 51
455.2072377762027
  0
LINE
  5
1CF
100
AcDbEntity
  8
A1
  6
CONTINUOUS
 62
7
100
AcDbLine
 10
145.3010812830935
 20
141.6494923863736
 30
0.000000000000000
 11
139.3010812830934
 21
141.1026853863735
 31
0.000000000000000
  0
ARC
  5
1D0
100
AcDbEntity
  8
A1
  6
CONTINUOUS
 62
7
100
AcDbCircle
 10
139.3464604743957
 20
140.6047489155294
 30
0.000000000000000
 40
0.5000000000000000
100
AcDbArc
 50
95.20723777620267
 51
275.2072377762024
  0
LINE
  5
1D1
100
AcDbEntity
  8
A1
  6
CONTINUOUS
 62
7
100
AcDbLine
 10
139.8373274813591
 20
141.1515559155294
 30
0.000000000000000
 11
139.3010812830936
 21
141.2004264446852
 31
0.000000000000000
  0
LINE
  5
1D2
100
AcDbEntity
  8
A1
  6
CONTINUOUS
 62
7
100
AcDbLine
 10
144.8555934674327
 20
141.6983629155294
 30
0.000000000000000
 11
145.3918396656980
 21
141.6494923863736
 31
0.000000000000000
  0
LINE
  5
1D3
100
AcDbEntity
  8
A1
  6
CONTINUOUS
 62
7
100
AcDbLine
 10
139.3918396656977
 20
139.0131984446851
 30
0.000000000000000
 11
145.3918396656978
 21
139.5600054446851
 31
0.000000000000000
  0
ARC
  5
1D4
100
AcDbEntity
  8
A1
  6
CONTINUOUS
 62
7
100
AcDbCircle
 10
145.3464604743957
 20
140.0579419155294
 30
0.000000000000000
 40
0.5000000000000000
100
AcDbArc
 50
275.2072377762027
 51
455.2072377762027
  0
LINE
  5
1D5
100
AcDbEntity
  8
A1
  6
CONTINUOUS
 62
7
100
AcDbLine
 10
145.3010812830934
 20
140.5558783863735
 30
0.000000000000000
 11
139.3010812830934
 21
140.0090713863735
 31
0.000000000000000
  0
ARC
  5
1D6
100
AcDbEntity
  8
A1
  6
CONTINUOUS
 62
7
100
AcDbCircle
 10
139.3464604743957
 20
139.5111349155294
 30
0.000000000000000
 40
0.5000000000000000
100
AcDbArc
 50
95.20723777620267
 51
275.2072377762024
  0
LINE
  5
1D7
100
AcDbEntity
  8
A1
  6
CONTINUOUS
 62
7
100
AcDbLine
 10
139.8373274813591
 20
140.0579419155293
 30
0.000000000000000
 11
139.3010812830935
 21
140.1068124446852
 31
0.000000000000000
  0
LINE
  5
1D8
100
AcDbEntity
  8
A1
  6
CONTINUOUS
 62
7
100
AcDbLine
 10
144.8555934674327
 20
140.6047489155294
 30
0.000000000000000
 11
145.3918396656979
 21
140.5558783863736
 31
0.000000000000000
  0
LINE
  5
1D9
100
AcDbEntity
  8
A1
  6
CONTINUOUS
 62
7
100
AcDbLine
 10
139.3918396656976
 20
137.9195844446850
 30
0.000000000000000
 11
145.3918396656977
 21
138.4663914446851
 31
0.000000000000000
  0
ARC
  5
1DA
100
AcDbEntity
  8
A1
  6
CONTINUOUS
 62
7
100
AcDbCircle
 10
145.3464604743956
 20
138.9643279155293
 30
0.000000000000000
 40
0.5000000000000000
100
AcDbArc
 50
275.2072377762027
 51
455.2072377762027
  0
LINE
  5
1DB
100
AcDbEntity
  8
A1
  6
CONTINUOUS
 62
7
100
AcDbLine
 10
145.3010812830933
 20
139.4622643863735
 30
0.000000000000000
 11
139.3010812830933
 21
138.9154573863734
 31
0.000000000000000
  0
ARC
  5
1DC
100
AcDbEntity
  8
A1
  6
CONTINUOUS
 62
7
100
AcDbCircle
 10
139.3464604743956
 20
138.4175209155293
 30
0.000000000000000
 40
0.5000000000000000
100
AcDbArc
 50
95.20723777620267
 51
275.2072377762024
  0
LINE
  5
1DD
100
AcDbEntity
  8
A1
  6
CONTINUOUS
 62
7
100
AcDbLine
 10
139.8373274813590
 20
138.9643279155293
 30
0.000000000000000
 11
139.3010812830934
 21
139.0131984446851
 31
0.000000000000000
  0
LINE
  5
1DE
100
AcDbEntity
  8
A1
  6
CONTINUOUS
 62
7
100
AcDbLine
 10
144.8555934674326
 20
139.5111349155293
 30
0.000000000000000
 11
145.3918396656978
 21
139.4622643863735
 31
0.000000000000000
  0
ARC
  5
1DF
100
AcDbEntity
  8
A1
  6
CONTINUOUS
 62
7
100
AcDbCircle
 10
145.3464604743955
 20
137.8707139155293
 30
0.000000000000000
 40
0.5000000000000000
100
AcDbArc
 50
9.567030253158441
 51
95.20723777620267
  0
LINE
  5
1E0
100
AcDbEntity
  8
A1
  6
CONTINUOUS
 62
7
100
AcDbLine
 10
145.3010812830931
 20
138.3686503863734
 30
0.000000000000000
 11
139.3010812830931
 21
137.8218433863734
 31
0.000000000000000
  0
ARC
  5
1E1
100
AcDbEntity
  8
A1
  6
CONTINUOUS
 62
7
100
AcDbCircle
 10
139.3464604743955
 20
137.3239069155292
 30
0.000000000000000
 40
0.5000000000000000
100
AcDbArc
 50
95.20723777620267
 51
100.9272422396575
  0
LINE
  5
1E2
100
AcDbEntity
  8
A1
  6
CONTINUOUS
 62
7
100
AcDbLine
 10
139.8373274813589
 20
137.8707139155292
 30
0.000000000000000
 11
139.3010812830933
 21
137.9195844446851
 31
0.000000000000000
  0
LINE
  5
1E3
100
AcDbEntity
  8
A1
  6
CONTINUOUS
 62
7
100
AcDbLine
 10
144.8555934674325
 20
138.4175209155293
 30
0.000000000000000
 11
145.3918396656977
 21
138.3686503863734
 31
0.000000000000000
  0
LINE
  5
1E4
100
AcDbEntity
  8
A1
  6
CONTINUOUS
 62
7
100
AcDbLine
 10
133.1464474743960
 20
36.00376191552959
 30
0.000000000000000
 11
122.3464604743960
 21
36.00376191552959
 31
0.000000000000000
  0
LINE
  5
1E5
100
AcDbEntity
  8
A1
  6
CONTINUOUS
 62
7
100
AcDbLine
 10
122.3464604743960
 20
34.80374991552959
 30
0.000000000000000
 11
122.3464604743960
 21
36.00376191552959
 31
0.000000000000000
  0
LINE
  5
1E6
100
AcDbEntity
  8
A1
  6
CONTINUOUS
 62
7
100
AcDbLine
 10
150.3464604743961
 20
36.00376191552959
 30
0.000000000000000
 11
150.3464604743961
 21
53.80374991552959
 31
0.000000000000000
  0
LINE
  5
1E7
100
AcDbEntity
  8
A1
  6
CONTINUOUS
 62
7
100
AcDbLine
 10
134.3464604743959
 20
36.00376191552959
 30
0.000000000000000
 11
134.3464604743959
 21
53.80374991552959
 31
0.000000000000000
  0
LINE
  5
1E8
100
AcDbEntity
  8
A1
  6
CONTINUOUS
 62
7
100
AcDbLine
 10
133.1464474743960
 20
36.00376191552959
 30
0.000000000000000
 11
133.1464474743960
 21
53.80374991552959
 31
0.000000000000000
  0
LINE
  5
1E9
100
AcDbEntity
  8
A1
  6
CONTINUOUS
 62
7
100
AcDbLine
 10
150.3464604743961
 20
53.80374991552959
 30
0.000000000000000
 11
134.3464604743959
 21
53.80374991552959
 31
0.000000000000000
  0
LINE
  5
1EA
100
AcDbEntity
  8
A1
  6
CONTINUOUS
 62
7
100
AcDbLine
 10
162.3464604743959
 20
36.00376191552959
 30
0.000000000000000
 11
151.5464574743960
 21
36.00376191552959
 31
0.000000000000000
  0
LINE
  5
1EB
100
AcDbEntity
  8
A1
  6
CONTINUOUS
 62
7
100
AcDbLine
 10
162.3464604743959
 20
34.80374991552959
 30
0.000000000000000
 11
162.3464604743959
 21
36.00376191552959
 31
0.000000000000000
  0
LINE
  5
1EC
100
AcDbEntity
  8
A1
  6
CONTINUOUS
 62
7
100
AcDbLine
 10
150.3464604743961
 20
55.00376191552959
 30
0.000000000000000
 11
134.3464604743959
 21
55.00376191552959
 31
0.000000000000000
  0
LINE
  5
1ED
100
AcDbEntity
  8
A4
  6
CENTER
 62
1
100
AcDbLine
 10
142.3464604743960
 20
29.80374991552959
 30
0.000000000000000
 11
142.3464604743960
 21
60.00376191552959
 31
0.000000000000000
  0
LINE
  5
1EE
100
AcDbEntity
  8
A1
  6
CONTINUOUS
 62
7
100
AcDbLine
 10
151.5464574743960
 20
36.00376191552959
 30
0.000000000000000
 11
151.5464574743960
 21
53.80374991552959
 31
0.000000000000000
  0
LINE
  5
1EF
100
AcDbEntity
  8
A1
  6
CONTINUOUS
 62
7
100
AcDbLine
 10
162.3464604743959
 20
34.80374991552959
 30
0.000000000000000
 11
151.5464574743960
 21
34.80374991552959
 31
0.000000000000000
  0
LINE
  5
1F0
100
AcDbEntity
  8
A1
  6
CONTINUOUS
 62
7
100
AcDbLine
 10
135.7320804743961
 20
54.00376191552960
 30
0.000000000000000
 11
135.7320804743961
 21
54.80374991552959
 31
0.000000000000000
  0
LINE
  5
1F1
100
AcDbEntity
  8
A1
  6
CONTINUOUS
 62
7
100
AcDbLine
 10
148.9608244743961
 20
54.00376191552960
 30
0.000000000000000
 11
148.9608244743961
 21
54.80374991552959
 31
0.000000000000000
  0
LINE
  5
1F2
100
AcDbEntity
  8
A1
  6
CONTINUOUS
 62
7
100
AcDbLine
 10
132.1464474743960
 20
46.60376791552957
 30
0.000000000000000
 11
132.8464604743960
 21
46.60376791552957
 31
0.000000000000000
  0
LINE
  5
1F3
100
AcDbEntity
  8
A1
  6
CONTINUOUS
 62
7
100
AcDbLine
 10
132.1464474743960
 20
47.80374991552959
 30
0.000000000000000
 11
133.1464474743960
 21
47.80374991552959
 31
0.000000000000000
  0
LINE
  5
1F4
100
AcDbEntity
  8
A1
  6
CONTINUOUS
 62
7
100
AcDbLine
 10
152.5464574743960
 20
46.60376791552957
 30
0.000000000000000
 11
151.8464604743960
 21
46.60376791552957
 31
0.000000000000000
  0
LINE
  5
1F5
100
AcDbEntity
  8
A1
  6
CONTINUOUS
 62
7
100
AcDbLine
 10
152.5464574743960
 20
47.80374991552959
 30
0.000000000000000
 11
151.5464574743960
 21
47.80374991552959
 31
0.000000000000000
  0
LINE
  5
1F6
100
AcDbEntity
  8
A1
  6
CONTINUOUS
 62
7
100
AcDbLine
 10
133.1464474743960
 20
34.80374991552959
 30
0.000000000000000
 11
122.3464604743960
 21
34.80374991552959
 31
0.000000000000000
  0
LINE
  5
1F7
100
AcDbEntity
  8
A1
  6
CONTINUOUS
 62
7
100
AcDbLine
 10
150.3464604743961
 20
36.80374991552959
 30
0.000000000000000
 11
150.0964604743959
 21
36.80374991552959
 31
0.000000000000000
  0
LINE
  5
1F8
100
AcDbEntity
  8
A1
  6
CONTINUOUS
 62
7
100
AcDbLine
 10
150.3464604743961
 20
39.80374991552959
 30
0.000000000000000
 11
150.0964604743959
 21
39.80374991552959
 31
0.000000000000000
  0
LINE
  5
1F9
100
AcDbEntity
  8
A1
  6
CONTINUOUS
 62
7
100
AcDbLine
 10
131.3464604743959
 20
40.05374991552959
 30
0.000000000000000
 11
131.3464604743959
 21
36.55374991552959
 31
0.000000000000000
  0
LINE
  5
1FA
100
AcDbEntity
  8
A4
  6
CENTER
 62
1
100
AcDbLine
 10
155.3464604743960
 20
38.30374991552959
 30
0.000000000000000
 11
129.3464604743960
 21
38.30374991552959
 31
0.000000000000000
  0
LINE
  5
1FB
100
AcDbEntity
  8
A1
  6
CONTINUOUS
 62
7
100
AcDbLine
 10
148.4964534743961
 20
47.00507391552959
 30
0.000000000000000
 11
144.5039437502521
 21
47.00507391552959
 31
0.000000000000000
  0
LINE
  5
1FC
100
AcDbEntity
  8
A1
  6
CONTINUOUS
 62
7
100
AcDbLine
 10
148.4964534743961
 20
45.00507391552959
 30
0.000000000000000
 11
145.7638480856568
 21
45.00507391552959
 31
0.000000000000000
  0
LINE
  5
1FD
100
AcDbEntity
  8
A1
  6
CONTINUOUS
 62
7
100
AcDbLine
 10
151.8464604743960
 20
47.25507391552959
 30
0.000000000000000
 11
151.8464604743960
 21
44.75507391552959
 31
0.000000000000000
  0
LINE
  5
1FE
100
AcDbEntity
  8
A1
  6
CONTINUOUS
 62
7
100
AcDbLine
 10
132.8464604743960
 20
47.25507391552959
 30
0.000000000000000
 11
132.8464604743960
 21
44.75507391552959
 31
0.000000000000000
  0
LINE
  5
1FF
100
AcDbEntity
  8
A4
  6
CENTER
 62
1
100
AcDbLine
 10
153.8464604743960
 20
46.00507391552959
 30
0.000000000000000
 11
130.8464604743960
 21
46.00507391552959
 31
0.000000000000000
  0
LINE
  5
200
100
AcDbEntity
  8
A1
  6
CONTINUOUS
 62
7
100
AcDbLine
 10
151.8464604743960
 20
47.25510491552959
 30
0.000000000000000
 11
151.5464574743960
 21
47.21222791552960
 31
0.000000000000000
  0
LINE
  5
201
100
AcDbEntity
  8
A1
  6
CONTINUOUS
 62
7
100
AcDbLine
 10
132.8464604743960
 20
44.75507391552959
 30
0.000000000000000
 11
133.1464634743959
 21
44.79795091552958
 31
0.000000000000000
  0
LINE
  5
202
100
AcDbEntity
  8
A1
  6
CONTINUOUS
 62
7
100
AcDbLine
 10
132.8464444743961
 20
47.25510491552960
 30
0.000000000000000
 11
133.1464474743960
 21
47.21222791552961
 31
0.000000000000000
  0
LINE
  5
203
100
AcDbEntity
  8
A1
  6
CONTINUOUS
 62
7
100
AcDbLine
 10
151.8464444743959
 20
44.75510491552959
 30
0.000000000000000
 11
151.5464574743959
 21
44.79795091552958
 31
0.000000000000000
  0
LINE
  5
204
100
AcDbEntity
  8
A1
  6
CONTINUOUS
 62
7
100
AcDbLine
 10
131.3464444743960
 20
40.05374991552959
 30
0.000000000000000
 11
133.1464474743960
 21
39.80374991552959
 31
0.000000000000000
  0
LINE
  5
205
100
AcDbEntity
  8
A1
  6
CONTINUOUS
 62
7
100
AcDbLine
 10
131.3464604743959
 20
36.55374991552959
 30
0.000000000000000
 11
133.1464474743960
 21
36.80374991552959
 31
0.000000000000000
  0
LINE
  5
206
100
AcDbEntity
  8
A1
  6
CONTINUOUS
 62
7
100
AcDbLine
 10
153.3464604743960
 20
40.05374991552959
 30
0.000000000000000
 11
153.3464604743960
 21
36.55374991552959
 31
0.000000000000000
  0
LINE
  5
207
100
AcDbEntity
  8
A1
  6
CONTINUOUS
 62
7
100
AcDbLine
 10
153.3464444743960
 20
36.55374991552960
 30
0.000000000000000
 11
151.5464574743960
 21
36.80374991552960
 31
0.000000000000000
  0
LINE
  5
208
100
AcDbEntity
  8
A1
  6
CONTINUOUS
 62
7
100
AcDbLine
 10
153.3464604743960
 20
40.05374991552959
 30
0.000000000000000
 11
151.5464414743961
 21
39.80374991552959
 31
0.000000000000000
  0
LINE
  5
209
100
AcDbEntity
  8
A1
  6
CONTINUOUS
 62
7
100
AcDbLine
 10
133.1464474743960
 20
53.80374991552959
 30
0.000000000000000
 11
131.1464474743960
 21
53.80374991552959
 31
0.000000000000000
  0
LINE
  5
20A
100
AcDbEntity
  8
A1
  6
CONTINUOUS
 62
7
100
AcDbLine
 10
131.1464474743960
 20
53.80374991552959
 30
0.000000000000000
 11
131.1464474743960
 21
48.80374991552959
 31
0.000000000000000
  0
LINE
  5
20B
100
AcDbEntity
  8
A1
  6
CONTINUOUS
 62
7
100
AcDbLine
 10
153.5464574743960
 20
53.80374991552959
 30
0.000000000000000
 11
153.5464574743960
 21
48.80374991552959
 31
0.000000000000000
  0
LINE
  5
20C
100
AcDbEntity
  8
A1
  6
CONTINUOUS
 62
7
100
AcDbLine
 10
151.5464574743960
 20
53.80374991552959
 30
0.000000000000000
 11
153.5464574743960
 21
53.80374991552959
 31
0.000000000000000
  0
LINE
  5
20D
100
AcDbEntity
  8
A1
  6
CONTINUOUS
 62
7
100
AcDbLine
 10
131.1464634743959
 20
51.13709291552956
 30
0.000000000000000
 11
130.3864534743961
 21
50.12375691552960
 31
0.000000000000000
  0
LINE
  5
20E
100
AcDbEntity
  8
A1
  6
CONTINUOUS
 62
7
100
AcDbLine
 10
153.5464574743959
 20
51.13709291552958
 30
0.000000000000000
 11
154.3064514743959
 21
50.12378791552960
 31
0.000000000000000
  0
LINE
  5
20F
100
AcDbEntity
  8
A1
  6
CONTINUOUS
 62
7
100
AcDbLine
 10
148.4964534743961
 20
49.89200691552959
 30
0.000000000000000
 11
136.1964504743960
 21
49.89200691552959
 31
0.000000000000000
  0
LINE
  5
210
100
AcDbEntity
  8
A1
  6
CONTINUOUS
 62
7
100
AcDbLine
 10
148.4964534743961
 20
40.19385591552958
 30
0.000000000000000
 11
145.8432305672715
 21
40.19385591552958
 31
0.000000000000000
  0
LINE
  5
211
100
AcDbEntity
  8
A1
  6
CONTINUOUS
 62
7
100
AcDbLine
 10
150.0964604743959
 20
35.80374991552959
 30
0.000000000000000
 11
148.4964534743961
 21
35.80374991552959
 31
0.000000000000000
  0
LINE
  5
212
100
AcDbEntity
  8
A1
  6
CONTINUOUS
 62
7
100
AcDbLine
 10
136.1964504743960
 20
35.80374991552959
 30
0.000000000000000
 11
134.5964604743960
 21
35.80374991552959
 31
0.000000000000000
  0
LINE
  5
213
100
AcDbEntity
  8
A1
  6
CONTINUOUS
 62
7
100
AcDbLine
 10
150.0964604743959
 20
52.70493391552959
 30
0.000000000000000
 11
148.4964534743961
 21
52.70493391552959
 31
0.000000000000000
  0
LINE
  5
214
100
AcDbEntity
  8
A1
  6
CONTINUOUS
 62
7
100
AcDbLine
 10
136.1964504743960
 20
52.70493391552959
 30
0.000000000000000
 11
134.5964604743960
 21
52.70493391552959
 31
0.000000000000000
  0
LINE
  5
215
100
AcDbEntity
  8
A1
  6
CONTINUOUS
 62
7
100
AcDbLine
 10
135.8964474743961
 20
50.08832591552959
 30
0.000000000000000
 11
134.8964474743961
 21
50.08832591552959
 31
0.000000000000000
  0
LINE
  5
216
100
AcDbEntity
  8
A1
  6
CONTINUOUS
 62
7
100
AcDbLine
 10
148.7964574743960
 20
50.08832591552959
 30
0.000000000000000
 11
149.7964574743960
 21
50.08832591552959
 31
0.000000000000000
  0
LINE
  5
217
100
AcDbEntity
  8
A1
  6
CONTINUOUS
 62
7
100
AcDbLine
 10
150.3464604743960
 20
47.04080991552959
 30
0.000000000000000
 11
150.0964604743959
 21
47.00510491552959
 31
0.000000000000000
  0
LINE
  5
218
100
AcDbEntity
  8
A1
  6
CONTINUOUS
 62
7
100
AcDbLine
 10
150.3464444743961
 20
44.96936891552956
 30
0.000000000000000
 11
150.0964444743959
 21
45.00507391552959
 31
0.000000000000000
  0
LINE
  5
219
100
AcDbEntity
  8
A1
  6
CONTINUOUS
 62
7
100
AcDbLine
 10
134.3464444743960
 20
47.04080991552959
 30
0.000000000000000
 11
134.5964444743961
 21
47.00510491552960
 31
0.000000000000000
  0
LINE
  5
21A
100
AcDbEntity
  8
A1
  6
CONTINUOUS
 62
7
100
AcDbLine
 10
134.3464604743959
 20
44.96936891552958
 30
0.000000000000000
 11
134.5964604743960
 21
45.00507391552961
 31
0.000000000000000
  0
LINE
  5
21B
100
AcDbEntity
  8
A1
  6
CONTINUOUS
 62
7
100
AcDbLine
 10
148.4964534743961
 20
39.80374991552959
 30
0.000000000000000
 11
142.8464604743960
 21
39.80374991552959
 31
0.000000000000000
  0
LINE
  5
21C
100
AcDbEntity
  8
A1
  6
CONTINUOUS
 62
7
100
AcDbLine
 10
148.4964534743961
 20
36.80374991552959
 30
0.000000000000000
 11
142.8464604743960
 21
36.80374991552959
 31
0.000000000000000
  0
LINE
  5
21D
100
AcDbEntity
  8
A1
  6
CONTINUOUS
 62
7
100
AcDbLine
 10
134.5964604743960
 20
36.80374991552959
 30
0.000000000000000
 11
134.3464604743959
 21
36.80374991552959
 31
0.000000000000000
  0
LINE
  5
21E
100
AcDbEntity
  8
A1
  6
CONTINUOUS
 62
7
100
AcDbLine
 10
150.0964604743959
 20
53.80374991552959
 30
0.000000000000000
 11
150.0964604743959
 21
35.80374991552959
 31
0.000000000000000
  0
LINE
  5
21F
100
AcDbEntity
  8
A1
  6
CONTINUOUS
 62
7
100
AcDbLine
 10
148.4964534743961
 20
53.80374991552959
 30
0.000000000000000
 11
148.4964534743961
 21
35.80374991552959
 31
0.000000000000000
  0
LINE
  5
220
100
AcDbEntity
  8
A1
  6
CONTINUOUS
 62
7
100
AcDbLine
 10
136.1964504743960
 20
53.80374991552959
 30
0.000000000000000
 11
136.1964504743960
 21
35.80374991552959
 31
0.000000000000000
  0
LINE
  5
221
100
AcDbEntity
  8
A1
  6
CONTINUOUS
 62
7
100
AcDbLine
 10
134.5964604743960
 20
53.80374991552959
 30
0.000000000000000
 11
134.5964604743960
 21
35.80374991552959
 31
0.000000000000000
  0
LINE
  5
222
100
AcDbEntity
  8
A1
  6
CONTINUOUS
 62
7
100
AcDbLine
 10
141.8464604743960
 20
36.80374991552959
 30
0.000000000000000
 11
136.1964504743960
 21
36.80374991552959
 31
0.000000000000000
  0
LINE
  5
223
100
AcDbEntity
  8
A1
  6
CONTINUOUS
 62
7
100
AcDbLine
 10
138.8514667882723
 20
40.19385591552958
 30
0.000000000000000
 11
136.1964504743960
 21
40.19385591552958
 31
0.000000000000000
  0
LINE
  5
224
100
AcDbEntity
  8
A1
  6
CONTINUOUS
 62
7
100
AcDbLine
 10
141.1420817652787
 20
47.00507391552959
 30
0.000000000000000
 11
136.1964504743960
 21
47.00507391552959
 31
0.000000000000000
  0
LINE
  5
225
100
AcDbEntity
  8
A1
  6
CONTINUOUS
 62
7
100
AcDbLine
 10
139.0913801259291
 20
45.00507391552959
 30
0.000000000000000
 11
136.1964504743960
 21
45.00507391552959
 31
0.000000000000000
  0
LINE
  5
226
100
AcDbEntity
  8
A1
  6
CONTINUOUS
 62
7
100
AcDbLine
 10
134.5964604743960
 20
39.80374991552959
 30
0.000000000000000
 11
134.3464604743959
 21
39.80374991552959
 31
0.000000000000000
  0
LINE
  5
227
100
AcDbEntity
  8
A1
  6
CONTINUOUS
 62
7
100
AcDbLine
 10
141.8464604743960
 20
39.80374991552959
 30
0.000000000000000
 11
136.1964504743960
 21
39.80374991552959
 31
0.000000000000000
  0
LINE
  5
228
100
AcDbEntity
  8
A4
  6
CENTER
 62
1
100
AcDbLine
 10
127.3464604743960
 20
32.80374991552959
 30
0.000000000000000
 11
127.3464604743960
 21
38.00376191552959
 31
0.000000000000000
  0
LINE
  5
229
100
AcDbEntity
  8
A4
  6
CENTER
 62
1
100
AcDbLine
 10
157.3464604743959
 20
32.80374991552959
 30
0.000000000000000
 11
157.3464604743959
 21
38.00376191552959
 31
0.000000000000000
  0
ARC
  5
22A
100
AcDbEntity
  8
A1
  6
CONTINUOUS
 62
7
100
AcDbCircle
 10
134.3464604743959
 20
53.80374991552959
 30
0.000000000000000
 40
1.199999999999999
100
AcDbArc
 50
89.99999900000002
 51
180.0000090000000
  0
ARC
  5
22B
100
AcDbEntity
  8
A1
  6
CONTINUOUS
 62
7
100
AcDbCircle
 10
151.5464574743960
 20
36.00376191552959
 30
0.000000000000000
 40
1.199999999999999
100
AcDbArc
 50
179.9999949999999
 51
269.9999969999999
  0
ARC
  5
22C
100
AcDbEntity
  8
A1
  6
CONTINUOUS
 62
7
100
AcDbCircle
 10
150.3464604743961
 20
53.80374991552959
 30
0.000000000000000
 40
1.199999999999999
100
AcDbArc
 50
0.000000000000000
 51
90.00000300000002
  0
ARC
  5
22D
100
AcDbEntity
  8
A1
  6
CONTINUOUS
 62
7
100
AcDbCircle
 10
133.1464474743960
 20
36.00376191552959
 30
0.000000000000000
 40
1.199999999999999
100
AcDbArc
 50
269.9999969999999
 51
360.0000000000000
  0
ARC
  5
22E
100
AcDbEntity
  8
A1
  6
CONTINUOUS
 62
7
100
AcDbCircle
 10
132.1464474743960
 20
48.80374991552959
 30
0.000000000000000
 40
1.000000000000000
100
AcDbArc
 50
179.9999949999999
 51
360.0000000000000
  0
ARC
  5
22F
100
AcDbEntity
  8
A1
  6
CONTINUOUS
 62
7
100
AcDbCircle
 10
152.5464574743960
 20
48.80374991552959
 30
0.000000000000000
 40
1.000000000000000
100
AcDbArc
 50
179.9999949999999
 51
360.0000000000000
  0
ARC
  5
230
100
AcDbEntity
  8
A1
  6
CONTINUOUS
 62
7
100
AcDbCircle
 10
132.1464474743960
 20
48.80374991552959
 30
0.000000000000000
 40
2.200000000000000
100
AcDbArc
 50
143.1300870000000
 51
269.9999969999999
  0
ARC
  5
231
100
AcDbEntity
  8
A1
  6
CONTINUOUS
 62
7
100
AcDbCircle
 10
152.5464574743960
 20
48.80374991552959
 30
0.000000000000000
 40
2.200000000000000
100
AcDbArc
 50
269.9999969999999
 51
396.8699080000000
  0
ARC
  5
232
100
AcDbEntity
  8
A1
  6
CONTINUOUS
 62
7
100
AcDbCircle
 10
142.3464604743960
 20
40.00672191552959
 30
0.000000000000000
 40
3.499999999999999
100
AcDbArc
 50
356.6754379187917
 51
543.3245620812083
  0
ARC
  5
233
100
AcDbEntity
  8
A1
  6
CONTINUOUS
 62
7
100
AcDbCircle
 10
142.3464604743959
 20
48.53354691552959
 30
0.000000000000000
 40
0.5000000000000000
100
AcDbArc
 50
10.48859894004537
 51
190.4885989400454
  0
ARC
  5
234
100
AcDbEntity
  8
A1
  6
CONTINUOUS
 62
7
100
AcDbCircle
 10
142.3464604743960
 20
44.24912291552958
 30
0.000000000000000
 40
3.500000000000000
100
AcDbArc
 50
355.7761590000000
 51
430.0474923819159
  0
LINE
  5
235
100
AcDbEntity
  8
A1
  6
CONTINUOUS
 62
7
100
AcDbLine
 10
142.8381060496069
 20
48.62456684947492
 30
0.000000000000000
 11
142.8987543467690
 21
48.29697413817156
 31
0.000000000000000
  0
ARC
  5
236
100
AcDbEntity
  8
A1
  6
CONTINUOUS
 62
7
100
AcDbCircle
 10
143.8820454971910
 20
48.47901400606224
 30
0.000000000000000
 40
1.000000000000000
100
AcDbArc
 50
190.4885989400445
 51
250.0474923819153
  0
LINE
  5
237
100
AcDbEntity
  8
A1
  6
CONTINUOUS
 62
7
100
AcDbLine
 10
141.8548148991849
 20
48.44252698158422
 30
0.000000000000000
 11
141.9154631963469
 21
48.11493427028086
 31
0.000000000000000
  0
ARC
  5
238
100
AcDbEntity
  8
A1
  6
CONTINUOUS
 62
7
100
AcDbCircle
 10
143.8820454971910
 20
48.47901400606224
 30
0.000000000000000
 40
2.000000000000000
100
AcDbArc
 50
190.4885989400445
 51
219.0589174795261
  0
LINE
  5
239
100
AcDbEntity
  8
A1
  6
CONTINUOUS
 62
7
100
AcDbLine
 10
141.8464604743959
 20
48.53354691552959
 30
0.000000000000000
 11
141.8464604743959
 21
47.18292053066733
 31
0.000000000000000
  0
ARC
  5
23A
100
AcDbEntity
  8
A1
  6
CONTINUOUS
 62
7
100
AcDbCircle
 10
142.3464604743960
 20
35.60688091552959
 30
0.000000000000000
 40
0.5000000000000000
100
AcDbArc
 50
179.9999949999999
 51
360.0000000000000
  0
ARC
  5
23B
100
AcDbEntity
  8
A1
  6
CONTINUOUS
 62
7
100
AcDbCircle
 10
142.3464604743960
 20
41.60688091552959
 30
0.000000000000000
 40
0.5000000000000000
100
AcDbArc
 50
359.9999899999998
 51
540.0000090000000
  0
LINE
  5
23C
100
AcDbEntity
  8
A1
  6
CONTINUOUS
 62
7
100
AcDbLine
 10
142.8464604743960
 20
41.60688091552959
 30
0.000000000000000
 11
142.8464604743960
 21
35.60688091552959
 31
0.000000000000000
  0
LINE
  5
23D
100
AcDbEntity
  8
A1
  6
CONTINUOUS
 62
7
100
AcDbLine
 10
141.8464604743960
 20
35.60688091552959
 30
0.000000000000000
 11
141.8464604743960
 21
41.60688091552959
 31
0.000000000000000
  0
ARC
  5
23E
100
AcDbEntity
  8
A1
  6
CONTINUOUS
 62
7
100
AcDbCircle
 10
143.9464504743960
 20
35.69394691552959
 30
0.000000000000000
 40
1.100000000000000
100
AcDbArc
 50
110.3543999999998
 51
180.0000090000000
  0
ARC
  5
23F
100
AcDbEntity
  8
A1
  6
CONTINUOUS
 62
7
100
AcDbCircle
 10
142.3464604743960
 20
40.00672191552959
 30
0.000000000000000
 40
3.500000000000000
100
AcDbArc
 50
290.3544049999998
 51
293.7751141882686
  0
ARC
  5
240
100
AcDbEntity
  8
A1
  6
CONTINUOUS
 62
7
100
AcDbCircle
 10
142.3464604743960
 20
40.00672191552959
 30
0.000000000000000
 40
3.500000000000000
100
AcDbArc
 50
246.2248858117315
 51
261.7867892982618
  0
ARC
  5
241
100
AcDbEntity
  8
A1
  6
CONTINUOUS
 62
7
100
AcDbCircle
 10
142.3464604743960
 20
40.00672191552959
 30
0.000000000000000
 40
2.499999999999999
100
AcDbArc
 50
355.3430987406066
 51
544.6569012593933
  0
ARC
  5
242
100
AcDbEntity
  8
A1
  6
CONTINUOUS
 62
7
100
AcDbCircle
 10
142.3464604743960
 20
44.24912291552958
 30
0.000000000000000
 40
3.500000000000000
100
AcDbArc
 50
355.7761460000000
 51
430.0474923819159
  0
ARC
  5
243
100
AcDbEntity
  8
A1
  6
CONTINUOUS
 62
7
100
AcDbCircle
 10
142.3464604743960
 20
42.03150209734777
 30
0.000000000000000
 40
3.500000000000000
100
AcDbArc
 50
357.2367537340977
 51
544.2238390000000
  0
ARC
  5
244
100
AcDbEntity
  8
A1
  6
CONTINUOUS
 62
7
100
AcDbCircle
 10
142.3464604743960
 20
41.69403873371141
 30
0.000000000000000
 40
3.500000000000000
100
AcDbArc
 50
357.2367537340977
 51
544.2238390000000
  0
ARC
  5
245
100
AcDbEntity
  8
A1
  6
CONTINUOUS
 62
7
100
AcDbCircle
 10
142.3464604743960
 20
41.35657537007504
 30
0.000000000000000
 40
3.500000000000000
100
AcDbArc
 50
357.2367537340977
 51
544.2238390000000
  0
ARC
  5
246
100
AcDbEntity
  8
A1
  6
CONTINUOUS
 62
7
100
AcDbCircle
 10
142.3464604743960
 20
41.01911200643868
 30
0.000000000000000
 40
3.500000000000000
100
AcDbArc
 50
357.2367537340977
 51
544.2238390000000
  0
ARC
  5
247
100
AcDbEntity
  8
A1
  6
CONTINUOUS
 62
7
100
AcDbCircle
 10
142.3464604743960
 20
40.68164864280232
 30
0.000000000000000
 40
3.500000000000000
100
AcDbArc
 50
357.2367537340977
 51
544.2238390000000
  0
ARC
  5
248
100
AcDbEntity
  8
A1
  6
CONTINUOUS
 62
7
100
AcDbCircle
 10
142.3464604743960
 20
40.34418527916596
 30
0.000000000000000
 40
3.500000000000000
100
AcDbArc
 50
357.2367537340976
 51
544.2238390000000
  0
ARC
  5
249
100
AcDbEntity
  8
A1
  6
CONTINUOUS
 62
7
100
AcDbCircle
 10
142.3464604743960
 20
42.36896546098414
 30
0.000000000000000
 40
3.500000000000000
100
AcDbArc
 50
312.8683573858627
 51
315.5477546951284
  0
ARC
  5
24A
100
AcDbEntity
  8
A1
  6
CONTINUOUS
 62
7
100
AcDbCircle
 10
142.3464604743960
 20
43.04389218825686
 30
0.000000000000000
 40
3.500000000000000
100
AcDbArc
 50
292.2175305566730
 51
314.2666570119698
  0
ARC
  5
24B
100
AcDbEntity
  8
A1
  6
CONTINUOUS
 62
7
100
AcDbCircle
 10
142.3464604743960
 20
42.70642882462050
 30
0.000000000000000
 40
3.500000000000000
100
AcDbArc
 50
303.9693253192730
 51
315.3183357107691
  0
ARC
  5
24C
100
AcDbEntity
  8
A1
  6
CONTINUOUS
 62
7
100
AcDbCircle
 10
142.3464604743960
 20
42.36896546098414
 30
0.000000000000000
 40
3.500000000000000
100
AcDbArc
 50
357.2367537340977
 51
542.7632462659022
  0
ARC
  5
24D
100
AcDbEntity
  8
A1
  6
CONTINUOUS
 62
7
100
AcDbCircle
 10
142.3464604743960
 20
42.36896546098414
 30
0.000000000000000
 40
3.500000000000000
100
AcDbArc
 50
224.4522453048716
 51
227.1316426141372
  0
ARC
  5
24E
100
AcDbEntity
  8
A1
  6
CONTINUOUS
 62
7
100
AcDbCircle
 10
142.3464604743960
 20
42.70642882462050
 30
0.000000000000000
 40
3.500000000000000
100
AcDbArc
 50
357.2367537340977
 51
542.7632462659022
  0
ARC
  5
24F
100
AcDbEntity
  8
A1
  6
CONTINUOUS
 62
7
100
AcDbCircle
 10
142.3464604743960
 20
42.70642882462050
 30
0.000000000000000
 40
3.500000000000000
100
AcDbArc
 50
224.6816642892309
 51
236.0306746807270
  0
ARC
  5
250
100
AcDbEntity
  8
A1
  6
CONTINUOUS
 62
7
100
AcDbCircle
 10
142.3464604743960
 20
43.04389218825686
 30
0.000000000000000
 40
3.500000000000000
100
AcDbArc
 50
357.2367537340977
 51
542.7632462659022
  0
ARC
  5
251
100
AcDbEntity
  8
A1
  6
CONTINUOUS
 62
7
100
AcDbCircle
 10
142.3464604743960
 20
43.04389218825686
 30
0.000000000000000
 40
3.500000000000000
100
AcDbArc
 50
225.7333429880301
 51
247.7824694433270
  0
ARC
  5
252
100
AcDbEntity
  8
A1
  6
CONTINUOUS
 62
7
100
AcDbCircle
 10
142.3464604743960
 20
43.71881891552958
 30
0.000000000000000
 40
3.500000000000000
100
AcDbArc
 50
357.2367537340977
 51
542.7632462659022
  0
ARC
  5
253
100
AcDbEntity
  8
A1
  6
CONTINUOUS
 62
7
100
AcDbCircle
 10
142.3464604743960
 20
43.38135555189322
 30
0.000000000000000
 40
3.500000000000000
100
AcDbArc
 50
357.2367537340977
 51
542.7632462659022
  0
ARC
  5
254
100
AcDbEntity
  8
A1
  6
CONTINUOUS
 62
7
100
AcDbCircle
 10
142.3464604743960
 20
43.38135555189322
 30
0.000000000000000
 40
3.500000000000000
100
AcDbArc
 50
227.3990907368144
 51
261.7867892982618
  0
ARC
  5
255
100
AcDbEntity
  8
A1
  6
CONTINUOUS
 62
7
100
AcDbCircle
 10
142.3464604743960
 20
43.38135555189322
 30
0.000000000000000
 40
3.500000000000000
100
AcDbArc
 50
278.2132107017381
 51
312.6009092631858
  0
ARC
  5
256
100
AcDbEntity
  8
A1
  6
CONTINUOUS
 62
7
100
AcDbCircle
 10
142.3464604743960
 20
43.71881891552958
 30
0.000000000000000
 40
3.500000000000000
100
AcDbArc
 50
229.5705317922182
 51
261.7867892982618
  0
ARC
  5
257
100
AcDbEntity
  8
A1
  6
CONTINUOUS
 62
7
100
AcDbCircle
 10
142.3464604743960
 20
43.71881891552958
 30
0.000000000000000
 40
3.500000000000000
100
AcDbArc
 50
278.2132107017381
 51
310.4294682077818
  0
LINE
  5
258
100
AcDbEntity
  8
A1
  6
CONTINUOUS
 62
7
100
AcDbLine
 10
162.3464604743959
 20
248.0770879155296
 30
0.000000000000000
 11
151.5464574743960
 21
248.0770879155296
 31
0.000000000000000
  0
LINE
  5
259
100
AcDbEntity
  8
A4
  6
CENTER
 62
1
100
AcDbLine
 10
142.3464604743960
 20
253.0770879155296
 30
0.000000000000000
 11
142.3464604743960
 21
222.8770829155294
 31
0.000000000000000
  0
LINE
  5
25A
100
AcDbEntity
  8
A1
  6
CONTINUOUS
 62
7
100
AcDbLine
 10
150.3464604743961
 20
227.8770829155294
 30
0.000000000000000
 11
134.3464604743959
 21
227.8770829155294
 31
0.000000000000000
  0
LINE
  5
25B
100
AcDbEntity
  8
A1
  6
CONTINUOUS
 62
7
100
AcDbLine
 10
162.3464604743959
 20
248.0770879155296
 30
0.000000000000000
 11
162.3464604743959
 21
246.8770869155295
 31
0.000000000000000
  0
LINE
  5
25C
100
AcDbEntity
  8
A1
  6
CONTINUOUS
 62
7
100
AcDbLine
 10
122.3464604743960
 20
248.0770879155296
 30
0.000000000000000
 11
122.3464604743960
 21
246.8770869155295
 31
0.000000000000000
  0
LINE
  5
25D
100
AcDbEntity
  8
A1
  6
CONTINUOUS
 62
7
100
AcDbLine
 10
133.1464474743960
 20
246.8770869155295
 30
0.000000000000000
 11
122.3464604743960
 21
246.8770869155295
 31
0.000000000000000
  0
LINE
  5
25E
100
AcDbEntity
  8
A1
  6
CONTINUOUS
 62
7
100
AcDbLine
 10
134.3464604743959
 20
246.8770869155295
 30
0.000000000000000
 11
134.3464604743959
 21
237.9114729155296
 31
0.000000000000000
  0
LINE
  5
25F
100
AcDbEntity
  8
A1
  6
CONTINUOUS
 62
7
100
AcDbLine
 10
150.3464604743961
 20
246.8770869155295
 30
0.000000000000000
 11
150.3464604743961
 21
237.9114729155296
 31
0.000000000000000
  0
LINE
  5
260
100
AcDbEntity
  8
A1
  6
CONTINUOUS
 62
7
100
AcDbLine
 10
133.1464474743960
 20
246.8770869155295
 30
0.000000000000000
 11
133.1464474743960
 21
238.0829019155295
 31
0.000000000000000
  0
LINE
  5
261
100
AcDbEntity
  8
A1
  6
CONTINUOUS
 62
7
100
AcDbLine
 10
151.5464574743960
 20
246.8770869155295
 30
0.000000000000000
 11
151.5464574743960
 21
238.0829019155295
 31
0.000000000000000
  0
LINE
  5
262
100
AcDbEntity
  8
A1
  6
CONTINUOUS
 62
7
100
AcDbLine
 10
150.3464604743961
 20
229.0770879155296
 30
0.000000000000000
 11
150.0964604743959
 21
229.0770879155296
 31
0.000000000000000
  0
LINE
  5
263
100
AcDbEntity
  8
A1
  6
CONTINUOUS
 62
7
100
AcDbLine
 10
162.3464604743959
 20
246.8770869155295
 30
0.000000000000000
 11
151.5464574743960
 21
246.8770869155295
 31
0.000000000000000
  0
LINE
  5
264
100
AcDbEntity
  8
A1
  6
CONTINUOUS
 62
7
100
AcDbLine
 10
133.1464474743960
 20
248.0770879155296
 30
0.000000000000000
 11
122.3464604743960
 21
248.0770879155296
 31
0.000000000000000
  0
LINE
  5
265
100
AcDbEntity
  8
A1
  6
CONTINUOUS
 62
7
100
AcDbLine
 10
152.5464574743960
 20
236.2770849155296
 30
0.000000000000000
 11
151.8464604743960
 21
236.2770849155296
 31
0.000000000000000
  0
LINE
  5
266
100
AcDbEntity
  8
A1
  6
CONTINUOUS
 62
7
100
AcDbLine
 10
132.1464474743960
 20
236.2770849155296
 30
0.000000000000000
 11
132.8464604743960
 21
236.2770849155296
 31
0.000000000000000
  0
LINE
  5
267
100
AcDbEntity
  8
A1
  6
CONTINUOUS
 62
7
100
AcDbLine
 10
132.1464474743960
 20
235.0770879155296
 30
0.000000000000000
 11
133.1464474743960
 21
235.0770879155296
 31
0.000000000000000
  0
LINE
  5
268
100
AcDbEntity
  8
A1
  6
CONTINUOUS
 62
7
100
AcDbLine
 10
136.1964504743960
 20
228.0770879155296
 30
0.000000000000000
 11
136.1964504743960
 21
232.9888539155295
 31
0.000000000000000
  0
LINE
  5
269
100
AcDbEntity
  8
A1
  6
CONTINUOUS
 62
7
100
AcDbLine
 10
148.4964534743961
 20
228.0770879155296
 30
0.000000000000000
 11
148.4964534743961
 21
232.9888539155295
 31
0.000000000000000
  0
LINE
  5
26A
100
AcDbEntity
  8
A1
  6
CONTINUOUS
 62
7
100
AcDbLine
 10
134.5964604743960
 20
228.0770879155296
 30
0.000000000000000
 11
134.5964604743960
 21
247.0770879155295
 31
0.000000000000000
  0
LINE
  5
26B
100
AcDbEntity
  8
A1
  6
CONTINUOUS
 62
7
100
AcDbLine
 10
150.0964604743959
 20
228.0770879155296
 30
0.000000000000000
 11
150.0964604743959
 21
247.0770879155295
 31
0.000000000000000
  0
LINE
  5
26C
100
AcDbEntity
  8
A1
  6
CONTINUOUS
 62
7
100
AcDbLine
 10
132.8464604743960
 20
235.6257559155295
 30
0.000000000000000
 11
132.8464604743960
 21
238.1257599155296
 31
0.000000000000000
  0
LINE
  5
26D
100
AcDbEntity
  8
A4
  6
CENTER
 62
1
100
AcDbLine
 10
153.8464604743960
 20
236.8757559155294
 30
0.000000000000000
 11
130.8464604743960
 21
236.8757559155294
 31
0.000000000000000
  0
LINE
  5
26E
100
AcDbEntity
  8
A1
  6
CONTINUOUS
 62
7
100
AcDbLine
 10
151.8464604743960
 20
235.6257559155295
 30
0.000000000000000
 11
151.8464604743960
 21
238.1257599155296
 31
0.000000000000000
  0
LINE
  5
26F
100
AcDbEntity
  8
A1
  6
CONTINUOUS
 62
7
100
AcDbLine
 10
150.3464604743961
 20
243.0770879155296
 30
0.000000000000000
 11
150.0964604743959
 21
243.0770879155296
 31
0.000000000000000
  0
LINE
  5
270
100
AcDbEntity
  8
A1
  6
CONTINUOUS
 62
7
100
AcDbLine
 10
150.3464604743961
 20
246.0770879155296
 30
0.000000000000000
 11
150.0964604743959
 21
246.0770879155296
 31
0.000000000000000
  0
LINE
  5
271
100
AcDbEntity
  8
A1
  6
CONTINUOUS
 62
7
100
AcDbLine
 10
132.8464444743961
 20
238.1257599155296
 30
0.000000000000000
 11
134.5964604743960
 21
237.8757559155296
 31
0.000000000000000
  0
LINE
  5
272
100
AcDbEntity
  8
A1
  6
CONTINUOUS
 62
7
100
AcDbLine
 10
132.8464444743961
 20
235.6257559155295
 30
0.000000000000000
 11
134.5964444743961
 21
235.8757559155297
 31
0.000000000000000
  0
LINE
  5
273
100
AcDbEntity
  8
A1
  6
CONTINUOUS
 62
7
100
AcDbLine
 10
151.8464444743959
 20
235.6257559155295
 30
0.000000000000000
 11
150.0964604743959
 21
235.8757559155297
 31
0.000000000000000
  0
LINE
  5
274
100
AcDbEntity
  8
A1
  6
CONTINUOUS
 62
7
100
AcDbLine
 10
151.8464604743960
 20
238.1257599155296
 30
0.000000000000000
 11
150.0964444743959
 21
237.8757599155295
 31
0.000000000000000
  0
LINE
  5
275
100
AcDbEntity
  8
A1
  6
CONTINUOUS
 62
7
100
AcDbLine
 10
131.3464604743959
 20
246.3270879155296
 30
0.000000000000000
 11
131.3464604743959
 21
242.8270879155295
 31
0.000000000000000
  0
LINE
  5
276
100
AcDbEntity
  8
A1
  6
CONTINUOUS
 62
7
100
AcDbLine
 10
153.3464444743960
 20
246.3270839155295
 30
0.000000000000000
 11
151.5464574743959
 21
246.0770839155295
 31
0.000000000000000
  0
LINE
  5
277
100
AcDbEntity
  8
A1
  6
CONTINUOUS
 62
7
100
AcDbLine
 10
131.3464604743958
 20
242.8270879155295
 30
0.000000000000000
 11
133.1464634743958
 21
243.0770879155296
 31
0.000000000000000
  0
LINE
  5
278
100
AcDbEntity
  8
A1
  6
CONTINUOUS
 62
7
100
AcDbLine
 10
131.3464604743959
 20
246.3270839155295
 30
0.000000000000000
 11
133.1464634743959
 21
246.0770839155295
 31
0.000000000000000
  0
LINE
  5
279
100
AcDbEntity
  8
A1
  6
CONTINUOUS
 62
7
100
AcDbLine
 10
153.3464604743960
 20
246.3270879155296
 30
0.000000000000000
 11
153.3464604743960
 21
242.8270879155295
 31
0.000000000000000
  0
LINE
  5
27A
100
AcDbEntity
  8
A1
  6
CONTINUOUS
 62
7
100
AcDbLine
 10
153.3464444743961
 20
242.8270879155295
 30
0.000000000000000
 11
151.5464574743960
 21
243.0770879155296
 31
0.000000000000000
  0
LINE
  5
27B
100
AcDbEntity
  8
A1
  6
CONTINUOUS
 62
7
100
AcDbLine
 10
133.1464474743960
 20
229.0770879155296
 30
0.000000000000000
 11
131.1464474743960
 21
229.0770879155296
 31
0.000000000000000
  0
LINE
  5
27C
100
AcDbEntity
  8
A1
  6
CONTINUOUS
 62
7
100
AcDbLine
 10
131.1464474743960
 20
231.7437519155296
 30
0.000000000000000
 11
131.1464474743960
 21
229.0770879155296
 31
0.000000000000000
  0
LINE
  5
27D
100
AcDbEntity
  8
A1
  6
CONTINUOUS
 62
7
100
AcDbLine
 10
134.5964604743960
 20
233.0770879155296
 30
0.000000000000000
 11
134.3464604743959
 21
233.0770879155296
 31
0.000000000000000
  0
LINE
  5
27E
100
AcDbEntity
  8
A1
  6
CONTINUOUS
 62
7
100
AcDbLine
 10
150.0964604743959
 20
233.0770879155296
 30
0.000000000000000
 11
150.3464604743961
 21
233.0770879155296
 31
0.000000000000000
  0
LINE
  5
27F
100
AcDbEntity
  8
A1
  6
CONTINUOUS
 62
7
100
AcDbLine
 10
150.0964604743959
 20
235.0770879155296
 30
0.000000000000000
 11
150.3464604743961
 21
235.0770879155296
 31
0.000000000000000
  0
LINE
  5
280
100
AcDbEntity
  8
A1
  6
CONTINUOUS
 62
7
100
AcDbLine
 10
153.5464574743960
 20
231.7437519155296
 30
0.000000000000000
 11
153.5464574743960
 21
229.0770879155296
 31
0.000000000000000
  0
LINE
  5
281
100
AcDbEntity
  8
A1
  6
CONTINUOUS
 62
7
100
AcDbLine
 10
151.5464574743960
 20
229.0770879155296
 30
0.000000000000000
 11
153.5464574743960
 21
229.0770879155296
 31
0.000000000000000
  0
LINE
  5
282
100
AcDbEntity
  8
A1
  6
CONTINUOUS
 62
7
100
AcDbLine
 10
151.5464574743960
 20
231.0770799155293
 30
0.000000000000000
 11
153.3464604743960
 21
233.4770819155296
 31
0.000000000000000
  0
LINE
  5
283
100
AcDbEntity
  8
A1
  6
CONTINUOUS
 62
7
100
AcDbLine
 10
152.5064484743959
 20
230.3570869155295
 30
0.000000000000000
 11
154.3064514743959
 21
232.7570809155294
 31
0.000000000000000
  0
LINE
  5
284
100
AcDbEntity
  8
A1
  6
CONTINUOUS
 62
7
100
AcDbLine
 10
151.5464574743959
 20
231.0770799155294
 30
0.000000000000000
 11
152.5064484743959
 21
230.3570869155295
 31
0.000000000000000
  0
LINE
  5
285
100
AcDbEntity
  8
A1
  6
CONTINUOUS
 62
7
100
AcDbLine
 10
133.1464474743960
 20
231.0770879155296
 30
0.000000000000000
 11
131.3464444743960
 21
233.4770899155296
 31
0.000000000000000
  0
LINE
  5
286
100
AcDbEntity
  8
A1
  6
CONTINUOUS
 62
7
100
AcDbLine
 10
132.1864564743960
 20
230.3570869155295
 30
0.000000000000000
 11
130.3864534743961
 21
232.7570879155295
 31
0.000000000000000
  0
LINE
  5
287
100
AcDbEntity
  8
A1
  6
CONTINUOUS
 62
7
100
AcDbLine
 10
133.1464474743960
 20
231.0770879155297
 30
0.000000000000000
 11
132.1864564743960
 21
230.3570869155295
 31
0.000000000000000
  0
LINE
  5
288
100
AcDbEntity
  8
A1
  6
CONTINUOUS
 62
7
100
AcDbLine
 10
136.1964504743960
 20
243.0771449155296
 30
0.000000000000000
 11
148.4964534743961
 21
243.0771449155296
 31
0.000000000000000
  0
LINE
  5
289
100
AcDbEntity
  8
A1
  6
CONTINUOUS
 62
7
100
AcDbLine
 10
136.1964504743960
 20
232.9888539155295
 30
0.000000000000000
 11
148.4964534743961
 21
232.9888539155295
 31
0.000000000000000
  0
LINE
  5
28A
100
AcDbEntity
  8
A1
  6
CONTINUOUS
 62
7
100
AcDbLine
 10
136.1964504743960
 20
233.3790059155295
 30
0.000000000000000
 11
148.4964534743961
 21
233.3790059155295
 31
0.000000000000000
  0
LINE
  5
28B
100
AcDbEntity
  8
A1
  6
CONTINUOUS
 62
7
100
AcDbLine
 10
134.5964604743960
 20
247.0770879155295
 30
0.000000000000000
 11
136.1964504743960
 21
247.0770879155295
 31
0.000000000000000
  0
LINE
  5
28C
100
AcDbEntity
  8
A1
  6
CONTINUOUS
 62
7
100
AcDbLine
 10
148.4964534743961
 20
247.0770879155295
 30
0.000000000000000
 11
150.0964604743959
 21
247.0770879155295
 31
0.000000000000000
  0
LINE
  5
28D
100
AcDbEntity
  8
A1
  6
CONTINUOUS
 62
7
100
AcDbLine
 10
136.1964504743960
 20
243.0771449155296
 30
0.000000000000000
 11
136.1964504743960
 21
247.0770879155295
 31
0.000000000000000
  0
LINE
  5
28E
100
AcDbEntity
  8
A1
  6
CONTINUOUS
 62
7
100
AcDbLine
 10
148.4964534743961
 20
243.0771449155296
 30
0.000000000000000
 11
148.4964534743961
 21
247.0770879155295
 31
0.000000000000000
  0
LINE
  5
28F
100
AcDbEntity
  8
A1
  6
CONTINUOUS
 62
7
100
AcDbLine
 10
134.5964604743960
 20
228.0770879155296
 30
0.000000000000000
 11
136.1964504743960
 21
228.0770879155296
 31
0.000000000000000
  0
LINE
  5
290
100
AcDbEntity
  8
A1
  6
CONTINUOUS
 62
7
100
AcDbLine
 10
148.4964534743961
 20
228.0770879155296
 30
0.000000000000000
 11
150.0964604743959
 21
228.0770879155296
 31
0.000000000000000
  0
LINE
  5
291
100
AcDbEntity
  8
A1
  6
CONTINUOUS
 62
7
100
AcDbLine
 10
134.8964474743961
 20
246.1222769155294
 30
0.000000000000000
 11
135.8964474743961
 21
246.1222769155294
 31
0.000000000000000
  0
LINE
  5
292
100
AcDbEntity
  8
A1
  6
CONTINUOUS
 62
7
100
AcDbLine
 10
149.7964574743960
 20
246.1222769155294
 30
0.000000000000000
 11
148.7964574743960
 21
246.1222769155294
 31
0.000000000000000
  0
LINE
  5
293
100
AcDbEntity
  8
A1
  6
CONTINUOUS
 62
7
100
AcDbLine
 10
134.5964604743960
 20
229.0770879155296
 30
0.000000000000000
 11
134.3464604743959
 21
229.0770879155296
 31
0.000000000000000
  0
LINE
  5
294
100
AcDbEntity
  8
A1
  6
CONTINUOUS
 62
7
100
AcDbLine
 10
148.4964534743961
 20
229.0770879155296
 30
0.000000000000000
 11
136.1964504743960
 21
229.0770879155296
 31
0.000000000000000
  0
LINE
  5
295
100
AcDbEntity
  8
A1
  6
CONTINUOUS
 62
7
100
AcDbLine
 10
133.1464474743960
 20
233.0770879155296
 30
0.000000000000000
 11
132.1464474743960
 21
233.0770879155296
 31
0.000000000000000
  0
LINE
  5
296
100
AcDbEntity
  8
A1
  6
CONTINUOUS
 62
7
100
AcDbLine
 10
134.3464604743959
 20
235.0770879155296
 30
0.000000000000000
 11
134.5964604743960
 21
235.0770879155296
 31
0.000000000000000
  0
LINE
  5
297
100
AcDbEntity
  8
A1
  6
CONTINUOUS
 62
7
100
AcDbLine
 10
151.5464574743960
 20
233.0770879155296
 30
0.000000000000000
 11
152.5464574743960
 21
233.0770879155296
 31
0.000000000000000
  0
LINE
  5
298
100
AcDbEntity
  8
A1
  6
CONTINUOUS
 62
7
100
AcDbLine
 10
151.5464574743960
 20
235.0770879155296
 30
0.000000000000000
 11
152.5464574743960
 21
235.0770879155296
 31
0.000000000000000
  0
LINE
  5
299
100
AcDbEntity
  8
A1
  6
CONTINUOUS
 62
7
100
AcDbLine
 10
150.3464604743961
 20
235.8400429155295
 30
0.000000000000000
 11
150.3464604743961
 21
229.0770879155296
 31
0.000000000000000
  0
LINE
  5
29A
100
AcDbEntity
  8
A1
  6
CONTINUOUS
 62
7
100
AcDbLine
 10
151.5464574743960
 20
235.6686179155296
 30
0.000000000000000
 11
151.5464574743960
 21
229.0770879155296
 31
0.000000000000000
  0
LINE
  5
29B
100
AcDbEntity
  8
A1
  6
CONTINUOUS
 62
7
100
AcDbLine
 10
134.3464604743959
 20
235.8400429155295
 30
0.000000000000000
 11
134.3464604743959
 21
229.0770879155296
 31
0.000000000000000
  0
LINE
  5
29C
100
AcDbEntity
  8
A1
  6
CONTINUOUS
 62
7
100
AcDbLine
 10
133.1464474743960
 20
235.6686179155296
 30
0.000000000000000
 11
133.1464474743960
 21
229.0770879155296
 31
0.000000000000000
  0
LINE
  5
29D
100
AcDbEntity
  8
A1
  6
CONTINUOUS
 62
7
100
AcDbLine
 10
134.5964604743960
 20
243.0770879155296
 30
0.000000000000000
 11
134.3464604743959
 21
243.0770879155296
 31
0.000000000000000
  0
LINE
  5
29E
100
AcDbEntity
  8
A1
  6
CONTINUOUS
 62
7
100
AcDbLine
 10
134.5964604743960
 20
246.0770879155296
 30
0.000000000000000
 11
134.3464604743959
 21
246.0770879155296
 31
0.000000000000000
  0
LINE
  5
29F
100
AcDbEntity
  8
A1
  6
CONTINUOUS
 62
7
100
AcDbLine
 10
148.4964534743961
 20
246.0770879155296
 30
0.000000000000000
 11
144.6261244851970
 21
246.0770879155296
 31
0.000000000000000
  0
LINE
  5
2A0
100
AcDbEntity
  8
A4
  6
CENTER
 62
1
100
AcDbLine
 10
155.3464604743960
 20
244.5770879155296
 30
0.000000000000000
 11
129.3464604743960
 21
244.5770879155296
 31
0.000000000000000
  0
LINE
  5
2A1
100
AcDbEntity
  8
A1
  6
CONTINUOUS
 62
7
100
AcDbLine
 10
140.9354429808063
 20
246.0770879155296
 30
0.000000000000000
 11
136.1964504743960
 21
246.0770879155296
 31
0.000000000000000
  0
LINE
  5
2A2
100
AcDbEntity
  8
A4
  6
CENTER
 62
1
100
AcDbLine
 10
127.3464604743960
 20
244.8770869155296
 30
0.000000000000000
 11
127.3464604743960
 21
250.0770879155296
 31
0.000000000000000
  0
LINE
  5
2A3
100
AcDbEntity
  8
A4
  6
CENTER
 62
1
100
AcDbLine
 10
157.3464604743959
 20
244.8770869155296
 30
0.000000000000000
 11
157.3464604743959
 21
250.0770879155296
 31
0.000000000000000
  0
ARC
  5
2A4
100
AcDbEntity
  8
A1
  6
CONTINUOUS
 62
7
100
AcDbCircle
 10
133.1464474743960
 20
246.8770869155295
 30
0.000000000000000
 40
1.199999999999999
100
AcDbArc
 50
0.000000000000000
 51
90.00000300000002
  0
ARC
  5
2A5
100
AcDbEntity
  8
A1
  6
CONTINUOUS
 62
7
100
AcDbCircle
 10
151.5464574743960
 20
246.8770869155295
 30
0.000000000000000
 40
1.199999999999999
100
AcDbArc
 50
89.99999900000002
 51
180.0000090000000
  0
ARC
  5
2A6
100
AcDbEntity
  8
A1
  6
CONTINUOUS
 62
7
100
AcDbCircle
 10
150.3464604743961
 20
229.0770879155296
 30
0.000000000000000
 40
1.199999999999999
100
AcDbArc
 50
269.9999969999999
 51
360.0000000000000
  0
ARC
  5
2A7
100
AcDbEntity
  8
A1
  6
CONTINUOUS
 62
7
100
AcDbCircle
 10
134.3464604743959
 20
229.0770879155296
 30
0.000000000000000
 40
1.199999999999999
100
AcDbArc
 50
179.9999949999999
 51
269.9999969999999
  0
ARC
  5
2A8
100
AcDbEntity
  8
A1
  6
CONTINUOUS
 62
7
100
AcDbCircle
 10
132.1464474743960
 20
234.0770879155296
 30
0.000000000000000
 40
1.000000000000000
100
AcDbArc
 50
89.99999900000002
 51
269.9999969999999
  0
ARC
  5
2A9
100
AcDbEntity
  8
A1
  6
CONTINUOUS
 62
7
100
AcDbCircle
 10
152.5464574743960
 20
234.0770879155296
 30
0.000000000000000
 40
1.000000000000000
100
AcDbArc
 50
269.9999969999999
 51
450.0000030000000
  0
ARC
  5
2AA
100
AcDbEntity
  8
A1
  6
CONTINUOUS
 62
7
100
AcDbCircle
 10
152.5464574743960
 20
234.0770879155296
 30
0.000000000000000
 40
2.200000000000000
100
AcDbArc
 50
323.1300919999998
 51
450.0000030000000
  0
ARC
  5
2AB
100
AcDbEntity
  8
A1
  6
CONTINUOUS
 62
7
100
AcDbCircle
 10
132.1464474743960
 20
234.0770879155296
 30
0.000000000000000
 40
2.200000000000000
100
AcDbArc
 50
89.99999900000002
 51
216.8699029999999
  0
ARC
  5
2AC
100
AcDbEntity
  8
A1
  6
CONTINUOUS
 62
7
100
AcDbCircle
 10
136.1964504743960
 20
241.4771429155296
 30
0.000000000000000
 40
1.600000000000000
100
AcDbArc
 50
89.99999900000002
 51
180.0000090000000
  0
ARC
  5
2AD
100
AcDbEntity
  8
A1
  6
CONTINUOUS
 62
7
100
AcDbCircle
 10
148.4964534743961
 20
241.4771429155296
 30
0.000000000000000
 40
1.600000000000000
100
AcDbArc
 50
0.000000000000000
 51
90.00000300000002
  0
ARC
  5
2AE
100
AcDbEntity
  8
A1
  6
CONTINUOUS
 62
7
100
AcDbCircle
 10
136.1964504743960
 20
231.7790079155296
 30
0.000000000000000
 40
1.600000000000000
100
AcDbArc
 50
89.99999900000002
 51
180.0000090000000
  0
ARC
  5
2AF
100
AcDbEntity
  8
A1
  6
CONTINUOUS
 62
7
100
AcDbCircle
 10
148.4964534743961
 20
231.7790079155296
 30
0.000000000000000
 40
1.600000000000000
100
AcDbArc
 50
0.000000000000000
 51
90.00000300000002
  0
ARC
  5
2B0
100
AcDbEntity
  8
A1
  6
CONTINUOUS
 62
7
100
AcDbCircle
 10
142.3464604743960
 20
242.8741159155296
 30
0.000000000000000
 40
3.500000000000000
100
AcDbArc
 50
3.325496757360550
 51
176.6745032426394
  0
ARC
  5
2B1
100
AcDbEntity
  8
A1
  6
CONTINUOUS
 62
7
100
AcDbCircle
 10
142.3464604743960
 20
242.1991891882569
 30
0.000000000000000
 40
3.500000000000000
100
AcDbArc
 50
14.52749057726260
 51
165.4725094227374
  0
ARC
  5
2B2
100
AcDbEntity
  8
A1
  6
CONTINUOUS
 62
7
100
AcDbCircle
 10
142.3464604743960
 20
241.5242624609841
 30
0.000000000000000
 40
3.500000000000000
100
AcDbArc
 50
26.33896126988425
 51
153.6610387301157
  0
ARC
  5
2B3
100
AcDbEntity
  8
A1
  6
CONTINUOUS
 62
7
100
AcDbCircle
 10
142.3464604743960
 20
240.8493357337114
 30
0.000000000000000
 40
3.500000000000000
100
AcDbArc
 50
39.53258179174234
 51
140.4674182082577
  0
ARC
  5
2B4
100
AcDbEntity
  8
A1
  6
CONTINUOUS
 62
7
100
AcDbCircle
 10
142.3464604743960
 20
240.1744090064387
 30
0.000000000000000
 40
3.500000000000000
100
AcDbArc
 50
56.03234470235884
 51
123.9676552976413
  0
ARC
  5
2B5
100
AcDbEntity
  8
A1
  6
CONTINUOUS
 62
7
100
AcDbCircle
 10
142.3601474743959
 20
243.4096269155296
 30
0.000000000000000
 40
3.500000000000000
100
AcDbArc
 50
354.7008099999999
 51
423.4103010000000
  0
ARC
  5
2B6
100
AcDbEntity
  8
A1
  6
CONTINUOUS
 62
7
100
AcDbCircle
 10
145.3142944743960
 20
249.3115769155294
 30
0.000000000000000
 40
3.099999871220582
100
AcDbArc
 50
214.4720690000000
 51
243.4102959999999
  0
ARC
  5
2B7
100
AcDbEntity
  8
A1
  6
CONTINUOUS
 62
7
100
AcDbCircle
 10
142.3464604743960
 20
247.2739609155296
 30
0.000000000000000
 40
0.4999886864563874
100
AcDbArc
 50
34.47206400000000
 51
214.4720690000000
  0
ARC
  5
2B8
100
AcDbEntity
  8
A1
  6
CONTINUOUS
 62
7
100
AcDbCircle
 10
145.3142944743960
 20
249.3115769155294
 30
0.000000000000000
 40
4.099977244077568
100
AcDbArc
 50
214.4720690000000
 51
225.7970236677751
  0
LINE
  5
2B9
100
AcDbEntity
  8
A1
  6
CONTINUOUS
 62
7
100
AcDbLine
 10
141.8464534743961
 20
247.2739609155296
 30
0.000000000000000
 11
141.8464534743961
 21
246.3382165202972
 31
0.000000000000000
  0
ENDSEC
  0
SECTION
  2
OBJECTS
  0
DICTIONARY
  5
2E8
100
AcDbDictionary
  3
ACAD_GROUP
350
2E9
  3
ACAD_LAYOUT
350
2EA
  3
ACAD_MLINESTYLE
350
2EB
  0
DICTIONARY
  5
2E9
102
{ACAD_REACTORS
330
2E8
102
}
330
2E8
100
AcDbDictionary
  0
DICTIONARY
  5
2EA
102
{ACAD_REACTORS
330
2E8
102
}
330
2E8
100
AcDbDictionary
  3
Model
350
2EC
  3
ﾚｲｱｳﾄ1
350
2ED
  3
ﾚｲｱｳﾄ2
350
2EE
  0
DICTIONARY
  5
2EB
102
{ACAD_REACTORS
330
2E8
102
}
330
2E8
100
AcDbDictionary
  3
STANDARD
350
2EF
  0
LAYOUT
  5
2EC
102
{ACAD_REACTORS
330
2EA
102
}
330
2EA
100
AcDbPlotSettings
 70
11952
  4
A3
 44
297.000000
 45
420.000000
 73
  1
 72
  1
100
AcDbLayout
  1
Model
 71
0
330
2DF
  0
LAYOUT
  5
2ED
102
{ACAD_REACTORS
330
2EA
102
}
330
2EA
100
AcDbPlotSettings
100
AcDbLayout
  1
ﾚｲｱｳﾄ1
 71
1
330
2E0
  0
LAYOUT
  5
2EE
102
{ACAD_REACTORS
330
2EA
102
}
330
2EA
100
AcDbPlotSettings
100
AcDbLayout
  1
ﾚｲｱｳﾄ2
 71
2
330
2E1
  0
MLINESTYLE
  5
2EF
102
{ACAD_REACTORS
330
2EB
102
}
330
2EB
100
AcDbMlineStyle
  2
STANDARD
 70
     0
  3

 62
   256
 51
90.00
 52
90.00
 71
     2
 49
0.50
 62
   256
  6
BYLAYER
 49
-0.50
 62
   256
  6
BYLAYER
  0
ENDSEC
  0
EOF
