  0
SECTION
  2
HEADER
  9
$ACADVER
  1
AC1015
  9
$DWGCODEPAGE
  3
ANSI_932
  9
$LTSCALE
 40
20.0
  9
$FILLMODE
 70
     1
  9
$CLAYER
  8
0
  9
$PDMODE
 70
     0
  9
$SPLFRAME
 70
     0
  9
$SPLINETYPE
 70
     6
  9
$SPLINESEGS
 70
     8
  9
$DIMASZ
 40
2.000000
  9
$DIMEXE
 40
1.500000
  9
$DIMEXO
 40
0.800000
  9
$DIMTAD
 70
     1
  9
$DIMTIH
 70
     0
  9
$DIMTOH
 70
     0
  9
$DIMTVP
 40
0.500000
  9
$DIMTXT
 40
3.100000
  9
$EXTMIN
 10
0.000000
 20
0.000000
 30
0.000000
  9
$EXTMAX
 10
297.000000
 20
420.000000
 30
0.000000
  9
$MEASUREMENT
 70
  1
  9
$LIMMIN
 10
0.000000
 20
0.000000
  9
$LIMMAX
 10
297.000000
 20
420.000000
  9
$HANDSEED
  5
1A8
  9
$LWDISPLAY
290
     0
  9
$DIMBLK
  1
_OPEN
  9
$DIMDEC
 70
     2
  9
$DIMADEC
 70
     2
  9
$DIMAUNIT
 70
     0
  9
$DIMZIN
 70
     8
  9
$DIMAZIN
 70
     2
  9
$DIMTOFL
 70
     1
  0
ENDSEC
  0
SECTION
  2
CLASSES
  0
ENDSEC
  0
SECTION
  2
TABLES
  0
TABLE
  2
VPORT
  5
177
100
AcDbSymbolTable
 70
     1
  0
VPORT
  5
178
100
AcDbSymbolTableRecord
100
AcDbViewportTableRecord
  2
*ACTIVE
 70
     0
 12
182.508626
 22
147.007551
 40
291.419539
 41
2.151821
  0
ENDTAB
  0
TABLE
  2
LTYPE
  5
179
100
AcDbSymbolTable
 70
     2
  0
LTYPE
  5
17A
100
AcDbSymbolTableRecord
100
AcDbLinetypeTableRecord
  2
BYBLOCK
 70
     0
  3

 72
    65
 73
     0
 40
0.0
  0
LTYPE
  5
17B
100
AcDbSymbolTableRecord
100
AcDbLinetypeTableRecord
  2
BYLAYER
 70
     0
  3

 72
    65
 73
     0
 40
0.0
  0
LTYPE
  5
17C
100
AcDbSymbolTableRecord
100
AcDbLinetypeTableRecord
  2
CONTINUOUS
 70
     0
  3
Solid line (NEC CAE2D for Win R15.2 : 2020.01.15)
 72
    65
 73
     0
 40
0.0
  0
LTYPE
  5
17D
100
AcDbSymbolTableRecord
100
AcDbLinetypeTableRecord
  2
CENTER
 70
     0
  3
____ _ ____ _ ____ _ ____ _ ____ _ ____
 72
    65
 73
     4
 40
2.0
 49
1.25
 74
     0
 49
-0.25
 74
     0
 49
0.25
 74
     0
 49
-0.25
 74
     0
  0
ENDTAB
  0
TABLE
  2
LAYER
  5
17E
100
AcDbSymbolTable
 70
    11
  0
LAYER
  5
17F
100
AcDbSymbolTableRecord
100
AcDbLayerTableRecord
  2
0
 70
     0
 62
     7
  6
CONTINUOUS
370
    -3
390

  0
LAYER
  5
180
100
AcDbSymbolTableRecord
100
AcDbLayerTableRecord
  2
DXF0
 70
     0
 62
     7
  6
CONTINUOUS
370
    -3
390

  0
LAYER
  5
181
100
AcDbSymbolTableRecord
100
AcDbLayerTableRecord
  2
4
 70
     0
 62
     1
  6
CONTINUOUS
370
    -3
390

  0
LAYER
  5
182
100
AcDbSymbolTableRecord
100
AcDbLayerTableRecord
  2
5
 70
     0
 62
     6
  6
CONTINUOUS
370
    -3
390

  0
LAYER
  5
183
100
AcDbSymbolTableRecord
100
AcDbLayerTableRecord
  2
1
 70
     0
 62
     7
  6
CONTINUOUS
370
    -3
390

  0
LAYER
  5
184
100
AcDbSymbolTableRecord
100
AcDbLayerTableRecord
  2
2
 70
     0
 62
     4
  6
CONTINUOUS
370
    -3
390

  0
LAYER
  5
185
100
AcDbSymbolTableRecord
100
AcDbLayerTableRecord
  2
3
 70
     0
 62
     2
  6
CONTINUOUS
370
    -3
390

  0
LAYER
  5
186
100
AcDbSymbolTableRecord
100
AcDbLayerTableRecord
  2
6
 70
     0
 62
     5
  6
CONTINUOUS
370
    -3
390

  0
LAYER
  5
187
100
AcDbSymbolTableRecord
100
AcDbLayerTableRecord
  2
7
 70
     0
 62
     7
  6
CONTINUOUS
370
    -3
390

  0
LAYER
  5
188
100
AcDbSymbolTableRecord
100
AcDbLayerTableRecord
  2
DXF10
 70
     0
 62
    12
  6
CONTINUOUS
370
    -3
390

  0
LAYER
  5
189
100
AcDbSymbolTableRecord
100
AcDbLayerTableRecord
  2
DXF1023
 70
     0
 62
    16
  6
CONTINUOUS
370
    -3
390

  0
ENDTAB
  0
TABLE
  2
STYLE
  5
18A
100
AcDbSymbolTable
 70
     4
  0
STYLE
  5
18B
100
AcDbSymbolTableRecord
100
AcDbTextStyleTableRecord
  2
STANDARD
 70
    64
 40
0.0
 41
1.0
 50
0.0
 71
     0
 42
3.000000000000000
  3
TXT
  4

  0
STYLE
  5
18C
100
AcDbSymbolTableRecord
100
AcDbTextStyleTableRecord
  2
ANKTATE
 70
    68
 40
0.0
 41
1.0
 50
0.0
 71
     0
 42
3.000000000000000
  3
TXT
  4

  0
STYLE
  5
18D
100
AcDbSymbolTableRecord
100
AcDbTextStyleTableRecord
  2
KNJYOKO
 70
    64
 40
0.0
 41
1.0
 50
0.0
 71
     0
 42
3.000000000000000
  3
TXT
  4
BIGFONT
  0
STYLE
  5
18E
100
AcDbSymbolTableRecord
100
AcDbTextStyleTableRecord
  2
KNJTATE
 70
    68
 40
0.0
 41
1.0
 50
0.0
 71
     0
 42
3.000000000000000
  3
TXT
  4
BIGFONT
  0
ENDTAB
  0
TABLE
  2
VIEW
  5
18F
100
AcDbSymbolTable
 70
     0
  0
ENDTAB
  0
TABLE
  2
UCS
  5
190
100
AcDbSymbolTable
 70
     0
  0
ENDTAB
  0
TABLE
  2
APPID
  5
191
100
AcDbSymbolTable
 70
     1
  0
APPID
  5
192
100
AcDbSymbolTableRecord
100
AcDbRegAppTableRecord
  2
ACAD
 70
     0
  0
ENDTAB
  0
TABLE
  2
DIMSTYLE
  5
193
100
AcDbSymbolTable
 70
     2
100
AcDbDimStyleTable
  0
DIMSTYLE
105
194
100
AcDbSymbolTableRecord
100
AcDbDimStyleTableRecord
  2
STANDARD
 70
     0
 41
2.000000
 44
1.500000
 42
0.800000
145
0.661290
140
3.100000
144
1.000000
146
0.645161
340
18B
  0
DIMSTYLE
105
195
100
AcDbSymbolTableRecord
100
AcDbDimStyleTableRecord
  2
DXF001
 70
     0
 41
2.000000
 44
1.500000
 42
0.800000
145
0.661290
140
3.100000
144
1.000000
146
0.645161
 77
     1
 73
     0
 74
     0
271
     2
179
     2
275
     0
 78
     8
 79
     2
172
     1
340
18B
  0
ENDTAB
  0
TABLE
  2
BLOCK_RECORD
  5
196
100
AcDbSymbolTable
 70
    12
  0
BLOCK_RECORD
  5
197
100
AcDbSymbolTableRecord
100
AcDbBlockTableRecord
  2
*MODEL_SPACE
  0
BLOCK_RECORD
  5
198
100
AcDbSymbolTableRecord
100
AcDbBlockTableRecord
  2
*PAPER_SPACE
  0
BLOCK_RECORD
  5
199
100
AcDbSymbolTableRecord
100
AcDbBlockTableRecord
  2
*PAPER_SPACE0
  0
BLOCK_RECORD
  5
1
100
AcDbSymbolTableRecord
100
AcDbBlockTableRecord
  2
_NONE
  0
BLOCK_RECORD
  5
4
100
AcDbSymbolTableRecord
100
AcDbBlockTableRecord
  2
_CLOSED
  0
BLOCK_RECORD
  5
B
100
AcDbSymbolTableRecord
100
AcDbBlockTableRecord
  2
_DOT
  0
BLOCK_RECORD
  5
13
100
AcDbSymbolTableRecord
100
AcDbBlockTableRecord
  2
_OPEN
  0
BLOCK_RECORD
  5
19
100
AcDbSymbolTableRecord
100
AcDbBlockTableRecord
  2
_ORIGIN
  0
BLOCK_RECORD
  5
1E
100
AcDbSymbolTableRecord
100
AcDbBlockTableRecord
  2
_OPEN30
  0
BLOCK_RECORD
  5
24
100
AcDbSymbolTableRecord
100
AcDbBlockTableRecord
  2
_BOXFILLED
  0
BLOCK_RECORD
  5
29
100
AcDbSymbolTableRecord
100
AcDbBlockTableRecord
  2
_BOXBLANK
  0
BLOCK_RECORD
  5
31
100
AcDbSymbolTableRecord
100
AcDbBlockTableRecord
  2
_OBLIQUE
  0
BLOCK_RECORD
  5
35
100
AcDbSymbolTableRecord
100
AcDbBlockTableRecord
  2
_OPEN90
  0
BLOCK_RECORD
  5
3B
100
AcDbSymbolTableRecord
100
AcDbBlockTableRecord
  2
_CLOSEDBLANK
  0
BLOCK_RECORD
  5
41
100
AcDbSymbolTableRecord
100
AcDbBlockTableRecord
  2
_DOTBLANK
  0
ENDTAB
  0
ENDSEC
  0
SECTION
  2
BLOCKS
  0
BLOCK
  5
19A
100
AcDbEntity
  8
0
100
AcDbBlockBegin
  2
*MODEL_SPACE
 70
     0
 10
0.0
 20
0.0
 30
0.0
  3
*MODEL_SPACE
  1

  0
ENDBLK
  5
19B
100
AcDbEntity
  8
0
100
AcDbBlockEnd
  0
BLOCK
  5
19C
100
AcDbEntity
  8
0
100
AcDbBlockBegin
  2
*PAPER_SPACE
 70
     0
 10
0.0
 20
0.0
 30
0.0
  3
*PAPER_SPACE
  1

  0
ENDBLK
  5
19D
100
AcDbEntity
  8
0
100
AcDbBlockEnd
  0
BLOCK
  5
19E
100
AcDbEntity
  8
0
100
AcDbBlockBegin
  2
*PAPER_SPACE0
 70
     0
 10
0.0
 20
0.0
 30
0.0
  3
*PAPER_SPACE0
  1

  0
ENDBLK
  5
19F
100
AcDbEntity
  8
0
100
AcDbBlockEnd
  0
BLOCK
  5
2
330
1
100
AcDbEntity
  8
0
100
AcDbBlockBegin
  2
_NONE
 70
     0
 10
0.0
 20
0.0
 30
0.0
  3
_NONE
  1

  0
ENDBLK
  5
3
330
1
100
AcDbEntity
  8
0
100
AcDbBlockEnd
  0
BLOCK
  5
5
330
4
100
AcDbEntity
  8
0
100
AcDbBlockBegin
  2
_CLOSED
 70
     0
 10
0.0
 20
0.0
 30
0.0
  3
_CLOSED
  1

  0
LINE
  5
6
330
4
100
AcDbEntity
  8
0
  6
BYBLOCK
 62
     0
370
    -2
100
AcDbLine
 10
-1.0
 20
0.166667
 30
0.0
 11
0.0
 21
0.0
 31
0.0
  0
LINE
  5
7
330
4
100
AcDbEntity
  8
0
  6
BYBLOCK
 62
     0
370
    -2
100
AcDbLine
 10
0.0
 20
0.0
 30
0.0
 11
-1.0
 21
-0.166667
 31
0.0
  0
LINE
  5
8
330
4
100
AcDbEntity
  8
0
  6
BYBLOCK
 62
     0
370
    -2
100
AcDbLine
 10
-1.0
 20
0.166667
 30
0.0
 11
-1.0
 21
-0.166667
 31
0.0
  0
LINE
  5
9
330
4
100
AcDbEntity
  8
0
  6
BYBLOCK
 62
     0
370
    -2
100
AcDbLine
 10
0.0
 20
0.0
 30
0.0
 11
-1.0
 21
0.0
 31
0.0
  0
ENDBLK
  5
A
330
4
100
AcDbEntity
  8
0
100
AcDbBlockEnd
  0
BLOCK
  5
C
330
B
100
AcDbEntity
  8
0
100
AcDbBlockBegin
  2
_DOT
 70
     0
 10
0.0
 20
0.0
 30
0.0
  3
_DOT
  1

  0
POLYLINE
  5
D
330
B
100
AcDbEntity
  8
0
  6
BYBLOCK
 62
     0
370
    -2
100
AcDb2dPolyline
 66
     1
 10
0.0
 20
0.0
 30
0.0
 70
     1
 40
0.5
 41
0.5
  0
VERTEX
  5
E
330
B
100
AcDbEntity
  8
0
  6
BYBLOCK
 62
     0
370
    -2
100
AcDbVertex
100
AcDb2dVertex
 10
-0.25
 20
0.0
 30
0.0
 42
1.0
  0
VERTEX
  5
F
330
B
100
AcDbEntity
  8
0
  6
BYBLOCK
 62
     0
370
    -2
100
AcDbVertex
100
AcDb2dVertex
 10
0.25
 20
0.0
 30
0.0
 42
1.0
  0
SEQEND
  5
10
330
B
100
AcDbEntity
  8
0
  6
BYBLOCK
 62
     0
370
    -2
  0
LINE
  5
11
330
B
100
AcDbEntity
  8
0
  6
BYBLOCK
 62
     0
370
    -2
100
AcDbLine
 10
-0.5
 20
0.0
 30
0.0
 11
-1.0
 21
0.0
 31
0.0
  0
ENDBLK
  5
12
330
B
100
AcDbEntity
  8
0
100
AcDbBlockEnd
  0
BLOCK
  5
14
330
13
100
AcDbEntity
  8
0
100
AcDbBlockBegin
  2
_OPEN
 70
     0
 10
0.0
 20
0.0
 30
0.0
  3
_OPEN
  1

  0
LINE
  5
15
330
13
100
AcDbEntity
  8
0
  6
BYBLOCK
 62
     0
370
    -2
100
AcDbLine
 10
-1.0
 20
0.166667
 30
0.0
 11
0.0
 21
0.0
 31
0.0
  0
LINE
  5
16
330
13
100
AcDbEntity
  8
0
  6
BYBLOCK
 62
     0
370
    -2
100
AcDbLine
 10
0.0
 20
0.0
 30
0.0
 11
-1.0
 21
-0.166667
 31
0.0
  0
LINE
  5
17
330
13
100
AcDbEntity
  8
0
  6
BYBLOCK
 62
     0
370
    -2
100
AcDbLine
 10
0.0
 20
0.0
 30
0.0
 11
-1.0
 21
0.0
 31
0.0
  0
ENDBLK
  5
18
330
13
100
AcDbEntity
  8
0
100
AcDbBlockEnd
  0
BLOCK
  5
1A
330
19
100
AcDbEntity
  8
0
100
AcDbBlockBegin
  2
_ORIGIN
 70
     0
 10
0.0
 20
0.0
 30
0.0
  3
_ORIGIN
  1

  0
CIRCLE
  5
1B
330
19
100
AcDbEntity
  8
0
  6
BYBLOCK
 62
     0
370
    -2
100
AcDbCircle
 10
0.0
 20
0.0
 30
0.0
 40
0.5
  0
LINE
  5
1C
330
19
100
AcDbEntity
  8
0
  6
BYBLOCK
 62
     0
370
    -2
100
AcDbLine
 10
0.0
 20
0.0
 30
0.0
 11
-1.0
 21
0.0
 31
0.0
  0
ENDBLK
  5
1D
330
19
100
AcDbEntity
  8
0
100
AcDbBlockEnd
  0
BLOCK
  5
1F
330
1E
100
AcDbEntity
  8
0
100
AcDbBlockBegin
  2
_OPEN30
 70
     0
 10
0.0
 20
0.0
 30
0.0
  3
_OPEN30
  1

  0
LINE
  5
20
330
1E
100
AcDbEntity
  8
0
  6
BYBLOCK
 62
     0
370
    -2
100
AcDbLine
 10
-1.0
 20
0.267949
 30
0.0
 11
0.0
 21
0.0
 31
0.0
  0
LINE
  5
21
330
1E
100
AcDbEntity
  8
0
  6
BYBLOCK
 62
     0
370
    -2
100
AcDbLine
 10
0.0
 20
0.0
 30
0.0
 11
-1.0
 21
-0.267949
 31
0.0
  0
LINE
  5
22
330
1E
100
AcDbEntity
  8
0
  6
BYBLOCK
 62
     0
370
    -2
100
AcDbLine
 10
0.0
 20
0.0
 30
0.0
 11
-1.0
 21
0.0
 31
0.0
  0
ENDBLK
  5
23
330
1E
100
AcDbEntity
  8
0
100
AcDbBlockEnd
  0
BLOCK
  5
25
330
24
100
AcDbEntity
  8
0
100
AcDbBlockBegin
  2
_BOXFILLED
 70
     0
 10
0.0
 20
0.0
 30
0.0
  3
_BOXFILLED
  1

  0
SOLID
  5
26
330
24
100
AcDbEntity
  8
0
  6
BYBLOCK
 62
     0
370
    -2
100
AcDbTrace
 10
-0.5
 20
0.5
 30
0.0
 11
0.5
 21
0.5
 31
0.0
 12
-0.5
 22
-0.5
 32
0.0
 13
0.5
 23
-0.5
 33
0.0
  0
LINE
  5
27
330
24
100
AcDbEntity
  8
0
  6
BYBLOCK
 62
     0
370
    -2
100
AcDbLine
 10
-0.5
 20
0.0
 30
0.0
 11
-1.0
 21
0.0
 31
0.0
  0
ENDBLK
  5
28
330
24
100
AcDbEntity
  8
0
100
AcDbBlockEnd
  0
BLOCK
  5
2A
330
29
100
AcDbEntity
  8
0
100
AcDbBlockBegin
  2
_BOXBLANK
 70
     0
 10
0.0
 20
0.0
 30
0.0
  3
_BOXBLANK
  1

  0
LINE
  5
2B
330
29
100
AcDbEntity
  8
0
  6
BYBLOCK
 62
     0
370
    -2
100
AcDbLine
 10
-0.5
 20
-0.5
 30
0.0
 11
0.5
 21
-0.5
 31
0.0
  0
LINE
  5
2C
330
29
100
AcDbEntity
  8
0
  6
BYBLOCK
 62
     0
370
    -2
100
AcDbLine
 10
0.5
 20
-0.5
 30
0.0
 11
0.5
 21
0.5
 31
0.0
  0
LINE
  5
2D
330
29
100
AcDbEntity
  8
0
  6
BYBLOCK
 62
     0
370
    -2
100
AcDbLine
 10
0.5
 20
0.5
 30
0.0
 11
-0.5
 21
0.5
 31
0.0
  0
LINE
  5
2E
330
29
100
AcDbEntity
  8
0
  6
BYBLOCK
 62
     0
370
    -2
100
AcDbLine
 10
-0.5
 20
0.5
 30
0.0
 11
-0.5
 21
-0.5
 31
0.0
  0
LINE
  5
2F
330
29
100
AcDbEntity
  8
0
  6
BYBLOCK
 62
     0
370
    -2
100
AcDbLine
 10
-0.5
 20
0.0
 30
0.0
 11
-1.0
 21
0.0
 31
0.0
  0
ENDBLK
  5
30
330
29
100
AcDbEntity
  8
0
100
AcDbBlockEnd
  0
BLOCK
  5
32
330
31
100
AcDbEntity
  8
0
100
AcDbBlockBegin
  2
_OBLIQUE
 70
     0
 10
0.0
 20
0.0
 30
0.0
  3
_OBLIQUE
  1

  0
LINE
  5
33
330
31
100
AcDbEntity
  8
0
  6
BYBLOCK
 62
     0
370
    -2
100
AcDbLine
 10
-0.5
 20
-0.5
 30
0.0
 11
0.5
 21
0.5
 31
0.0
  0
ENDBLK
  5
34
330
31
100
AcDbEntity
  8
0
100
AcDbBlockEnd
  0
BLOCK
  5
36
330
35
100
AcDbEntity
  8
0
100
AcDbBlockBegin
  2
_OPEN90
 70
     0
 10
0.0
 20
0.0
 30
0.0
  3
_OPEN90
  1

  0
LINE
  5
37
330
35
100
AcDbEntity
  8
0
  6
BYBLOCK
 62
     0
370
    -2
100
AcDbLine
 10
-0.5
 20
0.5
 30
0.0
 11
0.0
 21
0.0
 31
0.0
  0
LINE
  5
38
330
35
100
AcDbEntity
  8
0
  6
BYBLOCK
 62
     0
370
    -2
100
AcDbLine
 10
0.0
 20
0.0
 30
0.0
 11
-0.5
 21
-0.5
 31
0.0
  0
LINE
  5
39
330
35
100
AcDbEntity
  8
0
  6
BYBLOCK
 62
     0
370
    -2
100
AcDbLine
 10
0.0
 20
0.0
 30
0.0
 11
-1.0
 21
0.0
 31
0.0
  0
ENDBLK
  5
3A
330
35
100
AcDbEntity
  8
0
100
AcDbBlockEnd
  0
BLOCK
  5
3C
330
3B
100
AcDbEntity
  8
0
100
AcDbBlockBegin
  2
_CLOSEDBLANK
 70
     0
 10
0.0
 20
0.0
 30
0.0
  3
_CLOSEDBLANK
  1

  0
LINE
  5
3D
330
3B
100
AcDbEntity
  8
0
  6
BYBLOCK
 62
     0
370
    -2
100
AcDbLine
 10
-1.0
 20
0.1666666666666666
 30
0.0
 11
0.0
 21
0.0
 31
0.0
  0
LINE
  5
3E
330
3B
100
AcDbEntity
  8
0
  6
BYBLOCK
 62
     0
370
    -2
100
AcDbLine
 10
0.0
 20
0.0
 30
0.0
 11
-1.0
 21
-0.1666666666666666
 31
0.0
  0
LINE
  5
3F
330
3B
100
AcDbEntity
  8
0
  6
BYBLOCK
 62
     0
370
    -2
100
AcDbLine
 10
-1.0
 20
0.1666666666666666
 30
0.0
 11
-1.0
 21
-0.1666666666666666
 31
0.0
  0
ENDBLK
  5
40
330
3B
100
AcDbEntity
  8
0
100
AcDbBlockEnd
  0
BLOCK
  5
42
330
41
100
AcDbEntity
  8
0
100
AcDbBlockBegin
  2
_DOTBLANK
 70
     0
 10
0.0
 20
0.0
 30
0.0
  3
_DOTBLANK
  1

  0
CIRCLE
  5
43
330
41
100
AcDbEntity
  8
0
  6
BYBLOCK
 62
     0
370
    -2
100
AcDbCircle
 10
0.0
 20
0.0
 30
0.0
 40
0.5
  0
LINE
  5
44
330
41
100
AcDbEntity
  8
0
  6
BYBLOCK
 62
     0
370
    -2
100
AcDbLine
 10
-0.5
 20
0.0
 30
0.0
 11
-1.0
 21
0.0
 31
0.0
  0
ENDBLK
  5
45
330
41
100
AcDbEntity
  8
0
100
AcDbBlockEnd
  0
ENDSEC
  0
SECTION
  2
ENTITIES
  0
MTEXT
  5
46
100
AcDbEntity
  8
7
  6
CONTINUOUS
 62
7
100
AcDbMText
 10
10.00000000000000
 20
18.00000000000000
 30
0.0000000000000000
 40
3.000000000000000
 41
0.0000000000000000
 44
0.6739999771118164
 71
     7
 72
     1
  1
{\H0.93x;{TYPE No.TL-284N}}
 11
1.000000000000000
 21
0.0000000000000000
 31
0.0000000000000000
  7
STANDARD
  0
LINE
  5
47
100
AcDbEntity
  8
4
  6
CENTER
 62
1
100
AcDbLine
 10
305.6003559999999
 20
125.3206979999998
 30
0.0000000000000000
 11
265.6003559999999
 21
125.3206979999998
 31
0.0000000000000000
  0
LINE
  5
48
100
AcDbEntity
  8
4
  6
CENTER
 62
1
100
AcDbLine
 10
285.6003559999999
 20
145.3206980000000
 30
0.0000000000000000
 11
285.6003559999999
 21
102.7026980000000
 31
0.0000000000000000
  0
LINE
  5
49
100
AcDbEntity
  8
1
  6
CONTINUOUS
 62
7
100
AcDbLine
 10
293.2143560000000
 20
112.3956979999999
 30
0.0000000000000000
 11
300.6003559999999
 21
116.6596980000000
 31
0.0000000000000000
  0
LINE
  5
4A
100
AcDbEntity
  8
1
  6
CONTINUOUS
 62
7
100
AcDbLine
 10
270.6003559999999
 20
133.9806979999998
 30
0.0000000000000000
 11
285.6003559999999
 21
142.6406979999998
 31
0.0000000000000000
  0
LINE
  5
4B
100
AcDbEntity
  8
1
  6
CONTINUOUS
 62
7
100
AcDbLine
 10
270.6003559999999
 20
133.9806979999998
 30
0.0000000000000000
 11
270.6003559999999
 21
116.6596980000000
 31
0.0000000000000000
  0
LINE
  5
4C
100
AcDbEntity
  8
1
  6
CONTINUOUS
 62
7
100
AcDbLine
 10
300.6003559999999
 20
133.9806979999998
 30
0.0000000000000000
 11
300.6003559999999
 21
116.6596980000000
 31
0.0000000000000000
  0
LINE
  5
4D
100
AcDbEntity
  8
1
  6
CONTINUOUS
 62
7
100
AcDbLine
 10
270.6003559999999
 20
116.6596980000000
 30
0.0000000000000000
 11
277.9873559999999
 21
112.3956979999999
 31
0.0000000000000000
  0
LINE
  5
4E
100
AcDbEntity
  8
1
  6
CONTINUOUS
 62
7
100
AcDbLine
 10
285.6003559999999
 20
142.6406979999998
 30
0.0000000000000000
 11
300.6003559999999
 21
133.9806979999998
 31
0.0000000000000000
  0
LINE
  5
4F
100
AcDbEntity
  8
4
  6
CENTER
 62
1
100
AcDbLine
 10
55.60055600000000
 20
125.3206979999998
 30
0.0000000000000000
 11
15.60055600000000
 21
125.3206979999998
 31
0.0000000000000000
  0
LINE
  5
50
100
AcDbEntity
  8
4
  6
CENTER
 62
1
100
AcDbLine
 10
35.60055600000000
 20
148.4036979999999
 30
0.0000000000000000
 11
35.60055600000000
 21
102.7026980000000
 31
0.0000000000000000
  0
LINE
  5
51
100
AcDbEntity
  8
1
  6
CONTINUOUS
 62
7
100
AcDbLine
 10
35.60055600000000
 20
107.9996979999999
 30
0.0000000000000000
 11
50.60055600000000
 21
116.6596980000000
 31
0.0000000000000000
  0
LINE
  5
52
100
AcDbEntity
  8
1
  6
CONTINUOUS
 62
7
100
AcDbLine
 10
20.60055599999999
 20
133.9806979999998
 30
0.0000000000000000
 11
35.60055600000000
 21
142.6406979999998
 31
0.0000000000000000
  0
LINE
  5
53
100
AcDbEntity
  8
1
  6
CONTINUOUS
 62
7
100
AcDbLine
 10
20.60055600000000
 20
133.9806979999998
 30
0.0000000000000000
 11
20.60055600000000
 21
116.6596980000000
 31
0.0000000000000000
  0
LINE
  5
54
100
AcDbEntity
  8
1
  6
CONTINUOUS
 62
7
100
AcDbLine
 10
50.60055600000000
 20
133.9806979999998
 30
0.0000000000000000
 11
50.60055600000000
 21
116.6596980000000
 31
0.0000000000000000
  0
LINE
  5
55
100
AcDbEntity
  8
1
  6
CONTINUOUS
 62
7
100
AcDbLine
 10
20.60055600000000
 20
116.6596980000000
 30
0.0000000000000000
 11
35.60055600000000
 21
107.9996979999999
 31
0.0000000000000000
  0
LINE
  5
56
100
AcDbEntity
  8
1
  6
CONTINUOUS
 62
7
100
AcDbLine
 10
35.60055600000000
 20
142.6406979999998
 30
0.0000000000000000
 11
50.60055600000000
 21
133.9806979999998
 31
0.0000000000000000
  0
LINE
  5
57
100
AcDbEntity
  8
1
  6
CONTINUOUS
 62
7
100
AcDbLine
 10
285.6003559999999
 20
129.9386979999999
 30
0.0000000000000000
 11
281.6003559999999
 21
127.6296980000000
 31
0.0000000000000000
  0
LINE
  5
58
100
AcDbEntity
  8
1
  6
CONTINUOUS
 62
7
100
AcDbLine
 10
281.6003560000000
 20
123.0106980000000
 30
0.0000000000000000
 11
281.6003560000000
 21
127.6296980000000
 31
0.0000000000000000
  0
LINE
  5
59
100
AcDbEntity
  8
1
  6
CONTINUOUS
 62
7
100
AcDbLine
 10
289.6003560000000
 20
123.0106980000000
 30
0.0000000000000000
 11
285.6003559999999
 21
120.7016979999998
 31
0.0000000000000000
  0
LINE
  5
5A
100
AcDbEntity
  8
1
  6
CONTINUOUS
 62
7
100
AcDbLine
 10
281.6003559999999
 20
123.0106980000000
 30
0.0000000000000000
 11
285.6003559999999
 21
120.7016979999998
 31
0.0000000000000000
  0
LINE
  5
5B
100
AcDbEntity
  8
1
  6
CONTINUOUS
 62
7
100
AcDbLine
 10
289.6003560000000
 20
123.0106980000000
 30
0.0000000000000000
 11
289.6003560000000
 21
127.6296980000000
 31
0.0000000000000000
  0
LINE
  5
5C
100
AcDbEntity
  8
1
  6
CONTINUOUS
 62
7
100
AcDbLine
 10
285.6003560000000
 20
129.9386979999999
 30
0.0000000000000000
 11
289.6003560000000
 21
127.6296980000000
 31
0.0000000000000000
  0
LINE
  5
5D
100
AcDbEntity
  8
1
  6
CONTINUOUS
 62
7
100
AcDbLine
 10
287.1003559999999
 20
127.3206979999998
 30
0.0000000000000000
 11
287.1003559999999
 21
123.3206980000000
 31
0.0000000000000000
  0
LINE
  5
5E
100
AcDbEntity
  8
1
  6
CONTINUOUS
 62
7
100
AcDbLine
 10
150.6003560000000
 20
215.3206979999999
 30
0.0000000000000000
 11
150.6003560000000
 21
195.3206980000000
 31
0.0000000000000000
  0
LINE
  5
5F
100
AcDbEntity
  8
4
  6
CENTER
 62
1
100
AcDbLine
 10
116.4993560000000
 20
205.3206980000000
 30
0.0000000000000000
 11
173.2093560000000
 21
205.3206980000000
 31
0.0000000000000000
  0
LINE
  5
60
100
AcDbEntity
  8
1
  6
CONTINUOUS
 62
7
100
AcDbLine
 10
139.8003560000000
 20
220.3206980000000
 30
0.0000000000000000
 11
139.8003560000000
 21
190.3206980000000
 31
0.0000000000000000
  0
LINE
  5
61
100
AcDbEntity
  8
1
  6
CONTINUOUS
 62
7
100
AcDbLine
 10
134.3003559999999
 20
218.3206980000000
 30
0.0000000000000000
 11
134.3003559999999
 21
192.3206979999999
 31
0.0000000000000000
  0
LINE
  5
62
100
AcDbEntity
  8
1
  6
CONTINUOUS
 62
7
100
AcDbLine
 10
136.3003559999999
 20
190.3206980000000
 30
0.0000000000000000
 11
139.8003560000000
 21
190.3206980000000
 31
0.0000000000000000
  0
LINE
  5
63
100
AcDbEntity
  8
1
  6
CONTINUOUS
 62
7
100
AcDbLine
 10
136.3003559999999
 20
220.3206980000000
 30
0.0000000000000000
 11
139.8003560000000
 21
220.3206980000000
 31
0.0000000000000000
  0
LINE
  5
64
100
AcDbEntity
  8
1
  6
CONTINUOUS
 62
7
100
AcDbLine
 10
136.3003559999999
 20
220.3206979999999
 30
0.0000000000000000
 11
134.3003559999999
 21
218.3206979999999
 31
0.0000000000000000
  0
LINE
  5
65
100
AcDbEntity
  8
1
  6
CONTINUOUS
 62
7
100
AcDbLine
 10
134.3003559999999
 20
192.3206979999999
 30
0.0000000000000000
 11
136.3003559999999
 21
190.3206980000000
 31
0.0000000000000000
  0
LINE
  5
66
100
AcDbEntity
  8
1
  6
CONTINUOUS
 62
7
100
AcDbLine
 10
136.3003559999999
 20
220.3206980000000
 30
0.0000000000000000
 11
136.3003559999999
 21
190.3206980000000
 31
0.0000000000000000
  0
LINE
  5
67
100
AcDbEntity
  8
1
  6
CONTINUOUS
 62
7
100
AcDbLine
 10
140.8003560000000
 20
194.3206980000000
 30
0.0000000000000000
 11
149.6003560000000
 21
194.3206980000000
 31
0.0000000000000000
  0
LINE
  5
68
100
AcDbEntity
  8
1
  6
CONTINUOUS
 62
7
100
AcDbLine
 10
140.8003560000000
 20
216.3206980000000
 30
0.0000000000000000
 11
149.6003560000000
 21
216.3206980000000
 31
0.0000000000000000
  0
LINE
  5
69
100
AcDbEntity
  8
1
  6
CONTINUOUS
 62
7
100
AcDbLine
 10
149.6003560000000
 20
194.3206980000000
 30
0.0000000000000000
 11
150.6003559999999
 21
195.3206980000000
 31
0.0000000000000000
  0
LINE
  5
6A
100
AcDbEntity
  8
1
  6
CONTINUOUS
 62
7
100
AcDbLine
 10
150.6003560000000
 20
215.3206979999999
 30
0.0000000000000000
 11
149.6003560000000
 21
216.3206980000000
 31
0.0000000000000000
  0
LINE
  5
6B
100
AcDbEntity
  8
1
  6
CONTINUOUS
 62
7
100
AcDbLine
 10
149.6003560000000
 20
216.3206980000000
 30
0.0000000000000000
 11
149.6003560000000
 21
194.3206980000000
 31
0.0000000000000000
  0
LINE
  5
6C
100
AcDbEntity
  8
1
  6
CONTINUOUS
 62
7
100
AcDbLine
 10
158.1003560000000
 20
212.3206979999999
 30
0.0000000000000000
 11
158.1003560000000
 21
198.3206980000000
 31
0.0000000000000000
  0
LINE
  5
6D
100
AcDbEntity
  8
1
  6
CONTINUOUS
 62
7
100
AcDbLine
 10
150.6003560000000
 20
213.3206979999999
 30
0.0000000000000000
 11
157.1003560000000
 21
213.3206979999999
 31
0.0000000000000000
  0
LINE
  5
6E
100
AcDbEntity
  8
1
  6
CONTINUOUS
 62
7
100
AcDbLine
 10
150.6003560000000
 20
197.3206980000000
 30
0.0000000000000000
 11
157.1003560000000
 21
197.3206980000000
 31
0.0000000000000000
  0
LINE
  5
6F
100
AcDbEntity
  8
1
  6
CONTINUOUS
 62
7
100
AcDbLine
 10
157.1003560000000
 20
213.3206979999999
 30
0.0000000000000000
 11
158.1003560000000
 21
212.3206979999999
 31
0.0000000000000000
  0
LINE
  5
70
100
AcDbEntity
  8
1
  6
CONTINUOUS
 62
7
100
AcDbLine
 10
158.1003559999999
 20
198.3206980000000
 30
0.0000000000000000
 11
157.1003559999999
 21
197.3206980000000
 31
0.0000000000000000
  0
LINE
  5
71
100
AcDbEntity
  8
1
  6
CONTINUOUS
 62
7
100
AcDbLine
 10
157.1003560000000
 20
213.3206979999999
 30
0.0000000000000000
 11
157.1003560000000
 21
197.3206980000000
 31
0.0000000000000000
  0
LINE
  5
72
100
AcDbEntity
  8
1
  6
CONTINUOUS
 62
7
100
AcDbLine
 10
150.6003560000000
 20
135.3206979999999
 30
0.0000000000000000
 11
150.6003560000000
 21
115.3206979999998
 31
0.0000000000000000
  0
LINE
  5
73
100
AcDbEntity
  8
4
  6
CENTER
 62
1
100
AcDbLine
 10
112.5943560000000
 20
125.3206979999998
 30
0.0000000000000000
 11
170.0713560000000
 21
125.3206979999998
 31
0.0000000000000000
  0
LINE
  5
74
100
AcDbEntity
  8
1
  6
CONTINUOUS
 62
7
100
AcDbLine
 10
139.8003560000000
 20
140.3206980000000
 30
0.0000000000000000
 11
139.8003560000000
 21
110.3206979999998
 31
0.0000000000000000
  0
LINE
  5
75
100
AcDbEntity
  8
1
  6
CONTINUOUS
 62
7
100
AcDbLine
 10
134.3003559999999
 20
138.3206979999999
 30
0.0000000000000000
 11
134.3003559999999
 21
112.3206979999998
 31
0.0000000000000000
  0
LINE
  5
76
100
AcDbEntity
  8
1
  6
CONTINUOUS
 62
7
100
AcDbLine
 10
136.3003559999999
 20
110.3206979999998
 30
0.0000000000000000
 11
139.8003560000000
 21
110.3206979999998
 31
0.0000000000000000
  0
LINE
  5
77
100
AcDbEntity
  8
1
  6
CONTINUOUS
 62
7
100
AcDbLine
 10
136.3003559999999
 20
140.3206980000000
 30
0.0000000000000000
 11
139.8003560000000
 21
140.3206980000000
 31
0.0000000000000000
  0
LINE
  5
78
100
AcDbEntity
  8
1
  6
CONTINUOUS
 62
7
100
AcDbLine
 10
136.3003559999999
 20
140.3206980000000
 30
0.0000000000000000
 11
134.3003559999999
 21
138.3206979999999
 31
0.0000000000000000
  0
LINE
  5
79
100
AcDbEntity
  8
1
  6
CONTINUOUS
 62
7
100
AcDbLine
 10
134.3003559999999
 20
112.3206979999998
 30
0.0000000000000000
 11
136.3003559999999
 21
110.3206979999998
 31
0.0000000000000000
  0
LINE
  5
7A
100
AcDbEntity
  8
1
  6
CONTINUOUS
 62
7
100
AcDbLine
 10
136.3003559999999
 20
140.3206980000000
 30
0.0000000000000000
 11
136.3003559999999
 21
110.3206979999998
 31
0.0000000000000000
  0
LINE
  5
7B
100
AcDbEntity
  8
1
  6
CONTINUOUS
 62
7
100
AcDbLine
 10
140.8003560000000
 20
114.3206979999998
 30
0.0000000000000000
 11
149.6003560000000
 21
114.3206979999998
 31
0.0000000000000000
  0
LINE
  5
7C
100
AcDbEntity
  8
1
  6
CONTINUOUS
 62
7
100
AcDbLine
 10
140.8003560000000
 20
136.3206979999999
 30
0.0000000000000000
 11
149.6003560000000
 21
136.3206979999999
 31
0.0000000000000000
  0
LINE
  5
7D
100
AcDbEntity
  8
1
  6
CONTINUOUS
 62
7
100
AcDbLine
 10
149.6003560000000
 20
114.3206979999998
 30
0.0000000000000000
 11
150.6003560000000
 21
115.3206979999998
 31
0.0000000000000000
  0
LINE
  5
7E
100
AcDbEntity
  8
1
  6
CONTINUOUS
 62
7
100
AcDbLine
 10
150.6003560000000
 20
135.3206979999999
 30
0.0000000000000000
 11
149.6003560000000
 21
136.3206979999999
 31
0.0000000000000000
  0
LINE
  5
7F
100
AcDbEntity
  8
1
  6
CONTINUOUS
 62
7
100
AcDbLine
 10
149.6003560000000
 20
136.3206979999999
 30
0.0000000000000000
 11
149.6003560000000
 21
114.3206979999998
 31
0.0000000000000000
  0
LINE
  5
80
100
AcDbEntity
  8
1
  6
CONTINUOUS
 62
7
100
AcDbLine
 10
150.6003560000000
 20
133.3206979999999
 30
0.0000000000000000
 11
157.1003560000000
 21
133.3206979999999
 31
0.0000000000000000
  0
LINE
  5
81
100
AcDbEntity
  8
1
  6
CONTINUOUS
 62
7
100
AcDbLine
 10
150.6003560000000
 20
117.3206980000000
 30
0.0000000000000000
 11
157.1003560000000
 21
117.3206980000000
 31
0.0000000000000000
  0
LINE
  5
82
100
AcDbEntity
  8
1
  6
CONTINUOUS
 62
7
100
AcDbLine
 10
157.1003560000000
 20
133.3206979999999
 30
0.0000000000000000
 11
158.1003560000000
 21
132.3206979999999
 31
0.0000000000000000
  0
LINE
  5
83
100
AcDbEntity
  8
1
  6
CONTINUOUS
 62
7
100
AcDbLine
 10
158.1003559999999
 20
118.3206980000000
 30
0.0000000000000000
 11
157.1003559999999
 21
117.3206980000000
 31
0.0000000000000000
  0
LINE
  5
84
100
AcDbEntity
  8
1
  6
CONTINUOUS
 62
7
100
AcDbLine
 10
157.1003560000000
 20
133.3206979999999
 30
0.0000000000000000
 11
157.1003560000000
 21
117.3206980000000
 31
0.0000000000000000
  0
LINE
  5
85
100
AcDbEntity
  8
1
  6
CONTINUOUS
 62
7
100
AcDbLine
 10
133.8003559999999
 20
136.8206979999999
 30
0.0000000000000000
 11
134.3003559999999
 21
136.8206979999999
 31
0.0000000000000000
  0
LINE
  5
86
100
AcDbEntity
  8
1
  6
CONTINUOUS
 62
7
100
AcDbLine
 10
133.8003559999999
 20
113.8206979999998
 30
0.0000000000000000
 11
134.3003559999999
 21
113.8206979999998
 31
0.0000000000000000
  0
LINE
  5
87
100
AcDbEntity
  8
1
  6
CONTINUOUS
 62
7
100
AcDbLine
 10
133.8003559999999
 20
216.8206979999999
 30
0.0000000000000000
 11
134.3003559999999
 21
216.8206979999999
 31
0.0000000000000000
  0
LINE
  5
88
100
AcDbEntity
  8
1
  6
CONTINUOUS
 62
7
100
AcDbLine
 10
133.8003559999999
 20
216.8206979999999
 30
0.0000000000000000
 11
133.8003559999999
 21
193.8206980000000
 31
0.0000000000000000
  0
LINE
  5
89
100
AcDbEntity
  8
1
  6
CONTINUOUS
 62
7
100
AcDbLine
 10
133.8003559999999
 20
193.8206980000000
 30
0.0000000000000000
 11
134.3003559999999
 21
193.8206980000000
 31
0.0000000000000000
  0
LINE
  5
8A
100
AcDbEntity
  8
4
  6
CENTER
 62
1
100
AcDbLine
 10
194.7743560000000
 20
205.3206980000000
 30
0.0000000000000000
 11
212.0003560000000
 21
205.3206980000000
 31
0.0000000000000000
  0
LINE
  5
8B
100
AcDbEntity
  8
1
  6
CONTINUOUS
 62
7
100
AcDbLine
 10
198.7503560000000
 20
220.3206980000000
 30
0.0000000000000000
 11
198.7503560000000
 21
190.3206980000000
 31
0.0000000000000000
  0
LINE
  5
8C
100
AcDbEntity
  8
1
  6
CONTINUOUS
 62
7
100
AcDbLine
 10
200.2503560000000
 20
220.3206980000000
 30
0.0000000000000000
 11
200.2503560000000
 21
190.3206980000000
 31
0.0000000000000000
  0
LINE
  5
8D
100
AcDbEntity
  8
1
  6
CONTINUOUS
 62
7
100
AcDbLine
 10
206.7503560000000
 20
218.3206980000000
 30
0.0000000000000000
 11
206.7503560000000
 21
192.3206979999999
 31
0.0000000000000000
  0
LINE
  5
8E
100
AcDbEntity
  8
1
  6
CONTINUOUS
 62
7
100
AcDbLine
 10
198.7503560000000
 20
190.3206980000000
 30
0.0000000000000000
 11
204.7503560000000
 21
190.3206980000000
 31
0.0000000000000000
  0
LINE
  5
8F
100
AcDbEntity
  8
1
  6
CONTINUOUS
 62
7
100
AcDbLine
 10
198.7503560000000
 20
220.3206980000000
 30
0.0000000000000000
 11
204.7503560000000
 21
220.3206980000000
 31
0.0000000000000000
  0
LINE
  5
90
100
AcDbEntity
  8
4
  6
CENTER
 62
1
100
AcDbLine
 10
194.7743560000000
 20
125.3206979999998
 30
0.0000000000000000
 11
212.0003560000000
 21
125.3206979999998
 31
0.0000000000000000
  0
LINE
  5
91
100
AcDbEntity
  8
1
  6
CONTINUOUS
 62
7
100
AcDbLine
 10
198.7503560000000
 20
140.3206980000000
 30
0.0000000000000000
 11
198.7503560000000
 21
110.3206979999998
 31
0.0000000000000000
  0
LINE
  5
92
100
AcDbEntity
  8
1
  6
CONTINUOUS
 62
7
100
AcDbLine
 10
200.2503560000000
 20
142.6406979999998
 30
0.0000000000000000
 11
200.2503560000000
 21
107.9996979999999
 31
0.0000000000000000
  0
LINE
  5
93
100
AcDbEntity
  8
1
  6
CONTINUOUS
 62
7
100
AcDbLine
 10
206.7503560000000
 20
140.6406979999998
 30
0.0000000000000000
 11
206.7503560000000
 21
109.9996980000000
 31
0.0000000000000000
  0
LINE
  5
94
100
AcDbEntity
  8
1
  6
CONTINUOUS
 62
7
100
AcDbLine
 10
200.2503560000000
 20
142.6406979999998
 30
0.0000000000000000
 11
204.7503560000000
 21
142.6406979999998
 31
0.0000000000000000
  0
LINE
  5
95
100
AcDbEntity
  8
1
  6
CONTINUOUS
 62
7
100
AcDbLine
 10
200.2503560000000
 20
107.9996979999999
 30
0.0000000000000000
 11
204.7503560000000
 21
107.9996979999999
 31
0.0000000000000000
  0
LINE
  5
96
100
AcDbEntity
  8
1
  6
CONTINUOUS
 62
7
100
AcDbLine
 10
198.7503560000000
 20
110.3206979999998
 30
0.0000000000000000
 11
200.2503560000000
 21
110.3206979999998
 31
0.0000000000000000
  0
LINE
  5
97
100
AcDbEntity
  8
1
  6
CONTINUOUS
 62
7
100
AcDbLine
 10
198.7503560000000
 20
140.3206980000000
 30
0.0000000000000000
 11
200.2503560000000
 21
140.3206980000000
 31
0.0000000000000000
  0
LINE
  5
98
100
AcDbEntity
  8
1
  6
CONTINUOUS
 62
7
100
AcDbLine
 10
200.2503560000000
 20
133.9806979999998
 30
0.0000000000000000
 11
204.7503560000000
 21
133.9806979999998
 31
0.0000000000000000
  0
LINE
  5
99
100
AcDbEntity
  8
1
  6
CONTINUOUS
 62
7
100
AcDbLine
 10
200.2503560000000
 20
116.6596980000000
 30
0.0000000000000000
 11
204.7503560000000
 21
116.6596980000000
 31
0.0000000000000000
  0
LINE
  5
9A
100
AcDbEntity
  8
1
  6
CONTINUOUS
 62
7
100
AcDbLine
 10
200.2503560000000
 20
205.3206980000000
 30
0.0000000000000000
 11
204.7503560000000
 21
205.3206980000000
 31
0.0000000000000000
  0
LINE
  5
9B
100
AcDbEntity
  8
1
  6
CONTINUOUS
 62
7
100
AcDbLine
 10
161.1003560000000
 20
210.3206979999999
 30
0.0000000000000000
 11
161.1003560000000
 21
200.3206979999999
 31
0.0000000000000000
  0
LINE
  5
9C
100
AcDbEntity
  8
1
  6
CONTINUOUS
 62
7
100
AcDbLine
 10
167.6003560000000
 20
206.8206979999999
 30
0.0000000000000000
 11
167.6003560000000
 21
202.8206979999999
 31
0.0000000000000000
  0
LINE
  5
9D
100
AcDbEntity
  8
1
  6
CONTINUOUS
 62
7
100
AcDbLine
 10
165.1003560000000
 20
202.8206979999999
 30
0.0000000000000000
 11
167.6003560000000
 21
202.8206979999999
 31
0.0000000000000000
  0
LINE
  5
9E
100
AcDbEntity
  8
2
  6
CONTINUOUS
 62
4
100
AcDbLine
 10
165.1003560000000
 20
203.2536979999999
 30
0.0000000000000000
 11
167.6003560000000
 21
203.2536979999999
 31
0.0000000000000000
  0
LINE
  5
9F
100
AcDbEntity
  8
1
  6
CONTINUOUS
 62
7
100
AcDbLine
 10
160.1003560000000
 20
120.3206980000000
 30
0.0000000000000000
 11
161.1003560000000
 21
120.3206980000000
 31
0.0000000000000000
  0
LINE
  5
A0
100
AcDbEntity
  8
1
  6
CONTINUOUS
 62
7
100
AcDbLine
 10
160.1003560000000
 20
130.3206979999999
 30
0.0000000000000000
 11
161.1003560000000
 21
130.3206979999999
 31
0.0000000000000000
  0
LINE
  5
A1
100
AcDbEntity
  8
1
  6
CONTINUOUS
 62
7
100
AcDbLine
 10
161.1003560000000
 20
130.3206979999999
 30
0.0000000000000000
 11
161.1003560000000
 21
120.3206980000000
 31
0.0000000000000000
  0
LINE
  5
A2
100
AcDbEntity
  8
1
  6
CONTINUOUS
 62
7
100
AcDbLine
 10
167.6003560000000
 20
127.8206979999998
 30
0.0000000000000000
 11
167.6003560000000
 21
122.8206979999998
 31
0.0000000000000000
  0
LINE
  5
A3
100
AcDbEntity
  8
1
  6
CONTINUOUS
 62
7
100
AcDbLine
 10
165.1003560000000
 20
122.8206979999998
 30
0.0000000000000000
 11
167.6003560000000
 21
122.8206979999998
 31
0.0000000000000000
  0
LINE
  5
A4
100
AcDbEntity
  8
1
  6
CONTINUOUS
 62
7
100
AcDbLine
 10
165.1003560000000
 20
127.8206979999998
 30
0.0000000000000000
 11
167.6003560000000
 21
127.8206979999998
 31
0.0000000000000000
  0
LINE
  5
A5
100
AcDbEntity
  8
2
  6
CONTINUOUS
 62
4
100
AcDbLine
 10
165.1003560000000
 20
127.3876980000000
 30
0.0000000000000000
 11
167.6003560000000
 21
127.3876980000000
 31
0.0000000000000000
  0
LINE
  5
A6
100
AcDbEntity
  8
2
  6
CONTINUOUS
 62
4
100
AcDbLine
 10
165.1003560000000
 20
123.2536980000000
 30
0.0000000000000000
 11
167.6003560000000
 21
123.2536980000000
 31
0.0000000000000000
  0
LINE
  5
A7
100
AcDbEntity
  8
1
  6
CONTINUOUS
 62
7
100
AcDbLine
 10
165.1003560000000
 20
206.8206979999999
 30
0.0000000000000000
 11
167.6003560000000
 21
206.8206979999999
 31
0.0000000000000000
  0
LINE
  5
A8
100
AcDbEntity
  8
1
  6
CONTINUOUS
 62
7
100
AcDbLine
 10
165.1003560000000
 20
201.3206980000000
 30
0.0000000000000000
 11
165.1003560000000
 21
209.3206980000000
 31
0.0000000000000000
  0
LINE
  5
A9
100
AcDbEntity
  8
1
  6
CONTINUOUS
 62
7
100
AcDbLine
 10
161.1003560000000
 20
209.3206980000000
 30
0.0000000000000000
 11
165.1003560000000
 21
209.3206980000000
 31
0.0000000000000000
  0
LINE
  5
AA
100
AcDbEntity
  8
1
  6
CONTINUOUS
 62
7
100
AcDbLine
 10
161.1003560000000
 20
201.3206980000000
 30
0.0000000000000000
 11
165.1003560000000
 21
201.3206980000000
 31
0.0000000000000000
  0
LINE
  5
AB
100
AcDbEntity
  8
1
  6
CONTINUOUS
 62
7
100
AcDbLine
 10
161.1003560000000
 20
205.3206980000000
 30
0.0000000000000000
 11
164.7433560000000
 21
205.3206980000000
 31
0.0000000000000000
  0
LINE
  5
AC
100
AcDbEntity
  8
1
  6
CONTINUOUS
 62
7
100
AcDbLine
 10
150.6003560000000
 20
35.32029800000000
 30
0.0000000000000000
 11
150.6003560000000
 21
55.32029800000000
 31
0.0000000000000000
  0
LINE
  5
AD
100
AcDbEntity
  8
4
  6
CENTER
 62
1
100
AcDbLine
 10
114.5943560000000
 20
45.32029800000000
 30
0.0000000000000000
 11
174.3243559999999
 21
45.32029800000000
 31
0.0000000000000000
  0
LINE
  5
AE
100
AcDbEntity
  8
1
  6
CONTINUOUS
 62
7
100
AcDbLine
 10
139.8003560000000
 20
30.32029800000000
 30
0.0000000000000000
 11
139.8003560000000
 21
60.32029800000000
 31
0.0000000000000000
  0
LINE
  5
AF
100
AcDbEntity
  8
1
  6
CONTINUOUS
 62
7
100
AcDbLine
 10
134.3003559999999
 20
32.32029800000000
 30
0.0000000000000000
 11
134.3003559999999
 21
58.32029800000000
 31
0.0000000000000000
  0
LINE
  5
B0
100
AcDbEntity
  8
1
  6
CONTINUOUS
 62
7
100
AcDbLine
 10
136.3003559999999
 20
60.32029800000000
 30
0.0000000000000000
 11
139.8003560000000
 21
60.32029800000000
 31
0.0000000000000000
  0
LINE
  5
B1
100
AcDbEntity
  8
1
  6
CONTINUOUS
 62
7
100
AcDbLine
 10
136.3003559999999
 20
30.32029800000000
 30
0.0000000000000000
 11
139.8003560000000
 21
30.32029800000000
 31
0.0000000000000000
  0
LINE
  5
B2
100
AcDbEntity
  8
1
  6
CONTINUOUS
 62
7
100
AcDbLine
 10
136.3003559999999
 20
30.32029799999999
 30
0.0000000000000000
 11
134.3003559999999
 21
32.32029800000001
 31
0.0000000000000000
  0
LINE
  5
B3
100
AcDbEntity
  8
1
  6
CONTINUOUS
 62
7
100
AcDbLine
 10
134.3003559999999
 20
58.32029800000000
 30
0.0000000000000000
 11
136.3003559999999
 21
60.32029800000000
 31
0.0000000000000000
  0
LINE
  5
B4
100
AcDbEntity
  8
1
  6
CONTINUOUS
 62
7
100
AcDbLine
 10
136.3003559999999
 20
30.32029800000000
 30
0.0000000000000000
 11
136.3003559999999
 21
60.32029800000000
 31
0.0000000000000000
  0
LINE
  5
B5
100
AcDbEntity
  8
1
  6
CONTINUOUS
 62
7
100
AcDbLine
 10
140.8003560000000
 20
56.32029800000000
 30
0.0000000000000000
 11
149.6003560000000
 21
56.32029800000000
 31
0.0000000000000000
  0
LINE
  5
B6
100
AcDbEntity
  8
1
  6
CONTINUOUS
 62
7
100
AcDbLine
 10
140.8003560000000
 20
34.32029800000000
 30
0.0000000000000000
 11
149.6003560000000
 21
34.32029800000000
 31
0.0000000000000000
  0
LINE
  5
B7
100
AcDbEntity
  8
1
  6
CONTINUOUS
 62
7
100
AcDbLine
 10
149.6003560000000
 20
56.32029799999999
 30
0.0000000000000000
 11
150.6003560000000
 21
55.32029799999998
 31
0.0000000000000000
  0
LINE
  5
B8
100
AcDbEntity
  8
1
  6
CONTINUOUS
 62
7
100
AcDbLine
 10
150.6003560000000
 20
35.32029800000000
 30
0.0000000000000000
 11
149.6003560000000
 21
34.32029799999999
 31
0.0000000000000000
  0
LINE
  5
B9
100
AcDbEntity
  8
1
  6
CONTINUOUS
 62
7
100
AcDbLine
 10
149.6003560000000
 20
34.32029800000000
 30
0.0000000000000000
 11
149.6003560000000
 21
56.32029800000000
 31
0.0000000000000000
  0
LINE
  5
BA
100
AcDbEntity
  8
1
  6
CONTINUOUS
 62
7
100
AcDbLine
 10
158.1003560000000
 20
38.32029800000000
 30
0.0000000000000000
 11
158.1003560000000
 21
52.32029800000000
 31
0.0000000000000000
  0
LINE
  5
BB
100
AcDbEntity
  8
1
  6
CONTINUOUS
 62
7
100
AcDbLine
 10
150.6003560000000
 20
37.32029800000000
 30
0.0000000000000000
 11
157.1003560000000
 21
37.32029800000000
 31
0.0000000000000000
  0
LINE
  5
BC
100
AcDbEntity
  8
1
  6
CONTINUOUS
 62
7
100
AcDbLine
 10
150.6003560000000
 20
53.32029800000000
 30
0.0000000000000000
 11
157.1003560000000
 21
53.32029800000000
 31
0.0000000000000000
  0
LINE
  5
BD
100
AcDbEntity
  8
1
  6
CONTINUOUS
 62
7
100
AcDbLine
 10
157.1003560000000
 20
37.32029800000001
 30
0.0000000000000000
 11
158.1003560000000
 21
38.32029800000001
 31
0.0000000000000000
  0
LINE
  5
BE
100
AcDbEntity
  8
1
  6
CONTINUOUS
 62
7
100
AcDbLine
 10
158.1003560000000
 20
52.32029800000001
 30
0.0000000000000000
 11
157.1003560000000
 21
53.32029800000000
 31
0.0000000000000000
  0
LINE
  5
BF
100
AcDbEntity
  8
1
  6
CONTINUOUS
 62
7
100
AcDbLine
 10
157.1003560000000
 20
37.32029800000000
 30
0.0000000000000000
 11
157.1003560000000
 21
53.32029800000000
 31
0.0000000000000000
  0
LINE
  5
C0
100
AcDbEntity
  8
1
  6
CONTINUOUS
 62
7
100
AcDbLine
 10
133.8003559999999
 20
33.82029800000000
 30
0.0000000000000000
 11
134.3003559999999
 21
33.82029800000000
 31
0.0000000000000000
  0
LINE
  5
C1
100
AcDbEntity
  8
1
  6
CONTINUOUS
 62
7
100
AcDbLine
 10
133.8003559999999
 20
33.82029800000000
 30
0.0000000000000000
 11
133.8003559999999
 21
56.82029800000000
 31
0.0000000000000000
  0
LINE
  5
C2
100
AcDbEntity
  8
1
  6
CONTINUOUS
 62
7
100
AcDbLine
 10
133.8003559999999
 20
56.82029800000000
 30
0.0000000000000000
 11
134.3003559999999
 21
56.82029800000000
 31
0.0000000000000000
  0
LINE
  5
C3
100
AcDbEntity
  8
4
  6
CENTER
 62
1
100
AcDbLine
 10
194.7743560000000
 20
45.32029800000000
 30
0.0000000000000000
 11
212.0003560000000
 21
45.32029800000000
 31
0.0000000000000000
  0
LINE
  5
C4
100
AcDbEntity
  8
1
  6
CONTINUOUS
 62
7
100
AcDbLine
 10
198.7503560000000
 20
30.32029800000000
 30
0.0000000000000000
 11
198.7503560000000
 21
60.32029800000000
 31
0.0000000000000000
  0
LINE
  5
C5
100
AcDbEntity
  8
1
  6
CONTINUOUS
 62
7
100
AcDbLine
 10
200.2503560000000
 20
30.32029800000000
 30
0.0000000000000000
 11
200.2503560000000
 21
60.32029800000000
 31
0.0000000000000000
  0
LINE
  5
C6
100
AcDbEntity
  8
1
  6
CONTINUOUS
 62
7
100
AcDbLine
 10
206.7503560000000
 20
32.32029800000000
 30
0.0000000000000000
 11
206.7503560000000
 21
58.32029800000000
 31
0.0000000000000000
  0
LINE
  5
C7
100
AcDbEntity
  8
1
  6
CONTINUOUS
 62
7
100
AcDbLine
 10
198.7503560000000
 20
60.32029800000000
 30
0.0000000000000000
 11
204.7503560000000
 21
60.32029800000000
 31
0.0000000000000000
  0
LINE
  5
C8
100
AcDbEntity
  8
1
  6
CONTINUOUS
 62
7
100
AcDbLine
 10
198.7503560000000
 20
30.32029800000000
 30
0.0000000000000000
 11
204.7503560000000
 21
30.32029800000000
 31
0.0000000000000000
  0
LINE
  5
C9
100
AcDbEntity
  8
1
  6
CONTINUOUS
 62
7
100
AcDbLine
 10
200.2503560000000
 20
45.32029800000000
 30
0.0000000000000000
 11
204.7503560000000
 21
45.32029800000000
 31
0.0000000000000000
  0
LINE
  5
CA
100
AcDbEntity
  8
1
  6
CONTINUOUS
 62
7
100
AcDbLine
 10
161.1003560000000
 20
43.71536300000000
 30
0.0000000000000000
 11
161.1003560000000
 21
46.92523200000000
 31
0.0000000000000000
  0
LINE
  5
CB
100
AcDbEntity
  8
1
  6
CONTINUOUS
 62
7
100
AcDbLine
 10
167.6003560000000
 20
43.82029800000000
 30
0.0000000000000000
 11
167.6003560000000
 21
47.82029800000000
 31
0.0000000000000000
  0
LINE
  5
CC
100
AcDbEntity
  8
1
  6
CONTINUOUS
 62
7
100
AcDbLine
 10
165.1003560000000
 20
47.82029800000000
 30
0.0000000000000000
 11
167.6003560000000
 21
47.82029800000000
 31
0.0000000000000000
  0
LINE
  5
CD
100
AcDbEntity
  8
2
  6
CONTINUOUS
 62
4
100
AcDbLine
 10
165.1003560000000
 20
47.38729800000000
 30
0.0000000000000000
 11
167.6003560000000
 21
47.38729800000000
 31
0.0000000000000000
  0
LINE
  5
CE
100
AcDbEntity
  8
1
  6
CONTINUOUS
 62
7
100
AcDbLine
 10
165.1003560000000
 20
43.82029800000000
 30
0.0000000000000000
 11
167.6003560000000
 21
43.82029800000000
 31
0.0000000000000000
  0
LINE
  5
CF
100
AcDbEntity
  8
1
  6
CONTINUOUS
 62
7
100
AcDbLine
 10
165.1003560000000
 20
49.32029800000000
 30
0.0000000000000000
 11
165.1003560000000
 21
41.32029800000000
 31
0.0000000000000000
  0
LINE
  5
D0
100
AcDbEntity
  8
1
  6
CONTINUOUS
 62
7
100
AcDbLine
 10
162.5926699999999
 20
41.32029800000000
 30
0.0000000000000000
 11
165.1003560000000
 21
41.32029800000000
 31
0.0000000000000000
  0
LINE
  5
D1
100
AcDbEntity
  8
1
  6
CONTINUOUS
 62
7
100
AcDbLine
 10
162.5926699999999
 20
49.32029800000000
 30
0.0000000000000000
 11
165.1003560000000
 21
49.32029800000000
 31
0.0000000000000000
  0
LINE
  5
D2
100
AcDbEntity
  8
1
  6
CONTINUOUS
 62
7
100
AcDbLine
 10
161.1003560000000
 20
45.32029800000000
 30
0.0000000000000000
 11
164.7433560000000
 21
45.32029800000000
 31
0.0000000000000000
  0
LINE
  5
D3
100
AcDbEntity
  8
1
  6
CONTINUOUS
 62
7
100
AcDbLine
 10
160.1003560000000
 20
210.3206979999999
 30
0.0000000000000000
 11
161.1003560000000
 21
210.3206979999999
 31
0.0000000000000000
  0
LINE
  5
D4
100
AcDbEntity
  8
1
  6
CONTINUOUS
 62
7
100
AcDbLine
 10
160.1003560000000
 20
200.3206979999999
 30
0.0000000000000000
 11
161.1003560000000
 21
200.3206979999999
 31
0.0000000000000000
  0
LINE
  5
D5
100
AcDbEntity
  8
1
  6
CONTINUOUS
 62
7
100
AcDbLine
 10
279.8663560000000
 20
106.3206979999998
 30
0.0000000000000000
 11
291.3343560000000
 21
106.3206979999998
 31
0.0000000000000000
  0
LINE
  5
D6
100
AcDbEntity
  8
1
  6
CONTINUOUS
 62
7
100
AcDbLine
 10
285.6003559999999
 20
106.3206979999998
 30
0.0000000000000000
 11
291.1003559999999
 21
118.3206980000000
 31
0.0000000000000000
  0
LINE
  5
D7
100
AcDbEntity
  8
1
  6
CONTINUOUS
 62
7
100
AcDbLine
 10
280.1003559999999
 20
118.3206980000000
 30
0.0000000000000000
 11
285.6003559999999
 21
106.3206979999998
 31
0.0000000000000000
  0
LINE
  5
D8
100
AcDbEntity
  8
1
  6
CONTINUOUS
 62
7
100
AcDbLine
 10
161.9233560000000
 20
37.80879799999999
 30
0.0000000000000000
 11
162.6003560000000
 21
37.52609800000000
 31
0.0000000000000000
  0
LINE
  5
D9
100
AcDbEntity
  8
1
  6
CONTINUOUS
 62
7
100
AcDbLine
 10
293.3333560000000
 20
108.3796980000000
 30
0.0000000000000000
 11
293.1123560000000
 21
115.8206979999998
 31
0.0000000000000000
  0
LINE
  5
DA
100
AcDbEntity
  8
1
  6
CONTINUOUS
 62
7
100
AcDbLine
 10
291.1003559999999
 20
118.3206980000000
 30
0.0000000000000000
 11
293.1123559999999
 21
115.8206979999998
 31
0.0000000000000000
  0
LINE
  5
DB
100
AcDbEntity
  8
1
  6
CONTINUOUS
 62
7
100
AcDbLine
 10
292.0665930000001
 20
108.2730769999999
 30
0.0000000000000000
 11
292.2463560000000
 21
115.8206979999998
 31
0.0000000000000000
  0
LINE
  5
DC
100
AcDbEntity
  8
1
  6
CONTINUOUS
 62
7
100
AcDbLine
 10
292.2463559999999
 20
115.8206979999998
 30
0.0000000000000000
 11
291.1003559999999
 21
118.3206980000000
 31
0.0000000000000000
  0
LINE
  5
DD
100
AcDbEntity
  8
1
  6
CONTINUOUS
 62
7
100
AcDbLine
 10
161.9233560000000
 20
37.80879799999997
 30
0.0000000000000000
 11
158.1003560000000
 21
39.82029799999999
 31
0.0000000000000000
  0
LINE
  5
DE
100
AcDbEntity
  8
1
  6
CONTINUOUS
 62
7
100
AcDbLine
 10
291.1003559999999
 20
118.3206980000000
 30
0.0000000000000000
 11
291.1003559999999
 21
125.3206979999998
 31
0.0000000000000000
  0
LINE
  5
DF
100
AcDbEntity
  8
1
  6
CONTINUOUS
 62
7
100
AcDbLine
 10
164.1003560000000
 20
51.74003400000002
 30
0.0000000000000000
 11
162.6003560000000
 21
53.11459800000002
 31
0.0000000000000000
  0
LINE
  5
E0
100
AcDbEntity
  8
1
  6
CONTINUOUS
 62
7
100
AcDbLine
 10
161.9233560000000
 20
52.83189800000000
 30
0.0000000000000000
 11
162.6003560000001
 21
53.11459800000002
 31
0.0000000000000000
  0
LINE
  5
E1
100
AcDbEntity
  8
1
  6
CONTINUOUS
 62
7
100
AcDbLine
 10
161.9233560000000
 20
52.83189799999997
 30
0.0000000000000000
 11
158.1003560000000
 21
50.82029799999999
 31
0.0000000000000000
  0
LINE
  5
E2
100
AcDbEntity
  8
1
  6
CONTINUOUS
 62
7
100
AcDbLine
 10
279.1343190000000
 20
108.2732870000000
 30
0.0000000000000000
 11
278.9553559999998
 21
115.8206979999998
 31
0.0000000000000000
  0
LINE
  5
E3
100
AcDbEntity
  8
1
  6
CONTINUOUS
 62
7
100
AcDbLine
 10
277.8673559999999
 20
108.3796980000000
 30
0.0000000000000000
 11
278.0893559999999
 21
115.8206979999998
 31
0.0000000000000000
  0
LINE
  5
E4
100
AcDbEntity
  8
1
  6
CONTINUOUS
 62
7
100
AcDbLine
 10
280.1003559999999
 20
118.3206979999999
 30
0.0000000000000000
 11
278.0893560000000
 21
115.8206979999998
 31
0.0000000000000000
  0
LINE
  5
E5
100
AcDbEntity
  8
1
  6
CONTINUOUS
 62
7
100
AcDbLine
 10
278.9553559999998
 20
115.8206979999998
 30
0.0000000000000000
 11
280.1003559999999
 21
118.3206980000000
 31
0.0000000000000000
  0
LINE
  5
E6
100
AcDbEntity
  8
1
  6
CONTINUOUS
 62
7
100
AcDbLine
 10
280.1003559999999
 20
118.3206980000000
 30
0.0000000000000000
 11
280.1003559999999
 21
125.3206979999998
 31
0.0000000000000000
  0
LINE
  5
E7
100
AcDbEntity
  8
1
  6
CONTINUOUS
 62
7
100
AcDbLine
 10
158.1003560000000
 20
106.3206979999998
 30
0.0000000000000000
 11
158.1003560000000
 21
132.3206979999999
 31
0.0000000000000000
  0
LINE
  5
E8
100
AcDbEntity
  8
1
  6
CONTINUOUS
 62
7
100
AcDbLine
 10
160.1003560000000
 20
118.3206980000000
 30
0.0000000000000000
 11
160.1003560000000
 21
130.8206980000000
 31
0.0000000000000000
  0
LINE
  5
E9
100
AcDbEntity
  8
1
  6
CONTINUOUS
 62
7
100
AcDbLine
 10
160.1003560000000
 20
130.8206980000000
 30
0.0000000000000000
 11
158.1003560000000
 21
130.8206980000000
 31
0.0000000000000000
  0
LINE
  5
EA
100
AcDbEntity
  8
1
  6
CONTINUOUS
 62
7
100
AcDbLine
 10
163.0263559999999
 20
106.3206979999998
 30
0.0000000000000000
 11
158.1003560000000
 21
106.3206979999998
 31
0.0000000000000000
  0
LINE
  5
EB
100
AcDbEntity
  8
1
  6
CONTINUOUS
 62
7
100
AcDbLine
 10
160.1003560000000
 20
118.3206980000000
 30
0.0000000000000000
 11
158.1003560000000
 21
118.3206980000000
 31
0.0000000000000000
  0
LINE
  5
EC
100
AcDbEntity
  8
1
  6
CONTINUOUS
 62
7
100
AcDbLine
 10
163.0903560000000
 20
115.8206979999998
 30
0.0000000000000000
 11
161.9233560000000
 21
115.8206979999998
 31
0.0000000000000000
  0
LINE
  5
ED
100
AcDbEntity
  8
1
  6
CONTINUOUS
 62
7
100
AcDbLine
 10
162.5243560000000
 20
107.3916980000000
 30
0.0000000000000000
 11
161.9583560000000
 21
115.3256980000000
 31
0.0000000000000000
  0
LINE
  5
EE
100
AcDbEntity
  8
1
  6
CONTINUOUS
 62
7
100
AcDbLine
 10
161.5083559999999
 20
116.0916979999998
 30
0.0000000000000000
 11
158.1003560000000
 21
118.3206980000000
 31
0.0000000000000000
  0
LINE
  5
EF
100
AcDbEntity
  8
1
  6
CONTINUOUS
 62
7
100
AcDbLine
 10
164.0243560000001
 20
107.3916980000000
 30
0.0000000000000000
 11
163.4563560000001
 21
115.3656980000000
 31
0.0000000000000000
  0
LINE
  5
F0
100
AcDbEntity
  8
1
  6
CONTINUOUS
 62
7
100
AcDbLine
 10
163.0593560000000
 20
116.0936980000000
 30
0.0000000000000000
 11
160.1003560000000
 21
118.3206980000000
 31
0.0000000000000000
  0
LINE
  5
F1
100
AcDbEntity
  8
1
  6
CONTINUOUS
 62
7
100
AcDbLine
 10
161.9233560000000
 20
197.8086980000000
 30
0.0000000000000000
 11
158.1003560000000
 21
199.8206980000000
 31
0.0000000000000000
  0
LINE
  5
F2
100
AcDbEntity
  8
1
  6
CONTINUOUS
 62
7
100
AcDbLine
 10
161.9233560000000
 20
197.8086980000000
 30
0.0000000000000000
 11
162.6003560000000
 21
197.5256980000000
 31
0.0000000000000000
  0
LINE
  5
F3
100
AcDbEntity
  8
1
  6
CONTINUOUS
 62
7
100
AcDbLine
 10
161.9233560000000
 20
212.8316980000000
 30
0.0000000000000000
 11
158.1003560000000
 21
210.8206979999999
 31
0.0000000000000000
  0
LINE
  5
F4
100
AcDbEntity
  8
1
  6
CONTINUOUS
 62
7
100
AcDbLine
 10
160.1003560000000
 20
199.8206979999999
 30
0.0000000000000000
 11
160.1003560000000
 21
210.8206979999999
 31
0.0000000000000000
  0
LINE
  5
F5
100
AcDbEntity
  8
1
  6
CONTINUOUS
 62
7
100
AcDbLine
 10
158.1003560000000
 20
199.8206979999999
 30
0.0000000000000000
 11
160.1003560000000
 21
199.8206979999999
 31
0.0000000000000000
  0
LINE
  5
F6
100
AcDbEntity
  8
1
  6
CONTINUOUS
 62
7
100
AcDbLine
 10
158.1003560000000
 20
210.8206979999999
 30
0.0000000000000000
 11
160.1003560000000
 21
210.8206979999999
 31
0.0000000000000000
  0
LINE
  5
F7
100
AcDbEntity
  8
1
  6
CONTINUOUS
 62
7
100
AcDbLine
 10
161.9233560000000
 20
212.8316980000000
 30
0.0000000000000000
 11
162.6003560000000
 21
213.1146980000000
 31
0.0000000000000000
  0
LINE
  5
F8
100
AcDbEntity
  8
1
  6
CONTINUOUS
 62
7
100
AcDbLine
 10
164.1003560000001
 20
211.7404340000000
 30
0.0000000000000000
 11
160.1003560000001
 21
210.8206980000000
 31
0.0000000000000000
  0
LINE
  5
F9
100
AcDbEntity
  8
1
  6
CONTINUOUS
 62
7
100
AcDbLine
 10
164.1003560000000
 20
198.9009609999999
 30
0.0000000000000000
 11
160.1003560000000
 21
199.8206979999999
 31
0.0000000000000000
  0
LINE
  5
FA
100
AcDbEntity
  8
1
  6
CONTINUOUS
 62
7
100
AcDbLine
 10
36.64735599999999
 20
108.6036980000000
 30
0.0000000000000000
 11
35.60055600000000
 21
106.3206979999998
 31
0.0000000000000000
  0
LINE
  5
FB
100
AcDbEntity
  8
1
  6
CONTINUOUS
 62
7
100
AcDbLine
 10
35.60055600000000
 20
106.3206979999998
 30
0.0000000000000000
 11
34.55385600000000
 21
108.6036980000000
 31
0.0000000000000000
  0
LINE
  5
FC
100
AcDbEntity
  8
1
  6
CONTINUOUS
 62
7
100
AcDbLine
 10
27.86765600000000
 20
108.3796980000000
 30
0.0000000000000000
 11
27.98715599999999
 21
112.3956979999999
 31
0.0000000000000000
  0
LINE
  5
FD
100
AcDbEntity
  8
1
  6
CONTINUOUS
 62
7
100
AcDbLine
 10
41.33445600000000
 20
106.3206979999998
 30
0.0000000000000000
 11
29.86675599999999
 21
106.3206979999998
 31
0.0000000000000000
  0
LINE
  5
FE
100
AcDbEntity
  8
1
  6
CONTINUOUS
 62
7
100
AcDbLine
 10
43.33355599999999
 20
108.3796980000000
 30
0.0000000000000000
 11
43.21405599999999
 21
112.3956979999999
 31
0.0000000000000000
  0
LINE
  5
FF
100
AcDbEntity
  8
2
  6
CONTINUOUS
 62
4
100
AcDbLine
 10
140.8003560000000
 20
55.50829799999998
 30
0.0000000000000000
 11
150.4123560000000
 21
55.50829799999998
 31
0.0000000000000000
  0
LINE
  5
100
100
AcDbEntity
  8
2
  6
CONTINUOUS
 62
4
100
AcDbLine
 10
140.8003560000000
 20
35.13229799999999
 30
0.0000000000000000
 11
150.4123560000000
 21
35.13229799999999
 31
0.0000000000000000
  0
LINE
  5
101
100
AcDbEntity
  8
2
  6
CONTINUOUS
 62
4
100
AcDbLine
 10
140.8003560000000
 20
135.5086980000000
 30
0.0000000000000000
 11
150.4123560000000
 21
135.5086980000000
 31
0.0000000000000000
  0
LINE
  5
102
100
AcDbEntity
  8
2
  6
CONTINUOUS
 62
4
100
AcDbLine
 10
140.8003560000000
 20
115.1326980000000
 30
0.0000000000000000
 11
150.4123560000000
 21
115.1326980000000
 31
0.0000000000000000
  0
LINE
  5
103
100
AcDbEntity
  8
2
  6
CONTINUOUS
 62
4
100
AcDbLine
 10
140.8003560000000
 20
215.5086980000000
 30
0.0000000000000000
 11
150.4123560000000
 21
215.5086980000000
 31
0.0000000000000000
  0
LINE
  5
104
100
AcDbEntity
  8
2
  6
CONTINUOUS
 62
4
100
AcDbLine
 10
140.8003560000000
 20
195.1326980000000
 30
0.0000000000000000
 11
150.4123560000000
 21
195.1326980000000
 31
0.0000000000000000
  0
LINE
  5
105
100
AcDbEntity
  8
1
  6
CONTINUOUS
 62
7
100
AcDbLine
 10
164.7433560000000
 20
129.9386979999999
 30
0.0000000000000000
 11
161.1003560000000
 21
129.9386979999999
 31
0.0000000000000000
  0
LINE
  5
106
100
AcDbEntity
  8
1
  6
CONTINUOUS
 62
7
100
AcDbLine
 10
165.1003560000000
 20
129.3206979999999
 30
0.0000000000000000
 11
164.7433560000000
 21
129.9386979999999
 31
0.0000000000000000
  0
LINE
  5
107
100
AcDbEntity
  8
1
  6
CONTINUOUS
 62
7
100
AcDbLine
 10
165.1003560000000
 20
121.3206980000000
 30
0.0000000000000000
 11
165.1003560000000
 21
129.3206979999999
 31
0.0000000000000000
  0
LINE
  5
108
100
AcDbEntity
  8
1
  6
CONTINUOUS
 62
7
100
AcDbLine
 10
164.7433560000000
 20
127.6296980000000
 30
0.0000000000000000
 11
161.1003560000000
 21
127.6296980000000
 31
0.0000000000000000
  0
LINE
  5
109
100
AcDbEntity
  8
1
  6
CONTINUOUS
 62
7
100
AcDbLine
 10
164.7433560000000
 20
123.0106980000000
 30
0.0000000000000000
 11
161.1003560000000
 21
123.0106980000000
 31
0.0000000000000000
  0
LINE
  5
10A
100
AcDbEntity
  8
1
  6
CONTINUOUS
 62
7
100
AcDbLine
 10
164.7433560000000
 20
120.7016979999998
 30
0.0000000000000000
 11
161.1003560000000
 21
120.7016979999998
 31
0.0000000000000000
  0
LINE
  5
10B
100
AcDbEntity
  8
1
  6
CONTINUOUS
 62
7
100
AcDbLine
 10
165.1003560000000
 20
121.3206980000000
 30
0.0000000000000000
 11
164.7433560000000
 21
120.7016979999998
 31
0.0000000000000000
  0
CIRCLE
  5
10C
100
AcDbEntity
  8
1
  6
CONTINUOUS
 62
7
100
AcDbCircle
 10
35.60055600000000
 20
125.3206979999998
 30
0.0000000000000000
 40
15.00000000000000
  0
CIRCLE
  5
10D
100
AcDbEntity
  8
1
  6
CONTINUOUS
 62
7
100
AcDbCircle
 10
35.60055600000000
 20
125.3206979999998
 30
0.0000000000000000
 40
13.00000000000000
  0
CIRCLE
  5
10E
100
AcDbEntity
  8
1
  6
CONTINUOUS
 62
7
100
AcDbCircle
 10
35.60055600000000
 20
125.3206979999998
 30
0.0000000000000000
 40
11.50000000000000
  0
ARC
  5
10F
100
AcDbEntity
  8
2
  6
CONTINUOUS
 62
4
100
AcDbCircle
 10
285.6003559999999
 20
125.3206979999998
 30
0.0000000000000000
 40
2.500000000000000
100
AcDbArc
 50
306.8700000000000
 51
413.1301000000000
  0
ARC
  5
110
100
AcDbEntity
  8
1
  6
CONTINUOUS
 62
7
100
AcDbCircle
 10
285.6003559999999
 20
125.3206979999998
 30
0.0000000000000000
 40
2.066999999999997
100
AcDbArc
 50
316.5259999999999
 51
403.4738000000000
  0
CIRCLE
  5
111
100
AcDbEntity
  8
1
  6
CONTINUOUS
 62
7
100
AcDbCircle
 10
285.6003559999999
 20
125.3206979999998
 30
0.0000000000000000
 40
4.000000000000000
  0
ARC
  5
112
100
AcDbEntity
  8
1
  6
CONTINUOUS
 62
7
100
AcDbCircle
 10
285.6003559999999
 20
125.3206979999998
 30
0.0000000000000000
 40
2.500000000000000
100
AcDbArc
 50
53.13009999999999
 51
306.8700000000000
  0
ARC
  5
113
100
AcDbEntity
  8
2
  6
CONTINUOUS
 62
4
100
AcDbCircle
 10
285.6003559999999
 20
125.3206979999998
 30
0.0000000000000000
 40
2.066999999999997
100
AcDbArc
 50
43.47380000000000
 51
316.5259999999999
  0
CIRCLE
  5
114
100
AcDbEntity
  8
1
  6
CONTINUOUS
 62
7
100
AcDbCircle
 10
285.6003559999999
 20
125.3206979999998
 30
0.0000000000000000
 40
5.000000000000000
  0
ARC
  5
115
100
AcDbEntity
  8
1
  6
CONTINUOUS
 62
7
100
AcDbCircle
 10
285.6003559999999
 20
125.3206979999998
 30
0.0000000000000000
 40
8.000000000000000
100
AcDbArc
 50
313.4329999999998
 51
586.5670000000000
  0
ARC
  5
116
100
AcDbEntity
  8
1
  6
CONTINUOUS
 62
7
100
AcDbCircle
 10
285.6003559999999
 20
125.3206979999998
 30
0.0000000000000000
 40
11.00000000000000
100
AcDbArc
 50
308.2840000000000
 51
591.7160000000000
  0
ARC
  5
117
100
AcDbEntity
  8
1
  6
CONTINUOUS
 62
7
100
AcDbCircle
 10
285.6003559999999
 20
125.3206979999998
 30
0.0000000000000000
 40
10.00000000000000
100
AcDbArc
 50
308.2300000000000
 51
591.7700000000000
  0
ARC
  5
118
100
AcDbEntity
  8
1
  6
CONTINUOUS
 62
7
100
AcDbCircle
 10
285.6003559999999
 20
125.3206979999998
 30
0.0000000000000000
 40
7.000000000000000
100
AcDbArc
 50
321.7870000000000
 51
578.2130000000000
  0
ARC
  5
119
100
AcDbEntity
  8
1
  6
CONTINUOUS
 62
7
100
AcDbCircle
 10
285.6003559999999
 20
125.3206979999998
 30
0.0000000000000000
 40
15.00000000000000
100
AcDbArc
 50
300.5020000000000
 51
599.4979999999998
  0
ARC
  5
11A
100
AcDbEntity
  8
1
  6
CONTINUOUS
 62
7
100
AcDbCircle
 10
171.8473559999999
 20
205.3206980000000
 30
0.0000000000000000
 40
39.74710000000000
100
AcDbArc
 50
163.1819999999999
 51
171.9391962342339
  0
ARC
  5
11B
100
AcDbEntity
  8
1
  6
CONTINUOUS
 62
7
100
AcDbCircle
 10
171.8473559999999
 20
205.3206980000000
 30
0.0000000000000000
 40
39.74710000000000
100
AcDbArc
 50
188.0607982074071
 51
196.8179999999998
  0
ARC
  5
11C
100
AcDbEntity
  8
1
  6
CONTINUOUS
 62
7
100
AcDbCircle
 10
204.7503560000000
 20
109.9996980000000
 30
0.0000000000000000
 40
2.000000000000000
100
AcDbArc
 50
270.0000000000000
 51
360.0000000000000
  0
ARC
  5
11D
100
AcDbEntity
  8
1
  6
CONTINUOUS
 62
7
100
AcDbCircle
 10
204.7503560000000
 20
140.6406979999998
 30
0.0000000000000000
 40
2.000000000000000
100
AcDbArc
 50
0.0000000000000000
 51
90.00000000000000
  0
ARC
  5
11E
100
AcDbEntity
  8
1
  6
CONTINUOUS
 62
7
100
AcDbCircle
 10
204.7503560000000
 20
135.9806979999998
 30
0.0000000000000000
 40
2.000000000000000
100
AcDbArc
 50
270.0000000000000
 51
360.0000000000000
  0
ARC
  5
11F
100
AcDbEntity
  8
1
  6
CONTINUOUS
 62
7
100
AcDbCircle
 10
204.7503560000000
 20
131.9806979999998
 30
0.0000000000000000
 40
2.000000000000000
100
AcDbArc
 50
0.0000000000000000
 51
90.00000000000000
  0
ARC
  5
120
100
AcDbEntity
  8
1
  6
CONTINUOUS
 62
7
100
AcDbCircle
 10
204.7503560000000
 20
118.6596980000000
 30
0.0000000000000000
 40
2.000000000000000
100
AcDbArc
 50
270.0000000000000
 51
360.0000000000000
  0
ARC
  5
121
100
AcDbEntity
  8
1
  6
CONTINUOUS
 62
7
100
AcDbCircle
 10
204.7503560000000
 20
114.6596979999999
 30
0.0000000000000000
 40
2.000000000000000
100
AcDbArc
 50
0.0000000000000000
 51
90.00000000000000
  0
ARC
  5
122
100
AcDbEntity
  8
1
  6
CONTINUOUS
 62
7
100
AcDbCircle
 10
204.7503560000000
 20
218.3206980000000
 30
0.0000000000000000
 40
2.000000000000000
100
AcDbArc
 50
0.0000000000000000
 51
90.00000000000000
  0
ARC
  5
123
100
AcDbEntity
  8
1
  6
CONTINUOUS
 62
7
100
AcDbCircle
 10
204.7503560000000
 20
192.3206979999999
 30
0.0000000000000000
 40
2.000000000000000
100
AcDbArc
 50
270.0000000000000
 51
360.0000000000000
  0
ARC
  5
124
100
AcDbEntity
  8
1
  6
CONTINUOUS
 62
7
100
AcDbCircle
 10
204.7503560000000
 20
207.3206980000000
 30
0.0000000000000000
 40
2.000000000000000
100
AcDbArc
 50
270.0000000000000
 51
360.0000000000000
  0
ARC
  5
125
100
AcDbEntity
  8
1
  6
CONTINUOUS
 62
7
100
AcDbCircle
 10
204.7503560000000
 20
203.3206980000000
 30
0.0000000000000000
 40
2.000000000000000
100
AcDbArc
 50
0.0000000000000000
 51
90.00000000000000
  0
ARC
  5
126
100
AcDbEntity
  8
1
  6
CONTINUOUS
 62
7
100
AcDbCircle
 10
159.3243559999999
 20
203.3206980000000
 30
0.0000000000000000
 40
5.776650000000000
100
AcDbArc
 50
339.7440000000000
 51
380.2564000000000
  0
ARC
  5
127
100
AcDbEntity
  8
1
  6
CONTINUOUS
 62
7
100
AcDbCircle
 10
159.3243559999999
 20
207.3206980000000
 30
0.0000000000000000
 40
5.776650000000000
100
AcDbArc
 50
339.7440000000000
 51
380.2564000000000
  0
ARC
  5
128
100
AcDbEntity
  8
1
  6
CONTINUOUS
 62
7
100
AcDbCircle
 10
171.8473559999999
 20
45.32029800000000
 30
0.0000000000000000
 40
39.74710000000000
100
AcDbArc
 50
188.0607982074071
 51
196.8179999999998
  0
ARC
  5
129
100
AcDbEntity
  8
1
  6
CONTINUOUS
 62
7
100
AcDbCircle
 10
171.8473559999999
 20
45.32029800000000
 30
0.0000000000000000
 40
39.74710000000000
100
AcDbArc
 50
163.1819999999999
 51
171.9391962342339
  0
ARC
  5
12A
100
AcDbEntity
  8
1
  6
CONTINUOUS
 62
7
100
AcDbCircle
 10
204.7503560000000
 20
32.32029800000000
 30
0.0000000000000000
 40
2.000000000000000
100
AcDbArc
 50
270.0000000000000
 51
360.0000000000000
  0
ARC
  5
12B
100
AcDbEntity
  8
1
  6
CONTINUOUS
 62
7
100
AcDbCircle
 10
204.7503560000000
 20
58.32029800000000
 30
0.0000000000000000
 40
2.000000000000000
100
AcDbArc
 50
0.0000000000000000
 51
90.00000000000000
  0
ARC
  5
12C
100
AcDbEntity
  8
1
  6
CONTINUOUS
 62
7
100
AcDbCircle
 10
204.7503560000000
 20
43.32029799999999
 30
0.0000000000000000
 40
2.000000000000000
100
AcDbArc
 50
0.0000000000000000
 51
90.00000000000000
  0
ARC
  5
12D
100
AcDbEntity
  8
1
  6
CONTINUOUS
 62
7
100
AcDbCircle
 10
204.7503560000000
 20
47.32029800000000
 30
0.0000000000000000
 40
2.000000000000000
100
AcDbArc
 50
270.0000000000000
 51
360.0000000000000
  0
ARC
  5
12E
100
AcDbEntity
  8
1
  6
CONTINUOUS
 62
7
100
AcDbCircle
 10
159.3243559999999
 20
47.32029800000000
 30
0.0000000000000000
 40
5.776650000000000
100
AcDbArc
 50
339.7440000000000
 51
380.2564000000000
  0
ARC
  5
12F
100
AcDbEntity
  8
1
  6
CONTINUOUS
 62
7
100
AcDbCircle
 10
159.3243559999999
 20
43.32029799999999
 30
0.0000000000000000
 40
5.776650000000000
100
AcDbArc
 50
339.7440000000000
 51
380.2564000000000
  0
ARC
  5
130
100
AcDbEntity
  8
1
  6
CONTINUOUS
 62
7
100
AcDbCircle
 10
285.6003559999999
 20
125.3206979999998
 30
0.0000000000000000
 40
5.500000000000000
100
AcDbArc
 50
0.0000000000000000
 51
180.0000000000000
  0
ARC
  5
131
100
AcDbEntity
  8
1
  6
CONTINUOUS
 62
7
100
AcDbCircle
 10
291.3343560000000
 20
108.3206979999998
 30
0.0000000000000000
 40
2.000000000000000
100
AcDbArc
 50
270.0000000000000
 51
361.7043600000000
  0
ARC
  5
132
100
AcDbEntity
  8
1
  6
CONTINUOUS
 62
7
100
AcDbCircle
 10
279.8663560000000
 20
108.3206979999998
 30
0.0000000000000000
 40
2.000000000000000
100
AcDbArc
 50
178.2959999999999
 51
270.0000000000000
  0
ARC
  5
133
100
AcDbEntity
  8
1
  6
CONTINUOUS
 62
7
100
AcDbCircle
 10
162.4583560000000
 20
115.2946980000000
 30
0.0000000000000000
 40
1.000000000000000
100
AcDbArc
 50
4.076679999999998
 51
53.04400000000000
  0
ARC
  5
134
100
AcDbEntity
  8
1
  6
CONTINUOUS
 62
7
100
AcDbCircle
 10
160.9613559999999
 20
115.2546980000000
 30
0.0000000000000000
 40
1.000000000000000
100
AcDbArc
 50
4.076679999999998
 51
56.81730000000001
  0
ARC
  5
135
100
AcDbEntity
  8
1
  6
CONTINUOUS
 62
7
100
AcDbCircle
 10
163.0263559999999
 20
107.3206979999998
 30
0.0000000000000000
 40
1.000000000000000
100
AcDbArc
 50
270.0000000000000
 51
364.0766800000000
  0
ARC
  5
136
100
AcDbEntity
  8
1
  6
CONTINUOUS
 62
7
100
AcDbCircle
 10
161.5263559999999
 20
107.3206979999998
 30
0.0000000000000000
 40
1.000000000000000
100
AcDbArc
 50
270.0000000000000
 51
364.0766800000000
  0
ARC
  5
137
100
AcDbEntity
  8
1
  6
CONTINUOUS
 62
7
100
AcDbCircle
 10
29.86675599999999
 20
108.3206979999998
 30
0.0000000000000000
 40
2.000000000000000
100
AcDbArc
 50
178.2959999999999
 51
270.0000000000000
  0
ARC
  5
138
100
AcDbEntity
  8
1
  6
CONTINUOUS
 62
7
100
AcDbCircle
 10
41.33445600000000
 20
108.3206979999998
 30
0.0000000000000000
 40
2.000000000000000
100
AcDbArc
 50
270.0000000000000
 51
361.7043600000000
  0
ARC
  5
139
100
AcDbEntity
  8
2
  6
CONTINUOUS
 62
4
100
AcDbCircle
 10
285.6003559999999
 20
125.3206979999998
 30
0.0000000000000000
 40
10.18799999999999
100
AcDbArc
 50
308.2409999999998
 51
591.7589999999999
  0
ARC
  5
13A
100
AcDbEntity
  8
1
  6
CONTINUOUS
 62
7
100
AcDbCircle
 10
163.0563559999998
 20
128.7846979999999
 30
0.0000000000000000
 40
2.044659999999999
100
AcDbArc
 50
325.6159999999998
 51
394.3845000000001
  0
ARC
  5
13B
100
AcDbEntity
  8
1
  6
CONTINUOUS
 62
7
100
AcDbCircle
 10
157.4583560000000
 20
125.3206979999998
 30
0.0000000000000000
 40
7.642619999999997
100
AcDbArc
 50
342.4119999999998
 51
377.5882000000000
  0
ARC
  5
13C
100
AcDbEntity
  8
1
  6
CONTINUOUS
 62
7
100
AcDbCircle
 10
163.0563559999998
 20
121.8566980000000
 30
0.0000000000000000
 40
2.044659999999999
100
AcDbArc
 50
325.6159999999998
 51
394.3845000000001
  0
ARC
  5
13D
100
AcDbEntity
  8
1
  6
CONTINUOUS
 62
7
100
AcDbCircle
 10
160.1003560000000
 20
45.32029800000000
 30
0.0000000000000000
 40
2.000000000000000
100
AcDbArc
 50
148.0738540000000
 51
211.9265280000000
  0
LINE
  5
13E
100
AcDbEntity
  8
1
  6
CONTINUOUS
 62
7
100
AcDbLine
 10
162.6003560000000
 20
53.11459800000000
 30
0.0000000000000000
 11
158.4028949999998
 21
46.37794900000000
 31
0.0000000000000000
  0
LINE
  5
13F
100
AcDbEntity
  8
1
  6
CONTINUOUS
 62
7
100
AcDbLine
 10
162.6003560000000
 20
37.52609800000001
 30
0.0000000000000000
 11
158.4029020000000
 21
44.26263500000001
 31
0.0000000000000000
  0
LINE
  5
140
100
AcDbEntity
  8
1
  6
CONTINUOUS
 62
7
100
AcDbLine
 10
164.1003560000000
 20
51.74003400000001
 30
0.0000000000000000
 11
160.1003560000000
 21
45.32029800000001
 31
0.0000000000000000
  0
LINE
  5
141
100
AcDbEntity
  8
1
  6
CONTINUOUS
 62
7
100
AcDbLine
 10
164.1003560000000
 20
38.90056099999997
 30
0.0000000000000000
 11
162.6003560000000
 21
37.52599799999999
 31
0.0000000000000000
  0
LINE
  5
142
100
AcDbEntity
  8
1
  6
CONTINUOUS
 62
7
100
AcDbLine
 10
164.1003560000000
 20
38.90056099999999
 30
0.0000000000000000
 11
160.1003560000000
 21
45.32029800000000
 31
0.0000000000000000
  0
LINE
  5
143
100
AcDbEntity
  8
1
  6
CONTINUOUS
 62
7
100
AcDbLine
 10
164.1003559999999
 20
198.9009610000000
 30
0.0000000000000000
 11
162.5926699999999
 21
201.3206979999999
 31
0.0000000000000000
  0
LINE
  5
144
100
AcDbEntity
  8
1
  6
CONTINUOUS
 62
7
100
AcDbLine
 10
164.1003559999999
 20
198.9009610000000
 30
0.0000000000000000
 11
162.6003559999999
 21
197.5263980000000
 31
0.0000000000000000
  0
LINE
  5
145
100
AcDbEntity
  8
1
  6
CONTINUOUS
 62
7
100
AcDbLine
 10
164.1003560000000
 20
211.7404339999999
 30
0.0000000000000000
 11
162.5926699999999
 21
209.3206980000000
 31
0.0000000000000000
  0
LINE
  5
146
100
AcDbEntity
  8
1
  6
CONTINUOUS
 62
7
100
AcDbLine
 10
164.1003559999999
 20
211.7404339999998
 30
0.0000000000000000
 11
162.6003559999999
 21
213.1149979999998
 31
0.0000000000000000
  0
ARC
  5
147
100
AcDbEntity
  8
1
  6
CONTINUOUS
 62
7
100
AcDbCircle
 10
281.1337570000000
 20
108.3206979999998
 30
0.0000000000000000
 40
2.000000000000000
100
AcDbArc
 50
181.3583379999998
 51
270.0000000000000
  0
ARC
  5
148
100
AcDbEntity
  8
1
  6
CONTINUOUS
 62
7
100
AcDbCircle
 10
290.0671599999999
 20
108.3206979999998
 30
0.0000000000000000
 40
2.000000000000000
100
AcDbArc
 50
270.0000000000000
 51
358.6356340000000
  0
LINE
  5
149
100
AcDbEntity
  8
1
  6
CONTINUOUS
 62
7
100
AcDbLine
 10
139.8003560000000
 20
216.5706979999999
 30
0.0000000000000000
 11
140.8003560000000
 21
216.5706979999999
 31
0.0000000000000000
  0
LINE
  5
14A
100
AcDbEntity
  8
1
  6
CONTINUOUS
 62
7
100
AcDbLine
 10
139.8003560000000
 20
194.0706980000000
 30
0.0000000000000000
 11
140.8003560000000
 21
194.0706980000000
 31
0.0000000000000000
  0
LINE
  5
14B
100
AcDbEntity
  8
1
  6
CONTINUOUS
 62
7
100
AcDbLine
 10
140.8003560000000
 20
216.5706979999999
 30
0.0000000000000000
 11
140.8003560000000
 21
194.0706980000000
 31
0.0000000000000000
  0
LINE
  5
14C
100
AcDbEntity
  8
1
  6
CONTINUOUS
 62
7
100
AcDbLine
 10
140.8003560000000
 20
136.5706979999999
 30
0.0000000000000000
 11
140.8003560000000
 21
112.3206979999998
 31
0.0000000000000000
  0
LINE
  5
14D
100
AcDbEntity
  8
1
  6
CONTINUOUS
 62
7
100
AcDbLine
 10
139.8003560000000
 20
136.5706979999999
 30
0.0000000000000000
 11
140.8003560000000
 21
136.5706979999999
 31
0.0000000000000000
  0
LINE
  5
14E
100
AcDbEntity
  8
1
  6
CONTINUOUS
 62
7
100
AcDbLine
 10
139.8003560000000
 20
112.3206979999998
 30
0.0000000000000000
 11
140.8003560000000
 21
112.3206979999998
 31
0.0000000000000000
  0
LINE
  5
14F
100
AcDbEntity
  8
1
  6
CONTINUOUS
 62
7
100
AcDbLine
 10
140.8003560000000
 20
34.07029800000000
 30
0.0000000000000000
 11
140.8003560000000
 21
56.57029800000000
 31
0.0000000000000000
  0
LINE
  5
150
100
AcDbEntity
  8
1
  6
CONTINUOUS
 62
7
100
AcDbLine
 10
139.8003560000000
 20
56.57029800000000
 30
0.0000000000000000
 11
140.8003560000000
 21
56.57029800000000
 31
0.0000000000000000
  0
LINE
  5
151
100
AcDbEntity
  8
1
  6
CONTINUOUS
 62
7
100
AcDbLine
 10
139.8003560000000
 20
34.07029800000000
 30
0.0000000000000000
 11
140.8003560000000
 21
34.07029800000000
 31
0.0000000000000000
  0
LINE
  5
152
100
AcDbEntity
  8
1
  6
CONTINUOUS
 62
7
100
AcDbLine
 10
140.8003560000000
 20
114.2496750000000
 30
0.0000000000000000
 11
139.8003560000000
 21
114.2496750000000
 31
0.0000000000000000
  0
LINE
  5
153
100
AcDbEntity
  8
1
  6
CONTINUOUS
 62
7
100
AcDbLine
 10
140.8003560000000
 20
47.31903599999998
 30
0.0000000000000000
 11
139.8003560000000
 21
47.31903599999998
 31
0.0000000000000000
  0
LINE
  5
154
100
AcDbEntity
  8
1
  6
CONTINUOUS
 62
7
100
AcDbLine
 10
140.8003560000000
 20
43.32155900000000
 30
0.0000000000000000
 11
139.8003560000000
 21
43.32155900000000
 31
0.0000000000000000
  0
SPLINE
  5
155
100
AcDbEntity
  8
1
  6
CONTINUOUS
 62
7
100
AcDbSpline
210
0.0000000000000000
220
0.0000000000000000
230
1.000000000000000
 70
     8
 71
     3
 72
    13
 73
     9
 74
     0
 42
1.000000000000000e-07
 43
1.000000000000000e-07
 12
-0.6512272762061144
 22
-0.1290062845351940
 32
0.0000000000000000
 13
-0.9412726721513991
 23
-0.3379039850308345
 33
0.0000000000000000
 40
0.0000000000000000
 40
0.0000000000000000
 40
0.0000000000000000
 40
0.0000000000000000
 40
3.099778792461362
 40
5.001944214061838
 40
6.125419378474875
 40
7.251424702127977
 40
8.380830661333182
 40
8.614867215888976
 40
8.614867215888976
 40
8.614867215888976
 40
8.614867215888976
 10
132.1375594861101
 20
134.1247557095553
 30
0.0000000000000000
 10
131.4646726528247
 20
133.9914587279232
 30
0.0000000000000000
 10
130.2244821621290
 20
133.7328506823577
 30
0.0000000000000000
 10
128.6270047270905
 20
133.3551853603797
 30
0.0000000000000000
 10
127.2889707320729
 20
133.0014819028689
 30
0.0000000000000000
 10
126.2075682509249
 20
132.6862354143505
 30
0.0000000000000000
 10
125.4178083328740
 20
132.4309079496940
 30
0.0000000000000000
 10
124.9893190682258
 20
132.2792990511274
 30
0.0000000000000000
 10
124.9158883305298
 20
132.2529384229850
 30
0.0000000000000000
  0
LINE
  5
156
100
AcDbEntity
  8
1
  6
CONTINUOUS
 62
7
100
AcDbLine
 10
124.3003559999999
 20
118.6487542306367
 30
0.0000000000000000
 11
124.3003559999999
 21
131.9043039392398
 31
0.0000000000000000
  0
SPLINE
  5
157
100
AcDbEntity
  8
1
  6
CONTINUOUS
 62
7
100
AcDbSpline
210
0.0000000000000000
220
0.0000000000000000
230
1.000000000000000
 70
     8
 71
     3
 72
     9
 73
     5
 74
     0
 42
1.000000000000000e-07
 43
1.000000000000000e-07
 12
0.8424119005172770
 22
-0.1171232495308132
 32
0.0000000000000000
 13
0.9701589629177363
 23
-0.1309052360599310
 33
0.0000000000000000
 40
0.0000000000000000
 40
0.0000000000000000
 40
0.0000000000000000
 40
0.0000000000000000
 40
5.579752024828208
 40
8.114242169121617
 40
8.114242169121617
 40
8.114242169121617
 40
8.114242169121617
 10
124.9113692097611
 20
118.4793278675158
 30
0.0000000000000000
 10
126.4781857123114
 20
118.2614883046078
 30
0.0000000000000000
 10
128.8977300482992
 20
117.9283099232646
 30
0.0000000000000000
 10
131.3179400427878
 20
117.6000236272695
 30
0.0000000000000000
 10
132.1375594860921
 20
117.4894309503927
 30
0.0000000000000000
  0
LINE
  5
158
100
AcDbEntity
  8
1
  6
CONTINUOUS
 62
7
100
AcDbLine
 10
134.3003559999999
 20
113.8206979999997
 30
0.0000000000000000
 11
122.8003559999999
 21
113.8206979999997
 31
0.0000000000000000
  0
LINE
  5
159
100
AcDbEntity
  8
1
  6
CONTINUOUS
 62
7
100
AcDbLine
 10
121.8003559999999
 20
114.8206979999997
 30
0.0000000000000000
 11
121.8003559999999
 21
135.8206979999997
 31
0.0000000000000000
  0
LINE
  5
15A
100
AcDbEntity
  8
1
  6
CONTINUOUS
 62
7
100
AcDbLine
 10
134.3003559999999
 20
136.8206979999997
 30
0.0000000000000000
 11
122.8003559999999
 21
136.8206979999997
 31
0.0000000000000000
  0
ARC
  5
15B
100
AcDbEntity
  8
1
  6
CONTINUOUS
 62
7
100
AcDbCircle
 10
122.8003559999999
 20
135.8206979999997
 30
0.0000000000000000
 40
1.000000000000000
100
AcDbArc
 50
90.00000000000000
 51
180.0000000000000
  0
ARC
  5
15C
100
AcDbEntity
  8
1
  6
CONTINUOUS
 62
7
100
AcDbCircle
 10
122.8003559999999
 20
114.8206979999997
 30
0.0000000000000000
 40
1.000000000000000
100
AcDbArc
 50
180.0000000000000
 51
270.0000000000000
  0
ARC
  5
15D
100
AcDbEntity
  8
1
  6
CONTINUOUS
 62
7
100
AcDbCircle
 10
172.1115815089810
 20
125.3206979999997
 30
0.0000000000000000
 40
40.00000000000000
100
AcDbArc
 50
163.2916562843448
 51
196.7083437156552
  0
LINE
  5
15E
100
AcDbEntity
  8
1
  6
CONTINUOUS
 62
7
100
AcDbLine
 10
133.8003559999999
 20
113.8206979999997
 30
0.0000000000000000
 11
133.8003559999999
 21
136.8206979999997
 31
0.0000000000000000
  0
LINE
  5
15F
100
AcDbEntity
  8
1
  6
CONTINUOUS
 62
7
100
AcDbLine
 10
37.30763562786746
 20
114.4942602489946
 30
0.0000000000000000
 11
41.72236675266283
 21
118.6204907232350
 31
0.0000000000000000
  0
ARC
  5
160
100
AcDbEntity
  8
1
  6
CONTINUOUS
 62
7
100
AcDbCircle
 10
35.60055474469188
 20
116.3206979999993
 30
0.0000000000000000
 40
2.499999999999937
100
AcDbArc
 50
226.9346136189933
 51
313.0653715635146
  0
LINE
  5
161
100
AcDbEntity
  8
1
  6
CONTINUOUS
 62
7
100
AcDbLine
 10
33.89347338917376
 20
114.4942606904694
 30
0.0000000000000000
 11
29.47874550897219
 21
118.6204902712257
 31
0.0000000000000000
  0
ARC
  5
162
100
AcDbEntity
  8
1
  6
CONTINUOUS
 62
7
100
AcDbCircle
 10
30.16157805117957
 20
119.3510651950376
 30
0.0000000000000000
 40
1.000000000000000
100
AcDbArc
 50
166.8324961973895
 51
226.9346136189933
  0
ARC
  5
163
100
AcDbEntity
  8
1
  6
CONTINUOUS
 62
7
100
AcDbCircle
 10
4.644830294582924
 20
125.3206979999998
 30
0.0000000000000000
 40
25.20574234590317
100
AcDbArc
 50
346.8324961973909
 51
373.9096389908536
  0
ARC
  5
164
100
AcDbEntity
  8
1
  6
CONTINUOUS
 62
7
100
AcDbCircle
 10
30.08211686094434
 20
131.6203316433690
 30
0.0000000000000000
 40
1.000000000000000
100
AcDbArc
 50
164.5539984411014
 51
193.9096389908532
  0
ARC
  5
165
100
AcDbEntity
  8
1
  6
CONTINUOUS
 62
7
100
AcDbCircle
 10
35.60055600000000
 20
130.0955324117413
 30
0.0000000000000000
 40
6.725223421687012
100
AcDbArc
 50
15.44599629158699
 51
164.5539984411014
  0
ARC
  5
166
100
AcDbEntity
  8
1
  6
CONTINUOUS
 62
7
100
AcDbCircle
 10
41.11899527923335
 20
131.6203311360482
 30
0.0000000000000000
 40
1.000000000000000
100
AcDbArc
 50
346.0904181548790
 51
375.4459962915882
  0
ARC
  5
167
100
AcDbEntity
  8
1
  6
CONTINUOUS
 62
7
100
AcDbCircle
 10
66.55638852486855
 20
125.3206979999998
 30
0.0000000000000000
 40
25.20584577497714
100
AcDbArc
 50
166.0904181548804
 51
193.1674494870456
  0
ARC
  5
168
100
AcDbEntity
  8
1
  6
CONTINUOUS
 62
7
100
AcDbCircle
 10
41.03953439939259
 20
119.3510658236368
 30
0.0000000000000000
 40
1.000000000000000
100
AcDbArc
 50
313.0653715635142
 51
373.1674494870459
  0
LINE
  5
169
100
AcDbEntity
  8
1
  6
CONTINUOUS
 62
7
100
AcDbLine
 10
121.8003559999999
 20
199.8817200511795
 30
0.0000000000000000
 11
121.8003559999999
 21
210.7596763993926
 31
0.0000000000000000
  0
LINE
  5
16A
100
AcDbEntity
  8
1
  6
CONTINUOUS
 62
7
100
AcDbLine
 10
132.5016530030674
 20
199.7481255458796
 30
0.0000000000000000
 11
124.3003559999999
 21
198.8817200511795
 31
0.0000000000000000
  0
LINE
  5
16B
100
AcDbEntity
  8
1
  6
CONTINUOUS
 62
7
100
AcDbLine
 10
122.8003559999999
 20
198.8817200511795
 30
0.0000000000000000
 11
124.3003559999999
 21
198.8817200511795
 31
0.0000000000000000
  0
ARC
  5
16C
100
AcDbEntity
  8
1
  6
CONTINUOUS
 62
7
100
AcDbCircle
 10
122.8003559999999
 20
199.8817200511795
 30
0.0000000000000000
 40
1.000000000000000
100
AcDbArc
 50
180.0000000000000
 51
270.0000000000000
  0
LINE
  5
16D
100
AcDbEntity
  8
1
  6
CONTINUOUS
 62
7
100
AcDbLine
 10
132.5016535407404
 20
210.8932742759063
 30
0.0000000000000000
 11
124.3003560000000
 21
211.7596763993925
 31
0.0000000000000000
  0
LINE
  5
16E
100
AcDbEntity
  8
1
  6
CONTINUOUS
 62
7
100
AcDbLine
 10
122.8003559999999
 20
211.7596763993926
 30
0.0000000000000000
 11
124.3003560000000
 21
211.7596763993926
 31
0.0000000000000000
  0
ARC
  5
16F
100
AcDbEntity
  8
1
  6
CONTINUOUS
 62
7
100
AcDbCircle
 10
122.8003559999999
 20
210.7596763993926
 30
0.0000000000000000
 40
1.000000000000000
100
AcDbArc
 50
90.00000000000000
 51
180.0000000000000
  0
LINE
  5
170
100
AcDbEntity
  8
1
  6
CONTINUOUS
 62
7
100
AcDbLine
 10
132.5016535407404
 20
50.89287427590634
 30
0.0000000000000000
 11
124.3003560000000
 21
51.75927639939252
 31
0.0000000000000000
  0
LINE
  5
171
100
AcDbEntity
  8
1
  6
CONTINUOUS
 62
7
100
AcDbLine
 10
122.8003559999999
 20
51.75927639939258
 30
0.0000000000000000
 11
124.3003560000000
 21
51.75927639939258
 31
0.0000000000000000
  0
ARC
  5
172
100
AcDbEntity
  8
1
  6
CONTINUOUS
 62
7
100
AcDbCircle
 10
122.8003559999999
 20
50.75927639939258
 30
0.0000000000000000
 40
1.000000000000000
100
AcDbArc
 50
90.00000000000000
 51
180.0000000000000
  0
LINE
  5
173
100
AcDbEntity
  8
1
  6
CONTINUOUS
 62
7
100
AcDbLine
 10
121.8003559999999
 20
39.88132005117956
 30
0.0000000000000000
 11
121.8003559999999
 21
50.75927639939258
 31
0.0000000000000000
  0
ARC
  5
174
100
AcDbEntity
  8
1
  6
CONTINUOUS
 62
7
100
AcDbCircle
 10
122.8003559999999
 20
39.88132005117956
 30
0.0000000000000000
 40
1.000000000000000
100
AcDbArc
 50
180.0000000000000
 51
270.0000000000000
  0
LINE
  5
175
100
AcDbEntity
  8
1
  6
CONTINUOUS
 62
7
100
AcDbLine
 10
132.5016530030674
 20
39.74772554587970
 30
0.0000000000000000
 11
124.3003559999999
 21
38.88132005117955
 31
0.0000000000000000
  0
LINE
  5
176
100
AcDbEntity
  8
1
  6
CONTINUOUS
 62
7
100
AcDbLine
 10
122.8003559999999
 20
38.88132005117956
 30
0.0000000000000000
 11
124.3003559999999
 21
38.88132005117956
 31
0.0000000000000000
  0
ENDSEC
  0
SECTION
  2
OBJECTS
  0
DICTIONARY
  5
1A0
100
AcDbDictionary
  3
ACAD_GROUP
350
1A1
  3
ACAD_LAYOUT
350
1A2
  3
ACAD_MLINESTYLE
350
1A3
  0
DICTIONARY
  5
1A1
102
{ACAD_REACTORS
330
1A0
102
}
330
1A0
100
AcDbDictionary
  0
DICTIONARY
  5
1A2
102
{ACAD_REACTORS
330
1A0
102
}
330
1A0
100
AcDbDictionary
  3
Model
350
1A4
  3
ﾚｲｱｳﾄ1
350
1A5
  3
ﾚｲｱｳﾄ2
350
1A6
  0
DICTIONARY
  5
1A3
102
{ACAD_REACTORS
330
1A0
102
}
330
1A0
100
AcDbDictionary
  3
STANDARD
350
1A7
  0
LAYOUT
  5
1A4
102
{ACAD_REACTORS
330
1A2
102
}
330
1A2
100
AcDbPlotSettings
 70
11952
  4
A3
 44
297.000000
 45
420.000000
 73
  1
 72
  1
100
AcDbLayout
  1
Model
 71
0
330
197
  0
LAYOUT
  5
1A5
102
{ACAD_REACTORS
330
1A2
102
}
330
1A2
100
AcDbPlotSettings
100
AcDbLayout
  1
ﾚｲｱｳﾄ1
 71
1
330
198
  0
LAYOUT
  5
1A6
102
{ACAD_REACTORS
330
1A2
102
}
330
1A2
100
AcDbPlotSettings
100
AcDbLayout
  1
ﾚｲｱｳﾄ2
 71
2
330
199
  0
MLINESTYLE
  5
1A7
102
{ACAD_REACTORS
330
1A3
102
}
330
1A3
100
AcDbMlineStyle
  2
STANDARD
 70
     0
  3

 62
   256
 51
90.00
 52
90.00
 71
     2
 49
0.50
 62
   256
  6
BYLAYER
 49
-0.50
 62
   256
  6
BYLAYER
  0
ENDSEC
  0
EOF
