  0
SECTION
  2
HEADER
  9
$ACADVER
  1
AC1015
  9
$ACADMAINTVER
 70
    20
  9
$DWGCODEPAGE
  3
ANSI_932
  9
$INSBASE
 10
0.0
 20
0.0
 30
0.0
  9
$EXTMIN
 10
9.9999975266385
 20
10.0
 30
0.0
  9
$EXTMAX
 10
421.0315993391815
 20
246.8068043325957
 30
0.0
  9
$LIMMIN
 10
0.0000015376081137
 20
-0.0000001931532552
  9
$LIMMAX
 10
495.0000015376081
 20
341.2499998068465
  9
$ORTHOMODE
 70
     1
  9
$REGENMODE
 70
     1
  9
$FILLMODE
 70
     1
  9
$QTEXTMODE
 70
     0
  9
$MIRRTEXT
 70
     1
  9
$LTSCALE
 40
1.0
  9
$ATTMODE
 70
     1
  9
$TEXTSIZE
 40
2.5
  9
$TRACEWID
 40
1.0
  9
$TEXTSTYLE
  7
STANDARD
  9
$CLAYER
  8
0
  9
$CELTYPE
  6
BYLAYER
  9
$CECOLOR
 62
   256
  9
$CELTSCALE
 40
1.0
  9
$DISPSILH
 70
     0
  9
$DIMSCALE
 40
1.0
  9
$DIMASZ
 40
3.0
  9
$DIMEXO
 40
1.0
  9
$DIMDLI
 40
10.0
  9
$DIMRND
 40
0.0
  9
$DIMDLE
 40
0.0
  9
$DIMEXE
 40
1.0
  9
$DIMTP
 40
0.0
  9
$DIMTM
 40
0.0
  9
$DIMTXT
 40
3.2
  9
$DIMCEN
 40
0.0
  9
$DIMTSZ
 40
0.0
  9
$DIMTOL
 70
     0
  9
$DIMLIM
 70
     0
  9
$DIMTIH
 70
     0
  9
$DIMTOH
 70
     0
  9
$DIMSE1
 70
     0
  9
$DIMSE2
 70
     0
  9
$DIMTAD
 70
     3
  9
$DIMZIN
 70
     8
  9
$DIMBLK
  1

  9
$DIMASO
 70
     1
  9
$DIMSHO
 70
     1
  9
$DIMPOST
  1

  9
$DIMAPOST
  1

  9
$DIMALT
 70
     0
  9
$DIMALTD
 70
     2
  9
$DIMALTF
 40
25.4
  9
$DIMLFAC
 40
1.0
  9
$DIMTOFL
 70
     1
  9
$DIMTVP
 40
0.0
  9
$DIMTIX
 70
     0
  9
$DIMSOXD
 70
     0
  9
$DIMSAH
 70
     1
  9
$DIMBLK1
  1
OPEN
  9
$DIMBLK2
  1
OPEN
  9
$DIMSTYLE
  2
STANDARD
  9
$DIMCLRD
 70
     0
  9
$DIMCLRE
 70
     0
  9
$DIMCLRT
 70
     0
  9
$DIMTFAC
 40
1.0
  9
$DIMGAP
 40
1.0
  9
$DIMJUST
 70
     0
  9
$DIMSD1
 70
     0
  9
$DIMSD2
 70
     0
  9
$DIMTOLJ
 70
     1
  9
$DIMTZIN
 70
     0
  9
$DIMALTZ
 70
     0
  9
$DIMALTTZ
 70
     0
  9
$DIMUPT
 70
     0
  9
$DIMDEC
 70
     4
  9
$DIMTDEC
 70
     4
  9
$DIMALTU
 70
     2
  9
$DIMALTTD
 70
     2
  9
$DIMTXSTY
  7
STANDARD
  9
$DIMAUNIT
 70
     0
  9
$DIMADEC
 70
     0
  9
$DIMALTRND
 40
0.0
  9
$DIMAZIN
 70
     0
  9
$DIMDSEP
 70
    46
  9
$DIMATFIT
 70
     3
  9
$DIMFRAC
 70
     0
  9
$DIMLDRBLK
  1
OPEN
  9
$DIMLUNIT
 70
     2
  9
$DIMLWD
 70
    -2
  9
$DIMLWE
 70
    -2
  9
$DIMTMOVE
 70
     0
  9
$LUNITS
 70
     2
  9
$LUPREC
 70
     4
  9
$SKETCHINC
 40
1.0
  9
$FILLETRAD
 40
0.5
  9
$AUNITS
 70
     0
  9
$AUPREC
 70
     0
  9
$MENU
  1
.
  9
$ELEVATION
 40
0.0
  9
$PELEVATION
 40
0.0
  9
$THICKNESS
 40
0.0
  9
$LIMCHECK
 70
     0
  9
$CHAMFERA
 40
10.0
  9
$CHAMFERB
 40
10.0
  9
$CHAMFERC
 40
20.0
  9
$CHAMFERD
 40
0.0
  9
$SKPOLY
 70
     0
  9
$TDCREATE
 40
2453830.603673681
  9
$TDUCREATE
 40
2453830.228673681
  9
$TDUPDATE
 40
2457192.602147303
  9
$TDUUPDATE
 40
2457192.227147303
  9
$TDINDWG
 40
0.1448986458
  9
$TDUSRTIMER
 40
0.1448984722
  9
$USRTIMER
 70
     1
  9
$ANGBASE
 50
0.0
  9
$ANGDIR
 70
     0
  9
$PDMODE
 70
     0
  9
$PDSIZE
 40
0.0
  9
$PLINEWID
 40
0.0
  9
$SPLFRAME
 70
     0
  9
$SPLINETYPE
 70
     6
  9
$SPLINESEGS
 70
     8
  9
$HANDSEED
  5
2ABB
  9
$SURFTAB1
 70
     6
  9
$SURFTAB2
 70
     6
  9
$SURFTYPE
 70
     6
  9
$SURFU
 70
     6
  9
$SURFV
 70
     6
  9
$UCSBASE
  2

  9
$UCSNAME
  2

  9
$UCSORG
 10
0.0
 20
0.0
 30
0.0
  9
$UCSXDIR
 10
1.0
 20
0.0
 30
0.0
  9
$UCSYDIR
 10
0.0
 20
1.0
 30
0.0
  9
$UCSORTHOREF
  2

  9
$UCSORTHOVIEW
 70
     0
  9
$UCSORGTOP
 10
0.0
 20
0.0
 30
0.0
  9
$UCSORGBOTTOM
 10
0.0
 20
0.0
 30
0.0
  9
$UCSORGLEFT
 10
0.0
 20
0.0
 30
0.0
  9
$UCSORGRIGHT
 10
0.0
 20
0.0
 30
0.0
  9
$UCSORGFRONT
 10
0.0
 20
0.0
 30
0.0
  9
$UCSORGBACK
 10
0.0
 20
0.0
 30
0.0
  9
$PUCSBASE
  2

  9
$PUCSNAME
  2

  9
$PUCSORG
 10
0.0
 20
0.0
 30
0.0
  9
$PUCSXDIR
 10
1.0
 20
0.0
 30
0.0
  9
$PUCSYDIR
 10
0.0
 20
1.0
 30
0.0
  9
$PUCSORTHOREF
  2

  9
$PUCSORTHOVIEW
 70
     0
  9
$PUCSORGTOP
 10
0.0
 20
0.0
 30
0.0
  9
$PUCSORGBOTTOM
 10
0.0
 20
0.0
 30
0.0
  9
$PUCSORGLEFT
 10
0.0
 20
0.0
 30
0.0
  9
$PUCSORGRIGHT
 10
0.0
 20
0.0
 30
0.0
  9
$PUCSORGFRONT
 10
0.0
 20
0.0
 30
0.0
  9
$PUCSORGBACK
 10
0.0
 20
0.0
 30
0.0
  9
$USERI1
 70
     0
  9
$USERI2
 70
     0
  9
$USERI3
 70
     0
  9
$USERI4
 70
     0
  9
$USERI5
 70
     0
  9
$USERR1
 40
0.0
  9
$USERR2
 40
0.0
  9
$USERR3
 40
0.0
  9
$USERR4
 40
0.0
  9
$USERR5
 40
0.0
  9
$WORLDVIEW
 70
     1
  9
$SHADEDGE
 70
     3
  9
$SHADEDIF
 70
    70
  9
$TILEMODE
 70
     1
  9
$MAXACTVP
 70
    48
  9
$PINSBASE
 10
0.0
 20
0.0
 30
0.0
  9
$PLIMCHECK
 70
     0
  9
$PEXTMIN
 10
1.000000000000000E+20
 20
1.000000000000000E+20
 30
1.000000000000000E+20
  9
$PEXTMAX
 10
-1.000000000000000E+20
 20
-1.000000000000000E+20
 30
-1.000000000000000E+20
  9
$PLIMMIN
 10
0.0
 20
0.0
  9
$PLIMMAX
 10
420.0
 20
297.0
  9
$UNITMODE
 70
     0
  9
$VISRETAIN
 70
     1
  9
$PLINEGEN
 70
     0
  9
$PSLTSCALE
 70
     1
  9
$TREEDEPTH
 70
  3020
  9
$CMLSTYLE
  2
STANDARD
  9
$CMLJUST
 70
     0
  9
$CMLSCALE
 40
20.0
  9
$PROXYGRAPHICS
 70
     1
  9
$MEASUREMENT
 70
     0
  9
$CELWEIGHT
370
    -1
  9
$ENDCAPS
280
     0
  9
$JOINSTYLE
280
     0
  9
$LWDISPLAY
290
     0
  9
$INSUNITS
 70
     0
  9
$HYPERLINKBASE
  1

  9
$STYLESHEET
  1

  9
$XEDIT
290
     1
  9
$CEPSNTYPE
380
     0
  9
$PSTYLEMODE
290
     1
  9
$FINGERPRINTGUID
  2
{CD637082-5571-4E03-9257-FCBA38A854A5}
  9
$VERSIONGUID
  2
{0530E2B5-A0F3-46D9-8C10-3BC586ADD489}
  9
$EXTNAMES
290
     1
  9
$PSVPSCALE
 40
0.0
  9
$OLESTARTUP
290
     0
  0
ENDSEC
  0
SECTION
  2
CLASSES
  0
CLASS
  1
ACDBDICTIONARYWDFLT
  2
AcDbDictionaryWithDefault
  3
ObjectDBX Classes
 90
        0
280
     0
281
     0
  0
CLASS
  1
ACDBPLACEHOLDER
  2
AcDbPlaceHolder
  3
ObjectDBX Classes
 90
        0
280
     0
281
     0
  0
CLASS
  1
LAYOUT
  2
AcDbLayout
  3
ObjectDBX Classes
 90
        0
280
     0
281
     0
  0
CLASS
  1
DICTIONARYVAR
  2
AcDbDictionaryVar
  3
ObjectDBX Classes
 90
        0
280
     0
281
     0
  0
CLASS
  1
MATERIAL
  2
AcDbMaterial
  3
ObjectDBX Classes
 90
     1153
280
     0
281
     0
  0
CLASS
  1
VISUALSTYLE
  2
AcDbVisualStyle
  3
ObjectDBX Classes
 90
     4095
280
     0
281
     0
  0
CLASS
  1
TABLESTYLE
  2
AcDbTableStyle
  3
ObjectDBX Classes
 90
     4095
280
     0
281
     0
  0
CLASS
  1
SCALE
  2
AcDbScale
  3
ObjectDBX Classes
 90
     1153
280
     0
281
     0
  0
CLASS
  1
MLEADERSTYLE
  2
AcDbMLeaderStyle
  3
ACDB_MLEADERSTYLE_CLASS
 90
     4095
280
     0
281
     0
  0
CLASS
  1
ACDBSECTIONVIEWSTYLE
  2
AcDbSectionViewStyle
  3
ObjectDBX Classes
 90
     1025
280
     0
281
     0
  0
CLASS
  1
ACDBDETAILVIEWSTYLE
  2
AcDbDetailViewStyle
  3
ObjectDBX Classes
 90
     1025
280
     0
281
     0
  0
CLASS
  1
CELLSTYLEMAP
  2
AcDbCellStyleMap
  3
ObjectDBX Classes
 90
     1152
280
     0
281
     0
  0
ENDSEC
  0
SECTION
  2
TABLES
  0
TABLE
  2
VPORT
  5
8
330
0
100
AcDbSymbolTable
 70
     1
  0
VPORT
  5
2A05
330
8
100
AcDbSymbolTableRecord
100
AcDbViewportTableRecord
  2
*ACTIVE
 70
     0
 10
0.0
 20
0.0
 11
1.0
 21
1.0
 12
292.3089656372276
 22
128.4087472715954
 13
0.0
 23
0.0
 14
10.0
 24
10.0
 15
10.0
 25
10.0
 16
0.0
 26
0.0
 36
1.0
 17
0.0
 27
0.0
 37
0.0
 40
241.2682601393621
 41
1.899603698811096
 42
50.0
 43
0.0
 44
0.0
 50
0.0
 51
0.0
 71
     0
 72
   100
 73
     1
 74
     0
 75
     0
 76
     0
 77
     0
 78
     0
281
     0
 65
     1
110
0.0
120
0.0
130
0.0
111
1.0
121
0.0
131
0.0
112
0.0
122
1.0
132
0.0
 79
     0
146
0.0
1001
ACAD_NAV_VCDISPLAY
1070
     3
  0
ENDTAB
  0
TABLE
  2
LTYPE
  5
5
330
0
100
AcDbSymbolTable
 70
     4
  0
LTYPE
  5
12
330
5
100
AcDbSymbolTableRecord
100
AcDbLinetypeTableRecord
  2
BYBLOCK
 70
     0
  3

 72
    65
 73
     0
 40
0.0
  0
LTYPE
  5
13
330
5
100
AcDbSymbolTableRecord
100
AcDbLinetypeTableRecord
  2
BYLAYER
 70
     0
  3

 72
    65
 73
     0
 40
0.0
  0
LTYPE
  5
14
330
5
100
AcDbSymbolTableRecord
100
AcDbLinetypeTableRecord
  2
CONTINUOUS
 70
     0
  3
Solid line
 72
    65
 73
     0
 40
0.0
  0
LTYPE
  5
4B
330
5
100
AcDbSymbolTableRecord
100
AcDbLinetypeTableRecord
  2
DASHED
 70
     0
  3
Dashed __ __ __ __ __ __ __ __ __ __ __ __ __ _
 72
    65
 73
     2
 40
19.04999999999999
 49
12.7
 74
     0
 49
-6.349999999999998
 74
     0
  0
LTYPE
  5
4C
330
5
100
AcDbSymbolTableRecord
100
AcDbLinetypeTableRecord
  2
CENTER
 70
     0
  3
Center ____ _ ____ _ ____ _ ____ _ ____ _ ____
 72
    65
 73
     4
 40
50.8
 49
31.75
 74
     0
 49
-6.349999999999998
 74
     0
 49
6.349999999999998
 74
     0
 49
-6.349999999999998
 74
     0
  0
LTYPE
  5
4D
330
5
100
AcDbSymbolTableRecord
100
AcDbLinetypeTableRecord
  2
PHANTOM
 70
     0
  3
Phantom ______  __  __  ______  __  __  ______
 72
    65
 73
     6
 40
63.5
 49
31.75
 74
     0
 49
-6.349999999999998
 74
     0
 49
6.349999999999998
 74
     0
 49
-6.349999999999998
 74
     0
 49
6.349999999999998
 74
     0
 49
-6.349999999999998
 74
     0
  0
ENDTAB
  0
TABLE
  2
LAYER
  5
2
330
0
100
AcDbSymbolTable
 70
     8
  0
LAYER
  5
E
102
{ACAD_XDICTIONARY
360
2A5F
102
}
330
2
100
AcDbSymbolTableRecord
100
AcDbLayerTableRecord
  2
0
 70
     0
 62
     7
  6
CONTINUOUS
370
    -3
390
2A0E
  0
LAYER
  5
4E
102
{ACAD_XDICTIONARY
360
2A61
102
}
330
2
100
AcDbSymbolTableRecord
100
AcDbLayerTableRecord
  2
4
 70
     0
 62
     1
  6
CENTER
370
    -3
390
2A0E
  0
LAYER
  5
4F
102
{ACAD_XDICTIONARY
360
2A63
102
}
330
2
100
AcDbSymbolTableRecord
100
AcDbLayerTableRecord
  2
5
 70
     0
 62
     6
  6
PHANTOM
370
    -3
390
2A0E
  0
LAYER
  5
50
102
{ACAD_XDICTIONARY
360
2A65
102
}
330
2
100
AcDbSymbolTableRecord
100
AcDbLayerTableRecord
  2
1
 70
     0
 62
     7
  6
CONTINUOUS
370
    -3
390
2A0E
  0
LAYER
  5
51
102
{ACAD_XDICTIONARY
360
2A67
102
}
330
2
100
AcDbSymbolTableRecord
100
AcDbLayerTableRecord
  2
2
 70
     0
 62
     4
  6
CONTINUOUS
370
    -3
390
2A0E
  0
LAYER
  5
52
102
{ACAD_XDICTIONARY
360
2A69
102
}
330
2
100
AcDbSymbolTableRecord
100
AcDbLayerTableRecord
  2
3
 70
     0
 62
     2
  6
DASHED
370
    -3
390
2A0E
  0
LAYER
  5
53
102
{ACAD_XDICTIONARY
360
2A6B
102
}
330
2
100
AcDbSymbolTableRecord
100
AcDbLayerTableRecord
  2
6
 70
     0
 62
     5
  6
CONTINUOUS
370
    -3
390
2A0E
  0
LAYER
  5
54
102
{ACAD_XDICTIONARY
360
2A6D
102
}
330
2
100
AcDbSymbolTableRecord
100
AcDbLayerTableRecord
  2
7
 70
     0
 62
     3
  6
CONTINUOUS
370
    -3
390
2A0E
  0
ENDTAB
  0
TABLE
  2
STYLE
  5
3
330
0
100
AcDbSymbolTable
 70
     1
  0
STYLE
  5
F
330
3
100
AcDbSymbolTableRecord
100
AcDbTextStyleTableRecord
  2
STANDARD
 70
     0
 40
0.0
 41
1.0
 50
0.0
 71
     0
 42
2.5
  3
simplex.shx
  4

  0
ENDTAB
  0
TABLE
  2
VIEW
  5
6
330
0
100
AcDbSymbolTable
 70
     0
  0
ENDTAB
  0
TABLE
  2
UCS
  5
7
330
0
100
AcDbSymbolTable
 70
     0
  0
ENDTAB
  0
TABLE
  2
APPID
  5
9
330
0
100
AcDbSymbolTable
 70
     5
  0
APPID
  5
10
330
9
100
AcDbSymbolTableRecord
100
AcDbRegAppTableRecord
  2
ACAD
 70
     0
  0
APPID
  5
3E
330
9
100
AcDbSymbolTableRecord
100
AcDbRegAppTableRecord
  2
CONTENTTABDATA
 70
     0
  0
APPID
  5
3F
330
9
100
AcDbSymbolTableRecord
100
AcDbRegAppTableRecord
  2
CONTENTCURRENTTAB
 70
     0
  0
APPID
  5
2A79
330
9
100
AcDbSymbolTableRecord
100
AcDbRegAppTableRecord
  2
ACAD_NAV_VCDISPLAY
 70
     0
  0
APPID
  5
2AB2
330
9
100
AcDbSymbolTableRecord
100
AcDbRegAppTableRecord
  2
ACAD_MLEADERVER
 70
     0
  0
ENDTAB
  0
TABLE
  2
DIMSTYLE
  5
A
330
0
100
AcDbSymbolTable
 70
     1
100
AcDbDimStyleTable
 71
     0
  0
DIMSTYLE
105
1D
330
A
100
AcDbSymbolTableRecord
100
AcDbDimStyleTableRecord
  2
STANDARD
 70
     0
 41
3.0
 42
1.0
 43
10.0
 44
1.0
 73
     0
 74
     0
 77
     3
 78
     8
140
3.2
141
0.0
147
1.0
172
     1
173
     1
340
F
341
2E
343
2E
344
2E
  0
ENDTAB
  0
TABLE
  2
BLOCK_RECORD
  5
1
330
0
100
AcDbSymbolTable
 70
     1
  0
BLOCK_RECORD
  5
18
102
{ACAD_XDICTIONARY
360
2A08
102
}
330
1
100
AcDbSymbolTableRecord
100
AcDbBlockTableRecord
  2
*MODEL_SPACE
340
2A5C
  0
BLOCK_RECORD
  5
15
102
{ACAD_XDICTIONARY
360
2A06
102
}
330
1
100
AcDbSymbolTableRecord
100
AcDbBlockTableRecord
  2
*PAPER_SPACE
340
2A5D
  0
BLOCK_RECORD
  5
2E
330
1
100
AcDbSymbolTableRecord
100
AcDbBlockTableRecord
  2
_OPEN
340
0
  0
ENDTAB
  0
ENDSEC
  0
SECTION
  2
BLOCKS
  0
BLOCK
  5
19
330
18
100
AcDbEntity
  8
0
100
AcDbBlockBegin
  2
*MODEL_SPACE
 70
     0
 10
0.0
 20
0.0
 30
0.0
  3
*MODEL_SPACE
  1

  0
ENDBLK
  5
1A
330
18
100
AcDbEntity
  8
0
100
AcDbBlockEnd
  0
BLOCK
  5
16
330
15
100
AcDbEntity
 67
     1
  8
0
100
AcDbBlockBegin
  2
*PAPER_SPACE
 70
     0
 10
0.0
 20
0.0
 30
0.0
  3
*PAPER_SPACE
  1

  0
ENDBLK
  5
17
330
15
100
AcDbEntity
 67
     1
  8
0
100
AcDbBlockEnd
  0
BLOCK
  5
2F
330
2E
100
AcDbEntity
  8
0
100
AcDbBlockBegin
  2
_OPEN
 70
     0
 10
0.0
 20
0.0
 30
0.0
  3
_OPEN
  1

  0
LINE
  5
30
330
2E
100
AcDbEntity
  8
0
  6
ByBlock
 62
     0
100
AcDbLine
 10
-1.0
 20
0.1666666666666666
 30
0.0
 11
0.0
 21
0.0
 31
0.0
  0
LINE
  5
31
330
2E
100
AcDbEntity
  8
0
  6
ByBlock
 62
     0
100
AcDbLine
 10
0.0
 20
0.0
 30
0.0
 11
-1.0
 21
-0.1666666666666666
 31
0.0
  0
LINE
  5
32
330
2E
100
AcDbEntity
  8
0
  6
ByBlock
 62
     0
100
AcDbLine
 10
0.0
 20
0.0
 30
0.0
 11
-1.0
 21
0.0
 31
0.0
  0
ENDBLK
  5
33
330
2E
100
AcDbEntity
  8
0
100
AcDbBlockEnd
  0
ENDSEC
  0
SECTION
  2
ENTITIES
  0
TEXT
  5
63
330
18
100
AcDbEntity
  8
4
  6
CENTER
 48
0.2
100
AcDbText
 10
23.97950852663849
 20
10.0
 30
0.0
 40
1.399999999999999
  1
4
100
AcDbText
  0
TEXT
  5
64
330
18
100
AcDbEntity
  8
7
  6
Continuous
 48
0.25
100
AcDbText
 10
9.999997526638502
 20
26.0000007607689
 30
0.0
 40
3.0
  1
CODE No.1824
100
AcDbText
  0
TEXT
  5
65
330
18
100
AcDbEntity
  8
7
  6
Continuous
 48
0.25
100
AcDbText
 10
9.999997526638502
 20
18.00000076076889
 30
0.0
 40
3.0
  1
TYPE No.THA-351-001
100
AcDbText
  0
TEXT
  5
66
330
18
100
AcDbEntity
  8
1
  6
Continuous
 48
0.25
100
AcDbText
 10
9.999997526638502
 20
10.00000076076889
 30
0.0
 40
1.399999999999999
  1
LAYER
100
AcDbText
  0
TEXT
  5
67
330
18
100
AcDbEntity
  8
2
  6
Continuous
 48
0.25
100
AcDbText
 10
19.9795085266385
 20
10.0
 30
0.0
 40
1.399999999999999
  1
2
100
AcDbText
  0
TEXT
  5
68
330
18
100
AcDbEntity
  8
3
  6
DASHED
 48
0.2
100
AcDbText
 10
21.9795085266385
 20
10.0
 30
0.0
 40
1.399999999999999
  1
3
100
AcDbText
  0
TEXT
  5
69
330
18
100
AcDbEntity
  8
1
  6
Continuous
 48
0.25
100
AcDbText
 10
17.9795085266385
 20
10.0
 30
0.0
 40
1.399999999999999
  1
1
100
AcDbText
  0
TEXT
  5
6A
330
18
100
AcDbEntity
  8
5
  6
PHANTOM
 48
0.25
100
AcDbText
 10
25.9795085266385
 20
10.0
 30
0.0
 40
1.399999999999999
  1
5
100
AcDbText
  0
TEXT
  5
6B
330
18
100
AcDbEntity
  8
6
  6
Continuous
 48
0.25
100
AcDbText
 10
27.9795085266385
 20
10.0
 30
0.0
 40
1.399999999999999
  1
6
100
AcDbText
  0
TEXT
  5
6C
330
18
100
AcDbEntity
  8
7
  6
Continuous
 48
0.25
100
AcDbText
 10
29.9795085266385
 20
10.0
 30
0.0
 40
1.399999999999999
  1
7
100
AcDbText
  0
LINE
  5
392
330
18
100
AcDbEntity
  8
1
  6
Continuous
100
AcDbLine
 10
181.1994273662385
 20
174.7244109564163
 30
0.0
 11
203.1994273662385
 21
174.7244109564163
 31
0.0
  0
LINE
  5
393
330
18
100
AcDbEntity
  8
1
  6
Continuous
100
AcDbLine
 10
181.1994273662385
 20
164.7244109564163
 30
0.0
 11
183.1994273662385
 21
164.7244109564163
 31
0.0
  0
LINE
  5
394
330
18
100
AcDbEntity
  8
1
  6
Continuous
100
AcDbLine
 10
185.1994273662385
 20
173.7244109564163
 30
0.0
 11
185.1994273662385
 21
165.7244109564163
 31
0.0
  0
LINE
  5
395
330
18
100
AcDbEntity
  8
1
  6
Continuous
100
AcDbLine
 10
203.1994273662385
 20
164.7244109564163
 30
0.0
 11
201.1994273662385
 21
164.7244109564163
 31
0.0
  0
LINE
  5
396
330
18
100
AcDbEntity
  8
1
  6
Continuous
100
AcDbLine
 10
199.1994273662385
 20
173.7244109564163
 30
0.0
 11
199.1994273662385
 21
165.7244109564163
 31
0.0
  0
LINE
  5
397
330
18
100
AcDbEntity
  8
1
  6
Continuous
100
AcDbLine
 10
199.1994273662385
 20
165.7244109564163
 30
0.0
 11
185.1994273662385
 21
165.7244109564163
 31
0.0
  0
LINE
  5
398
330
18
100
AcDbEntity
  8
1
  6
Continuous
100
AcDbLine
 10
185.1994273662384
 20
166.7244109564163
 30
0.0
 11
183.1994273662384
 21
164.7244109564163
 31
0.0
  0
LINE
  5
399
330
18
100
AcDbEntity
  8
1
  6
Continuous
100
AcDbLine
 10
199.1994273662385
 20
166.7244109564162
 30
0.0
 11
201.1994273662385
 21
164.7244109564162
 31
0.0
  0
LINE
  5
39A
330
18
100
AcDbEntity
  8
4
  6
CENTER
 48
0.2
100
AcDbLine
 10
203.1994273662385
 20
175.7244109564163
 30
0.0
 11
203.1994273662385
 21
163.7244109564163
 31
0.0
  0
LINE
  5
39B
330
18
100
AcDbEntity
  8
4
  6
CENTER
 48
0.2
100
AcDbLine
 10
181.1994273662385
 20
175.7244109564163
 30
0.0
 11
181.1994273662385
 21
163.7244109564163
 31
0.0
  0
ARC
  5
39C
330
18
100
AcDbEntity
  8
1
  6
Continuous
100
AcDbCircle
 10
186.1994273662385
 20
173.7244109564163
 30
0.0
 40
1.0
100
AcDbArc
 50
90.0
 51
180.0
  0
ARC
  5
39D
330
18
100
AcDbEntity
  8
1
  6
Continuous
100
AcDbCircle
 10
198.1994273662385
 20
173.7244109564163
 30
0.0
 40
1.0
100
AcDbArc
 50
0.0
 51
90.0
  0
LINE
  5
39E
330
18
100
AcDbEntity
  8
4
  6
CENTER
 48
0.2
100
AcDbLine
 10
174.6994273662385
 20
169.7244109564163
 30
0.0
 11
209.6994273662385
 21
169.7244109564163
 31
0.0
  0
CIRCLE
  5
39F
330
18
100
AcDbEntity
  8
1
  6
Continuous
100
AcDbCircle
 10
181.1994273662385
 20
169.7244109564163
 30
0.0
 40
2.149999999999999
  0
CIRCLE
  5
3A0
330
18
100
AcDbEntity
  8
1
  6
Continuous
100
AcDbCircle
 10
181.1994273662385
 20
169.7244109564163
 30
0.0
 40
4.0
  0
ARC
  5
3A1
330
18
100
AcDbEntity
  8
1
  6
Continuous
100
AcDbCircle
 10
181.1994273662385
 20
169.7244109564163
 30
0.0
 40
5.0
100
AcDbArc
 50
90.0
 51
270.0
  0
CIRCLE
  5
3A2
330
18
100
AcDbEntity
  8
1
  6
Continuous
100
AcDbCircle
 10
203.1994273662386
 20
169.7244109564163
 30
0.0
 40
2.149999999999999
  0
CIRCLE
  5
3A3
330
18
100
AcDbEntity
  8
1
  6
Continuous
100
AcDbCircle
 10
203.1994273662386
 20
169.7244109564163
 30
0.0
 40
4.0
  0
ARC
  5
3A4
330
18
100
AcDbEntity
  8
1
  6
Continuous
100
AcDbCircle
 10
203.1994273662386
 20
169.7244109564163
 30
0.0
 40
5.0
100
AcDbArc
 50
270.0
 51
90.0
  0
LINE
  5
3A5
330
18
100
AcDbEntity
  8
4
  6
CENTER
 48
0.2
100
AcDbLine
 10
192.1994273662119
 20
162.4146445855931
 30
0.0
 11
192.1994273662231
 21
176.7066163464699
 31
0.0
  0
LINE
  5
3A7
330
18
100
AcDbEntity
  8
1
  6
Continuous
100
AcDbLine
 10
47.16793574874145
 20
142.724413019489
 30
0.0
 11
47.16793574874151
 21
111.724413019489
 31
0.0
  0
ARC
  5
3A8
330
18
100
AcDbEntity
  8
1
  6
Continuous
100
AcDbCircle
 10
56.16793574874151
 20
116.9744130194907
 30
0.0
 40
2.75
100
AcDbArc
 50
0.0
 51
180.0
  0
ARC
  5
3A9
330
18
100
AcDbEntity
  8
1
  6
Continuous
100
AcDbCircle
 10
56.16793574874151
 20
116.4744130194907
 30
0.0
 40
2.75
100
AcDbArc
 50
180.0
 51
0.0
  0
LINE
  5
3AA
330
18
100
AcDbEntity
  8
4
  6
CENTER
 48
0.1
100
AcDbLine
 10
50.83375423396228
 20
117.7244130194717
 30
0.0
 11
45.94556092477051
 21
117.7244130194717
 31
0.0
  0
LINE
  5
3AB
330
18
100
AcDbEntity
  8
4
  6
CENTER
 48
0.1
100
AcDbLine
 10
50.83375423396228
 20
130.7244130194716
 30
0.0
 11
45.94556092477046
 21
130.7244130194716
 31
0.0
  0
LINE
  5
3AC
330
18
100
AcDbEntity
  8
1
  6
Continuous
100
AcDbLine
 10
49.66793574874151
 20
141.7244130194936
 30
0.0
 11
49.66793574874157
 21
112.7244130194887
 31
0.0
  0
LINE
  5
3AD
330
18
100
AcDbEntity
  8
1
  6
Continuous
100
AcDbLine
 10
62.16793574874151
 20
137.7244130194897
 30
0.0
 11
62.16793574874151
 21
105.2244130194897
 31
0.0
  0
LINE
  5
3AE
330
18
100
AcDbEntity
  8
1
  6
Continuous
100
AcDbLine
 10
61.16793574874151
 20
111.7244130194899
 30
0.0
 11
61.16793574874151
 21
105.2244130194897
 31
0.0
  0
LINE
  5
3AF
330
18
100
AcDbEntity
  8
1
  6
Continuous
100
AcDbLine
 10
62.16793574874151
 20
105.2244130194896
 30
0.0
 11
61.16793574874315
 21
105.2244130194896
 31
0.0
  0
LINE
  5
3B0
330
18
100
AcDbEntity
  8
1
  6
Continuous
100
AcDbLine
 10
53.41793574874151
 20
116.9744130194904
 30
0.0
 11
53.41793574874151
 21
116.4744130194904
 31
0.0
  0
LINE
  5
3B1
330
18
100
AcDbEntity
  8
1
  6
Continuous
100
AcDbLine
 10
58.91793574874151
 20
116.9744130194904
 30
0.0
 11
58.91793574874151
 21
116.4744130194904
 31
0.0
  0
LINE
  5
3B2
330
18
100
AcDbEntity
  8
1
  6
Continuous
100
AcDbLine
 10
61.16793574874151
 20
140.7244130194903
 30
0.0
 11
61.16793574874151
 21
137.7244130194897
 31
0.0
  0
LINE
  5
3B3
330
18
100
AcDbEntity
  8
1
  6
Continuous
100
AcDbLine
 10
62.1679357487406
 20
137.7244130194896
 30
0.0
 11
61.16793574874151
 21
137.7244130194897
 31
0.0
  0
ARC
  5
3B5
330
18
100
AcDbEntity
  8
1
  6
Continuous
100
AcDbCircle
 10
59.16793574874152
 20
140.7244130194902
 30
0.0
 40
2.0
100
AcDbArc
 50
0.0
 51
59.14413721778603
  0
LINE
  5
3B6
330
18
100
AcDbEntity
  8
1
  6
Continuous
100
AcDbLine
 10
47.16793574874151
 20
111.7244130194884
 30
0.0
 11
62.16793574873646
 21
111.7244130194898
 31
0.0
  0
LINE
  5
3B7
330
18
100
AcDbEntity
  8
4
  6
CENTER
 48
0.1
100
AcDbLine
 10
56.16793574874151
 20
120.7815175304087
 30
0.0
 11
56.16793574874151
 21
112.8024337085566
 31
0.0
  0
LINE
  5
3B8
330
18
100
AcDbEntity
  8
4
  6
CENTER
 48
0.1
100
AcDbLine
 10
52.39822685820906
 20
116.7244130194926
 30
0.0
 11
59.81973585455546
 21
116.7244130194887
 31
0.0
  0
LINE
  5
3BE
330
18
100
AcDbEntity
  8
1
  6
Continuous
100
AcDbLine
 10
47.16793574874151
 20
142.7244130194954
 30
0.0
 11
50.17600600070739
 21
142.7244130194939
 31
0.0
  0
ARC
  5
3BF
330
18
100
AcDbEntity
  8
1
  6
Continuous
100
AcDbCircle
 10
50.66793574874157
 20
112.7244130194886
 30
0.0
 40
1.0
100
AcDbArc
 50
180.0
 51
270.0
  0
ARC
  5
3C0
330
18
100
AcDbEntity
  8
1
  6
Continuous
100
AcDbCircle
 10
50.66793574874151
 20
141.7244130194936
 30
0.0
 40
1.0
100
AcDbArc
 50
119.1547412292178
 51
180.0
  0
LINE
  5
3C2
330
18
100
AcDbEntity
  8
1
  6
Continuous
100
AcDbLine
 10
49.63903023214346
 20
157.0173113315406
 30
0.0
 11
49.71411608211809
 21
155.0187212997599
 31
0.0
  0
LINE
  5
3C3
330
18
100
AcDbEntity
  8
1
  6
Continuous
100
AcDbLine
 10
59.63198039104748
 20
157.3927405814132
 30
0.0
 11
59.70706624102206
 21
155.3941505496324
 31
0.0
  0
LINE
  5
3C4
330
18
100
AcDbEntity
  8
1
  6
Continuous
100
AcDbLine
 10
50.23253505255684
 20
154.5378452543084
 30
0.0
 11
52.23112508433769
 21
154.6129311042828
 31
0.0
  0
LINE
  5
3C5
330
18
100
AcDbEntity
  8
1
  6
Continuous
100
AcDbLine
 10
57.2276001637897
 20
154.800645729219
 30
0.0
 11
59.2261901955705
 21
154.8757315791936
 31
0.0
  0
ARC
  5
3C6
330
18
100
AcDbEntity
  8
1
  6
Continuous
100
AcDbCircle
 10
50.13867774008867
 20
157.0360827940343
 30
0.0
 40
0.5
100
AcDbArc
 50
92.15155678056229
 51
182.1515567805622
  0
ARC
  5
3C7
330
18
100
AcDbEntity
  8
1
  6
Continuous
100
AcDbCircle
 10
50.21376359006325
 20
155.0374927622535
 30
0.0
 40
0.5
100
AcDbArc
 50
182.1515567805622
 51
272.1515567805621
  0
ARC
  5
3C8
330
18
100
AcDbEntity
  8
1
  6
Continuous
100
AcDbCircle
 10
59.20741873307685
 20
155.3753790871388
 30
0.0
 40
0.5
100
AcDbArc
 50
272.1515567805621
 51
2.151556780562278
  0
ARC
  5
3C9
330
18
100
AcDbEntity
  8
1
  6
Continuous
100
AcDbCircle
 10
59.13233288310232
 20
157.3739691189196
 30
0.0
 40
0.5
100
AcDbArc
 50
2.151556780562278
 51
92.15155678056229
  0
LINE
  5
3CA
330
18
100
AcDbEntity
  8
4
  6
CENTER
 48
0.1
100
AcDbLine
 10
51.16793574874457
 20
129.724413019491
 30
0.0
 11
60.16793574874458
 21
129.7244130194904
 31
0.0
  0
ARC
  5
3CB
330
18
100
AcDbEntity
  8
1
  6
Continuous
100
AcDbCircle
 10
59.09276674274065
 20
131.7909397341923
 30
0.0
 40
1.0
100
AcDbArc
 50
182.1515567805622
 51
211.1065811524213
  0
ARC
  5
3CC
330
18
100
AcDbEntity
  8
1
  6
Continuous
100
AcDbCircle
 10
52.0977016315079
 20
131.5281392592812
 30
0.0
 40
1.0
100
AcDbArc
 50
333.1965324087028
 51
2.151556780562278
  0
LINE
  5
3CD
330
18
100
AcDbEntity
  8
1
  6
Continuous
100
AcDbLine
 10
56.99538425892729
 20
134.0208557974928
 30
0.0
 11
53.98568855800021
 21
133.9077833032432
 31
0.0
  0
LINE
  5
3CE
330
18
100
AcDbEntity
  8
1
  6
Continuous
100
AcDbLine
 10
59.71974313726957
 20
141.7386359776966
 30
0.0
 11
50.72608799425602
 21
141.4007496528089
 31
0.0
  0
LINE
  5
3CF
330
18
100
AcDbEntity
  8
1
  6
Continuous
100
AcDbLine
 10
60.20061918272096
 20
142.2570549481356
 30
0.0
 11
60.12553333274581
 21
144.2556449799164
 31
0.0
  0
LINE
  5
3D0
330
18
100
AcDbEntity
  8
1
  6
Continuous
100
AcDbLine
 10
50.20766902381706
 20
141.8816256982604
 30
0.0
 11
50.13258317384191
 21
143.8802157300412
 31
0.0
  0
LINE
  5
3D1
330
18
100
AcDbEntity
  8
1
  6
Continuous
100
AcDbLine
 10
59.60711436230695
 20
144.7365210253677
 30
0.0
 11
57.60852433052605
 21
144.6614351753927
 31
0.0
  0
LINE
  5
3D2
330
18
100
AcDbEntity
  8
1
  6
Continuous
100
AcDbLine
 10
52.6120492510741
 20
144.4737205504551
 30
0.0
 11
50.61345921929335
 21
144.3986347004801
 31
0.0
  0
ARC
  5
3D3
330
18
100
AcDbEntity
  8
1
  6
Continuous
100
AcDbCircle
 10
59.70097167477582
 20
142.2382834856418
 30
0.0
 40
0.5
100
AcDbArc
 50
272.1515567805782
 51
2.151556780578154
  0
ARC
  5
3D4
330
18
100
AcDbEntity
  8
1
  6
Continuous
100
AcDbCircle
 10
59.6258858248006
 20
144.2368735174227
 30
0.0
 40
0.5
100
AcDbArc
 50
2.151556780578154
 51
92.1515567805781
  0
ARC
  5
3D5
330
18
100
AcDbEntity
  8
1
  6
Continuous
100
AcDbCircle
 10
50.63223068178706
 20
143.8989871925349
 30
0.0
 40
0.5
100
AcDbArc
 50
92.1515567805781
 51
182.1515567805781
  0
ARC
  5
3D6
330
18
100
AcDbEntity
  8
1
  6
Continuous
100
AcDbCircle
 10
50.70731653176228
 20
141.9003971607541
 30
0.0
 40
0.5
100
AcDbArc
 50
182.1515567805781
 51
272.1515567805782
  0
CIRCLE
  5
3D7
330
18
100
AcDbEntity
  8
1
  6
Continuous
100
AcDbCircle
 10
52.17312363432995
 20
169.4748674102086
 30
0.0
 40
1.7500020630587
  0
ARC
  5
3D8
330
18
100
AcDbEntity
  8
1
  6
Continuous
100
AcDbCircle
 10
52.17312363432995
 20
169.4748674102086
 30
0.0
 40
3.0
100
AcDbArc
 50
2.723315332137127
 51
250.1272439435359
  0
ARC
  5
3DB
330
18
100
AcDbEntity
  8
1
  6
Continuous
100
AcDbCircle
 10
55.81390410966332
 20
165.7933806055068
 30
0.0
 40
1.0
100
AcDbArc
 50
2.151556780578154
 51
25.72505941957488
  0
LINE
  5
3DC
330
18
100
AcDbEntity
  8
1
  6
Continuous
100
AcDbLine
 10
53.12223476923577
 20
166.1902094081515
 30
0.0
 11
55.5392085203111
 21
166.2810136879595
 31
0.0
  0
LINE
  5
3DD
330
18
100
AcDbEntity
  8
1
  6
Continuous
100
AcDbLine
 10
53.19768173156489
 20
164.1820075047434
 30
0.0
 11
55.6146554826402
 21
164.2728117845513
 31
0.0
  0
LINE
  5
3DE
330
18
100
AcDbEntity
  8
1
  6
Continuous
100
AcDbLine
 10
56.71479137560209
 20
166.2274337521026
 30
0.0
 11
55.26771886144382
 21
169.2308659610844
 31
0.0
  0
ARC
  5
3DF
330
18
100
AcDbEntity
  8
1
  6
Continuous
100
AcDbCircle
 10
50.8133940022413
 20
165.7130679302231
 30
0.0
 40
1.0
100
AcDbArc
 50
2.151556780578154
 51
70.12724394353603
  0
ARC
  5
3E0
330
18
100
AcDbEntity
  8
1
  6
Continuous
100
AcDbCircle
 10
56.16860612738236
 20
169.6649191076798
 30
0.0
 40
1.0
100
AcDbArc
 50
182.7233153321371
 51
205.7250594195753
  0
LINE
  5
3E1
330
18
100
AcDbEntity
  8
1
  6
Continuous
100
AcDbLine
 10
50.11990627759502
 20
157.5357303019796
 30
0.0
 11
52.11849630936967
 21
157.6108161519539
 31
0.0
  0
LINE
  5
3E2
330
18
100
AcDbEntity
  8
1
  6
Continuous
100
AcDbLine
 10
57.11497138882169
 20
157.7985307768901
 30
0.0
 11
59.11356142060867
 21
157.8736166268648
 31
0.0
  0
LINE
  5
41D
330
18
100
AcDbEntity
  8
4
  6
CENTER
 48
0.2
100
AcDbLine
 10
54.2750854069439
 20
166.7984663840187
 30
0.0
 11
55.80635444328516
 21
126.0400673908442
 31
0.0
  0
LINE
  5
41E
330
18
100
AcDbEntity
  8
1
  6
Continuous
100
AcDbLine
 10
56.8131991255583
 20
165.8309235304944
 30
0.0
 11
57.26181031244772
 21
153.8900605507799
 31
0.0
  0
LINE
  5
41F
330
18
100
AcDbEntity
  8
1
  6
Continuous
100
AcDbLine
 10
57.72115310548645
 20
141.6635501277215
 30
0.0
 11
58.09347172685028
 21
131.753396809205
 31
0.0
  0
LINE
  5
420
330
18
100
AcDbEntity
  8
1
  6
Continuous
100
AcDbLine
 10
51.81268901813661
 20
165.7506108552104
 30
0.0
 11
52.24111742311389
 21
154.3469610355876
 31
0.0
  0
LINE
  5
421
330
18
100
AcDbEntity
  8
1
  6
Continuous
100
AcDbLine
 10
52.72467802603443
 20
141.4758355027839
 30
0.0
 11
53.09699664739827
 21
131.5656821842684
 31
0.0
  0
ARC
  5
422
330
18
100
AcDbEntity
  8
1
  6
Continuous
100
AcDbCircle
 10
55.66793574874147
 20
129.7244130194907
 30
0.0
 40
3.0
100
AcDbArc
 50
153.1965324086706
 51
31.10658115238974
  0
CIRCLE
  5
423
330
18
100
AcDbEntity
  8
1
  6
Continuous
100
AcDbCircle
 10
55.66793574874612
 20
129.7244130194907
 30
0.0
 40
1.750002063062311
  0
LINE
  5
424
330
18
100
AcDbEntity
  8
1
  6
Continuous
100
AcDbLine
 10
149.9494273661577
 20
142.724410956431
 30
0.0
 11
134.4494273661577
 21
142.7244109564466
 31
0.0
  0
LINE
  5
425
330
18
100
AcDbEntity
  8
1
  6
Continuous
100
AcDbLine
 10
134.4494273661577
 20
142.7244109564466
 30
0.0
 11
134.4494273661387
 21
137.7244109564209
 31
0.0
  0
LINE
  5
426
330
18
100
AcDbEntity
  8
1
  6
Continuous
100
AcDbLine
 10
149.9494273661577
 20
142.7244109563892
 30
0.0
 11
149.9494273661387
 21
137.7244109564145
 31
0.0
  0
LINE
  5
427
330
18
100
AcDbEntity
  8
1
  6
Continuous
100
AcDbLine
 10
148.4494273661576
 20
142.7244109563931
 30
0.0
 11
148.4494273661387
 21
137.7244109564152
 31
0.0
  0
LINE
  5
428
330
18
100
AcDbEntity
  8
1
  6
Continuous
100
AcDbLine
 10
135.9494273661576
 20
142.7244109564426
 30
0.0
 11
135.9494273661387
 21
137.7244109564202
 31
0.0
  0
LINE
  5
42B
330
18
100
AcDbEntity
  8
4
  6
CENTER
 48
0.1
100
AcDbLine
 10
137.9494273662181
 20
117.7244109564207
 30
0.0
 11
146.4494273662181
 21
117.7244109564121
 31
0.0
  0
LINE
  5
42C
330
18
100
AcDbEntity
  8
4
  6
CENTER
 48
0.1
100
AcDbLine
 10
137.9494273662168
 20
130.7244109564206
 30
0.0
 11
146.4494273662168
 21
130.7244109564121
 31
0.0
  0
LINE
  5
42D
330
18
100
AcDbEntity
  8
1
  6
Continuous
100
AcDbLine
 10
149.1994273661419
 20
105.224410956429
 30
0.0
 11
135.199427366142
 21
105.2244109564431
 31
0.0
  0
LINE
  5
42E
330
18
100
AcDbEntity
  8
1
  6
Continuous
100
AcDbLine
 10
151.199427366153
 20
111.7244109564459
 30
0.0
 11
150.199427366153
 21
111.7244109564478
 31
0.0
  0
LINE
  5
42F
330
18
100
AcDbEntity
  8
1
  6
Continuous
100
AcDbLine
 10
134.199427366153
 20
111.7244109564784
 30
0.0
 11
133.199427366153
 21
111.7244109564804
 31
0.0
  0
LINE
  5
430
330
18
100
AcDbEntity
  8
1
  6
Continuous
100
AcDbLine
 10
151.499427366201
 20
137.7244109564142
 30
0.0
 11
132.899427366201
 21
137.7244109564214
 31
0.0
  0
LINE
  5
431
330
18
100
AcDbEntity
  8
1
  6
Continuous
100
AcDbLine
 10
151.1994273662103
 20
142.7244109564286
 30
0.0
 11
150.1994273662103
 21
142.7244109564296
 31
0.0
  0
LINE
  5
432
330
18
100
AcDbEntity
  8
1
  6
Continuous
100
AcDbLine
 10
134.1994273662103
 20
142.7244109564457
 30
0.0
 11
133.1994273662103
 21
142.7244109564467
 31
0.0
  0
LINE
  5
433
330
18
100
AcDbEntity
  8
1
  6
Continuous
100
AcDbLine
 10
134.1994273662102
 20
142.7244109564448
 30
0.0
 11
134.1994273662009
 21
137.7244109564208
 31
0.0
  0
LINE
  5
434
330
18
100
AcDbEntity
  8
1
  6
Continuous
100
AcDbLine
 10
150.1994273662102
 20
142.7244109564153
 30
0.0
 11
150.1994273662009
 21
137.7244109564147
 31
0.0
  0
LINE
  5
436
330
18
100
AcDbEntity
  8
1
  6
Continuous
100
AcDbLine
 10
150.199427366153
 20
111.724410956448
 30
0.0
 11
150.1994273661429
 21
106.2244109564272
 31
0.0
  0
LINE
  5
438
330
18
100
AcDbEntity
  8
1
  6
Continuous
100
AcDbLine
 10
134.199427366153
 20
111.7244109564786
 30
0.0
 11
134.1994273661429
 21
106.2244109564449
 31
0.0
  0
LINE
  5
439
330
18
100
AcDbEntity
  8
1
  6
Continuous
100
AcDbLine
 10
133.1994273662103
 20
142.7244109564467
 30
0.0
 11
133.199427366153
 21
111.7244109564804
 31
0.0
  0
LINE
  5
43A
330
18
100
AcDbEntity
  8
1
  6
Continuous
100
AcDbLine
 10
151.1994273662103
 20
142.7244109564136
 30
0.0
 11
151.1994273661531
 21
111.724410956446
 31
0.0
  0
LINE
  5
43D
330
18
100
AcDbEntity
  8
4
  6
CENTER
 48
0.2
100
AcDbLine
 10
152.4994273662047
 20
139.7244109564262
 30
0.0
 11
131.8994273662047
 21
139.7244109564414
 31
0.0
  0
LINE
  5
448
330
18
100
AcDbEntity
  8
1
  6
Continuous
100
AcDbLine
 10
150.1994273662019
 20
138.2244109564238
 30
0.0
 11
149.9494273661405
 21
138.2244109564241
 31
0.0
  0
LINE
  5
449
330
18
100
AcDbEntity
  8
1
  6
Continuous
100
AcDbLine
 10
134.4494273661405
 20
138.2244109564437
 30
0.0
 11
134.1994273662018
 21
138.2244109564441
 31
0.0
  0
LINE
  5
44A
330
18
100
AcDbEntity
  8
1
  6
Continuous
100
AcDbLine
 10
150.1994273662074
 20
141.2244109564238
 30
0.0
 11
149.9494273661519
 21
141.2244109564241
 31
0.0
  0
LINE
  5
44B
330
18
100
AcDbEntity
  8
1
  6
Continuous
100
AcDbLine
 10
134.4494273661519
 20
141.2244109564437
 30
0.0
 11
134.1994273662073
 21
141.2244109564441
 31
0.0
  0
ARC
  5
44C
330
18
100
AcDbEntity
  8
1
  6
Continuous
100
AcDbCircle
 10
149.1994273661429
 20
106.224410956429
 30
0.0
 40
1.0
100
AcDbArc
 50
270.0
 51
0.0
  0
ARC
  5
44D
330
18
100
AcDbEntity
  8
1
  6
Continuous
100
AcDbCircle
 10
135.1994273661429
 20
106.2244109564431
 30
0.0
 40
1.0
100
AcDbArc
 50
180.0
 51
270.0
  0
LINE
  5
450
330
18
100
AcDbEntity
  8
1
  6
Continuous
100
AcDbLine
 10
152.1994273662559
 20
133.224410956404
 30
0.0
 11
152.1994273662559
 21
126.7244109564276
 31
0.0
  0
LINE
  5
451
330
18
100
AcDbEntity
  8
1
  6
Continuous
100
AcDbLine
 10
153.6994273662559
 20
133.224410956402
 30
0.0
 11
153.6994273662559
 21
126.7244109564277
 31
0.0
  0
LINE
  5
452
330
18
100
AcDbEntity
  8
1
  6
Continuous
100
AcDbLine
 10
152.1994273662559
 20
126.7244109564277
 30
0.0
 11
153.6994273662559
 21
126.7244109564277
 31
0.0
  0
LINE
  5
453
330
18
100
AcDbEntity
  8
1
  6
Continuous
100
AcDbLine
 10
152.5423124433342
 20
131.6609026295312
 30
0.0
 11
153.3895262142364
 21
131.6609026295312
 31
0.0
  0
ARC
  5
454
330
18
100
AcDbEntity
  8
1
  6
Continuous
100
AcDbCircle
 10
154.6994273662559
 20
133.2244109564072
 30
0.0
 40
1.0
100
AcDbArc
 50
145.6325565907251
 51
180.0
  0
LINE
  5
455
330
18
100
AcDbEntity
  8
1
  6
Continuous
100
AcDbLine
 10
156.2630133423542
 20
137.2822417498592
 30
0.0
 11
153.8739929758166
 21
133.7889090229054
 31
0.0
  0
LINE
  5
456
330
18
100
AcDbEntity
  8
1
  6
Continuous
100
AcDbLine
 10
155.0248617566952
 20
138.1289888496064
 30
0.0
 11
152.6358413901576
 21
134.6356561226525
 31
0.0
  0
ARC
  5
457
330
18
100
AcDbEntity
  8
1
  6
Continuous
100
AcDbCircle
 10
154.6994273662559
 20
133.2244109564072
 30
0.0
 40
2.5
100
AcDbArc
 50
145.6325565907251
 51
180.0
  0
LINE
  5
45C
330
18
100
AcDbEntity
  8
1
  6
Continuous
100
AcDbLine
 10
152.1994273662653
 20
167.4018700321304
 30
0.0
 11
152.19942736626
 21
172.4748674102098
 31
0.0
  0
LINE
  5
45D
330
18
100
AcDbEntity
  8
1
  6
Continuous
100
AcDbLine
 10
153.6994273662652
 20
167.4018700321319
 30
0.0
 11
153.69942736626
 21
172.4748674102112
 31
0.0
  0
LINE
  5
45E
330
18
100
AcDbEntity
  8
1
  6
Continuous
100
AcDbLine
 10
152.19942736626
 20
172.4748674102098
 30
0.0
 11
153.69942736626
 21
172.4748674102112
 31
0.0
  0
LINE
  5
45F
330
18
100
AcDbEntity
  8
4
  6
CENTER
 48
0.2
100
AcDbLine
 10
128.0596607361965
 20
169.4748674101853
 30
0.0
 11
156.3391939963051
 21
169.4748674102127
 31
0.0
  0
LINE
  5
460
330
18
100
AcDbEntity
  8
1
  6
Continuous
100
AcDbLine
 10
152.7008071724291
 20
166.5107657950725
 30
0.0
 11
153.7384769712782
 21
166.5107657950735
 31
0.0
  0
ARC
  5
461
330
18
100
AcDbEntity
  8
1
  6
Continuous
100
AcDbCircle
 10
155.1994273662699
 20
162.9018700321337
 30
0.0
 40
1.5
100
AcDbArc
 50
0.0000000000394898
 51
90.00000000007904
  0
ARC
  5
462
330
18
100
AcDbEntity
  8
1
  6
Continuous
100
AcDbCircle
 10
155.1994273662699
 20
162.9018700321337
 30
0.0
 40
3.0
100
AcDbArc
 50
0.0000000000394898
 51
90.00000000007904
  0
ARC
  5
463
330
18
100
AcDbEntity
  8
1
  6
Continuous
100
AcDbCircle
 10
155.1994273662653
 20
167.4018700321337
 30
0.0
 40
1.5
100
AcDbArc
 50
180.0000000000789
 51
270.000000000079
  0
ARC
  5
464
330
18
100
AcDbEntity
  8
1
  6
Continuous
100
AcDbCircle
 10
155.1994273662653
 20
167.4018700321337
 30
0.0
 40
3.0
100
AcDbArc
 50
180.0000000000789
 51
270.000000000079
  0
LINE
  5
4A9
330
18
100
AcDbEntity
  8
1
  6
Continuous
100
AcDbLine
 10
129.1994273662567
 20
157.8739691189213
 30
0.0
 11
127.6994273662765
 21
157.8739691189196
 31
0.0
  0
LINE
  5
4AA
330
18
100
AcDbEntity
  8
1
  6
Continuous
100
AcDbLine
 10
129.1994273662566
 20
154.7244109564557
 30
0.0
 11
127.6994273662476
 21
154.7244109564574
 31
0.0
  0
LINE
  5
4AB
330
18
100
AcDbEntity
  8
1
  6
Continuous
100
AcDbLine
 10
132.199427366256
 20
133.2244109564048
 30
0.0
 11
132.1994273662559
 21
126.7244109564284
 31
0.0
  0
LINE
  5
4AC
330
18
100
AcDbEntity
  8
1
  6
Continuous
100
AcDbLine
 10
130.699427366256
 20
133.2244109564029
 30
0.0
 11
130.6994273662559
 21
126.7244109564285
 31
0.0
  0
LINE
  5
4AD
330
18
100
AcDbEntity
  8
1
  6
Continuous
100
AcDbLine
 10
132.1994273662559
 20
126.7244109564283
 30
0.0
 11
130.6994273662559
 21
126.7244109564284
 31
0.0
  0
LINE
  5
4AE
330
18
100
AcDbEntity
  8
1
  6
Continuous
100
AcDbLine
 10
131.8565422891776
 20
131.660902629532
 30
0.0
 11
131.0093285182754
 21
131.660902629532
 31
0.0
  0
ARC
  5
4AF
330
18
100
AcDbEntity
  8
1
  6
Continuous
100
AcDbCircle
 10
129.699427366256
 20
133.2244109564081
 30
0.0
 40
1.0
100
AcDbArc
 50
359.9999999999987
 51
34.36744340927345
  0
LINE
  5
4B0
330
18
100
AcDbEntity
  8
1
  6
Continuous
100
AcDbLine
 10
128.1358413901579
 20
137.28224174986
 30
0.0
 11
130.5248617566954
 21
133.7889090229061
 31
0.0
  0
LINE
  5
4B1
330
18
100
AcDbEntity
  8
1
  6
Continuous
100
AcDbLine
 10
129.3739929758169
 20
138.1289888496071
 30
0.0
 11
131.7630133423543
 21
134.6356561226532
 31
0.0
  0
ARC
  5
4B2
330
18
100
AcDbEntity
  8
1
  6
Continuous
100
AcDbCircle
 10
129.699427366256
 20
133.2244109564081
 30
0.0
 40
2.5
100
AcDbArc
 50
359.9999999999987
 51
34.36744340927345
  0
ARC
  5
4B3
330
18
100
AcDbEntity
  8
1
  6
Continuous
100
AcDbCircle
 10
130.1994273662562
 20
138.6934869161052
 30
0.0
 40
1.0
100
AcDbArc
 50
179.9999999999987
 51
214.3674434092738
  0
ARC
  5
4B4
330
18
100
AcDbEntity
  8
1
  6
Continuous
100
AcDbCircle
 10
130.1994273662562
 20
138.6934869161052
 30
0.0
 40
2.5
100
AcDbArc
 50
179.9999999999987
 51
214.3674434092738
  0
LINE
  5
4B5
330
18
100
AcDbEntity
  8
1
  6
Continuous
100
AcDbLine
 10
127.6994273662763
 20
141.400749652809
 30
0.0
 11
126.1994273662763
 21
141.4007496528105
 31
0.0
  0
LINE
  5
4B6
330
18
100
AcDbEntity
  8
1
  6
Continuous
100
AcDbLine
 10
127.6994273662331
 20
144.4748674102151
 30
0.0
 11
126.1994273662331
 21
144.4748674102166
 31
0.0
  0
LINE
  5
4B7
330
18
100
AcDbEntity
  8
1
  6
Continuous
100
AcDbLine
 10
132.1994273662575
 20
167.4018700321312
 30
0.0
 11
132.1994273662628
 21
172.4748674102105
 31
0.0
  0
LINE
  5
4B8
330
18
100
AcDbEntity
  8
1
  6
Continuous
100
AcDbLine
 10
130.6994273662575
 20
167.4018700321326
 30
0.0
 11
130.6994273662628
 21
172.474867410212
 31
0.0
  0
LINE
  5
4B9
330
18
100
AcDbEntity
  8
1
  6
Continuous
100
AcDbLine
 10
132.1994273662627
 20
172.4748674102105
 30
0.0
 11
130.6994273662627
 21
172.474867410212
 31
0.0
  0
LINE
  5
4BA
330
18
100
AcDbEntity
  8
1
  6
Continuous
100
AcDbLine
 10
131.6980475600935
 20
166.5107657950732
 30
0.0
 11
130.6603777612444
 21
166.5107657950742
 31
0.0
  0
ARC
  5
4BB
330
18
100
AcDbEntity
  8
1
  6
Continuous
100
AcDbCircle
 10
129.1994273662527
 20
162.9018700321343
 30
0.0
 40
1.5
100
AcDbArc
 50
89.99999999991967
 51
179.9999999999593
  0
ARC
  5
4BC
330
18
100
AcDbEntity
  8
1
  6
Continuous
100
AcDbCircle
 10
129.1994273662527
 20
162.9018700321343
 30
0.0
 40
3.0
100
AcDbArc
 50
89.99999999991967
 51
179.9999999999593
  0
ARC
  5
4BD
330
18
100
AcDbEntity
  8
1
  6
Continuous
100
AcDbCircle
 10
129.1994273662575
 20
167.4018700321343
 30
0.0
 40
1.5
100
AcDbArc
 50
269.9999999999196
 51
359.9999999999198
  0
ARC
  5
4BE
330
18
100
AcDbEntity
  8
1
  6
Continuous
100
AcDbCircle
 10
129.1994273662575
 20
167.4018700321343
 30
0.0
 40
3.0
100
AcDbArc
 50
269.9999999999196
 51
359.9999999999198
  0
LINE
  5
4FC
330
18
100
AcDbEntity
  8
1
  6
Continuous
100
AcDbLine
 10
126.1994273662954
 20
141.4007496528105
 30
0.0
 11
126.1994273662884
 21
144.9693900335058
 31
0.0
  0
LINE
  5
4FE
330
18
100
AcDbEntity
  8
1
  6
Continuous
100
AcDbLine
 10
127.6994273662765
 20
163.005052062518
 30
0.0
 11
127.6994273662764
 21
153.5319333770537
 31
0.0
  0
LINE
  5
500
330
18
100
AcDbEntity
  8
1
  6
Continuous
100
AcDbLine
 10
129.1994273662567
 20
157.8739691189217
 30
0.0
 11
129.1994273662566
 21
153.7006833770514
 31
0.0
  0
LINE
  5
503
330
18
100
AcDbEntity
  8
1
  6
Continuous
100
AcDbLine
 10
154.699427366263
 20
171.2248674102099
 30
0.0
 11
154.699427366263
 21
167.7248674102099
 31
0.0
  0
LINE
  5
504
330
18
100
AcDbEntity
  8
1
  6
Continuous
100
AcDbLine
 10
129.6994273662554
 20
171.2248674102105
 30
0.0
 11
129.6994273662554
 21
167.7248674102105
 31
0.0
  0
LINE
  5
505
330
18
100
AcDbEntity
  8
1
  6
Continuous
100
AcDbLine
 10
153.6994273662559
 20
127.9744109564277
 30
0.0
 11
154.1994273662559
 21
127.9744109564277
 31
0.0
  0
LINE
  5
506
330
18
100
AcDbEntity
  8
1
  6
Continuous
100
AcDbLine
 10
153.6994273662559
 20
131.4744109564277
 30
0.0
 11
154.1994273662559
 21
131.4744109564277
 31
0.0
  0
LINE
  5
507
330
18
100
AcDbEntity
  8
1
  6
Continuous
100
AcDbLine
 10
153.6994273662609
 20
167.7248674102099
 30
0.0
 11
154.699427366263
 21
167.7248674102099
 31
0.0
  0
LINE
  5
508
330
18
100
AcDbEntity
  8
1
  6
Continuous
100
AcDbLine
 10
153.6994273662609
 20
171.2248674102099
 30
0.0
 11
154.699427366263
 21
171.2248674102099
 31
0.0
  0
LINE
  5
509
330
18
100
AcDbEntity
  8
1
  6
Continuous
100
AcDbLine
 10
129.6994273662554
 20
167.7248674102105
 30
0.0
 11
130.6994273662578
 21
167.7248674102105
 31
0.0
  0
LINE
  5
50A
330
18
100
AcDbEntity
  8
1
  6
Continuous
100
AcDbLine
 10
132.1994273662578
 20
167.7248674102103
 30
0.0
 11
152.1994273662649
 21
167.7248674102101
 31
0.0
  0
LINE
  5
50B
330
18
100
AcDbEntity
  8
1
  6
Continuous
100
AcDbLine
 10
129.6994273662554
 20
171.2248674102105
 30
0.0
 11
130.6994273662615
 21
171.2248674102105
 31
0.0
  0
LINE
  5
50C
330
18
100
AcDbEntity
  8
1
  6
Continuous
100
AcDbLine
 10
132.1994273662616
 20
171.2248674102103
 30
0.0
 11
152.1994273662612
 21
171.2248674102101
 31
0.0
  0
LINE
  5
50D
330
18
100
AcDbEntity
  8
1
  6
Continuous
100
AcDbLine
 10
130.199427366256
 20
131.4744109564284
 30
0.0
 11
130.6994273662206
 21
131.4744109564284
 31
0.0
  0
LINE
  5
50E
330
18
100
AcDbEntity
  8
1
  6
Continuous
100
AcDbLine
 10
130.1994273662559
 20
127.9744109564284
 30
0.0
 11
130.699427366217
 21
127.9744109564284
 31
0.0
  0
LINE
  5
50F
330
18
100
AcDbEntity
  8
1
  6
Continuous
100
AcDbLine
 10
132.1994273662559
 20
127.9744109564282
 30
0.0
 11
133.199427366183
 21
127.9744109564282
 31
0.0
  0
LINE
  5
510
330
18
100
AcDbEntity
  8
1
  6
Continuous
100
AcDbLine
 10
151.199427366183
 20
127.9744109564281
 30
0.0
 11
152.1994273662559
 21
127.9744109564281
 31
0.0
  0
LINE
  5
511
330
18
100
AcDbEntity
  8
1
  6
Continuous
100
AcDbLine
 10
132.1994273662559
 20
131.4744109564282
 30
0.0
 11
133.1994273661894
 21
131.4744109564282
 31
0.0
  0
LINE
  5
512
330
18
100
AcDbEntity
  8
1
  6
Continuous
100
AcDbLine
 10
151.1994273661894
 20
131.4744109564281
 30
0.0
 11
152.1994273662559
 21
131.4744109564281
 31
0.0
  0
LINE
  5
513
330
18
100
AcDbEntity
  8
1
  6
Continuous
100
AcDbLine
 10
130.199427366256
 20
131.4744109564284
 30
0.0
 11
130.1994273662559
 21
127.9744109564284
 31
0.0
  0
LINE
  5
514
330
18
100
AcDbEntity
  8
1
  6
Continuous
100
AcDbLine
 10
154.1994273662559
 20
131.4744109564277
 30
0.0
 11
154.1994273662559
 21
127.9744109564277
 31
0.0
  0
LINE
  5
515
330
18
100
AcDbEntity
  8
4
  6
CENTER
 48
0.2
100
AcDbLine
 10
128.3166556388886
 20
129.7244109564509
 30
0.0
 11
155.9567333601294
 21
129.7244109564231
 31
0.0
  0
LINE
  5
517
330
18
100
AcDbEntity
  8
1
  6
Continuous
100
AcDbLine
 10
151.4994273662083
 20
141.7244109564365
 30
0.0
 11
151.499427366201
 21
137.7244109564142
 31
0.0
  0
LINE
  5
518
330
18
100
AcDbEntity
  8
1
  6
Continuous
100
AcDbLine
 10
132.8994273662083
 20
141.7244109564455
 30
0.0
 11
132.899427366201
 21
137.7244109564213
 31
0.0
  0
LINE
  5
519
330
18
100
AcDbEntity
  8
1
  6
Continuous
100
AcDbLine
 10
151.1994273662185
 20
141.7244109564364
 30
0.0
 11
151.4994273662083
 21
141.7244109564365
 31
0.0
  0
LINE
  5
51B
330
18
100
AcDbEntity
  8
1
  6
Continuous
100
AcDbLine
 10
133.1994273662084
 20
141.7244109564454
 30
0.0
 11
132.899427366208
 21
141.7244109564455
 31
0.0
  0
LINE
  5
51C
330
18
100
AcDbEntity
  8
4
  6
CENTER
 48
0.2
100
AcDbLine
 10
142.1994273662504
 20
145.6750880587233
 30
0.0
 11
142.1994273661941
 21
103.1727744299161
 31
0.0
  0
LINE
  5
51D
330
18
100
AcDbEntity
  8
1
  6
Continuous
100
AcDbLine
 10
27.16793574870428
 20
174.7244109564163
 30
0.0
 11
27.16793574870428
 21
164.7244109564163
 31
0.0
  0
LINE
  5
51E
330
18
100
AcDbEntity
  8
1
  6
Continuous
100
AcDbLine
 10
29.16793574870428
 20
174.7244109564163
 30
0.0
 11
29.16793574870428
 21
164.7244109564163
 31
0.0
  0
LINE
  5
51F
330
18
100
AcDbEntity
  8
1
  6
Continuous
100
AcDbLine
 10
29.16793574870428
 20
174.7244109564163
 30
0.0
 11
27.16793574870428
 21
174.7244109564163
 31
0.0
  0
LINE
  5
520
330
18
100
AcDbEntity
  8
1
  6
Continuous
100
AcDbLine
 10
29.16793574870428
 20
164.7244109564163
 30
0.0
 11
27.16793574870428
 21
164.7244109564163
 31
0.0
  0
LINE
  5
521
330
18
100
AcDbEntity
  8
1
  6
Continuous
100
AcDbLine
 10
32.16793574870428
 20
165.7244109564163
 30
0.0
 11
29.66793574870428
 21
165.7244109564163
 31
0.0
  0
LINE
  5
522
330
18
100
AcDbEntity
  8
1
  6
Continuous
100
AcDbLine
 10
32.16793574870428
 20
167.7244109564163
 30
0.0
 11
29.66793574870428
 21
167.7244109564163
 31
0.0
  0
LINE
  5
523
330
18
100
AcDbEntity
  8
1
  6
Continuous
100
AcDbLine
 10
37.16793574870422
 20
174.3574109564163
 30
0.0
 11
36.09105107847733
 21
168.9439907107263
 31
0.0
  0
ARC
  5
524
330
18
100
AcDbEntity
  8
1
  6
Continuous
100
AcDbCircle
 10
29.66793574870428
 20
168.2244109564163
 30
0.0
 40
0.5
100
AcDbArc
 50
180.0
 51
270.0
  0
ARC
  5
525
330
18
100
AcDbEntity
  8
1
  6
Continuous
100
AcDbCircle
 10
29.66793574870428
 20
168.2244109564163
 30
0.0
 40
2.5
100
AcDbArc
 50
258.4629999999999
 51
270.0
  0
ARC
  5
526
330
18
100
AcDbEntity
  8
1
  6
Continuous
100
AcDbCircle
 10
32.16793574870428
 20
169.7244109564163
 30
0.0
 40
4.0
100
AcDbArc
 50
270.0
 51
348.749099643717
  0
ARC
  5
527
330
18
100
AcDbEntity
  8
1
  6
Continuous
100
AcDbCircle
 10
32.16793574870428
 20
169.7244109564163
 30
0.0
 40
2.0
100
AcDbArc
 50
270.0
 51
348.7490996437173
  0
LINE
  5
528
330
18
100
AcDbEntity
  8
4
  6
CENTER
 48
0.2
100
AcDbLine
 10
30.66793574870428
 20
169.7244109564163
 30
0.0
 11
25.66793574870428
 21
169.7244109564163
 31
0.0
  0
LINE
  5
529
330
18
100
AcDbEntity
  8
1
  6
Continuous
100
AcDbLine
 10
35.20637131950922
 20
174.7476224248762
 30
0.0
 11
34.12948664928251
 21
169.3342021791864
 31
0.0
  0
LINE
  5
52A
330
18
100
AcDbEntity
  8
1
  6
Continuous
100
AcDbLine
 10
37.16793574870417
 20
174.3574109564162
 30
0.0
 11
35.20637131950922
 21
174.7476224248762
 31
0.0
  0
ARC
  5
5DF
330
18
100
AcDbEntity
  8
1
  6
Continuous
100
AcDbCircle
 10
154.1994273662323
 20
138.6934869161052
 30
0.0
 40
1.0
100
AcDbArc
 50
325.6325565907261
 51
0.0000000000012283
  0
ARC
  5
5E2
330
18
100
AcDbEntity
  8
1
  6
Continuous
100
AcDbCircle
 10
154.1994273662323
 20
138.6934869161052
 30
0.0
 40
2.5
100
AcDbArc
 50
325.6325565907261
 51
0.0000000000012283
  0
LINE
  5
820
330
18
100
AcDbEntity
  8
1
  6
Continuous
100
AcDbLine
 10
54.77413172035085
 20
153.5151515150936
 30
0.0
 11
54.59530347260424
 21
154.7017518933999
 31
0.0
  0
LINE
  5
821
330
18
100
AcDbEntity
  8
1
  6
Continuous
100
AcDbLine
 10
54.59530347260424
 20
154.7017518934
 30
0.0
 11
50.68176399659694
 21
154.1119565252405
 31
0.0
  0
ARC
  5
822
330
18
100
AcDbEntity
  8
1
  6
Continuous
100
AcDbCircle
 10
58.77708532029249
 20
153.5116466941021
 30
0.0
 40
0.6
100
AcDbArc
 50
278.5703435108012
 51
98.57034351079883
  0
LINE
  5
823
330
18
100
AcDbEntity
  8
1
  6
Continuous
100
AcDbLine
 10
50.72709970178426
 20
152.905237969058
 30
0.0
 11
58.68767119641887
 21
154.1049468832576
 31
0.0
  0
LINE
  5
824
330
18
100
AcDbEntity
  8
1
  6
Continuous
100
AcDbLine
 10
50.79440234576543
 20
151.4580568840959
 30
0.0
 11
58.76154385227289
 21
152.4828891705148
 31
0.0
  0
LINE
  5
825
330
18
100
AcDbEntity
  8
1
  6
Continuous
100
AcDbLine
 10
50.94749978801343
 20
150.2678631296269
 30
0.0
 11
58.91464129452082
 21
151.2926954160458
 31
0.0
  0
LINE
  5
826
330
18
100
AcDbEntity
  8
1
  6
Continuous
100
AcDbLine
 10
50.84883958699703
 20
150.0090791110549
 30
0.0
 11
58.81598109350442
 21
151.0339113974738
 31
0.0
  0
LINE
  5
827
330
18
100
AcDbEntity
  8
1
  6
Continuous
100
AcDbLine
 10
51.00193702924503
 20
148.8188853565858
 30
0.0
 11
58.96907853575243
 21
149.8437176430047
 31
0.0
  0
LINE
  5
828
330
18
100
AcDbEntity
  8
1
  6
Continuous
100
AcDbLine
 10
50.90327682822863
 20
148.5601013380138
 30
0.0
 11
58.87041833473602
 21
149.5849336244326
 31
0.0
  0
LINE
  5
829
330
18
100
AcDbEntity
  8
1
  6
Continuous
100
AcDbLine
 10
51.05637427047657
 20
147.3699075835448
 30
0.0
 11
59.02351577698397
 21
148.3947398699636
 31
0.0
  0
LINE
  5
82A
330
18
100
AcDbEntity
  8
1
  6
Continuous
100
AcDbLine
 10
58.92485557596764
 20
148.1359558513916
 30
0.0
 11
50.95771406946017
 21
147.1111235649727
 31
0.0
  0
LINE
  5
82B
330
18
100
AcDbEntity
  8
1
  6
Continuous
100
AcDbLine
 10
51.11081151170815
 20
145.9209298105037
 30
0.0
 11
59.07795301821558
 21
146.9457620969226
 31
0.0
  0
LINE
  5
82C
330
18
100
AcDbEntity
  8
1
  6
Continuous
100
AcDbLine
 10
51.1237893802459
 20
144.718523299749
 30
0.0
 11
59.10713956740336
 21
145.3119226649101
 31
0.0
  0
LINE
  5
82D
330
18
100
AcDbEntity
  8
1
  6
Continuous
100
AcDbLine
 10
51.03483922089218
 20
145.9152220375904
 30
0.0
 11
59.01818940804965
 21
146.5086214027514
 31
0.0
  0
LINE
  5
82E
330
18
100
AcDbEntity
  8
1
  6
Continuous
100
AcDbLine
 10
58.8664994441661
 20
152.9183465049466
 30
0.0
 11
50.90592794953146
 21
151.718637590747
 31
0.0
  0
LINE
  5
82F
330
18
100
AcDbEntity
  8
1
  6
Continuous
100
AcDbLine
 10
57.56852326079821
 20
149.663560900023
 30
0.0
 11
58.97864813675653
 21
149.5889997543283
 31
0.0
  0
LINE
  5
830
330
18
100
AcDbEntity
  8
1
  6
Continuous
100
AcDbLine
 10
57.51408601956677
 20
151.112538673064
 30
0.0
 11
58.92421089552499
 21
151.0379775273694
 31
0.0
  0
LINE
  5
831
330
18
100
AcDbEntity
  8
1
  6
Continuous
100
AcDbLine
 10
57.31142849156396
 20
152.5693536771087
 30
0.0
 11
58.8697736542934
 21
152.4869553004104
 31
0.0
  0
ARC
  5
832
330
18
100
AcDbEntity
  8
1
  6
Continuous
100
AcDbCircle
 10
59.06266448772647
 20
145.9102720338307
 30
0.0
 40
0.6
100
AcDbArc
 50
274.2509561806139
 51
94.25095618061405
  0
ARC
  5
833
330
18
100
AcDbEntity
  8
1
  6
Continuous
100
AcDbCircle
 10
59.0014042970916
 20
147.5408589741571
 30
0.0
 40
0.6
100
AcDbArc
 50
277.3298414848595
 51
97.32984148485954
  0
ARC
  5
834
330
18
100
AcDbEntity
  8
1
  6
Continuous
100
AcDbCircle
 10
58.83809257339686
 20
151.8877922932803
 30
0.0
 40
0.6
100
AcDbArc
 50
277.3298414848595
 51
97.32984148485954
  0
ARC
  5
835
330
18
100
AcDbEntity
  8
1
  6
Continuous
100
AcDbCircle
 10
58.89252981462846
 20
150.4388145202393
 30
0.0
 40
0.6
100
AcDbArc
 50
277.3298414848598
 51
97.32984148485954
  0
ARC
  5
836
330
18
100
AcDbEntity
  8
1
  6
Continuous
100
AcDbCircle
 10
58.94696705586
 20
148.9898367471982
 30
0.0
 40
0.6
100
AcDbArc
 50
277.3298414848595
 51
97.32984148485954
  0
LINE
  5
837
330
18
100
AcDbEntity
  8
1
  6
Continuous
100
AcDbLine
 10
57.53466918830122
 20
146.6272669678614
 30
0.0
 11
59.10780705133539
 21
146.5085714145347
 31
0.0
  0
LINE
  5
838
330
18
100
AcDbEntity
  8
1
  6
Continuous
100
AcDbLine
 10
57.62296050202997
 20
148.2145831269819
 30
0.0
 11
59.03308537798813
 21
148.1400219812872
 31
0.0
  0
LINE
  5
839
330
18
100
AcDbEntity
  8
1
  6
Continuous
100
AcDbLine
 10
57.25343532366878
 20
154.1129809691471
 30
0.0
 11
58.77761065533229
 21
154.1116464641213
 31
0.0
  0
ARC
  5
83A
330
18
100
AcDbEntity
  8
1
  6
Continuous
100
AcDbCircle
 10
50.77117812047054
 20
153.518656336085
 30
0.0
 40
0.6000000000000001
100
AcDbArc
 50
98.5703435108018
 51
278.5703435108018
  0
LINE
  5
83B
330
18
100
AcDbEntity
  8
1
  6
Continuous
100
AcDbLine
 10
52.24939486195097
 20
150.1892358540366
 30
0.0
 11
50.83926998599287
 21
150.2637969997313
 31
0.0
  0
LINE
  5
83C
330
18
100
AcDbEntity
  8
1
  6
Continuous
100
AcDbLine
 10
52.19495762071955
 20
151.6382136270777
 30
0.0
 11
50.78483274476127
 21
151.7127747727724
 31
0.0
  0
ARC
  5
83D
330
18
100
AcDbEntity
  8
1
  6
Continuous
100
AcDbCircle
 10
51.07931430056908
 20
145.3168726686697
 30
0.0
 40
0.6
100
AcDbArc
 50
94.25095618061391
 51
274.250956180614
  0
ARC
  5
83E
330
18
100
AcDbEntity
  8
1
  6
Continuous
100
AcDbCircle
 10
50.87095106688946
 20
150.8629600068614
 30
0.0
 40
0.6
100
AcDbArc
 50
97.32984148486089
 51
277.3298414848608
  0
ARC
  5
83F
330
18
100
AcDbEntity
  8
1
  6
Continuous
100
AcDbCircle
 10
50.925388308121
 20
149.4139822338204
 30
0.0
 40
0.6
100
AcDbArc
 50
97.32984148486066
 51
277.3298414848608
  0
ARC
  5
840
330
18
100
AcDbEntity
  8
1
  6
Continuous
100
AcDbCircle
 10
50.9798255493526
 20
147.9650044607793
 30
0.0
 40
0.6
100
AcDbArc
 50
97.32984148486089
 51
277.3298414848608
  0
ARC
  5
841
330
18
100
AcDbEntity
  8
1
  6
Continuous
100
AcDbCircle
 10
51.03426279058417
 20
146.5160266877382
 30
0.0
 40
0.6
100
AcDbArc
 50
97.32984148486089
 51
277.3298414848608
  0
ARC
  5
842
330
18
100
AcDbEntity
  8
1
  6
Continuous
100
AcDbCircle
 10
50.81651382565786
 20
152.3119377799025
 30
0.0
 40
0.6
100
AcDbArc
 50
98.57034351080017
 51
278.5703435107998
  0
LINE
  5
843
330
18
100
AcDbEntity
  8
1
  6
Continuous
100
AcDbLine
 10
52.61572010693789
 20
144.6597545211985
 30
0.0
 11
51.05718304626043
 21
144.717280967941
 31
0.0
  0
LINE
  5
844
330
18
100
AcDbEntity
  8
1
  6
Continuous
100
AcDbLine
 10
50.948144468456
 20
147.3658414536492
 30
0.0
 11
52.35826934441428
 21
147.2912803079545
 31
0.0
  0
LINE
  5
845
330
18
100
AcDbEntity
  8
1
  6
Continuous
100
AcDbLine
 10
50.89370722722446
 20
148.8148192266902
 30
0.0
 11
52.30383210318274
 21
148.7402580809955
 31
0.0
  0
LINE
  5
846
330
18
100
AcDbEntity
  8
1
  6
Continuous
100
AcDbLine
 10
57.58832721257101
 20
145.1990299236389
 30
0.0
 11
57.60852433052519
 21
144.6614351753928
 31
0.0
  0
LINE
  5
847
330
18
100
AcDbEntity
  8
1
  6
Continuous
100
AcDbLine
 10
57.53018333123907
 20
146.7466688153663
 30
0.0
 11
57.54324544270327
 21
146.3989893820876
 31
0.0
  0
LINE
  5
848
330
18
100
AcDbEntity
  8
1
  6
Continuous
100
AcDbLine
 10
57.47574609000742
 20
148.1956465884074
 30
0.0
 11
57.48494719798975
 21
147.9507370255389
 31
0.0
  0
LINE
  5
849
330
18
100
AcDbEntity
  8
1
  6
Continuous
100
AcDbLine
 10
57.42130884877582
 20
149.6446243614484
 30
0.0
 11
57.43050995675822
 21
149.3997147985801
 31
0.0
  0
LINE
  5
84A
330
18
100
AcDbEntity
  8
1
  6
Continuous
100
AcDbLine
 10
57.36687160754422
 20
151.0936021344894
 30
0.0
 11
57.37607271552656
 21
150.8486925716212
 31
0.0
  0
LINE
  5
84B
330
18
100
AcDbEntity
  8
1
  6
Continuous
100
AcDbLine
 10
57.30714601763503
 20
152.6833419945973
 30
0.0
 11
57.32163547429502
 21
152.2976703446623
 31
0.0
  0
LINE
  5
84C
330
18
100
AcDbEntity
  8
1
  6
Continuous
100
AcDbLine
 10
52.33178883348847
 20
151.9335239232226
 30
0.0
 11
52.34217203272796
 21
151.6571501656505
 31
0.0
  0
LINE
  5
84D
330
18
100
AcDbEntity
  8
1
  6
Continuous
100
AcDbLine
 10
52.3874081659772
 20
150.4530819554777
 30
0.0
 11
52.39660927395954
 21
150.2081723926093
 31
0.0
  0
LINE
  5
84E
330
18
100
AcDbEntity
  8
1
  6
Continuous
100
AcDbLine
 10
52.4418454072088
 20
149.0041041824366
 30
0.0
 11
52.45104651519113
 21
148.7591946195683
 31
0.0
  0
LINE
  5
84F
330
18
100
AcDbEntity
  8
1
  6
Continuous
100
AcDbLine
 10
52.49628264844034
 20
147.5551264093956
 30
0.0
 11
52.50548375642273
 21
147.3102168465272
 31
0.0
  0
LINE
  5
850
330
18
100
AcDbEntity
  8
1
  6
Continuous
100
AcDbLine
 10
52.55071988967194
 20
146.1061486363545
 30
0.0
 11
52.55365157572237
 21
146.0281147788614
 31
0.0
  0
LINE
  5
851
330
18
100
AcDbEntity
  8
1
  6
Continuous
100
AcDbLine
 10
52.59873334559011
 20
144.8281553204126
 30
0.0
 11
52.61204925107329
 21
144.4737205504551
 31
0.0
  0
LINE
  5
853
330
18
100
AcDbEntity
  8
4
  6
CENTER
 48
0.2
100
AcDbLine
 10
48.92312363432996
 20
169.4748674102078
 30
0.0
 11
55.42312363432994
 21
169.4748674102096
 31
0.0
  0
LINE
  5
854
330
18
100
AcDbEntity
  8
4
  6
CENTER
 48
0.2
100
AcDbLine
 10
52.17312363433086
 20
166.2248674102086
 30
0.0
 11
52.17312363432904
 21
172.7248674102086
 31
0.0
  0
ARC
  5
858
330
18
100
AcDbEntity
  8
1
  6
Continuous
100
AcDbCircle
 10
131.6994273662863
 20
153.3781484401774
 30
0.0
 40
0.6
100
AcDbArc
 50
276.4187867302389
 51
96.41878673023656
  0
LINE
  5
859
330
18
100
AcDbEntity
  8
1
  6
Continuous
100
AcDbLine
 10
123.6323505024456
 20
153.0743872298728
 30
0.0
 11
131.6323505024456
 21
153.9743872298727
 31
0.0
  0
ARC
  5
85A
330
18
100
AcDbEntity
  8
1
  6
Continuous
100
AcDbCircle
 10
123.6994273662863
 20
153.6857183139322
 30
0.0
 40
0.6000000000000001
100
AcDbArc
 50
96.41878673023953
 51
276.4187867302394
  0
LINE
  5
85B
330
18
100
AcDbEntity
  8
1
  6
Continuous
100
AcDbLine
 10
127.6994273662557
 20
153.531933377056
 30
0.0
 11
127.5652736385748
 21
154.7244109564419
 31
0.0
  0
LINE
  5
85C
330
18
100
AcDbEntity
  8
1
  6
Continuous
100
AcDbLine
 10
123.6452742882165
 20
151.625699646465
 30
0.0
 11
131.6452742882165
 21
152.350699646465
 31
0.0
  0
LINE
  5
85D
330
18
100
AcDbEntity
  8
1
  6
Continuous
100
AcDbLine
 10
123.7535804443562
 20
150.4305972338901
 30
0.0
 11
131.7535804443562
 21
151.1555972338901
 31
0.0
  0
LINE
  5
85E
330
18
100
AcDbEntity
  8
1
  6
Continuous
100
AcDbLine
 10
123.6452742882165
 20
150.175699646465
 30
0.0
 11
131.6452742882165
 21
150.900699646465
 31
0.0
  0
LINE
  5
85F
330
18
100
AcDbEntity
  8
1
  6
Continuous
100
AcDbLine
 10
123.7535804443562
 20
148.9805972338901
 30
0.0
 11
131.7535804443562
 21
149.7055972338901
 31
0.0
  0
LINE
  5
860
330
18
100
AcDbEntity
  8
1
  6
Continuous
100
AcDbLine
 10
123.6452742882165
 20
148.7256996464649
 30
0.0
 11
131.6452742882165
 21
149.4506996464649
 31
0.0
  0
LINE
  5
861
330
18
100
AcDbEntity
  8
1
  6
Continuous
100
AcDbLine
 10
123.7535804443562
 20
147.5305972338901
 30
0.0
 11
131.7535804443562
 21
148.2555972338902
 31
0.0
  0
LINE
  5
862
330
18
100
AcDbEntity
  8
1
  6
Continuous
100
AcDbLine
 10
131.6452742882165
 20
148.000699646465
 30
0.0
 11
123.6452742882165
 21
147.275699646465
 31
0.0
  0
LINE
  5
863
330
18
100
AcDbEntity
  8
1
  6
Continuous
100
AcDbLine
 10
123.7535804443562
 20
146.0805972338902
 30
0.0
 11
131.7535804443562
 21
146.8055972338902
 31
0.0
  0
LINE
  5
864
330
18
100
AcDbEntity
  8
1
  6
Continuous
100
AcDbLine
 10
123.7214073062653
 20
144.8785511734739
 30
0.0
 11
131.7214073062531
 21
145.171813884288
 31
0.0
  0
LINE
  5
865
330
18
100
AcDbEntity
  8
1
  6
Continuous
100
AcDbLine
 10
123.6774474263077
 20
146.0777457068813
 30
0.0
 11
131.6774474262955
 21
146.3710084176954
 31
0.0
  0
LINE
  5
866
330
18
100
AcDbEntity
  8
1
  6
Continuous
100
AcDbLine
 10
131.7665042301271
 20
152.7819096504821
 30
0.0
 11
123.7665042301271
 21
151.8819096504822
 31
0.0
  0
LINE
  5
867
330
18
100
AcDbEntity
  8
1
  6
Continuous
100
AcDbLine
 10
125.0516058050447
 20
150.3031484401776
 30
0.0
 11
123.6452742882165
 21
150.4305972338901
 31
0.0
  0
LINE
  5
868
330
18
100
AcDbEntity
  8
1
  6
Continuous
100
AcDbLine
 10
125.0516058050449
 20
151.7531484401775
 30
0.0
 11
123.6452742882165
 21
151.8805972338901
 31
0.0
  0
ARC
  5
869
330
18
100
AcDbEntity
  8
1
  6
Continuous
100
AcDbCircle
 10
123.6994273662864
 20
145.4781484401776
 30
0.0
 40
0.6
100
AcDbArc
 50
92.09939940005163
 51
272.0993994000517
  0
ARC
  5
86A
330
18
100
AcDbEntity
  8
1
  6
Continuous
100
AcDbCircle
 10
123.6994273662863
 20
151.0281484401776
 30
0.0
 40
0.6
100
AcDbArc
 50
95.1782847042986
 51
275.1782847042985
  0
ARC
  5
86B
330
18
100
AcDbEntity
  8
1
  6
Continuous
100
AcDbCircle
 10
123.6994273662863
 20
149.5781484401776
 30
0.0
 40
0.6
100
AcDbArc
 50
95.17828470429837
 51
275.1782847042985
  0
ARC
  5
86C
330
18
100
AcDbEntity
  8
1
  6
Continuous
100
AcDbCircle
 10
123.6994273662863
 20
148.1281484401776
 30
0.0
 40
0.6
100
AcDbArc
 50
95.1782847042986
 51
275.1782847042985
  0
ARC
  5
86D
330
18
100
AcDbEntity
  8
1
  6
Continuous
100
AcDbCircle
 10
123.6994273662863
 20
146.6781484401776
 30
0.0
 40
0.6
100
AcDbArc
 50
95.1782847042986
 51
275.1782847042985
  0
ARC
  5
86E
330
18
100
AcDbEntity
  8
1
  6
Continuous
100
AcDbCircle
 10
123.6994273662863
 20
152.4781484401775
 30
0.0
 40
0.6
100
AcDbArc
 50
96.41878673023789
 51
276.4187867302375
  0
LINE
  5
86F
330
18
100
AcDbEntity
  8
1
  6
Continuous
100
AcDbLine
 10
126.1994273662888
 20
144.6900235065257
 30
0.0
 11
123.654801287917
 21
144.8798103140905
 31
0.0
  0
LINE
  5
870
330
18
100
AcDbEntity
  8
1
  6
Continuous
100
AcDbLine
 10
123.6452742882165
 20
147.5305972338901
 30
0.0
 11
125.0516058050449
 21
147.4031484401776
 31
0.0
  0
LINE
  5
871
330
18
100
AcDbEntity
  8
1
  6
Continuous
100
AcDbLine
 10
123.6452742882165
 20
148.9805972338901
 30
0.0
 11
125.0516058050449
 21
148.8531484401775
 31
0.0
  0
LINE
  5
872
330
18
100
AcDbEntity
  8
1
  6
Continuous
100
AcDbLine
 10
130.3472489275277
 20
149.5781484401776
 30
0.0
 11
131.7535804443562
 21
149.4506996464649
 31
0.0
  0
LINE
  5
873
330
18
100
AcDbEntity
  8
1
  6
Continuous
100
AcDbLine
 10
130.3472489275278
 20
151.0281484401776
 30
0.0
 11
131.7535804443562
 21
150.900699646465
 31
0.0
  0
LINE
  5
874
330
18
100
AcDbEntity
  8
1
  6
Continuous
100
AcDbLine
 10
129.6378582136217
 20
152.5424369736253
 30
0.0
 11
131.7535804443562
 21
152.350699646465
 31
0.0
  0
ARC
  5
875
330
18
100
AcDbEntity
  8
1
  6
Continuous
100
AcDbCircle
 10
131.6994273662743
 20
145.7714111509917
 30
0.0
 40
0.6
100
AcDbArc
 50
272.0993994000516
 51
92.09939940005176
  0
ARC
  5
876
330
18
100
AcDbEntity
  8
1
  6
Continuous
100
AcDbCircle
 10
131.6994273662863
 20
147.4031484401776
 30
0.0
 40
0.6
100
AcDbArc
 50
275.1782847042972
 51
95.17828470429725
  0
ARC
  5
877
330
18
100
AcDbEntity
  8
1
  6
Continuous
100
AcDbCircle
 10
131.6994273662863
 20
151.7531484401775
 30
0.0
 40
0.6
100
AcDbArc
 50
275.1782847042972
 51
95.17828470429725
  0
ARC
  5
878
330
18
100
AcDbEntity
  8
1
  6
Continuous
100
AcDbCircle
 10
131.6994273662863
 20
150.3031484401776
 30
0.0
 40
0.6
100
AcDbArc
 50
275.1782847042975
 51
95.17828470429725
  0
ARC
  5
879
330
18
100
AcDbEntity
  8
1
  6
Continuous
100
AcDbCircle
 10
131.6994273662863
 20
148.8531484401776
 30
0.0
 40
0.6
100
AcDbArc
 50
275.1782847042972
 51
95.17828470429725
  0
LINE
  5
87A
330
18
100
AcDbEntity
  8
1
  6
Continuous
100
AcDbLine
 10
129.6136169710069
 20
146.6116630441179
 30
0.0
 11
131.767000013863
 21
146.3675939562603
 31
0.0
  0
LINE
  5
87B
330
18
100
AcDbEntity
  8
1
  6
Continuous
100
AcDbLine
 10
130.3472489275278
 20
148.1281484401776
 30
0.0
 11
131.7535804443562
 21
148.000699646465
 31
0.0
  0
LINE
  5
87C
330
18
100
AcDbEntity
  8
1
  6
Continuous
100
AcDbLine
 10
129.1994273662792
 20
154.0747072958634
 30
0.0
 11
131.7224780773315
 21
153.977705497279
 31
0.0
  0
LINE
  5
87D
330
18
100
AcDbEntity
  8
1
  6
Continuous
100
AcDbLine
 10
127.5652736385748
 20
154.724410956442
 30
0.0
 11
123.6323505024456
 21
154.2819571036275
 31
0.0
  0
LINE
  5
87F
330
18
100
AcDbEntity
  8
1
  6
Continuous
100
AcDbLine
 10
129.1994273662566
 20
152.4931135032967
 30
0.0
 11
129.1994273662566
 21
152.1290447691623
 31
0.0
  0
LINE
  5
880
330
18
100
AcDbEntity
  8
1
  6
Continuous
100
AcDbLine
 10
129.1994273662566
 20
150.9241271111874
 30
0.0
 11
129.1994273662566
 21
150.6790447691624
 31
0.0
  0
LINE
  5
881
330
18
100
AcDbEntity
  8
1
  6
Continuous
100
AcDbLine
 10
129.1994273662566
 20
149.4741271111874
 30
0.0
 11
129.1994273662566
 21
149.2290447691624
 31
0.0
  0
LINE
  5
882
330
18
100
AcDbEntity
  8
1
  6
Continuous
100
AcDbLine
 10
129.1994273662566
 20
148.0241271111874
 30
0.0
 11
129.1994273662566
 21
147.7790447691624
 31
0.0
  0
LINE
  5
883
330
18
100
AcDbEntity
  8
1
  6
Continuous
100
AcDbLine
 10
129.1994273662566
 20
146.5741271111874
 30
0.0
 11
129.1994273662566
 21
146.2801695576629
 31
0.0
  0
LINE
  5
884
330
18
100
AcDbEntity
  8
1
  6
Continuous
100
AcDbLine
 10
129.1994273662566
 20
145.0793635500601
 30
0.0
 11
129.1994273662564
 21
138.6934869161052
 31
0.0
  0
LINE
  5
885
330
18
100
AcDbEntity
  8
1
  6
Continuous
100
AcDbLine
 10
127.6994273662763
 20
145.0243767917831
 30
0.0
 11
127.6994273662763
 21
138.6934869161052
 31
0.0
  0
LINE
  5
886
330
18
100
AcDbEntity
  8
1
  6
Continuous
100
AcDbLine
 10
127.6994273662763
 20
146.4381896111892
 30
0.0
 11
127.6994273662763
 21
146.2251827993859
 31
0.0
  0
LINE
  5
887
330
18
100
AcDbEntity
  8
1
  6
Continuous
100
AcDbLine
 10
127.6994273662763
 20
147.8881896111892
 30
0.0
 11
127.6994273662763
 21
147.6431072691642
 31
0.0
  0
LINE
  5
888
330
18
100
AcDbEntity
  8
1
  6
Continuous
100
AcDbLine
 10
127.6994273662763
 20
149.3381896111892
 30
0.0
 11
127.6994273662763
 21
149.0931072691642
 31
0.0
  0
LINE
  5
889
330
18
100
AcDbEntity
  8
1
  6
Continuous
100
AcDbLine
 10
127.6994273662764
 20
152.324363503299
 30
0.0
 11
127.6994273662764
 21
151.9931072691641
 31
0.0
  0
LINE
  5
88A
330
18
100
AcDbEntity
  8
1
  6
Continuous
100
AcDbLine
 10
127.6994273662763
 20
150.7881896111892
 30
0.0
 11
127.6994273662763
 21
150.5431072691641
 31
0.0
  0
LINE
  5
88B
330
18
100
AcDbEntity
  8
1
  6
Continuous
100
AcDbLine
 10
126.1994273662747
 20
151.857169769164
 30
0.0
 11
126.1994273662742
 21
152.1556135032987
 31
0.0
  0
LINE
  5
88C
330
18
100
AcDbEntity
  8
1
  6
Continuous
100
AcDbLine
 10
126.1994273662693
 20
154.5707532508077
 30
0.0
 11
126.1994273662527
 21
163.0050520625212
 31
0.0
  0
LINE
  5
88D
330
18
100
AcDbEntity
  8
1
  6
Continuous
100
AcDbLine
 10
126.1994273662776
 20
150.4071697691643
 30
0.0
 11
126.199427366277
 21
150.6522521111892
 31
0.0
  0
LINE
  5
88E
330
18
100
AcDbEntity
  8
1
  6
Continuous
100
AcDbLine
 10
126.1994273662805
 20
148.9571697691646
 30
0.0
 11
126.19942736628
 21
149.2022521111895
 31
0.0
  0
LINE
  5
88F
330
18
100
AcDbEntity
  8
1
  6
Continuous
100
AcDbLine
 10
126.1994273662833
 20
147.5071697691648
 30
0.0
 11
126.1994273662829
 21
147.7522521111897
 31
0.0
  0
LINE
  5
890
330
18
100
AcDbEntity
  8
1
  6
Continuous
100
AcDbLine
 10
126.199427366286
 20
146.1701960411085
 30
0.0
 11
126.1994273662858
 21
146.30225211119
 31
0.0
  0
LINE
  5
892
330
18
100
AcDbEntity
  8
1
  6
Continuous
100
AcDbLine
 10
156.6994273662243
 20
163.005052062518
 30
0.0
 11
156.6994273662244
 21
153.5319333770537
 31
0.0
  0
LINE
  5
893
330
18
100
AcDbEntity
  8
1
  6
Continuous
100
AcDbLine
 10
155.1994273662442
 20
157.8739691189217
 30
0.0
 11
155.1994273662443
 21
154.5707532508106
 31
0.0
  0
LINE
  5
894
330
18
100
AcDbEntity
  8
1
  6
Continuous
100
AcDbLine
 10
156.6994273662037
 20
153.531933377056
 30
0.0
 11
156.5652736385228
 21
154.7244109564419
 31
0.0
  0
ARC
  5
895
330
18
100
AcDbEntity
  8
1
  6
Continuous
100
AcDbCircle
 10
152.6994273662342
 20
153.6857183139322
 30
0.0
 40
0.6000000000000001
100
AcDbArc
 50
96.41878673023953
 51
276.4187867302394
  0
LINE
  5
896
330
18
100
AcDbEntity
  8
1
  6
Continuous
100
AcDbLine
 10
152.6323505023935
 20
153.0743872298728
 30
0.0
 11
160.6323505023935
 21
153.9743872298727
 31
0.0
  0
ARC
  5
897
330
18
100
AcDbEntity
  8
1
  6
Continuous
100
AcDbCircle
 10
160.6994273662341
 20
153.3781484401774
 30
0.0
 40
0.6
100
AcDbArc
 50
276.4187867302389
 51
96.41878673023654
  0
LINE
  5
898
330
18
100
AcDbEntity
  8
1
  6
Continuous
100
AcDbLine
 10
158.1994273662054
 20
141.4007496528105
 30
0.0
 11
158.1994273662127
 21
145.0793635500604
 31
0.0
  0
LINE
  5
899
330
18
100
AcDbEntity
  8
1
  6
Continuous
100
AcDbLine
 10
156.6994273662245
 20
145.0243767917831
 30
0.0
 11
156.6994273662245
 21
138.6934869161052
 31
0.0
  0
LINE
  5
89A
330
18
100
AcDbEntity
  8
1
  6
Continuous
100
AcDbLine
 10
155.1994273662443
 20
144.9693900335061
 30
0.0
 11
155.1994273662444
 21
138.6934869161052
 31
0.0
  0
LINE
  5
89B
330
18
100
AcDbEntity
  8
1
  6
Continuous
100
AcDbLine
 10
160.7665042300749
 20
152.7819096504821
 30
0.0
 11
152.7665042300749
 21
151.8819096504822
 31
0.0
  0
LINE
  5
89C
330
18
100
AcDbEntity
  8
1
  6
Continuous
100
AcDbLine
 10
152.6774474262555
 20
146.0777457068813
 30
0.0
 11
160.6774474262434
 21
146.3710084176954
 31
0.0
  0
LINE
  5
89D
330
18
100
AcDbEntity
  8
1
  6
Continuous
100
AcDbLine
 10
152.7214073062132
 20
144.8785511734739
 30
0.0
 11
160.721407306201
 21
145.171813884288
 31
0.0
  0
LINE
  5
89E
330
18
100
AcDbEntity
  8
1
  6
Continuous
100
AcDbLine
 10
152.753580444304
 20
146.0805972338902
 30
0.0
 11
160.753580444304
 21
146.8055972338902
 31
0.0
  0
LINE
  5
89F
330
18
100
AcDbEntity
  8
1
  6
Continuous
100
AcDbLine
 10
160.6452742881645
 20
148.000699646465
 30
0.0
 11
152.6452742881644
 21
147.275699646465
 31
0.0
  0
LINE
  5
8A0
330
18
100
AcDbEntity
  8
1
  6
Continuous
100
AcDbLine
 10
152.753580444304
 20
147.5305972338901
 30
0.0
 11
160.753580444304
 21
148.2555972338902
 31
0.0
  0
LINE
  5
8A1
330
18
100
AcDbEntity
  8
1
  6
Continuous
100
AcDbLine
 10
152.6452742881644
 20
148.7256996464649
 30
0.0
 11
160.6452742881645
 21
149.4506996464649
 31
0.0
  0
LINE
  5
8A2
330
18
100
AcDbEntity
  8
1
  6
Continuous
100
AcDbLine
 10
152.753580444304
 20
148.9805972338901
 30
0.0
 11
160.753580444304
 21
149.7055972338901
 31
0.0
  0
LINE
  5
8A3
330
18
100
AcDbEntity
  8
1
  6
Continuous
100
AcDbLine
 10
152.6452742881644
 20
150.175699646465
 30
0.0
 11
160.6452742881645
 21
150.900699646465
 31
0.0
  0
LINE
  5
8A4
330
18
100
AcDbEntity
  8
1
  6
Continuous
100
AcDbLine
 10
152.753580444304
 20
150.4305972338901
 30
0.0
 11
160.753580444304
 21
151.1555972338901
 31
0.0
  0
LINE
  5
8A5
330
18
100
AcDbEntity
  8
1
  6
Continuous
100
AcDbLine
 10
152.6452742881644
 20
151.625699646465
 30
0.0
 11
160.6452742881645
 21
152.350699646465
 31
0.0
  0
LINE
  5
8A6
330
18
100
AcDbEntity
  8
1
  6
Continuous
100
AcDbLine
 10
155.1994273662339
 20
146.1701960411085
 30
0.0
 11
155.1994273662336
 21
146.30225211119
 31
0.0
  0
LINE
  5
8A7
330
18
100
AcDbEntity
  8
1
  6
Continuous
100
AcDbLine
 10
155.1994273662312
 20
147.5071697691648
 30
0.0
 11
155.1994273662308
 21
147.7522521111897
 31
0.0
  0
LINE
  5
8A8
330
18
100
AcDbEntity
  8
1
  6
Continuous
100
AcDbLine
 10
155.1994273662284
 20
148.9571697691646
 30
0.0
 11
155.1994273662279
 21
149.2022521111895
 31
0.0
  0
LINE
  5
8A9
330
18
100
AcDbEntity
  8
1
  6
Continuous
100
AcDbLine
 10
155.1994273662254
 20
150.4071697691643
 30
0.0
 11
155.199427366225
 21
150.6522521111892
 31
0.0
  0
LINE
  5
8AA
330
18
100
AcDbEntity
  8
1
  6
Continuous
100
AcDbLine
 10
155.1994273662226
 20
151.857169769164
 30
0.0
 11
155.199427366222
 21
152.1556135032987
 31
0.0
  0
LINE
  5
8AB
330
18
100
AcDbEntity
  8
1
  6
Continuous
100
AcDbLine
 10
156.6994273662243
 20
152.324363503299
 30
0.0
 11
156.6994273662243
 21
151.9931072691641
 31
0.0
  0
LINE
  5
8AC
330
18
100
AcDbEntity
  8
1
  6
Continuous
100
AcDbLine
 10
156.6994273662243
 20
150.7881896111892
 30
0.0
 11
156.6994273662243
 21
150.5431072691641
 31
0.0
  0
LINE
  5
8AD
330
18
100
AcDbEntity
  8
1
  6
Continuous
100
AcDbLine
 10
156.6994273662242
 20
149.3381896111892
 30
0.0
 11
156.6994273662242
 21
149.0931072691642
 31
0.0
  0
LINE
  5
8AE
330
18
100
AcDbEntity
  8
1
  6
Continuous
100
AcDbLine
 10
156.6994273662243
 20
147.8881896111892
 30
0.0
 11
156.6994273662242
 21
147.6431072691642
 31
0.0
  0
LINE
  5
8AF
330
18
100
AcDbEntity
  8
1
  6
Continuous
100
AcDbLine
 10
156.6994273662243
 20
146.4381896111892
 30
0.0
 11
156.6994273662243
 21
146.2251827993859
 31
0.0
  0
LINE
  5
8B0
330
18
100
AcDbEntity
  8
1
  6
Continuous
100
AcDbLine
 10
158.1994273662045
 20
146.5741271111874
 30
0.0
 11
158.1994273662045
 21
146.2801695576629
 31
0.0
  0
LINE
  5
8B1
330
18
100
AcDbEntity
  8
1
  6
Continuous
100
AcDbLine
 10
158.1994273662044
 20
148.0241271111874
 30
0.0
 11
158.1994273662044
 21
147.7790447691624
 31
0.0
  0
LINE
  5
8B2
330
18
100
AcDbEntity
  8
1
  6
Continuous
100
AcDbLine
 10
158.1994273662044
 20
149.4741271111874
 30
0.0
 11
158.1994273662044
 21
149.2290447691624
 31
0.0
  0
LINE
  5
8B3
330
18
100
AcDbEntity
  8
1
  6
Continuous
100
AcDbLine
 10
158.1994273662044
 20
150.9241271111874
 30
0.0
 11
158.1994273662045
 21
150.6790447691624
 31
0.0
  0
LINE
  5
8B4
330
18
100
AcDbEntity
  8
1
  6
Continuous
100
AcDbLine
 10
158.1994273662044
 20
152.4931135032967
 30
0.0
 11
158.1994273662044
 21
152.1290447691623
 31
0.0
  0
LINE
  5
8B5
330
18
100
AcDbEntity
  8
1
  6
Continuous
100
AcDbLine
 10
155.1994273662368
 20
144.6900235065257
 30
0.0
 11
152.6548012878649
 21
144.8798103140905
 31
0.0
  0
LINE
  5
8B6
330
18
100
AcDbEntity
  8
1
  6
Continuous
100
AcDbLine
 10
152.6452742881644
 20
148.9805972338901
 30
0.0
 11
154.0516058049928
 21
148.8531484401775
 31
0.0
  0
LINE
  5
8B7
330
18
100
AcDbEntity
  8
1
  6
Continuous
100
AcDbLine
 10
152.6452742881644
 20
147.5305972338901
 30
0.0
 11
154.0516058049928
 21
147.4031484401776
 31
0.0
  0
ARC
  5
8B8
330
18
100
AcDbEntity
  8
1
  6
Continuous
100
AcDbCircle
 10
152.6994273662342
 20
152.4781484401775
 30
0.0
 40
0.6
100
AcDbArc
 50
96.41878673023789
 51
276.4187867302375
  0
ARC
  5
8B9
330
18
100
AcDbEntity
  8
1
  6
Continuous
100
AcDbCircle
 10
152.6994273662342
 20
146.6781484401776
 30
0.0
 40
0.6
100
AcDbArc
 50
95.1782847042986
 51
275.1782847042985
  0
ARC
  5
8BA
330
18
100
AcDbEntity
  8
1
  6
Continuous
100
AcDbCircle
 10
152.6994273662342
 20
148.1281484401776
 30
0.0
 40
0.6
100
AcDbArc
 50
95.1782847042986
 51
275.1782847042985
  0
ARC
  5
8BB
330
18
100
AcDbEntity
  8
1
  6
Continuous
100
AcDbCircle
 10
152.6994273662342
 20
149.5781484401776
 30
0.0
 40
0.6
100
AcDbArc
 50
95.17828470429837
 51
275.1782847042985
  0
ARC
  5
8BC
330
18
100
AcDbEntity
  8
1
  6
Continuous
100
AcDbCircle
 10
152.6994273662342
 20
151.0281484401776
 30
0.0
 40
0.6
100
AcDbArc
 50
95.1782847042986
 51
275.1782847042985
  0
ARC
  5
8BD
330
18
100
AcDbEntity
  8
1
  6
Continuous
100
AcDbCircle
 10
152.6994273662344
 20
145.4781484401776
 30
0.0
 40
0.6
100
AcDbArc
 50
92.09939940005163
 51
272.0993994000517
  0
LINE
  5
8BE
330
18
100
AcDbEntity
  8
1
  6
Continuous
100
AcDbLine
 10
154.0516058049928
 20
151.7531484401775
 30
0.0
 11
152.6452742881644
 21
151.8805972338901
 31
0.0
  0
LINE
  5
8BF
330
18
100
AcDbEntity
  8
1
  6
Continuous
100
AcDbLine
 10
154.0516058049926
 20
150.3031484401776
 30
0.0
 11
152.6452742881644
 21
150.4305972338901
 31
0.0
  0
LINE
  5
8C0
330
18
100
AcDbEntity
  8
1
  6
Continuous
100
AcDbLine
 10
156.6994273662679
 20
144.4748674102151
 30
0.0
 11
158.1994273662679
 21
144.4748674102166
 31
0.0
  0
LINE
  5
8C1
330
18
100
AcDbEntity
  8
1
  6
Continuous
100
AcDbLine
 10
159.3472489274756
 20
148.1281484401776
 30
0.0
 11
160.753580444304
 21
148.000699646465
 31
0.0
  0
LINE
  5
8C2
330
18
100
AcDbEntity
  8
1
  6
Continuous
100
AcDbLine
 10
158.6136169709549
 20
146.6116630441179
 30
0.0
 11
160.7670000138108
 21
146.3675939562603
 31
0.0
  0
ARC
  5
8C3
330
18
100
AcDbEntity
  8
1
  6
Continuous
100
AcDbCircle
 10
160.6994273662341
 20
148.8531484401776
 30
0.0
 40
0.6
100
AcDbArc
 50
275.1782847042972
 51
95.17828470429725
  0
ARC
  5
8C4
330
18
100
AcDbEntity
  8
1
  6
Continuous
100
AcDbCircle
 10
160.6994273662341
 20
150.3031484401776
 30
0.0
 40
0.6
100
AcDbArc
 50
275.1782847042975
 51
95.17828470429725
  0
ARC
  5
8C5
330
18
100
AcDbEntity
  8
1
  6
Continuous
100
AcDbCircle
 10
160.6994273662341
 20
151.7531484401775
 30
0.0
 40
0.6
100
AcDbArc
 50
275.1782847042972
 51
95.17828470429725
  0
ARC
  5
8C6
330
18
100
AcDbEntity
  8
1
  6
Continuous
100
AcDbCircle
 10
160.6994273662341
 20
147.4031484401776
 30
0.0
 40
0.6
100
AcDbArc
 50
275.1782847042972
 51
95.17828470429725
  0
ARC
  5
8C7
330
18
100
AcDbEntity
  8
1
  6
Continuous
100
AcDbCircle
 10
160.6994273662222
 20
145.7714111509917
 30
0.0
 40
0.6
100
AcDbArc
 50
272.0993994000516
 51
92.09939940005176
  0
LINE
  5
8C8
330
18
100
AcDbEntity
  8
1
  6
Continuous
100
AcDbLine
 10
158.6378582135696
 20
152.5424369736253
 30
0.0
 11
160.753580444304
 21
152.350699646465
 31
0.0
  0
LINE
  5
8C9
330
18
100
AcDbEntity
  8
1
  6
Continuous
100
AcDbLine
 10
159.3472489274756
 20
151.0281484401776
 30
0.0
 11
160.753580444304
 21
150.900699646465
 31
0.0
  0
LINE
  5
8CA
330
18
100
AcDbEntity
  8
1
  6
Continuous
100
AcDbLine
 10
159.3472489274754
 20
149.5781484401776
 30
0.0
 11
160.753580444304
 21
149.4506996464649
 31
0.0
  0
LINE
  5
8CB
330
18
100
AcDbEntity
  8
1
  6
Continuous
100
AcDbLine
 10
158.199427366227
 20
154.0747072958634
 30
0.0
 11
160.7224780772794
 21
153.977705497279
 31
0.0
  0
LINE
  5
8CC
330
18
100
AcDbEntity
  8
1
  6
Continuous
100
AcDbLine
 10
158.1994273662297
 20
153.7006833770543
 30
0.0
 11
158.1994273662481
 21
163.0050520625212
 31
0.0
  0
LINE
  5
8CD
330
18
100
AcDbEntity
  8
1
  6
Continuous
100
AcDbLine
 10
156.5652736385226
 20
154.724410956442
 30
0.0
 11
152.6323505023935
 21
154.2819571036275
 31
0.0
  0
LINE
  5
8CE
330
18
100
AcDbEntity
  8
1
  6
Continuous
100
AcDbLine
 10
155.1994273662442
 20
157.8739691189213
 30
0.0
 11
156.6994273662244
 21
157.8739691189196
 31
0.0
  0
LINE
  5
8CF
330
18
100
AcDbEntity
  8
1
  6
Continuous
100
AcDbLine
 10
155.1994273662443
 20
154.7244109564557
 30
0.0
 11
156.6994273662532
 21
154.7244109564574
 31
0.0
  0
LINE
  5
8D0
330
18
100
AcDbEntity
  8
1
  6
Continuous
100
AcDbLine
 10
156.6994273662245
 20
141.400749652809
 30
0.0
 11
158.1994273662245
 21
141.4007496528105
 31
0.0
  0
LINE
  5
DB4
330
18
100
AcDbEntity
  8
1
  6
Continuous
100
AcDbLine
 10
256.8276518956982
 20
153.5151515150952
 30
0.0
 11
256.7383618405754
 21
154.7118249400716
 31
0.0
  0
ARC
  5
DB5
330
18
100
AcDbEntity
  8
1
  6
Continuous
100
AcDbCircle
 10
260.819058422941
 20
153.211303294203
 30
0.0
 40
0.6
100
AcDbArc
 50
274.2672299496765
 51
94.26722994967414
  0
LINE
  5
DB6
330
18
100
AcDbEntity
  8
1
  6
Continuous
100
AcDbLine
 10
252.7462646357677
 20
153.2106178922907
 30
0.0
 11
260.7744133953795
 21
153.8096400066935
 31
0.0
  0
ARC
  5
DB7
330
18
100
AcDbEntity
  8
1
  6
Continuous
100
AcDbCircle
 10
252.8362453685165
 20
153.8189997359826
 30
0.0
 40
0.6000000000000001
100
AcDbArc
 50
94.26722994967716
 51
274.2672299496771
  0
LINE
  5
DB8
330
18
100
AcDbEntity
  8
4
  6
CENTER
 48
0.2
100
AcDbLine
 10
257.3266982091465
 20
166.7984663840187
 30
0.0
 11
255.7954291728051
 21
126.0400673908442
 31
0.0
  0
LINE
  5
DBE
330
18
100
AcDbEntity
  8
1
  6
Continuous
100
AcDbLine
 10
250.4338478673489
 20
111.7244130194899
 30
0.0
 11
250.4338478673489
 21
105.2244130194897
 31
0.0
  0
LINE
  5
DBF
330
18
100
AcDbEntity
  8
1
  6
Continuous
100
AcDbLine
 10
249.4338478673489
 20
137.7244130194897
 30
0.0
 11
249.4338478673489
 21
105.2244130194897
 31
0.0
  0
LINE
  5
DC1
330
18
100
AcDbEntity
  8
1
  6
Continuous
100
AcDbLine
 10
249.4338478673489
 20
105.2244130194896
 30
0.0
 11
250.4338478673472
 21
105.2244130194896
 31
0.0
  0
ARC
  5
DC2
330
18
100
AcDbEntity
  8
1
  6
Continuous
100
AcDbCircle
 10
252.4338478673489
 20
140.7244130194902
 30
0.0
 40
2.0
100
AcDbArc
 50
120.8558627822139
 51
180.0
  0
LINE
  5
DC5
330
18
100
AcDbEntity
  8
1
  6
Continuous
100
AcDbLine
 10
264.4338478673489
 20
111.7244130194884
 30
0.0
 11
249.4338478673539
 21
111.7244130194898
 31
0.0
  0
ARC
  5
DC6
330
18
100
AcDbEntity
  8
1
  6
Continuous
100
AcDbCircle
 10
255.9338478673489
 20
129.7244130194907
 30
0.0
 40
3.0
100
AcDbArc
 50
148.8934188476101
 51
26.80346759132939
  0
LINE
  5
DC7
330
18
100
AcDbEntity
  8
1
  6
Continuous
100
AcDbLine
 10
258.8771055900559
 20
141.4758355027839
 30
0.0
 11
258.5047869686921
 21
131.5656821842684
 31
0.0
  0
LINE
  5
DC8
330
18
100
AcDbEntity
  8
1
  6
Continuous
100
AcDbLine
 10
253.8806305106039
 20
141.6635501277215
 30
0.0
 11
253.5083118892401
 21
131.753396809205
 31
0.0
  0
LINE
  5
DCA
330
18
100
AcDbEntity
  8
1
  6
Continuous
100
AcDbLine
 10
261.9338478673489
 20
141.7244130194936
 30
0.0
 11
261.9338478673488
 21
112.7244130194887
 31
0.0
  0
LINE
  5
DCB
330
18
100
AcDbEntity
  8
1
  6
Continuous
100
AcDbLine
 10
264.4338478673489
 20
142.724413019489
 30
0.0
 11
264.4338478673489
 21
111.724413019489
 31
0.0
  0
LINE
  5
DCD
330
18
100
AcDbEntity
  8
4
  6
CENTER
 48
0.1
100
AcDbLine
 10
259.2035567578813
 20
116.7244130194926
 30
0.0
 11
251.7820477615349
 21
116.7244130194887
 31
0.0
  0
ARC
  5
DCE
330
18
100
AcDbEntity
  8
1
  6
Continuous
100
AcDbCircle
 10
260.9338478673489
 20
112.7244130194886
 30
0.0
 40
1.0
100
AcDbArc
 50
269.9999999999999
 51
0.000000000000007
  0
LINE
  5
DCF
330
18
100
AcDbEntity
  8
4
  6
CENTER
 48
0.1
100
AcDbLine
 10
260.7680293821281
 20
117.7244130194717
 30
0.0
 11
265.6562226913198
 21
117.7244130194717
 31
0.0
  0
LINE
  5
DD0
330
18
100
AcDbEntity
  8
4
  6
CENTER
 48
0.1
100
AcDbLine
 10
255.4338478673489
 20
120.7815175304087
 30
0.0
 11
255.4338478673489
 21
112.8024337085566
 31
0.0
  0
LINE
  5
DD1
330
18
100
AcDbEntity
  8
1
  6
Continuous
100
AcDbLine
 10
252.6838478673488
 20
116.9744130194904
 30
0.0
 11
252.6838478673488
 21
116.4744130194904
 31
0.0
  0
LINE
  5
DD2
330
18
100
AcDbEntity
  8
1
  6
Continuous
100
AcDbLine
 10
258.1838478673489
 20
116.9744130194904
 30
0.0
 11
258.1838478673489
 21
116.4744130194904
 31
0.0
  0
ARC
  5
DD3
330
18
100
AcDbEntity
  8
1
  6
Continuous
100
AcDbCircle
 10
255.4338478673489
 20
116.4744130194907
 30
0.0
 40
2.75
100
AcDbArc
 50
180.0
 51
0.000000000000007
  0
ARC
  5
DD4
330
18
100
AcDbEntity
  8
1
  6
Continuous
100
AcDbCircle
 10
255.4338478673489
 20
116.9744130194907
 30
0.0
 40
2.75
100
AcDbArc
 50
0.000000000000007
 51
180.0
  0
ARC
  5
DD5
330
18
100
AcDbEntity
  8
1
  6
Continuous
100
AcDbCircle
 10
259.5040819845825
 20
131.5281392592812
 30
0.0
 40
1.0
100
AcDbArc
 50
177.8484432194377
 51
206.8034675912972
  0
LINE
  5
DD7
330
18
100
AcDbEntity
  8
4
  6
CENTER
 48
0.1
100
AcDbLine
 10
260.4338478673489
 20
129.7244130194908
 30
0.0
 11
251.4616793019427
 21
129.7244130194908
 31
0.0
  0
LINE
  5
DD8
330
18
100
AcDbEntity
  8
4
  6
CENTER
 48
0.1
100
AcDbLine
 10
260.7680293821281
 20
130.7244130194716
 30
0.0
 11
265.6562226913199
 21
130.7244130194716
 31
0.0
  0
ARC
  5
DD9
330
18
100
AcDbEntity
  8
1
  6
Continuous
100
AcDbCircle
 10
252.5090168733497
 20
131.7909397341923
 30
0.0
 40
1.0
100
AcDbArc
 50
328.8934188475786
 51
357.8484432194378
  0
CIRCLE
  5
DDB
330
18
100
AcDbEntity
  8
1
  6
Continuous
100
AcDbCircle
 10
255.9338478673442
 20
129.7244130194907
 30
0.0
 40
1.750002063062311
  0
LINE
  5
DDC
330
18
100
AcDbEntity
  8
1
  6
Continuous
100
AcDbLine
 10
261.3941145922733
 20
141.8816256982604
 30
0.0
 11
261.4692004422485
 21
143.8802157300412
 31
0.0
  0
LINE
  5
DDD
330
18
100
AcDbEntity
  8
1
  6
Continuous
100
AcDbLine
 10
251.4011644333694
 20
142.2570549481356
 30
0.0
 11
251.4762502833446
 21
144.2556449799164
 31
0.0
  0
LINE
  5
DDE
330
18
100
AcDbEntity
  8
1
  6
Continuous
100
AcDbLine
 10
251.8820404788208
 20
141.7386359776966
 30
0.0
 11
260.8756956218343
 21
141.4007496528089
 31
0.0
  0
ARC
  5
DDF
330
18
100
AcDbEntity
  8
1
  6
Continuous
100
AcDbCircle
 10
260.9338478673489
 20
141.7244130194936
 30
0.0
 40
1.0
100
AcDbArc
 50
0.000000000000007
 51
60.84525877078217
  0
LINE
  5
DE0
330
18
100
AcDbEntity
  8
1
  6
Continuous
100
AcDbLine
 10
264.4338478673489
 20
142.7244130194954
 30
0.0
 11
261.425777615383
 21
142.7244130194939
 31
0.0
  0
ARC
  5
DE1
330
18
100
AcDbEntity
  8
1
  6
Continuous
100
AcDbCircle
 10
260.8944670843281
 20
141.9003971607541
 30
0.0
 40
0.5
100
AcDbArc
 50
267.8484432194217
 51
357.8484432194218
  0
ARC
  5
DE2
330
18
100
AcDbEntity
  8
1
  6
Continuous
100
AcDbCircle
 10
251.9008119413145
 20
142.2382834856418
 30
0.0
 40
0.5
100
AcDbArc
 50
177.8484432194218
 51
267.8484432194217
  0
LINE
  5
DE3
330
18
100
AcDbEntity
  8
1
  6
Continuous
100
AcDbLine
 10
254.6063993571631
 20
134.0208557974928
 30
0.0
 11
257.6160950580902
 21
133.9077833032432
 31
0.0
  0
LINE
  5
DE4
330
18
100
AcDbEntity
  8
1
  6
Continuous
100
AcDbLine
 10
252.5275629976823
 20
145.017216317171
 30
0.0
 11
260.532933064747
 21
145.0099288825361
 31
0.0
  0
LINE
  5
DE5
330
18
100
AcDbEntity
  8
1
  6
Continuous
100
AcDbLine
 10
252.5286553791543
 20
146.2172158199637
 30
0.0
 11
260.5340254462191
 21
146.2099283853289
 31
0.0
  0
LINE
  5
DE6
330
18
100
AcDbEntity
  8
1
  6
Continuous
100
AcDbLine
 10
252.7047913412011
 20
151.7624664138891
 30
0.0
 11
260.7263700889402
 21
152.1866119005113
 31
0.0
  0
LINE
  5
DE7
330
18
100
AcDbEntity
  8
1
  6
Continuous
100
AcDbLine
 10
252.7681535029943
 20
150.5641403996289
 30
0.0
 11
260.7897322507332
 21
150.9882858862511
 31
0.0
  0
LINE
  5
DE8
330
18
100
AcDbEntity
  8
1
  6
Continuous
100
AcDbLine
 10
252.6503540999696
 20
150.3134886408481
 30
0.0
 11
260.6719328477085
 21
150.7376341274702
 31
0.0
  0
LINE
  5
DE9
330
18
100
AcDbEntity
  8
1
  6
Continuous
100
AcDbLine
 10
252.7137162617627
 20
149.1151626265879
 30
0.0
 11
260.7352950095016
 21
149.53930811321
 31
0.0
  0
LINE
  5
DEA
330
18
100
AcDbEntity
  8
1
  6
Continuous
100
AcDbLine
 10
252.595916858738
 20
148.864510867807
 30
0.0
 11
260.6174956064769
 21
149.2886563544292
 31
0.0
  0
LINE
  5
DEB
330
18
100
AcDbEntity
  8
1
  6
Continuous
100
AcDbLine
 10
252.659279020531
 20
147.6661848535468
 30
0.0
 11
260.68085776827
 21
148.090330340169
 31
0.0
  0
LINE
  5
DEC
330
18
100
AcDbEntity
  8
1
  6
Continuous
100
AcDbLine
 10
260.5630583652454
 20
147.8396785813881
 30
0.0
 11
252.5414796175064
 21
147.415533094766
 31
0.0
  0
LINE
  5
DED
330
18
100
AcDbEntity
  8
1
  6
Continuous
100
AcDbLine
 10
252.6048417792995
 20
146.2172070805057
 30
0.0
 11
260.6264205270385
 21
146.6413525671279
 31
0.0
  0
LINE
  5
DEE
330
18
100
AcDbEntity
  8
1
  6
Continuous
100
AcDbLine
 10
260.8637034505025
 20
152.6129665817124
 30
0.0
 11
252.8355546908908
 21
152.0139444673096
 31
0.0
  0
LINE
  5
DEF
330
18
100
AcDbEntity
  8
1
  6
Continuous
100
AcDbLine
 10
258.9897343650163
 20
144.4737205504551
 30
0.0
 11
260.988324396797
 21
144.3986347004801
 31
0.0
  0
ARC
  5
DF0
330
18
100
AcDbEntity
  8
1
  6
Continuous
100
AcDbCircle
 10
252.5281091884183
 20
145.6172160685674
 30
0.0
 40
0.6
100
AcDbArc
 50
89.94784261948923
 51
269.9478426194894
  0
LINE
  5
DF1
330
18
100
AcDbEntity
  8
1
  6
Continuous
100
AcDbLine
 10
254.0604789759277
 20
150.3880497865428
 30
0.0
 11
252.6599237009737
 21
150.5682065295245
 31
0.0
  0
LINE
  5
DF2
330
18
100
AcDbEntity
  8
1
  6
Continuous
100
AcDbLine
 10
254.1149162171594
 20
151.8370275595839
 30
0.0
 11
252.7143609422052
 21
152.0171843025656
 31
0.0
  0
ARC
  5
DF3
330
18
100
AcDbEntity
  8
1
  6
Continuous
100
AcDbCircle
 10
252.682035180866
 20
149.714325633718
 30
0.0
 40
0.6
100
AcDbArc
 50
93.02672792373597
 51
273.0267279237361
  0
ARC
  5
DF4
330
18
100
AcDbEntity
  8
1
  6
Continuous
100
AcDbCircle
 10
252.6275979396345
 20
148.2653478606769
 30
0.0
 40
0.6
100
AcDbArc
 50
93.02672792373623
 51
273.0267279237361
  0
ARC
  5
DF5
330
18
100
AcDbEntity
  8
1
  6
Continuous
100
AcDbCircle
 10
252.573160698403
 20
146.8163700876359
 30
0.0
 40
0.6
100
AcDbArc
 50
93.02672792373623
 51
273.0267279237361
  0
LINE
  5
DF6
330
18
100
AcDbEntity
  8
1
  6
Continuous
100
AcDbLine
 10
252.5510492185105
 20
147.6702509834424
 30
0.0
 11
253.9516044934646
 21
147.4900942404606
 31
0.0
  0
LINE
  5
DF7
330
18
100
AcDbEntity
  8
1
  6
Continuous
100
AcDbLine
 10
252.6054864597421
 20
149.1192287564835
 30
0.0
 11
254.0060417346962
 21
148.9390720135017
 31
0.0
  0
ARC
  5
DF8
330
18
100
AcDbEntity
  8
1
  6
Continuous
100
AcDbCircle
 10
260.9695529343033
 20
143.8989871925349
 30
0.0
 40
0.5
100
AcDbArc
 50
357.8484432194218
 51
87.84844321942189
  0
ARC
  5
DF9
330
18
100
AcDbEntity
  8
1
  6
Continuous
100
AcDbCircle
 10
252.7364724220977
 20
151.1633034067591
 30
0.0
 40
0.6
100
AcDbArc
 50
93.02672792373623
 51
273.0267279237361
  0
ARC
  5
DFA
330
18
100
AcDbEntity
  8
1
  6
Continuous
100
AcDbCircle
 10
252.7909096633293
 20
152.6122811798001
 30
0.0
 40
0.6
100
AcDbArc
 50
94.26722994967544
 51
274.2672299496752
  0
LINE
  5
DFB
330
18
100
AcDbEntity
  8
1
  6
Continuous
100
AcDbLine
 10
254.0108784647379
 20
144.8466692920622
 30
0.0
 11
252.4610512073402
 21
145.0209751548641
 31
0.0
  0
LINE
  5
DFC
330
18
100
AcDbEntity
  8
1
  6
Continuous
100
AcDbLine
 10
259.0099314829713
 20
145.0113152987022
 30
0.0
 11
258.9897343650171
 21
144.4737205504551
 31
0.0
  0
LINE
  5
DFD
330
18
100
AcDbEntity
  8
1
  6
Continuous
100
AcDbLine
 10
254.0545886469723
 20
146.2938632612907
 30
0.0
 11
254.051656960922
 21
146.2158294037975
 31
0.0
  0
LINE
  5
DFE
330
18
100
AcDbEntity
  8
1
  6
Continuous
100
AcDbLine
 10
254.2735197031557
 20
152.1212385481588
 30
0.0
 11
254.2631365039162
 21
151.8448647905868
 31
0.0
  0
LINE
  5
DFF
330
18
100
AcDbEntity
  8
1
  6
Continuous
100
AcDbLine
 10
254.2179003706671
 20
150.640796580414
 30
0.0
 11
254.2086992626847
 21
150.3958870175456
 31
0.0
  0
LINE
  5
E00
330
18
100
AcDbEntity
  8
1
  6
Continuous
100
AcDbLine
 10
254.1634631294355
 20
149.1918188073728
 30
0.0
 11
254.1542620214531
 21
148.9469092445045
 31
0.0
  0
LINE
  5
E01
330
18
100
AcDbEntity
  8
1
  6
Continuous
100
AcDbLine
 10
254.1090258882039
 20
147.7428410343318
 30
0.0
 11
254.0998247802215
 21
147.4979314714635
 31
0.0
  0
ARC
  5
E02
330
18
100
AcDbEntity
  8
1
  6
Continuous
100
AcDbCircle
 10
260.5334792554831
 20
145.6099286339325
 30
0.0
 40
0.6
100
AcDbArc
 50
269.9478426194892
 51
89.94784261948936
  0
LINE
  5
E03
330
18
100
AcDbEntity
  8
1
  6
Continuous
100
AcDbLine
 10
251.9946692537834
 20
144.7365210253677
 30
0.0
 11
253.9932592855643
 21
144.6614351753927
 31
0.0
  0
LINE
  5
E04
330
18
100
AcDbEntity
  8
1
  6
Continuous
100
AcDbLine
 10
259.3251701335432
 20
149.4647469675154
 30
0.0
 11
260.7257254084974
 21
149.2845902245336
 31
0.0
  0
LINE
  5
E05
330
18
100
AcDbEntity
  8
1
  6
Continuous
100
AcDbLine
 10
259.379607374775
 20
150.9137247405564
 30
0.0
 11
260.7801626497291
 21
150.7335679975747
 31
0.0
  0
LINE
  5
E06
330
18
100
AcDbEntity
  8
1
  6
Continuous
100
AcDbLine
 10
259.2707328923119
 20
148.0157691944743
 30
0.0
 11
260.6712881672659
 21
147.8356124514925
 31
0.0
  0
LINE
  5
E07
330
18
100
AcDbEntity
  8
1
  6
Continuous
100
AcDbLine
 10
259.286830203984
 20
152.381639052172
 30
0.0
 11
260.8345998909606
 21
152.1825457706157
 31
0.0
  0
LINE
  5
E08
330
18
100
AcDbEntity
  8
1
  6
Continuous
100
AcDbLine
 10
259.063589507247
 20
146.4395523429247
 30
0.0
 11
260.6233867117658
 21
146.2031542649573
 31
0.0
  0
LINE
  5
E09
330
18
100
AcDbEntity
  8
1
  6
Continuous
100
AcDbLine
 10
254.0065751910483
 20
145.015869945349
 30
0.0
 11
253.9932592855652
 21
144.6614351753928
 31
0.0
  0
LINE
  5
E0A
330
18
100
AcDbEntity
  8
1
  6
Continuous
100
AcDbLine
 10
259.0680753643092
 20
146.5589541904296
 30
0.0
 11
259.055013252845
 21
146.2112747571509
 31
0.0
  0
LINE
  5
E0B
330
18
100
AcDbEntity
  8
1
  6
Continuous
100
AcDbLine
 10
259.1225126055407
 20
148.0079319634707
 30
0.0
 11
259.1133114975583
 21
147.7630224006023
 31
0.0
  0
LINE
  5
E0C
330
18
100
AcDbEntity
  8
1
  6
Continuous
100
AcDbLine
 10
259.1769498467723
 20
149.4569097365117
 30
0.0
 11
259.16774873879
 21
149.2120001736434
 31
0.0
  0
LINE
  5
E0D
330
18
100
AcDbEntity
  8
1
  6
Continuous
100
AcDbLine
 10
259.2313870880039
 20
150.9058875095528
 30
0.0
 11
259.2221859800215
 21
150.6609779466845
 31
0.0
  0
LINE
  5
E0E
330
18
100
AcDbEntity
  8
1
  6
Continuous
100
AcDbLine
 10
259.291112677913
 20
152.4956273696606
 30
0.0
 11
259.2766232212531
 21
152.1099557197256
 31
0.0
  0
ARC
  5
E0F
330
18
100
AcDbEntity
  8
1
  6
Continuous
100
AcDbCircle
 10
251.9758977912899
 20
144.2368735174227
 30
0.0
 40
0.5
100
AcDbArc
 50
87.84844321942189
 51
177.8484432194218
  0
ARC
  5
E10
330
18
100
AcDbEntity
  8
1
  6
Continuous
100
AcDbCircle
 10
260.5947394461419
 20
147.240515574258
 30
0.0
 40
0.6
100
AcDbArc
 50
273.0267279237348
 51
93.02672792373488
  0
ARC
  5
E11
330
18
100
AcDbEntity
  8
1
  6
Continuous
100
AcDbCircle
 10
260.7580511698367
 20
151.5874488933812
 30
0.0
 40
0.6
100
AcDbArc
 50
273.0267279237348
 51
93.02672792373488
  0
ARC
  5
E12
330
18
100
AcDbEntity
  8
1
  6
Continuous
100
AcDbCircle
 10
260.7036139286051
 20
150.1384711203401
 30
0.0
 40
0.6
100
AcDbArc
 50
273.0267279237351
 51
93.02672792373488
  0
ARC
  5
E13
330
18
100
AcDbEntity
  8
1
  6
Continuous
100
AcDbCircle
 10
260.6491766873735
 20
148.6894933472991
 30
0.0
 40
0.6
100
AcDbArc
 50
273.0267279237348
 51
93.02672792373488
  0
LINE
  5
E15
330
18
100
AcDbEntity
  8
1
  6
Continuous
100
AcDbLine
 10
250.4338478673489
 20
140.7244130194903
 30
0.0
 11
250.4338478673489
 21
137.7244130194897
 31
0.0
  0
LINE
  5
E16
330
18
100
AcDbEntity
  8
1
  6
Continuous
100
AcDbLine
 10
249.4338478673498
 20
137.7244130194896
 30
0.0
 11
250.4338478673489
 21
137.7244130194897
 31
0.0
  0
LINE
  5
E17
330
18
100
AcDbEntity
  8
4
  6
CENTER
 48
0.2
100
AcDbLine
 10
280.9338478673861
 20
169.7244109564163
 30
0.0
 11
285.9338478673862
 21
169.7244109564163
 31
0.0
  0
LINE
  5
E18
330
18
100
AcDbEntity
  8
1
  6
Continuous
100
AcDbLine
 10
279.4338478673861
 20
167.7244109564163
 30
0.0
 11
281.9338478673861
 21
167.7244109564163
 31
0.0
  0
LINE
  5
E19
330
18
100
AcDbEntity
  8
1
  6
Continuous
100
AcDbLine
 10
279.4338478673861
 20
165.7244109564163
 30
0.0
 11
281.9338478673861
 21
165.7244109564163
 31
0.0
  0
LINE
  5
E1D
330
18
100
AcDbEntity
  8
1
  6
Continuous
100
AcDbLine
 10
282.4338478673861
 20
164.7244109564163
 30
0.0
 11
284.4338478673861
 21
164.7244109564163
 31
0.0
  0
LINE
  5
E1E
330
18
100
AcDbEntity
  8
1
  6
Continuous
100
AcDbLine
 10
282.4338478673861
 20
174.7244109564163
 30
0.0
 11
284.4338478673861
 21
174.7244109564163
 31
0.0
  0
LINE
  5
E1F
330
18
100
AcDbEntity
  8
1
  6
Continuous
100
AcDbLine
 10
284.4338478673861
 20
174.7244109564163
 30
0.0
 11
284.4338478673861
 21
164.7244109564163
 31
0.0
  0
LINE
  5
E20
330
18
100
AcDbEntity
  8
1
  6
Continuous
100
AcDbLine
 10
282.4338478673861
 20
174.7244109564163
 30
0.0
 11
282.4338478673861
 21
164.7244109564163
 31
0.0
  0
ARC
  5
E21
330
18
100
AcDbEntity
  8
1
  6
Continuous
100
AcDbCircle
 10
281.9338478673861
 20
168.2244109564163
 30
0.0
 40
2.5
100
AcDbArc
 50
270.0
 51
281.5370000000001
  0
ARC
  5
E22
330
18
100
AcDbEntity
  8
1
  6
Continuous
100
AcDbCircle
 10
281.9338478673861
 20
168.2244109564163
 30
0.0
 40
0.5
100
AcDbArc
 50
270.0
 51
0.000000000000007
  0
LINE
  5
E23
330
18
100
AcDbEntity
  8
1
  6
Continuous
100
AcDbLine
 10
274.4338478673862
 20
174.3574109564162
 30
0.0
 11
276.3954122965811
 21
174.7476224248762
 31
0.0
  0
ARC
  5
E24
330
18
100
AcDbEntity
  8
1
  6
Continuous
100
AcDbCircle
 10
279.4338478673861
 20
169.7244109564163
 30
0.0
 40
4.0
100
AcDbArc
 50
191.2509003562829
 51
270.0
  0
ARC
  5
E25
330
18
100
AcDbEntity
  8
1
  6
Continuous
100
AcDbCircle
 10
279.4338478673861
 20
169.7244109564163
 30
0.0
 40
2.0
100
AcDbArc
 50
191.2509003562825
 51
270.0
  0
LINE
  5
E26
330
18
100
AcDbEntity
  8
1
  6
Continuous
100
AcDbLine
 10
276.3954122965811
 20
174.7476224248762
 30
0.0
 11
277.4722969668079
 21
169.3342021791864
 31
0.0
  0
LINE
  5
E27
330
18
100
AcDbEntity
  8
1
  6
Continuous
100
AcDbLine
 10
274.4338478673861
 20
174.3574109564163
 30
0.0
 11
275.510732537613
 21
168.9439907107263
 31
0.0
  0
LINE
  5
E28
330
18
100
AcDbEntity
  8
1
  6
Continuous
100
AcDbLine
 10
254.7885844905321
 20
165.8309235304944
 30
0.0
 11
254.3641911135245
 21
154.5346756605235
 31
0.0
  0
LINE
  5
E29
330
18
100
AcDbEntity
  8
1
  6
Continuous
100
AcDbLine
 10
259.7890945979538
 20
165.7506108552104
 30
0.0
 11
259.3364483830944
 21
153.7023459258428
 31
0.0
  0
LINE
  5
E2A
330
18
100
AcDbEntity
  8
1
  6
Continuous
100
AcDbLine
 10
256.7383618405754
 20
154.7118249400717
 30
0.0
 11
252.791600340955
 21
154.4173364484731
 31
0.0
  0
LINE
  5
E2B
330
18
100
AcDbEntity
  8
1
  6
Continuous
100
AcDbLine
 10
261.3692485635335
 20
154.5378452543084
 30
0.0
 11
259.3706585317527
 21
154.6129311042828
 31
0.0
  0
LINE
  5
E2C
330
18
100
AcDbEntity
  8
1
  6
Continuous
100
AcDbLine
 10
261.4818773384953
 20
157.5357303019796
 30
0.0
 11
259.4832873067207
 21
157.6108161519539
 31
0.0
  0
LINE
  5
E2D
330
18
100
AcDbEntity
  8
1
  6
Continuous
100
AcDbLine
 10
261.9627533839469
 20
157.0173113315406
 30
0.0
 11
261.8876675339723
 21
155.0187212997599
 31
0.0
  0
ARC
  5
E2E
330
18
100
AcDbEntity
  8
1
  6
Continuous
100
AcDbCircle
 10
261.4631058760017
 20
157.0360827940343
 30
0.0
 40
0.5
100
AcDbArc
 50
357.8484432194378
 51
87.84844321943772
  0
ARC
  5
E2F
330
18
100
AcDbEntity
  8
1
  6
Continuous
100
AcDbCircle
 10
261.3880200260271
 20
155.0374927622535
 30
0.0
 40
0.5
100
AcDbArc
 50
267.8484432194379
 51
357.8484432194378
  0
LINE
  5
E30
330
18
100
AcDbEntity
  8
1
  6
Continuous
100
AcDbLine
 10
254.3741834523007
 20
154.800645729219
 30
0.0
 11
252.3755934205199
 21
154.8757315791936
 31
0.0
  0
LINE
  5
E31
330
18
100
AcDbEntity
  8
1
  6
Continuous
100
AcDbLine
 10
254.4868122272687
 20
157.7985307768901
 30
0.0
 11
252.4882221954817
 21
157.8736166268648
 31
0.0
  0
LINE
  5
E32
330
18
100
AcDbEntity
  8
1
  6
Continuous
100
AcDbLine
 10
259.3448233718791
 20
153.9252663442104
 30
0.0
 11
260.8646020092215
 21
153.8095722819908
 31
0.0
  0
LINE
  5
E33
330
18
100
AcDbEntity
  8
1
  6
Continuous
100
AcDbLine
 10
251.9698032250429
 20
157.3927405814132
 30
0.0
 11
251.8947173750683
 21
155.3941505496324
 31
0.0
  0
ARC
  5
E34
330
18
100
AcDbEntity
  8
1
  6
Continuous
100
AcDbCircle
 10
252.3943648830135
 20
155.3753790871388
 30
0.0
 40
0.5
100
AcDbArc
 50
177.8484432194377
 51
267.8484432194379
  0
ARC
  5
E35
330
18
100
AcDbEntity
  8
1
  6
Continuous
100
AcDbCircle
 10
252.469450732988
 20
157.3739691189196
 30
0.0
 40
0.5
100
AcDbArc
 50
87.84844321943772
 51
177.8484432194377
  0
LINE
  5
E36
330
18
100
AcDbEntity
  8
1
  6
Continuous
100
AcDbLine
 10
258.4041018845255
 20
164.1820075047434
 30
0.0
 11
255.9871281334502
 21
164.2728117845513
 31
0.0
  0
CIRCLE
  5
E37
330
18
100
AcDbEntity
  8
1
  6
Continuous
100
AcDbCircle
 10
259.4286599817604
 20
169.4748674102086
 30
0.0
 40
1.7500020630587
  0
LINE
  5
E38
330
18
100
AcDbEntity
  8
4
  6
CENTER
 48
0.2
100
AcDbLine
 10
262.6786599817604
 20
169.4748674102078
 30
0.0
 11
256.1786599817604
 21
169.4748674102096
 31
0.0
  0
ARC
  5
E39
330
18
100
AcDbEntity
  8
1
  6
Continuous
100
AcDbCircle
 10
259.4286599817604
 20
169.4748674102086
 30
0.0
 40
3.0
100
AcDbArc
 50
289.872756056464
 51
177.2766846678628
  0
LINE
  5
E3A
330
18
100
AcDbEntity
  8
4
  6
CENTER
 48
0.2
100
AcDbLine
 10
259.4286599817595
 20
166.2248674102086
 30
0.0
 11
259.4286599817613
 21
172.7248674102086
 31
0.0
  0
ARC
  5
E3B
330
18
100
AcDbEntity
  8
1
  6
Continuous
100
AcDbCircle
 10
260.7883896138491
 20
165.7130679302231
 30
0.0
 40
1.0
100
AcDbArc
 50
109.8727560564639
 51
177.8484432194218
  0
ARC
  5
E3C
330
18
100
AcDbEntity
  8
1
  6
Continuous
100
AcDbCircle
 10
255.433177488708
 20
169.6649191076798
 30
0.0
 40
1.0
100
AcDbArc
 50
334.2749405804247
 51
357.2766846678628
  0
ARC
  5
E3D
330
18
100
AcDbEntity
  8
1
  6
Continuous
100
AcDbCircle
 10
255.787879506427
 20
165.7933806055068
 30
0.0
 40
1.0
100
AcDbArc
 50
154.2749405804251
 51
177.8484432194218
  0
LINE
  5
E3E
330
18
100
AcDbEntity
  8
1
  6
Continuous
100
AcDbLine
 10
254.8869922404883
 20
166.2274337521026
 30
0.0
 11
256.3340647546465
 21
169.2308659610844
 31
0.0
  0
LINE
  5
E3F
330
18
100
AcDbEntity
  8
1
  6
Continuous
100
AcDbLine
 10
258.4795488468546
 20
166.1902094081515
 30
0.0
 11
256.0625750957793
 21
166.2810136879595
 31
0.0
  0
ARC
  5
FB8
330
18
100
AcDbEntity
  8
1
  6
Continuous
100
AcDbCircle
 10
57.16793574874151
 20
139.7244109564415
 30
0.0
 40
2.0
100
AcDbArc
 50
290.3804632390564
 51
73.92265032209535
  0
LINE
  5
FB9
330
18
100
AcDbEntity
  8
4
  6
CENTER
 48
0.1
100
AcDbLine
 10
54.16793574874152
 20
139.7244109564417
 30
0.0
 11
60.16793574874151
 21
139.7244109564413
 31
0.0
  0
LINE
  5
FBB
330
18
100
AcDbEntity
  8
4
  6
CENTER
 48
0.1
100
AcDbLine
 10
57.16793574874134
 20
136.7244109564415
 30
0.0
 11
57.16793574874168
 21
142.7244109564415
 31
0.0
  0
LINE
  5
FE8
330
18
100
AcDbEntity
  8
4
  6
CENTER
 48
0.1
100
AcDbLine
 10
254.433847867349
 20
136.7244109564415
 30
0.0
 11
254.4338478673487
 21
142.7244109564415
 31
0.0
  0
LINE
  5
FE9
330
18
100
AcDbEntity
  8
4
  6
CENTER
 48
0.1
100
AcDbLine
 10
257.4338478673488
 20
139.7244109564417
 30
0.0
 11
251.4338478673489
 21
139.7244109564413
 31
0.0
  0
ARC
  5
FEA
330
18
100
AcDbEntity
  8
1
  6
Continuous
100
AcDbCircle
 10
254.4338478673489
 20
139.7244109564415
 30
0.0
 40
2.0
100
AcDbArc
 50
106.0773496779046
 51
249.6195367609435
  0
LINE
  5
1156
330
18
100
AcDbEntity
  8
1
  6
Continuous
100
AcDbLine
 10
337.5315993392125
 20
154.5707532508077
 30
0.0
 11
337.5315993391958
 21
163.0050520625212
 31
0.0
  0
LINE
  5
1157
330
18
100
AcDbEntity
  8
1
  6
Continuous
100
AcDbLine
 10
368.0315993391468
 20
153.531933377056
 30
0.0
 11
367.8974456114659
 21
154.7244109564419
 31
0.0
  0
ARC
  5
1158
330
18
100
AcDbEntity
  8
1
  6
Continuous
100
AcDbCircle
 10
372.0315993391773
 20
153.3781484401774
 30
0.0
 40
0.6
100
AcDbArc
 50
276.4187867302389
 51
96.41878673023654
  0
ARC
  5
1159
330
18
100
AcDbEntity
  8
1
  6
Continuous
100
AcDbCircle
 10
364.0315993391773
 20
153.6857183139322
 30
0.0
 40
0.6000000000000001
100
AcDbArc
 50
96.41878673023953
 51
276.4187867302394
  0
LINE
  5
115A
330
18
100
AcDbEntity
  8
1
  6
Continuous
100
AcDbLine
 10
363.9645224753366
 20
153.0743872298728
 30
0.0
 11
371.9645224753367
 21
153.9743872298727
 31
0.0
  0
LINE
  5
115B
330
18
100
AcDbEntity
  8
1
  6
Continuous
100
AcDbLine
 10
339.0315993392196
 20
163.005052062518
 30
0.0
 11
339.0315993392195
 21
153.5319333770537
 31
0.0
  0
LINE
  5
115C
330
18
100
AcDbEntity
  8
1
  6
Continuous
100
AcDbLine
 10
368.0315993391675
 20
163.005052062518
 30
0.0
 11
368.0315993391675
 21
153.5319333770537
 31
0.0
  0
LINE
  5
115D
330
18
100
AcDbEntity
  8
1
  6
Continuous
100
AcDbLine
 10
366.5315993391873
 20
157.8739691189217
 30
0.0
 11
366.5315993391874
 21
154.5707532508106
 31
0.0
  0
LINE
  5
115E
330
18
100
AcDbEntity
  8
1
  6
Continuous
100
AcDbLine
 10
339.0315993391987
 20
153.531933377056
 30
0.0
 11
338.8974456115179
 21
154.7244109564419
 31
0.0
  0
ARC
  5
115F
330
18
100
AcDbEntity
  8
1
  6
Continuous
100
AcDbCircle
 10
335.0315993392295
 20
153.6857183139322
 30
0.0
 40
0.6000000000000001
100
AcDbArc
 50
96.41878673023953
 51
276.4187867302394
  0
LINE
  5
1160
330
18
100
AcDbEntity
  8
1
  6
Continuous
100
AcDbLine
 10
334.9645224753887
 20
153.0743872298728
 30
0.0
 11
342.9645224753887
 21
153.9743872298727
 31
0.0
  0
ARC
  5
1161
330
18
100
AcDbEntity
  8
1
  6
Continuous
100
AcDbCircle
 10
343.0315993392294
 20
153.3781484401774
 30
0.0
 40
0.6
100
AcDbArc
 50
276.4187867302389
 51
96.41878673023654
  0
ARC
  5
1163
330
18
100
AcDbEntity
  8
1
  6
Continuous
100
AcDbCircle
 10
364.0315993391773
 20
152.4781484401775
 30
0.0
 40
0.6
100
AcDbArc
 50
96.41878673023789
 51
276.4187867302375
  0
ARC
  5
1164
330
18
100
AcDbEntity
  8
1
  6
Continuous
100
AcDbCircle
 10
364.0315993391773
 20
146.6781484401776
 30
0.0
 40
0.6
100
AcDbArc
 50
95.1782847042986
 51
275.1782847042985
  0
ARC
  5
1165
330
18
100
AcDbEntity
  8
1
  6
Continuous
100
AcDbCircle
 10
364.0315993391773
 20
148.1281484401776
 30
0.0
 40
0.6
100
AcDbArc
 50
95.1782847042986
 51
275.1782847042985
  0
ARC
  5
1166
330
18
100
AcDbEntity
  8
1
  6
Continuous
100
AcDbCircle
 10
364.0315993391773
 20
151.0281484401776
 30
0.0
 40
0.6
100
AcDbArc
 50
95.1782847042986
 51
275.1782847042985
  0
ARC
  5
1167
330
18
100
AcDbEntity
  8
1
  6
Continuous
100
AcDbCircle
 10
364.0315993391773
 20
149.5781484401776
 30
0.0
 40
0.6
100
AcDbArc
 50
95.17828470429837
 51
275.1782847042985
  0
ARC
  5
1168
330
18
100
AcDbEntity
  8
1
  6
Continuous
100
AcDbCircle
 10
364.0315993391775
 20
145.4781484401776
 30
0.0
 40
0.6
100
AcDbArc
 50
92.09939940005163
 51
272.0993994000517
  0
LINE
  5
1169
330
18
100
AcDbEntity
  8
4
  6
CENTER
 48
0.2
100
AcDbLine
 10
367.4143710665553
 20
129.7244109564509
 30
0.0
 11
339.7742933453145
 21
129.7244109564231
 31
0.0
  0
ARC
  5
116A
330
18
100
AcDbEntity
  8
1
  6
Continuous
100
AcDbCircle
 10
341.0315993391881
 20
133.2244109564072
 30
0.0
 40
2.5
100
AcDbArc
 50
0.000000000000007
 51
34.36744340927489
  0
LINE
  5
116B
330
18
100
AcDbEntity
  8
1
  6
Continuous
100
AcDbLine
 10
343.5315993391881
 20
126.7244109564277
 30
0.0
 11
342.0315993391881
 21
126.7244109564277
 31
0.0
  0
LINE
  5
116E
330
18
100
AcDbEntity
  8
4
  6
CENTER
 48
0.2
100
AcDbLine
 10
353.5315993391936
 20
145.6750880587233
 30
0.0
 11
353.5315993392498
 21
103.1727744299161
 31
0.0
  0
LINE
  5
116F
330
18
100
AcDbEntity
  8
1
  6
Continuous
100
AcDbLine
 10
361.5315993392346
 20
142.7244109564457
 30
0.0
 11
361.531599339301
 21
106.2244109564449
 31
0.0
  0
LINE
  5
1170
330
18
100
AcDbEntity
  8
1
  6
Continuous
100
AcDbLine
 10
345.5315993392342
 20
142.7244109564296
 30
0.0
 11
345.531599339301
 21
106.2244109564272
 31
0.0
  0
LINE
  5
1172
330
18
100
AcDbEntity
  8
1
  6
Continuous
100
AcDbLine
 10
346.531599339302
 20
105.224410956429
 30
0.0
 11
360.531599339302
 21
105.2244109564431
 31
0.0
  0
ARC
  5
1173
330
18
100
AcDbEntity
  8
1
  6
Continuous
100
AcDbCircle
 10
360.531599339301
 20
106.2244109564431
 30
0.0
 40
1.0
100
AcDbArc
 50
269.9999999999999
 51
0.000000000000007
  0
ARC
  5
1174
330
18
100
AcDbEntity
  8
1
  6
Continuous
100
AcDbCircle
 10
346.531599339301
 20
106.224410956429
 30
0.0
 40
1.0
100
AcDbArc
 50
180.0
 51
269.9999999999999
  0
CIRCLE
  5
117D
330
18
100
AcDbEntity
  8
1
  6
Continuous
100
AcDbCircle
 10
353.5315993392272
 20
130.7244109564165
 30
0.0
 40
2.25
  0
LINE
  5
117E
330
18
100
AcDbEntity
  8
1
  6
Continuous
100
AcDbLine
 10
365.031599339188
 20
133.2244109564029
 30
0.0
 11
365.0315993391882
 21
126.7244109564285
 31
0.0
  0
LINE
  5
117F
330
18
100
AcDbEntity
  8
1
  6
Continuous
100
AcDbLine
 10
363.531599339188
 20
133.2244109564048
 30
0.0
 11
363.5315993391882
 21
126.7244109564284
 31
0.0
  0
LINE
  5
1180
330
18
100
AcDbEntity
  8
1
  6
Continuous
100
AcDbLine
 10
343.5315993391881
 20
133.224410956404
 30
0.0
 11
343.5315993391881
 21
126.7244109564276
 31
0.0
  0
LINE
  5
1181
330
18
100
AcDbEntity
  8
1
  6
Continuous
100
AcDbLine
 10
344.5315993392337
 20
142.7244109564136
 30
0.0
 11
344.5315993392908
 21
111.724410956446
 31
0.0
  0
LINE
  5
1182
330
18
100
AcDbEntity
  8
1
  6
Continuous
100
AcDbLine
 10
362.5315993392337
 20
142.7244109564467
 30
0.0
 11
362.531599339291
 21
111.7244109564804
 31
0.0
  0
LINE
  5
1183
330
18
100
AcDbEntity
  8
1
  6
Continuous
100
AcDbLine
 10
345.781599339404
 20
111.7244109563451
 30
0.0
 11
361.2815993394041
 21
111.7244109563608
 31
0.0
  0
LINE
  5
1184
330
18
100
AcDbEntity
  8
1
  6
Continuous
100
AcDbLine
 10
361.5315993392908
 20
111.7244109564784
 30
0.0
 11
362.531599339291
 21
111.7244109564804
 31
0.0
  0
LINE
  5
1187
330
18
100
AcDbEntity
  8
1
  6
Continuous
100
AcDbLine
 10
365.531599339188
 20
131.4744109564284
 30
0.0
 11
365.5315993391882
 21
127.9744109564284
 31
0.0
  0
LINE
  5
1188
330
18
100
AcDbEntity
  8
1
  6
Continuous
100
AcDbLine
 10
363.5315993391882
 20
131.4744109564282
 30
0.0
 11
362.5315993392545
 21
131.4744109564282
 31
0.0
  0
LINE
  5
1189
330
18
100
AcDbEntity
  8
1
  6
Continuous
100
AcDbLine
 10
363.5315993391882
 20
127.9744109564282
 30
0.0
 11
362.531599339261
 21
127.9744109564281
 31
0.0
  0
LINE
  5
118A
330
18
100
AcDbEntity
  8
1
  6
Continuous
100
AcDbLine
 10
365.5315993391882
 20
127.9744109564284
 30
0.0
 11
365.031599339227
 21
127.9744109564284
 31
0.0
  0
LINE
  5
118B
330
18
100
AcDbEntity
  8
1
  6
Continuous
100
AcDbLine
 10
365.531599339188
 20
131.4744109564284
 30
0.0
 11
365.0315993392233
 21
131.4744109564284
 31
0.0
  0
LINE
  5
118C
330
18
100
AcDbEntity
  8
1
  6
Continuous
100
AcDbLine
 10
363.8744844162663
 20
131.660902629532
 30
0.0
 11
364.7216981871687
 21
131.660902629532
 31
0.0
  0
LINE
  5
118D
330
18
100
AcDbEntity
  8
1
  6
Continuous
100
AcDbLine
 10
363.5315993391882
 20
126.7244109564283
 30
0.0
 11
365.0315993391882
 21
126.7244109564284
 31
0.0
  0
LINE
  5
118E
330
18
100
AcDbEntity
  8
4
  6
CENTER
 48
0.1
100
AcDbLine
 10
357.7815993392259
 20
117.7244109564207
 30
0.0
 11
349.2815993392259
 21
117.7244109564121
 31
0.0
  0
CIRCLE
  5
118F
330
18
100
AcDbEntity
  8
1
  6
Continuous
100
AcDbCircle
 10
353.5315993392259
 20
117.7244109564165
 30
0.0
 40
2.25
  0
LINE
  5
1190
330
18
100
AcDbEntity
  8
1
  6
Continuous
100
AcDbLine
 10
344.531599339291
 20
111.7244109564459
 30
0.0
 11
345.531599339291
 21
111.7244109564478
 31
0.0
  0
LINE
  5
1191
330
18
100
AcDbEntity
  8
4
  6
CENTER
 48
0.1
100
AcDbLine
 10
357.7815993392272
 20
130.7244109564206
 30
0.0
 11
349.2815993392272
 21
130.7244109564121
 31
0.0
  0
LINE
  5
1194
330
18
100
AcDbEntity
  8
1
  6
Continuous
100
AcDbLine
 10
345.781599339329
 20
131.4744109564281
 30
0.0
 11
345.5315993392549
 21
131.4744109564281
 31
0.0
  0
LINE
  5
1195
330
18
100
AcDbEntity
  8
1
  6
Continuous
100
AcDbLine
 10
345.7815993393422
 20
127.9744109564281
 30
0.0
 11
345.5315993392612
 21
127.9744109564281
 31
0.0
  0
LINE
  5
1197
330
18
100
AcDbEntity
  8
4
  6
CENTER
 48
0.2
100
AcDbLine
 10
343.2315993392393
 20
139.7244109564262
 30
0.0
 11
363.8315993392394
 21
139.7244109564414
 31
0.0
  0
LINE
  5
1198
330
18
100
AcDbEntity
  8
1
  6
Continuous
100
AcDbLine
 10
345.5315993392435
 20
137.7244109564147
 30
0.0
 11
345.7815993393053
 21
137.7244109564148
 31
0.0
  0
LINE
  5
1199
330
18
100
AcDbEntity
  8
1
  6
Continuous
100
AcDbLine
 10
345.7815993392864
 20
142.724410956431
 30
0.0
 11
361.2815993392863
 21
142.7244109564466
 31
0.0
  0
LINE
  5
119A
330
18
100
AcDbEntity
  8
1
  6
Continuous
100
AcDbLine
 10
369.5315993391485
 20
141.4007496528105
 30
0.0
 11
369.5315993391559
 21
145.0793635500604
 31
0.0
  0
LINE
  5
119B
330
18
100
AcDbEntity
  8
1
  6
Continuous
100
AcDbLine
 10
368.0315993391677
 20
145.0243767917831
 30
0.0
 11
368.0315993391677
 21
138.6934869161052
 31
0.0
  0
LINE
  5
119C
330
18
100
AcDbEntity
  8
1
  6
Continuous
100
AcDbLine
 10
366.5315993391875
 20
144.9693900335061
 30
0.0
 11
366.5315993391875
 21
138.6934869161052
 31
0.0
  0
ARC
  5
119D
330
18
100
AcDbEntity
  8
1
  6
Continuous
100
AcDbCircle
 10
365.5315993391877
 20
138.6934869161052
 30
0.0
 40
1.0
100
AcDbArc
 50
325.6325565907261
 51
0.0000000000012283
  0
LINE
  5
119E
330
18
100
AcDbEntity
  8
1
  6
Continuous
100
AcDbLine
 10
367.595185315286
 20
137.28224174986
 30
0.0
 11
365.2061649487486
 21
133.7889090229061
 31
0.0
  0
LINE
  5
119F
330
18
100
AcDbEntity
  8
1
  6
Continuous
100
AcDbLine
 10
368.0315993391677
 20
141.400749652809
 30
0.0
 11
369.5315993391677
 21
141.4007496528105
 31
0.0
  0
ARC
  5
11A0
330
18
100
AcDbEntity
  8
1
  6
Continuous
100
AcDbCircle
 10
365.5315993391877
 20
138.6934869161052
 30
0.0
 40
2.5
100
AcDbArc
 50
325.6325565907261
 51
0.0000000000012283
  0
LINE
  5
11A1
330
18
100
AcDbEntity
  8
1
  6
Continuous
100
AcDbLine
 10
362.5315993392355
 20
141.7244109564454
 30
0.0
 11
362.8315993392358
 21
141.7244109564455
 31
0.0
  0
LINE
  5
11A2
330
18
100
AcDbEntity
  8
1
  6
Continuous
100
AcDbLine
 10
362.8315993392356
 20
141.7244109564455
 30
0.0
 11
362.8315993392429
 21
137.7244109564213
 31
0.0
  0
ARC
  5
11A3
330
18
100
AcDbEntity
  8
1
  6
Continuous
100
AcDbCircle
 10
366.031599339188
 20
133.2244109564081
 30
0.0
 40
2.5
100
AcDbArc
 50
145.6325565907265
 51
180.0000000000012
  0
LINE
  5
11A4
330
18
100
AcDbEntity
  8
1
  6
Continuous
100
AcDbLine
 10
366.3570337296272
 20
138.1289888496071
 30
0.0
 11
363.9680133630896
 21
134.6356561226532
 31
0.0
  0
ARC
  5
11A5
330
18
100
AcDbEntity
  8
1
  6
Continuous
100
AcDbCircle
 10
366.031599339188
 20
133.2244109564081
 30
0.0
 40
1.0
100
AcDbArc
 50
145.6325565907265
 51
180.0000000000012
  0
LINE
  5
11A6
330
18
100
AcDbEntity
  8
1
  6
Continuous
100
AcDbLine
 10
361.2815993392922
 20
141.2244109564437
 30
0.0
 11
361.5315993392366
 21
141.2244109564441
 31
0.0
  0
LINE
  5
11A7
330
18
100
AcDbEntity
  8
1
  6
Continuous
100
AcDbLine
 10
361.2815993393035
 20
138.2244109564437
 30
0.0
 11
361.5315993392421
 21
138.2244109564441
 31
0.0
  0
LINE
  5
11A9
330
18
100
AcDbEntity
  8
1
  6
Continuous
100
AcDbLine
 10
361.5315993392337
 20
142.7244109564457
 30
0.0
 11
362.5315993392337
 21
142.7244109564467
 31
0.0
  0
LINE
  5
11AB
330
18
100
AcDbEntity
  8
1
  6
Continuous
100
AcDbLine
 10
361.2815993392863
 20
142.7244109564466
 30
0.0
 11
361.2815993394041
 21
111.7244109563608
 31
0.0
  0
LINE
  5
11AC
330
18
100
AcDbEntity
  8
1
  6
Continuous
100
AcDbLine
 10
343.0986762030702
 20
152.7819096504821
 30
0.0
 11
335.0986762030702
 21
151.8819096504822
 31
0.0
  0
LINE
  5
11AD
330
18
100
AcDbEntity
  8
1
  6
Continuous
100
AcDbLine
 10
335.0096193992508
 20
146.0777457068813
 30
0.0
 11
343.0096193992386
 21
146.3710084176954
 31
0.0
  0
LINE
  5
11AE
330
18
100
AcDbEntity
  8
1
  6
Continuous
100
AcDbLine
 10
335.0535792792083
 20
144.8785511734739
 30
0.0
 11
343.0535792791963
 21
145.171813884288
 31
0.0
  0
LINE
  5
11AF
330
18
100
AcDbEntity
  8
1
  6
Continuous
100
AcDbLine
 10
335.0857524172993
 20
146.0805972338902
 30
0.0
 11
343.0857524172993
 21
146.8055972338902
 31
0.0
  0
LINE
  5
11B0
330
18
100
AcDbEntity
  8
1
  6
Continuous
100
AcDbLine
 10
342.9774462611597
 20
148.000699646465
 30
0.0
 11
334.9774462611597
 21
147.275699646465
 31
0.0
  0
LINE
  5
11B1
330
18
100
AcDbEntity
  8
1
  6
Continuous
100
AcDbLine
 10
335.0857524172993
 20
147.5305972338901
 30
0.0
 11
343.0857524172993
 21
148.2555972338902
 31
0.0
  0
LINE
  5
11B2
330
18
100
AcDbEntity
  8
1
  6
Continuous
100
AcDbLine
 10
334.9774462611597
 20
148.7256996464649
 30
0.0
 11
342.9774462611597
 21
149.4506996464649
 31
0.0
  0
LINE
  5
11B3
330
18
100
AcDbEntity
  8
1
  6
Continuous
100
AcDbLine
 10
335.0857524172993
 20
148.9805972338901
 30
0.0
 11
343.0857524172993
 21
149.7055972338901
 31
0.0
  0
LINE
  5
11B4
330
18
100
AcDbEntity
  8
1
  6
Continuous
100
AcDbLine
 10
334.9774462611597
 20
150.175699646465
 30
0.0
 11
342.9774462611597
 21
150.900699646465
 31
0.0
  0
LINE
  5
11B5
330
18
100
AcDbEntity
  8
1
  6
Continuous
100
AcDbLine
 10
335.0857524172993
 20
150.4305972338901
 30
0.0
 11
343.0857524172993
 21
151.1555972338901
 31
0.0
  0
LINE
  5
11B6
330
18
100
AcDbEntity
  8
1
  6
Continuous
100
AcDbLine
 10
334.9774462611597
 20
151.625699646465
 30
0.0
 11
342.9774462611597
 21
152.350699646465
 31
0.0
  0
LINE
  5
11B7
330
18
100
AcDbEntity
  8
1
  6
Continuous
100
AcDbLine
 10
339.0315993391762
 20
144.4748674102151
 30
0.0
 11
337.5315993391764
 21
144.4748674102166
 31
0.0
  0
LINE
  5
11B8
330
18
100
AcDbEntity
  8
1
  6
Continuous
100
AcDbLine
 10
337.5315993392291
 20
146.1701960411085
 30
0.0
 11
337.5315993392289
 21
146.30225211119
 31
0.0
  0
LINE
  5
11B9
330
18
100
AcDbEntity
  8
1
  6
Continuous
100
AcDbLine
 10
337.5315993392264
 20
147.5071697691648
 30
0.0
 11
337.5315993392259
 21
147.7522521111897
 31
0.0
  0
LINE
  5
11BA
330
18
100
AcDbEntity
  8
1
  6
Continuous
100
AcDbLine
 10
337.5315993392236
 20
148.9571697691646
 30
0.0
 11
337.5315993392232
 21
149.2022521111895
 31
0.0
  0
LINE
  5
11BB
330
18
100
AcDbEntity
  8
1
  6
Continuous
100
AcDbLine
 10
337.5315993392207
 20
150.4071697691643
 30
0.0
 11
337.5315993392202
 21
150.6522521111892
 31
0.0
  0
LINE
  5
11BC
330
18
100
AcDbEntity
  8
1
  6
Continuous
100
AcDbLine
 10
337.5315993392178
 20
151.857169769164
 30
0.0
 11
337.5315993392173
 21
152.1556135032987
 31
0.0
  0
LINE
  5
11BD
330
18
100
AcDbEntity
  8
1
  6
Continuous
100
AcDbLine
 10
339.0315993392196
 20
152.324363503299
 30
0.0
 11
339.0315993392196
 21
151.9931072691641
 31
0.0
  0
LINE
  5
11BE
330
18
100
AcDbEntity
  8
1
  6
Continuous
100
AcDbLine
 10
339.0315993392194
 20
150.7881896111892
 30
0.0
 11
339.0315993392194
 21
150.5431072691641
 31
0.0
  0
LINE
  5
11BF
330
18
100
AcDbEntity
  8
1
  6
Continuous
100
AcDbLine
 10
339.0315993392194
 20
149.3381896111892
 30
0.0
 11
339.0315993392194
 21
149.0931072691642
 31
0.0
  0
LINE
  5
11C0
330
18
100
AcDbEntity
  8
1
  6
Continuous
100
AcDbLine
 10
339.0315993392194
 20
147.8881896111892
 30
0.0
 11
339.0315993392194
 21
147.6431072691642
 31
0.0
  0
LINE
  5
11C1
330
18
100
AcDbEntity
  8
1
  6
Continuous
100
AcDbLine
 10
339.0315993392194
 20
146.4381896111892
 30
0.0
 11
339.0315993392194
 21
146.2251827993859
 31
0.0
  0
LINE
  5
11C2
330
18
100
AcDbEntity
  8
1
  6
Continuous
100
AcDbLine
 10
340.5315993391996
 20
146.5741271111874
 30
0.0
 11
340.5315993391996
 21
146.2801695576629
 31
0.0
  0
LINE
  5
11C3
330
18
100
AcDbEntity
  8
1
  6
Continuous
100
AcDbLine
 10
340.5315993391996
 20
148.0241271111874
 30
0.0
 11
340.5315993391996
 21
147.7790447691624
 31
0.0
  0
LINE
  5
11C4
330
18
100
AcDbEntity
  8
1
  6
Continuous
100
AcDbLine
 10
340.5315993391996
 20
149.4741271111874
 30
0.0
 11
340.5315993391996
 21
149.2290447691624
 31
0.0
  0
LINE
  5
11C5
330
18
100
AcDbEntity
  8
1
  6
Continuous
100
AcDbLine
 10
340.5315993391996
 20
150.9241271111874
 30
0.0
 11
340.5315993391996
 21
150.6790447691624
 31
0.0
  0
LINE
  5
11C6
330
18
100
AcDbEntity
  8
1
  6
Continuous
100
AcDbLine
 10
340.5315993391996
 20
152.4931135032967
 30
0.0
 11
340.5315993391996
 21
152.1290447691623
 31
0.0
  0
LINE
  5
11C7
330
18
100
AcDbEntity
  8
1
  6
Continuous
100
AcDbLine
 10
337.531599339232
 20
144.6900235065257
 30
0.0
 11
334.9869732608601
 21
144.8798103140905
 31
0.0
  0
LINE
  5
11C8
330
18
100
AcDbEntity
  8
1
  6
Continuous
100
AcDbLine
 10
334.9774462611597
 20
148.9805972338901
 30
0.0
 11
336.3837777779882
 21
148.8531484401775
 31
0.0
  0
LINE
  5
11C9
330
18
100
AcDbEntity
  8
1
  6
Continuous
100
AcDbLine
 10
334.9774462611597
 20
147.5305972338901
 30
0.0
 11
336.3837777779882
 21
147.4031484401776
 31
0.0
  0
ARC
  5
11CA
330
18
100
AcDbEntity
  8
1
  6
Continuous
100
AcDbCircle
 10
335.0315993392295
 20
152.4781484401775
 30
0.0
 40
0.6
100
AcDbArc
 50
96.41878673023789
 51
276.4187867302375
  0
ARC
  5
11CB
330
18
100
AcDbEntity
  8
1
  6
Continuous
100
AcDbCircle
 10
335.0315993392295
 20
146.6781484401776
 30
0.0
 40
0.6
100
AcDbArc
 50
95.1782847042986
 51
275.1782847042985
  0
ARC
  5
11CC
330
18
100
AcDbEntity
  8
1
  6
Continuous
100
AcDbCircle
 10
335.0315993392295
 20
148.1281484401776
 30
0.0
 40
0.6
100
AcDbArc
 50
95.1782847042986
 51
275.1782847042985
  0
ARC
  5
11CD
330
18
100
AcDbEntity
  8
1
  6
Continuous
100
AcDbCircle
 10
335.0315993392295
 20
149.5781484401776
 30
0.0
 40
0.6
100
AcDbArc
 50
95.17828470429837
 51
275.1782847042985
  0
ARC
  5
11CE
330
18
100
AcDbEntity
  8
1
  6
Continuous
100
AcDbCircle
 10
335.0315993392295
 20
151.0281484401776
 30
0.0
 40
0.6
100
AcDbArc
 50
95.1782847042986
 51
275.1782847042985
  0
ARC
  5
11CF
330
18
100
AcDbEntity
  8
1
  6
Continuous
100
AcDbCircle
 10
335.0315993392296
 20
145.4781484401776
 30
0.0
 40
0.6
100
AcDbArc
 50
92.09939940005163
 51
272.0993994000517
  0
LINE
  5
11D0
330
18
100
AcDbEntity
  8
1
  6
Continuous
100
AcDbLine
 10
336.3837777779882
 20
151.7531484401775
 30
0.0
 11
334.9774462611597
 21
151.8805972338901
 31
0.0
  0
LINE
  5
11D1
330
18
100
AcDbEntity
  8
1
  6
Continuous
100
AcDbLine
 10
336.3837777779878
 20
150.3031484401776
 30
0.0
 11
334.9774462611597
 21
150.4305972338901
 31
0.0
  0
LINE
  5
11D2
330
18
100
AcDbEntity
  8
1
  6
Continuous
100
AcDbLine
 10
341.6794209004708
 20
148.1281484401776
 30
0.0
 11
343.0857524172993
 21
148.000699646465
 31
0.0
  0
LINE
  5
11D3
330
18
100
AcDbEntity
  8
1
  6
Continuous
100
AcDbLine
 10
340.9457889439501
 20
146.6116630441179
 30
0.0
 11
343.0991719868061
 21
146.3675939562603
 31
0.0
  0
ARC
  5
11D4
330
18
100
AcDbEntity
  8
1
  6
Continuous
100
AcDbCircle
 10
343.0315993392294
 20
148.8531484401776
 30
0.0
 40
0.6
100
AcDbArc
 50
275.1782847042972
 51
95.17828470429725
  0
ARC
  5
11D5
330
18
100
AcDbEntity
  8
1
  6
Continuous
100
AcDbCircle
 10
343.0315993392294
 20
150.3031484401776
 30
0.0
 40
0.6
100
AcDbArc
 50
275.1782847042975
 51
95.17828470429725
  0
ARC
  5
11D6
330
18
100
AcDbEntity
  8
1
  6
Continuous
100
AcDbCircle
 10
343.0315993392294
 20
151.7531484401775
 30
0.0
 40
0.6
100
AcDbArc
 50
275.1782847042972
 51
95.17828470429725
  0
ARC
  5
11D7
330
18
100
AcDbEntity
  8
1
  6
Continuous
100
AcDbCircle
 10
343.0315993392294
 20
147.4031484401776
 30
0.0
 40
0.6
100
AcDbArc
 50
275.1782847042972
 51
95.17828470429725
  0
ARC
  5
11D8
330
18
100
AcDbEntity
  8
1
  6
Continuous
100
AcDbCircle
 10
343.0315993392174
 20
145.7714111509917
 30
0.0
 40
0.6
100
AcDbArc
 50
272.0993994000516
 51
92.09939940005176
  0
LINE
  5
11D9
330
18
100
AcDbEntity
  8
1
  6
Continuous
100
AcDbLine
 10
340.9700301865648
 20
152.5424369736253
 30
0.0
 11
343.0857524172993
 21
152.350699646465
 31
0.0
  0
LINE
  5
11DA
330
18
100
AcDbEntity
  8
1
  6
Continuous
100
AcDbLine
 10
341.6794209004708
 20
151.0281484401776
 30
0.0
 11
343.0857524172993
 21
150.900699646465
 31
0.0
  0
LINE
  5
11DB
330
18
100
AcDbEntity
  8
1
  6
Continuous
100
AcDbLine
 10
341.6794209004708
 20
149.5781484401776
 30
0.0
 11
343.0857524172993
 21
149.4506996464649
 31
0.0
  0
LINE
  5
11DC
330
18
100
AcDbEntity
  8
1
  6
Continuous
100
AcDbLine
 10
344.531599339243
 20
137.7244109564142
 30
0.0
 11
344.2315993392437
 21
137.7244109564142
 31
0.0
  0
LINE
  5
11DD
330
18
100
AcDbEntity
  8
1
  6
Continuous
100
AcDbLine
 10
344.5315993392254
 20
141.7244109564364
 30
0.0
 11
344.2315993392357
 21
141.7244109564365
 31
0.0
  0
LINE
  5
11DE
330
18
100
AcDbEntity
  8
1
  6
Continuous
100
AcDbLine
 10
344.2315993392357
 20
141.7244109564365
 30
0.0
 11
344.2315993392428
 21
137.7244109564142
 31
0.0
  0
LINE
  5
11DF
330
18
100
AcDbEntity
  8
1
  6
Continuous
100
AcDbLine
 10
345.5315993392365
 20
141.2244109564238
 30
0.0
 11
345.781599339292
 21
141.2244109564241
 31
0.0
  0
LINE
  5
11E0
330
18
100
AcDbEntity
  8
1
  6
Continuous
100
AcDbLine
 10
345.531599339242
 20
138.2244109564238
 30
0.0
 11
345.7815993393035
 21
138.2244109564241
 31
0.0
  0
LINE
  5
11E2
330
18
100
AcDbEntity
  8
1
  6
Continuous
100
AcDbLine
 10
344.5315993392337
 20
142.7244109564286
 30
0.0
 11
345.5315993392336
 21
142.7244109564296
 31
0.0
  0
LINE
  5
11E4
330
18
100
AcDbEntity
  8
1
  6
Continuous
100
AcDbLine
 10
345.7815993392864
 20
142.7244109563892
 30
0.0
 11
345.781599339404
 21
111.7244109563451
 31
0.0
  0
LINE
  5
11E5
330
18
100
AcDbEntity
  8
1
  6
Continuous
100
AcDbLine
 10
342.0315993391881
 20
133.224410956402
 30
0.0
 11
342.0315993391881
 21
126.7244109564277
 31
0.0
  0
LINE
  5
11E6
330
18
100
AcDbEntity
  8
1
  6
Continuous
100
AcDbLine
 10
341.5315993391881
 20
131.4744109564277
 30
0.0
 11
341.5315993391881
 21
127.9744109564277
 31
0.0
  0
LINE
  5
11E7
330
18
100
AcDbEntity
  8
1
  6
Continuous
100
AcDbLine
 10
342.0315993391881
 20
131.4744109564277
 30
0.0
 11
341.5315993391881
 21
131.4744109564277
 31
0.0
  0
LINE
  5
11E8
330
18
100
AcDbEntity
  8
1
  6
Continuous
100
AcDbLine
 10
342.0315993391881
 20
127.9744109564277
 30
0.0
 11
341.5315993391881
 21
127.9744109564277
 31
0.0
  0
LINE
  5
11E9
330
18
100
AcDbEntity
  8
1
  6
Continuous
100
AcDbLine
 10
343.1887142621097
 20
131.6609026295312
 30
0.0
 11
342.3415004912076
 21
131.6609026295312
 31
0.0
  0
LINE
  5
11EA
330
18
100
AcDbEntity
  8
1
  6
Continuous
100
AcDbLine
 10
340.5315993391996
 20
145.0793635500601
 30
0.0
 11
340.5315993391996
 21
138.6934869161052
 31
0.0
  0
LINE
  5
11EB
330
18
100
AcDbEntity
  8
1
  6
Continuous
100
AcDbLine
 10
337.5315993392386
 20
141.4007496528105
 30
0.0
 11
337.5315993392315
 21
144.9693900335058
 31
0.0
  0
LINE
  5
11EC
330
18
100
AcDbEntity
  8
1
  6
Continuous
100
AcDbLine
 10
339.0315993392194
 20
145.0243767917831
 30
0.0
 11
339.0315993392194
 21
138.6934869161052
 31
0.0
  0
LINE
  5
11ED
330
18
100
AcDbEntity
  8
1
  6
Continuous
100
AcDbLine
 10
339.0315993392194
 20
141.400749652809
 30
0.0
 11
337.5315993392195
 21
141.4007496528105
 31
0.0
  0
ARC
  5
11EE
330
18
100
AcDbEntity
  8
1
  6
Continuous
100
AcDbCircle
 10
341.5315993392117
 20
138.6934869161052
 30
0.0
 40
2.5
100
AcDbArc
 50
179.9999999999987
 51
214.3674434092738
  0
ARC
  5
11EF
330
18
100
AcDbEntity
  8
1
  6
Continuous
100
AcDbCircle
 10
341.5315993392117
 20
138.6934869161052
 30
0.0
 40
1.0
100
AcDbArc
 50
179.9999999999987
 51
214.3674434092738
  0
LINE
  5
11F0
330
18
100
AcDbEntity
  8
1
  6
Continuous
100
AcDbLine
 10
340.7061649487487
 20
138.1289888496064
 30
0.0
 11
343.0951853152864
 21
134.6356561226525
 31
0.0
  0
LINE
  5
11F1
330
18
100
AcDbEntity
  8
1
  6
Continuous
100
AcDbLine
 10
339.4680133630897
 20
137.2822417498592
 30
0.0
 11
341.8570337296273
 21
133.7889090229054
 31
0.0
  0
ARC
  5
11F2
330
18
100
AcDbEntity
  8
1
  6
Continuous
100
AcDbCircle
 10
341.0315993391881
 20
133.2244109564072
 30
0.0
 40
1.0
100
AcDbArc
 50
0.000000000000007
 51
34.36744340927489
  0
LINE
  5
11F3
330
18
100
AcDbEntity
  8
1
  6
Continuous
100
AcDbLine
 10
369.945788943898
 20
146.6116630441179
 30
0.0
 11
372.099171986754
 21
146.3675939562603
 31
0.0
  0
LINE
  5
11F4
330
18
100
AcDbEntity
  8
1
  6
Continuous
100
AcDbLine
 10
369.9700301865127
 20
152.5424369736253
 30
0.0
 11
372.0857524172471
 21
152.350699646465
 31
0.0
  0
LINE
  5
11F5
330
18
100
AcDbEntity
  8
1
  6
Continuous
100
AcDbLine
 10
370.6794209004188
 20
148.1281484401776
 30
0.0
 11
372.0857524172471
 21
148.000699646465
 31
0.0
  0
LINE
  5
11F6
330
18
100
AcDbEntity
  8
1
  6
Continuous
100
AcDbLine
 10
370.6794209004188
 20
151.0281484401776
 30
0.0
 11
372.0857524172471
 21
150.900699646465
 31
0.0
  0
LINE
  5
11F7
330
18
100
AcDbEntity
  8
1
  6
Continuous
100
AcDbLine
 10
370.6794209004186
 20
149.5781484401776
 30
0.0
 11
372.0857524172471
 21
149.4506996464649
 31
0.0
  0
ARC
  5
11F8
330
18
100
AcDbEntity
  8
1
  6
Continuous
100
AcDbCircle
 10
372.0315993391653
 20
145.7714111509917
 30
0.0
 40
0.6
100
AcDbArc
 50
272.0993994000516
 51
92.09939940005176
  0
LINE
  5
11F9
330
18
100
AcDbEntity
  8
1
  6
Continuous
100
AcDbLine
 10
372.0986762030181
 20
152.7819096504821
 30
0.0
 11
364.0986762030181
 21
151.8819096504822
 31
0.0
  0
LINE
  5
11FA
330
18
100
AcDbEntity
  8
1
  6
Continuous
100
AcDbLine
 10
364.0096193991987
 20
146.0777457068813
 30
0.0
 11
372.0096193991865
 21
146.3710084176954
 31
0.0
  0
LINE
  5
11FB
330
18
100
AcDbEntity
  8
1
  6
Continuous
100
AcDbLine
 10
364.0535792791563
 20
144.8785511734739
 30
0.0
 11
372.0535792791441
 21
145.171813884288
 31
0.0
  0
LINE
  5
11FC
330
18
100
AcDbEntity
  8
1
  6
Continuous
100
AcDbLine
 10
364.0857524172471
 20
146.0805972338902
 30
0.0
 11
372.0857524172471
 21
146.8055972338902
 31
0.0
  0
LINE
  5
11FD
330
18
100
AcDbEntity
  8
1
  6
Continuous
100
AcDbLine
 10
371.9774462611076
 20
148.000699646465
 30
0.0
 11
363.9774462611075
 21
147.275699646465
 31
0.0
  0
LINE
  5
11FE
330
18
100
AcDbEntity
  8
1
  6
Continuous
100
AcDbLine
 10
364.0857524172471
 20
147.5305972338901
 30
0.0
 11
372.0857524172471
 21
148.2555972338902
 31
0.0
  0
LINE
  5
11FF
330
18
100
AcDbEntity
  8
1
  6
Continuous
100
AcDbLine
 10
363.9774462611075
 20
148.7256996464649
 30
0.0
 11
371.9774462611076
 21
149.4506996464649
 31
0.0
  0
LINE
  5
1200
330
18
100
AcDbEntity
  8
1
  6
Continuous
100
AcDbLine
 10
364.0857524172471
 20
148.9805972338901
 30
0.0
 11
372.0857524172471
 21
149.7055972338901
 31
0.0
  0
LINE
  5
1201
330
18
100
AcDbEntity
  8
1
  6
Continuous
100
AcDbLine
 10
363.9774462611075
 20
150.175699646465
 30
0.0
 11
371.9774462611076
 21
150.900699646465
 31
0.0
  0
LINE
  5
1202
330
18
100
AcDbEntity
  8
1
  6
Continuous
100
AcDbLine
 10
364.0857524172471
 20
150.4305972338901
 30
0.0
 11
372.0857524172471
 21
151.1555972338901
 31
0.0
  0
LINE
  5
1203
330
18
100
AcDbEntity
  8
1
  6
Continuous
100
AcDbLine
 10
363.9774462611075
 20
151.625699646465
 30
0.0
 11
371.9774462611076
 21
152.350699646465
 31
0.0
  0
LINE
  5
1204
330
18
100
AcDbEntity
  8
1
  6
Continuous
100
AcDbLine
 10
368.0315993392111
 20
144.4748674102151
 30
0.0
 11
369.531599339211
 21
144.4748674102166
 31
0.0
  0
LINE
  5
1205
330
18
100
AcDbEntity
  8
1
  6
Continuous
100
AcDbLine
 10
366.531599339177
 20
146.1701960411085
 30
0.0
 11
366.5315993391767
 21
146.30225211119
 31
0.0
  0
LINE
  5
1206
330
18
100
AcDbEntity
  8
1
  6
Continuous
100
AcDbLine
 10
366.5315993391744
 20
147.5071697691648
 30
0.0
 11
366.5315993391739
 21
147.7522521111897
 31
0.0
  0
LINE
  5
1207
330
18
100
AcDbEntity
  8
1
  6
Continuous
100
AcDbLine
 10
366.5315993391715
 20
148.9571697691646
 30
0.0
 11
366.531599339171
 21
149.2022521111895
 31
0.0
  0
LINE
  5
1208
330
18
100
AcDbEntity
  8
1
  6
Continuous
100
AcDbLine
 10
366.5315993391686
 20
150.4071697691643
 30
0.0
 11
366.5315993391681
 21
150.6522521111892
 31
0.0
  0
LINE
  5
1209
330
18
100
AcDbEntity
  8
1
  6
Continuous
100
AcDbLine
 10
366.5315993391657
 20
151.857169769164
 30
0.0
 11
366.5315993391651
 21
152.1556135032987
 31
0.0
  0
LINE
  5
120A
330
18
100
AcDbEntity
  8
1
  6
Continuous
100
AcDbLine
 10
368.0315993391674
 20
152.324363503299
 30
0.0
 11
368.0315993391674
 21
151.9931072691641
 31
0.0
  0
LINE
  5
120B
330
18
100
AcDbEntity
  8
1
  6
Continuous
100
AcDbLine
 10
368.0315993391674
 20
150.7881896111892
 30
0.0
 11
368.0315993391674
 21
150.5431072691641
 31
0.0
  0
LINE
  5
120C
330
18
100
AcDbEntity
  8
1
  6
Continuous
100
AcDbLine
 10
368.0315993391673
 20
149.3381896111892
 30
0.0
 11
368.0315993391673
 21
149.0931072691642
 31
0.0
  0
LINE
  5
120D
330
18
100
AcDbEntity
  8
1
  6
Continuous
100
AcDbLine
 10
368.0315993391674
 20
147.8881896111892
 30
0.0
 11
368.0315993391673
 21
147.6431072691642
 31
0.0
  0
LINE
  5
120E
330
18
100
AcDbEntity
  8
1
  6
Continuous
100
AcDbLine
 10
368.0315993391674
 20
146.4381896111892
 30
0.0
 11
368.0315993391674
 21
146.2251827993859
 31
0.0
  0
LINE
  5
120F
330
18
100
AcDbEntity
  8
1
  6
Continuous
100
AcDbLine
 10
369.5315993391476
 20
146.5741271111874
 30
0.0
 11
369.5315993391476
 21
146.2801695576629
 31
0.0
  0
LINE
  5
1210
330
18
100
AcDbEntity
  8
1
  6
Continuous
100
AcDbLine
 10
369.5315993391476
 20
148.0241271111874
 30
0.0
 11
369.5315993391475
 21
147.7790447691624
 31
0.0
  0
LINE
  5
1211
330
18
100
AcDbEntity
  8
1
  6
Continuous
100
AcDbLine
 10
369.5315993391476
 20
149.4741271111874
 30
0.0
 11
369.5315993391476
 21
149.2290447691624
 31
0.0
  0
LINE
  5
1212
330
18
100
AcDbEntity
  8
1
  6
Continuous
100
AcDbLine
 10
369.5315993391476
 20
150.9241271111874
 30
0.0
 11
369.5315993391476
 21
150.6790447691624
 31
0.0
  0
LINE
  5
1213
330
18
100
AcDbEntity
  8
1
  6
Continuous
100
AcDbLine
 10
369.5315993391476
 20
152.4931135032967
 30
0.0
 11
369.5315993391475
 21
152.1290447691623
 31
0.0
  0
LINE
  5
1214
330
18
100
AcDbEntity
  8
1
  6
Continuous
100
AcDbLine
 10
366.5315993391798
 20
144.6900235065257
 30
0.0
 11
363.986973260808
 21
144.8798103140905
 31
0.0
  0
LINE
  5
1215
330
18
100
AcDbEntity
  8
1
  6
Continuous
100
AcDbLine
 10
363.9774462611075
 20
148.9805972338901
 30
0.0
 11
365.3837777779358
 21
148.8531484401775
 31
0.0
  0
LINE
  5
1216
330
18
100
AcDbEntity
  8
1
  6
Continuous
100
AcDbLine
 10
363.9774462611075
 20
147.5305972338901
 30
0.0
 11
365.3837777779358
 21
147.4031484401776
 31
0.0
  0
LINE
  5
1217
330
18
100
AcDbEntity
  8
1
  6
Continuous
100
AcDbLine
 10
365.3837777779358
 20
151.7531484401775
 30
0.0
 11
363.9774462611075
 21
151.8805972338901
 31
0.0
  0
LINE
  5
1218
330
18
100
AcDbEntity
  8
1
  6
Continuous
100
AcDbLine
 10
365.3837777779358
 20
150.3031484401776
 30
0.0
 11
363.9774462611075
 21
150.4305972338901
 31
0.0
  0
ARC
  5
1219
330
18
100
AcDbEntity
  8
1
  6
Continuous
100
AcDbCircle
 10
372.0315993391773
 20
148.8531484401776
 30
0.0
 40
0.6
100
AcDbArc
 50
275.1782847042972
 51
95.17828470429719
  0
ARC
  5
121A
330
18
100
AcDbEntity
  8
1
  6
Continuous
100
AcDbCircle
 10
372.0315993391773
 20
150.3031484401776
 30
0.0
 40
0.6
100
AcDbArc
 50
275.1782847042975
 51
95.17828470429719
  0
ARC
  5
121B
330
18
100
AcDbEntity
  8
1
  6
Continuous
100
AcDbCircle
 10
372.0315993391773
 20
151.7531484401775
 30
0.0
 40
0.6
100
AcDbArc
 50
275.1782847042972
 51
95.17828470429719
  0
ARC
  5
121C
330
18
100
AcDbEntity
  8
1
  6
Continuous
100
AcDbCircle
 10
372.0315993391773
 20
147.4031484401776
 30
0.0
 40
0.6
100
AcDbArc
 50
275.1782847042972
 51
95.17828470429719
  0
ARC
  5
121D
330
18
100
AcDbEntity
  8
1
  6
Continuous
100
AcDbCircle
 10
340.5315993391787
 20
167.4018700321337
 30
0.0
 40
3.0
100
AcDbArc
 50
269.999999999921
 51
359.999999999921
  0
LINE
  5
121E
330
18
100
AcDbEntity
  8
4
  6
CENTER
 48
0.2
100
AcDbLine
 10
367.6713659692475
 20
169.4748674101853
 30
0.0
 11
339.3918327091388
 21
169.4748674102127
 31
0.0
  0
LINE
  5
121F
330
18
100
AcDbEntity
  8
1
  6
Continuous
100
AcDbLine
 10
343.531599339184
 20
172.4748674102098
 30
0.0
 11
342.031599339184
 21
172.4748674102112
 31
0.0
  0
LINE
  5
1221
330
18
100
AcDbEntity
  8
1
  6
Continuous
100
AcDbLine
 10
363.5315993391861
 20
167.7248674102103
 30
0.0
 11
343.5315993391792
 21
167.7248674102101
 31
0.0
  0
LINE
  5
1222
330
18
100
AcDbEntity
  8
1
  6
Continuous
100
AcDbLine
 10
363.5315993391824
 20
171.2248674102103
 30
0.0
 11
343.5315993391828
 21
171.2248674102101
 31
0.0
  0
ARC
  5
1223
330
18
100
AcDbEntity
  8
1
  6
Continuous
100
AcDbCircle
 10
366.5315993391913
 20
162.9018700321343
 30
0.0
 40
1.5
100
AcDbArc
 50
0.0000000000407181
 51
90.00000000008034
  0
ARC
  5
1224
330
18
100
AcDbEntity
  8
1
  6
Continuous
100
AcDbCircle
 10
366.5315993391865
 20
167.4018700321343
 30
0.0
 40
3.0
100
AcDbArc
 50
180.0000000000802
 51
270.0000000000803
  0
ARC
  5
1225
330
18
100
AcDbEntity
  8
1
  6
Continuous
100
AcDbCircle
 10
366.5315993391913
 20
162.9018700321343
 30
0.0
 40
3.0
100
AcDbArc
 50
0.0000000000407181
 51
90.00000000008034
  0
LINE
  5
1226
330
18
100
AcDbEntity
  8
1
  6
Continuous
100
AcDbLine
 10
340.5315993392223
 20
154.0747072958634
 30
0.0
 11
343.0546500502746
 21
153.977705497279
 31
0.0
  0
LINE
  5
1227
330
18
100
AcDbEntity
  8
1
  6
Continuous
100
AcDbLine
 10
369.5315993391727
 20
153.7006833770543
 30
0.0
 11
369.5315993391913
 21
163.0050520625212
 31
0.0
  0
LINE
  5
1228
330
18
100
AcDbEntity
  8
1
  6
Continuous
100
AcDbLine
 10
338.8974456115179
 20
154.724410956442
 30
0.0
 11
334.9645224753887
 21
154.2819571036275
 31
0.0
  0
LINE
  5
1229
330
18
100
AcDbEntity
  8
1
  6
Continuous
100
AcDbLine
 10
366.5315993391873
 20
157.8739691189213
 30
0.0
 11
368.0315993391675
 21
157.8739691189196
 31
0.0
  0
LINE
  5
122A
330
18
100
AcDbEntity
  8
1
  6
Continuous
100
AcDbLine
 10
340.5315993391996
 20
154.7244109564557
 30
0.0
 11
339.0315993391907
 21
154.7244109564574
 31
0.0
  0
ARC
  5
122B
330
18
100
AcDbEntity
  8
1
  6
Continuous
100
AcDbCircle
 10
366.5315993391865
 20
167.4018700321343
 30
0.0
 40
1.5
100
AcDbArc
 50
180.0000000000802
 51
270.0000000000803
  0
LINE
  5
122C
330
18
100
AcDbEntity
  8
1
  6
Continuous
100
AcDbLine
 10
363.5315993391813
 20
172.4748674102105
 30
0.0
 11
365.0315993391813
 21
172.474867410212
 31
0.0
  0
LINE
  5
122D
330
18
100
AcDbEntity
  8
1
  6
Continuous
100
AcDbLine
 10
366.0315993391885
 20
171.2248674102105
 30
0.0
 11
365.0315993391825
 21
171.2248674102105
 31
0.0
  0
LINE
  5
122E
330
18
100
AcDbEntity
  8
1
  6
Continuous
100
AcDbLine
 10
364.0329791453505
 20
166.5107657950732
 30
0.0
 11
365.0706489441995
 21
166.5107657950742
 31
0.0
  0
LINE
  5
122F
330
18
100
AcDbEntity
  8
1
  6
Continuous
100
AcDbLine
 10
366.0315993391885
 20
167.7248674102105
 30
0.0
 11
365.0315993391862
 21
167.7248674102105
 31
0.0
  0
LINE
  5
1230
330
18
100
AcDbEntity
  8
1
  6
Continuous
100
AcDbLine
 10
363.5315993391865
 20
167.4018700321312
 30
0.0
 11
363.5315993391811
 21
172.4748674102105
 31
0.0
  0
LINE
  5
1231
330
18
100
AcDbEntity
  8
1
  6
Continuous
100
AcDbLine
 10
365.0315993391865
 20
167.4018700321326
 30
0.0
 11
365.0315993391811
 21
172.474867410212
 31
0.0
  0
LINE
  5
1232
330
18
100
AcDbEntity
  8
1
  6
Continuous
100
AcDbLine
 10
366.0315993391885
 20
171.2248674102105
 30
0.0
 11
366.0315993391885
 21
167.7248674102105
 31
0.0
  0
LINE
  5
1233
330
18
100
AcDbEntity
  8
1
  6
Continuous
100
AcDbLine
 10
343.5315993391787
 20
167.4018700321304
 30
0.0
 11
343.531599339184
 21
172.4748674102098
 31
0.0
  0
LINE
  5
1236
330
18
100
AcDbEntity
  8
1
  6
Continuous
100
AcDbLine
 10
396.5315993391815
 20
166.7244109564163
 30
0.0
 11
394.5315993391815
 21
164.7244109564163
 31
0.0
  0
LINE
  5
1238
330
18
100
AcDbEntity
  8
4
  6
CENTER
 48
0.2
100
AcDbLine
 10
386.0315993391816
 20
169.7244109564163
 30
0.0
 11
421.0315993391815
 21
169.7244109564163
 31
0.0
  0
LINE
  5
1239
330
18
100
AcDbEntity
  8
1
  6
Continuous
100
AcDbLine
 10
392.5315993391816
 20
174.7244109564163
 30
0.0
 11
414.5315993391816
 21
174.7244109564163
 31
0.0
  0
LINE
  5
123A
330
18
100
AcDbEntity
  8
4
  6
CENTER
 48
0.2
100
AcDbLine
 10
392.5315993391816
 20
175.7244109564163
 30
0.0
 11
392.5315993391816
 21
163.7244109564163
 31
0.0
  0
ARC
  5
123B
330
18
100
AcDbEntity
  8
1
  6
Continuous
100
AcDbCircle
 10
340.5315993391742
 20
162.9018700321337
 30
0.0
 40
1.5
100
AcDbArc
 50
89.99999999992096
 51
179.9999999999605
  0
ARC
  5
123C
330
18
100
AcDbEntity
  8
1
  6
Continuous
100
AcDbCircle
 10
340.5315993391742
 20
162.9018700321337
 30
0.0
 40
3.0
100
AcDbArc
 50
89.99999999992096
 51
179.9999999999605
  0
LINE
  5
123D
330
18
100
AcDbEntity
  8
1
  6
Continuous
100
AcDbLine
 10
369.5315993391702
 20
154.0747072958634
 30
0.0
 11
372.0546500502225
 21
153.977705497279
 31
0.0
  0
LINE
  5
123E
330
18
100
AcDbEntity
  8
1
  6
Continuous
100
AcDbLine
 10
340.5315993391998
 20
157.8739691189217
 30
0.0
 11
340.5315993391996
 21
153.7006833770515
 31
0.0
  0
LINE
  5
123F
330
18
100
AcDbEntity
  8
1
  6
Continuous
100
AcDbLine
 10
367.8974456114657
 20
154.724410956442
 30
0.0
 11
363.9645224753367
 21
154.2819571036275
 31
0.0
  0
LINE
  5
1240
330
18
100
AcDbEntity
  8
1
  6
Continuous
100
AcDbLine
 10
366.5315993391874
 20
154.7244109564557
 30
0.0
 11
368.0315993391963
 21
154.7244109564574
 31
0.0
  0
LINE
  5
1241
330
18
100
AcDbEntity
  8
1
  6
Continuous
100
AcDbLine
 10
340.5315993391998
 20
157.8739691189213
 30
0.0
 11
339.0315993392196
 21
157.8739691189196
 31
0.0
  0
ARC
  5
1242
330
18
100
AcDbEntity
  8
1
  6
Continuous
100
AcDbCircle
 10
340.5315993391787
 20
167.4018700321337
 30
0.0
 40
1.5
100
AcDbArc
 50
269.999999999921
 51
359.999999999921
  0
LINE
  5
1243
330
18
100
AcDbEntity
  8
1
  6
Continuous
100
AcDbLine
 10
342.031599339183
 20
171.2248674102099
 30
0.0
 11
341.0315993391809
 21
171.2248674102099
 31
0.0
  0
LINE
  5
1244
330
18
100
AcDbEntity
  8
1
  6
Continuous
100
AcDbLine
 10
343.0302195330149
 20
166.5107657950725
 30
0.0
 11
341.9925497341657
 21
166.5107657950735
 31
0.0
  0
LINE
  5
1245
330
18
100
AcDbEntity
  8
1
  6
Continuous
100
AcDbLine
 10
342.031599339183
 20
167.7248674102099
 30
0.0
 11
341.0315993391809
 21
167.7248674102099
 31
0.0
  0
LINE
  5
1246
330
18
100
AcDbEntity
  8
1
  6
Continuous
100
AcDbLine
 10
342.0315993391787
 20
167.4018700321319
 30
0.0
 11
342.031599339184
 21
172.4748674102112
 31
0.0
  0
LINE
  5
1247
330
18
100
AcDbEntity
  8
1
  6
Continuous
100
AcDbLine
 10
341.0315993391809
 20
171.2248674102099
 30
0.0
 11
341.0315993391809
 21
167.7248674102099
 31
0.0
  0
LINE
  5
1248
330
18
100
AcDbEntity
  8
1
  6
Continuous
100
AcDbLine
 10
392.5315993391816
 20
164.7244109564163
 30
0.0
 11
394.5315993391816
 21
164.7244109564163
 31
0.0
  0
CIRCLE
  5
1249
330
18
100
AcDbEntity
  8
1
  6
Continuous
100
AcDbCircle
 10
392.5315993391816
 20
169.7244109564163
 30
0.0
 40
2.149999999999999
  0
ARC
  5
124A
330
18
100
AcDbEntity
  8
1
  6
Continuous
100
AcDbCircle
 10
392.5315993391816
 20
169.7244109564163
 30
0.0
 40
5.0
100
AcDbArc
 50
90.0
 51
270.0
  0
LINE
  5
124B
330
18
100
AcDbEntity
  8
4
  6
CENTER
 48
0.2
100
AcDbLine
 10
414.5315993391816
 20
175.7244109564163
 30
0.0
 11
414.5315993391816
 21
163.7244109564163
 31
0.0
  0
LINE
  5
124C
330
18
100
AcDbEntity
  8
4
  6
CENTER
 48
0.2
100
AcDbLine
 10
403.531599339155
 20
162.4146445855931
 30
0.0
 11
403.5315993391662
 21
176.7066163464699
 31
0.0
  0
LINE
  5
124E
330
18
100
AcDbEntity
  8
1
  6
Continuous
100
AcDbLine
 10
410.5315993391815
 20
165.7244109564163
 30
0.0
 11
396.5315993391816
 21
165.7244109564163
 31
0.0
  0
LINE
  5
1250
330
18
100
AcDbEntity
  8
1
  6
Continuous
100
AcDbLine
 10
396.5315993391816
 20
166.7244109564164
 30
0.0
 11
396.5315993391816
 21
165.7244109564163
 31
0.0
  0
ARC
  5
1251
330
18
100
AcDbEntity
  8
1
  6
Continuous
100
AcDbCircle
 10
414.5315993391816
 20
169.7244109564163
 30
0.0
 40
5.0
100
AcDbArc
 50
270.0
 51
90.0
  0
LINE
  5
1253
330
18
100
AcDbEntity
  8
1
  6
Continuous
100
AcDbLine
 10
410.5315993391815
 20
166.7244109564162
 30
0.0
 11
412.5315993391815
 21
164.7244109564162
 31
0.0
  0
LINE
  5
1254
330
18
100
AcDbEntity
  8
1
  6
Continuous
100
AcDbLine
 10
410.5315993391815
 20
166.7244109564162
 30
0.0
 11
410.5315993391815
 21
165.7244109564163
 31
0.0
  0
LINE
  5
1255
330
18
100
AcDbEntity
  8
1
  6
Continuous
100
AcDbLine
 10
414.5315993391816
 20
164.7244109564163
 30
0.0
 11
412.5315993391815
 21
164.7244109564163
 31
0.0
  0
CIRCLE
  5
1256
330
18
100
AcDbEntity
  8
1
  6
Continuous
100
AcDbCircle
 10
414.5315993391816
 20
169.7244109564163
 30
0.0
 40
2.149999999999999
  0
LINE
  5
1B6B
330
18
100
AcDbEntity
  8
1
  6
Continuous
100
AcDbLine
 10
361.2815993393053
 20
137.7244109564208
 30
0.0
 11
361.5315993392437
 21
137.7244109564208
 31
0.0
  0
LINE
  5
1B6C
330
18
100
AcDbEntity
  8
1
  6
Continuous
100
AcDbLine
 10
362.5315993392429
 20
137.7244109564212
 30
0.0
 11
362.8315993392429
 21
137.7244109564214
 31
0.0
  0
LINE
  5
1C07
330
18
100
AcDbEntity
  8
1
  6
Continuous
100
AcDbLine
 10
344.5315993392545
 20
131.4744109564281
 30
0.0
 11
343.5315993391881
 21
131.4744109564281
 31
0.0
  0
LINE
  5
1C08
330
18
100
AcDbEntity
  8
1
  6
Continuous
100
AcDbLine
 10
344.5315993392609
 20
127.9744109564281
 30
0.0
 11
343.5315993391881
 21
127.9744109564281
 31
0.0
  0
LINE
  5
1C09
330
18
100
AcDbEntity
  8
1
  6
Continuous
100
AcDbLine
 10
361.5315993392552
 20
131.4744109564282
 30
0.0
 11
361.2815993393291
 21
131.4744109564282
 31
0.0
  0
LINE
  5
1C0A
330
18
100
AcDbEntity
  8
1
  6
Continuous
100
AcDbLine
 10
361.5315993392615
 20
127.9744109564282
 30
0.0
 11
361.2815993393423
 21
127.9744109564281
 31
0.0
  0
LINE
  5
1C8E
330
18
100
AcDbEntity
  8
4
  6
CENTER
 48
0.2
100
AcDbLine
 10
203.1994273662202
 20
238.65982078383
 30
0.0
 11
203.1994273662202
 21
243.65982078383
 31
0.0
  0
LINE
  5
1D9F
330
18
100
AcDbEntity
  8
1
  6
Continuous
100
AcDbLine
 10
176.1994273662385
 20
240.15982078383
 30
0.0
 11
208.1994273662385
 21
240.15982078383
 31
0.0
  0
LINE
  5
1DA0
330
18
100
AcDbEntity
  8
1
  6
Continuous
100
AcDbLine
 10
176.1994273662385
 20
242.15982078383
 30
0.0
 11
208.1994273662386
 21
242.15982078383
 31
0.0
  0
LINE
  5
1DA1
330
18
100
AcDbEntity
  8
4
  6
CENTER
 48
0.2
100
AcDbLine
 10
192.1994273662119
 20
228.7239966564332
 30
0.0
 11
192.1994273662231
 21
246.8068043325957
 31
0.0
  0
LINE
  5
1DA2
330
18
100
AcDbEntity
  8
1
  6
Continuous
100
AcDbLine
 10
176.1994273662385
 20
240.15982078383
 30
0.0
 11
176.1994273662385
 21
242.15982078383
 31
0.0
  0
LINE
  5
1DA3
330
18
100
AcDbEntity
  8
1
  6
Continuous
100
AcDbLine
 10
208.1994273662385
 20
240.15982078383
 30
0.0
 11
208.1994273662386
 21
242.15982078383
 31
0.0
  0
LINE
  5
1DA4
330
18
100
AcDbEntity
  8
1
  6
Continuous
100
AcDbLine
 10
199.1994273662385
 20
240.15982078383
 30
0.0
 11
199.1994273662385
 21
233.15982078383
 31
0.0
  0
LINE
  5
1DA5
330
18
100
AcDbEntity
  8
1
  6
Continuous
100
AcDbLine
 10
185.1994273662385
 20
240.15982078383
 30
0.0
 11
185.1994273662385
 21
233.15982078383
 31
0.0
  0
LINE
  5
1DA7
330
18
100
AcDbEntity
  8
1
  6
Continuous
100
AcDbLine
 10
198.1994273662385
 20
234.121385213025
 30
0.0
 11
186.1994273662385
 21
234.121385213025
 31
0.0
  0
LINE
  5
1DA8
330
18
100
AcDbEntity
  8
1
  6
Continuous
100
AcDbLine
 10
198.1994273662385
 20
232.15982078383
 30
0.0
 11
186.1994273662385
 21
232.15982078383
 31
0.0
  0
ARC
  5
1DAA
330
18
100
AcDbEntity
  8
1
  6
Continuous
100
AcDbCircle
 10
198.1994273662385
 20
235.121385213025
 30
0.0
 40
1.0
100
AcDbArc
 50
270.0
 51
0.0
  0
ARC
  5
1DAB
330
18
100
AcDbEntity
  8
1
  6
Continuous
100
AcDbCircle
 10
186.1994273662385
 20
235.121385213025
 30
0.0
 40
1.0
100
AcDbArc
 50
180.0
 51
270.0
  0
ARC
  5
1DAC
330
18
100
AcDbEntity
  8
1
  6
Continuous
100
AcDbCircle
 10
186.1994273662385
 20
233.15982078383
 30
0.0
 40
1.0
100
AcDbArc
 50
180.0
 51
270.0
  0
ARC
  5
1DAD
330
18
100
AcDbEntity
  8
1
  6
Continuous
100
AcDbCircle
 10
198.1994273662385
 20
233.15982078383
 30
0.0
 40
1.0
100
AcDbArc
 50
270.0
 51
0.0
  0
LINE
  5
1DAE
330
18
100
AcDbEntity
  8
4
  6
CENTER
 48
0.2
100
AcDbLine
 10
181.1994273662201
 20
238.65982078383
 30
0.0
 11
181.1994273662201
 21
243.65982078383
 31
0.0
  0
LINE
  5
1F1D
330
18
100
AcDbEntity
  8
1
  6
Continuous
100
AcDbLine
 10
134.1994273662075
 20
239.6598207837927
 30
0.0
 11
134.1994273662071
 21
238.9046328982166
 31
0.0
  0
LINE
  5
1F1E
330
18
100
AcDbEntity
  8
1
  6
Continuous
100
AcDbLine
 10
133.1994273662016
 20
239.6598207837927
 30
0.0
 11
133.1994273662003
 21
238.9046328982166
 31
0.0
  0
LINE
  5
1F1F
330
18
100
AcDbEntity
  8
1
  6
Continuous
100
AcDbLine
 10
134.1994273661804
 20
227.1598207837927
 30
0.0
 11
150.1994273661804
 21
227.1598207837927
 31
0.0
  0
LINE
  5
1F20
330
18
100
AcDbEntity
  8
1
  6
Continuous
100
AcDbLine
 10
133.1994273662016
 20
239.6598207837927
 30
0.0
 11
134.1994273662076
 21
239.6598207837927
 31
0.0
  0
LINE
  5
1F21
330
18
100
AcDbEntity
  8
1
  6
Continuous
100
AcDbLine
 10
133.1994273661804
 20
228.1598207837927
 30
0.0
 11
151.1994273661804
 21
228.1598207837936
 31
0.0
  0
ARC
  5
1F23
330
18
100
AcDbEntity
  8
1
  6
Continuous
100
AcDbCircle
 10
134.1994273661804
 20
228.1598207837927
 30
0.0
 40
1.0
100
AcDbArc
 50
179.9999999998941
 51
270.0
  0
LINE
  5
1F26
330
18
100
AcDbEntity
  8
1
  6
Continuous
100
AcDbLine
 10
135.949427366142
 20
242.1598207837929
 30
0.0
 11
148.4494273661419
 21
242.1598207837928
 31
0.0
  0
LINE
  5
1F29
330
18
100
AcDbEntity
  8
1
  6
Continuous
100
AcDbLine
 10
135.949427366142
 20
240.6598207837928
 30
0.0
 11
135.9494273661352
 21
238.9046328982165
 31
0.0
  0
LINE
  5
1F2A
330
18
100
AcDbEntity
  8
1
  6
Continuous
100
AcDbLine
 10
134.449427366142
 20
240.6598207837985
 30
0.0
 11
134.4494273661353
 21
238.9046328982166
 31
0.0
  0
LINE
  5
1F2B
330
18
100
AcDbEntity
  8
1
  6
Continuous
100
AcDbLine
 10
135.949427366142
 20
240.6598207837928
 30
0.0
 11
148.449427366142
 21
240.6598207837927
 31
0.0
  0
ARC
  5
1F2D
330
18
100
AcDbEntity
  8
1
  6
Continuous
100
AcDbCircle
 10
135.949427366142
 20
240.6598207837928
 30
0.0
 40
1.5
100
AcDbArc
 50
89.99999999999991
 51
179.9999999997823
  0
LINE
  5
1F2F
330
18
100
AcDbEntity
  8
4
  6
CENTER
 48
0.2
100
AcDbLine
 10
142.1994273662504
 20
244.9326900752792
 30
0.0
 11
142.1994273662268
 21
222.611014192305
 31
0.0
  0
LINE
  5
1F31
330
18
100
AcDbEntity
  8
1
  6
Continuous
100
AcDbLine
 10
133.1994273662028
 20
234.1598207838041
 30
0.0
 11
132.8994273662024
 21
234.1598207838042
 31
0.0
  0
LINE
  5
1F32
330
18
100
AcDbEntity
  8
1
  6
Continuous
100
AcDbLine
 10
132.8994273662027
 20
234.1598207838042
 30
0.0
 11
132.8994273661954
 21
230.15982078378
 31
0.0
  0
LINE
  5
1F33
330
18
100
AcDbEntity
  8
4
  6
CENTER
 48
0.2
100
AcDbLine
 10
152.499427366199
 20
232.1598207837849
 30
0.0
 11
131.899427366199
 21
232.1598207838002
 31
0.0
  0
LINE
  5
1F34
330
18
100
AcDbEntity
  8
1
  6
Continuous
100
AcDbLine
 10
134.4494273661463
 20
233.6598207838024
 30
0.0
 11
134.1994273662017
 21
233.6598207838028
 31
0.0
  0
LINE
  5
1F35
330
18
100
AcDbEntity
  8
1
  6
Continuous
100
AcDbLine
 10
134.4494273661348
 20
230.6598207838025
 30
0.0
 11
134.1994273661962
 21
230.6598207838028
 31
0.0
  0
LINE
  5
1F3B
330
18
100
AcDbEntity
  8
1
  6
Continuous
100
AcDbLine
 10
133.1994273662028
 20
230.1598207837963
 30
0.0
 11
132.8994273662024
 21
230.1598207837961
 31
0.0
  0
LINE
  5
1F3C
330
18
100
AcDbEntity
  8
1
  6
Continuous
100
AcDbLine
 10
148.449427366104
 20
230.6598207837885
 30
0.0
 11
135.9494273661039
 21
230.6598207838056
 31
0.0
  0
LINE
  5
1F3D
330
18
100
AcDbEntity
  8
1
  6
Continuous
100
AcDbLine
 10
148.4494273661153
 20
233.6598207837885
 30
0.0
 11
135.9494273661153
 21
233.6598207838056
 31
0.0
  0
LINE
  5
1F5E
330
18
100
AcDbEntity
  8
1
  6
Continuous
100
AcDbLine
 10
176.1994273662385
 20
42.47455791179628
 30
0.0
 11
208.1994273662386
 21
42.47455791179628
 31
0.0
  0
LINE
  5
1F5F
330
18
100
AcDbEntity
  8
1
  6
Continuous
100
AcDbLine
 10
176.1994273662385
 20
44.47455791179629
 30
0.0
 11
185.1994273662385
 21
44.47455791179629
 31
0.0
  0
LINE
  5
1F60
330
18
100
AcDbEntity
  8
1
  6
Continuous
100
AcDbLine
 10
176.1994273662385
 20
44.47455791179629
 30
0.0
 11
176.1994273662385
 21
42.47455791179628
 31
0.0
  0
LINE
  5
1F61
330
18
100
AcDbEntity
  8
4
  6
CENTER
 48
0.2
100
AcDbLine
 10
181.1994273662201
 20
45.97455791179629
 30
0.0
 11
181.1994273662201
 21
40.97455791179629
 31
0.0
  0
LINE
  5
1F64
330
18
100
AcDbEntity
  8
4
  6
CENTER
 48
0.2
100
AcDbLine
 10
192.1994273662119
 20
55.9103820391931
 30
0.0
 11
192.1994273662231
 21
37.82757436303057
 31
0.0
  0
LINE
  5
1F65
330
18
100
AcDbEntity
  8
1
  6
Continuous
100
AcDbLine
 10
199.1994273662385
 20
42.47455791179628
 30
0.0
 11
199.1994273662385
 21
51.47455791179623
 31
0.0
  0
LINE
  5
1F66
330
18
100
AcDbEntity
  8
1
  6
Continuous
100
AcDbLine
 10
185.1994273662385
 20
42.47455791179628
 30
0.0
 11
185.1994273662385
 21
51.47455791179623
 31
0.0
  0
LINE
  5
1F67
330
18
100
AcDbEntity
  8
1
  6
Continuous
100
AcDbLine
 10
198.1994273662385
 20
52.47455791179625
 30
0.0
 11
186.1994273662385
 21
52.47455791179625
 31
0.0
  0
ARC
  5
1F69
330
18
100
AcDbEntity
  8
1
  6
Continuous
100
AcDbCircle
 10
186.1994273662385
 20
51.47455791179623
 30
0.0
 40
1.0
100
AcDbArc
 50
90.00000000000005
 51
180.0
  0
ARC
  5
1F6A
330
18
100
AcDbEntity
  8
1
  6
Continuous
100
AcDbCircle
 10
198.1994273662385
 20
51.47455791179623
 30
0.0
 40
1.0
100
AcDbArc
 50
0.0
 51
90.00000000000005
  0
LINE
  5
1F6B
330
18
100
AcDbEntity
  8
4
  6
CENTER
 48
0.2
100
AcDbLine
 10
203.1994273662202
 20
45.97455791179629
 30
0.0
 11
203.1994273662202
 21
40.97455791179629
 31
0.0
  0
LINE
  5
1F6C
330
18
100
AcDbEntity
  8
1
  6
Continuous
100
AcDbLine
 10
208.1994273662385
 20
44.47455791179629
 30
0.0
 11
208.1994273662386
 21
42.47455791179628
 31
0.0
  0
LINE
  5
1F6F
330
18
100
AcDbEntity
  8
1
  6
Continuous
100
AcDbLine
 10
198.1994273662405
 20
47.47455791179629
 30
0.0
 11
186.1994273662405
 21
47.47455791179629
 31
0.0
  0
LINE
  5
1F72
330
18
100
AcDbEntity
  8
1
  6
Continuous
100
AcDbLine
 10
199.1994273662385
 20
44.47455791179629
 30
0.0
 11
208.1994273662385
 21
44.47455791179629
 31
0.0
  0
LINE
  5
1F75
330
18
100
AcDbEntity
  8
1
  6
Continuous
100
AcDbLine
 10
129.6994273662468
 20
238.9046328982168
 30
0.0
 11
129.6994273662468
 21
235.4046328982168
 31
0.0
  0
LINE
  5
1F76
330
18
100
AcDbEntity
  8
1
  6
Continuous
100
AcDbLine
 10
132.1994273662487
 20
230.6598207837928
 30
0.0
 11
132.1994273662503
 21
233.280287051916
 31
0.0
  0
LINE
  5
1F77
330
18
100
AcDbEntity
  8
1
  6
Continuous
100
AcDbLine
 10
130.6994273662487
 20
230.6598207837928
 30
0.0
 11
130.6994273662487
 21
230.7471070986003
 31
0.0
  0
LINE
  5
1F78
330
18
100
AcDbEntity
  8
1
  6
Continuous
100
AcDbLine
 10
129.6994273662468
 20
238.9046328982168
 30
0.0
 11
130.6994273662529
 21
238.9046328982168
 31
0.0
  0
LINE
  5
1F79
330
18
100
AcDbEntity
  8
4
  6
CENTER
 48
0.2
100
AcDbLine
 10
128.0596607361879
 20
237.1546328981915
 30
0.0
 11
156.3391939962965
 21
237.154632898219
 31
0.0
  0
LINE
  5
1F7A
330
18
100
AcDbEntity
  8
1
  6
Continuous
100
AcDbLine
 10
129.6994273662468
 20
235.4046328982168
 30
0.0
 11
130.6994273662492
 21
235.4046328982168
 31
0.0
  0
LINE
  5
1F7B
330
18
100
AcDbEntity
  8
1
  6
Continuous
100
AcDbLine
 10
132.1994273662492
 20
235.4046328982166
 30
0.0
 11
152.1994273662563
 21
235.4046328982164
 31
0.0
  0
LINE
  5
1F7C
330
18
100
AcDbEntity
  8
1
  6
Continuous
100
AcDbLine
 10
132.199427366253
 20
238.9046328982166
 30
0.0
 11
152.1994273662526
 21
238.9046328982164
 31
0.0
  0
LINE
  5
1F82
330
18
100
AcDbEntity
  8
1
  6
Continuous
100
AcDbLine
 10
135.9494273661219
 20
235.4046328982165
 30
0.0
 11
135.9494273660944
 21
228.1598207837928
 31
0.0
  0
LINE
  5
1F83
330
18
100
AcDbEntity
  8
1
  6
Continuous
100
AcDbLine
 10
134.449427366122
 20
235.4046328982166
 30
0.0
 11
134.4494273660944
 21
228.1598207837928
 31
0.0
  0
LINE
  5
1F84
330
18
100
AcDbEntity
  8
1
  6
Continuous
100
AcDbLine
 10
134.199427366205
 20
235.4046328982166
 30
0.0
 11
134.199427366201
 21
228.1598207837928
 31
0.0
  0
LINE
  5
1F85
330
18
100
AcDbEntity
  8
1
  6
Continuous
100
AcDbLine
 10
133.1994273661938
 20
235.4046328982166
 30
0.0
 11
133.1994273661804
 21
228.1598207837927
 31
0.0
  0
LINE
  5
1F8F
330
18
100
AcDbEntity
  8
1
  6
Continuous
100
AcDbLine
 10
132.1994273662651
 20
231.9098207837841
 30
0.0
 11
132.8994273661986
 21
231.909820783784
 31
0.0
  0
LINE
  5
1F91
330
18
100
AcDbEntity
  8
4
  6
CENTER
 48
0.2
100
AcDbLine
 10
128.3166556388978
 20
233.6598207838068
 30
0.0
 11
155.9567333601386
 21
233.6598207837789
 31
0.0
  0
LINE
  5
1F9D
330
18
100
AcDbEntity
  8
1
  6
Continuous
100
AcDbLine
 10
130.6994273662545
 20
240.1546328982044
 30
0.0
 11
132.1994273662545
 21
240.1546328982044
 31
0.0
  0
LINE
  5
1FA3
330
18
100
AcDbEntity
  8
1
  6
Continuous
100
AcDbLine
 10
132.1994273662487
 20
230.6598207837928
 30
0.0
 11
130.6994273662487
 21
230.6598207837928
 31
0.0
  0
LINE
  5
1FA6
330
18
100
AcDbEntity
  8
1
  6
Continuous
100
AcDbLine
 10
126.1994273662775
 20
229.1267848577585
 30
0.0
 11
126.199427366276
 21
229.8856632724251
 31
0.0
  0
LINE
  5
1FA7
330
18
100
AcDbEntity
  8
1
  6
Continuous
100
AcDbLine
 10
126.1994273662576
 20
239.1951733586925
 30
0.0
 11
127.6994273662766
 21
239.1951733586925
 31
0.0
  0
LINE
  5
1FA8
330
18
100
AcDbEntity
  8
1
  6
Continuous
100
AcDbLine
 10
126.1994273662775
 20
229.1267848577585
 30
0.0
 11
127.6994273662765
 21
229.1267848577585
 31
0.0
  0
LINE
  5
1FA9
330
18
100
AcDbEntity
  8
1
  6
Continuous
100
AcDbLine
 10
127.6994273662766
 20
239.6887263003908
 30
0.0
 11
127.6994273662766
 21
237.4794159530392
 31
0.0
  0
LINE
  5
1FB1
330
18
100
AcDbEntity
  8
1
  6
Continuous
100
AcDbLine
 10
130.2217861492643
 20
232.637842090356
 30
0.0
 11
127.1547098002446
 21
232.5005525662815
 31
0.0
  0
LINE
  5
1FB2
330
18
100
AcDbEntity
  8
1
  6
Continuous
100
AcDbLine
 10
131.2441449322788
 20
232.6164617502874
 30
0.0
 11
128.1770685832623
 21
232.4791722262128
 31
0.0
  0
LINE
  5
1FB3
330
18
100
AcDbEntity
  8
1
  6
Continuous
100
AcDbLine
 10
129.6994273662468
 20
237.5129479362959
 30
0.0
 11
127.1826637305848
 21
237.4707518982491
 31
0.0
  0
LINE
  5
1FB4
330
18
100
AcDbEntity
  8
1
  6
Continuous
100
AcDbLine
 10
127.6994273662765
 20
231.979672391556
 30
0.0
 11
127.6994273662765
 21
229.1267848577585
 31
0.0
  0
ARC
  5
1FB5
330
18
100
AcDbEntity
  8
1
  6
Continuous
100
AcDbCircle
 10
127.1994273662728
 20
231.501552896968
 30
0.0
 40
1.0
100
AcDbArc
 50
92.56298247052143
 51
180.0000000001135
  0
ARC
  5
1FB6
330
18
100
AcDbEntity
  8
1
  6
Continuous
100
AcDbCircle
 10
127.1994273662628
 20
236.4708924178626
 30
0.0
 40
1.0
100
AcDbArc
 50
90.96053056519115
 51
180.0000000001145
  0
LINE
  5
1FB7
330
18
100
AcDbEntity
  8
1
  6
Continuous
100
AcDbLine
 10
130.6994273662502
 20
233.1373419250124
 30
0.0
 11
130.6994273662545
 21
240.1546328982044
 31
0.0
  0
LINE
  5
1FB8
330
18
100
AcDbEntity
  8
1
  6
Continuous
100
AcDbLine
 10
127.6994273662766
 20
239.6887263003908
 30
0.0
 11
129.1994273662765
 21
239.6887263003908
 31
0.0
  0
LINE
  5
1FB9
330
18
100
AcDbEntity
  8
1
  6
Continuous
100
AcDbLine
 10
127.6994273662765
 20
229.6203377994574
 30
0.0
 11
129.1994273662764
 21
229.6203377994574
 31
0.0
  0
LINE
  5
1FBA
330
18
100
AcDbEntity
  8
1
  6
Continuous
100
AcDbLine
 10
129.1994273662764
 20
232.5249354009049
 30
0.0
 11
129.1994273662764
 21
229.6203377994574
 31
0.0
  0
LINE
  5
1FBB
330
18
100
AcDbEntity
  8
1
  6
Continuous
100
AcDbLine
 10
129.1994273662765
 20
239.6887263003908
 30
0.0
 11
129.1994273662766
 21
237.4794159530392
 31
0.0
  0
LINE
  5
1FC3
330
18
100
AcDbEntity
  8
1
  6
Continuous
100
AcDbLine
 10
131.2946399194449
 20
231.3646536898959
 30
0.0
 11
131.72357837615
 21
231.3439108845707
 31
0.0
  0
ARC
  5
1FC5
330
18
100
AcDbEntity
  8
1
  6
Continuous
100
AcDbCircle
 10
131.6994273662488
 20
230.8444944964528
 30
0.0
 40
0.5
100
AcDbArc
 50
359.9999999999649
 51
87.23142085572408
  0
ARC
  5
1FC7
330
18
100
AcDbEntity
  8
1
  6
Continuous
100
AcDbCircle
 10
131.1994273662505
 20
233.6154614196009
 30
0.0
 40
1.0
100
AcDbArc
 50
272.5629824705243
 51
359.9999999999649
  0
ARC
  5
1FC8
330
18
100
AcDbEntity
  8
1
  6
Continuous
100
AcDbCircle
 10
130.1994273662502
 20
233.1373419250127
 30
0.0
 40
0.5
100
AcDbArc
 50
272.5629824705219
 51
359.999999999965
  0
ARC
  5
1FC9
330
18
100
AcDbEntity
  8
1
  6
Continuous
100
AcDbCircle
 10
128.1994273662764
 20
231.979672391556
 30
0.0
 40
0.5
100
AcDbArc
 50
92.56298247052505
 51
179.9999999999995
  0
ARC
  5
1FCF
330
18
100
AcDbEntity
  8
1
  6
Continuous
100
AcDbCircle
 10
127.6994273662766
 20
234.5536248121558
 30
0.0
 40
4.599999999999998
100
AcDbArc
 50
289.0314409251142
 51
341.9664082287035
  0
ARC
  5
1FD0
330
18
100
AcDbEntity
  8
1
  6
Continuous
100
AcDbCircle
 10
127.6994273662766
 20
234.5536248121558
 30
0.0
 40
3.399999999999999
100
AcDbArc
 50
296.1789687040113
 51
324.5525589690814
  0
ARC
  5
1FD2
330
18
100
AcDbEntity
  8
1
  6
Continuous
100
AcDbCircle
 10
127.6994273662766
 20
234.2342262534567
 30
0.0
 40
4.599999999999998
100
AcDbArc
 50
178.0104491790394
 51
269.9999999999985
  0
ARC
  5
1FD4
330
18
100
AcDbEntity
  8
1
  6
Continuous
100
AcDbCircle
 10
127.6994273662766
 20
234.2342262534567
 30
0.0
 40
4.599999999999998
100
AcDbArc
 50
289.0314409251139
 51
1.989550820960431
  0
ARC
  5
1FD5
330
18
100
AcDbEntity
  8
1
  6
Continuous
100
AcDbCircle
 10
127.6994273662766
 20
234.5536248121558
 30
0.0
 40
3.399999999999999
100
AcDbArc
 50
90.0
 51
269.9999999999985
  0
ARC
  5
1FD6
330
18
100
AcDbEntity
  8
1
  6
Continuous
100
AcDbCircle
 10
127.6994273662766
 20
234.5536248121558
 30
0.0
 40
4.599999999999998
100
AcDbArc
 50
90.0
 51
269.9999999999989
  0
ARC
  5
1FD7
330
18
100
AcDbEntity
  8
1
  6
Continuous
100
AcDbCircle
 10
127.6994273662766
 20
234.2342262534567
 30
0.0
 40
3.399999999999999
100
AcDbArc
 50
90.0
 51
177.3078051302104
  0
ARC
  5
1FD9
330
18
100
AcDbEntity
  8
1
  6
Continuous
100
AcDbCircle
 10
127.6994273662766
 20
234.5536248121558
 30
0.0
 40
4.599999999999998
100
AcDbArc
 50
64.22853825986044
 51
70.9685590748845
  0
LINE
  5
1FDA
330
18
100
AcDbEntity
  8
1
  6
Continuous
100
AcDbLine
 10
126.1994273662579
 20
238.9021877931812
 30
0.0
 11
126.1994273662573
 21
239.1951733586925
 31
0.0
  0
LINE
  5
1FDB
330
18
100
AcDbEntity
  8
1
  6
Continuous
100
AcDbLine
 10
126.1994273662612
 20
237.2854555139276
 30
0.0
 11
126.1994273662728
 21
231.501552896966
 31
0.0
  0
ARC
  5
1FDC
330
18
100
AcDbEntity
  8
1
  6
Continuous
100
AcDbCircle
 10
127.6994273662766
 20
234.5536248121558
 30
0.0
 40
4.599999999999998
100
AcDbArc
 50
348.0231687211503
 51
10.66123488354798
  0
LINE
  5
1FDD
330
18
100
AcDbEntity
  8
1
  6
Continuous
100
AcDbLine
 10
132.1994273662505
 20
233.5996856106161
 30
0.0
 11
132.1994273662545
 21
240.1546328982044
 31
0.0
  0
ARC
  5
1FDE
330
18
100
AcDbEntity
  8
1
  6
Continuous
100
AcDbCircle
 10
156.6994273662243
 20
234.2342262534567
 30
0.0
 40
4.599999999999998
100
AcDbArc
 50
270.0000000000014
 51
1.989550820960434
  0
ARC
  5
1FDF
330
18
100
AcDbEntity
  8
1
  6
Continuous
100
AcDbCircle
 10
156.6994273662243
 20
234.5536248121558
 30
0.0
 40
4.599999999999998
100
AcDbArc
 50
169.338765116452
 51
191.9768312788496
  0
LINE
  5
1FE0
330
18
100
AcDbEntity
  8
1
  6
Continuous
100
AcDbLine
 10
158.1994273662395
 20
237.2854555139276
 30
0.0
 11
158.1994273662281
 21
231.501552896966
 31
0.0
  0
ARC
  5
1FE1
330
18
100
AcDbEntity
  8
1
  6
Continuous
100
AcDbCircle
 10
156.6994273662243
 20
234.5536248121558
 30
0.0
 40
4.599999999999998
100
AcDbArc
 50
270.0000000000009
 51
90.0
  0
ARC
  5
1FE2
330
18
100
AcDbEntity
  8
1
  6
Continuous
100
AcDbCircle
 10
156.6994273662243
 20
234.2342262534567
 30
0.0
 40
3.399999999999999
100
AcDbArc
 50
2.692194869789586
 51
90.0
  0
ARC
  5
1FE3
330
18
100
AcDbEntity
  8
1
  6
Continuous
100
AcDbCircle
 10
156.6994273662243
 20
234.5536248121558
 30
0.0
 40
3.399999999999999
100
AcDbArc
 50
270.0000000000014
 51
90.0
  0
LINE
  5
1FE4
330
18
100
AcDbEntity
  8
1
  6
Continuous
100
AcDbLine
 10
152.1994273662503
 20
233.5996856106161
 30
0.0
 11
152.1994273662463
 21
240.1546328982044
 31
0.0
  0
LINE
  5
1FE5
330
18
100
AcDbEntity
  8
1
  6
Continuous
100
AcDbLine
 10
153.6994273662506
 20
233.1373419250124
 30
0.0
 11
153.6994273662463
 21
240.1546328982044
 31
0.0
  0
LINE
  5
1FE6
330
18
100
AcDbEntity
  8
1
  6
Continuous
100
AcDbLine
 10
151.199427366307
 20
235.4046328982166
 30
0.0
 11
151.1994273663204
 21
228.1598207837927
 31
0.0
  0
LINE
  5
1FE7
330
18
100
AcDbEntity
  8
1
  6
Continuous
100
AcDbLine
 10
150.1994273662958
 20
235.4046328982166
 30
0.0
 11
150.1994273662999
 21
228.1598207837928
 31
0.0
  0
LINE
  5
1FE8
330
18
100
AcDbEntity
  8
1
  6
Continuous
100
AcDbLine
 10
149.9494273663788
 20
235.4046328982166
 30
0.0
 11
149.9494273664064
 21
228.1598207837928
 31
0.0
  0
LINE
  5
1FE9
330
18
100
AcDbEntity
  8
1
  6
Continuous
100
AcDbLine
 10
148.4494273663789
 20
235.4046328982165
 30
0.0
 11
148.4494273664064
 21
228.1598207837928
 31
0.0
  0
ARC
  5
1FEA
330
18
100
AcDbEntity
  8
1
  6
Continuous
100
AcDbCircle
 10
156.6994273662243
 20
234.5536248121558
 30
0.0
 40
3.399999999999999
100
AcDbArc
 50
215.4474410309185
 51
243.8210312959887
  0
ARC
  5
1FEB
330
18
100
AcDbEntity
  8
1
  6
Continuous
100
AcDbCircle
 10
156.6994273662243
 20
234.2342262534567
 30
0.0
 40
4.599999999999998
100
AcDbArc
 50
178.0104491790394
 51
250.968559074886
  0
ARC
  5
1FEC
330
18
100
AcDbEntity
  8
1
  6
Continuous
100
AcDbCircle
 10
156.6994273662243
 20
234.5536248121558
 30
0.0
 40
4.599999999999998
100
AcDbArc
 50
198.0335917712964
 51
250.9685590748857
  0
LINE
  5
1FED
330
18
100
AcDbEntity
  8
1
  6
Continuous
100
AcDbLine
 10
153.1547098002221
 20
232.6164617502874
 30
0.0
 11
156.2217861492385
 21
232.4791722262128
 31
0.0
  0
ARC
  5
1FEE
330
18
100
AcDbEntity
  8
1
  6
Continuous
100
AcDbCircle
 10
154.1994273662506
 20
233.1373419250127
 30
0.0
 40
0.5
100
AcDbArc
 50
180.0000000000349
 51
267.437017529478
  0
LINE
  5
1FEF
330
18
100
AcDbEntity
  8
1
  6
Continuous
100
AcDbLine
 10
156.6994273662244
 20
229.6203377994574
 30
0.0
 11
155.1994273662244
 21
229.6203377994574
 31
0.0
  0
LINE
  5
1FF0
330
18
100
AcDbEntity
  8
1
  6
Continuous
100
AcDbLine
 10
158.1994273662234
 20
229.1267848577585
 30
0.0
 11
158.1994273662248
 21
229.8856632724251
 31
0.0
  0
LINE
  5
1FF1
330
18
100
AcDbEntity
  8
1
  6
Continuous
100
AcDbLine
 10
156.6994273662244
 20
231.979672391556
 30
0.0
 11
156.6994273662244
 21
229.1267848577585
 31
0.0
  0
ARC
  5
1FF2
330
18
100
AcDbEntity
  8
1
  6
Continuous
100
AcDbCircle
 10
156.1994273662244
 20
231.979672391556
 30
0.0
 40
0.5
100
AcDbArc
 50
0.000000000000465
 51
87.43701752947494
  0
LINE
  5
1FF3
330
18
100
AcDbEntity
  8
1
  6
Continuous
100
AcDbLine
 10
154.1770685832365
 20
232.637842090356
 30
0.0
 11
157.2441449322561
 21
232.5005525662815
 31
0.0
  0
LINE
  5
1FF4
330
18
100
AcDbEntity
  8
1
  6
Continuous
100
AcDbLine
 10
158.1994273662234
 20
229.1267848577585
 30
0.0
 11
156.6994273662244
 21
229.1267848577585
 31
0.0
  0
LINE
  5
1FF5
330
18
100
AcDbEntity
  8
1
  6
Continuous
100
AcDbLine
 10
155.1994273662244
 20
232.5249354009049
 30
0.0
 11
155.1994273662244
 21
229.6203377994574
 31
0.0
  0
ARC
  5
1FF6
330
18
100
AcDbEntity
  8
1
  6
Continuous
100
AcDbCircle
 10
157.1994273662281
 20
231.501552896968
 30
0.0
 40
1.0
100
AcDbArc
 50
359.9999999998864
 51
87.43701752947856
  0
LINE
  5
1FF7
330
18
100
AcDbEntity
  8
1
  6
Continuous
100
AcDbLine
 10
153.1042148130559
 20
231.3646536898959
 30
0.0
 11
152.6752763563508
 21
231.3439108845707
 31
0.0
  0
ARC
  5
1FF8
330
18
100
AcDbEntity
  8
1
  6
Continuous
100
AcDbCircle
 10
152.699427366252
 20
230.8444944964528
 30
0.0
 40
0.5
100
AcDbArc
 50
92.76857914427592
 51
180.000000000035
  0
LINE
  5
1FF9
330
18
100
AcDbEntity
  8
1
  6
Continuous
100
AcDbLine
 10
152.1994273662521
 20
230.6598207837928
 30
0.0
 11
152.1994273662505
 21
233.280287051916
 31
0.0
  0
LINE
  5
1FFA
330
18
100
AcDbEntity
  8
1
  6
Continuous
100
AcDbLine
 10
153.6994273662521
 20
230.6598207837928
 30
0.0
 11
153.699427366252
 21
230.7471070986003
 31
0.0
  0
ARC
  5
1FFB
330
18
100
AcDbEntity
  8
1
  6
Continuous
100
AcDbCircle
 10
153.1994273662503
 20
233.6154614196009
 30
0.0
 40
1.0
100
AcDbArc
 50
180.000000000035
 51
267.4370175294755
  0
LINE
  5
1FFC
330
18
100
AcDbEntity
  8
1
  6
Continuous
100
AcDbLine
 10
152.1994273662521
 20
230.6598207837928
 30
0.0
 11
153.6994273662521
 21
230.6598207837928
 31
0.0
  0
LINE
  5
1FFD
330
18
100
AcDbEntity
  8
1
  6
Continuous
100
AcDbLine
 10
152.1994273662357
 20
231.9098207837841
 30
0.0
 11
151.4994273663021
 21
231.909820783784
 31
0.0
  0
LINE
  5
1FFE
330
18
100
AcDbEntity
  8
1
  6
Continuous
100
AcDbLine
 10
151.199427366298
 20
230.1598207837963
 30
0.0
 11
151.4994273662985
 21
230.1598207837961
 31
0.0
  0
LINE
  5
1FFF
330
18
100
AcDbEntity
  8
1
  6
Continuous
100
AcDbLine
 10
149.949427366366
 20
230.6598207838025
 30
0.0
 11
150.1994273663046
 21
230.6598207838028
 31
0.0
  0
LINE
  5
2000
330
18
100
AcDbEntity
  8
1
  6
Continuous
100
AcDbLine
 10
149.9494273663545
 20
233.6598207838024
 30
0.0
 11
150.1994273662991
 21
233.6598207838028
 31
0.0
  0
LINE
  5
2001
330
18
100
AcDbEntity
  8
1
  6
Continuous
100
AcDbLine
 10
151.4994273662981
 20
234.1598207838042
 30
0.0
 11
151.4994273663055
 21
230.15982078378
 31
0.0
  0
LINE
  5
2002
330
18
100
AcDbEntity
  8
1
  6
Continuous
100
AcDbLine
 10
151.199427366298
 20
234.1598207838041
 30
0.0
 11
151.4994273662985
 21
234.1598207838042
 31
0.0
  0
ARC
  5
2003
330
18
100
AcDbEntity
  8
1
  6
Continuous
100
AcDbCircle
 10
150.1994273663204
 20
228.1598207837927
 30
0.0
 40
1.0
100
AcDbArc
 50
270.0
 51
0.0000000001059068
  0
LINE
  5
2004
330
18
100
AcDbEntity
  8
1
  6
Continuous
100
AcDbLine
 10
154.699427366254
 20
235.4046328982168
 30
0.0
 11
153.6994273662516
 21
235.4046328982168
 31
0.0
  0
LINE
  5
2005
330
18
100
AcDbEntity
  8
1
  6
Continuous
100
AcDbLine
 10
154.699427366254
 20
238.9046328982168
 30
0.0
 11
153.699427366248
 21
238.9046328982168
 31
0.0
  0
ARC
  5
2006
330
18
100
AcDbEntity
  8
1
  6
Continuous
100
AcDbCircle
 10
156.6994273662243
 20
234.5536248121558
 30
0.0
 40
4.599999999999998
100
AcDbArc
 50
109.0314409251154
 51
115.7714617401395
  0
LINE
  5
2007
330
18
100
AcDbEntity
  8
1
  6
Continuous
100
AcDbLine
 10
156.6994273662243
 20
239.6887263003908
 30
0.0
 11
155.1994273662243
 21
239.6887263003908
 31
0.0
  0
LINE
  5
2008
330
18
100
AcDbEntity
  8
1
  6
Continuous
100
AcDbLine
 10
158.1994273662429
 20
238.9021877931812
 30
0.0
 11
158.1994273662435
 21
239.1951733586925
 31
0.0
  0
LINE
  5
2009
330
18
100
AcDbEntity
  8
1
  6
Continuous
100
AcDbLine
 10
156.6994273662243
 20
239.6887263003908
 30
0.0
 11
156.6994273662243
 21
237.4794159530392
 31
0.0
  0
LINE
  5
200A
330
18
100
AcDbEntity
  8
1
  6
Continuous
100
AcDbLine
 10
155.1994273662243
 20
239.6887263003908
 30
0.0
 11
155.1994273662243
 21
237.4794159530392
 31
0.0
  0
ARC
  5
200B
330
18
100
AcDbEntity
  8
1
  6
Continuous
100
AcDbCircle
 10
157.199427366238
 20
236.4708924178626
 30
0.0
 40
1.0
100
AcDbArc
 50
359.9999999998855
 51
89.03946943480885
  0
LINE
  5
200C
330
18
100
AcDbEntity
  8
1
  6
Continuous
100
AcDbLine
 10
154.6994273662541
 20
237.5129479362959
 30
0.0
 11
157.216191001916
 21
237.4707518982491
 31
0.0
  0
LINE
  5
200D
330
18
100
AcDbEntity
  8
1
  6
Continuous
100
AcDbLine
 10
158.1994273662433
 20
239.1951733586925
 30
0.0
 11
156.6994273662243
 21
239.1951733586925
 31
0.0
  0
LINE
  5
200E
330
18
100
AcDbEntity
  8
1
  6
Continuous
100
AcDbLine
 10
154.699427366254
 20
238.9046328982168
 30
0.0
 11
154.699427366254
 21
235.4046328982168
 31
0.0
  0
LINE
  5
200F
330
18
100
AcDbEntity
  8
1
  6
Continuous
100
AcDbLine
 10
153.6994273662463
 20
240.1546328982044
 30
0.0
 11
152.1994273662463
 21
240.1546328982044
 31
0.0
  0
LINE
  5
2010
330
18
100
AcDbEntity
  8
1
  6
Continuous
100
AcDbLine
 10
151.1994273662992
 20
239.6598207837927
 30
0.0
 11
151.1994273663006
 21
238.9046328982166
 31
0.0
  0
LINE
  5
2011
330
18
100
AcDbEntity
  8
1
  6
Continuous
100
AcDbLine
 10
150.1994273662933
 20
239.6598207837927
 30
0.0
 11
150.1994273662937
 21
238.9046328982166
 31
0.0
  0
LINE
  5
2012
330
18
100
AcDbEntity
  8
1
  6
Continuous
100
AcDbLine
 10
149.9494273663589
 20
240.6598207837985
 30
0.0
 11
149.9494273663655
 21
238.9046328982166
 31
0.0
  0
LINE
  5
2013
330
18
100
AcDbEntity
  8
1
  6
Continuous
100
AcDbLine
 10
148.4494273663589
 20
240.6598207837928
 30
0.0
 11
148.4494273663656
 21
238.9046328982165
 31
0.0
  0
ARC
  5
2014
330
18
100
AcDbEntity
  8
1
  6
Continuous
100
AcDbCircle
 10
148.4494273663589
 20
240.6598207837928
 30
0.0
 40
1.5
100
AcDbArc
 50
0.0000000002176078
 51
90.0000000000001
  0
LINE
  5
2015
330
18
100
AcDbEntity
  8
1
  6
Continuous
100
AcDbLine
 10
151.1994273662992
 20
239.6598207837927
 30
0.0
 11
150.1994273662933
 21
239.6598207837927
 31
0.0
  0
LINE
  5
210A
330
18
100
AcDbEntity
  8
4
  6
CENTER
 48
0.2
100
AcDbLine
 10
128.3166556388979
 20
50.97455791178237
 30
0.0
 11
155.9567333601387
 21
50.97455791181022
 31
0.0
  0
LINE
  5
210B
330
18
100
AcDbEntity
  8
4
  6
CENTER
 48
0.2
100
AcDbLine
 10
128.0596607361879
 20
47.47974579739763
 30
0.0
 11
156.3391939962965
 21
47.47974579737017
 31
0.0
  0
LINE
  5
211E
330
18
100
AcDbEntity
  8
1
  6
Continuous
100
AcDbLine
 10
148.449427366142
 20
43.97455791179639
 30
0.0
 11
148.4494273664064
 21
56.4745579117963
 31
0.0
  0
LINE
  5
211F
330
18
100
AcDbEntity
  8
1
  6
Continuous
100
AcDbLine
 10
149.9494273663589
 20
43.97455791179061
 30
0.0
 11
149.9494273664064
 21
56.47455791179635
 31
0.0
  0
LINE
  5
2120
330
18
100
AcDbEntity
  8
1
  6
Continuous
100
AcDbLine
 10
150.1994273662933
 20
44.97455791179641
 30
0.0
 11
150.1994273663005
 21
57.47455791179641
 31
0.0
  0
LINE
  5
2121
330
18
100
AcDbEntity
  8
1
  6
Continuous
100
AcDbLine
 10
151.1994273662992
 20
44.97455791179641
 30
0.0
 11
151.1994273663205
 21
56.47455791179641
 31
0.0
  0
LINE
  5
2129
330
18
100
AcDbEntity
  8
1
  6
Continuous
100
AcDbLine
 10
132.1994273662487
 20
53.9745579117963
 30
0.0
 11
132.1994273662545
 21
44.47974579738478
 31
0.0
  0
LINE
  5
212A
330
18
100
AcDbEntity
  8
1
  6
Continuous
100
AcDbLine
 10
130.6994273662487
 20
53.9745579117963
 30
0.0
 11
130.6994273662523
 21
47.97455791179629
 31
0.0
  0
LINE
  5
212B
330
18
100
AcDbEntity
  8
1
  6
Continuous
100
AcDbLine
 10
133.1994273662016
 20
44.97455791179641
 30
0.0
 11
133.1994273661805
 21
56.47455791179641
 31
0.0
  0
LINE
  5
212C
330
18
100
AcDbEntity
  8
1
  6
Continuous
100
AcDbLine
 10
134.1994273662076
 20
44.97455791179641
 30
0.0
 11
134.1994273662004
 21
57.47455791179646
 31
0.0
  0
LINE
  5
212D
330
18
100
AcDbEntity
  8
1
  6
Continuous
100
AcDbLine
 10
134.449427366142
 20
43.97455791179061
 30
0.0
 11
134.4494273660944
 21
56.47455791179635
 31
0.0
  0
LINE
  5
212E
330
18
100
AcDbEntity
  8
1
  6
Continuous
100
AcDbLine
 10
135.949427366142
 20
43.9745579117963
 30
0.0
 11
135.9494273660944
 21
56.4745579117963
 31
0.0
  0
LINE
  5
212F
330
18
100
AcDbEntity
  8
4
  6
CENTER
 48
0.2
100
AcDbLine
 10
142.1994273662504
 20
39.70168862031
 30
0.0
 11
142.1994273662269
 21
62.0233645032842
 31
0.0
  0
LINE
  5
2130
330
18
100
AcDbEntity
  8
1
  6
Continuous
100
AcDbLine
 10
148.449427366104
 20
53.97455791180061
 30
0.0
 11
135.9494273661039
 21
53.97455791178356
 31
0.0
  0
LINE
  5
2132
330
18
100
AcDbEntity
  8
4
  6
CENTER
 48
0.2
100
AcDbLine
 10
152.4994273661991
 20
52.4745579118042
 30
0.0
 11
131.8994273661991
 21
52.47455791178897
 31
0.0
  0
LINE
  5
2133
330
18
100
AcDbEntity
  8
1
  6
Continuous
100
AcDbLine
 10
134.199427366201
 20
56.47455791179635
 30
0.0
 11
150.1994273662999
 21
56.47455791179556
 31
0.0
  0
LINE
  5
2134
330
18
100
AcDbEntity
  8
1
  6
Continuous
100
AcDbLine
 10
134.1994273661804
 20
57.47455791179646
 30
0.0
 11
150.1994273661805
 21
57.47455791179641
 31
0.0
  0
LINE
  5
213A
330
18
100
AcDbEntity
  8
1
  6
Continuous
100
AcDbLine
 10
127.6994273662765
 20
55.01404089613169
 30
0.0
 11
129.1994273662764
 21
55.01404089613174
 31
0.0
  0
LINE
  5
213F
330
18
100
AcDbEntity
  8
1
  6
Continuous
100
AcDbLine
 10
126.1994273662775
 20
55.50759383783065
 30
0.0
 11
127.6994273662765
 21
55.50759383783065
 31
0.0
  0
LINE
  5
2140
330
18
100
AcDbEntity
  8
1
  6
Continuous
100
AcDbLine
 10
129.1994273662764
 20
54.74871542316427
 30
0.0
 11
129.1994273662764
 21
55.01404089613174
 31
0.0
  0
LINE
  5
2147
330
18
100
AcDbEntity
  8
1
  6
Continuous
100
AcDbLine
 10
132.1994273662487
 20
53.9745579117963
 30
0.0
 11
130.6994273662487
 21
53.9745579117963
 31
0.0
  0
LINE
  5
2149
330
18
100
AcDbEntity
  8
1
  6
Continuous
100
AcDbLine
 10
133.1994273662028
 20
54.47455791179288
 30
0.0
 11
132.8994273662024
 21
54.47455791179301
 31
0.0
  0
LINE
  5
214A
330
18
100
AcDbEntity
  8
1
  6
Continuous
100
AcDbLine
 10
134.4494273661349
 20
53.97455791178669
 30
0.0
 11
134.1994273661962
 21
53.97455791178636
 31
0.0
  0
LINE
  5
214C
330
18
100
AcDbEntity
  8
1
  6
Continuous
100
AcDbLine
 10
132.8994273661986
 20
52.72455791178764
 30
0.0
 11
132.8994273661954
 21
54.47455791180914
 31
0.0
  0
ARC
  5
214E
330
18
100
AcDbEntity
  8
1
  6
Continuous
100
AcDbCircle
 10
134.1994273661804
 20
56.47455791179647
 30
0.0
 40
1.0
100
AcDbArc
 50
90.00000000000005
 51
180.0000000001059
  0
ARC
  5
214F
330
18
100
AcDbEntity
  8
1
  6
Continuous
100
AcDbCircle
 10
150.1994273663204
 20
56.47455791179647
 30
0.0
 40
1.0
100
AcDbArc
 50
359.999999999894
 51
90.00000000000005
  0
LINE
  5
2153
330
18
100
AcDbEntity
  8
1
  6
Continuous
100
AcDbLine
 10
149.949427366366
 20
53.97455791178669
 30
0.0
 11
150.1994273663046
 21
53.97455791178636
 31
0.0
  0
LINE
  5
215A
330
18
100
AcDbEntity
  8
1
  6
Continuous
100
AcDbLine
 10
132.199427366253
 20
45.72974579737257
 30
0.0
 11
133.1994273662003
 21
45.72974579737257
 31
0.0
  0
LINE
  5
215C
330
18
100
AcDbEntity
  8
1
  6
Continuous
100
AcDbLine
 10
135.949427366142
 20
42.47455791179628
 30
0.0
 11
148.449427366142
 21
42.47455791179635
 31
0.0
  0
LINE
  5
215D
330
18
100
AcDbEntity
  8
1
  6
Continuous
100
AcDbLine
 10
135.949427366142
 20
43.9745579117963
 30
0.0
 11
148.449427366142
 21
43.97455791179639
 31
0.0
  0
LINE
  5
215F
330
18
100
AcDbEntity
  8
1
  6
Continuous
100
AcDbLine
 10
129.6994273662469
 20
45.72974579737233
 30
0.0
 11
130.6994273662529
 21
45.72974579737233
 31
0.0
  0
LINE
  5
2161
330
18
100
AcDbEntity
  8
1
  6
Continuous
100
AcDbLine
 10
127.6994273662766
 20
44.94565239519828
 30
0.0
 11
129.1994273662766
 21
44.94565239519828
 31
0.0
  0
LINE
  5
2162
330
18
100
AcDbEntity
  8
1
  6
Continuous
100
AcDbLine
 10
126.1994273662779
 20
55.50759383783065
 30
0.0
 11
126.1994273662573
 21
45.43920533689668
 31
0.0
  0
LINE
  5
2163
330
18
100
AcDbEntity
  8
1
  6
Continuous
100
AcDbLine
 10
127.6994273662766
 20
44.94565239519828
 30
0.0
 11
127.6994273662765
 21
55.50759383783065
 31
0.0
  0
LINE
  5
2164
330
18
100
AcDbEntity
  8
1
  6
Continuous
100
AcDbLine
 10
129.1994273662766
 20
44.94565239519828
 30
0.0
 11
129.1994273662766
 21
45.7321909024015
 31
0.0
  0
LINE
  5
2167
330
18
100
AcDbEntity
  8
1
  6
Continuous
100
AcDbLine
 10
126.1994273662576
 20
45.43920533689668
 30
0.0
 11
127.6994273662766
 21
45.43920533689668
 31
0.0
  0
LINE
  5
2168
330
18
100
AcDbEntity
  8
1
  6
Continuous
100
AcDbLine
 10
129.6994273662469
 20
45.72974579737233
 30
0.0
 11
129.6994273662469
 21
45.93829084797738
 31
0.0
  0
LINE
  5
2169
330
18
100
AcDbEntity
  8
1
  6
Continuous
100
AcDbLine
 10
130.6994273662545
 20
44.47974579738478
 30
0.0
 11
132.1994273662545
 21
44.47974579738478
 31
0.0
  0
ARC
  5
216E
330
18
100
AcDbEntity
  8
1
  6
Continuous
100
AcDbCircle
 10
135.949427366142
 20
43.9745579117963
 30
0.0
 40
1.5
100
AcDbArc
 50
180.0000000002175
 51
270.0000000000001
  0
LINE
  5
216F
330
18
100
AcDbEntity
  8
1
  6
Continuous
100
AcDbLine
 10
133.1994273662017
 20
44.97455791179641
 30
0.0
 11
134.1994273662076
 21
44.97455791179641
 31
0.0
  0
LINE
  5
2170
330
18
100
AcDbEntity
  8
1
  6
Continuous
100
AcDbLine
 10
151.1994273662992
 20
44.97455791179641
 30
0.0
 11
150.1994273662933
 21
44.97455791179641
 31
0.0
  0
ARC
  5
2171
330
18
100
AcDbEntity
  8
1
  6
Continuous
100
AcDbCircle
 10
148.4494273663589
 20
43.9745579117963
 30
0.0
 40
1.5
100
AcDbArc
 50
269.9999999999998
 51
359.9999999997824
  0
LINE
  5
2193
330
18
100
AcDbEntity
  8
1
  6
Continuous
100
AcDbLine
 10
134.1994273662071
 20
45.72974579737257
 30
0.0
 11
134.4494273661354
 21
45.72974579737257
 31
0.0
  0
LINE
  5
2194
330
18
100
AcDbEntity
  8
1
  6
Continuous
100
AcDbLine
 10
135.9494273661352
 20
45.7297457973726
 30
0.0
 11
148.4494273663655
 21
45.72974579737274
 31
0.0
  0
LINE
  5
219A
330
18
100
AcDbEntity
  8
1
  6
Continuous
100
AcDbLine
 10
149.9494273663655
 20
45.72974579737274
 30
0.0
 11
150.1994273662937
 21
45.72974579737274
 31
0.0
  0
LINE
  5
21A4
330
18
100
AcDbEntity
  8
1
  6
Continuous
100
AcDbLine
 10
130.199427366244
 20
49.22455791178783
 30
0.0
 11
130.6994273662051
 21
49.22455791178783
 31
0.0
  0
LINE
  5
21A5
330
18
100
AcDbEntity
  8
1
  6
Continuous
100
AcDbLine
 10
130.1994273662441
 20
52.72455791178782
 30
0.0
 11
130.6994273662087
 21
52.72455791178782
 31
0.0
  0
LINE
  5
21A6
330
18
100
AcDbEntity
  8
1
  6
Continuous
100
AcDbLine
 10
130.1994273662441
 20
52.72455791178782
 30
0.0
 11
130.199427366244
 21
49.22455791178783
 31
0.0
  0
LINE
  5
21A7
330
18
100
AcDbEntity
  8
1
  6
Continuous
100
AcDbLine
 10
132.199427366244
 20
52.72455791178764
 30
0.0
 11
133.1994273661775
 21
52.72455791178764
 31
0.0
  0
LINE
  5
21A8
330
18
100
AcDbEntity
  8
1
  6
Continuous
100
AcDbLine
 10
132.199427366244
 20
49.22455791178761
 30
0.0
 11
133.199427366171
 21
49.22455791178761
 31
0.0
  0
LINE
  5
21BE
330
18
100
AcDbEntity
  8
1
  6
Continuous
100
AcDbLine
 10
134.1994273661937
 20
49.22455791178761
 30
0.0
 11
134.4494273661132
 21
49.22455791178761
 31
0.0
  0
LINE
  5
21BF
330
18
100
AcDbEntity
  8
1
  6
Continuous
100
AcDbLine
 10
134.1994273661917
 20
52.72455791178764
 30
0.0
 11
134.4494273661
 21
52.7245579117876
 31
0.0
  0
LINE
  5
21C0
330
18
100
AcDbEntity
  8
1
  6
Continuous
100
AcDbLine
 10
149.9494273663771
 20
52.72455791178764
 30
0.0
 11
150.1994273662854
 21
52.72455791178764
 31
0.0
  0
LINE
  5
21C1
330
18
100
AcDbEntity
  8
1
  6
Continuous
100
AcDbLine
 10
149.9494273663638
 20
49.22455791178761
 30
0.0
 11
150.1994273662834
 21
49.22455791178761
 31
0.0
  0
LINE
  5
21C2
330
18
100
AcDbEntity
  8
1
  6
Continuous
100
AcDbLine
 10
135.9494273661132
 20
49.22455791178761
 30
0.0
 11
148.4494273662239
 21
49.22455791178761
 31
0.0
  0
LINE
  5
21C3
330
18
100
AcDbEntity
  8
1
  6
Continuous
100
AcDbLine
 10
135.9494273660999
 20
52.7245579117876
 30
0.0
 11
148.4494273662979
 21
52.72455791178764
 31
0.0
  0
LINE
  5
21C6
330
18
100
AcDbEntity
  8
1
  6
Continuous
100
AcDbLine
 10
130.6994273662524
 20
47.97455791179629
 30
0.0
 11
132.1994273662522
 21
47.97455791179629
 31
0.0
  0
LINE
  5
21C7
330
18
100
AcDbEntity
  8
1
  6
Continuous
100
AcDbLine
 10
127.6994273662766
 20
47.53774724739256
 30
0.0
 11
129.1994273662766
 21
47.53774724739257
 31
0.0
  0
LINE
  5
21CA
330
18
100
AcDbEntity
  8
1
  6
Continuous
100
AcDbLine
 10
130.6994273662491
 20
53.31347913772856
 30
0.0
 11
128.4480181118091
 21
52.72867047252002
 31
0.0
  0
ARC
  5
21CC
330
18
100
AcDbEntity
  8
1
  6
Continuous
100
AcDbCircle
 10
128.6994273662765
 20
51.76078959825495
 30
0.0
 40
1.0
100
AcDbArc
 50
104.5609202795566
 51
180.0
  0
LINE
  5
21CD
330
18
100
AcDbEntity
  8
1
  6
Continuous
100
AcDbLine
 10
130.6994273662492
 20
49.09043678686621
 30
0.0
 11
128.4480181118092
 21
48.50562812165765
 31
0.0
  0
ARC
  5
21CE
330
18
100
AcDbEntity
  8
1
  6
Continuous
100
AcDbCircle
 10
128.6994273662765
 20
47.53774724739257
 30
0.0
 40
1.0
100
AcDbArc
 50
104.5609202795566
 51
180.0
  0
LINE
  5
21D1
330
18
100
AcDbEntity
  8
1
  6
Continuous
100
AcDbLine
 10
130.6994273662522
 20
48.31700405827675
 30
0.0
 11
129.5737227390428
 21
48.02459972567522
 31
0.0
  0
ARC
  5
21D3
330
18
100
AcDbEntity
  8
1
  6
Continuous
100
AcDbCircle
 10
129.6994273662765
 20
47.54065928854267
 30
0.0
 40
0.5
100
AcDbArc
 50
104.5609202795573
 51
179.9999999999992
  0
ARC
  5
225C
330
18
100
AcDbEntity
  8
1
  6
Continuous
100
AcDbCircle
 10
127.6994273662765
 20
50.40015244213247
 30
0.0
 40
3.399999999999999
100
AcDbArc
 50
116.1789687040658
 51
243.8210312957008
  0
ARC
  5
225D
330
18
100
AcDbEntity
  8
1
  6
Continuous
100
AcDbCircle
 10
127.6994273662766
 20
50.40015244213247
 30
0.0
 40
4.599999999999998
100
AcDbArc
 50
109.0314409251188
 51
250.9685590746475
  0
ARC
  5
225E
330
18
100
AcDbEntity
  8
1
  6
Continuous
100
AcDbCircle
 10
127.6994273662766
 20
50.08075388343332
 30
0.0
 40
4.599999999999998
100
AcDbArc
 50
178.0104491790394
 51
250.9685590746389
  0
ARC
  5
225F
330
18
100
AcDbEntity
  8
1
  6
Continuous
100
AcDbCircle
 10
127.6994273662766
 20
50.08075388343332
 30
0.0
 40
3.399999999999999
100
AcDbArc
 50
58.86217321140644
 51
90.00000000000143
  0
ARC
  5
2260
330
18
100
AcDbEntity
  8
1
  6
Continuous
100
AcDbCircle
 10
127.6994273662766
 20
50.08075388343332
 30
0.0
 40
3.399999999999999
100
AcDbArc
 50
116.1789687040792
 51
177.3078051302205
  0
ARC
  5
2261
330
18
100
AcDbEntity
  8
1
  6
Continuous
100
AcDbCircle
 10
127.6994273662765
 20
50.40015244213247
 30
0.0
 40
3.399999999999999
100
AcDbArc
 50
270.0000000000004
 51
319.9890489336565
  0
ARC
  5
2262
330
18
100
AcDbEntity
  8
1
  6
Continuous
100
AcDbCircle
 10
127.6994273662766
 20
50.40015244213247
 30
0.0
 40
4.599999999999998
100
AcDbArc
 50
270.0
 51
328.1765794286972
  0
ARC
  5
2263
330
18
100
AcDbEntity
  8
1
  6
Continuous
100
AcDbCircle
 10
127.6994273662766
 20
50.08075388343332
 30
0.0
 40
4.599999999999998
100
AcDbArc
 50
270.0
 51
332.7503367833017
  0
ARC
  5
2264
330
18
100
AcDbEntity
  8
1
  6
Continuous
100
AcDbCircle
 10
127.6994273662765
 20
50.40015244213247
 30
0.0
 40
3.399999999999999
100
AcDbArc
 50
51.97041507579094
 51
90.00000000000047
  0
ARC
  5
2265
330
18
100
AcDbEntity
  8
1
  6
Continuous
100
AcDbCircle
 10
127.6994273662766
 20
50.40015244213247
 30
0.0
 40
4.599999999999998
100
AcDbArc
 50
49.29429316941571
 51
90.00000000000104
  0
LINE
  5
2266
330
18
100
AcDbEntity
  8
1
  6
Continuous
100
AcDbLine
 10
129.1994273662766
 20
47.34892318165401
 30
0.0
 11
129.1994273662766
 21
47.5406592885427
 31
0.0
  0
LINE
  5
2268
330
18
100
AcDbEntity
  8
1
  6
Continuous
100
AcDbLine
 10
130.6994273662532
 20
46.59363472858067
 30
0.0
 11
130.6994273662545
 21
44.47974579738478
 31
0.0
  0
ARC
  5
226A
330
18
100
AcDbEntity
  8
1
  6
Continuous
100
AcDbCircle
 10
156.6994273661771
 20
50.08075388343332
 30
0.0
 40
4.599999999999998
100
AcDbArc
 50
289.031440925361
 51
1.989550820960434
  0
ARC
  5
226B
330
18
100
AcDbEntity
  8
1
  6
Continuous
100
AcDbCircle
 10
156.6994273661771
 20
50.08075388343332
 30
0.0
 40
3.399999999999999
100
AcDbArc
 50
2.692194869779409
 51
63.82103129592077
  0
ARC
  5
226C
330
18
100
AcDbEntity
  8
1
  6
Continuous
100
AcDbCircle
 10
156.6994273661771
 20
50.40015244213247
 30
0.0
 40
4.599999999999998
100
AcDbArc
 50
289.0314409253525
 51
70.96855907488119
  0
ARC
  5
226D
330
18
100
AcDbEntity
  8
1
  6
Continuous
100
AcDbCircle
 10
156.6994273661772
 20
50.40015244213247
 30
0.0
 40
3.399999999999999
100
AcDbArc
 50
296.178968704299
 51
63.82103129593417
  0
LINE
  5
226E
330
18
100
AcDbEntity
  8
1
  6
Continuous
100
AcDbLine
 10
154.1994273662096
 20
52.72455791178782
 30
0.0
 11
154.1994273662097
 21
49.22455791178783
 31
0.0
  0
LINE
  5
226F
330
18
100
AcDbEntity
  8
1
  6
Continuous
100
AcDbLine
 10
156.6994273661771
 20
44.94565239519828
 30
0.0
 11
156.6994273661773
 21
55.50759383783065
 31
0.0
  0
LINE
  5
2270
330
18
100
AcDbEntity
  8
1
  6
Continuous
100
AcDbLine
 10
158.1994273661758
 20
55.50759383783065
 30
0.0
 11
158.1994273661964
 21
45.43920533689668
 31
0.0
  0
LINE
  5
2271
330
18
100
AcDbEntity
  8
1
  6
Continuous
100
AcDbLine
 10
153.699427366205
 20
53.9745579117963
 30
0.0
 11
153.6994273662013
 21
47.97455791179629
 31
0.0
  0
LINE
  5
2272
330
18
100
AcDbEntity
  8
1
  6
Continuous
100
AcDbLine
 10
152.1994273662049
 20
53.9745579117963
 30
0.0
 11
152.1994273661992
 21
44.47974579738478
 31
0.0
  0
ARC
  5
2273
330
18
100
AcDbEntity
  8
1
  6
Continuous
100
AcDbCircle
 10
156.6994273661771
 20
50.08075388343332
 30
0.0
 40
4.599999999999998
100
AcDbArc
 50
207.2496632166982
 51
270.0
  0
ARC
  5
2274
330
18
100
AcDbEntity
  8
1
  6
Continuous
100
AcDbCircle
 10
156.6994273661771
 20
50.40015244213247
 30
0.0
 40
4.599999999999998
100
AcDbArc
 50
211.8234205713029
 51
270.0
  0
ARC
  5
2275
330
18
100
AcDbEntity
  8
1
  6
Continuous
100
AcDbCircle
 10
156.6994273661772
 20
50.40015244213247
 30
0.0
 40
3.399999999999999
100
AcDbArc
 50
220.0109510663434
 51
269.9999999999995
  0
LINE
  5
2276
330
18
100
AcDbEntity
  8
1
  6
Continuous
100
AcDbLine
 10
153.6994273662015
 20
48.31700405827675
 30
0.0
 11
154.8251319934108
 21
48.02459972567522
 31
0.0
  0
LINE
  5
2277
330
18
100
AcDbEntity
  8
1
  6
Continuous
100
AcDbLine
 10
153.6994273662045
 20
49.09043678686621
 30
0.0
 11
155.9508366206445
 21
48.50562812165765
 31
0.0
  0
LINE
  5
2278
330
18
100
AcDbEntity
  8
1
  6
Continuous
100
AcDbLine
 10
154.1994273662097
 20
49.22455791178783
 30
0.0
 11
153.6994273662486
 21
49.22455791178783
 31
0.0
  0
LINE
  5
2279
330
18
100
AcDbEntity
  8
1
  6
Continuous
100
AcDbLine
 10
154.6994273662069
 20
45.72974579737233
 30
0.0
 11
153.6994273662009
 21
45.72974579737233
 31
0.0
  0
LINE
  5
227A
330
18
100
AcDbEntity
  8
1
  6
Continuous
100
AcDbLine
 10
155.1994273661772
 20
47.34892318165401
 30
0.0
 11
155.1994273661772
 21
47.5406592885427
 31
0.0
  0
ARC
  5
227B
330
18
100
AcDbEntity
  8
1
  6
Continuous
100
AcDbCircle
 10
154.6994273661771
 20
47.54065928854267
 30
0.0
 40
0.5
100
AcDbArc
 50
0.0000000000007449
 51
75.43907972044266
  0
ARC
  5
227C
330
18
100
AcDbEntity
  8
1
  6
Continuous
100
AcDbCircle
 10
155.6994273661771
 20
47.53774724739257
 30
0.0
 40
1.0
100
AcDbArc
 50
0.000000000000007
 51
75.43907972044336
  0
LINE
  5
227D
330
18
100
AcDbEntity
  8
1
  6
Continuous
100
AcDbLine
 10
156.6994273661771
 20
47.53774724739256
 30
0.0
 11
155.1994273661771
 21
47.53774724739257
 31
0.0
  0
LINE
  5
227E
330
18
100
AcDbEntity
  8
1
  6
Continuous
100
AcDbLine
 10
154.6994273662069
 20
45.72974579737233
 30
0.0
 11
154.6994273662069
 21
45.93829084797738
 31
0.0
  0
LINE
  5
227F
330
18
100
AcDbEntity
  8
1
  6
Continuous
100
AcDbLine
 10
158.1994273661961
 20
45.43920533689668
 30
0.0
 11
156.6994273661771
 21
45.43920533689668
 31
0.0
  0
LINE
  5
2280
330
18
100
AcDbEntity
  8
1
  6
Continuous
100
AcDbLine
 10
155.1994273661772
 20
44.94565239519828
 30
0.0
 11
155.1994273661772
 21
45.7321909024015
 31
0.0
  0
LINE
  5
2281
330
18
100
AcDbEntity
  8
1
  6
Continuous
100
AcDbLine
 10
156.6994273661771
 20
44.94565239519828
 30
0.0
 11
155.1994273661772
 21
44.94565239519828
 31
0.0
  0
LINE
  5
2282
330
18
100
AcDbEntity
  8
1
  6
Continuous
100
AcDbLine
 10
153.6994273662005
 20
46.59363472858067
 30
0.0
 11
153.6994273661991
 21
44.47974579738478
 31
0.0
  0
LINE
  5
2283
330
18
100
AcDbEntity
  8
1
  6
Continuous
100
AcDbLine
 10
153.6994273662013
 20
47.97455791179629
 30
0.0
 11
152.1994273662013
 21
47.97455791179629
 31
0.0
  0
LINE
  5
2284
330
18
100
AcDbEntity
  8
1
  6
Continuous
100
AcDbLine
 10
152.1994273662097
 20
49.22455791178761
 30
0.0
 11
151.1994273662826
 21
49.22455791178761
 31
0.0
  0
LINE
  5
2285
330
18
100
AcDbEntity
  8
1
  6
Continuous
100
AcDbLine
 10
153.6994273661991
 20
44.47974579738478
 30
0.0
 11
152.1994273661992
 21
44.47974579738478
 31
0.0
  0
LINE
  5
2286
330
18
100
AcDbEntity
  8
1
  6
Continuous
100
AcDbLine
 10
152.1994273662007
 20
45.72974579737257
 30
0.0
 11
151.1994273662535
 21
45.72974579737257
 31
0.0
  0
ARC
  5
2287
330
18
100
AcDbEntity
  8
1
  6
Continuous
100
AcDbCircle
 10
156.6994273661771
 20
50.40015244213247
 30
0.0
 40
4.599999999999998
100
AcDbArc
 50
89.99999999999895
 51
130.7057068305842
  0
LINE
  5
2288
330
18
100
AcDbEntity
  8
1
  6
Continuous
100
AcDbLine
 10
153.6994273662046
 20
53.31347913772856
 30
0.0
 11
155.9508366206446
 21
52.72867047252002
 31
0.0
  0
LINE
  5
2289
330
18
100
AcDbEntity
  8
1
  6
Continuous
100
AcDbLine
 10
154.1994273662096
 20
52.72455791178782
 30
0.0
 11
153.699427366245
 21
52.72455791178782
 31
0.0
  0
ARC
  5
228A
330
18
100
AcDbEntity
  8
1
  6
Continuous
100
AcDbCircle
 10
156.6994273661772
 20
50.40015244213247
 30
0.0
 40
3.399999999999999
100
AcDbArc
 50
89.99999999999952
 51
128.029584924209
  0
ARC
  5
228B
330
18
100
AcDbEntity
  8
1
  6
Continuous
100
AcDbCircle
 10
156.6994273661771
 20
50.08075388343332
 30
0.0
 40
3.399999999999999
100
AcDbArc
 50
89.99999999999856
 51
121.1378267885935
  0
ARC
  5
228C
330
18
100
AcDbEntity
  8
1
  6
Continuous
100
AcDbCircle
 10
155.6994273661771
 20
51.76078959825495
 30
0.0
 40
1.0
100
AcDbArc
 50
0.000000000000007
 51
75.43907972044336
  0
LINE
  5
228D
330
18
100
AcDbEntity
  8
1
  6
Continuous
100
AcDbLine
 10
155.1994273661772
 20
54.74871542316427
 30
0.0
 11
155.1994273661773
 21
55.01404089613174
 31
0.0
  0
LINE
  5
228E
330
18
100
AcDbEntity
  8
1
  6
Continuous
100
AcDbLine
 10
158.1994273661762
 20
55.50759383783065
 30
0.0
 11
156.6994273661773
 21
55.50759383783065
 31
0.0
  0
LINE
  5
228F
330
18
100
AcDbEntity
  8
1
  6
Continuous
100
AcDbLine
 10
156.6994273661773
 20
55.01404089613169
 30
0.0
 11
155.1994273661773
 21
55.01404089613174
 31
0.0
  0
LINE
  5
2290
330
18
100
AcDbEntity
  8
1
  6
Continuous
100
AcDbLine
 10
152.1994273662097
 20
52.72455791178764
 30
0.0
 11
151.1994273662762
 21
52.72455791178764
 31
0.0
  0
LINE
  5
2291
330
18
100
AcDbEntity
  8
1
  6
Continuous
100
AcDbLine
 10
151.4994273662551
 20
52.72455791178764
 30
0.0
 11
151.4994273662583
 21
54.47455791180914
 31
0.0
  0
LINE
  5
2292
330
18
100
AcDbEntity
  8
1
  6
Continuous
100
AcDbLine
 10
151.1994273662509
 20
54.47455791179288
 30
0.0
 11
151.4994273662513
 21
54.47455791179301
 31
0.0
  0
LINE
  5
2293
330
18
100
AcDbEntity
  8
1
  6
Continuous
100
AcDbLine
 10
152.199427366205
 20
53.9745579117963
 30
0.0
 11
153.6994273662049
 21
53.9745579117963
 31
0.0
  0
LINE
  5
29FA
330
18
100
AcDbEntity
  8
4
  6
CENTER
 48
0.1
100
AcDbLine
 10
131.1994273662646
 20
116.7244130194917
 30
0.0
 11
136.1994273662646
 21
116.7244130194891
 31
0.0
  0
LINE
  5
29FB
330
18
100
AcDbEntity
  8
4
  6
CENTER
 48
0.1
100
AcDbLine
 10
153.199427366153
 20
116.7244130194917
 30
0.0
 11
148.199427366153
 21
116.7244130194891
 31
0.0
  0
LINE
  5
29FC
330
18
100
AcDbEntity
  8
4
  6
CENTER
 48
0.1
100
AcDbLine
 10
342.5315993392771
 20
116.7244130194917
 30
0.0
 11
347.5315993392772
 21
116.7244130194892
 31
0.0
  0
LINE
  5
29FD
330
18
100
AcDbEntity
  8
4
  6
CENTER
 48
0.1
100
AcDbLine
 10
364.5315993391657
 20
116.7244130194917
 30
0.0
 11
359.5315993391655
 21
116.7244130194892
 31
0.0
  0
ENDSEC
  0
SECTION
  2
OBJECTS
  0
DICTIONARY
  5
C
330
0
100
AcDbDictionary
281
     1
  3
ACAD_CIP_PREVIOUS_PRODUCT_INFO
350
2A5E
  3
ACAD_COLOR
350
2A41
  3
ACAD_DETAILVIEWSTYLE
350
2A5A
  3
ACAD_GROUP
350
D
  3
ACAD_LAYOUT
350
94
  3
ACAD_MATERIAL
350
2A0F
  3
ACAD_MLEADERSTYLE
350
2A56
  3
ACAD_MLINESTYLE
350
1B
  3
ACAD_PLOTSETTINGS
350
95
  3
ACAD_PLOTSTYLENAME
350
2A0D
  3
ACAD_SCALELIST
350
2A44
  3
ACAD_SECTIONVIEWSTYLE
350
2A58
  3
ACAD_TABLESTYLE
350
2A42
  3
ACAD_VISUALSTYLE
350
2A28
  3
ACDB_RECOMPOSE_DATA
350
2A7C
  3
AcDbVariableDictionary
350
2A6F
  3
CONTENTDICTIONARY
350
3D
  3
DWGPROPS
350
2A7D
  0
DICTIONARY
  5
2A5F
330
E
100
AcDbDictionary
280
     1
281
     1
  3
ADSK_XREC_LAYER_RECONCILED
360
2A60
  0
DICTIONARY
  5
2A61
330
4E
100
AcDbDictionary
280
     1
281
     1
  3
ADSK_XREC_LAYER_RECONCILED
360
2A62
  0
DICTIONARY
  5
2A63
330
4F
100
AcDbDictionary
280
     1
281
     1
  3
ADSK_XREC_LAYER_RECONCILED
360
2A64
  0
DICTIONARY
  5
2A65
330
50
100
AcDbDictionary
280
     1
281
     1
  3
ADSK_XREC_LAYER_RECONCILED
360
2A66
  0
DICTIONARY
  5
2A67
330
51
100
AcDbDictionary
280
     1
281
     1
  3
ADSK_XREC_LAYER_RECONCILED
360
2A68
  0
DICTIONARY
  5
2A69
330
52
100
AcDbDictionary
280
     1
281
     1
  3
ADSK_XREC_LAYER_RECONCILED
360
2A6A
  0
DICTIONARY
  5
2A6B
330
53
100
AcDbDictionary
280
     1
281
     1
  3
ADSK_XREC_LAYER_RECONCILED
360
2A6C
  0
DICTIONARY
  5
2A6D
330
54
100
AcDbDictionary
280
     1
281
     1
  3
ADSK_XREC_LAYER_RECONCILED
360
2A6E
  0
DICTIONARY
  5
2A08
330
18
100
AcDbDictionary
281
     1
  3
ACAD_LAYOUTSELFREF
350
2A09
  0
DICTIONARY
  5
2A06
330
15
100
AcDbDictionary
281
     1
  3
ACAD_LAYOUTSELFREF
350
2A07
  0
XRECORD
  5
2A5E
102
{ACAD_REACTORS
330
C
102
}
330
C
100
AcDbXrecord
280
     1
300
ACDLT
300
2014
300
ACDLT_F_S
  0
DICTIONARY
  5
2A41
102
{ACAD_REACTORS
330
C
102
}
330
C
100
AcDbDictionary
281
     1
  0
DICTIONARY
  5
2A5A
102
{ACAD_REACTORS
330
C
102
}
330
C
100
AcDbDictionary
281
     1
  3
Imperial24
350
2A5B
  0
DICTIONARY
  5
D
102
{ACAD_REACTORS
330
C
102
}
330
C
100
AcDbDictionary
281
     1
  0
DICTIONARY
  5
94
102
{ACAD_REACTORS
330
C
102
}
330
C
100
AcDbDictionary
281
     1
  3
Model
350
2A5C
  3
レイアウト1
350
2A5D
  0
DICTIONARY
  5
2A0F
102
{ACAD_REACTORS
330
C
102
}
330
C
100
AcDbDictionary
281
     1
  3
ByBlock
350
2A18
  3
ByLayer
350
2A10
  3
Global
350
2A20
  0
DICTIONARY
  5
2A56
102
{ACAD_REACTORS
330
C
102
}
330
C
100
AcDbDictionary
281
     1
  3
Standard
350
2A57
  0
DICTIONARY
  5
1B
102
{ACAD_REACTORS
330
C
102
}
330
C
100
AcDbDictionary
281
     1
  3
STANDARD
350
1C
  0
DICTIONARY
  5
95
102
{ACAD_REACTORS
330
C
102
}
330
C
100
AcDbDictionary
281
     1
  0
ACDBDICTIONARYWDFLT
  5
2A0D
102
{ACAD_REACTORS
330
C
102
}
330
C
100
AcDbDictionary
281
     1
  3
Normal
350
2A0E
100
AcDbDictionaryWithDefault
340
2A0E
  0
DICTIONARY
  5
2A44
102
{ACAD_REACTORS
330
C
102
}
330
C
100
AcDbDictionary
281
     1
  3
A0
350
2A45
  3
A1
350
2A46
  3
A2
350
2A47
  3
A3
350
2A48
  3
A4
350
2A49
  3
A5
350
2A4A
  3
A6
350
2A4B
  3
A7
350
2A4C
  3
A8
350
2A4D
  3
A9
350
2A4E
  3
B0
350
2A4F
  3
B1
350
2A50
  3
B2
350
2A51
  3
B3
350
2A52
  3
B4
350
2A53
  3
B5
350
2A54
  3
B6
350
2A55
  0
DICTIONARY
  5
2A58
102
{ACAD_REACTORS
330
C
102
}
330
C
100
AcDbDictionary
281
     1
  3
Imperial24
350
2A59
  0
DICTIONARY
  5
2A42
102
{ACAD_REACTORS
330
C
102
}
330
C
100
AcDbDictionary
281
     1
  3
Standard
350
2A43
  0
DICTIONARY
  5
2A28
102
{ACAD_REACTORS
330
C
102
}
330
C
100
AcDbDictionary
281
     1
  3
2dWireframe
350
2A2E
  3
Basic
350
2A2D
  3
Brighten
350
2A34
  3
ColorChange
350
2A38
  3
Conceptual
350
2A31
  3
Dim
350
2A33
  3
EdgeColorOff
350
2A40
  3
Facepattern
350
2A37
  3
Flat
350
2A29
  3
FlatWithEdges
350
2A2A
  3
Gouraud
350
2A2B
  3
GouraudWithEdges
350
2A2C
  3
Hidden
350
2A30
  3
JitterOff
350
2A3E
  3
Linepattern
350
2A36
  3
OverhangOff
350
2A3F
  3
Realistic
350
2A32
  3
Shaded
350
2A3D
  3
Shaded with edges
350
2A3C
  3
Shades of Gray
350
2A39
  3
Sketchy
350
2A3A
  3
Thicken
350
2A35
  3
Wireframe
350
2A2F
  3
X-Ray
350
2A3B
  0
XRECORD
  5
2A7C
102
{ACAD_REACTORS
330
C
102
}
330
C
100
AcDbXrecord
280
     1
 90
        1
330
2A43
  0
DICTIONARY
  5
2A6F
102
{ACAD_REACTORS
330
C
102
}
330
C
100
AcDbDictionary
281
     1
  3
CANNOSCALE
350
2A74
  3
CMLEADERSTYLE
350
2A71
  3
CTABLESTYLE
350
2A70
  3
CVIEWDETAILSTYLE
350
2A72
  3
CVIEWSECTIONSTYLE
350
2A73
  3
DIMASSOC
350
2A77
  3
INDEXCTL
350
2A76
  3
SORTENTS
350
2A75
  3
XCLIPFRAME
350
2A78
  0
DICTIONARY
  5
3D
102
{ACAD_REACTORS
330
C
102
}
330
C
100
AcDbDictionary
281
     1
  0
XRECORD
  5
2A7D
102
{ACAD_REACTORS
330
C
102
}
330
C
100
AcDbXrecord
280
     1
  1
DWGPROPS COOKIE
  2

  3

  4

  6

  7

  8
Yoshitsune
  9

300
=
301
=
302
=
303
=
304
=
305
=
306
=
307
=
308
=
309
=
 40
0.1448979166666666
 41
2453830.603673681
 42
2457192.602147303
  1

 90
        0
  0
XRECORD
  5
2A60
102
{ACAD_REACTORS
330
2A5F
102
}
330
2A5F
100
AcDbXrecord
280
     1
290
     1
  0
XRECORD
  5
2A62
102
{ACAD_REACTORS
330
2A61
102
}
330
2A61
100
AcDbXrecord
280
     1
290
     1
  0
XRECORD
  5
2A64
102
{ACAD_REACTORS
330
2A63
102
}
330
2A63
100
AcDbXrecord
280
     1
290
     1
  0
XRECORD
  5
2A66
102
{ACAD_REACTORS
330
2A65
102
}
330
2A65
100
AcDbXrecord
280
     1
290
     1
  0
XRECORD
  5
2A68
102
{ACAD_REACTORS
330
2A67
102
}
330
2A67
100
AcDbXrecord
280
     1
290
     1
  0
XRECORD
  5
2A6A
102
{ACAD_REACTORS
330
2A69
102
}
330
2A69
100
AcDbXrecord
280
     1
290
     1
  0
XRECORD
  5
2A6C
102
{ACAD_REACTORS
330
2A6B
102
}
330
2A6B
100
AcDbXrecord
280
     1
290
     1
  0
XRECORD
  5
2A6E
102
{ACAD_REACTORS
330
2A6D
102
}
330
2A6D
100
AcDbXrecord
280
     1
290
     1
  0
XRECORD
  5
2A09
102
{ACAD_REACTORS
330
2A08
102
}
330
2A08
100
AcDbXrecord
280
     1
340
18
  0
XRECORD
  5
2A07
102
{ACAD_REACTORS
330
2A06
102
}
330
2A06
100
AcDbXrecord
280
     1
340
15
  0
ACDBDETAILVIEWSTYLE
  5
2A5B
102
{ACAD_XDICTIONARY
360
2AB5
102
}
102
{ACAD_REACTORS
330
2A5A
102
}
330
2A5A
100
AcDbModelDocViewStyle
 70
     0
  3
Imperial24
290
     0
100
AcDbDetailViewStyle
 70
     0
 71
     0
 90
        3
 71
     1
340
F
 40
0.24
340
0
 40
0.24
300

 40
0.36
280
     3
 71
     2
340
14
 90
       25
 71
     3
340
F
 40
0.24
 90
        1
 40
0.75
 90
        1
300
%<\AcVar ViewType \f "%tc1">% %<\AcVar ViewDetailId>%\PSCALE %<\AcVar ViewScale \f "%sn">%
 71
     4
340
14
 90
       25
340
14
 90
       25
280
     0
  0
LAYOUT
  5
2A5C
102
{ACAD_XDICTIONARY
360
2AB7
102
}
102
{ACAD_REACTORS
330
94
102
}
330
94
100
AcDbPlotSettings
  1

  2
Canon LBP9100C
  4

  6

 40
0.0
 41
0.0
 42
0.0
 43
0.0
 44
0.0
 45
0.0
 46
0.0
 47
0.0
 48
0.0
 49
0.0
140
0.0
141
0.0
142
1.0
143
1.0
 70
  1712
 72
     0
 73
     0
 74
     0
  7

 75
     0
147
1.0
148
0.0
149
0.0
100
AcDbLayout
  1
Model
 70
     1
 71
     0
 10
0.0
 20
0.0
 11
12.0
 21
9.0
 12
0.0
 22
0.0
 32
0.0
 14
0.0
 24
0.0
 34
0.0
 15
0.0
 25
0.0
 35
0.0
146
0.0
 13
0.0
 23
0.0
 33
0.0
 16
1.0
 26
0.0
 36
0.0
 17
0.0
 27
1.0
 37
0.0
 76
     0
330
18
331
2A05
  0
LAYOUT
  5
2A5D
102
{ACAD_XDICTIONARY
360
2AB9
102
}
102
{ACAD_REACTORS
330
94
102
}
330
94
100
AcDbPlotSettings
  1

  2
Canon LBP9100C
  4

  6

 40
0.0
 41
0.0
 42
0.0
 43
0.0
 44
0.0
 45
0.0
 46
0.0
 47
0.0
 48
0.0
 49
0.0
140
0.0
141
0.0
142
1.0
143
1.0
 70
   688
 72
     0
 73
     0
 74
     5
  7

 75
    16
147
1.0
148
0.0
149
0.0
100
AcDbLayout
  1
レイアウト1
 70
     1
 71
     1
 10
0.0
 20
0.0
 11
420.0
 21
297.0
 12
0.0
 22
0.0
 32
0.0
 14
1.000000000000000E+20
 24
1.000000000000000E+20
 34
1.000000000000000E+20
 15
-1.000000000000000E+20
 25
-1.000000000000000E+20
 35
-1.000000000000000E+20
146
0.0
 13
0.0
 23
0.0
 33
0.0
 16
1.0
 26
0.0
 36
0.0
 17
0.0
 27
1.0
 37
0.0
 76
     0
330
15
  0
MATERIAL
  5
2A18
102
{ACAD_XDICTIONARY
360
2A19
102
}
102
{ACAD_REACTORS
330
2A0F
102
}
330
2A0F
100
AcDbMaterial
  1
ByBlock
 72
     0
 43
0.0208333333333333
 43
0.0
 43
0.0
 43
0.0
 43
0.0
 43
0.0208333333333333
 43
0.0
 43
0.0
 43
0.0
 43
0.0
 43
1.0
 43
0.0
 43
0.0
 43
0.0
 43
0.0
 43
1.0
 77
     0
 47
0.0208333333333333
 47
0.0
 47
0.0
 47
0.0
 47
0.0
 47
0.0208333333333333
 47
0.0
 47
0.0
 47
0.0
 47
0.0
 47
1.0
 47
0.0
 47
0.0
 47
0.0
 47
0.0
 47
1.0
171
     0
 49
0.0208333333333333
 49
0.0
 49
0.0
 49
0.0
 49
0.0
 49
0.0208333333333333
 49
0.0
 49
0.0
 49
0.0
 49
0.0
 49
1.0
 49
0.0
 49
0.0
 49
0.0
 49
0.0
 49
1.0
175
     0
142
0.0208333333333333
142
0.0
142
0.0
142
0.0
142
0.0
142
0.0208333333333333
142
0.0
142
0.0
142
0.0
142
0.0
142
1.0
142
0.0
142
0.0
142
0.0
142
0.0
142
1.0
179
     0
144
0.0208333333333333
144
0.0
144
0.0
144
0.0
144
0.0
144
0.0208333333333333
144
0.0
144
0.0
144
0.0
144
0.0
144
1.0
144
0.0
144
0.0
144
0.0
144
0.0
144
1.0
147
0.0208333333333333
147
0.0
147
0.0
147
0.0
147
0.0
147
0.0208333333333333
147
0.0
147
0.0
147
0.0
147
0.0
147
1.0
147
0.0
147
0.0
147
0.0
147
0.0
147
1.0
  0
MATERIAL
  5
2A10
102
{ACAD_XDICTIONARY
360
2A11
102
}
102
{ACAD_REACTORS
330
2A0F
102
}
330
2A0F
100
AcDbMaterial
  1
ByLayer
 72
     0
 43
0.0208333333333333
 43
0.0
 43
0.0
 43
0.0
 43
0.0
 43
0.0208333333333333
 43
0.0
 43
0.0
 43
0.0
 43
0.0
 43
1.0
 43
0.0
 43
0.0
 43
0.0
 43
0.0
 43
1.0
 77
     0
 47
0.0208333333333333
 47
0.0
 47
0.0
 47
0.0
 47
0.0
 47
0.0208333333333333
 47
0.0
 47
0.0
 47
0.0
 47
0.0
 47
1.0
 47
0.0
 47
0.0
 47
0.0
 47
0.0
 47
1.0
171
     0
 49
0.0208333333333333
 49
0.0
 49
0.0
 49
0.0
 49
0.0
 49
0.0208333333333333
 49
0.0
 49
0.0
 49
0.0
 49
0.0
 49
1.0
 49
0.0
 49
0.0
 49
0.0
 49
0.0
 49
1.0
175
     0
142
0.0208333333333333
142
0.0
142
0.0
142
0.0
142
0.0
142
0.0208333333333333
142
0.0
142
0.0
142
0.0
142
0.0
142
1.0
142
0.0
142
0.0
142
0.0
142
0.0
142
1.0
179
     0
144
0.0208333333333333
144
0.0
144
0.0
144
0.0
144
0.0
144
0.0208333333333333
144
0.0
144
0.0
144
0.0
144
0.0
144
1.0
144
0.0
144
0.0
144
0.0
144
0.0
144
1.0
147
0.0208333333333333
147
0.0
147
0.0
147
0.0
147
0.0
147
0.0208333333333333
147
0.0
147
0.0
147
0.0
147
0.0
147
1.0
147
0.0
147
0.0
147
0.0
147
0.0
147
1.0
  0
MATERIAL
  5
2A20
102
{ACAD_XDICTIONARY
360
2A21
102
}
102
{ACAD_REACTORS
330
2A0F
102
}
330
2A0F
100
AcDbMaterial
  1
Global
 72
     0
 43
0.0208333333333333
 43
0.0
 43
0.0
 43
0.0
 43
0.0
 43
0.0208333333333333
 43
0.0
 43
0.0
 43
0.0
 43
0.0
 43
1.0
 43
0.0
 43
0.0
 43
0.0
 43
0.0
 43
1.0
 77
     0
 47
0.0208333333333333
 47
0.0
 47
0.0
 47
0.0
 47
0.0
 47
0.0208333333333333
 47
0.0
 47
0.0
 47
0.0
 47
0.0
 47
1.0
 47
0.0
 47
0.0
 47
0.0
 47
0.0
 47
1.0
171
     0
 49
0.0208333333333333
 49
0.0
 49
0.0
 49
0.0
 49
0.0
 49
0.0208333333333333
 49
0.0
 49
0.0
 49
0.0
 49
0.0
 49
1.0
 49
0.0
 49
0.0
 49
0.0
 49
0.0
 49
1.0
175
     0
142
0.0208333333333333
142
0.0
142
0.0
142
0.0
142
0.0
142
0.0208333333333333
142
0.0
142
0.0
142
0.0
142
0.0
142
1.0
142
0.0
142
0.0
142
0.0
142
0.0
142
1.0
179
     0
144
0.0208333333333333
144
0.0
144
0.0
144
0.0
144
0.0
144
0.0208333333333333
144
0.0
144
0.0
144
0.0
144
0.0
144
1.0
144
0.0
144
0.0
144
0.0
144
0.0
144
1.0
147
0.0208333333333333
147
0.0
147
0.0
147
0.0
147
0.0
147
0.0208333333333333
147
0.0
147
0.0
147
0.0
147
0.0
147
1.0
147
0.0
147
0.0
147
0.0
147
0.0
147
1.0
  0
MLEADERSTYLE
  5
2A57
102
{ACAD_REACTORS
330
2A56
102
}
330
2A56
100
AcDbMLeaderStyle
170
     2
171
     1
172
     0
 90
        2
 40
0.0
 41
0.0
173
     1
 91
-1056964608
340
12
 92
       -2
290
     1
 42
0.09
291
     1
 43
0.36
  3
Standard
 44
0.18
300

342
F
174
     1
178
     6
175
     1
176
     0
 93
-1056964608
 45
0.18
292
     0
297
     0
 46
0.18
 94
-1056964608
 47
1.0
 49
1.0
140
1.0
293
     1
141
0.0
294
     1
177
     0
142
1.0
295
     0
296
     0
143
0.125
1001
ACAD_MLEADERVER
1070
     2
  0
MLINESTYLE
  5
1C
102
{ACAD_REACTORS
330
1B
102
}
330
1B
100
AcDbMlineStyle
  2
STANDARD
 70
     0
  3

 62
   256
 51
90.0
 52
90.0
 71
     2
 49
0.5
 62
   256
  6
BYLAYER
 49
-0.5
 62
   256
  6
BYLAYER
  0
ACDBPLACEHOLDER
  5
2A0E
102
{ACAD_REACTORS
330
2A0D
102
}
330
2A0D
  0
SCALE
  5
2A45
102
{ACAD_REACTORS
330
2A44
102
}
330
2A44
100
AcDbScale
 70
     0
300
1:1
140
1.0
141
1.0
290
     1
  0
SCALE
  5
2A46
102
{ACAD_REACTORS
330
2A44
102
}
330
2A44
100
AcDbScale
 70
     0
300
1/128" = 1'-0"
140
0.0078125
141
12.0
290
     0
  0
SCALE
  5
2A47
102
{ACAD_REACTORS
330
2A44
102
}
330
2A44
100
AcDbScale
 70
     0
300
1/64" = 1'-0"
140
0.015625
141
12.0
290
     0
  0
SCALE
  5
2A48
102
{ACAD_REACTORS
330
2A44
102
}
330
2A44
100
AcDbScale
 70
     0
300
1/32" = 1'-0"
140
0.03125
141
12.0
290
     0
  0
SCALE
  5
2A49
102
{ACAD_REACTORS
330
2A44
102
}
330
2A44
100
AcDbScale
 70
     0
300
1/16" = 1'-0"
140
0.0625
141
12.0
290
     0
  0
SCALE
  5
2A4A
102
{ACAD_REACTORS
330
2A44
102
}
330
2A44
100
AcDbScale
 70
     0
300
3/32" = 1'-0"
140
0.09375
141
12.0
290
     0
  0
SCALE
  5
2A4B
102
{ACAD_REACTORS
330
2A44
102
}
330
2A44
100
AcDbScale
 70
     0
300
1/8" = 1'-0"
140
0.125
141
12.0
290
     0
  0
SCALE
  5
2A4C
102
{ACAD_REACTORS
330
2A44
102
}
330
2A44
100
AcDbScale
 70
     0
300
3/16" = 1'-0"
140
0.1875
141
12.0
290
     0
  0
SCALE
  5
2A4D
102
{ACAD_REACTORS
330
2A44
102
}
330
2A44
100
AcDbScale
 70
     0
300
1/4" = 1'-0"
140
0.25
141
12.0
290
     0
  0
SCALE
  5
2A4E
102
{ACAD_REACTORS
330
2A44
102
}
330
2A44
100
AcDbScale
 70
     0
300
3/8" = 1'-0"
140
0.375
141
12.0
290
     0
  0
SCALE
  5
2A4F
102
{ACAD_REACTORS
330
2A44
102
}
330
2A44
100
AcDbScale
 70
     0
300
1/2" = 1'-0"
140
0.5
141
12.0
290
     0
  0
SCALE
  5
2A50
102
{ACAD_REACTORS
330
2A44
102
}
330
2A44
100
AcDbScale
 70
     0
300
3/4" = 1'-0"
140
0.75
141
12.0
290
     0
  0
SCALE
  5
2A51
102
{ACAD_REACTORS
330
2A44
102
}
330
2A44
100
AcDbScale
 70
     0
300
1" = 1'-0"
140
1.0
141
12.0
290
     0
  0
SCALE
  5
2A52
102
{ACAD_REACTORS
330
2A44
102
}
330
2A44
100
AcDbScale
 70
     0
300
1-1/2" = 1'-0"
140
1.5
141
12.0
290
     0
  0
SCALE
  5
2A53
102
{ACAD_REACTORS
330
2A44
102
}
330
2A44
100
AcDbScale
 70
     0
300
3" = 1'-0"
140
3.0
141
12.0
290
     0
  0
SCALE
  5
2A54
102
{ACAD_REACTORS
330
2A44
102
}
330
2A44
100
AcDbScale
 70
     0
300
6" = 1'-0"
140
6.0
141
12.0
290
     0
  0
SCALE
  5
2A55
102
{ACAD_REACTORS
330
2A44
102
}
330
2A44
100
AcDbScale
 70
     0
300
1'-0" = 1'-0"
140
12.0
141
12.0
290
     0
  0
ACDBSECTIONVIEWSTYLE
  5
2A59
102
{ACAD_XDICTIONARY
360
2AB3
102
}
102
{ACAD_REACTORS
330
2A58
102
}
330
2A58
100
AcDbModelDocViewStyle
 70
     0
  3
Imperial24
290
     0
100
AcDbSectionViewStyle
 70
     0
 71
     0
 90
       78
 71
     1
340
F
 40
0.24
340
0
340
0
 40
0.24
300
I, O, Q, S, X, Z
 40
0.48
 90
        3
 40
0.18
 90
        1
 71
     2
340
14
 90
       25
340
14
 90
       50
 40
0.24
 40
0.0
 40
0.24
 71
     3
340
F
 40
0.24
 90
        1
 40
0.75
 90
        1
300
%<\AcVar ViewType \f "%tc1">% %<\AcVar ViewSectionStartId>%-%<\AcVar ViewSectionEndId>%\PSCALE %<\AcVar ViewScale \f "%sn">%
 71
     4
300
ANSI31
 40
1.0
 90
        0
290
     0
290
     0
 90
        6
 40
0.0
 40
1.570796326794896
 40
0.2617993877991494
 40
1.308996938995747
 40
-0.2617993877991494
 40
1.832595714594046
  0
TABLESTYLE
  5
2A43
102
{ACAD_XDICTIONARY
360
2A7A
102
}
102
{ACAD_REACTORS
330
2A42
102
}
330
2A42
100
AcDbTableStyle
  3
Standard
 70
     0
 71
     0
 40
0.06
 41
0.06
280
     0
281
     0
  7
STANDARD
140
0.18
170
     2
 62
     0
 63
     7
283
     0
274
    -2
284
     1
 64
     0
275
    -2
285
     1
 65
     0
276
    -2
286
     1
 66
     0
277
    -2
287
     1
 67
     0
278
    -2
288
     1
 68
     0
279
    -2
289
     1
 69
     0
  7
STANDARD
140
0.25
170
     5
 62
     0
 63
     7
283
     0
274
    -2
284
     1
 64
     0
275
    -2
285
     1
 65
     0
276
    -2
286
     1
 66
     0
277
    -2
287
     1
 67
     0
278
    -2
288
     1
 68
     0
279
    -2
289
     1
 69
     0
  7
STANDARD
140
0.18
170
     5
 62
     0
 63
     7
283
     0
274
    -2
284
     1
 64
     0
275
    -2
285
     1
 65
     0
276
    -2
286
     1
 66
     0
277
    -2
287
     1
 67
     0
278
    -2
288
     1
 68
     0
279
    -2
289
     1
 69
     0
  0
VISUALSTYLE
  5
2A2E
102
{ACAD_XDICTIONARY
360
2A8B
102
}
102
{ACAD_REACTORS
330
2A28
102
}
330
2A28
100
AcDbVisualStyle
  2
2dWireframe
 70
     4
 71
     0
 72
     2
 73
     0
 90
        0
 40
-0.6
 41
-30.0
 62
     5
 63
     7
 74
     1
 91
        4
 64
     7
 65
   257
 75
     1
175
     1
 42
1.0
 92
        0
 66
   257
 43
1.0
 76
     1
 77
     6
 78
     2
 67
     7
 79
     5
170
     0
171
     0
290
     0
174
     0
 93
        1
 44
0.0
173
     0
291
     0
 45
0.0
1001
ACAD
1000
AcDbSavedByObjectVersion
1070
     0
  0
VISUALSTYLE
  5
2A2D
102
{ACAD_XDICTIONARY
360
2A89
102
}
102
{ACAD_REACTORS
330
2A28
102
}
330
2A28
100
AcDbVisualStyle
  2
Basic
 70
     7
 71
     1
 72
     0
 73
     1
 90
        0
 40
-0.6
 41
-30.0
 62
     5
 63
     7
 74
     0
 91
        4
 64
     7
 65
   257
 75
     1
175
     1
 42
1.0
 92
        8
 66
     7
 43
1.0
 76
     1
 77
     6
 78
     2
 67
     7
 79
     5
170
     0
171
     0
290
     0
174
     0
 93
        1
 44
0.0
173
     0
291
     1
 45
0.0
1001
ACAD
1000
AcDbSavedByObjectVersion
1070
     0
  0
VISUALSTYLE
  5
2A34
102
{ACAD_XDICTIONARY
360
2A97
102
}
102
{ACAD_REACTORS
330
2A28
102
}
330
2A28
100
AcDbVisualStyle
  2
Brighten
 70
    12
 71
     2
 72
     2
 73
     0
 90
        0
 40
-0.6
 41
-30.0
 62
     5
 63
     7
 74
     1
 91
        4
 64
     7
 65
   257
 75
     1
175
     1
 42
1.0
 92
        8
 66
     7
 43
1.0
 76
     1
 77
     6
 78
     2
 67
     7
 79
     5
170
     0
171
     0
290
     0
174
     0
 93
        1
 44
50.0
173
     0
291
     1
 45
0.0
1001
ACAD
1000
AcDbSavedByObjectVersion
1070
     0
  0
VISUALSTYLE
  5
2A38
102
{ACAD_XDICTIONARY
360
2A9F
102
}
102
{ACAD_REACTORS
330
2A28
102
}
330
2A28
100
AcDbVisualStyle
  2
ColorChange
 70
    16
 71
     2
 72
     2
 73
     3
 90
        0
 40
-0.6
 41
-30.0
 62
     5
 63
     8
 74
     1
 91
        4
 64
     7
 65
   257
 75
     1
175
     1
 42
1.0
 92
        8
 66
     8
 43
1.0
 76
     1
 77
     6
 78
     2
 67
     7
 79
     5
170
     0
171
     0
290
     0
174
     0
 93
        1
 44
0.0
173
     0
291
     1
 45
0.0
1001
ACAD
1000
AcDbSavedByObjectVersion
1070
     0
  0
VISUALSTYLE
  5
2A31
102
{ACAD_XDICTIONARY
360
2A91
102
}
102
{ACAD_REACTORS
330
2A28
102
}
330
2A28
100
AcDbVisualStyle
  2
Conceptual
 70
     9
 71
     3
 72
     2
 73
     0
 90
        0
 40
-0.6
 41
-30.0
 62
     5
 63
     7
 74
     2
 91
        2
 64
     7
 65
   257
 75
     1
175
     1
 42
179.0
 92
        8
 66
     7
 43
1.0
 76
     1
 77
     6
 78
     2
 67
     7
 79
     3
170
     0
171
     0
290
     0
174
     0
 93
        1
 44
0.0
173
     0
291
     0
 45
0.0
1001
ACAD
1000
AcDbSavedByObjectVersion
1070
     0
  0
VISUALSTYLE
  5
2A33
102
{ACAD_XDICTIONARY
360
2A95
102
}
102
{ACAD_REACTORS
330
2A28
102
}
330
2A28
100
AcDbVisualStyle
  2
Dim
 70
    11
 71
     2
 72
     2
 73
     0
 90
        0
 40
-0.6
 41
-30.0
 62
     5
 63
     7
 74
     1
 91
        4
 64
     7
 65
   257
 75
     1
175
     1
 42
1.0
 92
        8
 66
     7
 43
1.0
 76
     1
 77
     6
 78
     2
 67
     7
 79
     5
170
     0
171
     0
290
     0
174
     0
 93
        1
 44
-50.0
173
     0
291
     1
 45
0.0
1001
ACAD
1000
AcDbSavedByObjectVersion
1070
     0
  0
VISUALSTYLE
  5
2A40
102
{ACAD_XDICTIONARY
360
2AAF
102
}
102
{ACAD_REACTORS
330
2A28
102
}
330
2A28
100
AcDbVisualStyle
  2
EdgeColorOff
 70
    22
 71
     2
 72
     2
 73
     0
 90
        0
 40
-0.6
 41
-30.0
 62
     5
 63
     7
 74
     1
 91
        4
 64
     7
 65
   257
 75
     1
175
     1
 42
1.0
 92
        8
 66
     7
 43
1.0
 76
     1
 77
     6
 78
     2
 67
     7
 79
     5
170
     0
171
     0
290
     0
174
     0
 93
        1
 44
0.0
173
     0
291
     1
 45
0.0
1001
ACAD
1000
AcDbSavedByObjectVersion
1070
     0
  0
VISUALSTYLE
  5
2A37
102
{ACAD_XDICTIONARY
360
2A9D
102
}
102
{ACAD_REACTORS
330
2A28
102
}
330
2A28
100
AcDbVisualStyle
  2
Facepattern
 70
    15
 71
     2
 72
     2
 73
     0
 90
        0
 40
-0.6
 41
-30.0
 62
     5
 63
     7
 74
     1
 91
        4
 64
     7
 65
   257
 75
     1
175
     1
 42
1.0
 92
        8
 66
     7
 43
1.0
 76
     1
 77
     6
 78
     2
 67
     7
 79
     5
170
     0
171
     0
290
     0
174
     0
 93
        1
 44
0.0
173
     0
291
     1
 45
0.0
1001
ACAD
1000
AcDbSavedByObjectVersion
1070
     0
  0
VISUALSTYLE
  5
2A29
102
{ACAD_XDICTIONARY
360
2A81
102
}
102
{ACAD_REACTORS
330
2A28
102
}
330
2A28
100
AcDbVisualStyle
  2
Flat
 70
     0
 71
     2
 72
     1
 73
     1
 90
        2
 40
-0.6
 41
30.0
 62
     5
 63
     7
 74
     0
 91
        0
 64
     7
 65
   257
 75
     1
175
     1
 42
1.0
 92
        8
 66
     7
 43
1.0
 76
     1
 77
     6
 78
     2
 67
     7
 79
     5
170
     0
171
     0
290
     0
174
     0
 93
       13
 44
0.0
173
     0
291
     1
 45
0.0
1001
ACAD
1000
AcDbSavedByObjectVersion
1070
     0
  0
VISUALSTYLE
  5
2A2A
102
{ACAD_XDICTIONARY
360
2A83
102
}
102
{ACAD_REACTORS
330
2A28
102
}
330
2A28
100
AcDbVisualStyle
  2
FlatWithEdges
 70
     1
 71
     2
 72
     1
 73
     1
 90
        2
 40
-0.6
 41
30.0
 62
     5
 63
     7
 74
     1
 91
        0
 64
     7
 65
   257
 75
     1
175
     1
 42
1.0
 92
        0
 66
   257
 43
1.0
 76
     1
 77
     6
 78
     2
 67
     7
 79
     5
170
     0
171
     0
290
     0
174
     0
 93
       13
 44
0.0
173
     0
291
     1
 45
0.0
1001
ACAD
1000
AcDbSavedByObjectVersion
1070
     0
  0
VISUALSTYLE
  5
2A2B
102
{ACAD_XDICTIONARY
360
2A85
102
}
102
{ACAD_REACTORS
330
2A28
102
}
330
2A28
100
AcDbVisualStyle
  2
Gouraud
 70
     2
 71
     2
 72
     2
 73
     1
 90
        2
 40
-0.6
 41
30.0
 62
     5
 63
     7
 74
     0
 91
        0
 64
     7
 65
   257
 75
     1
175
     1
 42
1.0
 92
        0
 66
     7
 43
1.0
 76
     1
 77
     6
 78
     2
 67
     7
 79
     5
170
     0
171
     0
290
     0
174
     0
 93
       13
 44
0.0
173
     0
291
     1
 45
0.0
1001
ACAD
1000
AcDbSavedByObjectVersion
1070
     0
  0
VISUALSTYLE
  5
2A2C
102
{ACAD_XDICTIONARY
360
2A87
102
}
102
{ACAD_REACTORS
330
2A28
102
}
330
2A28
100
AcDbVisualStyle
  2
GouraudWithEdges
 70
     3
 71
     2
 72
     2
 73
     1
 90
        2
 40
-0.6
 41
30.0
 62
     5
 63
     7
 74
     1
 91
        0
 64
     7
 65
   257
 75
     1
175
     1
 42
1.0
 92
        0
 66
   257
 43
1.0
 76
     1
 77
     6
 78
     2
 67
     7
 79
     5
170
     0
171
     0
290
     0
174
     0
 93
       13
 44
0.0
173
     0
291
     1
 45
0.0
1001
ACAD
1000
AcDbSavedByObjectVersion
1070
     0
  0
VISUALSTYLE
  5
2A30
102
{ACAD_XDICTIONARY
360
2A8F
102
}
102
{ACAD_REACTORS
330
2A28
102
}
330
2A28
100
AcDbVisualStyle
  2
Hidden
 70
     6
 71
     1
 72
     2
 73
     2
 90
        0
 40
-0.6
 41
-30.0
 62
     5
 63
     7
 74
     2
 91
        2
 64
     7
 65
   257
 75
     2
175
     1
 42
40.0
 92
        0
 66
   257
 43
1.0
 76
     1
 77
     6
 78
     2
 67
     7
 79
     3
170
     0
171
     0
290
     0
174
     0
 93
        1
 44
0.0
173
     0
291
     0
 45
0.0
1001
ACAD
1000
AcDbSavedByObjectVersion
1070
     0
  0
VISUALSTYLE
  5
2A3E
102
{ACAD_XDICTIONARY
360
2AAB
102
}
102
{ACAD_REACTORS
330
2A28
102
}
330
2A28
100
AcDbVisualStyle
  2
JitterOff
 70
    20
 71
     2
 72
     2
 73
     0
 90
        0
 40
-0.6
 41
-30.0
 62
     5
 63
     7
 74
     1
 91
        4
 64
     7
 65
   257
 75
     1
175
     1
 42
1.0
 92
       10
 66
     7
 43
1.0
 76
     1
 77
     6
 78
     2
 67
     7
 79
     5
170
     0
171
     0
290
     0
174
     0
 93
        1
 44
0.0
173
     0
291
     1
 45
0.0
1001
ACAD
1000
AcDbSavedByObjectVersion
1070
     0
  0
VISUALSTYLE
  5
2A36
102
{ACAD_XDICTIONARY
360
2A9B
102
}
102
{ACAD_REACTORS
330
2A28
102
}
330
2A28
100
AcDbVisualStyle
  2
Linepattern
 70
    14
 71
     2
 72
     2
 73
     0
 90
        0
 40
-0.6
 41
-30.0
 62
     5
 63
     7
 74
     1
 91
        4
 64
     7
 65
   257
 75
     7
175
     7
 42
1.0
 92
        8
 66
     7
 43
1.0
 76
     1
 77
     6
 78
     2
 67
     7
 79
     5
170
     0
171
     0
290
     0
174
     0
 93
        1
 44
0.0
173
     0
291
     1
 45
0.0
1001
ACAD
1000
AcDbSavedByObjectVersion
1070
     0
  0
VISUALSTYLE
  5
2A3F
102
{ACAD_XDICTIONARY
360
2AAD
102
}
102
{ACAD_REACTORS
330
2A28
102
}
330
2A28
100
AcDbVisualStyle
  2
OverhangOff
 70
    21
 71
     2
 72
     2
 73
     0
 90
        0
 40
-0.6
 41
-30.0
 62
     5
 63
     7
 74
     1
 91
        4
 64
     7
 65
   257
 75
     1
175
     1
 42
1.0
 92
        9
 66
     7
 43
1.0
 76
     1
 77
     6
 78
     2
 67
     7
 79
     5
170
     0
171
     0
290
     0
174
     0
 93
        1
 44
0.0
173
     0
291
     1
 45
0.0
1001
ACAD
1000
AcDbSavedByObjectVersion
1070
     0
  0
VISUALSTYLE
  5
2A32
102
{ACAD_XDICTIONARY
360
2A93
102
}
102
{ACAD_REACTORS
330
2A28
102
}
330
2A28
100
AcDbVisualStyle
  2
Realistic
 70
     8
 71
     2
 72
     3
 73
     0
 90
        2
 40
-0.6
 41
30.0
 62
     5
 63
     7
 74
     0
 91
        0
 64
     7
 65
   257
 75
     1
175
     1
 42
1.0
 92
        8
 66
   257
 43
1.0
 76
     1
 77
     6
 78
     2
 67
     7
 79
     3
170
     0
171
     0
290
     0
174
     0
 93
       13
 44
0.0
173
     0
291
     0
 45
0.0
1001
ACAD
1000
AcDbSavedByObjectVersion
1070
     0
  0
VISUALSTYLE
  5
2A3D
102
{ACAD_XDICTIONARY
360
2AA9
102
}
102
{ACAD_REACTORS
330
2A28
102
}
330
2A28
100
AcDbVisualStyle
  2
Shaded
 70
    27
 71
     2
 72
     2
 73
     1
 90
        2
 40
-0.6
 41
30.0
 62
     5
 63
     7
 74
     0
 91
        4
 64
     7
 65
   257
 75
     1
175
     1
 42
1.0
 92
        8
 66
   257
 43
1.0
 76
     1
 77
     6
 78
     2
 67
     8
 79
     3
170
     0
171
     0
290
     0
174
     0
 93
        5
 44
0.0
173
     0
291
     0
 45
0.0
1001
ACAD
1000
AcDbSavedByObjectVersion
1070
     0
  0
VISUALSTYLE
  5
2A3C
102
{ACAD_XDICTIONARY
360
2AA7
102
}
102
{ACAD_REACTORS
330
2A28
102
}
330
2A28
100
AcDbVisualStyle
  2
Shaded with edges
 70
    26
 71
     2
 72
     2
 73
     1
 90
        2
 40
-0.6
 41
30.0
 62
     5
 63
     7
 74
     1
 91
       10
 64
     7
 65
   257
 75
     2
175
     1
 42
1.0
 92
        8
 66
   257
 43
1.0
 76
     1
 77
     6
 78
     2
 67
     7
 79
     3
170
     0
171
     0
290
     0
174
     0
 93
        5
 44
0.0
173
     0
291
     0
 45
0.0
1001
ACAD
1000
AcDbSavedByObjectVersion
1070
     0
  0
VISUALSTYLE
  5
2A39
102
{ACAD_XDICTIONARY
360
2AA1
102
}
102
{ACAD_REACTORS
330
2A28
102
}
330
2A28
100
AcDbVisualStyle
  2
Shades of Gray
 70
    23
 71
     2
 72
     2
 73
     3
 90
        0
 40
-0.6
 41
-30.0
 62
     5
 63
     7
 74
     2
 91
        2
 64
     7
 65
     7
 75
     1
175
     1
 42
40.0
 92
        8
 66
     7
 43
1.0
 76
     1
 77
     6
 78
     2
 67
     7
 79
     3
170
     0
171
     0
290
     0
174
     0
 93
        1
 44
0.0
173
     0
291
     0
 45
0.0
1001
ACAD
1000
AcDbSavedByObjectVersion
1070
     0
  0
VISUALSTYLE
  5
2A3A
102
{ACAD_XDICTIONARY
360
2AA3
102
}
102
{ACAD_REACTORS
330
2A28
102
}
330
2A28
100
AcDbVisualStyle
  2
Sketchy
 70
    24
 71
     1
 72
     2
 73
     2
 90
        0
 40
-0.6
 41
-30.0
 62
     5
 63
     7
 74
     2
 91
        2
 64
     7
 65
     7
 75
     1
175
     1
 42
40.0
 92
       11
 66
     7
 43
1.0
 76
     1
 77
     6
 78
     2
 67
     7
 79
     6
170
     0
171
     0
290
     0
174
     0
 93
        1
 44
0.0
173
     0
291
     0
 45
0.0
1001
ACAD
1000
AcDbSavedByObjectVersion
1070
     0
  0
VISUALSTYLE
  5
2A35
102
{ACAD_XDICTIONARY
360
2A99
102
}
102
{ACAD_REACTORS
330
2A28
102
}
330
2A28
100
AcDbVisualStyle
  2
Thicken
 70
    13
 71
     2
 72
     2
 73
     0
 90
        0
 40
-0.6
 41
-30.0
 62
     5
 63
     7
 74
     1
 91
        4
 64
     7
 65
   257
 75
     1
175
     1
 42
1.0
 92
       12
 66
     7
 43
1.0
 76
     1
 77
     6
 78
     2
 67
     7
 79
     5
170
     0
171
     0
290
     0
174
     0
 93
        1
 44
0.0
173
     0
291
     1
 45
0.0
1001
ACAD
1000
AcDbSavedByObjectVersion
1070
     0
  0
VISUALSTYLE
  5
2A2F
102
{ACAD_XDICTIONARY
360
2A8D
102
}
102
{ACAD_REACTORS
330
2A28
102
}
330
2A28
100
AcDbVisualStyle
  2
Wireframe
 70
     5
 71
     0
 72
     2
 73
     0
 90
        0
 40
-0.6
 41
-30.0
 62
     5
 63
     7
 74
     1
 91
        4
 64
     7
 65
   257
 75
     1
175
     1
 42
1.0
 92
        0
 66
   257
 43
1.0
 76
     1
 77
     6
 78
     2
 67
     7
 79
     3
170
     0
171
     0
290
     0
174
     0
 93
        1
 44
0.0
173
     0
291
     0
 45
0.0
1001
ACAD
1000
AcDbSavedByObjectVersion
1070
     0
  0
VISUALSTYLE
  5
2A3B
102
{ACAD_XDICTIONARY
360
2AA5
102
}
102
{ACAD_REACTORS
330
2A28
102
}
330
2A28
100
AcDbVisualStyle
  2
X-Ray
 70
    25
 71
     2
 72
     2
 73
     1
 90
        1
 40
0.5
 41
-30.0
 62
     5
 63
     7
 74
     1
 91
        0
 64
     7
 65
   257
 75
     1
175
     1
 42
1.0
 92
        8
 66
     7
 43
1.0
 76
     1
 77
     6
 78
     2
 67
     7
 79
     3
170
     0
171
     0
290
     0
174
     0
 93
       13
 44
0.0
173
     0
291
     0
 45
0.0
1001
ACAD
1000
AcDbSavedByObjectVersion
1070
     0
  0
DICTIONARYVAR
  5
2A74
102
{ACAD_REACTORS
330
2A6F
102
}
330
2A6F
100
DictionaryVariables
280
     0
  1
1:1
  0
DICTIONARYVAR
  5
2A71
102
{ACAD_REACTORS
330
2A6F
102
}
330
2A6F
100
DictionaryVariables
280
     0
  1
STANDARD
  0
DICTIONARYVAR
  5
2A70
102
{ACAD_REACTORS
330
2A6F
102
}
330
2A6F
100
DictionaryVariables
280
     0
  1
STANDARD
  0
DICTIONARYVAR
  5
2A72
102
{ACAD_REACTORS
330
2A6F
102
}
330
2A6F
100
DictionaryVariables
280
     0
  1
Imperial24
  0
DICTIONARYVAR
  5
2A73
102
{ACAD_REACTORS
330
2A6F
102
}
330
2A6F
100
DictionaryVariables
280
     0
  1
Imperial24
  0
DICTIONARYVAR
  5
2A77
102
{ACAD_REACTORS
330
2A6F
102
}
330
2A6F
100
DictionaryVariables
280
     0
  1
1
  0
DICTIONARYVAR
  5
2A76
102
{ACAD_REACTORS
330
2A6F
102
}
330
2A6F
100
DictionaryVariables
280
     0
  1
0
  0
DICTIONARYVAR
  5
2A75
102
{ACAD_REACTORS
330
2A6F
102
}
330
2A6F
100
DictionaryVariables
280
     0
  1
127
  0
DICTIONARYVAR
  5
2A78
102
{ACAD_REACTORS
330
2A6F
102
}
330
2A6F
100
DictionaryVariables
280
     0
  1
2
  0
DICTIONARY
  5
2AB5
330
2A5B
100
AcDbDictionary
280
     1
281
     1
  3
ACAD_XREC_ROUNDTRIP
360
2AB6
  0
DICTIONARY
  5
2AB7
330
2A5C
100
AcDbDictionary
280
     1
281
     1
  3
ACAD_XREC_ROUNDTRIP
360
2AB8
  0
DICTIONARY
  5
2AB9
330
2A5D
100
AcDbDictionary
280
     1
281
     1
  3
ACAD_XREC_ROUNDTRIP
360
2ABA
  0
DICTIONARY
  5
2A19
330
2A18
100
AcDbDictionary
280
     1
281
     1
  3
ACAD_XREC_ROUNDTRIP
360
2A7F
  3
BUMPTILE
360
2A1B
  3
DIFFUSETILE
360
2A1A
  3
OPACITYTILE
360
2A1E
  3
REFLECTIONTILE
360
2A1D
  3
REFRACTIONTILE
360
2A1F
  3
SPECULARTILE
360
2A1C
  0
DICTIONARY
  5
2A11
330
2A10
100
AcDbDictionary
280
     1
281
     1
  3
ACAD_XREC_ROUNDTRIP
360
2A7E
  3
BUMPTILE
360
2A13
  3
DIFFUSETILE
360
2A12
  3
OPACITYTILE
360
2A16
  3
REFLECTIONTILE
360
2A15
  3
REFRACTIONTILE
360
2A17
  3
SPECULARTILE
360
2A14
  0
DICTIONARY
  5
2A21
330
2A20
100
AcDbDictionary
280
     1
281
     1
  3
ACAD_XREC_ROUNDTRIP
360
2A80
  3
BUMPTILE
360
2A23
  3
DIFFUSETILE
360
2A22
  3
OPACITYTILE
360
2A26
  3
REFLECTIONTILE
360
2A25
  3
REFRACTIONTILE
360
2A27
  3
SPECULARTILE
360
2A24
  0
DICTIONARY
  5
2AB3
330
2A59
100
AcDbDictionary
280
     1
281
     1
  3
ACAD_XREC_ROUNDTRIP
360
2AB4
  0
DICTIONARY
  5
2A7A
330
2A43
100
AcDbDictionary
280
     1
281
     1
  3
ACAD_ROUNDTRIP_2008_TABLESTYLE_CELLSTYLEMAP
360
2A7B
  3
ACAD_XREC_ROUNDTRIP
360
2AB1
  0
DICTIONARY
  5
2A8B
330
2A2E
100
AcDbDictionary
280
     1
281
     1
  3
ACAD_XREC_ROUNDTRIP
360
2A8C
  0
DICTIONARY
  5
2A89
330
2A2D
100
AcDbDictionary
280
     1
281
     1
  3
ACAD_XREC_ROUNDTRIP
360
2A8A
  0
DICTIONARY
  5
2A97
330
2A34
100
AcDbDictionary
280
     1
281
     1
  3
ACAD_XREC_ROUNDTRIP
360
2A98
  0
DICTIONARY
  5
2A9F
330
2A38
100
AcDbDictionary
280
     1
281
     1
  3
ACAD_XREC_ROUNDTRIP
360
2AA0
  0
DICTIONARY
  5
2A91
330
2A31
100
AcDbDictionary
280
     1
281
     1
  3
ACAD_XREC_ROUNDTRIP
360
2A92
  0
DICTIONARY
  5
2A95
330
2A33
100
AcDbDictionary
280
     1
281
     1
  3
ACAD_XREC_ROUNDTRIP
360
2A96
  0
DICTIONARY
  5
2AAF
330
2A40
100
AcDbDictionary
280
     1
281
     1
  3
ACAD_XREC_ROUNDTRIP
360
2AB0
  0
DICTIONARY
  5
2A9D
330
2A37
100
AcDbDictionary
280
     1
281
     1
  3
ACAD_XREC_ROUNDTRIP
360
2A9E
  0
DICTIONARY
  5
2A81
330
2A29
100
AcDbDictionary
280
     1
281
     1
  3
ACAD_XREC_ROUNDTRIP
360
2A82
  0
DICTIONARY
  5
2A83
330
2A2A
100
AcDbDictionary
280
     1
281
     1
  3
ACAD_XREC_ROUNDTRIP
360
2A84
  0
DICTIONARY
  5
2A85
330
2A2B
100
AcDbDictionary
280
     1
281
     1
  3
ACAD_XREC_ROUNDTRIP
360
2A86
  0
DICTIONARY
  5
2A87
330
2A2C
100
AcDbDictionary
280
     1
281
     1
  3
ACAD_XREC_ROUNDTRIP
360
2A88
  0
DICTIONARY
  5
2A8F
330
2A30
100
AcDbDictionary
280
     1
281
     1
  3
ACAD_XREC_ROUNDTRIP
360
2A90
  0
DICTIONARY
  5
2AAB
330
2A3E
100
AcDbDictionary
280
     1
281
     1
  3
ACAD_XREC_ROUNDTRIP
360
2AAC
  0
DICTIONARY
  5
2A9B
330
2A36
100
AcDbDictionary
280
     1
281
     1
  3
ACAD_XREC_ROUNDTRIP
360
2A9C
  0
DICTIONARY
  5
2AAD
330
2A3F
100
AcDbDictionary
280
     1
281
     1
  3
ACAD_XREC_ROUNDTRIP
360
2AAE
  0
DICTIONARY
  5
2A93
330
2A32
100
AcDbDictionary
280
     1
281
     1
  3
ACAD_XREC_ROUNDTRIP
360
2A94
  0
DICTIONARY
  5
2AA9
330
2A3D
100
AcDbDictionary
280
     1
281
     1
  3
ACAD_XREC_ROUNDTRIP
360
2AAA
  0
DICTIONARY
  5
2AA7
330
2A3C
100
AcDbDictionary
280
     1
281
     1
  3
ACAD_XREC_ROUNDTRIP
360
2AA8
  0
DICTIONARY
  5
2AA1
330
2A39
100
AcDbDictionary
280
     1
281
     1
  3
ACAD_XREC_ROUNDTRIP
360
2AA2
  0
DICTIONARY
  5
2AA3
330
2A3A
100
AcDbDictionary
280
     1
281
     1
  3
ACAD_XREC_ROUNDTRIP
360
2AA4
  0
DICTIONARY
  5
2A99
330
2A35
100
AcDbDictionary
280
     1
281
     1
  3
ACAD_XREC_ROUNDTRIP
360
2A9A
  0
DICTIONARY
  5
2A8D
330
2A2F
100
AcDbDictionary
280
     1
281
     1
  3
ACAD_XREC_ROUNDTRIP
360
2A8E
  0
DICTIONARY
  5
2AA5
330
2A3B
100
AcDbDictionary
280
     1
281
     1
  3
ACAD_XREC_ROUNDTRIP
360
2AA6
  0
XRECORD
  5
2AB6
102
{ACAD_REACTORS
330
2AB5
102
}
330
2AB5
100
AcDbXrecord
280
     1
102
DISPLAYNAME
  1
Imperial24
102
FLAGS
 90
        0
  0
XRECORD
  5
2AB8
102
{ACAD_REACTORS
330
2AB7
102
}
330
2AB7
100
AcDbXrecord
280
     1
102
SHADEPLOT
 70
     0
102
SHADEPLOTRESLEVEL
 70
     2
102
SHADEPLOTCUSTOMDPI
 70
   300
  0
XRECORD
  5
2ABA
102
{ACAD_REACTORS
330
2AB9
102
}
330
2AB9
100
AcDbXrecord
280
     1
102
SHADEPLOT
 70
     0
102
SHADEPLOTRESLEVEL
 70
     2
102
SHADEPLOTCUSTOMDPI
 70
   300
  0
XRECORD
  5
2A7F
102
{ACAD_REACTORS
330
2A19
102
}
330
2A19
100
AcDbXrecord
280
     1
102
MATERIAL
148
0.0
149
0.0
149
0.0
 93
        0
 94
      127
282
     0
 72
     0
 77
     0
171
     0
175
     0
179
     0
273
     0
  0
XRECORD
  5
2A1B
102
{ACAD_REACTORS
330
2A19
102
}
330
2A19
100
AcDbXrecord
280
     1
270
     1
271
     1
  0
XRECORD
  5
2A1A
102
{ACAD_REACTORS
330
2A19
102
}
330
2A19
100
AcDbXrecord
280
     1
270
     1
271
     1
  0
XRECORD
  5
2A1E
102
{ACAD_REACTORS
330
2A19
102
}
330
2A19
100
AcDbXrecord
280
     1
270
     1
271
     1
  0
XRECORD
  5
2A1D
102
{ACAD_REACTORS
330
2A19
102
}
330
2A19
100
AcDbXrecord
280
     1
270
     1
271
     1
  0
XRECORD
  5
2A1F
102
{ACAD_REACTORS
330
2A19
102
}
330
2A19
100
AcDbXrecord
280
     1
270
     1
271
     1
  0
XRECORD
  5
2A1C
102
{ACAD_REACTORS
330
2A19
102
}
330
2A19
100
AcDbXrecord
280
     1
270
     1
271
     1
  0
XRECORD
  5
2A7E
102
{ACAD_REACTORS
330
2A11
102
}
330
2A11
100
AcDbXrecord
280
     1
102
MATERIAL
148
0.0
149
0.0
149
0.0
 93
        0
 94
      127
282
     0
 72
     0
 77
     0
171
     0
175
     0
179
     0
273
     0
  0
XRECORD
  5
2A13
102
{ACAD_REACTORS
330
2A11
102
}
330
2A11
100
AcDbXrecord
280
     1
270
     1
271
     1
  0
XRECORD
  5
2A12
102
{ACAD_REACTORS
330
2A11
102
}
330
2A11
100
AcDbXrecord
280
     1
270
     1
271
     1
  0
XRECORD
  5
2A16
102
{ACAD_REACTORS
330
2A11
102
}
330
2A11
100
AcDbXrecord
280
     1
270
     1
271
     1
  0
XRECORD
  5
2A15
102
{ACAD_REACTORS
330
2A11
102
}
330
2A11
100
AcDbXrecord
280
     1
270
     1
271
     1
  0
XRECORD
  5
2A17
102
{ACAD_REACTORS
330
2A11
102
}
330
2A11
100
AcDbXrecord
280
     1
270
     1
271
     1
  0
XRECORD
  5
2A14
102
{ACAD_REACTORS
330
2A11
102
}
330
2A11
100
AcDbXrecord
280
     1
270
     1
271
     1
  0
XRECORD
  5
2A80
102
{ACAD_REACTORS
330
2A21
102
}
330
2A21
100
AcDbXrecord
280
     1
102
MATERIAL
148
0.0
149
0.0
149
0.0
 93
        0
 94
      127
282
     0
 72
     0
 77
     0
171
     0
175
     0
179
     0
273
     0
  0
XRECORD
  5
2A23
102
{ACAD_REACTORS
330
2A21
102
}
330
2A21
100
AcDbXrecord
280
     1
270
     1
271
     1
  0
XRECORD
  5
2A22
102
{ACAD_REACTORS
330
2A21
102
}
330
2A21
100
AcDbXrecord
280
     1
270
     1
271
     1
  0
XRECORD
  5
2A26
102
{ACAD_REACTORS
330
2A21
102
}
330
2A21
100
AcDbXrecord
280
     1
270
     1
271
     1
  0
XRECORD
  5
2A25
102
{ACAD_REACTORS
330
2A21
102
}
330
2A21
100
AcDbXrecord
280
     1
270
     1
271
     1
  0
XRECORD
  5
2A27
102
{ACAD_REACTORS
330
2A21
102
}
330
2A21
100
AcDbXrecord
280
     1
270
     1
271
     1
  0
XRECORD
  5
2A24
102
{ACAD_REACTORS
330
2A21
102
}
330
2A21
100
AcDbXrecord
280
     1
270
     1
271
     1
  0
XRECORD
  5
2AB4
102
{ACAD_REACTORS
330
2AB3
102
}
330
2AB3
100
AcDbXrecord
280
     1
102
DISPLAYNAME
  1
Imperial24
102
FLAGS
 90
        0
  0
CELLSTYLEMAP
  5
2A7B
102
{ACAD_REACTORS
330
2A7A
102
}
330
2A7A
100
AcDbCellStyleMap
 90
        3
300
CELLSTYLE
  1
TABLEFORMAT_BEGIN
 90
        5
170
     1
 91
        0
 92
    32768
 62
   257
 93
        1
300
CONTENTFORMAT
  1
CONTENTFORMAT_BEGIN
 90
        0
 91
        0
 92
      512
 93
        0
300

 40
0.0
140
1.0
 94
        5
 62
     0
340
F
144
0.25
309
CONTENTFORMAT_END
171
     0
 94
        0
309
TABLEFORMAT_END
  1
CELLSTYLE_BEGIN
 90
        1
 91
        1
300
_TITLE
309
CELLSTYLE_END
300
CELLSTYLE
  1
TABLEFORMAT_BEGIN
 90
        5
170
     1
 91
        0
 92
        0
 62
   257
 93
        1
300
CONTENTFORMAT
  1
CONTENTFORMAT_BEGIN
 90
        0
 91
        0
 92
      512
 93
        0
300

 40
0.0
140
1.0
 94
        5
 62
     0
340
F
144
0.18
309
CONTENTFORMAT_END
171
     0
 94
        0
309
TABLEFORMAT_END
  1
CELLSTYLE_BEGIN
 90
        2
 91
        1
300
_HEADER
309
CELLSTYLE_END
300
CELLSTYLE
  1
TABLEFORMAT_BEGIN
 90
        5
170
     1
 91
        0
 92
        0
 62
   257
 93
        1
300
CONTENTFORMAT
  1
CONTENTFORMAT_BEGIN
 90
        0
 91
        0
 92
      512
 93
        0
300

 40
0.0
140
1.0
 94
        2
 62
     0
340
F
144
0.18
309
CONTENTFORMAT_END
171
     0
 94
        0
309
TABLEFORMAT_END
  1
CELLSTYLE_BEGIN
 90
        3
 91
        2
300
_DATA
309
CELLSTYLE_END
  0
XRECORD
  5
2AB1
102
{ACAD_REACTORS
330
2A7A
102
}
330
2A7A
100
AcDbXrecord
280
     1
102
ACAD_ROUNDTRIP_PRE2007_TABLESTYLE
 90
      512
 91
        0
  1

 92
      512
 93
        0
  2

 94
      512
 95
        0
  3

  0
XRECORD
  5
2A8C
102
{ACAD_REACTORS
330
2A8B
102
}
330
2A8B
100
AcDbXrecord
280
     1
102
RTVSPost2010Prop28
280
     1
102
RTVSPost2010PropOp28
 70
     1
102
RTVSPost2010Prop29
280
     1
102
RTVSPost2010PropOp29
 70
     1
102
RTVSPost2010Prop30
280
     0
102
RTVSPost2010PropOp30
 70
     1
102
RTVSPost2010Prop31
280
     0
102
RTVSPost2010PropOp31
 70
     1
102
RTVSPost2010Prop32
280
     0
102
RTVSPost2010PropOp32
 70
     1
102
RTVSPost2010Prop33
280
     0
102
RTVSPost2010PropOp33
 70
     1
102
RTVSPost2010Prop34
280
     0
102
RTVSPost2010PropOp34
 70
     1
102
RTVSPost2010Prop35
280
     0
102
RTVSPost2010PropOp35
 70
     1
102
RTVSPost2010Prop36
280
     0
102
RTVSPost2010PropOp36
 70
     1
102
RTVSPost2010Prop37
 90
       50
102
RTVSPost2010PropOp37
 70
     1
102
RTVSPost2010Prop38
140
0.0
102
RTVSPost2010PropOp38
 70
     1
102
RTVSPost2010Prop39
140
1.0
102
RTVSPost2010PropOp39
 70
     1
102
RTVSPost2010Prop40
 90
        0
102
RTVSPost2010PropOp40
 70
     1
102
RTVSPost2010Prop41ColorIndex
 90
       18
102
RTVSPost2010Prop41ColorRGB
 90
        0
102
RTVSPost2010PropOp41
 70
     1
102
RTVSPost2010Prop42
 90
       50
102
RTVSPost2010PropOp42
 70
     1
102
RTVSPost2010Prop43
 90
        3
102
RTVSPost2010PropOp43
 70
     1
102
RTVSPost2010Prop44ColorIndex
 90
        5
102
RTVSPost2010Prop44ColorRGB
 90
      255
102
RTVSPost2010PropOp44
 70
     1
102
RTVSPost2010Prop45
280
     0
102
RTVSPost2010PropOp45
 70
     1
102
RTVSPost2010Prop46
 90
       50
102
RTVSPost2010PropOp46
 70
     1
102
RTVSPost2010Prop47
 90
       50
102
RTVSPost2010PropOp47
 70
     1
102
RTVSPost2010Prop48
 90
       50
102
RTVSPost2010PropOp48
 70
     1
102
RTVSPost2010Prop49
280
     0
102
RTVSPost2010PropOp49
 70
     1
102
RTVSPost2010Prop50
 90
       50
102
RTVSPost2010PropOp50
 70
     1
102
RTVSPost2010Prop51ColorIndex
 90
      256
102
RTVSPost2010Prop51ColorRGB
 90
-16777216
102
RTVSPost2010PropOp51
 70
     0
102
RTVSPost2010Prop52
140
1.0
102
RTVSPost2010PropOp52
 70
     0
102
RTVSPost2010Prop53
 90
        2
102
RTVSPost2010PropOp53
 70
     1
102
RTVSPost2010Prop54
  1
strokes_ogs.tif
102
RTVSPost2010PropOp54
 70
     1
102
RTVSPost2010Prop55
280
     0
102
RTVSPost2010PropOp55
 70
     1
102
RTVSPost2010Prop56
140
1.0
102
RTVSPost2010PropOp56
 70
     1
102
RTVSPost2010Prop57
140
1.0
102
RTVSPost2010PropOp57
 70
     1
102
RTVSPropertyOp0
 70
     1
102
RTVSPropertyOp1
 70
     1
102
RTVSPropertyOp2
 70
     1
102
RTVSPropertyOp3
 70
     1
102
RTVSPropertyOp4
 70
     1
102
RTVSPropertyOp5
 70
     1
102
RTVSPropertyOp6
 70
     1
102
RTVSPropertyOp7
 70
     1
102
RTVSPropertyOp8
 70
     1
102
RTVSPropertyOp9
 70
     1
102
RTVSPropertyOp10
 70
     1
102
RTVSPropertyOp11
 70
     1
102
RTVSPropertyOp12
 70
     1
102
RTVSPropertyOp13
 70
     1
102
RTVSPropertyOp14
 70
     1
102
RTVSPropertyOp15
 70
     1
102
RTVSPropertyOp16
 70
     1
102
RTVSPropertyOp17
 70
     1
102
RTVSPropertyOp18
 70
     1
102
RTVSPropertyOp19
 70
     1
102
RTVSPropertyOp20
 70
     1
102
RTVSPropertyOp21
 70
     1
102
RTVSPropertyOp22
 70
     1
102
RTVSPropertyOp23
 70
     1
102
RTVSPropertyOp24
 70
     1
102
RTVSPropertyOp25
 70
     1
102
RTVSPropertyOp26
 70
     1
102
RTVSPropertyOp27
 70
     1
102
RTVSPropertyOp28
 70
     1
102
RTVSPropertyOp29
 70
     1
102
RTVSPropertyOp30
 70
     1
102
RTVSPropertyOp31
 70
     1
102
RTVSPropertyOp32
 70
     1
102
RTVSPropertyOp33
 70
     1
102
RTVSPropertyOp34
 70
     1
102
RTVSPropertyOp35
 70
     1
102
RTVSPropertyOp36
 70
     1
102
RTVSPropertyOp37
 70
     1
102
RTVSPropertyOp38
 70
     1
102
RTVSPropertyOp39
 70
     1
102
RTVSPropertyOp40
 70
     1
102
RTVSPropertyOp41
 70
     1
102
RTVSPropertyOp42
 70
     1
102
RTVSPropertyOp43
 70
     1
102
RTVSPropertyOp44
 70
     1
102
RTVSPropertyOp45
 70
     1
102
RTVSPropertyOp46
 70
     1
102
RTVSPropertyOp47
 70
     1
102
RTVSPropertyOp48
 70
     1
102
RTVSPropertyOp49
 70
     1
102
RTVSPropertyOp50
 70
     1
102
RTVSPropertyOp51
 70
     0
102
RTVSPropertyOp52
 70
     0
102
RTVSPropertyOp53
 70
     1
102
RTVSPropertyOp54
 70
     1
102
RTVSPropertyOp55
 70
     1
102
RTVSPropertyOp56
 70
     1
102
RTVSPropertyOp57
 70
     1
102
RTVSPropertyOp58
 70
     1
102
RTVSPropertyOp59
 70
     1
102
RTVSPropertyOp60
 70
     1
102
RTVSPropertyOp61
 70
     1
102
RTVSPropertyOp62
 70
     1
  0
XRECORD
  5
2A8A
102
{ACAD_REACTORS
330
2A89
102
}
330
2A89
100
AcDbXrecord
280
     1
102
RTVSPost2010Prop28
280
     0
102
RTVSPost2010PropOp28
 70
     1
102
RTVSPost2010Prop29
280
     1
102
RTVSPost2010PropOp29
 70
     1
102
RTVSPost2010Prop30
280
     1
102
RTVSPost2010PropOp30
 70
     1
102
RTVSPost2010Prop31
280
     0
102
RTVSPost2010PropOp31
 70
     1
102
RTVSPost2010Prop32
280
     0
102
RTVSPost2010PropOp32
 70
     1
102
RTVSPost2010Prop33
280
     0
102
RTVSPost2010PropOp33
 70
     1
102
RTVSPost2010Prop34
280
     0
102
RTVSPost2010PropOp34
 70
     1
102
RTVSPost2010Prop35
280
     0
102
RTVSPost2010PropOp35
 70
     1
102
RTVSPost2010Prop36
280
     0
102
RTVSPost2010PropOp36
 70
     1
102
RTVSPost2010Prop37
 90
       50
102
RTVSPost2010PropOp37
 70
     1
102
RTVSPost2010Prop38
140
0.0
102
RTVSPost2010PropOp38
 70
     1
102
RTVSPost2010Prop39
140
1.0
102
RTVSPost2010PropOp39
 70
     1
102
RTVSPost2010Prop40
 90
        0
102
RTVSPost2010PropOp40
 70
     1
102
RTVSPost2010Prop41ColorIndex
 90
       18
102
RTVSPost2010Prop41ColorRGB
 90
        0
102
RTVSPost2010PropOp41
 70
     1
102
RTVSPost2010Prop42
 90
       50
102
RTVSPost2010PropOp42
 70
     1
102
RTVSPost2010Prop43
 90
        3
102
RTVSPost2010PropOp43
 70
     1
102
RTVSPost2010Prop44ColorIndex
 90
        5
102
RTVSPost2010Prop44ColorRGB
 90
      255
102
RTVSPost2010PropOp44
 70
     1
102
RTVSPost2010Prop45
280
     0
102
RTVSPost2010PropOp45
 70
     1
102
RTVSPost2010Prop46
 90
       50
102
RTVSPost2010PropOp46
 70
     1
102
RTVSPost2010Prop47
 90
       50
102
RTVSPost2010PropOp47
 70
     1
102
RTVSPost2010Prop48
 90
       50
102
RTVSPost2010PropOp48
 70
     1
102
RTVSPost2010Prop49
280
     0
102
RTVSPost2010PropOp49
 70
     1
102
RTVSPost2010Prop50
 90
       50
102
RTVSPost2010PropOp50
 70
     1
102
RTVSPost2010Prop51ColorIndex
 90
      256
102
RTVSPost2010Prop51ColorRGB
 90
-16777216
102
RTVSPost2010PropOp51
 70
     0
102
RTVSPost2010Prop52
140
1.0
102
RTVSPost2010PropOp52
 70
     0
102
RTVSPost2010Prop53
 90
        2
102
RTVSPost2010PropOp53
 70
     1
102
RTVSPost2010Prop54
  1
strokes_ogs.tif
102
RTVSPost2010PropOp54
 70
     1
102
RTVSPost2010Prop55
280
     0
102
RTVSPost2010PropOp55
 70
     1
102
RTVSPost2010Prop56
140
1.0
102
RTVSPost2010PropOp56
 70
     1
102
RTVSPost2010Prop57
140
1.0
102
RTVSPost2010PropOp57
 70
     1
102
RTVSPropertyOp0
 70
     1
102
RTVSPropertyOp1
 70
     1
102
RTVSPropertyOp2
 70
     1
102
RTVSPropertyOp3
 70
     1
102
RTVSPropertyOp4
 70
     1
102
RTVSPropertyOp5
 70
     1
102
RTVSPropertyOp6
 70
     1
102
RTVSPropertyOp7
 70
     1
102
RTVSPropertyOp8
 70
     1
102
RTVSPropertyOp9
 70
     1
102
RTVSPropertyOp10
 70
     1
102
RTVSPropertyOp11
 70
     1
102
RTVSPropertyOp12
 70
     1
102
RTVSPropertyOp13
 70
     1
102
RTVSPropertyOp14
 70
     1
102
RTVSPropertyOp15
 70
     1
102
RTVSPropertyOp16
 70
     1
102
RTVSPropertyOp17
 70
     1
102
RTVSPropertyOp18
 70
     1
102
RTVSPropertyOp19
 70
     1
102
RTVSPropertyOp20
 70
     1
102
RTVSPropertyOp21
 70
     1
102
RTVSPropertyOp22
 70
     1
102
RTVSPropertyOp23
 70
     1
102
RTVSPropertyOp24
 70
     1
102
RTVSPropertyOp25
 70
     1
102
RTVSPropertyOp26
 70
     1
102
RTVSPropertyOp27
 70
     1
102
RTVSPropertyOp28
 70
     1
102
RTVSPropertyOp29
 70
     1
102
RTVSPropertyOp30
 70
     1
102
RTVSPropertyOp31
 70
     1
102
RTVSPropertyOp32
 70
     1
102
RTVSPropertyOp33
 70
     1
102
RTVSPropertyOp34
 70
     1
102
RTVSPropertyOp35
 70
     1
102
RTVSPropertyOp36
 70
     1
102
RTVSPropertyOp37
 70
     1
102
RTVSPropertyOp38
 70
     1
102
RTVSPropertyOp39
 70
     1
102
RTVSPropertyOp40
 70
     1
102
RTVSPropertyOp41
 70
     1
102
RTVSPropertyOp42
 70
     1
102
RTVSPropertyOp43
 70
     1
102
RTVSPropertyOp44
 70
     1
102
RTVSPropertyOp45
 70
     1
102
RTVSPropertyOp46
 70
     1
102
RTVSPropertyOp47
 70
     1
102
RTVSPropertyOp48
 70
     1
102
RTVSPropertyOp49
 70
     1
102
RTVSPropertyOp50
 70
     1
102
RTVSPropertyOp51
 70
     0
102
RTVSPropertyOp52
 70
     0
102
RTVSPropertyOp53
 70
     1
102
RTVSPropertyOp54
 70
     1
102
RTVSPropertyOp55
 70
     1
102
RTVSPropertyOp56
 70
     1
102
RTVSPropertyOp57
 70
     1
102
RTVSPropertyOp58
 70
     1
102
RTVSPropertyOp59
 70
     1
102
RTVSPropertyOp60
 70
     1
102
RTVSPropertyOp61
 70
     1
102
RTVSPropertyOp62
 70
     1
  0
XRECORD
  5
2A98
102
{ACAD_REACTORS
330
2A97
102
}
330
2A97
100
AcDbXrecord
280
     1
102
RTVSPost2010Prop28
280
     0
102
RTVSPost2010PropOp28
 70
     1
102
RTVSPost2010Prop29
280
     1
102
RTVSPost2010PropOp29
 70
     1
102
RTVSPost2010Prop30
280
     1
102
RTVSPost2010PropOp30
 70
     1
102
RTVSPost2010Prop31
280
     0
102
RTVSPost2010PropOp31
 70
     1
102
RTVSPost2010Prop32
280
     0
102
RTVSPost2010PropOp32
 70
     1
102
RTVSPost2010Prop33
280
     0
102
RTVSPost2010PropOp33
 70
     1
102
RTVSPost2010Prop34
280
     0
102
RTVSPost2010PropOp34
 70
     1
102
RTVSPost2010Prop35
280
     0
102
RTVSPost2010PropOp35
 70
     1
102
RTVSPost2010Prop36
280
     0
102
RTVSPost2010PropOp36
 70
     1
102
RTVSPost2010Prop37
 90
       50
102
RTVSPost2010PropOp37
 70
     1
102
RTVSPost2010Prop38
140
0.0
102
RTVSPost2010PropOp38
 70
     1
102
RTVSPost2010Prop39
140
1.0
102
RTVSPost2010PropOp39
 70
     1
102
RTVSPost2010Prop40
 90
        0
102
RTVSPost2010PropOp40
 70
     1
102
RTVSPost2010Prop41ColorIndex
 90
       18
102
RTVSPost2010Prop41ColorRGB
 90
        0
102
RTVSPost2010PropOp41
 70
     1
102
RTVSPost2010Prop42
 90
       50
102
RTVSPost2010PropOp42
 70
     1
102
RTVSPost2010Prop43
 90
        3
102
RTVSPost2010PropOp43
 70
     1
102
RTVSPost2010Prop44ColorIndex
 90
        5
102
RTVSPost2010Prop44ColorRGB
 90
      255
102
RTVSPost2010PropOp44
 70
     1
102
RTVSPost2010Prop45
280
     0
102
RTVSPost2010PropOp45
 70
     1
102
RTVSPost2010Prop46
 90
       50
102
RTVSPost2010PropOp46
 70
     1
102
RTVSPost2010Prop47
 90
       50
102
RTVSPost2010PropOp47
 70
     1
102
RTVSPost2010Prop48
 90
       50
102
RTVSPost2010PropOp48
 70
     1
102
RTVSPost2010Prop49
280
     0
102
RTVSPost2010PropOp49
 70
     1
102
RTVSPost2010Prop50
 90
       50
102
RTVSPost2010PropOp50
 70
     1
102
RTVSPost2010Prop51ColorIndex
 90
      256
102
RTVSPost2010Prop51ColorRGB
 90
-16777216
102
RTVSPost2010PropOp51
 70
     0
102
RTVSPost2010Prop52
140
1.0
102
RTVSPost2010PropOp52
 70
     0
102
RTVSPost2010Prop53
 90
        2
102
RTVSPost2010PropOp53
 70
     1
102
RTVSPost2010Prop54
  1
strokes_ogs.tif
102
RTVSPost2010PropOp54
 70
     1
102
RTVSPost2010Prop55
280
     0
102
RTVSPost2010PropOp55
 70
     1
102
RTVSPost2010Prop56
140
1.0
102
RTVSPost2010PropOp56
 70
     1
102
RTVSPost2010Prop57
140
1.0
102
RTVSPost2010PropOp57
 70
     1
102
RTVSPropertyOp0
 70
     1
102
RTVSPropertyOp1
 70
     1
102
RTVSPropertyOp2
 70
     1
102
RTVSPropertyOp3
 70
     1
102
RTVSPropertyOp4
 70
     1
102
RTVSPropertyOp5
 70
     1
102
RTVSPropertyOp6
 70
     1
102
RTVSPropertyOp7
 70
     1
102
RTVSPropertyOp8
 70
     1
102
RTVSPropertyOp9
 70
     1
102
RTVSPropertyOp10
 70
     1
102
RTVSPropertyOp11
 70
     1
102
RTVSPropertyOp12
 70
     1
102
RTVSPropertyOp13
 70
     1
102
RTVSPropertyOp14
 70
     1
102
RTVSPropertyOp15
 70
     1
102
RTVSPropertyOp16
 70
     1
102
RTVSPropertyOp17
 70
     1
102
RTVSPropertyOp18
 70
     1
102
RTVSPropertyOp19
 70
     1
102
RTVSPropertyOp20
 70
     1
102
RTVSPropertyOp21
 70
     1
102
RTVSPropertyOp22
 70
     1
102
RTVSPropertyOp23
 70
     1
102
RTVSPropertyOp24
 70
     1
102
RTVSPropertyOp25
 70
     1
102
RTVSPropertyOp26
 70
     1
102
RTVSPropertyOp27
 70
     1
102
RTVSPropertyOp28
 70
     1
102
RTVSPropertyOp29
 70
     1
102
RTVSPropertyOp30
 70
     1
102
RTVSPropertyOp31
 70
     1
102
RTVSPropertyOp32
 70
     1
102
RTVSPropertyOp33
 70
     1
102
RTVSPropertyOp34
 70
     1
102
RTVSPropertyOp35
 70
     1
102
RTVSPropertyOp36
 70
     1
102
RTVSPropertyOp37
 70
     1
102
RTVSPropertyOp38
 70
     1
102
RTVSPropertyOp39
 70
     1
102
RTVSPropertyOp40
 70
     1
102
RTVSPropertyOp41
 70
     1
102
RTVSPropertyOp42
 70
     1
102
RTVSPropertyOp43
 70
     1
102
RTVSPropertyOp44
 70
     1
102
RTVSPropertyOp45
 70
     1
102
RTVSPropertyOp46
 70
     1
102
RTVSPropertyOp47
 70
     1
102
RTVSPropertyOp48
 70
     1
102
RTVSPropertyOp49
 70
     1
102
RTVSPropertyOp50
 70
     1
102
RTVSPropertyOp51
 70
     0
102
RTVSPropertyOp52
 70
     0
102
RTVSPropertyOp53
 70
     1
102
RTVSPropertyOp54
 70
     1
102
RTVSPropertyOp55
 70
     1
102
RTVSPropertyOp56
 70
     1
102
RTVSPropertyOp57
 70
     1
102
RTVSPropertyOp58
 70
     1
102
RTVSPropertyOp59
 70
     1
102
RTVSPropertyOp60
 70
     1
102
RTVSPropertyOp61
 70
     1
102
RTVSPropertyOp62
 70
     1
  0
XRECORD
  5
2AA0
102
{ACAD_REACTORS
330
2A9F
102
}
330
2A9F
100
AcDbXrecord
280
     1
102
RTVSPost2010Prop28
280
     0
102
RTVSPost2010PropOp28
 70
     1
102
RTVSPost2010Prop29
280
     1
102
RTVSPost2010PropOp29
 70
     1
102
RTVSPost2010Prop30
280
     1
102
RTVSPost2010PropOp30
 70
     1
102
RTVSPost2010Prop31
280
     0
102
RTVSPost2010PropOp31
 70
     1
102
RTVSPost2010Prop32
280
     0
102
RTVSPost2010PropOp32
 70
     1
102
RTVSPost2010Prop33
280
     0
102
RTVSPost2010PropOp33
 70
     1
102
RTVSPost2010Prop34
280
     0
102
RTVSPost2010PropOp34
 70
     1
102
RTVSPost2010Prop35
280
     0
102
RTVSPost2010PropOp35
 70
     1
102
RTVSPost2010Prop36
280
     0
102
RTVSPost2010PropOp36
 70
     1
102
RTVSPost2010Prop37
 90
       50
102
RTVSPost2010PropOp37
 70
     1
102
RTVSPost2010Prop38
140
0.0
102
RTVSPost2010PropOp38
 70
     1
102
RTVSPost2010Prop39
140
1.0
102
RTVSPost2010PropOp39
 70
     1
102
RTVSPost2010Prop40
 90
        0
102
RTVSPost2010PropOp40
 70
     1
102
RTVSPost2010Prop41ColorIndex
 90
       18
102
RTVSPost2010Prop41ColorRGB
 90
        0
102
RTVSPost2010PropOp41
 70
     1
102
RTVSPost2010Prop42
 90
       50
102
RTVSPost2010PropOp42
 70
     1
102
RTVSPost2010Prop43
 90
        3
102
RTVSPost2010PropOp43
 70
     1
102
RTVSPost2010Prop44ColorIndex
 90
        5
102
RTVSPost2010Prop44ColorRGB
 90
      255
102
RTVSPost2010PropOp44
 70
     1
102
RTVSPost2010Prop45
280
     0
102
RTVSPost2010PropOp45
 70
     1
102
RTVSPost2010Prop46
 90
       50
102
RTVSPost2010PropOp46
 70
     1
102
RTVSPost2010Prop47
 90
       50
102
RTVSPost2010PropOp47
 70
     1
102
RTVSPost2010Prop48
 90
       50
102
RTVSPost2010PropOp48
 70
     1
102
RTVSPost2010Prop49
280
     0
102
RTVSPost2010PropOp49
 70
     1
102
RTVSPost2010Prop50
 90
       50
102
RTVSPost2010PropOp50
 70
     1
102
RTVSPost2010Prop51ColorIndex
 90
      256
102
RTVSPost2010Prop51ColorRGB
 90
-16777216
102
RTVSPost2010PropOp51
 70
     0
102
RTVSPost2010Prop52
140
1.0
102
RTVSPost2010PropOp52
 70
     0
102
RTVSPost2010Prop53
 90
        2
102
RTVSPost2010PropOp53
 70
     1
102
RTVSPost2010Prop54
  1
strokes_ogs.tif
102
RTVSPost2010PropOp54
 70
     1
102
RTVSPost2010Prop55
280
     0
102
RTVSPost2010PropOp55
 70
     1
102
RTVSPost2010Prop56
140
1.0
102
RTVSPost2010PropOp56
 70
     1
102
RTVSPost2010Prop57
140
1.0
102
RTVSPost2010PropOp57
 70
     1
102
RTVSPropertyOp0
 70
     1
102
RTVSPropertyOp1
 70
     1
102
RTVSPropertyOp2
 70
     1
102
RTVSPropertyOp3
 70
     1
102
RTVSPropertyOp4
 70
     1
102
RTVSPropertyOp5
 70
     1
102
RTVSPropertyOp6
 70
     1
102
RTVSPropertyOp7
 70
     1
102
RTVSPropertyOp8
 70
     1
102
RTVSPropertyOp9
 70
     1
102
RTVSPropertyOp10
 70
     1
102
RTVSPropertyOp11
 70
     1
102
RTVSPropertyOp12
 70
     1
102
RTVSPropertyOp13
 70
     1
102
RTVSPropertyOp14
 70
     1
102
RTVSPropertyOp15
 70
     1
102
RTVSPropertyOp16
 70
     1
102
RTVSPropertyOp17
 70
     1
102
RTVSPropertyOp18
 70
     1
102
RTVSPropertyOp19
 70
     1
102
RTVSPropertyOp20
 70
     1
102
RTVSPropertyOp21
 70
     1
102
RTVSPropertyOp22
 70
     1
102
RTVSPropertyOp23
 70
     1
102
RTVSPropertyOp24
 70
     1
102
RTVSPropertyOp25
 70
     1
102
RTVSPropertyOp26
 70
     1
102
RTVSPropertyOp27
 70
     1
102
RTVSPropertyOp28
 70
     1
102
RTVSPropertyOp29
 70
     1
102
RTVSPropertyOp30
 70
     1
102
RTVSPropertyOp31
 70
     1
102
RTVSPropertyOp32
 70
     1
102
RTVSPropertyOp33
 70
     1
102
RTVSPropertyOp34
 70
     1
102
RTVSPropertyOp35
 70
     1
102
RTVSPropertyOp36
 70
     1
102
RTVSPropertyOp37
 70
     1
102
RTVSPropertyOp38
 70
     1
102
RTVSPropertyOp39
 70
     1
102
RTVSPropertyOp40
 70
     1
102
RTVSPropertyOp41
 70
     1
102
RTVSPropertyOp42
 70
     1
102
RTVSPropertyOp43
 70
     1
102
RTVSPropertyOp44
 70
     1
102
RTVSPropertyOp45
 70
     1
102
RTVSPropertyOp46
 70
     1
102
RTVSPropertyOp47
 70
     1
102
RTVSPropertyOp48
 70
     1
102
RTVSPropertyOp49
 70
     1
102
RTVSPropertyOp50
 70
     1
102
RTVSPropertyOp51
 70
     0
102
RTVSPropertyOp52
 70
     0
102
RTVSPropertyOp53
 70
     1
102
RTVSPropertyOp54
 70
     1
102
RTVSPropertyOp55
 70
     1
102
RTVSPropertyOp56
 70
     1
102
RTVSPropertyOp57
 70
     1
102
RTVSPropertyOp58
 70
     1
102
RTVSPropertyOp59
 70
     1
102
RTVSPropertyOp60
 70
     1
102
RTVSPropertyOp61
 70
     1
102
RTVSPropertyOp62
 70
     1
  0
XRECORD
  5
2A92
102
{ACAD_REACTORS
330
2A91
102
}
330
2A91
100
AcDbXrecord
280
     1
102
RTVSPost2010Prop28
280
     0
102
RTVSPost2010PropOp28
 70
     1
102
RTVSPost2010Prop29
280
     1
102
RTVSPost2010PropOp29
 70
     1
102
RTVSPost2010Prop30
280
     1
102
RTVSPost2010PropOp30
 70
     1
102
RTVSPost2010Prop31
280
     0
102
RTVSPost2010PropOp31
 70
     1
102
RTVSPost2010Prop32
280
     0
102
RTVSPost2010PropOp32
 70
     1
102
RTVSPost2010Prop33
280
     0
102
RTVSPost2010PropOp33
 70
     1
102
RTVSPost2010Prop34
280
     0
102
RTVSPost2010PropOp34
 70
     1
102
RTVSPost2010Prop35
280
     0
102
RTVSPost2010PropOp35
 70
     1
102
RTVSPost2010Prop36
280
     0
102
RTVSPost2010PropOp36
 70
     1
102
RTVSPost2010Prop37
 90
       50
102
RTVSPost2010PropOp37
 70
     1
102
RTVSPost2010Prop38
140
0.0
102
RTVSPost2010PropOp38
 70
     1
102
RTVSPost2010Prop39
140
1.0
102
RTVSPost2010PropOp39
 70
     1
102
RTVSPost2010Prop40
 90
        0
102
RTVSPost2010PropOp40
 70
     1
102
RTVSPost2010Prop41ColorIndex
 90
       18
102
RTVSPost2010Prop41ColorRGB
 90
        0
102
RTVSPost2010PropOp41
 70
     1
102
RTVSPost2010Prop42
 90
       50
102
RTVSPost2010PropOp42
 70
     1
102
RTVSPost2010Prop43
 90
        3
102
RTVSPost2010PropOp43
 70
     1
102
RTVSPost2010Prop44ColorIndex
 90
        5
102
RTVSPost2010Prop44ColorRGB
 90
      255
102
RTVSPost2010PropOp44
 70
     1
102
RTVSPost2010Prop45
280
     0
102
RTVSPost2010PropOp45
 70
     1
102
RTVSPost2010Prop46
 90
       50
102
RTVSPost2010PropOp46
 70
     1
102
RTVSPost2010Prop47
 90
       50
102
RTVSPost2010PropOp47
 70
     1
102
RTVSPost2010Prop48
 90
       50
102
RTVSPost2010PropOp48
 70
     1
102
RTVSPost2010Prop49
280
     0
102
RTVSPost2010PropOp49
 70
     1
102
RTVSPost2010Prop50
 90
       50
102
RTVSPost2010PropOp50
 70
     1
102
RTVSPost2010Prop51ColorIndex
 90
      256
102
RTVSPost2010Prop51ColorRGB
 90
-16777216
102
RTVSPost2010PropOp51
 70
     0
102
RTVSPost2010Prop52
140
1.0
102
RTVSPost2010PropOp52
 70
     0
102
RTVSPost2010Prop53
 90
        2
102
RTVSPost2010PropOp53
 70
     1
102
RTVSPost2010Prop54
  1
strokes_ogs.tif
102
RTVSPost2010PropOp54
 70
     1
102
RTVSPost2010Prop55
280
     0
102
RTVSPost2010PropOp55
 70
     1
102
RTVSPost2010Prop56
140
1.0
102
RTVSPost2010PropOp56
 70
     1
102
RTVSPost2010Prop57
140
1.0
102
RTVSPost2010PropOp57
 70
     1
102
RTVSPropertyOp0
 70
     1
102
RTVSPropertyOp1
 70
     1
102
RTVSPropertyOp2
 70
     1
102
RTVSPropertyOp3
 70
     1
102
RTVSPropertyOp4
 70
     1
102
RTVSPropertyOp5
 70
     1
102
RTVSPropertyOp6
 70
     1
102
RTVSPropertyOp7
 70
     1
102
RTVSPropertyOp8
 70
     1
102
RTVSPropertyOp9
 70
     1
102
RTVSPropertyOp10
 70
     1
102
RTVSPropertyOp11
 70
     1
102
RTVSPropertyOp12
 70
     1
102
RTVSPropertyOp13
 70
     1
102
RTVSPropertyOp14
 70
     1
102
RTVSPropertyOp15
 70
     1
102
RTVSPropertyOp16
 70
     1
102
RTVSPropertyOp17
 70
     1
102
RTVSPropertyOp18
 70
     1
102
RTVSPropertyOp19
 70
     1
102
RTVSPropertyOp20
 70
     1
102
RTVSPropertyOp21
 70
     1
102
RTVSPropertyOp22
 70
     1
102
RTVSPropertyOp23
 70
     1
102
RTVSPropertyOp24
 70
     1
102
RTVSPropertyOp25
 70
     1
102
RTVSPropertyOp26
 70
     1
102
RTVSPropertyOp27
 70
     1
102
RTVSPropertyOp28
 70
     1
102
RTVSPropertyOp29
 70
     1
102
RTVSPropertyOp30
 70
     1
102
RTVSPropertyOp31
 70
     1
102
RTVSPropertyOp32
 70
     1
102
RTVSPropertyOp33
 70
     1
102
RTVSPropertyOp34
 70
     1
102
RTVSPropertyOp35
 70
     1
102
RTVSPropertyOp36
 70
     1
102
RTVSPropertyOp37
 70
     1
102
RTVSPropertyOp38
 70
     1
102
RTVSPropertyOp39
 70
     1
102
RTVSPropertyOp40
 70
     1
102
RTVSPropertyOp41
 70
     1
102
RTVSPropertyOp42
 70
     1
102
RTVSPropertyOp43
 70
     1
102
RTVSPropertyOp44
 70
     1
102
RTVSPropertyOp45
 70
     1
102
RTVSPropertyOp46
 70
     1
102
RTVSPropertyOp47
 70
     1
102
RTVSPropertyOp48
 70
     1
102
RTVSPropertyOp49
 70
     1
102
RTVSPropertyOp50
 70
     1
102
RTVSPropertyOp51
 70
     0
102
RTVSPropertyOp52
 70
     0
102
RTVSPropertyOp53
 70
     1
102
RTVSPropertyOp54
 70
     1
102
RTVSPropertyOp55
 70
     1
102
RTVSPropertyOp56
 70
     1
102
RTVSPropertyOp57
 70
     1
102
RTVSPropertyOp58
 70
     1
102
RTVSPropertyOp59
 70
     1
102
RTVSPropertyOp60
 70
     1
102
RTVSPropertyOp61
 70
     1
102
RTVSPropertyOp62
 70
     1
  0
XRECORD
  5
2A96
102
{ACAD_REACTORS
330
2A95
102
}
330
2A95
100
AcDbXrecord
280
     1
102
RTVSPost2010Prop28
280
     0
102
RTVSPost2010PropOp28
 70
     1
102
RTVSPost2010Prop29
280
     1
102
RTVSPost2010PropOp29
 70
     1
102
RTVSPost2010Prop30
280
     1
102
RTVSPost2010PropOp30
 70
     1
102
RTVSPost2010Prop31
280
     0
102
RTVSPost2010PropOp31
 70
     1
102
RTVSPost2010Prop32
280
     0
102
RTVSPost2010PropOp32
 70
     1
102
RTVSPost2010Prop33
280
     0
102
RTVSPost2010PropOp33
 70
     1
102
RTVSPost2010Prop34
280
     0
102
RTVSPost2010PropOp34
 70
     1
102
RTVSPost2010Prop35
280
     0
102
RTVSPost2010PropOp35
 70
     1
102
RTVSPost2010Prop36
280
     0
102
RTVSPost2010PropOp36
 70
     1
102
RTVSPost2010Prop37
 90
       50
102
RTVSPost2010PropOp37
 70
     1
102
RTVSPost2010Prop38
140
0.0
102
RTVSPost2010PropOp38
 70
     1
102
RTVSPost2010Prop39
140
1.0
102
RTVSPost2010PropOp39
 70
     1
102
RTVSPost2010Prop40
 90
        0
102
RTVSPost2010PropOp40
 70
     1
102
RTVSPost2010Prop41ColorIndex
 90
       18
102
RTVSPost2010Prop41ColorRGB
 90
        0
102
RTVSPost2010PropOp41
 70
     1
102
RTVSPost2010Prop42
 90
       50
102
RTVSPost2010PropOp42
 70
     1
102
RTVSPost2010Prop43
 90
        3
102
RTVSPost2010PropOp43
 70
     1
102
RTVSPost2010Prop44ColorIndex
 90
        5
102
RTVSPost2010Prop44ColorRGB
 90
      255
102
RTVSPost2010PropOp44
 70
     1
102
RTVSPost2010Prop45
280
     0
102
RTVSPost2010PropOp45
 70
     1
102
RTVSPost2010Prop46
 90
       50
102
RTVSPost2010PropOp46
 70
     1
102
RTVSPost2010Prop47
 90
       50
102
RTVSPost2010PropOp47
 70
     1
102
RTVSPost2010Prop48
 90
       50
102
RTVSPost2010PropOp48
 70
     1
102
RTVSPost2010Prop49
280
     0
102
RTVSPost2010PropOp49
 70
     1
102
RTVSPost2010Prop50
 90
       50
102
RTVSPost2010PropOp50
 70
     1
102
RTVSPost2010Prop51ColorIndex
 90
      256
102
RTVSPost2010Prop51ColorRGB
 90
-16777216
102
RTVSPost2010PropOp51
 70
     0
102
RTVSPost2010Prop52
140
1.0
102
RTVSPost2010PropOp52
 70
     0
102
RTVSPost2010Prop53
 90
        2
102
RTVSPost2010PropOp53
 70
     1
102
RTVSPost2010Prop54
  1
strokes_ogs.tif
102
RTVSPost2010PropOp54
 70
     1
102
RTVSPost2010Prop55
280
     0
102
RTVSPost2010PropOp55
 70
     1
102
RTVSPost2010Prop56
140
1.0
102
RTVSPost2010PropOp56
 70
     1
102
RTVSPost2010Prop57
140
1.0
102
RTVSPost2010PropOp57
 70
     1
102
RTVSPropertyOp0
 70
     1
102
RTVSPropertyOp1
 70
     1
102
RTVSPropertyOp2
 70
     1
102
RTVSPropertyOp3
 70
     1
102
RTVSPropertyOp4
 70
     1
102
RTVSPropertyOp5
 70
     1
102
RTVSPropertyOp6
 70
     1
102
RTVSPropertyOp7
 70
     1
102
RTVSPropertyOp8
 70
     1
102
RTVSPropertyOp9
 70
     1
102
RTVSPropertyOp10
 70
     1
102
RTVSPropertyOp11
 70
     1
102
RTVSPropertyOp12
 70
     1
102
RTVSPropertyOp13
 70
     1
102
RTVSPropertyOp14
 70
     1
102
RTVSPropertyOp15
 70
     1
102
RTVSPropertyOp16
 70
     1
102
RTVSPropertyOp17
 70
     1
102
RTVSPropertyOp18
 70
     1
102
RTVSPropertyOp19
 70
     1
102
RTVSPropertyOp20
 70
     1
102
RTVSPropertyOp21
 70
     1
102
RTVSPropertyOp22
 70
     1
102
RTVSPropertyOp23
 70
     1
102
RTVSPropertyOp24
 70
     1
102
RTVSPropertyOp25
 70
     1
102
RTVSPropertyOp26
 70
     1
102
RTVSPropertyOp27
 70
     1
102
RTVSPropertyOp28
 70
     1
102
RTVSPropertyOp29
 70
     1
102
RTVSPropertyOp30
 70
     1
102
RTVSPropertyOp31
 70
     1
102
RTVSPropertyOp32
 70
     1
102
RTVSPropertyOp33
 70
     1
102
RTVSPropertyOp34
 70
     1
102
RTVSPropertyOp35
 70
     1
102
RTVSPropertyOp36
 70
     1
102
RTVSPropertyOp37
 70
     1
102
RTVSPropertyOp38
 70
     1
102
RTVSPropertyOp39
 70
     1
102
RTVSPropertyOp40
 70
     1
102
RTVSPropertyOp41
 70
     1
102
RTVSPropertyOp42
 70
     1
102
RTVSPropertyOp43
 70
     1
102
RTVSPropertyOp44
 70
     1
102
RTVSPropertyOp45
 70
     1
102
RTVSPropertyOp46
 70
     1
102
RTVSPropertyOp47
 70
     1
102
RTVSPropertyOp48
 70
     1
102
RTVSPropertyOp49
 70
     1
102
RTVSPropertyOp50
 70
     1
102
RTVSPropertyOp51
 70
     0
102
RTVSPropertyOp52
 70
     0
102
RTVSPropertyOp53
 70
     1
102
RTVSPropertyOp54
 70
     1
102
RTVSPropertyOp55
 70
     1
102
RTVSPropertyOp56
 70
     1
102
RTVSPropertyOp57
 70
     1
102
RTVSPropertyOp58
 70
     1
102
RTVSPropertyOp59
 70
     1
102
RTVSPropertyOp60
 70
     1
102
RTVSPropertyOp61
 70
     1
102
RTVSPropertyOp62
 70
     1
  0
XRECORD
  5
2AB0
102
{ACAD_REACTORS
330
2AAF
102
}
330
2AAF
100
AcDbXrecord
280
     1
102
RTVSPost2010Prop28
280
     0
102
RTVSPost2010PropOp28
 70
     1
102
RTVSPost2010Prop29
280
     1
102
RTVSPost2010PropOp29
 70
     1
102
RTVSPost2010Prop30
280
     1
102
RTVSPost2010PropOp30
 70
     1
102
RTVSPost2010Prop31
280
     0
102
RTVSPost2010PropOp31
 70
     1
102
RTVSPost2010Prop32
280
     0
102
RTVSPost2010PropOp32
 70
     1
102
RTVSPost2010Prop33
280
     0
102
RTVSPost2010PropOp33
 70
     1
102
RTVSPost2010Prop34
280
     0
102
RTVSPost2010PropOp34
 70
     1
102
RTVSPost2010Prop35
280
     0
102
RTVSPost2010PropOp35
 70
     1
102
RTVSPost2010Prop36
280
     0
102
RTVSPost2010PropOp36
 70
     1
102
RTVSPost2010Prop37
 90
       50
102
RTVSPost2010PropOp37
 70
     0
102
RTVSPost2010Prop38
140
0.0
102
RTVSPost2010PropOp38
 70
     0
102
RTVSPost2010Prop39
140
1.0
102
RTVSPost2010PropOp39
 70
     0
102
RTVSPost2010Prop40
 90
        0
102
RTVSPost2010PropOp40
 70
     0
102
RTVSPost2010Prop41ColorIndex
 90
       18
102
RTVSPost2010Prop41ColorRGB
 90
        0
102
RTVSPost2010PropOp41
 70
     0
102
RTVSPost2010Prop42
 90
       50
102
RTVSPost2010PropOp42
 70
     0
102
RTVSPost2010Prop43
 90
        3
102
RTVSPost2010PropOp43
 70
     0
102
RTVSPost2010Prop44ColorIndex
 90
        5
102
RTVSPost2010Prop44ColorRGB
 90
      255
102
RTVSPost2010PropOp44
 70
     0
102
RTVSPost2010Prop45
280
     0
102
RTVSPost2010PropOp45
 70
     1
102
RTVSPost2010Prop46
 90
       50
102
RTVSPost2010PropOp46
 70
     0
102
RTVSPost2010Prop47
 90
       50
102
RTVSPost2010PropOp47
 70
     0
102
RTVSPost2010Prop48
 90
       50
102
RTVSPost2010PropOp48
 70
     0
102
RTVSPost2010Prop49
280
     0
102
RTVSPost2010PropOp49
 70
     1
102
RTVSPost2010Prop50
 90
       50
102
RTVSPost2010PropOp50
 70
     0
102
RTVSPost2010Prop51ColorIndex
 90
      256
102
RTVSPost2010Prop51ColorRGB
 90
-16777216
102
RTVSPost2010PropOp51
 70
     0
102
RTVSPost2010Prop52
140
1.0
102
RTVSPost2010PropOp52
 70
     0
102
RTVSPost2010Prop53
 90
        2
102
RTVSPost2010PropOp53
 70
     0
102
RTVSPost2010Prop54
  1
strokes_ogs.tif
102
RTVSPost2010PropOp54
 70
     0
102
RTVSPost2010Prop55
280
     0
102
RTVSPost2010PropOp55
 70
     1
102
RTVSPost2010Prop56
140
1.0
102
RTVSPost2010PropOp56
 70
     0
102
RTVSPost2010Prop57
140
1.0
102
RTVSPost2010PropOp57
 70
     0
102
RTVSPropertyOp0
 70
     0
102
RTVSPropertyOp1
 70
     0
102
RTVSPropertyOp2
 70
     0
102
RTVSPropertyOp3
 70
     0
102
RTVSPropertyOp4
 70
     0
102
RTVSPropertyOp5
 70
     0
102
RTVSPropertyOp6
 70
     0
102
RTVSPropertyOp7
 70
     0
102
RTVSPropertyOp8
 70
     0
102
RTVSPropertyOp9
 70
     0
102
RTVSPropertyOp10
 70
     0
102
RTVSPropertyOp11
 70
     0
102
RTVSPropertyOp12
 70
     0
102
RTVSPropertyOp13
 70
     0
102
RTVSPropertyOp14
 70
     2
102
RTVSPropertyOp15
 70
     0
102
RTVSPropertyOp16
 70
     0
102
RTVSPropertyOp17
 70
     0
102
RTVSPropertyOp18
 70
     0
102
RTVSPropertyOp19
 70
     0
102
RTVSPropertyOp20
 70
     0
102
RTVSPropertyOp21
 70
     0
102
RTVSPropertyOp22
 70
     0
102
RTVSPropertyOp23
 70
     0
102
RTVSPropertyOp24
 70
     0
102
RTVSPropertyOp25
 70
     0
102
RTVSPropertyOp26
 70
     0
102
RTVSPropertyOp27
 70
     0
102
RTVSPropertyOp28
 70
     1
102
RTVSPropertyOp29
 70
     1
102
RTVSPropertyOp30
 70
     1
102
RTVSPropertyOp31
 70
     1
102
RTVSPropertyOp32
 70
     1
102
RTVSPropertyOp33
 70
     1
102
RTVSPropertyOp34
 70
     1
102
RTVSPropertyOp35
 70
     1
102
RTVSPropertyOp36
 70
     1
102
RTVSPropertyOp37
 70
     0
102
RTVSPropertyOp38
 70
     0
102
RTVSPropertyOp39
 70
     0
102
RTVSPropertyOp40
 70
     0
102
RTVSPropertyOp41
 70
     0
102
RTVSPropertyOp42
 70
     0
102
RTVSPropertyOp43
 70
     0
102
RTVSPropertyOp44
 70
     0
102
RTVSPropertyOp45
 70
     1
102
RTVSPropertyOp46
 70
     0
102
RTVSPropertyOp47
 70
     0
102
RTVSPropertyOp48
 70
     0
102
RTVSPropertyOp49
 70
     1
102
RTVSPropertyOp50
 70
     0
102
RTVSPropertyOp51
 70
     0
102
RTVSPropertyOp52
 70
     0
102
RTVSPropertyOp53
 70
     0
102
RTVSPropertyOp54
 70
     0
102
RTVSPropertyOp55
 70
     1
102
RTVSPropertyOp56
 70
     0
102
RTVSPropertyOp57
 70
     0
102
RTVSPropertyOp58
 70
     0
102
RTVSPropertyOp59
 70
     0
102
RTVSPropertyOp60
 70
     0
102
RTVSPropertyOp61
 70
     0
102
RTVSPropertyOp62
 70
     0
  0
XRECORD
  5
2A9E
102
{ACAD_REACTORS
330
2A9D
102
}
330
2A9D
100
AcDbXrecord
280
     1
102
RTVSPost2010Prop28
280
     0
102
RTVSPost2010PropOp28
 70
     1
102
RTVSPost2010Prop29
280
     1
102
RTVSPost2010PropOp29
 70
     1
102
RTVSPost2010Prop30
280
     1
102
RTVSPost2010PropOp30
 70
     1
102
RTVSPost2010Prop31
280
     0
102
RTVSPost2010PropOp31
 70
     1
102
RTVSPost2010Prop32
280
     0
102
RTVSPost2010PropOp32
 70
     1
102
RTVSPost2010Prop33
280
     0
102
RTVSPost2010PropOp33
 70
     1
102
RTVSPost2010Prop34
280
     0
102
RTVSPost2010PropOp34
 70
     1
102
RTVSPost2010Prop35
280
     0
102
RTVSPost2010PropOp35
 70
     1
102
RTVSPost2010Prop36
280
     0
102
RTVSPost2010PropOp36
 70
     1
102
RTVSPost2010Prop37
 90
       50
102
RTVSPost2010PropOp37
 70
     1
102
RTVSPost2010Prop38
140
0.0
102
RTVSPost2010PropOp38
 70
     1
102
RTVSPost2010Prop39
140
1.0
102
RTVSPost2010PropOp39
 70
     1
102
RTVSPost2010Prop40
 90
        0
102
RTVSPost2010PropOp40
 70
     1
102
RTVSPost2010Prop41ColorIndex
 90
       18
102
RTVSPost2010Prop41ColorRGB
 90
        0
102
RTVSPost2010PropOp41
 70
     1
102
RTVSPost2010Prop42
 90
       50
102
RTVSPost2010PropOp42
 70
     1
102
RTVSPost2010Prop43
 90
        3
102
RTVSPost2010PropOp43
 70
     1
102
RTVSPost2010Prop44ColorIndex
 90
        5
102
RTVSPost2010Prop44ColorRGB
 90
      255
102
RTVSPost2010PropOp44
 70
     1
102
RTVSPost2010Prop45
280
     0
102
RTVSPost2010PropOp45
 70
     1
102
RTVSPost2010Prop46
 90
       50
102
RTVSPost2010PropOp46
 70
     1
102
RTVSPost2010Prop47
 90
       50
102
RTVSPost2010PropOp47
 70
     1
102
RTVSPost2010Prop48
 90
       50
102
RTVSPost2010PropOp48
 70
     1
102
RTVSPost2010Prop49
280
     0
102
RTVSPost2010PropOp49
 70
     1
102
RTVSPost2010Prop50
 90
       50
102
RTVSPost2010PropOp50
 70
     1
102
RTVSPost2010Prop51ColorIndex
 90
      256
102
RTVSPost2010Prop51ColorRGB
 90
-16777216
102
RTVSPost2010PropOp51
 70
     0
102
RTVSPost2010Prop52
140
1.0
102
RTVSPost2010PropOp52
 70
     0
102
RTVSPost2010Prop53
 90
        2
102
RTVSPost2010PropOp53
 70
     1
102
RTVSPost2010Prop54
  1
strokes_ogs.tif
102
RTVSPost2010PropOp54
 70
     1
102
RTVSPost2010Prop55
280
     0
102
RTVSPost2010PropOp55
 70
     1
102
RTVSPost2010Prop56
140
1.0
102
RTVSPost2010PropOp56
 70
     1
102
RTVSPost2010Prop57
140
1.0
102
RTVSPost2010PropOp57
 70
     1
102
RTVSPropertyOp0
 70
     1
102
RTVSPropertyOp1
 70
     1
102
RTVSPropertyOp2
 70
     1
102
RTVSPropertyOp3
 70
     1
102
RTVSPropertyOp4
 70
     1
102
RTVSPropertyOp5
 70
     1
102
RTVSPropertyOp6
 70
     1
102
RTVSPropertyOp7
 70
     1
102
RTVSPropertyOp8
 70
     1
102
RTVSPropertyOp9
 70
     1
102
RTVSPropertyOp10
 70
     1
102
RTVSPropertyOp11
 70
     1
102
RTVSPropertyOp12
 70
     1
102
RTVSPropertyOp13
 70
     1
102
RTVSPropertyOp14
 70
     1
102
RTVSPropertyOp15
 70
     1
102
RTVSPropertyOp16
 70
     1
102
RTVSPropertyOp17
 70
     1
102
RTVSPropertyOp18
 70
     1
102
RTVSPropertyOp19
 70
     1
102
RTVSPropertyOp20
 70
     1
102
RTVSPropertyOp21
 70
     1
102
RTVSPropertyOp22
 70
     1
102
RTVSPropertyOp23
 70
     1
102
RTVSPropertyOp24
 70
     1
102
RTVSPropertyOp25
 70
     1
102
RTVSPropertyOp26
 70
     1
102
RTVSPropertyOp27
 70
     1
102
RTVSPropertyOp28
 70
     1
102
RTVSPropertyOp29
 70
     1
102
RTVSPropertyOp30
 70
     1
102
RTVSPropertyOp31
 70
     1
102
RTVSPropertyOp32
 70
     1
102
RTVSPropertyOp33
 70
     1
102
RTVSPropertyOp34
 70
     1
102
RTVSPropertyOp35
 70
     1
102
RTVSPropertyOp36
 70
     1
102
RTVSPropertyOp37
 70
     1
102
RTVSPropertyOp38
 70
     1
102
RTVSPropertyOp39
 70
     1
102
RTVSPropertyOp40
 70
     1
102
RTVSPropertyOp41
 70
     1
102
RTVSPropertyOp42
 70
     1
102
RTVSPropertyOp43
 70
     1
102
RTVSPropertyOp44
 70
     1
102
RTVSPropertyOp45
 70
     1
102
RTVSPropertyOp46
 70
     1
102
RTVSPropertyOp47
 70
     1
102
RTVSPropertyOp48
 70
     1
102
RTVSPropertyOp49
 70
     1
102
RTVSPropertyOp50
 70
     1
102
RTVSPropertyOp51
 70
     0
102
RTVSPropertyOp52
 70
     0
102
RTVSPropertyOp53
 70
     1
102
RTVSPropertyOp54
 70
     1
102
RTVSPropertyOp55
 70
     1
102
RTVSPropertyOp56
 70
     1
102
RTVSPropertyOp57
 70
     1
102
RTVSPropertyOp58
 70
     1
102
RTVSPropertyOp59
 70
     1
102
RTVSPropertyOp60
 70
     1
102
RTVSPropertyOp61
 70
     1
102
RTVSPropertyOp62
 70
     1
  0
XRECORD
  5
2A82
102
{ACAD_REACTORS
330
2A81
102
}
330
2A81
100
AcDbXrecord
280
     1
102
RTVSPost2010Prop28
280
     0
102
RTVSPost2010PropOp28
 70
     1
102
RTVSPost2010Prop29
280
     1
102
RTVSPost2010PropOp29
 70
     1
102
RTVSPost2010Prop30
280
     1
102
RTVSPost2010PropOp30
 70
     1
102
RTVSPost2010Prop31
280
     0
102
RTVSPost2010PropOp31
 70
     1
102
RTVSPost2010Prop32
280
     0
102
RTVSPost2010PropOp32
 70
     1
102
RTVSPost2010Prop33
280
     0
102
RTVSPost2010PropOp33
 70
     1
102
RTVSPost2010Prop34
280
     0
102
RTVSPost2010PropOp34
 70
     1
102
RTVSPost2010Prop35
280
     0
102
RTVSPost2010PropOp35
 70
     1
102
RTVSPost2010Prop36
280
     0
102
RTVSPost2010PropOp36
 70
     1
102
RTVSPost2010Prop37
 90
       50
102
RTVSPost2010PropOp37
 70
     1
102
RTVSPost2010Prop38
140
0.0
102
RTVSPost2010PropOp38
 70
     1
102
RTVSPost2010Prop39
140
1.0
102
RTVSPost2010PropOp39
 70
     1
102
RTVSPost2010Prop40
 90
        0
102
RTVSPost2010PropOp40
 70
     1
102
RTVSPost2010Prop41ColorIndex
 90
       18
102
RTVSPost2010Prop41ColorRGB
 90
        0
102
RTVSPost2010PropOp41
 70
     1
102
RTVSPost2010Prop42
 90
       50
102
RTVSPost2010PropOp42
 70
     1
102
RTVSPost2010Prop43
 90
        3
102
RTVSPost2010PropOp43
 70
     1
102
RTVSPost2010Prop44ColorIndex
 90
        5
102
RTVSPost2010Prop44ColorRGB
 90
      255
102
RTVSPost2010PropOp44
 70
     1
102
RTVSPost2010Prop45
280
     0
102
RTVSPost2010PropOp45
 70
     1
102
RTVSPost2010Prop46
 90
       50
102
RTVSPost2010PropOp46
 70
     1
102
RTVSPost2010Prop47
 90
       50
102
RTVSPost2010PropOp47
 70
     1
102
RTVSPost2010Prop48
 90
       50
102
RTVSPost2010PropOp48
 70
     1
102
RTVSPost2010Prop49
280
     0
102
RTVSPost2010PropOp49
 70
     1
102
RTVSPost2010Prop50
 90
       50
102
RTVSPost2010PropOp50
 70
     1
102
RTVSPost2010Prop51ColorIndex
 90
      256
102
RTVSPost2010Prop51ColorRGB
 90
-16777216
102
RTVSPost2010PropOp51
 70
     0
102
RTVSPost2010Prop52
140
1.0
102
RTVSPost2010PropOp52
 70
     0
102
RTVSPost2010Prop53
 90
        2
102
RTVSPost2010PropOp53
 70
     1
102
RTVSPost2010Prop54
  1
strokes_ogs.tif
102
RTVSPost2010PropOp54
 70
     1
102
RTVSPost2010Prop55
280
     0
102
RTVSPost2010PropOp55
 70
     1
102
RTVSPost2010Prop56
140
1.0
102
RTVSPost2010PropOp56
 70
     1
102
RTVSPost2010Prop57
140
1.0
102
RTVSPost2010PropOp57
 70
     1
102
RTVSPropertyOp0
 70
     1
102
RTVSPropertyOp1
 70
     1
102
RTVSPropertyOp2
 70
     1
102
RTVSPropertyOp3
 70
     1
102
RTVSPropertyOp4
 70
     1
102
RTVSPropertyOp5
 70
     1
102
RTVSPropertyOp6
 70
     1
102
RTVSPropertyOp7
 70
     1
102
RTVSPropertyOp8
 70
     1
102
RTVSPropertyOp9
 70
     1
102
RTVSPropertyOp10
 70
     1
102
RTVSPropertyOp11
 70
     1
102
RTVSPropertyOp12
 70
     1
102
RTVSPropertyOp13
 70
     1
102
RTVSPropertyOp14
 70
     1
102
RTVSPropertyOp15
 70
     1
102
RTVSPropertyOp16
 70
     1
102
RTVSPropertyOp17
 70
     1
102
RTVSPropertyOp18
 70
     1
102
RTVSPropertyOp19
 70
     1
102
RTVSPropertyOp20
 70
     1
102
RTVSPropertyOp21
 70
     1
102
RTVSPropertyOp22
 70
     1
102
RTVSPropertyOp23
 70
     1
102
RTVSPropertyOp24
 70
     1
102
RTVSPropertyOp25
 70
     1
102
RTVSPropertyOp26
 70
     1
102
RTVSPropertyOp27
 70
     1
102
RTVSPropertyOp28
 70
     1
102
RTVSPropertyOp29
 70
     1
102
RTVSPropertyOp30
 70
     1
102
RTVSPropertyOp31
 70
     1
102
RTVSPropertyOp32
 70
     1
102
RTVSPropertyOp33
 70
     1
102
RTVSPropertyOp34
 70
     1
102
RTVSPropertyOp35
 70
     1
102
RTVSPropertyOp36
 70
     1
102
RTVSPropertyOp37
 70
     1
102
RTVSPropertyOp38
 70
     1
102
RTVSPropertyOp39
 70
     1
102
RTVSPropertyOp40
 70
     1
102
RTVSPropertyOp41
 70
     1
102
RTVSPropertyOp42
 70
     1
102
RTVSPropertyOp43
 70
     1
102
RTVSPropertyOp44
 70
     1
102
RTVSPropertyOp45
 70
     1
102
RTVSPropertyOp46
 70
     1
102
RTVSPropertyOp47
 70
     1
102
RTVSPropertyOp48
 70
     1
102
RTVSPropertyOp49
 70
     1
102
RTVSPropertyOp50
 70
     1
102
RTVSPropertyOp51
 70
     0
102
RTVSPropertyOp52
 70
     0
102
RTVSPropertyOp53
 70
     1
102
RTVSPropertyOp54
 70
     1
102
RTVSPropertyOp55
 70
     1
102
RTVSPropertyOp56
 70
     1
102
RTVSPropertyOp57
 70
     1
102
RTVSPropertyOp58
 70
     1
102
RTVSPropertyOp59
 70
     1
102
RTVSPropertyOp60
 70
     1
102
RTVSPropertyOp61
 70
     1
102
RTVSPropertyOp62
 70
     1
  0
XRECORD
  5
2A84
102
{ACAD_REACTORS
330
2A83
102
}
330
2A83
100
AcDbXrecord
280
     1
102
RTVSPost2010Prop28
280
     0
102
RTVSPost2010PropOp28
 70
     1
102
RTVSPost2010Prop29
280
     1
102
RTVSPost2010PropOp29
 70
     1
102
RTVSPost2010Prop30
280
     1
102
RTVSPost2010PropOp30
 70
     1
102
RTVSPost2010Prop31
280
     0
102
RTVSPost2010PropOp31
 70
     1
102
RTVSPost2010Prop32
280
     0
102
RTVSPost2010PropOp32
 70
     1
102
RTVSPost2010Prop33
280
     0
102
RTVSPost2010PropOp33
 70
     1
102
RTVSPost2010Prop34
280
     0
102
RTVSPost2010PropOp34
 70
     1
102
RTVSPost2010Prop35
280
     0
102
RTVSPost2010PropOp35
 70
     1
102
RTVSPost2010Prop36
280
     0
102
RTVSPost2010PropOp36
 70
     1
102
RTVSPost2010Prop37
 90
       50
102
RTVSPost2010PropOp37
 70
     1
102
RTVSPost2010Prop38
140
0.0
102
RTVSPost2010PropOp38
 70
     1
102
RTVSPost2010Prop39
140
1.0
102
RTVSPost2010PropOp39
 70
     1
102
RTVSPost2010Prop40
 90
        0
102
RTVSPost2010PropOp40
 70
     1
102
RTVSPost2010Prop41ColorIndex
 90
       18
102
RTVSPost2010Prop41ColorRGB
 90
        0
102
RTVSPost2010PropOp41
 70
     1
102
RTVSPost2010Prop42
 90
       50
102
RTVSPost2010PropOp42
 70
     1
102
RTVSPost2010Prop43
 90
        3
102
RTVSPost2010PropOp43
 70
     1
102
RTVSPost2010Prop44ColorIndex
 90
        5
102
RTVSPost2010Prop44ColorRGB
 90
      255
102
RTVSPost2010PropOp44
 70
     1
102
RTVSPost2010Prop45
280
     0
102
RTVSPost2010PropOp45
 70
     1
102
RTVSPost2010Prop46
 90
       50
102
RTVSPost2010PropOp46
 70
     1
102
RTVSPost2010Prop47
 90
       50
102
RTVSPost2010PropOp47
 70
     1
102
RTVSPost2010Prop48
 90
       50
102
RTVSPost2010PropOp48
 70
     1
102
RTVSPost2010Prop49
280
     0
102
RTVSPost2010PropOp49
 70
     1
102
RTVSPost2010Prop50
 90
       50
102
RTVSPost2010PropOp50
 70
     1
102
RTVSPost2010Prop51ColorIndex
 90
      256
102
RTVSPost2010Prop51ColorRGB
 90
-16777216
102
RTVSPost2010PropOp51
 70
     0
102
RTVSPost2010Prop52
140
1.0
102
RTVSPost2010PropOp52
 70
     0
102
RTVSPost2010Prop53
 90
        2
102
RTVSPost2010PropOp53
 70
     1
102
RTVSPost2010Prop54
  1
strokes_ogs.tif
102
RTVSPost2010PropOp54
 70
     1
102
RTVSPost2010Prop55
280
     0
102
RTVSPost2010PropOp55
 70
     1
102
RTVSPost2010Prop56
140
1.0
102
RTVSPost2010PropOp56
 70
     1
102
RTVSPost2010Prop57
140
1.0
102
RTVSPost2010PropOp57
 70
     1
102
RTVSPropertyOp0
 70
     1
102
RTVSPropertyOp1
 70
     1
102
RTVSPropertyOp2
 70
     1
102
RTVSPropertyOp3
 70
     1
102
RTVSPropertyOp4
 70
     1
102
RTVSPropertyOp5
 70
     1
102
RTVSPropertyOp6
 70
     1
102
RTVSPropertyOp7
 70
     1
102
RTVSPropertyOp8
 70
     1
102
RTVSPropertyOp9
 70
     1
102
RTVSPropertyOp10
 70
     1
102
RTVSPropertyOp11
 70
     1
102
RTVSPropertyOp12
 70
     1
102
RTVSPropertyOp13
 70
     1
102
RTVSPropertyOp14
 70
     1
102
RTVSPropertyOp15
 70
     1
102
RTVSPropertyOp16
 70
     1
102
RTVSPropertyOp17
 70
     1
102
RTVSPropertyOp18
 70
     1
102
RTVSPropertyOp19
 70
     1
102
RTVSPropertyOp20
 70
     1
102
RTVSPropertyOp21
 70
     1
102
RTVSPropertyOp22
 70
     1
102
RTVSPropertyOp23
 70
     1
102
RTVSPropertyOp24
 70
     1
102
RTVSPropertyOp25
 70
     1
102
RTVSPropertyOp26
 70
     1
102
RTVSPropertyOp27
 70
     1
102
RTVSPropertyOp28
 70
     1
102
RTVSPropertyOp29
 70
     1
102
RTVSPropertyOp30
 70
     1
102
RTVSPropertyOp31
 70
     1
102
RTVSPropertyOp32
 70
     1
102
RTVSPropertyOp33
 70
     1
102
RTVSPropertyOp34
 70
     1
102
RTVSPropertyOp35
 70
     1
102
RTVSPropertyOp36
 70
     1
102
RTVSPropertyOp37
 70
     1
102
RTVSPropertyOp38
 70
     1
102
RTVSPropertyOp39
 70
     1
102
RTVSPropertyOp40
 70
     1
102
RTVSPropertyOp41
 70
     1
102
RTVSPropertyOp42
 70
     1
102
RTVSPropertyOp43
 70
     1
102
RTVSPropertyOp44
 70
     1
102
RTVSPropertyOp45
 70
     1
102
RTVSPropertyOp46
 70
     1
102
RTVSPropertyOp47
 70
     1
102
RTVSPropertyOp48
 70
     1
102
RTVSPropertyOp49
 70
     1
102
RTVSPropertyOp50
 70
     1
102
RTVSPropertyOp51
 70
     0
102
RTVSPropertyOp52
 70
     0
102
RTVSPropertyOp53
 70
     1
102
RTVSPropertyOp54
 70
     1
102
RTVSPropertyOp55
 70
     1
102
RTVSPropertyOp56
 70
     1
102
RTVSPropertyOp57
 70
     1
102
RTVSPropertyOp58
 70
     1
102
RTVSPropertyOp59
 70
     1
102
RTVSPropertyOp60
 70
     1
102
RTVSPropertyOp61
 70
     1
102
RTVSPropertyOp62
 70
     1
  0
XRECORD
  5
2A86
102
{ACAD_REACTORS
330
2A85
102
}
330
2A85
100
AcDbXrecord
280
     1
102
RTVSPost2010Prop28
280
     0
102
RTVSPost2010PropOp28
 70
     1
102
RTVSPost2010Prop29
280
     1
102
RTVSPost2010PropOp29
 70
     1
102
RTVSPost2010Prop30
280
     1
102
RTVSPost2010PropOp30
 70
     1
102
RTVSPost2010Prop31
280
     0
102
RTVSPost2010PropOp31
 70
     1
102
RTVSPost2010Prop32
280
     0
102
RTVSPost2010PropOp32
 70
     1
102
RTVSPost2010Prop33
280
     0
102
RTVSPost2010PropOp33
 70
     1
102
RTVSPost2010Prop34
280
     0
102
RTVSPost2010PropOp34
 70
     1
102
RTVSPost2010Prop35
280
     0
102
RTVSPost2010PropOp35
 70
     1
102
RTVSPost2010Prop36
280
     0
102
RTVSPost2010PropOp36
 70
     1
102
RTVSPost2010Prop37
 90
       50
102
RTVSPost2010PropOp37
 70
     1
102
RTVSPost2010Prop38
140
0.0
102
RTVSPost2010PropOp38
 70
     1
102
RTVSPost2010Prop39
140
1.0
102
RTVSPost2010PropOp39
 70
     1
102
RTVSPost2010Prop40
 90
        0
102
RTVSPost2010PropOp40
 70
     1
102
RTVSPost2010Prop41ColorIndex
 90
       18
102
RTVSPost2010Prop41ColorRGB
 90
        0
102
RTVSPost2010PropOp41
 70
     1
102
RTVSPost2010Prop42
 90
       50
102
RTVSPost2010PropOp42
 70
     1
102
RTVSPost2010Prop43
 90
        3
102
RTVSPost2010PropOp43
 70
     1
102
RTVSPost2010Prop44ColorIndex
 90
        5
102
RTVSPost2010Prop44ColorRGB
 90
      255
102
RTVSPost2010PropOp44
 70
     1
102
RTVSPost2010Prop45
280
     0
102
RTVSPost2010PropOp45
 70
     1
102
RTVSPost2010Prop46
 90
       50
102
RTVSPost2010PropOp46
 70
     1
102
RTVSPost2010Prop47
 90
       50
102
RTVSPost2010PropOp47
 70
     1
102
RTVSPost2010Prop48
 90
       50
102
RTVSPost2010PropOp48
 70
     1
102
RTVSPost2010Prop49
280
     0
102
RTVSPost2010PropOp49
 70
     1
102
RTVSPost2010Prop50
 90
       50
102
RTVSPost2010PropOp50
 70
     1
102
RTVSPost2010Prop51ColorIndex
 90
      256
102
RTVSPost2010Prop51ColorRGB
 90
-16777216
102
RTVSPost2010PropOp51
 70
     0
102
RTVSPost2010Prop52
140
1.0
102
RTVSPost2010PropOp52
 70
     0
102
RTVSPost2010Prop53
 90
        2
102
RTVSPost2010PropOp53
 70
     1
102
RTVSPost2010Prop54
  1
strokes_ogs.tif
102
RTVSPost2010PropOp54
 70
     1
102
RTVSPost2010Prop55
280
     0
102
RTVSPost2010PropOp55
 70
     1
102
RTVSPost2010Prop56
140
1.0
102
RTVSPost2010PropOp56
 70
     1
102
RTVSPost2010Prop57
140
1.0
102
RTVSPost2010PropOp57
 70
     1
102
RTVSPropertyOp0
 70
     1
102
RTVSPropertyOp1
 70
     1
102
RTVSPropertyOp2
 70
     1
102
RTVSPropertyOp3
 70
     1
102
RTVSPropertyOp4
 70
     1
102
RTVSPropertyOp5
 70
     1
102
RTVSPropertyOp6
 70
     1
102
RTVSPropertyOp7
 70
     1
102
RTVSPropertyOp8
 70
     1
102
RTVSPropertyOp9
 70
     1
102
RTVSPropertyOp10
 70
     1
102
RTVSPropertyOp11
 70
     1
102
RTVSPropertyOp12
 70
     1
102
RTVSPropertyOp13
 70
     1
102
RTVSPropertyOp14
 70
     1
102
RTVSPropertyOp15
 70
     1
102
RTVSPropertyOp16
 70
     1
102
RTVSPropertyOp17
 70
     1
102
RTVSPropertyOp18
 70
     1
102
RTVSPropertyOp19
 70
     1
102
RTVSPropertyOp20
 70
     1
102
RTVSPropertyOp21
 70
     1
102
RTVSPropertyOp22
 70
     1
102
RTVSPropertyOp23
 70
     1
102
RTVSPropertyOp24
 70
     1
102
RTVSPropertyOp25
 70
     1
102
RTVSPropertyOp26
 70
     1
102
RTVSPropertyOp27
 70
     1
102
RTVSPropertyOp28
 70
     1
102
RTVSPropertyOp29
 70
     1
102
RTVSPropertyOp30
 70
     1
102
RTVSPropertyOp31
 70
     1
102
RTVSPropertyOp32
 70
     1
102
RTVSPropertyOp33
 70
     1
102
RTVSPropertyOp34
 70
     1
102
RTVSPropertyOp35
 70
     1
102
RTVSPropertyOp36
 70
     1
102
RTVSPropertyOp37
 70
     1
102
RTVSPropertyOp38
 70
     1
102
RTVSPropertyOp39
 70
     1
102
RTVSPropertyOp40
 70
     1
102
RTVSPropertyOp41
 70
     1
102
RTVSPropertyOp42
 70
     1
102
RTVSPropertyOp43
 70
     1
102
RTVSPropertyOp44
 70
     1
102
RTVSPropertyOp45
 70
     1
102
RTVSPropertyOp46
 70
     1
102
RTVSPropertyOp47
 70
     1
102
RTVSPropertyOp48
 70
     1
102
RTVSPropertyOp49
 70
     1
102
RTVSPropertyOp50
 70
     1
102
RTVSPropertyOp51
 70
     0
102
RTVSPropertyOp52
 70
     0
102
RTVSPropertyOp53
 70
     1
102
RTVSPropertyOp54
 70
     1
102
RTVSPropertyOp55
 70
     1
102
RTVSPropertyOp56
 70
     1
102
RTVSPropertyOp57
 70
     1
102
RTVSPropertyOp58
 70
     1
102
RTVSPropertyOp59
 70
     1
102
RTVSPropertyOp60
 70
     1
102
RTVSPropertyOp61
 70
     1
102
RTVSPropertyOp62
 70
     1
  0
XRECORD
  5
2A88
102
{ACAD_REACTORS
330
2A87
102
}
330
2A87
100
AcDbXrecord
280
     1
102
RTVSPost2010Prop28
280
     0
102
RTVSPost2010PropOp28
 70
     1
102
RTVSPost2010Prop29
280
     1
102
RTVSPost2010PropOp29
 70
     1
102
RTVSPost2010Prop30
280
     1
102
RTVSPost2010PropOp30
 70
     1
102
RTVSPost2010Prop31
280
     0
102
RTVSPost2010PropOp31
 70
     1
102
RTVSPost2010Prop32
280
     0
102
RTVSPost2010PropOp32
 70
     1
102
RTVSPost2010Prop33
280
     0
102
RTVSPost2010PropOp33
 70
     1
102
RTVSPost2010Prop34
280
     0
102
RTVSPost2010PropOp34
 70
     1
102
RTVSPost2010Prop35
280
     0
102
RTVSPost2010PropOp35
 70
     1
102
RTVSPost2010Prop36
280
     0
102
RTVSPost2010PropOp36
 70
     1
102
RTVSPost2010Prop37
 90
       50
102
RTVSPost2010PropOp37
 70
     1
102
RTVSPost2010Prop38
140
0.0
102
RTVSPost2010PropOp38
 70
     1
102
RTVSPost2010Prop39
140
1.0
102
RTVSPost2010PropOp39
 70
     1
102
RTVSPost2010Prop40
 90
        0
102
RTVSPost2010PropOp40
 70
     1
102
RTVSPost2010Prop41ColorIndex
 90
       18
102
RTVSPost2010Prop41ColorRGB
 90
        0
102
RTVSPost2010PropOp41
 70
     1
102
RTVSPost2010Prop42
 90
       50
102
RTVSPost2010PropOp42
 70
     1
102
RTVSPost2010Prop43
 90
        3
102
RTVSPost2010PropOp43
 70
     1
102
RTVSPost2010Prop44ColorIndex
 90
        5
102
RTVSPost2010Prop44ColorRGB
 90
      255
102
RTVSPost2010PropOp44
 70
     1
102
RTVSPost2010Prop45
280
     0
102
RTVSPost2010PropOp45
 70
     1
102
RTVSPost2010Prop46
 90
       50
102
RTVSPost2010PropOp46
 70
     1
102
RTVSPost2010Prop47
 90
       50
102
RTVSPost2010PropOp47
 70
     1
102
RTVSPost2010Prop48
 90
       50
102
RTVSPost2010PropOp48
 70
     1
102
RTVSPost2010Prop49
280
     0
102
RTVSPost2010PropOp49
 70
     1
102
RTVSPost2010Prop50
 90
       50
102
RTVSPost2010PropOp50
 70
     1
102
RTVSPost2010Prop51ColorIndex
 90
      256
102
RTVSPost2010Prop51ColorRGB
 90
-16777216
102
RTVSPost2010PropOp51
 70
     0
102
RTVSPost2010Prop52
140
1.0
102
RTVSPost2010PropOp52
 70
     0
102
RTVSPost2010Prop53
 90
        2
102
RTVSPost2010PropOp53
 70
     1
102
RTVSPost2010Prop54
  1
strokes_ogs.tif
102
RTVSPost2010PropOp54
 70
     1
102
RTVSPost2010Prop55
280
     0
102
RTVSPost2010PropOp55
 70
     1
102
RTVSPost2010Prop56
140
1.0
102
RTVSPost2010PropOp56
 70
     1
102
RTVSPost2010Prop57
140
1.0
102
RTVSPost2010PropOp57
 70
     1
102
RTVSPropertyOp0
 70
     1
102
RTVSPropertyOp1
 70
     1
102
RTVSPropertyOp2
 70
     1
102
RTVSPropertyOp3
 70
     1
102
RTVSPropertyOp4
 70
     1
102
RTVSPropertyOp5
 70
     1
102
RTVSPropertyOp6
 70
     1
102
RTVSPropertyOp7
 70
     1
102
RTVSPropertyOp8
 70
     1
102
RTVSPropertyOp9
 70
     1
102
RTVSPropertyOp10
 70
     1
102
RTVSPropertyOp11
 70
     1
102
RTVSPropertyOp12
 70
     1
102
RTVSPropertyOp13
 70
     1
102
RTVSPropertyOp14
 70
     1
102
RTVSPropertyOp15
 70
     1
102
RTVSPropertyOp16
 70
     1
102
RTVSPropertyOp17
 70
     1
102
RTVSPropertyOp18
 70
     1
102
RTVSPropertyOp19
 70
     1
102
RTVSPropertyOp20
 70
     1
102
RTVSPropertyOp21
 70
     1
102
RTVSPropertyOp22
 70
     1
102
RTVSPropertyOp23
 70
     1
102
RTVSPropertyOp24
 70
     1
102
RTVSPropertyOp25
 70
     1
102
RTVSPropertyOp26
 70
     1
102
RTVSPropertyOp27
 70
     1
102
RTVSPropertyOp28
 70
     1
102
RTVSPropertyOp29
 70
     1
102
RTVSPropertyOp30
 70
     1
102
RTVSPropertyOp31
 70
     1
102
RTVSPropertyOp32
 70
     1
102
RTVSPropertyOp33
 70
     1
102
RTVSPropertyOp34
 70
     1
102
RTVSPropertyOp35
 70
     1
102
RTVSPropertyOp36
 70
     1
102
RTVSPropertyOp37
 70
     1
102
RTVSPropertyOp38
 70
     1
102
RTVSPropertyOp39
 70
     1
102
RTVSPropertyOp40
 70
     1
102
RTVSPropertyOp41
 70
     1
102
RTVSPropertyOp42
 70
     1
102
RTVSPropertyOp43
 70
     1
102
RTVSPropertyOp44
 70
     1
102
RTVSPropertyOp45
 70
     1
102
RTVSPropertyOp46
 70
     1
102
RTVSPropertyOp47
 70
     1
102
RTVSPropertyOp48
 70
     1
102
RTVSPropertyOp49
 70
     1
102
RTVSPropertyOp50
 70
     1
102
RTVSPropertyOp51
 70
     0
102
RTVSPropertyOp52
 70
     0
102
RTVSPropertyOp53
 70
     1
102
RTVSPropertyOp54
 70
     1
102
RTVSPropertyOp55
 70
     1
102
RTVSPropertyOp56
 70
     1
102
RTVSPropertyOp57
 70
     1
102
RTVSPropertyOp58
 70
     1
102
RTVSPropertyOp59
 70
     1
102
RTVSPropertyOp60
 70
     1
102
RTVSPropertyOp61
 70
     1
102
RTVSPropertyOp62
 70
     1
  0
XRECORD
  5
2A90
102
{ACAD_REACTORS
330
2A8F
102
}
330
2A8F
100
AcDbXrecord
280
     1
102
RTVSPost2010Prop28
280
     0
102
RTVSPost2010PropOp28
 70
     1
102
RTVSPost2010Prop29
280
     1
102
RTVSPost2010PropOp29
 70
     1
102
RTVSPost2010Prop30
280
     1
102
RTVSPost2010PropOp30
 70
     1
102
RTVSPost2010Prop31
280
     0
102
RTVSPost2010PropOp31
 70
     1
102
RTVSPost2010Prop32
280
     0
102
RTVSPost2010PropOp32
 70
     1
102
RTVSPost2010Prop33
280
     0
102
RTVSPost2010PropOp33
 70
     1
102
RTVSPost2010Prop34
280
     0
102
RTVSPost2010PropOp34
 70
     1
102
RTVSPost2010Prop35
280
     0
102
RTVSPost2010PropOp35
 70
     1
102
RTVSPost2010Prop36
280
     0
102
RTVSPost2010PropOp36
 70
     1
102
RTVSPost2010Prop37
 90
       50
102
RTVSPost2010PropOp37
 70
     1
102
RTVSPost2010Prop38
140
0.0
102
RTVSPost2010PropOp38
 70
     1
102
RTVSPost2010Prop39
140
1.0
102
RTVSPost2010PropOp39
 70
     1
102
RTVSPost2010Prop40
 90
        0
102
RTVSPost2010PropOp40
 70
     1
102
RTVSPost2010Prop41ColorIndex
 90
       18
102
RTVSPost2010Prop41ColorRGB
 90
        0
102
RTVSPost2010PropOp41
 70
     1
102
RTVSPost2010Prop42
 90
       50
102
RTVSPost2010PropOp42
 70
     1
102
RTVSPost2010Prop43
 90
        3
102
RTVSPost2010PropOp43
 70
     1
102
RTVSPost2010Prop44ColorIndex
 90
        5
102
RTVSPost2010Prop44ColorRGB
 90
      255
102
RTVSPost2010PropOp44
 70
     1
102
RTVSPost2010Prop45
280
     0
102
RTVSPost2010PropOp45
 70
     1
102
RTVSPost2010Prop46
 90
       50
102
RTVSPost2010PropOp46
 70
     1
102
RTVSPost2010Prop47
 90
       50
102
RTVSPost2010PropOp47
 70
     1
102
RTVSPost2010Prop48
 90
       50
102
RTVSPost2010PropOp48
 70
     1
102
RTVSPost2010Prop49
280
     0
102
RTVSPost2010PropOp49
 70
     1
102
RTVSPost2010Prop50
 90
       50
102
RTVSPost2010PropOp50
 70
     1
102
RTVSPost2010Prop51ColorIndex
 90
      256
102
RTVSPost2010Prop51ColorRGB
 90
-16777216
102
RTVSPost2010PropOp51
 70
     0
102
RTVSPost2010Prop52
140
1.0
102
RTVSPost2010PropOp52
 70
     0
102
RTVSPost2010Prop53
 90
        2
102
RTVSPost2010PropOp53
 70
     1
102
RTVSPost2010Prop54
  1
strokes_ogs.tif
102
RTVSPost2010PropOp54
 70
     1
102
RTVSPost2010Prop55
280
     0
102
RTVSPost2010PropOp55
 70
     1
102
RTVSPost2010Prop56
140
1.0
102
RTVSPost2010PropOp56
 70
     1
102
RTVSPost2010Prop57
140
1.0
102
RTVSPost2010PropOp57
 70
     1
102
RTVSPropertyOp0
 70
     1
102
RTVSPropertyOp1
 70
     1
102
RTVSPropertyOp2
 70
     1
102
RTVSPropertyOp3
 70
     1
102
RTVSPropertyOp4
 70
     1
102
RTVSPropertyOp5
 70
     1
102
RTVSPropertyOp6
 70
     1
102
RTVSPropertyOp7
 70
     1
102
RTVSPropertyOp8
 70
     1
102
RTVSPropertyOp9
 70
     1
102
RTVSPropertyOp10
 70
     1
102
RTVSPropertyOp11
 70
     1
102
RTVSPropertyOp12
 70
     1
102
RTVSPropertyOp13
 70
     1
102
RTVSPropertyOp14
 70
     1
102
RTVSPropertyOp15
 70
     1
102
RTVSPropertyOp16
 70
     1
102
RTVSPropertyOp17
 70
     1
102
RTVSPropertyOp18
 70
     1
102
RTVSPropertyOp19
 70
     1
102
RTVSPropertyOp20
 70
     1
102
RTVSPropertyOp21
 70
     1
102
RTVSPropertyOp22
 70
     1
102
RTVSPropertyOp23
 70
     1
102
RTVSPropertyOp24
 70
     1
102
RTVSPropertyOp25
 70
     1
102
RTVSPropertyOp26
 70
     1
102
RTVSPropertyOp27
 70
     1
102
RTVSPropertyOp28
 70
     1
102
RTVSPropertyOp29
 70
     1
102
RTVSPropertyOp30
 70
     1
102
RTVSPropertyOp31
 70
     1
102
RTVSPropertyOp32
 70
     1
102
RTVSPropertyOp33
 70
     1
102
RTVSPropertyOp34
 70
     1
102
RTVSPropertyOp35
 70
     1
102
RTVSPropertyOp36
 70
     1
102
RTVSPropertyOp37
 70
     1
102
RTVSPropertyOp38
 70
     1
102
RTVSPropertyOp39
 70
     1
102
RTVSPropertyOp40
 70
     1
102
RTVSPropertyOp41
 70
     1
102
RTVSPropertyOp42
 70
     1
102
RTVSPropertyOp43
 70
     1
102
RTVSPropertyOp44
 70
     1
102
RTVSPropertyOp45
 70
     1
102
RTVSPropertyOp46
 70
     1
102
RTVSPropertyOp47
 70
     1
102
RTVSPropertyOp48
 70
     1
102
RTVSPropertyOp49
 70
     1
102
RTVSPropertyOp50
 70
     1
102
RTVSPropertyOp51
 70
     0
102
RTVSPropertyOp52
 70
     0
102
RTVSPropertyOp53
 70
     1
102
RTVSPropertyOp54
 70
     1
102
RTVSPropertyOp55
 70
     1
102
RTVSPropertyOp56
 70
     1
102
RTVSPropertyOp57
 70
     1
102
RTVSPropertyOp58
 70
     1
102
RTVSPropertyOp59
 70
     1
102
RTVSPropertyOp60
 70
     1
102
RTVSPropertyOp61
 70
     1
102
RTVSPropertyOp62
 70
     1
  0
XRECORD
  5
2AAC
102
{ACAD_REACTORS
330
2AAB
102
}
330
2AAB
100
AcDbXrecord
280
     1
102
RTVSPost2010Prop28
280
     0
102
RTVSPost2010PropOp28
 70
     1
102
RTVSPost2010Prop29
280
     1
102
RTVSPost2010PropOp29
 70
     1
102
RTVSPost2010Prop30
280
     1
102
RTVSPost2010PropOp30
 70
     1
102
RTVSPost2010Prop31
280
     0
102
RTVSPost2010PropOp31
 70
     1
102
RTVSPost2010Prop32
280
     0
102
RTVSPost2010PropOp32
 70
     1
102
RTVSPost2010Prop33
280
     0
102
RTVSPost2010PropOp33
 70
     1
102
RTVSPost2010Prop34
280
     0
102
RTVSPost2010PropOp34
 70
     1
102
RTVSPost2010Prop35
280
     0
102
RTVSPost2010PropOp35
 70
     1
102
RTVSPost2010Prop36
280
     0
102
RTVSPost2010PropOp36
 70
     1
102
RTVSPost2010Prop37
 90
       50
102
RTVSPost2010PropOp37
 70
     0
102
RTVSPost2010Prop38
140
0.0
102
RTVSPost2010PropOp38
 70
     0
102
RTVSPost2010Prop39
140
1.0
102
RTVSPost2010PropOp39
 70
     0
102
RTVSPost2010Prop40
 90
        0
102
RTVSPost2010PropOp40
 70
     0
102
RTVSPost2010Prop41ColorIndex
 90
       18
102
RTVSPost2010Prop41ColorRGB
 90
        0
102
RTVSPost2010PropOp41
 70
     0
102
RTVSPost2010Prop42
 90
       50
102
RTVSPost2010PropOp42
 70
     0
102
RTVSPost2010Prop43
 90
        3
102
RTVSPost2010PropOp43
 70
     0
102
RTVSPost2010Prop44ColorIndex
 90
        5
102
RTVSPost2010Prop44ColorRGB
 90
      255
102
RTVSPost2010PropOp44
 70
     0
102
RTVSPost2010Prop45
280
     0
102
RTVSPost2010PropOp45
 70
     1
102
RTVSPost2010Prop46
 90
       50
102
RTVSPost2010PropOp46
 70
     0
102
RTVSPost2010Prop47
 90
       50
102
RTVSPost2010PropOp47
 70
     0
102
RTVSPost2010Prop48
 90
       50
102
RTVSPost2010PropOp48
 70
     0
102
RTVSPost2010Prop49
280
     0
102
RTVSPost2010PropOp49
 70
     1
102
RTVSPost2010Prop50
 90
       50
102
RTVSPost2010PropOp50
 70
     0
102
RTVSPost2010Prop51ColorIndex
 90
      256
102
RTVSPost2010Prop51ColorRGB
 90
-16777216
102
RTVSPost2010PropOp51
 70
     0
102
RTVSPost2010Prop52
140
1.0
102
RTVSPost2010PropOp52
 70
     0
102
RTVSPost2010Prop53
 90
        2
102
RTVSPost2010PropOp53
 70
     0
102
RTVSPost2010Prop54
  1
strokes_ogs.tif
102
RTVSPost2010PropOp54
 70
     0
102
RTVSPost2010Prop55
280
     0
102
RTVSPost2010PropOp55
 70
     1
102
RTVSPost2010Prop56
140
1.0
102
RTVSPost2010PropOp56
 70
     0
102
RTVSPost2010Prop57
140
1.0
102
RTVSPost2010PropOp57
 70
     0
102
RTVSPropertyOp0
 70
     0
102
RTVSPropertyOp1
 70
     0
102
RTVSPropertyOp2
 70
     0
102
RTVSPropertyOp3
 70
     0
102
RTVSPropertyOp4
 70
     0
102
RTVSPropertyOp5
 70
     0
102
RTVSPropertyOp6
 70
     0
102
RTVSPropertyOp7
 70
     0
102
RTVSPropertyOp8
 70
     0
102
RTVSPropertyOp9
 70
     0
102
RTVSPropertyOp10
 70
     0
102
RTVSPropertyOp11
 70
     0
102
RTVSPropertyOp12
 70
     0
102
RTVSPropertyOp13
 70
     0
102
RTVSPropertyOp14
 70
     2
102
RTVSPropertyOp15
 70
     0
102
RTVSPropertyOp16
 70
     0
102
RTVSPropertyOp17
 70
     0
102
RTVSPropertyOp18
 70
     0
102
RTVSPropertyOp19
 70
     0
102
RTVSPropertyOp20
 70
     0
102
RTVSPropertyOp21
 70
     0
102
RTVSPropertyOp22
 70
     0
102
RTVSPropertyOp23
 70
     0
102
RTVSPropertyOp24
 70
     0
102
RTVSPropertyOp25
 70
     0
102
RTVSPropertyOp26
 70
     0
102
RTVSPropertyOp27
 70
     0
102
RTVSPropertyOp28
 70
     1
102
RTVSPropertyOp29
 70
     1
102
RTVSPropertyOp30
 70
     1
102
RTVSPropertyOp31
 70
     1
102
RTVSPropertyOp32
 70
     1
102
RTVSPropertyOp33
 70
     1
102
RTVSPropertyOp34
 70
     1
102
RTVSPropertyOp35
 70
     1
102
RTVSPropertyOp36
 70
     1
102
RTVSPropertyOp37
 70
     0
102
RTVSPropertyOp38
 70
     0
102
RTVSPropertyOp39
 70
     0
102
RTVSPropertyOp40
 70
     0
102
RTVSPropertyOp41
 70
     0
102
RTVSPropertyOp42
 70
     0
102
RTVSPropertyOp43
 70
     0
102
RTVSPropertyOp44
 70
     0
102
RTVSPropertyOp45
 70
     1
102
RTVSPropertyOp46
 70
     0
102
RTVSPropertyOp47
 70
     0
102
RTVSPropertyOp48
 70
     0
102
RTVSPropertyOp49
 70
     1
102
RTVSPropertyOp50
 70
     0
102
RTVSPropertyOp51
 70
     0
102
RTVSPropertyOp52
 70
     0
102
RTVSPropertyOp53
 70
     0
102
RTVSPropertyOp54
 70
     0
102
RTVSPropertyOp55
 70
     1
102
RTVSPropertyOp56
 70
     0
102
RTVSPropertyOp57
 70
     0
102
RTVSPropertyOp58
 70
     0
102
RTVSPropertyOp59
 70
     0
102
RTVSPropertyOp60
 70
     0
102
RTVSPropertyOp61
 70
     0
102
RTVSPropertyOp62
 70
     0
  0
XRECORD
  5
2A9C
102
{ACAD_REACTORS
330
2A9B
102
}
330
2A9B
100
AcDbXrecord
280
     1
102
RTVSPost2010Prop28
280
     0
102
RTVSPost2010PropOp28
 70
     1
102
RTVSPost2010Prop29
280
     1
102
RTVSPost2010PropOp29
 70
     1
102
RTVSPost2010Prop30
280
     1
102
RTVSPost2010PropOp30
 70
     1
102
RTVSPost2010Prop31
280
     0
102
RTVSPost2010PropOp31
 70
     1
102
RTVSPost2010Prop32
280
     0
102
RTVSPost2010PropOp32
 70
     1
102
RTVSPost2010Prop33
280
     0
102
RTVSPost2010PropOp33
 70
     1
102
RTVSPost2010Prop34
280
     0
102
RTVSPost2010PropOp34
 70
     1
102
RTVSPost2010Prop35
280
     0
102
RTVSPost2010PropOp35
 70
     1
102
RTVSPost2010Prop36
280
     0
102
RTVSPost2010PropOp36
 70
     1
102
RTVSPost2010Prop37
 90
       50
102
RTVSPost2010PropOp37
 70
     1
102
RTVSPost2010Prop38
140
0.0
102
RTVSPost2010PropOp38
 70
     1
102
RTVSPost2010Prop39
140
1.0
102
RTVSPost2010PropOp39
 70
     1
102
RTVSPost2010Prop40
 90
        0
102
RTVSPost2010PropOp40
 70
     1
102
RTVSPost2010Prop41ColorIndex
 90
       18
102
RTVSPost2010Prop41ColorRGB
 90
        0
102
RTVSPost2010PropOp41
 70
     1
102
RTVSPost2010Prop42
 90
       50
102
RTVSPost2010PropOp42
 70
     1
102
RTVSPost2010Prop43
 90
        3
102
RTVSPost2010PropOp43
 70
     1
102
RTVSPost2010Prop44ColorIndex
 90
        5
102
RTVSPost2010Prop44ColorRGB
 90
      255
102
RTVSPost2010PropOp44
 70
     1
102
RTVSPost2010Prop45
280
     0
102
RTVSPost2010PropOp45
 70
     1
102
RTVSPost2010Prop46
 90
       50
102
RTVSPost2010PropOp46
 70
     1
102
RTVSPost2010Prop47
 90
       50
102
RTVSPost2010PropOp47
 70
     1
102
RTVSPost2010Prop48
 90
       50
102
RTVSPost2010PropOp48
 70
     1
102
RTVSPost2010Prop49
280
     0
102
RTVSPost2010PropOp49
 70
     1
102
RTVSPost2010Prop50
 90
       50
102
RTVSPost2010PropOp50
 70
     1
102
RTVSPost2010Prop51ColorIndex
 90
      256
102
RTVSPost2010Prop51ColorRGB
 90
-16777216
102
RTVSPost2010PropOp51
 70
     0
102
RTVSPost2010Prop52
140
1.0
102
RTVSPost2010PropOp52
 70
     0
102
RTVSPost2010Prop53
 90
        2
102
RTVSPost2010PropOp53
 70
     1
102
RTVSPost2010Prop54
  1
strokes_ogs.tif
102
RTVSPost2010PropOp54
 70
     1
102
RTVSPost2010Prop55
280
     0
102
RTVSPost2010PropOp55
 70
     1
102
RTVSPost2010Prop56
140
1.0
102
RTVSPost2010PropOp56
 70
     1
102
RTVSPost2010Prop57
140
1.0
102
RTVSPost2010PropOp57
 70
     1
102
RTVSPropertyOp0
 70
     1
102
RTVSPropertyOp1
 70
     1
102
RTVSPropertyOp2
 70
     1
102
RTVSPropertyOp3
 70
     1
102
RTVSPropertyOp4
 70
     1
102
RTVSPropertyOp5
 70
     1
102
RTVSPropertyOp6
 70
     1
102
RTVSPropertyOp7
 70
     1
102
RTVSPropertyOp8
 70
     1
102
RTVSPropertyOp9
 70
     1
102
RTVSPropertyOp10
 70
     1
102
RTVSPropertyOp11
 70
     1
102
RTVSPropertyOp12
 70
     1
102
RTVSPropertyOp13
 70
     1
102
RTVSPropertyOp14
 70
     1
102
RTVSPropertyOp15
 70
     1
102
RTVSPropertyOp16
 70
     1
102
RTVSPropertyOp17
 70
     1
102
RTVSPropertyOp18
 70
     1
102
RTVSPropertyOp19
 70
     1
102
RTVSPropertyOp20
 70
     1
102
RTVSPropertyOp21
 70
     1
102
RTVSPropertyOp22
 70
     1
102
RTVSPropertyOp23
 70
     1
102
RTVSPropertyOp24
 70
     1
102
RTVSPropertyOp25
 70
     1
102
RTVSPropertyOp26
 70
     1
102
RTVSPropertyOp27
 70
     1
102
RTVSPropertyOp28
 70
     1
102
RTVSPropertyOp29
 70
     1
102
RTVSPropertyOp30
 70
     1
102
RTVSPropertyOp31
 70
     1
102
RTVSPropertyOp32
 70
     1
102
RTVSPropertyOp33
 70
     1
102
RTVSPropertyOp34
 70
     1
102
RTVSPropertyOp35
 70
     1
102
RTVSPropertyOp36
 70
     1
102
RTVSPropertyOp37
 70
     1
102
RTVSPropertyOp38
 70
     1
102
RTVSPropertyOp39
 70
     1
102
RTVSPropertyOp40
 70
     1
102
RTVSPropertyOp41
 70
     1
102
RTVSPropertyOp42
 70
     1
102
RTVSPropertyOp43
 70
     1
102
RTVSPropertyOp44
 70
     1
102
RTVSPropertyOp45
 70
     1
102
RTVSPropertyOp46
 70
     1
102
RTVSPropertyOp47
 70
     1
102
RTVSPropertyOp48
 70
     1
102
RTVSPropertyOp49
 70
     1
102
RTVSPropertyOp50
 70
     1
102
RTVSPropertyOp51
 70
     0
102
RTVSPropertyOp52
 70
     0
102
RTVSPropertyOp53
 70
     1
102
RTVSPropertyOp54
 70
     1
102
RTVSPropertyOp55
 70
     1
102
RTVSPropertyOp56
 70
     1
102
RTVSPropertyOp57
 70
     1
102
RTVSPropertyOp58
 70
     1
102
RTVSPropertyOp59
 70
     1
102
RTVSPropertyOp60
 70
     1
102
RTVSPropertyOp61
 70
     1
102
RTVSPropertyOp62
 70
     1
  0
XRECORD
  5
2AAE
102
{ACAD_REACTORS
330
2AAD
102
}
330
2AAD
100
AcDbXrecord
280
     1
102
RTVSPost2010Prop28
280
     0
102
RTVSPost2010PropOp28
 70
     1
102
RTVSPost2010Prop29
280
     1
102
RTVSPost2010PropOp29
 70
     1
102
RTVSPost2010Prop30
280
     1
102
RTVSPost2010PropOp30
 70
     1
102
RTVSPost2010Prop31
280
     0
102
RTVSPost2010PropOp31
 70
     1
102
RTVSPost2010Prop32
280
     0
102
RTVSPost2010PropOp32
 70
     1
102
RTVSPost2010Prop33
280
     0
102
RTVSPost2010PropOp33
 70
     1
102
RTVSPost2010Prop34
280
     0
102
RTVSPost2010PropOp34
 70
     1
102
RTVSPost2010Prop35
280
     0
102
RTVSPost2010PropOp35
 70
     1
102
RTVSPost2010Prop36
280
     0
102
RTVSPost2010PropOp36
 70
     1
102
RTVSPost2010Prop37
 90
       50
102
RTVSPost2010PropOp37
 70
     0
102
RTVSPost2010Prop38
140
0.0
102
RTVSPost2010PropOp38
 70
     0
102
RTVSPost2010Prop39
140
1.0
102
RTVSPost2010PropOp39
 70
     0
102
RTVSPost2010Prop40
 90
        0
102
RTVSPost2010PropOp40
 70
     0
102
RTVSPost2010Prop41ColorIndex
 90
       18
102
RTVSPost2010Prop41ColorRGB
 90
        0
102
RTVSPost2010PropOp41
 70
     0
102
RTVSPost2010Prop42
 90
       50
102
RTVSPost2010PropOp42
 70
     0
102
RTVSPost2010Prop43
 90
        3
102
RTVSPost2010PropOp43
 70
     0
102
RTVSPost2010Prop44ColorIndex
 90
        5
102
RTVSPost2010Prop44ColorRGB
 90
      255
102
RTVSPost2010PropOp44
 70
     0
102
RTVSPost2010Prop45
280
     0
102
RTVSPost2010PropOp45
 70
     1
102
RTVSPost2010Prop46
 90
       50
102
RTVSPost2010PropOp46
 70
     0
102
RTVSPost2010Prop47
 90
       50
102
RTVSPost2010PropOp47
 70
     0
102
RTVSPost2010Prop48
 90
       50
102
RTVSPost2010PropOp48
 70
     0
102
RTVSPost2010Prop49
280
     0
102
RTVSPost2010PropOp49
 70
     1
102
RTVSPost2010Prop50
 90
       50
102
RTVSPost2010PropOp50
 70
     0
102
RTVSPost2010Prop51ColorIndex
 90
      256
102
RTVSPost2010Prop51ColorRGB
 90
-16777216
102
RTVSPost2010PropOp51
 70
     0
102
RTVSPost2010Prop52
140
1.0
102
RTVSPost2010PropOp52
 70
     0
102
RTVSPost2010Prop53
 90
        2
102
RTVSPost2010PropOp53
 70
     0
102
RTVSPost2010Prop54
  1
strokes_ogs.tif
102
RTVSPost2010PropOp54
 70
     0
102
RTVSPost2010Prop55
280
     0
102
RTVSPost2010PropOp55
 70
     1
102
RTVSPost2010Prop56
140
1.0
102
RTVSPost2010PropOp56
 70
     0
102
RTVSPost2010Prop57
140
1.0
102
RTVSPost2010PropOp57
 70
     0
102
RTVSPropertyOp0
 70
     0
102
RTVSPropertyOp1
 70
     0
102
RTVSPropertyOp2
 70
     0
102
RTVSPropertyOp3
 70
     0
102
RTVSPropertyOp4
 70
     0
102
RTVSPropertyOp5
 70
     0
102
RTVSPropertyOp6
 70
     0
102
RTVSPropertyOp7
 70
     0
102
RTVSPropertyOp8
 70
     0
102
RTVSPropertyOp9
 70
     0
102
RTVSPropertyOp10
 70
     0
102
RTVSPropertyOp11
 70
     0
102
RTVSPropertyOp12
 70
     0
102
RTVSPropertyOp13
 70
     0
102
RTVSPropertyOp14
 70
     2
102
RTVSPropertyOp15
 70
     0
102
RTVSPropertyOp16
 70
     0
102
RTVSPropertyOp17
 70
     0
102
RTVSPropertyOp18
 70
     0
102
RTVSPropertyOp19
 70
     0
102
RTVSPropertyOp20
 70
     0
102
RTVSPropertyOp21
 70
     0
102
RTVSPropertyOp22
 70
     0
102
RTVSPropertyOp23
 70
     0
102
RTVSPropertyOp24
 70
     0
102
RTVSPropertyOp25
 70
     0
102
RTVSPropertyOp26
 70
     0
102
RTVSPropertyOp27
 70
     0
102
RTVSPropertyOp28
 70
     1
102
RTVSPropertyOp29
 70
     1
102
RTVSPropertyOp30
 70
     1
102
RTVSPropertyOp31
 70
     1
102
RTVSPropertyOp32
 70
     1
102
RTVSPropertyOp33
 70
     1
102
RTVSPropertyOp34
 70
     1
102
RTVSPropertyOp35
 70
     1
102
RTVSPropertyOp36
 70
     1
102
RTVSPropertyOp37
 70
     0
102
RTVSPropertyOp38
 70
     0
102
RTVSPropertyOp39
 70
     0
102
RTVSPropertyOp40
 70
     0
102
RTVSPropertyOp41
 70
     0
102
RTVSPropertyOp42
 70
     0
102
RTVSPropertyOp43
 70
     0
102
RTVSPropertyOp44
 70
     0
102
RTVSPropertyOp45
 70
     1
102
RTVSPropertyOp46
 70
     0
102
RTVSPropertyOp47
 70
     0
102
RTVSPropertyOp48
 70
     0
102
RTVSPropertyOp49
 70
     1
102
RTVSPropertyOp50
 70
     0
102
RTVSPropertyOp51
 70
     0
102
RTVSPropertyOp52
 70
     0
102
RTVSPropertyOp53
 70
     0
102
RTVSPropertyOp54
 70
     0
102
RTVSPropertyOp55
 70
     1
102
RTVSPropertyOp56
 70
     0
102
RTVSPropertyOp57
 70
     0
102
RTVSPropertyOp58
 70
     0
102
RTVSPropertyOp59
 70
     0
102
RTVSPropertyOp60
 70
     0
102
RTVSPropertyOp61
 70
     0
102
RTVSPropertyOp62
 70
     0
  0
XRECORD
  5
2A94
102
{ACAD_REACTORS
330
2A93
102
}
330
2A93
100
AcDbXrecord
280
     1
102
RTVSPost2010Prop28
280
     0
102
RTVSPost2010PropOp28
 70
     1
102
RTVSPost2010Prop29
280
     1
102
RTVSPost2010PropOp29
 70
     1
102
RTVSPost2010Prop30
280
     1
102
RTVSPost2010PropOp30
 70
     1
102
RTVSPost2010Prop31
280
     0
102
RTVSPost2010PropOp31
 70
     1
102
RTVSPost2010Prop32
280
     0
102
RTVSPost2010PropOp32
 70
     1
102
RTVSPost2010Prop33
280
     0
102
RTVSPost2010PropOp33
 70
     1
102
RTVSPost2010Prop34
280
     0
102
RTVSPost2010PropOp34
 70
     1
102
RTVSPost2010Prop35
280
     0
102
RTVSPost2010PropOp35
 70
     1
102
RTVSPost2010Prop36
280
     0
102
RTVSPost2010PropOp36
 70
     1
102
RTVSPost2010Prop37
 90
       50
102
RTVSPost2010PropOp37
 70
     1
102
RTVSPost2010Prop38
140
0.0
102
RTVSPost2010PropOp38
 70
     1
102
RTVSPost2010Prop39
140
1.0
102
RTVSPost2010PropOp39
 70
     1
102
RTVSPost2010Prop40
 90
        0
102
RTVSPost2010PropOp40
 70
     1
102
RTVSPost2010Prop41ColorIndex
 90
       18
102
RTVSPost2010Prop41ColorRGB
 90
        0
102
RTVSPost2010PropOp41
 70
     1
102
RTVSPost2010Prop42
 90
       50
102
RTVSPost2010PropOp42
 70
     1
102
RTVSPost2010Prop43
 90
        3
102
RTVSPost2010PropOp43
 70
     1
102
RTVSPost2010Prop44ColorIndex
 90
        5
102
RTVSPost2010Prop44ColorRGB
 90
      255
102
RTVSPost2010PropOp44
 70
     1
102
RTVSPost2010Prop45
280
     0
102
RTVSPost2010PropOp45
 70
     1
102
RTVSPost2010Prop46
 90
       50
102
RTVSPost2010PropOp46
 70
     1
102
RTVSPost2010Prop47
 90
       50
102
RTVSPost2010PropOp47
 70
     1
102
RTVSPost2010Prop48
 90
       50
102
RTVSPost2010PropOp48
 70
     1
102
RTVSPost2010Prop49
280
     0
102
RTVSPost2010PropOp49
 70
     1
102
RTVSPost2010Prop50
 90
       50
102
RTVSPost2010PropOp50
 70
     1
102
RTVSPost2010Prop51ColorIndex
 90
      256
102
RTVSPost2010Prop51ColorRGB
 90
-16777216
102
RTVSPost2010PropOp51
 70
     0
102
RTVSPost2010Prop52
140
1.0
102
RTVSPost2010PropOp52
 70
     0
102
RTVSPost2010Prop53
 90
        2
102
RTVSPost2010PropOp53
 70
     1
102
RTVSPost2010Prop54
  1
strokes_ogs.tif
102
RTVSPost2010PropOp54
 70
     1
102
RTVSPost2010Prop55
280
     0
102
RTVSPost2010PropOp55
 70
     1
102
RTVSPost2010Prop56
140
1.0
102
RTVSPost2010PropOp56
 70
     1
102
RTVSPost2010Prop57
140
1.0
102
RTVSPost2010PropOp57
 70
     1
102
RTVSPropertyOp0
 70
     1
102
RTVSPropertyOp1
 70
     1
102
RTVSPropertyOp2
 70
     1
102
RTVSPropertyOp3
 70
     1
102
RTVSPropertyOp4
 70
     1
102
RTVSPropertyOp5
 70
     1
102
RTVSPropertyOp6
 70
     1
102
RTVSPropertyOp7
 70
     1
102
RTVSPropertyOp8
 70
     1
102
RTVSPropertyOp9
 70
     1
102
RTVSPropertyOp10
 70
     1
102
RTVSPropertyOp11
 70
     1
102
RTVSPropertyOp12
 70
     1
102
RTVSPropertyOp13
 70
     1
102
RTVSPropertyOp14
 70
     1
102
RTVSPropertyOp15
 70
     1
102
RTVSPropertyOp16
 70
     1
102
RTVSPropertyOp17
 70
     1
102
RTVSPropertyOp18
 70
     1
102
RTVSPropertyOp19
 70
     1
102
RTVSPropertyOp20
 70
     1
102
RTVSPropertyOp21
 70
     1
102
RTVSPropertyOp22
 70
     1
102
RTVSPropertyOp23
 70
     1
102
RTVSPropertyOp24
 70
     1
102
RTVSPropertyOp25
 70
     1
102
RTVSPropertyOp26
 70
     1
102
RTVSPropertyOp27
 70
     1
102
RTVSPropertyOp28
 70
     1
102
RTVSPropertyOp29
 70
     1
102
RTVSPropertyOp30
 70
     1
102
RTVSPropertyOp31
 70
     1
102
RTVSPropertyOp32
 70
     1
102
RTVSPropertyOp33
 70
     1
102
RTVSPropertyOp34
 70
     1
102
RTVSPropertyOp35
 70
     1
102
RTVSPropertyOp36
 70
     1
102
RTVSPropertyOp37
 70
     1
102
RTVSPropertyOp38
 70
     1
102
RTVSPropertyOp39
 70
     1
102
RTVSPropertyOp40
 70
     1
102
RTVSPropertyOp41
 70
     1
102
RTVSPropertyOp42
 70
     1
102
RTVSPropertyOp43
 70
     1
102
RTVSPropertyOp44
 70
     1
102
RTVSPropertyOp45
 70
     1
102
RTVSPropertyOp46
 70
     1
102
RTVSPropertyOp47
 70
     1
102
RTVSPropertyOp48
 70
     1
102
RTVSPropertyOp49
 70
     1
102
RTVSPropertyOp50
 70
     1
102
RTVSPropertyOp51
 70
     0
102
RTVSPropertyOp52
 70
     0
102
RTVSPropertyOp53
 70
     1
102
RTVSPropertyOp54
 70
     1
102
RTVSPropertyOp55
 70
     1
102
RTVSPropertyOp56
 70
     1
102
RTVSPropertyOp57
 70
     1
102
RTVSPropertyOp58
 70
     1
102
RTVSPropertyOp59
 70
     1
102
RTVSPropertyOp60
 70
     1
102
RTVSPropertyOp61
 70
     1
102
RTVSPropertyOp62
 70
     1
  0
XRECORD
  5
2AAA
102
{ACAD_REACTORS
330
2AA9
102
}
330
2AA9
100
AcDbXrecord
280
     1
102
RTVSPost2010Prop28
280
     0
102
RTVSPost2010PropOp28
 70
     1
102
RTVSPost2010Prop29
280
     1
102
RTVSPost2010PropOp29
 70
     1
102
RTVSPost2010Prop30
280
     1
102
RTVSPost2010PropOp30
 70
     1
102
RTVSPost2010Prop31
280
     0
102
RTVSPost2010PropOp31
 70
     1
102
RTVSPost2010Prop32
280
     0
102
RTVSPost2010PropOp32
 70
     1
102
RTVSPost2010Prop33
280
     0
102
RTVSPost2010PropOp33
 70
     1
102
RTVSPost2010Prop34
280
     0
102
RTVSPost2010PropOp34
 70
     1
102
RTVSPost2010Prop35
280
     0
102
RTVSPost2010PropOp35
 70
     1
102
RTVSPost2010Prop36
280
     0
102
RTVSPost2010PropOp36
 70
     1
102
RTVSPost2010Prop37
 90
       50
102
RTVSPost2010PropOp37
 70
     1
102
RTVSPost2010Prop38
140
0.0
102
RTVSPost2010PropOp38
 70
     1
102
RTVSPost2010Prop39
140
1.0
102
RTVSPost2010PropOp39
 70
     1
102
RTVSPost2010Prop40
 90
        0
102
RTVSPost2010PropOp40
 70
     1
102
RTVSPost2010Prop41ColorIndex
 90
       18
102
RTVSPost2010Prop41ColorRGB
 90
        0
102
RTVSPost2010PropOp41
 70
     1
102
RTVSPost2010Prop42
 90
       50
102
RTVSPost2010PropOp42
 70
     1
102
RTVSPost2010Prop43
 90
        3
102
RTVSPost2010PropOp43
 70
     1
102
RTVSPost2010Prop44ColorIndex
 90
        5
102
RTVSPost2010Prop44ColorRGB
 90
      255
102
RTVSPost2010PropOp44
 70
     1
102
RTVSPost2010Prop45
280
     0
102
RTVSPost2010PropOp45
 70
     1
102
RTVSPost2010Prop46
 90
       50
102
RTVSPost2010PropOp46
 70
     1
102
RTVSPost2010Prop47
 90
       50
102
RTVSPost2010PropOp47
 70
     1
102
RTVSPost2010Prop48
 90
       50
102
RTVSPost2010PropOp48
 70
     1
102
RTVSPost2010Prop49
280
     0
102
RTVSPost2010PropOp49
 70
     1
102
RTVSPost2010Prop50
 90
       50
102
RTVSPost2010PropOp50
 70
     1
102
RTVSPost2010Prop51ColorIndex
 90
      256
102
RTVSPost2010Prop51ColorRGB
 90
-16777216
102
RTVSPost2010PropOp51
 70
     0
102
RTVSPost2010Prop52
140
1.0
102
RTVSPost2010PropOp52
 70
     0
102
RTVSPost2010Prop53
 90
        2
102
RTVSPost2010PropOp53
 70
     1
102
RTVSPost2010Prop54
  1
strokes_ogs.tif
102
RTVSPost2010PropOp54
 70
     1
102
RTVSPost2010Prop55
280
     0
102
RTVSPost2010PropOp55
 70
     1
102
RTVSPost2010Prop56
140
1.0
102
RTVSPost2010PropOp56
 70
     1
102
RTVSPost2010Prop57
140
1.0
102
RTVSPost2010PropOp57
 70
     1
102
RTVSPropertyOp0
 70
     1
102
RTVSPropertyOp1
 70
     1
102
RTVSPropertyOp2
 70
     1
102
RTVSPropertyOp3
 70
     1
102
RTVSPropertyOp4
 70
     1
102
RTVSPropertyOp5
 70
     1
102
RTVSPropertyOp6
 70
     1
102
RTVSPropertyOp7
 70
     1
102
RTVSPropertyOp8
 70
     1
102
RTVSPropertyOp9
 70
     1
102
RTVSPropertyOp10
 70
     1
102
RTVSPropertyOp11
 70
     1
102
RTVSPropertyOp12
 70
     1
102
RTVSPropertyOp13
 70
     1
102
RTVSPropertyOp14
 70
     1
102
RTVSPropertyOp15
 70
     1
102
RTVSPropertyOp16
 70
     1
102
RTVSPropertyOp17
 70
     1
102
RTVSPropertyOp18
 70
     1
102
RTVSPropertyOp19
 70
     1
102
RTVSPropertyOp20
 70
     1
102
RTVSPropertyOp21
 70
     1
102
RTVSPropertyOp22
 70
     1
102
RTVSPropertyOp23
 70
     1
102
RTVSPropertyOp24
 70
     1
102
RTVSPropertyOp25
 70
     1
102
RTVSPropertyOp26
 70
     1
102
RTVSPropertyOp27
 70
     1
102
RTVSPropertyOp28
 70
     1
102
RTVSPropertyOp29
 70
     1
102
RTVSPropertyOp30
 70
     1
102
RTVSPropertyOp31
 70
     1
102
RTVSPropertyOp32
 70
     1
102
RTVSPropertyOp33
 70
     1
102
RTVSPropertyOp34
 70
     1
102
RTVSPropertyOp35
 70
     1
102
RTVSPropertyOp36
 70
     1
102
RTVSPropertyOp37
 70
     1
102
RTVSPropertyOp38
 70
     1
102
RTVSPropertyOp39
 70
     1
102
RTVSPropertyOp40
 70
     1
102
RTVSPropertyOp41
 70
     1
102
RTVSPropertyOp42
 70
     1
102
RTVSPropertyOp43
 70
     1
102
RTVSPropertyOp44
 70
     1
102
RTVSPropertyOp45
 70
     1
102
RTVSPropertyOp46
 70
     1
102
RTVSPropertyOp47
 70
     1
102
RTVSPropertyOp48
 70
     1
102
RTVSPropertyOp49
 70
     1
102
RTVSPropertyOp50
 70
     1
102
RTVSPropertyOp51
 70
     0
102
RTVSPropertyOp52
 70
     0
102
RTVSPropertyOp53
 70
     1
102
RTVSPropertyOp54
 70
     1
102
RTVSPropertyOp55
 70
     1
102
RTVSPropertyOp56
 70
     1
102
RTVSPropertyOp57
 70
     1
102
RTVSPropertyOp58
 70
     1
102
RTVSPropertyOp59
 70
     1
102
RTVSPropertyOp60
 70
     1
102
RTVSPropertyOp61
 70
     1
102
RTVSPropertyOp62
 70
     1
  0
XRECORD
  5
2AA8
102
{ACAD_REACTORS
330
2AA7
102
}
330
2AA7
100
AcDbXrecord
280
     1
102
RTVSPost2010Prop28
280
     0
102
RTVSPost2010PropOp28
 70
     1
102
RTVSPost2010Prop29
280
     1
102
RTVSPost2010PropOp29
 70
     1
102
RTVSPost2010Prop30
280
     1
102
RTVSPost2010PropOp30
 70
     1
102
RTVSPost2010Prop31
280
     0
102
RTVSPost2010PropOp31
 70
     1
102
RTVSPost2010Prop32
280
     0
102
RTVSPost2010PropOp32
 70
     1
102
RTVSPost2010Prop33
280
     0
102
RTVSPost2010PropOp33
 70
     1
102
RTVSPost2010Prop34
280
     0
102
RTVSPost2010PropOp34
 70
     1
102
RTVSPost2010Prop35
280
     0
102
RTVSPost2010PropOp35
 70
     1
102
RTVSPost2010Prop36
280
     0
102
RTVSPost2010PropOp36
 70
     1
102
RTVSPost2010Prop37
 90
       50
102
RTVSPost2010PropOp37
 70
     1
102
RTVSPost2010Prop38
140
0.0
102
RTVSPost2010PropOp38
 70
     1
102
RTVSPost2010Prop39
140
1.0
102
RTVSPost2010PropOp39
 70
     1
102
RTVSPost2010Prop40
 90
        0
102
RTVSPost2010PropOp40
 70
     1
102
RTVSPost2010Prop41ColorIndex
 90
       18
102
RTVSPost2010Prop41ColorRGB
 90
        0
102
RTVSPost2010PropOp41
 70
     1
102
RTVSPost2010Prop42
 90
       50
102
RTVSPost2010PropOp42
 70
     1
102
RTVSPost2010Prop43
 90
        3
102
RTVSPost2010PropOp43
 70
     1
102
RTVSPost2010Prop44ColorIndex
 90
        5
102
RTVSPost2010Prop44ColorRGB
 90
      255
102
RTVSPost2010PropOp44
 70
     1
102
RTVSPost2010Prop45
280
     0
102
RTVSPost2010PropOp45
 70
     1
102
RTVSPost2010Prop46
 90
       50
102
RTVSPost2010PropOp46
 70
     1
102
RTVSPost2010Prop47
 90
       50
102
RTVSPost2010PropOp47
 70
     1
102
RTVSPost2010Prop48
 90
       50
102
RTVSPost2010PropOp48
 70
     1
102
RTVSPost2010Prop49
280
     0
102
RTVSPost2010PropOp49
 70
     1
102
RTVSPost2010Prop50
 90
       50
102
RTVSPost2010PropOp50
 70
     1
102
RTVSPost2010Prop51ColorIndex
 90
      256
102
RTVSPost2010Prop51ColorRGB
 90
-16777216
102
RTVSPost2010PropOp51
 70
     0
102
RTVSPost2010Prop52
140
1.0
102
RTVSPost2010PropOp52
 70
     0
102
RTVSPost2010Prop53
 90
        2
102
RTVSPost2010PropOp53
 70
     1
102
RTVSPost2010Prop54
  1
strokes_ogs.tif
102
RTVSPost2010PropOp54
 70
     1
102
RTVSPost2010Prop55
280
     0
102
RTVSPost2010PropOp55
 70
     1
102
RTVSPost2010Prop56
140
1.0
102
RTVSPost2010PropOp56
 70
     1
102
RTVSPost2010Prop57
140
1.0
102
RTVSPost2010PropOp57
 70
     1
102
RTVSPropertyOp0
 70
     1
102
RTVSPropertyOp1
 70
     1
102
RTVSPropertyOp2
 70
     1
102
RTVSPropertyOp3
 70
     1
102
RTVSPropertyOp4
 70
     1
102
RTVSPropertyOp5
 70
     1
102
RTVSPropertyOp6
 70
     1
102
RTVSPropertyOp7
 70
     1
102
RTVSPropertyOp8
 70
     1
102
RTVSPropertyOp9
 70
     1
102
RTVSPropertyOp10
 70
     1
102
RTVSPropertyOp11
 70
     1
102
RTVSPropertyOp12
 70
     1
102
RTVSPropertyOp13
 70
     1
102
RTVSPropertyOp14
 70
     1
102
RTVSPropertyOp15
 70
     1
102
RTVSPropertyOp16
 70
     1
102
RTVSPropertyOp17
 70
     1
102
RTVSPropertyOp18
 70
     1
102
RTVSPropertyOp19
 70
     1
102
RTVSPropertyOp20
 70
     1
102
RTVSPropertyOp21
 70
     1
102
RTVSPropertyOp22
 70
     1
102
RTVSPropertyOp23
 70
     1
102
RTVSPropertyOp24
 70
     1
102
RTVSPropertyOp25
 70
     1
102
RTVSPropertyOp26
 70
     1
102
RTVSPropertyOp27
 70
     1
102
RTVSPropertyOp28
 70
     1
102
RTVSPropertyOp29
 70
     1
102
RTVSPropertyOp30
 70
     1
102
RTVSPropertyOp31
 70
     1
102
RTVSPropertyOp32
 70
     1
102
RTVSPropertyOp33
 70
     1
102
RTVSPropertyOp34
 70
     1
102
RTVSPropertyOp35
 70
     1
102
RTVSPropertyOp36
 70
     1
102
RTVSPropertyOp37
 70
     1
102
RTVSPropertyOp38
 70
     1
102
RTVSPropertyOp39
 70
     1
102
RTVSPropertyOp40
 70
     1
102
RTVSPropertyOp41
 70
     1
102
RTVSPropertyOp42
 70
     1
102
RTVSPropertyOp43
 70
     1
102
RTVSPropertyOp44
 70
     1
102
RTVSPropertyOp45
 70
     1
102
RTVSPropertyOp46
 70
     1
102
RTVSPropertyOp47
 70
     1
102
RTVSPropertyOp48
 70
     1
102
RTVSPropertyOp49
 70
     1
102
RTVSPropertyOp50
 70
     1
102
RTVSPropertyOp51
 70
     0
102
RTVSPropertyOp52
 70
     0
102
RTVSPropertyOp53
 70
     1
102
RTVSPropertyOp54
 70
     1
102
RTVSPropertyOp55
 70
     1
102
RTVSPropertyOp56
 70
     1
102
RTVSPropertyOp57
 70
     1
102
RTVSPropertyOp58
 70
     1
102
RTVSPropertyOp59
 70
     1
102
RTVSPropertyOp60
 70
     1
102
RTVSPropertyOp61
 70
     1
102
RTVSPropertyOp62
 70
     1
  0
XRECORD
  5
2AA2
102
{ACAD_REACTORS
330
2AA1
102
}
330
2AA1
100
AcDbXrecord
280
     1
102
RTVSPost2010Prop28
280
     0
102
RTVSPost2010PropOp28
 70
     1
102
RTVSPost2010Prop29
280
     1
102
RTVSPost2010PropOp29
 70
     1
102
RTVSPost2010Prop30
280
     1
102
RTVSPost2010PropOp30
 70
     1
102
RTVSPost2010Prop31
280
     0
102
RTVSPost2010PropOp31
 70
     1
102
RTVSPost2010Prop32
280
     0
102
RTVSPost2010PropOp32
 70
     1
102
RTVSPost2010Prop33
280
     0
102
RTVSPost2010PropOp33
 70
     1
102
RTVSPost2010Prop34
280
     0
102
RTVSPost2010PropOp34
 70
     1
102
RTVSPost2010Prop35
280
     0
102
RTVSPost2010PropOp35
 70
     1
102
RTVSPost2010Prop36
280
     0
102
RTVSPost2010PropOp36
 70
     1
102
RTVSPost2010Prop37
 90
       50
102
RTVSPost2010PropOp37
 70
     1
102
RTVSPost2010Prop38
140
0.0
102
RTVSPost2010PropOp38
 70
     1
102
RTVSPost2010Prop39
140
1.0
102
RTVSPost2010PropOp39
 70
     1
102
RTVSPost2010Prop40
 90
        0
102
RTVSPost2010PropOp40
 70
     1
102
RTVSPost2010Prop41ColorIndex
 90
       18
102
RTVSPost2010Prop41ColorRGB
 90
        0
102
RTVSPost2010PropOp41
 70
     1
102
RTVSPost2010Prop42
 90
       50
102
RTVSPost2010PropOp42
 70
     1
102
RTVSPost2010Prop43
 90
        3
102
RTVSPost2010PropOp43
 70
     1
102
RTVSPost2010Prop44ColorIndex
 90
        5
102
RTVSPost2010Prop44ColorRGB
 90
      255
102
RTVSPost2010PropOp44
 70
     1
102
RTVSPost2010Prop45
280
     0
102
RTVSPost2010PropOp45
 70
     1
102
RTVSPost2010Prop46
 90
       50
102
RTVSPost2010PropOp46
 70
     1
102
RTVSPost2010Prop47
 90
       50
102
RTVSPost2010PropOp47
 70
     1
102
RTVSPost2010Prop48
 90
       50
102
RTVSPost2010PropOp48
 70
     1
102
RTVSPost2010Prop49
280
     0
102
RTVSPost2010PropOp49
 70
     1
102
RTVSPost2010Prop50
 90
       50
102
RTVSPost2010PropOp50
 70
     1
102
RTVSPost2010Prop51ColorIndex
 90
      256
102
RTVSPost2010Prop51ColorRGB
 90
-16777216
102
RTVSPost2010PropOp51
 70
     0
102
RTVSPost2010Prop52
140
1.0
102
RTVSPost2010PropOp52
 70
     0
102
RTVSPost2010Prop53
 90
        2
102
RTVSPost2010PropOp53
 70
     1
102
RTVSPost2010Prop54
  1
strokes_ogs.tif
102
RTVSPost2010PropOp54
 70
     1
102
RTVSPost2010Prop55
280
     0
102
RTVSPost2010PropOp55
 70
     1
102
RTVSPost2010Prop56
140
1.0
102
RTVSPost2010PropOp56
 70
     1
102
RTVSPost2010Prop57
140
1.0
102
RTVSPost2010PropOp57
 70
     1
102
RTVSPropertyOp0
 70
     1
102
RTVSPropertyOp1
 70
     1
102
RTVSPropertyOp2
 70
     1
102
RTVSPropertyOp3
 70
     1
102
RTVSPropertyOp4
 70
     1
102
RTVSPropertyOp5
 70
     1
102
RTVSPropertyOp6
 70
     1
102
RTVSPropertyOp7
 70
     1
102
RTVSPropertyOp8
 70
     1
102
RTVSPropertyOp9
 70
     1
102
RTVSPropertyOp10
 70
     1
102
RTVSPropertyOp11
 70
     1
102
RTVSPropertyOp12
 70
     1
102
RTVSPropertyOp13
 70
     1
102
RTVSPropertyOp14
 70
     1
102
RTVSPropertyOp15
 70
     1
102
RTVSPropertyOp16
 70
     1
102
RTVSPropertyOp17
 70
     1
102
RTVSPropertyOp18
 70
     1
102
RTVSPropertyOp19
 70
     1
102
RTVSPropertyOp20
 70
     1
102
RTVSPropertyOp21
 70
     1
102
RTVSPropertyOp22
 70
     1
102
RTVSPropertyOp23
 70
     1
102
RTVSPropertyOp24
 70
     1
102
RTVSPropertyOp25
 70
     1
102
RTVSPropertyOp26
 70
     1
102
RTVSPropertyOp27
 70
     1
102
RTVSPropertyOp28
 70
     1
102
RTVSPropertyOp29
 70
     1
102
RTVSPropertyOp30
 70
     1
102
RTVSPropertyOp31
 70
     1
102
RTVSPropertyOp32
 70
     1
102
RTVSPropertyOp33
 70
     1
102
RTVSPropertyOp34
 70
     1
102
RTVSPropertyOp35
 70
     1
102
RTVSPropertyOp36
 70
     1
102
RTVSPropertyOp37
 70
     1
102
RTVSPropertyOp38
 70
     1
102
RTVSPropertyOp39
 70
     1
102
RTVSPropertyOp40
 70
     1
102
RTVSPropertyOp41
 70
     1
102
RTVSPropertyOp42
 70
     1
102
RTVSPropertyOp43
 70
     1
102
RTVSPropertyOp44
 70
     1
102
RTVSPropertyOp45
 70
     1
102
RTVSPropertyOp46
 70
     1
102
RTVSPropertyOp47
 70
     1
102
RTVSPropertyOp48
 70
     1
102
RTVSPropertyOp49
 70
     1
102
RTVSPropertyOp50
 70
     1
102
RTVSPropertyOp51
 70
     0
102
RTVSPropertyOp52
 70
     0
102
RTVSPropertyOp53
 70
     1
102
RTVSPropertyOp54
 70
     1
102
RTVSPropertyOp55
 70
     1
102
RTVSPropertyOp56
 70
     1
102
RTVSPropertyOp57
 70
     1
102
RTVSPropertyOp58
 70
     1
102
RTVSPropertyOp59
 70
     1
102
RTVSPropertyOp60
 70
     1
102
RTVSPropertyOp61
 70
     1
102
RTVSPropertyOp62
 70
     1
  0
XRECORD
  5
2AA4
102
{ACAD_REACTORS
330
2AA3
102
}
330
2AA3
100
AcDbXrecord
280
     1
102
RTVSPost2010Prop28
280
     0
102
RTVSPost2010PropOp28
 70
     1
102
RTVSPost2010Prop29
280
     1
102
RTVSPost2010PropOp29
 70
     1
102
RTVSPost2010Prop30
280
     1
102
RTVSPost2010PropOp30
 70
     1
102
RTVSPost2010Prop31
280
     0
102
RTVSPost2010PropOp31
 70
     1
102
RTVSPost2010Prop32
280
     0
102
RTVSPost2010PropOp32
 70
     1
102
RTVSPost2010Prop33
280
     0
102
RTVSPost2010PropOp33
 70
     1
102
RTVSPost2010Prop34
280
     0
102
RTVSPost2010PropOp34
 70
     1
102
RTVSPost2010Prop35
280
     0
102
RTVSPost2010PropOp35
 70
     1
102
RTVSPost2010Prop36
280
     0
102
RTVSPost2010PropOp36
 70
     1
102
RTVSPost2010Prop37
 90
       50
102
RTVSPost2010PropOp37
 70
     1
102
RTVSPost2010Prop38
140
0.0
102
RTVSPost2010PropOp38
 70
     1
102
RTVSPost2010Prop39
140
1.0
102
RTVSPost2010PropOp39
 70
     1
102
RTVSPost2010Prop40
 90
        0
102
RTVSPost2010PropOp40
 70
     1
102
RTVSPost2010Prop41ColorIndex
 90
       18
102
RTVSPost2010Prop41ColorRGB
 90
        0
102
RTVSPost2010PropOp41
 70
     1
102
RTVSPost2010Prop42
 90
       50
102
RTVSPost2010PropOp42
 70
     1
102
RTVSPost2010Prop43
 90
        3
102
RTVSPost2010PropOp43
 70
     1
102
RTVSPost2010Prop44ColorIndex
 90
        5
102
RTVSPost2010Prop44ColorRGB
 90
      255
102
RTVSPost2010PropOp44
 70
     1
102
RTVSPost2010Prop45
280
     0
102
RTVSPost2010PropOp45
 70
     1
102
RTVSPost2010Prop46
 90
       50
102
RTVSPost2010PropOp46
 70
     1
102
RTVSPost2010Prop47
 90
       50
102
RTVSPost2010PropOp47
 70
     1
102
RTVSPost2010Prop48
 90
       50
102
RTVSPost2010PropOp48
 70
     1
102
RTVSPost2010Prop49
280
     0
102
RTVSPost2010PropOp49
 70
     1
102
RTVSPost2010Prop50
 90
       50
102
RTVSPost2010PropOp50
 70
     1
102
RTVSPost2010Prop51ColorIndex
 90
      256
102
RTVSPost2010Prop51ColorRGB
 90
-16777216
102
RTVSPost2010PropOp51
 70
     0
102
RTVSPost2010Prop52
140
1.0
102
RTVSPost2010PropOp52
 70
     0
102
RTVSPost2010Prop53
 90
        2
102
RTVSPost2010PropOp53
 70
     1
102
RTVSPost2010Prop54
  1
strokes_ogs.tif
102
RTVSPost2010PropOp54
 70
     1
102
RTVSPost2010Prop55
280
     0
102
RTVSPost2010PropOp55
 70
     1
102
RTVSPost2010Prop56
140
1.0
102
RTVSPost2010PropOp56
 70
     1
102
RTVSPost2010Prop57
140
1.0
102
RTVSPost2010PropOp57
 70
     1
102
RTVSPropertyOp0
 70
     1
102
RTVSPropertyOp1
 70
     1
102
RTVSPropertyOp2
 70
     1
102
RTVSPropertyOp3
 70
     1
102
RTVSPropertyOp4
 70
     1
102
RTVSPropertyOp5
 70
     1
102
RTVSPropertyOp6
 70
     1
102
RTVSPropertyOp7
 70
     1
102
RTVSPropertyOp8
 70
     1
102
RTVSPropertyOp9
 70
     1
102
RTVSPropertyOp10
 70
     1
102
RTVSPropertyOp11
 70
     1
102
RTVSPropertyOp12
 70
     1
102
RTVSPropertyOp13
 70
     1
102
RTVSPropertyOp14
 70
     1
102
RTVSPropertyOp15
 70
     1
102
RTVSPropertyOp16
 70
     1
102
RTVSPropertyOp17
 70
     1
102
RTVSPropertyOp18
 70
     1
102
RTVSPropertyOp19
 70
     1
102
RTVSPropertyOp20
 70
     1
102
RTVSPropertyOp21
 70
     1
102
RTVSPropertyOp22
 70
     1
102
RTVSPropertyOp23
 70
     1
102
RTVSPropertyOp24
 70
     1
102
RTVSPropertyOp25
 70
     1
102
RTVSPropertyOp26
 70
     1
102
RTVSPropertyOp27
 70
     1
102
RTVSPropertyOp28
 70
     1
102
RTVSPropertyOp29
 70
     1
102
RTVSPropertyOp30
 70
     1
102
RTVSPropertyOp31
 70
     1
102
RTVSPropertyOp32
 70
     1
102
RTVSPropertyOp33
 70
     1
102
RTVSPropertyOp34
 70
     1
102
RTVSPropertyOp35
 70
     1
102
RTVSPropertyOp36
 70
     1
102
RTVSPropertyOp37
 70
     1
102
RTVSPropertyOp38
 70
     1
102
RTVSPropertyOp39
 70
     1
102
RTVSPropertyOp40
 70
     1
102
RTVSPropertyOp41
 70
     1
102
RTVSPropertyOp42
 70
     1
102
RTVSPropertyOp43
 70
     1
102
RTVSPropertyOp44
 70
     1
102
RTVSPropertyOp45
 70
     1
102
RTVSPropertyOp46
 70
     1
102
RTVSPropertyOp47
 70
     1
102
RTVSPropertyOp48
 70
     1
102
RTVSPropertyOp49
 70
     1
102
RTVSPropertyOp50
 70
     1
102
RTVSPropertyOp51
 70
     0
102
RTVSPropertyOp52
 70
     0
102
RTVSPropertyOp53
 70
     1
102
RTVSPropertyOp54
 70
     1
102
RTVSPropertyOp55
 70
     1
102
RTVSPropertyOp56
 70
     1
102
RTVSPropertyOp57
 70
     1
102
RTVSPropertyOp58
 70
     1
102
RTVSPropertyOp59
 70
     1
102
RTVSPropertyOp60
 70
     1
102
RTVSPropertyOp61
 70
     1
102
RTVSPropertyOp62
 70
     1
  0
XRECORD
  5
2A9A
102
{ACAD_REACTORS
330
2A99
102
}
330
2A99
100
AcDbXrecord
280
     1
102
RTVSPost2010Prop28
280
     0
102
RTVSPost2010PropOp28
 70
     1
102
RTVSPost2010Prop29
280
     1
102
RTVSPost2010PropOp29
 70
     1
102
RTVSPost2010Prop30
280
     1
102
RTVSPost2010PropOp30
 70
     1
102
RTVSPost2010Prop31
280
     0
102
RTVSPost2010PropOp31
 70
     1
102
RTVSPost2010Prop32
280
     0
102
RTVSPost2010PropOp32
 70
     1
102
RTVSPost2010Prop33
280
     0
102
RTVSPost2010PropOp33
 70
     1
102
RTVSPost2010Prop34
280
     0
102
RTVSPost2010PropOp34
 70
     1
102
RTVSPost2010Prop35
280
     0
102
RTVSPost2010PropOp35
 70
     1
102
RTVSPost2010Prop36
280
     0
102
RTVSPost2010PropOp36
 70
     1
102
RTVSPost2010Prop37
 90
       50
102
RTVSPost2010PropOp37
 70
     1
102
RTVSPost2010Prop38
140
0.0
102
RTVSPost2010PropOp38
 70
     1
102
RTVSPost2010Prop39
140
1.0
102
RTVSPost2010PropOp39
 70
     1
102
RTVSPost2010Prop40
 90
        0
102
RTVSPost2010PropOp40
 70
     1
102
RTVSPost2010Prop41ColorIndex
 90
       18
102
RTVSPost2010Prop41ColorRGB
 90
        0
102
RTVSPost2010PropOp41
 70
     1
102
RTVSPost2010Prop42
 90
       50
102
RTVSPost2010PropOp42
 70
     1
102
RTVSPost2010Prop43
 90
        3
102
RTVSPost2010PropOp43
 70
     1
102
RTVSPost2010Prop44ColorIndex
 90
        5
102
RTVSPost2010Prop44ColorRGB
 90
      255
102
RTVSPost2010PropOp44
 70
     1
102
RTVSPost2010Prop45
280
     0
102
RTVSPost2010PropOp45
 70
     1
102
RTVSPost2010Prop46
 90
       50
102
RTVSPost2010PropOp46
 70
     1
102
RTVSPost2010Prop47
 90
       50
102
RTVSPost2010PropOp47
 70
     1
102
RTVSPost2010Prop48
 90
       50
102
RTVSPost2010PropOp48
 70
     1
102
RTVSPost2010Prop49
280
     0
102
RTVSPost2010PropOp49
 70
     1
102
RTVSPost2010Prop50
 90
       50
102
RTVSPost2010PropOp50
 70
     1
102
RTVSPost2010Prop51ColorIndex
 90
      256
102
RTVSPost2010Prop51ColorRGB
 90
-16777216
102
RTVSPost2010PropOp51
 70
     0
102
RTVSPost2010Prop52
140
1.0
102
RTVSPost2010PropOp52
 70
     0
102
RTVSPost2010Prop53
 90
        2
102
RTVSPost2010PropOp53
 70
     1
102
RTVSPost2010Prop54
  1
strokes_ogs.tif
102
RTVSPost2010PropOp54
 70
     1
102
RTVSPost2010Prop55
280
     0
102
RTVSPost2010PropOp55
 70
     1
102
RTVSPost2010Prop56
140
1.0
102
RTVSPost2010PropOp56
 70
     1
102
RTVSPost2010Prop57
140
1.0
102
RTVSPost2010PropOp57
 70
     1
102
RTVSPropertyOp0
 70
     1
102
RTVSPropertyOp1
 70
     1
102
RTVSPropertyOp2
 70
     1
102
RTVSPropertyOp3
 70
     1
102
RTVSPropertyOp4
 70
     1
102
RTVSPropertyOp5
 70
     1
102
RTVSPropertyOp6
 70
     1
102
RTVSPropertyOp7
 70
     1
102
RTVSPropertyOp8
 70
     1
102
RTVSPropertyOp9
 70
     1
102
RTVSPropertyOp10
 70
     1
102
RTVSPropertyOp11
 70
     1
102
RTVSPropertyOp12
 70
     1
102
RTVSPropertyOp13
 70
     1
102
RTVSPropertyOp14
 70
     1
102
RTVSPropertyOp15
 70
     1
102
RTVSPropertyOp16
 70
     1
102
RTVSPropertyOp17
 70
     1
102
RTVSPropertyOp18
 70
     1
102
RTVSPropertyOp19
 70
     1
102
RTVSPropertyOp20
 70
     1
102
RTVSPropertyOp21
 70
     1
102
RTVSPropertyOp22
 70
     1
102
RTVSPropertyOp23
 70
     1
102
RTVSPropertyOp24
 70
     1
102
RTVSPropertyOp25
 70
     1
102
RTVSPropertyOp26
 70
     1
102
RTVSPropertyOp27
 70
     1
102
RTVSPropertyOp28
 70
     1
102
RTVSPropertyOp29
 70
     1
102
RTVSPropertyOp30
 70
     1
102
RTVSPropertyOp31
 70
     1
102
RTVSPropertyOp32
 70
     1
102
RTVSPropertyOp33
 70
     1
102
RTVSPropertyOp34
 70
     1
102
RTVSPropertyOp35
 70
     1
102
RTVSPropertyOp36
 70
     1
102
RTVSPropertyOp37
 70
     1
102
RTVSPropertyOp38
 70
     1
102
RTVSPropertyOp39
 70
     1
102
RTVSPropertyOp40
 70
     1
102
RTVSPropertyOp41
 70
     1
102
RTVSPropertyOp42
 70
     1
102
RTVSPropertyOp43
 70
     1
102
RTVSPropertyOp44
 70
     1
102
RTVSPropertyOp45
 70
     1
102
RTVSPropertyOp46
 70
     1
102
RTVSPropertyOp47
 70
     1
102
RTVSPropertyOp48
 70
     1
102
RTVSPropertyOp49
 70
     1
102
RTVSPropertyOp50
 70
     1
102
RTVSPropertyOp51
 70
     0
102
RTVSPropertyOp52
 70
     0
102
RTVSPropertyOp53
 70
     1
102
RTVSPropertyOp54
 70
     1
102
RTVSPropertyOp55
 70
     1
102
RTVSPropertyOp56
 70
     1
102
RTVSPropertyOp57
 70
     1
102
RTVSPropertyOp58
 70
     1
102
RTVSPropertyOp59
 70
     1
102
RTVSPropertyOp60
 70
     1
102
RTVSPropertyOp61
 70
     1
102
RTVSPropertyOp62
 70
     1
  0
XRECORD
  5
2A8E
102
{ACAD_REACTORS
330
2A8D
102
}
330
2A8D
100
AcDbXrecord
280
     1
102
RTVSPost2010Prop28
280
     0
102
RTVSPost2010PropOp28
 70
     1
102
RTVSPost2010Prop29
280
     1
102
RTVSPost2010PropOp29
 70
     1
102
RTVSPost2010Prop30
280
     1
102
RTVSPost2010PropOp30
 70
     1
102
RTVSPost2010Prop31
280
     0
102
RTVSPost2010PropOp31
 70
     1
102
RTVSPost2010Prop32
280
     0
102
RTVSPost2010PropOp32
 70
     1
102
RTVSPost2010Prop33
280
     0
102
RTVSPost2010PropOp33
 70
     1
102
RTVSPost2010Prop34
280
     0
102
RTVSPost2010PropOp34
 70
     1
102
RTVSPost2010Prop35
280
     0
102
RTVSPost2010PropOp35
 70
     1
102
RTVSPost2010Prop36
280
     0
102
RTVSPost2010PropOp36
 70
     1
102
RTVSPost2010Prop37
 90
       50
102
RTVSPost2010PropOp37
 70
     1
102
RTVSPost2010Prop38
140
0.0
102
RTVSPost2010PropOp38
 70
     1
102
RTVSPost2010Prop39
140
1.0
102
RTVSPost2010PropOp39
 70
     1
102
RTVSPost2010Prop40
 90
        0
102
RTVSPost2010PropOp40
 70
     1
102
RTVSPost2010Prop41ColorIndex
 90
       18
102
RTVSPost2010Prop41ColorRGB
 90
        0
102
RTVSPost2010PropOp41
 70
     1
102
RTVSPost2010Prop42
 90
       50
102
RTVSPost2010PropOp42
 70
     1
102
RTVSPost2010Prop43
 90
        3
102
RTVSPost2010PropOp43
 70
     1
102
RTVSPost2010Prop44ColorIndex
 90
        5
102
RTVSPost2010Prop44ColorRGB
 90
      255
102
RTVSPost2010PropOp44
 70
     1
102
RTVSPost2010Prop45
280
     0
102
RTVSPost2010PropOp45
 70
     1
102
RTVSPost2010Prop46
 90
       50
102
RTVSPost2010PropOp46
 70
     1
102
RTVSPost2010Prop47
 90
       50
102
RTVSPost2010PropOp47
 70
     1
102
RTVSPost2010Prop48
 90
       50
102
RTVSPost2010PropOp48
 70
     1
102
RTVSPost2010Prop49
280
     0
102
RTVSPost2010PropOp49
 70
     1
102
RTVSPost2010Prop50
 90
       50
102
RTVSPost2010PropOp50
 70
     1
102
RTVSPost2010Prop51ColorIndex
 90
      256
102
RTVSPost2010Prop51ColorRGB
 90
-16777216
102
RTVSPost2010PropOp51
 70
     0
102
RTVSPost2010Prop52
140
1.0
102
RTVSPost2010PropOp52
 70
     0
102
RTVSPost2010Prop53
 90
        2
102
RTVSPost2010PropOp53
 70
     1
102
RTVSPost2010Prop54
  1
strokes_ogs.tif
102
RTVSPost2010PropOp54
 70
     1
102
RTVSPost2010Prop55
280
     0
102
RTVSPost2010PropOp55
 70
     1
102
RTVSPost2010Prop56
140
1.0
102
RTVSPost2010PropOp56
 70
     1
102
RTVSPost2010Prop57
140
1.0
102
RTVSPost2010PropOp57
 70
     1
102
RTVSPropertyOp0
 70
     1
102
RTVSPropertyOp1
 70
     1
102
RTVSPropertyOp2
 70
     1
102
RTVSPropertyOp3
 70
     1
102
RTVSPropertyOp4
 70
     1
102
RTVSPropertyOp5
 70
     1
102
RTVSPropertyOp6
 70
     1
102
RTVSPropertyOp7
 70
     1
102
RTVSPropertyOp8
 70
     1
102
RTVSPropertyOp9
 70
     1
102
RTVSPropertyOp10
 70
     1
102
RTVSPropertyOp11
 70
     1
102
RTVSPropertyOp12
 70
     1
102
RTVSPropertyOp13
 70
     1
102
RTVSPropertyOp14
 70
     1
102
RTVSPropertyOp15
 70
     1
102
RTVSPropertyOp16
 70
     1
102
RTVSPropertyOp17
 70
     1
102
RTVSPropertyOp18
 70
     1
102
RTVSPropertyOp19
 70
     1
102
RTVSPropertyOp20
 70
     1
102
RTVSPropertyOp21
 70
     1
102
RTVSPropertyOp22
 70
     1
102
RTVSPropertyOp23
 70
     1
102
RTVSPropertyOp24
 70
     1
102
RTVSPropertyOp25
 70
     1
102
RTVSPropertyOp26
 70
     1
102
RTVSPropertyOp27
 70
     1
102
RTVSPropertyOp28
 70
     1
102
RTVSPropertyOp29
 70
     1
102
RTVSPropertyOp30
 70
     1
102
RTVSPropertyOp31
 70
     1
102
RTVSPropertyOp32
 70
     1
102
RTVSPropertyOp33
 70
     1
102
RTVSPropertyOp34
 70
     1
102
RTVSPropertyOp35
 70
     1
102
RTVSPropertyOp36
 70
     1
102
RTVSPropertyOp37
 70
     1
102
RTVSPropertyOp38
 70
     1
102
RTVSPropertyOp39
 70
     1
102
RTVSPropertyOp40
 70
     1
102
RTVSPropertyOp41
 70
     1
102
RTVSPropertyOp42
 70
     1
102
RTVSPropertyOp43
 70
     1
102
RTVSPropertyOp44
 70
     1
102
RTVSPropertyOp45
 70
     1
102
RTVSPropertyOp46
 70
     1
102
RTVSPropertyOp47
 70
     1
102
RTVSPropertyOp48
 70
     1
102
RTVSPropertyOp49
 70
     1
102
RTVSPropertyOp50
 70
     1
102
RTVSPropertyOp51
 70
     0
102
RTVSPropertyOp52
 70
     0
102
RTVSPropertyOp53
 70
     1
102
RTVSPropertyOp54
 70
     1
102
RTVSPropertyOp55
 70
     1
102
RTVSPropertyOp56
 70
     1
102
RTVSPropertyOp57
 70
     1
102
RTVSPropertyOp58
 70
     1
102
RTVSPropertyOp59
 70
     1
102
RTVSPropertyOp60
 70
     1
102
RTVSPropertyOp61
 70
     1
102
RTVSPropertyOp62
 70
     1
  0
XRECORD
  5
2AA6
102
{ACAD_REACTORS
330
2AA5
102
}
330
2AA5
100
AcDbXrecord
280
     1
102
RTVSPost2010Prop28
280
     0
102
RTVSPost2010PropOp28
 70
     1
102
RTVSPost2010Prop29
280
     1
102
RTVSPost2010PropOp29
 70
     1
102
RTVSPost2010Prop30
280
     1
102
RTVSPost2010PropOp30
 70
     1
102
RTVSPost2010Prop31
280
     0
102
RTVSPost2010PropOp31
 70
     1
102
RTVSPost2010Prop32
280
     0
102
RTVSPost2010PropOp32
 70
     1
102
RTVSPost2010Prop33
280
     0
102
RTVSPost2010PropOp33
 70
     1
102
RTVSPost2010Prop34
280
     0
102
RTVSPost2010PropOp34
 70
     1
102
RTVSPost2010Prop35
280
     0
102
RTVSPost2010PropOp35
 70
     1
102
RTVSPost2010Prop36
280
     0
102
RTVSPost2010PropOp36
 70
     1
102
RTVSPost2010Prop37
 90
       50
102
RTVSPost2010PropOp37
 70
     1
102
RTVSPost2010Prop38
140
0.0
102
RTVSPost2010PropOp38
 70
     1
102
RTVSPost2010Prop39
140
1.0
102
RTVSPost2010PropOp39
 70
     1
102
RTVSPost2010Prop40
 90
        0
102
RTVSPost2010PropOp40
 70
     1
102
RTVSPost2010Prop41ColorIndex
 90
       18
102
RTVSPost2010Prop41ColorRGB
 90
        0
102
RTVSPost2010PropOp41
 70
     1
102
RTVSPost2010Prop42
 90
       50
102
RTVSPost2010PropOp42
 70
     1
102
RTVSPost2010Prop43
 90
        3
102
RTVSPost2010PropOp43
 70
     1
102
RTVSPost2010Prop44ColorIndex
 90
        5
102
RTVSPost2010Prop44ColorRGB
 90
      255
102
RTVSPost2010PropOp44
 70
     1
102
RTVSPost2010Prop45
280
     0
102
RTVSPost2010PropOp45
 70
     1
102
RTVSPost2010Prop46
 90
       50
102
RTVSPost2010PropOp46
 70
     1
102
RTVSPost2010Prop47
 90
       50
102
RTVSPost2010PropOp47
 70
     1
102
RTVSPost2010Prop48
 90
       50
102
RTVSPost2010PropOp48
 70
     1
102
RTVSPost2010Prop49
280
     0
102
RTVSPost2010PropOp49
 70
     1
102
RTVSPost2010Prop50
 90
       50
102
RTVSPost2010PropOp50
 70
     1
102
RTVSPost2010Prop51ColorIndex
 90
      256
102
RTVSPost2010Prop51ColorRGB
 90
-16777216
102
RTVSPost2010PropOp51
 70
     0
102
RTVSPost2010Prop52
140
1.0
102
RTVSPost2010PropOp52
 70
     0
102
RTVSPost2010Prop53
 90
        2
102
RTVSPost2010PropOp53
 70
     1
102
RTVSPost2010Prop54
  1
strokes_ogs.tif
102
RTVSPost2010PropOp54
 70
     1
102
RTVSPost2010Prop55
280
     0
102
RTVSPost2010PropOp55
 70
     1
102
RTVSPost2010Prop56
140
1.0
102
RTVSPost2010PropOp56
 70
     1
102
RTVSPost2010Prop57
140
1.0
102
RTVSPost2010PropOp57
 70
     1
102
RTVSPropertyOp0
 70
     1
102
RTVSPropertyOp1
 70
     1
102
RTVSPropertyOp2
 70
     1
102
RTVSPropertyOp3
 70
     1
102
RTVSPropertyOp4
 70
     1
102
RTVSPropertyOp5
 70
     1
102
RTVSPropertyOp6
 70
     1
102
RTVSPropertyOp7
 70
     1
102
RTVSPropertyOp8
 70
     1
102
RTVSPropertyOp9
 70
     1
102
RTVSPropertyOp10
 70
     1
102
RTVSPropertyOp11
 70
     1
102
RTVSPropertyOp12
 70
     1
102
RTVSPropertyOp13
 70
     1
102
RTVSPropertyOp14
 70
     1
102
RTVSPropertyOp15
 70
     1
102
RTVSPropertyOp16
 70
     1
102
RTVSPropertyOp17
 70
     1
102
RTVSPropertyOp18
 70
     1
102
RTVSPropertyOp19
 70
     1
102
RTVSPropertyOp20
 70
     1
102
RTVSPropertyOp21
 70
     1
102
RTVSPropertyOp22
 70
     1
102
RTVSPropertyOp23
 70
     1
102
RTVSPropertyOp24
 70
     1
102
RTVSPropertyOp25
 70
     1
102
RTVSPropertyOp26
 70
     1
102
RTVSPropertyOp27
 70
     1
102
RTVSPropertyOp28
 70
     1
102
RTVSPropertyOp29
 70
     1
102
RTVSPropertyOp30
 70
     1
102
RTVSPropertyOp31
 70
     1
102
RTVSPropertyOp32
 70
     1
102
RTVSPropertyOp33
 70
     1
102
RTVSPropertyOp34
 70
     1
102
RTVSPropertyOp35
 70
     1
102
RTVSPropertyOp36
 70
     1
102
RTVSPropertyOp37
 70
     1
102
RTVSPropertyOp38
 70
     1
102
RTVSPropertyOp39
 70
     1
102
RTVSPropertyOp40
 70
     1
102
RTVSPropertyOp41
 70
     1
102
RTVSPropertyOp42
 70
     1
102
RTVSPropertyOp43
 70
     1
102
RTVSPropertyOp44
 70
     1
102
RTVSPropertyOp45
 70
     1
102
RTVSPropertyOp46
 70
     1
102
RTVSPropertyOp47
 70
     1
102
RTVSPropertyOp48
 70
     1
102
RTVSPropertyOp49
 70
     1
102
RTVSPropertyOp50
 70
     1
102
RTVSPropertyOp51
 70
     0
102
RTVSPropertyOp52
 70
     0
102
RTVSPropertyOp53
 70
     1
102
RTVSPropertyOp54
 70
     1
102
RTVSPropertyOp55
 70
     1
102
RTVSPropertyOp56
 70
     1
102
RTVSPropertyOp57
 70
     1
102
RTVSPropertyOp58
 70
     1
102
RTVSPropertyOp59
 70
     1
102
RTVSPropertyOp60
 70
     1
102
RTVSPropertyOp61
 70
     1
102
RTVSPropertyOp62
 70
     1
  0
ENDSEC
  0
EOF
