  0
SECTION
  2
HEADER
  9
$ACADVER
  1
AC1015
  9
$ACADMAINTVER
 70
    20
  9
$DWGCODEPAGE
  3
ANSI_932
  9
$INSBASE
 10
0.0
 20
0.0
 30
0.0
  9
$EXTMIN
 10
9.9999975266385
 20
10.0
 30
0.0
  9
$EXTMAX
 10
429.4883064061489
 20
234.8416802296068
 30
0.0
  9
$LIMMIN
 10
0.0000015376081137
 20
-0.0000001931532552
  9
$LIMMAX
 10
495.0000015376081
 20
341.2499998068465
  9
$ORTHOMODE
 70
     0
  9
$REGENMODE
 70
     1
  9
$FILLMODE
 70
     1
  9
$QTEXTMODE
 70
     0
  9
$MIRRTEXT
 70
     1
  9
$LTSCALE
 40
1.0
  9
$ATTMODE
 70
     1
  9
$TEXTSIZE
 40
2.5
  9
$TRACEWID
 40
1.0
  9
$TEXTSTYLE
  7
STANDARD
  9
$CLAYER
  8
0
  9
$CELTYPE
  6
ByLayer
  9
$CECOLOR
 62
   256
  9
$CELTSCALE
 40
1.0
  9
$DISPSILH
 70
     0
  9
$DIMSCALE
 40
1.0
  9
$DIMASZ
 40
3.0
  9
$DIMEXO
 40
1.0
  9
$DIMDLI
 40
10.0
  9
$DIMRND
 40
0.0
  9
$DIMDLE
 40
0.0
  9
$DIMEXE
 40
1.0
  9
$DIMTP
 40
0.0
  9
$DIMTM
 40
0.0
  9
$DIMTXT
 40
3.2
  9
$DIMCEN
 40
0.0
  9
$DIMTSZ
 40
0.0
  9
$DIMTOL
 70
     0
  9
$DIMLIM
 70
     0
  9
$DIMTIH
 70
     0
  9
$DIMTOH
 70
     0
  9
$DIMSE1
 70
     0
  9
$DIMSE2
 70
     0
  9
$DIMTAD
 70
     3
  9
$DIMZIN
 70
     8
  9
$DIMBLK
  1

  9
$DIMASO
 70
     1
  9
$DIMSHO
 70
     1
  9
$DIMPOST
  1

  9
$DIMAPOST
  1

  9
$DIMALT
 70
     0
  9
$DIMALTD
 70
     2
  9
$DIMALTF
 40
25.4
  9
$DIMLFAC
 40
1.0
  9
$DIMTOFL
 70
     1
  9
$DIMTVP
 40
0.0
  9
$DIMTIX
 70
     0
  9
$DIMSOXD
 70
     0
  9
$DIMSAH
 70
     1
  9
$DIMBLK1
  1
OPEN
  9
$DIMBLK2
  1
OPEN
  9
$DIMSTYLE
  2
STANDARD
  9
$DIMCLRD
 70
     0
  9
$DIMCLRE
 70
     0
  9
$DIMCLRT
 70
     0
  9
$DIMTFAC
 40
1.0
  9
$DIMGAP
 40
1.0
  9
$DIMJUST
 70
     0
  9
$DIMSD1
 70
     0
  9
$DIMSD2
 70
     0
  9
$DIMTOLJ
 70
     1
  9
$DIMTZIN
 70
     0
  9
$DIMALTZ
 70
     0
  9
$DIMALTTZ
 70
     0
  9
$DIMUPT
 70
     0
  9
$DIMDEC
 70
     4
  9
$DIMTDEC
 70
     4
  9
$DIMALTU
 70
     2
  9
$DIMALTTD
 70
     2
  9
$DIMTXSTY
  7
STANDARD
  9
$DIMAUNIT
 70
     0
  9
$DIMADEC
 70
     0
  9
$DIMALTRND
 40
0.0
  9
$DIMAZIN
 70
     0
  9
$DIMDSEP
 70
    46
  9
$DIMATFIT
 70
     3
  9
$DIMFRAC
 70
     0
  9
$DIMLDRBLK
  1
OPEN
  9
$DIMLUNIT
 70
     2
  9
$DIMLWD
 70
    -2
  9
$DIMLWE
 70
    -2
  9
$DIMTMOVE
 70
     0
  9
$LUNITS
 70
     2
  9
$LUPREC
 70
     4
  9
$SKETCHINC
 40
1.0
  9
$FILLETRAD
 40
0.0
  9
$AUNITS
 70
     0
  9
$AUPREC
 70
     0
  9
$MENU
  1
.
  9
$ELEVATION
 40
0.0
  9
$PELEVATION
 40
0.0
  9
$THICKNESS
 40
0.0
  9
$LIMCHECK
 70
     0
  9
$CHAMFERA
 40
10.0
  9
$CHAMFERB
 40
10.0
  9
$CHAMFERC
 40
0.0
  9
$CHAMFERD
 40
0.0
  9
$SKPOLY
 70
     0
  9
$TDCREATE
 40
2456339.617361470
  9
$TDUCREATE
 40
2456339.242361470
  9
$TDUPDATE
 40
2457192.602637697
  9
$TDUUPDATE
 40
2457192.227637697
  9
$TDINDWG
 40
0.2811505208
  9
$TDUSRTIMER
 40
0.2811504977
  9
$USRTIMER
 70
     1
  9
$ANGBASE
 50
0.0
  9
$ANGDIR
 70
     0
  9
$PDMODE
 70
     0
  9
$PDSIZE
 40
0.0
  9
$PLINEWID
 40
0.0
  9
$SPLFRAME
 70
     0
  9
$SPLINETYPE
 70
     6
  9
$SPLINESEGS
 70
     8
  9
$HANDSEED
  5
25C8
  9
$SURFTAB1
 70
     6
  9
$SURFTAB2
 70
     6
  9
$SURFTYPE
 70
     6
  9
$SURFU
 70
     6
  9
$SURFV
 70
     6
  9
$UCSBASE
  2

  9
$UCSNAME
  2

  9
$UCSORG
 10
0.0
 20
0.0
 30
0.0
  9
$UCSXDIR
 10
1.0
 20
0.0
 30
0.0
  9
$UCSYDIR
 10
0.0
 20
1.0
 30
0.0
  9
$UCSORTHOREF
  2

  9
$UCSORTHOVIEW
 70
     0
  9
$UCSORGTOP
 10
0.0
 20
0.0
 30
0.0
  9
$UCSORGBOTTOM
 10
0.0
 20
0.0
 30
0.0
  9
$UCSORGLEFT
 10
0.0
 20
0.0
 30
0.0
  9
$UCSORGRIGHT
 10
0.0
 20
0.0
 30
0.0
  9
$UCSORGFRONT
 10
0.0
 20
0.0
 30
0.0
  9
$UCSORGBACK
 10
0.0
 20
0.0
 30
0.0
  9
$PUCSBASE
  2

  9
$PUCSNAME
  2

  9
$PUCSORG
 10
0.0
 20
0.0
 30
0.0
  9
$PUCSXDIR
 10
1.0
 20
0.0
 30
0.0
  9
$PUCSYDIR
 10
0.0
 20
1.0
 30
0.0
  9
$PUCSORTHOREF
  2

  9
$PUCSORTHOVIEW
 70
     0
  9
$PUCSORGTOP
 10
0.0
 20
0.0
 30
0.0
  9
$PUCSORGBOTTOM
 10
0.0
 20
0.0
 30
0.0
  9
$PUCSORGLEFT
 10
0.0
 20
0.0
 30
0.0
  9
$PUCSORGRIGHT
 10
0.0
 20
0.0
 30
0.0
  9
$PUCSORGFRONT
 10
0.0
 20
0.0
 30
0.0
  9
$PUCSORGBACK
 10
0.0
 20
0.0
 30
0.0
  9
$USERI1
 70
     0
  9
$USERI2
 70
     0
  9
$USERI3
 70
     0
  9
$USERI4
 70
     0
  9
$USERI5
 70
     0
  9
$USERR1
 40
0.0
  9
$USERR2
 40
0.0
  9
$USERR3
 40
0.0
  9
$USERR4
 40
0.0
  9
$USERR5
 40
0.0
  9
$WORLDVIEW
 70
     1
  9
$SHADEDGE
 70
     3
  9
$SHADEDIF
 70
    70
  9
$TILEMODE
 70
     1
  9
$MAXACTVP
 70
    48
  9
$PINSBASE
 10
0.0
 20
0.0
 30
0.0
  9
$PLIMCHECK
 70
     0
  9
$PEXTMIN
 10
1.000000000000000E+20
 20
1.000000000000000E+20
 30
1.000000000000000E+20
  9
$PEXTMAX
 10
-1.000000000000000E+20
 20
-1.000000000000000E+20
 30
-1.000000000000000E+20
  9
$PLIMMIN
 10
0.0
 20
0.0
  9
$PLIMMAX
 10
420.0
 20
297.0
  9
$UNITMODE
 70
     0
  9
$VISRETAIN
 70
     1
  9
$PLINEGEN
 70
     0
  9
$PSLTSCALE
 70
     1
  9
$TREEDEPTH
 70
  3020
  9
$CMLSTYLE
  2
Standard
  9
$CMLJUST
 70
     0
  9
$CMLSCALE
 40
1.0
  9
$PROXYGRAPHICS
 70
     1
  9
$MEASUREMENT
 70
     0
  9
$CELWEIGHT
370
    -1
  9
$ENDCAPS
280
     0
  9
$JOINSTYLE
280
     0
  9
$LWDISPLAY
290
     0
  9
$INSUNITS
 70
     0
  9
$HYPERLINKBASE
  1

  9
$STYLESHEET
  1

  9
$XEDIT
290
     1
  9
$CEPSNTYPE
380
     0
  9
$PSTYLEMODE
290
     1
  9
$FINGERPRINTGUID
  2
{1EB34540-28AE-4145-8F62-BF7D9E4957E1}
  9
$VERSIONGUID
  2
{02E12B59-5BD9-4704-A382-299A47B354ED}
  9
$EXTNAMES
290
     1
  9
$PSVPSCALE
 40
0.0
  9
$OLESTARTUP
290
     0
  0
ENDSEC
  0
SECTION
  2
CLASSES
  0
CLASS
  1
ACDBDICTIONARYWDFLT
  2
AcDbDictionaryWithDefault
  3
ObjectDBX Classes
 90
        0
280
     0
281
     0
  0
CLASS
  1
MATERIAL
  2
AcDbMaterial
  3
ObjectDBX Classes
 90
     1153
280
     0
281
     0
  0
CLASS
  1
VISUALSTYLE
  2
AcDbVisualStyle
  3
ObjectDBX Classes
 90
     4095
280
     0
281
     0
  0
CLASS
  1
SCALE
  2
AcDbScale
  3
ObjectDBX Classes
 90
     1153
280
     0
281
     0
  0
CLASS
  1
TABLESTYLE
  2
AcDbTableStyle
  3
ObjectDBX Classes
 90
     4095
280
     0
281
     0
  0
CLASS
  1
MLEADERSTYLE
  2
AcDbMLeaderStyle
  3
ACDB_MLEADERSTYLE_CLASS
 90
     4095
280
     0
281
     0
  0
CLASS
  1
ACDBSECTIONVIEWSTYLE
  2
AcDbSectionViewStyle
  3
ObjectDBX Classes
 90
     1025
280
     0
281
     0
  0
CLASS
  1
ACDBDETAILVIEWSTYLE
  2
AcDbDetailViewStyle
  3
ObjectDBX Classes
 90
     1025
280
     0
281
     0
  0
CLASS
  1
DICTIONARYVAR
  2
AcDbDictionaryVar
  3
ObjectDBX Classes
 90
        0
280
     0
281
     0
  0
CLASS
  1
CELLSTYLEMAP
  2
AcDbCellStyleMap
  3
ObjectDBX Classes
 90
     1152
280
     0
281
     0
  0
CLASS
  1
ACDBPLACEHOLDER
  2
AcDbPlaceHolder
  3
ObjectDBX Classes
 90
        0
280
     0
281
     0
  0
CLASS
  1
LAYOUT
  2
AcDbLayout
  3
ObjectDBX Classes
 90
        0
280
     0
281
     0
  0
ENDSEC
  0
SECTION
  2
TABLES
  0
TABLE
  2
VPORT
  5
24E9
330
0
100
AcDbSymbolTable
 70
     1
  0
VPORT
  5
2554
330
24E9
100
AcDbSymbolTableRecord
100
AcDbViewportTableRecord
  2
*ACTIVE
 70
     0
 10
0.0
 20
0.0
 11
1.0
 21
1.0
 12
333.1667998223857
 22
122.4206262319095
 13
0.0
 23
0.0
 14
10.0
 24
10.0
 15
10.0
 25
10.0
 16
0.0
 26
0.0
 36
1.0
 17
0.0
 27
0.0
 37
0.0
 40
275.959202890083
 41
1.899603698811096
 42
50.0
 43
0.0
 44
0.0
 50
0.0
 51
0.0
 71
     0
 72
   100
 73
     1
 74
     0
 75
     0
 76
     0
 77
     0
 78
     0
281
     0
 65
     1
110
0.0
120
0.0
130
0.0
111
1.0
121
0.0
131
0.0
112
0.0
122
1.0
132
0.0
 79
     0
146
0.0
1001
ACAD_NAV_VCDISPLAY
1070
     3
  0
ENDTAB
  0
TABLE
  2
LTYPE
  5
24E6
330
0
100
AcDbSymbolTable
 70
     4
  0
LTYPE
  5
253B
330
24E6
100
AcDbSymbolTableRecord
100
AcDbLinetypeTableRecord
  2
ByBlock
 70
     0
  3

 72
    65
 73
     0
 40
0.0
  0
LTYPE
  5
253C
330
24E6
100
AcDbSymbolTableRecord
100
AcDbLinetypeTableRecord
  2
ByLayer
 70
     0
  3

 72
    65
 73
     0
 40
0.0
  0
LTYPE
  5
253D
330
24E6
100
AcDbSymbolTableRecord
100
AcDbLinetypeTableRecord
  2
CONTINUOUS
 70
     0
  3
Solid line
 72
    65
 73
     0
 40
0.0
  0
LTYPE
  5
2555
330
24E6
100
AcDbSymbolTableRecord
100
AcDbLinetypeTableRecord
  2
DASHED
 70
     0
  3
Dashed __ __ __ __ __ __ __ __ __ __ __ __ __ _
 72
    65
 73
     2
 40
19.04999999999999
 49
12.7
 74
     0
 49
-6.349999999999998
 74
     0
  0
LTYPE
  5
2556
330
24E6
100
AcDbSymbolTableRecord
100
AcDbLinetypeTableRecord
  2
CENTER
 70
     0
  3
Center ____ _ ____ _ ____ _ ____ _ ____ _ ____
 72
    65
 73
     4
 40
50.8
 49
31.75
 74
     0
 49
-6.349999999999998
 74
     0
 49
6.349999999999998
 74
     0
 49
-6.349999999999998
 74
     0
  0
LTYPE
  5
2557
330
24E6
100
AcDbSymbolTableRecord
100
AcDbLinetypeTableRecord
  2
PHANTOM
 70
     0
  3
Phantom ______  __  __  ______  __  __  ______
 72
    65
 73
     6
 40
63.5
 49
31.75
 74
     0
 49
-6.349999999999998
 74
     0
 49
6.349999999999998
 74
     0
 49
-6.349999999999998
 74
     0
 49
6.349999999999998
 74
     0
 49
-6.349999999999998
 74
     0
  0
ENDTAB
  0
TABLE
  2
LAYER
  5
24E3
330
0
100
AcDbSymbolTable
 70
     8
  0
LAYER
  5
2535
102
{ACAD_XDICTIONARY
360
256C
102
}
330
24E3
100
AcDbSymbolTableRecord
100
AcDbLayerTableRecord
  2
0
 70
     0
 62
     7
  6
CONTINUOUS
370
    -3
390
24F0
  0
LAYER
  5
2558
102
{ACAD_XDICTIONARY
360
256E
102
}
330
24E3
100
AcDbSymbolTableRecord
100
AcDbLayerTableRecord
  2
4
 70
     0
 62
     1
  6
CENTER
370
    -3
390
24F0
  0
LAYER
  5
2559
102
{ACAD_XDICTIONARY
360
2570
102
}
330
24E3
100
AcDbSymbolTableRecord
100
AcDbLayerTableRecord
  2
5
 70
     0
 62
     6
  6
PHANTOM
370
    -3
390
24F0
  0
LAYER
  5
255A
102
{ACAD_XDICTIONARY
360
2572
102
}
330
24E3
100
AcDbSymbolTableRecord
100
AcDbLayerTableRecord
  2
1
 70
     0
 62
     7
  6
CONTINUOUS
370
    -3
390
24F0
  0
LAYER
  5
255B
102
{ACAD_XDICTIONARY
360
2574
102
}
330
24E3
100
AcDbSymbolTableRecord
100
AcDbLayerTableRecord
  2
2
 70
     0
 62
     4
  6
CONTINUOUS
370
    -3
390
24F0
  0
LAYER
  5
255C
102
{ACAD_XDICTIONARY
360
2576
102
}
330
24E3
100
AcDbSymbolTableRecord
100
AcDbLayerTableRecord
  2
3
 70
     0
 62
     2
  6
DASHED
370
    -3
390
24F0
  0
LAYER
  5
255D
102
{ACAD_XDICTIONARY
360
2578
102
}
330
24E3
100
AcDbSymbolTableRecord
100
AcDbLayerTableRecord
  2
6
 70
     0
 62
     5
  6
CONTINUOUS
370
    -3
390
24F0
  0
LAYER
  5
255E
102
{ACAD_XDICTIONARY
360
257A
102
}
330
24E3
100
AcDbSymbolTableRecord
100
AcDbLayerTableRecord
  2
7
 70
     0
 62
     3
  6
CONTINUOUS
370
    -3
390
24F0
  0
ENDTAB
  0
TABLE
  2
STYLE
  5
24E4
330
0
100
AcDbSymbolTable
 70
     2
  0
STYLE
  5
2536
330
24E4
100
AcDbSymbolTableRecord
100
AcDbTextStyleTableRecord
  2
STANDARD
 70
     0
 40
0.0
 41
1.0
 50
0.0
 71
     0
 42
2.5
  3
simplex.shx
  4

  0
STYLE
  5
253A
330
24E4
100
AcDbSymbolTableRecord
100
AcDbTextStyleTableRecord
  2
Annotative
 70
     0
 40
0.0
 41
1.0
 50
0.0
 71
     0
 42
0.2
  3
txt
  4

1001
AcadAnnotative
1000
AnnotativeData
1002
{
1070
     1
1070
     1
1002
}
  0
ENDTAB
  0
TABLE
  2
VIEW
  5
24E7
330
0
100
AcDbSymbolTable
 70
     0
  0
ENDTAB
  0
TABLE
  2
UCS
  5
24E8
330
0
100
AcDbSymbolTable
 70
     0
  0
ENDTAB
  0
TABLE
  2
APPID
  5
24EA
330
0
100
AcDbSymbolTable
 70
     8
  0
APPID
  5
2537
330
24EA
100
AcDbSymbolTableRecord
100
AcDbRegAppTableRecord
  2
ACAD
 70
     0
  0
APPID
  5
253E
330
24EA
100
AcDbSymbolTableRecord
100
AcDbRegAppTableRecord
  2
AcadAnnotative
 70
     0
  0
APPID
  5
255F
330
24EA
100
AcDbSymbolTableRecord
100
AcDbRegAppTableRecord
  2
CONTENTTABDATA
 70
     0
  0
APPID
  5
2560
330
24EA
100
AcDbSymbolTableRecord
100
AcDbRegAppTableRecord
  2
CONTENTCURRENTTAB
 70
     0
  0
APPID
  5
2561
330
24EA
100
AcDbSymbolTableRecord
100
AcDbRegAppTableRecord
  2
CONTENTBLOCKICON
 70
     0
  0
APPID
  5
2562
330
24EA
100
AcDbSymbolTableRecord
100
AcDbRegAppTableRecord
  2
CONTENTBLOCKDESCRIPTION
 70
     0
  0
APPID
  5
2586
330
24EA
100
AcDbSymbolTableRecord
100
AcDbRegAppTableRecord
  2
ACAD_NAV_VCDISPLAY
 70
     0
  0
APPID
  5
25BF
330
24EA
100
AcDbSymbolTableRecord
100
AcDbRegAppTableRecord
  2
ACAD_MLEADERVER
 70
     0
  0
ENDTAB
  0
TABLE
  2
DIMSTYLE
  5
24EB
330
0
100
AcDbSymbolTable
 70
     2
100
AcDbDimStyleTable
 71
     0
  0
DIMSTYLE
105
2538
330
24EB
100
AcDbSymbolTableRecord
100
AcDbDimStyleTableRecord
  2
STANDARD
 70
     0
 41
3.0
 42
1.0
 43
10.0
 44
1.0
 73
     0
 74
     0
 77
     3
 78
     8
140
3.2
141
0.0
147
1.0
172
     1
173
     1
279
     2
284
     8
285
     8
286
     8
340
2536
  0
DIMSTYLE
105
2539
330
24EB
100
AcDbSymbolTableRecord
100
AcDbDimStyleTableRecord
  2
Annotative
 70
     0
340
2536
1001
AcadAnnotative
1000
AnnotativeData
1002
{
1070
     1
1070
     1
1002
}
  0
ENDTAB
  0
TABLE
  2
BLOCK_RECORD
  5
24E2
330
0
100
AcDbSymbolTable
 70
     3
  0
BLOCK_RECORD
  5
2550
330
24E2
100
AcDbSymbolTableRecord
100
AcDbBlockTableRecord
  2
*Model_Space
340
2553
  0
BLOCK_RECORD
  5
254C
330
24E2
100
AcDbSymbolTableRecord
100
AcDbBlockTableRecord
  2
*Paper_Space
340
254F
  0
BLOCK_RECORD
  5
2565
330
24E2
100
AcDbSymbolTableRecord
100
AcDbBlockTableRecord
  2
$MODEL_SPACE
340
0
  0
BLOCK_RECORD
  5
2567
330
24E2
100
AcDbSymbolTableRecord
100
AcDbBlockTableRecord
  2
$PAPER_SPACE
340
0
  0
BLOCK_RECORD
  5
2569
330
24E2
100
AcDbSymbolTableRecord
100
AcDbBlockTableRecord
  2
_OPEN
340
0
  0
ENDTAB
  0
ENDSEC
  0
SECTION
  2
BLOCKS
  0
BLOCK
  5
2551
330
2550
100
AcDbEntity
  8
0
100
AcDbBlockBegin
  2
*Model_Space
 70
     0
 10
0.0
 20
0.0
 30
0.0
  3
*Model_Space
  1

  0
ENDBLK
  5
2552
330
2550
100
AcDbEntity
  8
0
100
AcDbBlockEnd
  0
BLOCK
  5
254D
330
254C
100
AcDbEntity
 67
     1
  8
0
100
AcDbBlockBegin
  2
*Paper_Space
 70
     0
 10
0.0
 20
0.0
 30
0.0
  3
*Paper_Space
  1

  0
ENDBLK
  5
254E
330
254C
100
AcDbEntity
 67
     1
  8
0
100
AcDbBlockEnd
  0
BLOCK
  5
2566
330
2565
100
AcDbEntity
  8
0
100
AcDbBlockBegin
  2
$MODEL_SPACE
 70
     0
 10
0.0
 20
0.0
 30
0.0
  3
$MODEL_SPACE
  1

  0
ENDBLK
  5
1A
330
2565
100
AcDbEntity
  8
0
100
AcDbBlockEnd
  0
BLOCK
  5
2568
330
2567
100
AcDbEntity
  8
0
100
AcDbBlockBegin
  2
$PAPER_SPACE
 70
     0
 10
0.0
 20
0.0
 30
0.0
  3
$PAPER_SPACE
  1

  0
ENDBLK
  5
17
330
2567
100
AcDbEntity
  8
0
100
AcDbBlockEnd
  0
BLOCK
  5
256A
330
2569
100
AcDbEntity
  8
0
100
AcDbBlockBegin
  2
_OPEN
 70
     0
 10
0.0
 20
0.0
 30
0.0
  3
_OPEN
  1

  0
LINE
  5
30
330
2569
100
AcDbEntity
  8
0
  6
ByBlock
 62
     0
100
AcDbLine
 10
-1.0
 20
0.1666666666666666
 30
0.0
 11
0.0
 21
0.0
 31
0.0
  0
LINE
  5
31
330
2569
100
AcDbEntity
  8
0
  6
ByBlock
 62
     0
100
AcDbLine
 10
0.0
 20
0.0
 30
0.0
 11
-1.0
 21
-0.1666666666666666
 31
0.0
  0
LINE
  5
32
330
2569
100
AcDbEntity
  8
0
  6
ByBlock
 62
     0
100
AcDbLine
 10
0.0
 20
0.0
 30
0.0
 11
-1.0
 21
0.0
 31
0.0
  0
ENDBLK
  5
33
330
2569
100
AcDbEntity
  8
0
100
AcDbBlockEnd
  0
ENDSEC
  0
SECTION
  2
ENTITIES
  0
TEXT
  5
63
330
2550
100
AcDbEntity
  8
4
  6
CENTER
100
AcDbText
 10
23.97950852663849
 20
10.0
 30
0.0
 40
1.399999999999999
  1
4
100
AcDbText
  0
TEXT
  5
64
330
2550
100
AcDbEntity
  8
7
  6
Continuous
100
AcDbText
 10
9.999997526638502
 20
26.0000007607689
 30
0.0
 40
3.0
  1
CODE No.11063
100
AcDbText
  0
TEXT
  5
65
330
2550
100
AcDbEntity
  8
7
  6
Continuous
100
AcDbText
 10
9.999997526638502
 20
18.00000076076889
 30
0.0
 40
3.0
  1
TYPE No.TL-386
100
AcDbText
  0
TEXT
  5
66
330
2550
100
AcDbEntity
  8
1
  6
Continuous
100
AcDbText
 10
9.999997526638502
 20
10.00000076076889
 30
0.0
 40
1.399999999999999
  1
LAYER
100
AcDbText
  0
TEXT
  5
67
330
2550
100
AcDbEntity
  8
2
  6
Continuous
100
AcDbText
 10
19.9795085266385
 20
10.0
 30
0.0
 40
1.399999999999999
  1
2
100
AcDbText
  0
TEXT
  5
68
330
2550
100
AcDbEntity
  8
3
  6
DASHED
100
AcDbText
 10
21.9795085266385
 20
10.0
 30
0.0
 40
1.399999999999999
  1
3
100
AcDbText
  0
TEXT
  5
69
330
2550
100
AcDbEntity
  8
1
  6
Continuous
100
AcDbText
 10
17.9795085266385
 20
10.0
 30
0.0
 40
1.399999999999999
  1
1
100
AcDbText
  0
TEXT
  5
6A
330
2550
100
AcDbEntity
  8
5
  6
PHANTOM
100
AcDbText
 10
25.9795085266385
 20
10.0
 30
0.0
 40
1.399999999999999
  1
5
100
AcDbText
  0
TEXT
  5
6B
330
2550
100
AcDbEntity
  8
6
  6
Continuous
100
AcDbText
 10
27.9795085266385
 20
10.0
 30
0.0
 40
1.399999999999999
  1
6
100
AcDbText
  0
TEXT
  5
6C
330
2550
100
AcDbEntity
  8
7
  6
Continuous
100
AcDbText
 10
29.9795085266385
 20
10.0
 30
0.0
 40
1.399999999999999
  1
7
100
AcDbText
  0
LINE
  5
1B6
330
2550
100
AcDbEntity
  8
1
  6
Continuous
100
AcDbLine
 10
62.96582580660862
 20
157.6782191354068
 30
0.0
 11
62.96582580660862
 21
113.779627446288
 31
0.0
  0
LINE
  5
1BA
330
2550
100
AcDbEntity
  8
1
  6
Continuous
100
AcDbLine
 10
155.7786439233318
 20
165.1030902659773
 30
0.0
 11
155.7786439233697
 21
104.1030902658606
 31
0.0
  0
LINE
  5
1BD
330
2550
100
AcDbEntity
  8
1
  6
Continuous
100
AcDbLine
 10
127.7786439233318
 20
165.1030902659782
 30
0.0
 11
127.7786439233698
 21
104.103090265861
 31
0.0
  0
LINE
  5
1BE
330
2550
100
AcDbEntity
  8
4
  6
CENTER
100
AcDbLine
 10
141.7786439233508
 20
170.1030902659777
 30
0.0
 11
141.7786439233508
 21
99.10309026586091
 31
0.0
  0
LINE
  5
1BF
330
2550
100
AcDbEntity
  8
1
  6
Continuous
100
AcDbLine
 10
73.66582580662509
 20
153.007595685109
 30
0.0
 11
73.66582580654959
 21
105.1030902659213
 31
0.0
  0
LINE
  5
1C0
330
2550
100
AcDbEntity
  8
4
  6
CENTER
100
AcDbLine
 10
69.36582580656221
 20
106.1030902659259
 30
0.0
 11
69.36582580656221
 21
131.1030902659256
 31
0.0
  0
LINE
  5
1C1
330
2550
100
AcDbEntity
  8
1
  6
Continuous
100
AcDbLine
 10
62.36582580661025
 20
146.1030902659248
 30
0.0
 11
62.36582580654714
 21
106.1030902659197
 31
0.0
  0
ARC
  5
1C6
330
2550
100
AcDbEntity
  8
1
  6
Continuous
100
AcDbCircle
 10
67.05642472981861
 20
162.103090265924
 30
0.0
 40
2.0
100
AcDbArc
 50
89.99999999999998
 51
149.9999999997922
  0
ARC
  5
1C7
330
2550
100
AcDbEntity
  8
1
  6
Continuous
100
AcDbCircle
 10
22.66582580662503
 20
153.0075956851892
 30
0.0
 40
51.0
100
AcDbArc
 50
0.0
 51
13.36514792026261
  0
LINE
  5
1C8
330
2550
100
AcDbEntity
  8
1
  6
Continuous
100
AcDbLine
 10
66.76774959525864
 20
165.6030902659635
 30
0.0
 11
63.6356987876955
 21
160.1782191354226
 31
0.0
  0
LINE
  5
1CD
330
2550
100
AcDbEntity
  8
1
  6
Continuous
100
AcDbLine
 10
29.86582580661894
 20
159.6030902658932
 30
0.0
 11
29.86582580660149
 21
148.6030902659214
 31
0.0
  0
LINE
  5
1CE
330
2550
100
AcDbEntity
  8
1
  6
Continuous
100
AcDbLine
 10
28.36582580660149
 20
148.6030902659214
 30
0.0
 11
28.36582580661939
 21
159.9030902658931
 31
0.0
  0
LINE
  5
1CF
330
2550
100
AcDbEntity
  8
1
  6
Continuous
100
AcDbLine
 10
36.1648639123108
 20
164.683217284801
 30
0.0
 11
33.66486391229552
 21
160.3530902658885
 31
0.0
  0
LINE
  5
1D0
330
2550
100
AcDbEntity
  8
1
  6
Continuous
100
AcDbLine
 10
34.86582580663679
 20
165.4332172848056
 30
0.0
 11
32.65450094121689
 21
161.6030902658899
 31
0.0
  0
LINE
  5
1D1
330
2550
100
AcDbEntity
  8
1
  6
Continuous
100
AcDbLine
 10
34.8658258066364
 20
165.4332172848058
 30
0.0
 11
36.1648639123108
 21
164.683217284801
 31
0.0
  0
LINE
  5
1D2
330
2550
100
AcDbEntity
  8
1
  6
Continuous
100
AcDbLine
 10
29.86582580661894
 20
159.6030902658932
 30
0.0
 11
32.36582580662161
 21
159.6030902658932
 31
0.0
  0
LINE
  5
1D3
330
2550
100
AcDbEntity
  8
1
  6
Continuous
100
AcDbLine
 10
29.56582580661944
 20
161.1030902658932
 30
0.0
 11
31.78847553743412
 21
161.1030902658932
 31
0.0
  0
ARC
  5
1D4
330
2550
100
AcDbEntity
  8
1
  6
Continuous
100
AcDbCircle
 10
29.56582580661944
 20
159.9030902658931
 30
0.0
 40
1.199999999999999
100
AcDbArc
 50
89.99999999999998
 51
180.0
  0
ARC
  5
1D6
330
2550
100
AcDbEntity
  8
1
  6
Continuous
100
AcDbCircle
 10
31.78847553743412
 20
162.103090265893
 30
0.0
 40
1.0
100
AcDbArc
 50
270.0
 51
329.9999999997904
  0
ARC
  5
1D7
330
2550
100
AcDbEntity
  8
1
  6
Continuous
100
AcDbCircle
 10
32.36582580662161
 20
161.1030902658932
 30
0.0
 40
1.5
100
AcDbArc
 50
270.0
 51
329.9999999997922
  0
LINE
  5
1DA
330
2550
100
AcDbEntity
  8
4
  6
CENTER
100
AcDbLine
 10
32.86582580661024
 20
154.103090265939
 30
0.0
 11
25.36582580661024
 21
154.103090265939
 31
0.0
  0
LINE
  5
1DD
330
2550
100
AcDbEntity
  8
1
  6
Continuous
100
AcDbLine
 10
28.3658258066016
 20
148.6030902659214
 30
0.0
 11
29.86582580660149
 21
148.6030902659214
 31
0.0
  0
LINE
  5
1E0
330
2550
100
AcDbEntity
  8
1
  6
Continuous
100
AcDbLine
 10
69.36582580665849
 20
164.103090265924
 30
0.0
 11
69.36582580665849
 21
167.1030902659841
 31
0.0
  0
ARC
  5
1E1
330
2550
100
AcDbEntity
  8
1
  6
Continuous
100
AcDbCircle
 10
69.36582580665849
 20
164.103090265924
 30
0.0
 40
3.000000000059968
100
AcDbArc
 50
13.36514792026261
 51
149.9999999997922
  0
LINE
  5
1E2
330
2550
100
AcDbEntity
  8
1
  6
Continuous
100
AcDbLine
 10
69.36582580665849
 20
164.103090265924
 30
0.0
 11
67.05642472981861
 21
164.103090265924
 31
0.0
  0
LINE
  5
1E3
330
2550
100
AcDbEntity
  8
1
  6
Continuous
100
AcDbLine
 10
67.63377499904123
 20
165.1030902659603
 30
0.0
 11
67.05642472982389
 21
164.1030902659209
 31
0.0
  0
ARC
  5
1E4
330
2550
100
AcDbEntity
  8
1
  6
Continuous
100
AcDbCircle
 10
69.36582580665849
 20
164.103090265924
 30
0.0
 40
2.000000000059968
100
AcDbArc
 50
89.99999999999998
 51
149.999999999793
  0
LINE
  5
1E5
330
2550
100
AcDbEntity
  8
4
  6
CENTER
100
AcDbLine
 10
178.7786439233454
 20
154.103090265939
 30
0.0
 11
204.7786439233453
 21
154.1030902659389
 31
0.0
  0
LINE
  5
1E6
330
2550
100
AcDbEntity
  8
1
  6
Continuous
100
AcDbLine
 10
181.7786439233119
 20
163.4332172847843
 30
0.0
 11
181.778643923358
 21
150.603090265912
 31
0.0
  0
LINE
  5
1E7
330
2550
100
AcDbEntity
  8
1
  6
Continuous
100
AcDbLine
 10
201.7786439233117
 20
163.4332172848192
 30
0.0
 11
201.778643923358
 21
150.6030902659162
 31
0.0
  0
LINE
  5
1E8
330
2550
100
AcDbEntity
  8
4
  6
CENTER
100
AcDbLine
 10
186.7786439233497
 20
148.8530902659389
 30
0.0
 11
186.7786439233497
 21
159.353090265939
 31
0.0
  0
LINE
  5
1E9
330
2550
100
AcDbEntity
  8
4
  6
CENTER
100
AcDbLine
 10
196.7786439233518
 20
148.8530902659389
 30
0.0
 11
196.7786439233518
 21
159.353090265939
 31
0.0
  0
CIRCLE
  5
1EA
330
2550
100
AcDbEntity
  8
1
  6
Continuous
100
AcDbCircle
 10
186.7786439233497
 20
154.103090265939
 30
0.0
 40
4.25
  0
CIRCLE
  5
1EB
330
2550
100
AcDbEntity
  8
1
  6
Continuous
100
AcDbCircle
 10
196.7786439233518
 20
154.103090265939
 30
0.0
 40
4.25
  0
LINE
  5
1EC
330
2550
100
AcDbEntity
  8
4
  6
CENTER
100
AcDbLine
 10
191.7786439233508
 20
168.4332172848058
 30
0.0
 11
191.7786439233508
 21
145.6030902659141
 31
0.0
  0
LINE
  5
1ED
330
2550
100
AcDbEntity
  8
1
  6
Continuous
100
AcDbLine
 10
181.7786439233484
 20
159.6030902658726
 30
0.0
 11
201.7786439233484
 21
159.6030902659137
 31
0.0
  0
LINE
  5
1EE
330
2550
100
AcDbEntity
  8
1
  6
Continuous
100
AcDbLine
 10
183.7786439233154
 20
164.6832172848011
 30
0.0
 11
199.7786439233165
 21
164.6832172848011
 31
0.0
  0
LINE
  5
1EF
330
2550
100
AcDbEntity
  8
1
  6
Continuous
100
AcDbLine
 10
183.7786439233161
 20
165.4332172848058
 30
0.0
 11
199.7786439233158
 21
165.4332172848058
 31
0.0
  0
ARC
  5
1F0
330
2550
100
AcDbEntity
  8
1
  6
Continuous
100
AcDbCircle
 10
183.7786439233154
 20
162.6832172847867
 30
0.0
 40
2.0
100
AcDbArc
 50
89.99999999999998
 51
180.0
  0
ARC
  5
1F1
330
2550
100
AcDbEntity
  8
1
  6
Continuous
100
AcDbCircle
 10
183.7786439233161
 20
163.4332172847915
 30
0.0
 40
2.0
100
AcDbArc
 50
89.99999999999998
 51
180.0
  0
ARC
  5
1F2
330
2550
100
AcDbEntity
  8
1
  6
Continuous
100
AcDbCircle
 10
199.7786439233165
 20
162.6832172848073
 30
0.0
 40
2.0
100
AcDbArc
 50
0.0
 51
89.99999999999998
  0
ARC
  5
1F3
330
2550
100
AcDbEntity
  8
1
  6
Continuous
100
AcDbCircle
 10
199.7786439233158
 20
163.433217284812
 30
0.0
 40
2.0
100
AcDbArc
 50
0.0
 51
89.99999999999998
  0
CIRCLE
  5
1F4
330
2550
100
AcDbEntity
  8
1
  6
Continuous
100
AcDbCircle
 10
196.778643923352
 20
154.103090265939
 30
0.0
 40
3.049999999979732
  0
LINE
  5
1F5
330
2550
100
AcDbEntity
  8
1
  6
Continuous
100
AcDbLine
 10
183.7786439233574
 20
148.6030902659141
 30
0.0
 11
199.7786439233573
 21
148.6030902659141
 31
0.0
  0
CIRCLE
  5
1F6
330
2550
100
AcDbEntity
  8
1
  6
Continuous
100
AcDbCircle
 10
186.7786439233497
 20
154.103090265939
 30
0.0
 40
3.049999999979732
  0
ARC
  5
1F7
330
2550
100
AcDbEntity
  8
1
  6
Continuous
100
AcDbCircle
 10
183.7786439233574
 20
150.6030902659141
 30
0.0
 40
2.0
100
AcDbArc
 50
180.0
 51
270.0
  0
ARC
  5
1F9
330
2550
100
AcDbEntity
  8
1
  6
Continuous
100
AcDbCircle
 10
199.7786439233573
 20
150.6030902659141
 30
0.0
 40
2.0
100
AcDbArc
 50
270.0
 51
0.0
  0
LINE
  5
1FA
330
2550
100
AcDbEntity
  8
1
  6
Continuous
100
AcDbLine
 10
129.7786439233322
 20
167.1030902659794
 30
0.0
 11
153.778643923332
 21
167.1030902659759
 31
0.0
  0
ARC
  5
1FC
330
2550
100
AcDbEntity
  8
1
  6
Continuous
100
AcDbCircle
 10
129.7786439233318
 20
165.1030902659796
 30
0.0
 40
2.0
100
AcDbArc
 50
89.99999999999998
 51
180.0
  0
ARC
  5
1FD
330
2550
100
AcDbEntity
  8
1
  6
Continuous
100
AcDbCircle
 10
153.7786439233317
 20
165.103090265976
 30
0.0
 40
2.0
100
AcDbArc
 50
0.0
 51
89.99999999999998
  0
ARC
  5
203
330
2550
100
AcDbEntity
  8
1
  6
Continuous
100
AcDbCircle
 10
63.56582580660155
 20
146.1030902659229
 30
0.0
 40
1.199999999999999
100
AcDbArc
 50
134.9999999999992
 51
180.0
  0
ARC
  5
204
330
2550
100
AcDbEntity
  8
1
  6
Continuous
100
AcDbCircle
 10
67.96582580660862
 20
157.6782191354068
 30
0.0
 40
5.0
100
AcDbArc
 50
149.9999999997922
 51
180.0
  0
LINE
  5
205
330
2550
100
AcDbEntity
  8
1
  6
Continuous
100
AcDbLine
 10
62.71729766917185
 20
146.9516184033413
 30
0.0
 11
62.96582580660862
 21
147.2001465407778
 31
0.0
  0
LINE
  5
209
330
2550
100
AcDbEntity
  8
1
  6
Continuous
100
AcDbLine
 10
62.96582580660862
 20
146.1030902659248
 30
0.0
 11
62.36582580660149
 21
146.1030902659248
 31
0.0
  0
LINE
  5
20C
330
2550
100
AcDbEntity
  8
1
  6
Continuous
100
AcDbLine
 10
62.96582580660862
 20
138.1030902659273
 30
0.0
 11
62.36582580658883
 21
138.1030902659281
 31
0.0
  0
CIRCLE
  5
20D
330
2550
100
AcDbEntity
  8
1
  6
Continuous
100
AcDbCircle
 10
69.36582580656221
 20
121.1030902659256
 30
0.0
 40
3.0
  0
LINE
  5
20E
330
2550
100
AcDbEntity
  8
1
  6
Continuous
100
AcDbLine
 10
68.46582580664676
 20
136.1030902659261
 30
0.0
 11
68.46582580664756
 21
134.1030902659261
 31
0.0
  0
LINE
  5
20F
330
2550
100
AcDbEntity
  8
1
  6
Continuous
100
AcDbLine
 10
67.42992742177102
 20
136.1030902659259
 30
0.0
 11
67.42992742177102
 21
134.1030902659259
 31
0.0
  0
LINE
  5
210
330
2550
100
AcDbEntity
  8
1
  6
Continuous
100
AcDbLine
 10
67.96582580664676
 20
136.603090265926
 30
0.0
 11
64.96582580660849
 21
136.603090265926
 31
0.0
  0
LINE
  5
211
330
2550
100
AcDbEntity
  8
4
  6
CENTER
100
AcDbLine
 10
60.36582580658813
 20
132.1030902659187
 30
0.0
 11
65.56582580659295
 21
132.1030902659187
 31
0.0
  0
ARC
  5
212
330
2550
100
AcDbEntity
  8
1
  6
Continuous
100
AcDbCircle
 10
67.96582580664676
 20
136.1030902659259
 30
0.0
 40
0.5
100
AcDbArc
 50
0.0
 51
89.99999999999998
  0
ARC
  5
213
330
2550
100
AcDbEntity
  8
1
  6
Continuous
100
AcDbCircle
 10
66.92992742177103
 20
136.1030902659259
 30
0.0
 40
0.5
100
AcDbArc
 50
0.0
 51
89.99999999999998
  0
LINE
  5
214
330
2550
100
AcDbEntity
  8
1
  6
Continuous
100
AcDbLine
 10
67.96582580664756
 20
133.603090265926
 30
0.0
 11
64.96582580660849
 21
133.603090265926
 31
0.0
  0
ARC
  5
215
330
2550
100
AcDbEntity
  8
1
  6
Continuous
100
AcDbCircle
 10
67.96582580664756
 20
134.1030902659259
 30
0.0
 40
0.5
100
AcDbArc
 50
270.0
 51
0.0
  0
ARC
  5
216
330
2550
100
AcDbEntity
  8
1
  6
Continuous
100
AcDbCircle
 10
66.92992742177103
 20
134.1030902659259
 30
0.0
 40
0.5
100
AcDbArc
 50
270.0
 51
0.0
  0
LINE
  5
218
330
2550
100
AcDbEntity
  8
1
  6
Continuous
100
AcDbLine
 10
70.91582580656212
 20
123.671650173734
 30
0.0
 11
70.91582580656212
 21
127.1030902659257
 31
0.0
  0
LINE
  5
219
330
2550
100
AcDbEntity
  8
1
  6
Continuous
100
AcDbLine
 10
67.8158258065621
 20
123.6716501737338
 30
0.0
 11
67.8158258065621
 21
127.1030902659257
 31
0.0
  0
LINE
  5
21A
330
2550
100
AcDbEntity
  8
4
  6
CENTER
100
AcDbLine
 10
73.41582580655733
 20
121.1030902659256
 30
0.0
 11
65.31582580655737
 21
121.1030902659256
 31
0.0
  0
ARC
  5
226
330
2550
100
AcDbEntity
  8
1
  6
Continuous
100
AcDbCircle
 10
69.3658258065621
 20
127.1030902659257
 30
0.0
 40
1.55
100
AcDbArc
 50
0.0
 51
180.0
  0
LINE
  5
227
330
2550
100
AcDbEntity
  8
4
  6
CENTER
100
AcDbLine
 10
72.41582580656211
 20
127.1030902659257
 30
0.0
 11
66.31582580656206
 21
127.1030902659257
 31
0.0
  0
ARC
  5
228
330
2550
100
AcDbEntity
  8
1
  6
Continuous
100
AcDbCircle
 10
139.2786439233544
 20
140.1030902659238
 30
0.0
 40
2.5
100
AcDbArc
 50
89.99999999999998
 51
270.0
  0
ARC
  5
229
330
2550
100
AcDbEntity
  8
1
  6
Continuous
100
AcDbCircle
 10
144.2786439233544
 20
140.1030902659238
 30
0.0
 40
2.5
100
AcDbArc
 50
270.0
 51
89.99999999999998
  0
LINE
  5
22B
330
2550
100
AcDbEntity
  8
4
  6
CENTER
100
AcDbLine
 10
129.7982206731809
 20
152.6030902659521
 30
0.0
 11
153.860359334448
 21
152.6030902659521
 31
0.0
  0
LINE
  5
22C
330
2550
100
AcDbEntity
  8
1
  6
Continuous
100
AcDbLine
 10
139.2786439233544
 20
142.6030902659238
 30
0.0
 11
144.2786439233544
 21
142.6030902659238
 31
0.0
  0
LINE
  5
22D
330
2550
100
AcDbEntity
  8
4
  6
CENTER
100
AcDbLine
 10
124.7786439233555
 20
121.103090265924
 30
0.0
 11
159.2786439233555
 21
121.103090265924
 31
0.0
  0
LINE
  5
22E
330
2550
100
AcDbEntity
  8
1
  6
Continuous
100
AcDbLine
 10
126.7786439233539
 20
123.6030902659235
 30
0.0
 11
126.778643923357
 21
118.6030902659235
 31
0.0
  0
ARC
  5
22F
330
2550
100
AcDbEntity
  8
1
  6
Continuous
100
AcDbCircle
 10
127.2786439233535
 20
123.603090265924
 30
0.0
 40
0.4999999999996823
100
AcDbArc
 50
0.0
 51
180.0
  0
ARC
  5
230
330
2550
100
AcDbEntity
  8
1
  6
Continuous
100
AcDbCircle
 10
127.2786439233573
 20
118.603090265924
 30
0.0
 40
0.4999999999997102
100
AcDbArc
 50
180.0
 51
0.0
  0
LINE
  5
231
330
2550
100
AcDbEntity
  8
1
  6
Continuous
100
AcDbLine
 10
156.2786439233534
 20
124.103090265924
 30
0.0
 11
156.2786439233572
 21
118.103090265924
 31
0.0
  0
LINE
  5
232
330
2550
100
AcDbEntity
  8
1
  6
Continuous
100
AcDbLine
 10
139.2786439233544
 20
137.6030902659238
 30
0.0
 11
144.2786439233544
 21
137.6030902659238
 31
0.0
  0
LINE
  5
233
330
2550
100
AcDbEntity
  8
4
  6
CENTER
100
AcDbLine
 10
147.5286439233481
 20
132.1030902659389
 30
0.0
 11
136.0286439233482
 21
132.1030902659389
 31
0.0
  0
LINE
  5
235
330
2550
100
AcDbEntity
  8
1
  6
Continuous
100
AcDbLine
 10
155.7786439233535
 20
124.103090265924
 30
0.0
 11
156.2786439233534
 21
124.103090265924
 31
0.0
  0
LINE
  5
236
330
2550
100
AcDbEntity
  8
1
  6
Continuous
100
AcDbLine
 10
155.7786439233572
 20
118.103090265924
 30
0.0
 11
156.2786439233572
 21
118.103090265924
 31
0.0
  0
ARC
  5
237
330
2550
100
AcDbEntity
  8
1
  6
Continuous
100
AcDbCircle
 10
154.778643923358
 20
121.103090265924
 30
0.0
 40
2.499999999997498
100
AcDbArc
 50
306.8698976458485
 51
53.1301023542224
  0
ARC
  5
239
330
2550
100
AcDbEntity
  8
1
  6
Continuous
100
AcDbCircle
 10
68.35642472983561
 20
107.1030902659208
 30
0.0
 40
2.0
100
AcDbArc
 50
210.0000000002077
 51
270.0
  0
LINE
  5
23A
330
2550
100
AcDbEntity
  8
1
  6
Continuous
100
AcDbLine
 10
68.06774959527252
 20
103.6030902658866
 30
0.0
 11
63.6356987876955
 21
111.2796274462723
 31
0.0
  0
CIRCLE
  5
23B
330
2550
100
AcDbEntity
  8
1
  6
Continuous
100
AcDbCircle
 10
69.3658258065621
 20
110.1030902659259
 30
0.0
 40
3.0
  0
ARC
  5
23C
330
2550
100
AcDbEntity
  8
1
  6
Continuous
100
AcDbCircle
 10
67.96582580660862
 20
113.779627446288
 30
0.0
 40
5.0
100
AcDbArc
 50
180.0
 51
210.0000000002077
  0
LINE
  5
23D
330
2550
100
AcDbEntity
  8
4
  6
CENTER
100
AcDbLine
 10
60.36582580655498
 20
111.1030902659188
 30
0.0
 11
65.31075474919089
 21
111.1030902659188
 31
0.0
  0
LINE
  5
23F
330
2550
100
AcDbEntity
  8
1
  6
Continuous
100
AcDbLine
 10
62.36582580654705
 20
106.1030902659197
 30
0.0
 11
63.56582580654715
 21
106.1030902659197
 31
0.0
  0
LINE
  5
240
330
2550
100
AcDbEntity
  8
4
  6
CENTER
100
AcDbLine
 10
73.36582580655724
 20
110.1030902659259
 30
0.0
 11
65.36582580655727
 21
110.1030902659259
 31
0.0
  0
ARC
  5
241
330
2550
100
AcDbEntity
  8
1
  6
Continuous
100
AcDbCircle
 10
70.66582580667239
 20
105.1030902659261
 30
0.0
 40
3.000000000059968
100
AcDbArc
 50
210.0000000002077
 51
0.0
  0
LINE
  5
242
330
2550
100
AcDbEntity
  8
1
  6
Continuous
100
AcDbLine
 10
70.66582580667239
 20
105.1030902659261
 30
0.0
 11
70.66582580667239
 21
102.103090265866
 31
0.0
  0
ARC
  5
243
330
2550
100
AcDbEntity
  8
1
  6
Continuous
100
AcDbCircle
 10
70.66582580667239
 20
105.1030902659261
 30
0.0
 40
2.000000000059968
100
AcDbArc
 50
210.0000000002077
 51
270.0
  0
LINE
  5
244
330
2550
100
AcDbEntity
  8
1
  6
Continuous
100
AcDbLine
 10
70.66582580667239
 20
105.1030902659259
 30
0.0
 11
68.35642472984
 21
105.1030902659208
 31
0.0
  0
LINE
  5
245
330
2550
100
AcDbEntity
  8
1
  6
Continuous
100
AcDbLine
 10
68.9337749990551
 20
104.1030902658897
 30
0.0
 11
68.3564247298421
 21
105.1030902659219
 31
0.0
  0
LINE
  5
248
330
2550
100
AcDbEntity
  8
1
  6
Continuous
100
AcDbLine
 10
129.7786439233695
 20
102.1030902658623
 30
0.0
 11
153.7786439233694
 21
102.1030902658594
 31
0.0
  0
LINE
  5
249
330
2550
100
AcDbEntity
  8
4
  6
CENTER
100
AcDbLine
 10
124.778643923366
 20
110.1030902658982
 30
0.0
 11
158.7786439233659
 21
110.1030902658525
 31
0.0
  0
LINE
  5
24A
330
2550
100
AcDbEntity
  8
1
  6
Continuous
100
AcDbLine
 10
126.7786439233644
 20
112.6030902658939
 30
0.0
 11
126.7786439233675
 21
107.6030902658939
 31
0.0
  0
ARC
  5
24B
330
2550
100
AcDbEntity
  8
1
  6
Continuous
100
AcDbCircle
 10
127.2786439233641
 20
112.6030902658941
 30
0.0
 40
0.4999999999996823
100
AcDbArc
 50
0.0
 51
180.0
  0
ARC
  5
24C
330
2550
100
AcDbEntity
  8
1
  6
Continuous
100
AcDbCircle
 10
127.2786439233678
 20
107.6030902658942
 30
0.0
 40
0.4999999999997102
100
AcDbArc
 50
180.0
 51
0.0
  0
ARC
  5
24D
330
2550
100
AcDbEntity
  8
1
  6
Continuous
100
AcDbCircle
 10
129.7786439233698
 20
104.1030902658623
 30
0.0
 40
2.0
100
AcDbArc
 50
180.0
 51
270.0
  0
ARC
  5
24F
330
2550
100
AcDbEntity
  8
1
  6
Continuous
100
AcDbCircle
 10
154.2786439233684
 20
110.1030902658579
 30
0.0
 40
2.499999999997498
100
AcDbArc
 50
306.8698976458485
 51
53.1301023542224
  0
ARC
  5
250
330
2550
100
AcDbEntity
  8
1
  6
Continuous
100
AcDbCircle
 10
153.7786439233697
 20
104.1030902658594
 30
0.0
 40
2.0
100
AcDbArc
 50
270.0
 51
0.0
  0
ARC
  5
90A
330
2550
100
AcDbEntity
  8
1
  6
Continuous
100
AcDbCircle
 10
310.8914620400765
 20
153.0075956851892
 30
0.0
 40
51.0
100
AcDbArc
 50
166.6348520797373
 51
180.0
  0
ARC
  5
90B
330
2550
100
AcDbEntity
  8
1
  6
Continuous
100
AcDbCircle
 10
262.8914620400292
 20
105.1030902659261
 30
0.0
 40
3.000000000059968
100
AcDbArc
 50
180.0
 51
329.9999999997922
  0
LINE
  5
90C
330
2550
100
AcDbEntity
  8
4
  6
CENTER
100
AcDbLine
 10
260.1914620401444
 20
110.1030902659259
 30
0.0
 11
268.1914620401444
 21
110.1030902659259
 31
0.0
  0
LINE
  5
90D
330
2550
100
AcDbEntity
  8
4
  6
CENTER
100
AcDbLine
 10
260.1414620401444
 20
121.1030902659256
 30
0.0
 11
268.2414620401444
 21
121.1030902659256
 31
0.0
  0
LINE
  5
914
330
2550
100
AcDbEntity
  8
1
  6
Continuous
100
AcDbLine
 10
265.0914620400549
 20
136.1030902659261
 30
0.0
 11
265.0914620400541
 21
134.1030902659261
 31
0.0
  0
LINE
  5
915
330
2550
100
AcDbEntity
  8
1
  6
Continuous
100
AcDbLine
 10
266.1273604249306
 20
136.1030902659259
 30
0.0
 11
266.1273604249306
 21
134.1030902659259
 31
0.0
  0
LINE
  5
916
330
2550
100
AcDbEntity
  8
1
  6
Continuous
100
AcDbLine
 10
270.591462040093
 20
157.6782191354068
 30
0.0
 11
270.591462040093
 21
113.779627446288
 31
0.0
  0
LINE
  5
917
330
2550
100
AcDbEntity
  8
1
  6
Continuous
100
AcDbLine
 10
271.1914620400914
 20
146.1030902659248
 30
0.0
 11
271.1914620401545
 21
106.1030902659197
 31
0.0
  0
LINE
  5
919
330
2550
100
AcDbEntity
  8
4
  6
CENTER
100
AcDbLine
 10
264.1914620401394
 20
106.1030902659259
 30
0.0
 11
264.1914620401394
 21
131.1030902659256
 31
0.0
  0
ARC
  5
91A
330
2550
100
AcDbEntity
  8
1
  6
Continuous
100
AcDbCircle
 10
262.8914620400292
 20
105.1030902659261
 30
0.0
 40
2.000000000059968
100
AcDbArc
 50
270.0
 51
329.9999999997922
  0
LINE
  5
91B
330
2550
100
AcDbEntity
  8
1
  6
Continuous
100
AcDbLine
 10
262.8914620400292
 20
105.1030902659261
 30
0.0
 11
262.8914620400292
 21
102.103090265866
 31
0.0
  0
LINE
  5
91C
330
2550
100
AcDbEntity
  8
1
  6
Continuous
100
AcDbLine
 10
265.4895382514291
 20
103.6030902658866
 30
0.0
 11
269.921589059006
 21
111.2796274462723
 31
0.0
  0
LINE
  5
91D
330
2550
100
AcDbEntity
  8
1
  6
Continuous
100
AcDbLine
 10
271.1914620401546
 20
106.1030902659197
 30
0.0
 11
269.9914620401544
 21
106.1030902659197
 31
0.0
  0
ARC
  5
91E
330
2550
100
AcDbEntity
  8
1
  6
Continuous
100
AcDbCircle
 10
265.591462040093
 20
113.779627446288
 30
0.0
 40
5.0
100
AcDbArc
 50
329.9999999997922
 51
0.000000000000007
  0
LINE
  5
91F
330
2550
100
AcDbEntity
  8
1
  6
Continuous
100
AcDbLine
 10
262.8914620400292
 20
105.1030902659259
 30
0.0
 11
265.2008631168616
 21
105.1030902659208
 31
0.0
  0
LINE
  5
920
330
2550
100
AcDbEntity
  8
1
  6
Continuous
100
AcDbLine
 10
264.6235128476465
 20
104.1030902658897
 30
0.0
 11
265.2008631168595
 21
105.1030902659219
 31
0.0
  0
ARC
  5
921
330
2550
100
AcDbEntity
  8
1
  6
Continuous
100
AcDbCircle
 10
265.200863116866
 20
107.1030902659208
 30
0.0
 40
2.0
100
AcDbArc
 50
270.0
 51
329.9999999997922
  0
CIRCLE
  5
922
330
2550
100
AcDbEntity
  8
1
  6
Continuous
100
AcDbCircle
 10
264.1914620401396
 20
110.1030902659259
 30
0.0
 40
1.999999999931715
  0
CIRCLE
  5
923
330
2550
100
AcDbEntity
  8
1
  6
Continuous
100
AcDbCircle
 10
264.1914620401394
 20
121.1030902659256
 30
0.0
 40
1.999999999998067
  0
LINE
  5
924
330
2550
100
AcDbEntity
  8
4
  6
CENTER
100
AcDbLine
 10
273.1914620401466
 20
111.1030902659188
 30
0.0
 11
267.9762753620316
 21
111.1030902659188
 31
0.0
  0
ARC
  5
92D
330
2550
100
AcDbEntity
  8
1
  6
Continuous
100
AcDbCircle
 10
264.1914620401396
 20
127.1030902659257
 30
0.0
 40
1.55
100
AcDbArc
 50
0.0
 51
180.0
  0
LINE
  5
92E
330
2550
100
AcDbEntity
  8
1
  6
Continuous
100
AcDbLine
 10
265.7414620401396
 20
123.6716501737319
 30
0.0
 11
265.7414620401396
 21
127.1030902659257
 31
0.0
  0
LINE
  5
932
330
2550
100
AcDbEntity
  8
1
  6
Continuous
100
AcDbLine
 10
262.6414620401395
 20
123.671650173732
 30
0.0
 11
262.6414620401395
 21
127.1030902659257
 31
0.0
  0
LINE
  5
933
330
2550
100
AcDbEntity
  8
4
  6
CENTER
100
AcDbLine
 10
261.1414620401344
 20
127.1030902659257
 30
0.0
 11
267.2414620401345
 21
127.1030902659257
 31
0.0
  0
LINE
  5
934
330
2550
100
AcDbEntity
  8
1
  6
Continuous
100
AcDbLine
 10
265.5914620400541
 20
133.603090265926
 30
0.0
 11
268.5914620400931
 21
133.603090265926
 31
0.0
  0
ARC
  5
935
330
2550
100
AcDbEntity
  8
1
  6
Continuous
100
AcDbCircle
 10
265.5914620400541
 20
134.1030902659259
 30
0.0
 40
0.5
100
AcDbArc
 50
180.0
 51
270.0
  0
ARC
  5
936
330
2550
100
AcDbEntity
  8
1
  6
Continuous
100
AcDbCircle
 10
266.6273604249306
 20
134.1030902659259
 30
0.0
 40
0.5
100
AcDbArc
 50
180.0
 51
270.0
  0
LINE
  5
93A
330
2550
100
AcDbEntity
  8
3
  6
DASHED
100
AcDbLine
 10
303.6914620400982
 20
149.853090265939
 30
0.0
 11
304.8914620400869
 21
151.053090265931
 31
0.0
  0
LINE
  5
93B
330
2550
100
AcDbEntity
  8
1
  6
Continuous
100
AcDbLine
 10
305.1914620401002
 20
148.6030902659214
 30
0.0
 11
305.1914620400822
 21
159.9030902658931
 31
0.0
  0
LINE
  5
93C
330
2550
100
AcDbEntity
  8
1
  6
Continuous
100
AcDbLine
 10
303.6914620400827
 20
159.6030902658932
 30
0.0
 11
303.6914620401002
 21
148.6030902659214
 31
0.0
  0
LINE
  5
93E
330
2550
100
AcDbEntity
  8
1
  6
Continuous
100
AcDbLine
 10
305.1914620401
 20
148.6030902659214
 30
0.0
 11
303.6914620401002
 21
148.6030902659214
 31
0.0
  0
LINE
  5
941
330
2550
100
AcDbEntity
  8
4
  6
CENTER
100
AcDbLine
 10
300.6914620400914
 20
154.103090265939
 30
0.0
 11
308.1914620400914
 21
154.103090265939
 31
0.0
  0
ARC
  5
942
330
2550
100
AcDbEntity
  8
1
  6
Continuous
100
AcDbCircle
 10
303.9914620400822
 20
159.9030902658931
 30
0.0
 40
1.199999999999999
100
AcDbArc
 50
0.000000000000007
 51
90.00000000000005
  0
ARC
  5
943
330
2550
100
AcDbEntity
  8
1
  6
Continuous
100
AcDbCircle
 10
301.7688123092675
 20
162.103090265893
 30
0.0
 40
1.0
100
AcDbArc
 50
210.0000000002095
 51
270.0
  0
LINE
  5
944
330
2550
100
AcDbEntity
  8
1
  6
Continuous
100
AcDbLine
 10
297.3924239343908
 20
164.683217284801
 30
0.0
 11
299.8924239344061
 21
160.3530902658885
 31
0.0
  0
LINE
  5
945
330
2550
100
AcDbEntity
  8
1
  6
Continuous
100
AcDbLine
 10
303.6914620400827
 20
159.6030902658932
 30
0.0
 11
301.19146204008
 21
159.6030902658932
 31
0.0
  0
LINE
  5
946
330
2550
100
AcDbEntity
  8
1
  6
Continuous
100
AcDbLine
 10
303.9914620400822
 20
161.1030902658932
 30
0.0
 11
301.7688123092675
 21
161.1030902658932
 31
0.0
  0
LINE
  5
947
330
2550
100
AcDbEntity
  8
3
  6
DASHED
100
AcDbLine
 10
304.8914620400869
 20
157.153090265939
 30
0.0
 11
304.8914620400869
 21
151.053090265939
 31
0.0
  0
LINE
  5
948
330
2550
100
AcDbEntity
  8
3
  6
DASHED
100
AcDbLine
 10
304.8914620400869
 20
157.153090265939
 30
0.0
 11
305.1914620400866
 21
157.153090265939
 31
0.0
  0
LINE
  5
949
330
2550
100
AcDbEntity
  8
3
  6
DASHED
100
AcDbLine
 10
304.8914620400869
 20
151.053090265939
 30
0.0
 11
305.1914620400962
 21
151.053090265939
 31
0.0
  0
LINE
  5
94A
330
2550
100
AcDbEntity
  8
3
  6
DASHED
100
AcDbLine
 10
303.6914620400847
 20
158.353090265939
 30
0.0
 11
304.8914620400869
 21
157.153090265939
 31
0.0
  0
ARC
  5
94B
330
2550
100
AcDbEntity
  8
1
  6
Continuous
100
AcDbCircle
 10
301.19146204008
 20
161.1030902658932
 30
0.0
 40
1.5
100
AcDbArc
 50
210.0000000002077
 51
270.0
  0
LINE
  5
94C
330
2550
100
AcDbEntity
  8
1
  6
Continuous
100
AcDbLine
 10
298.6914620400649
 20
165.4332172848056
 30
0.0
 11
300.9027869054847
 21
161.6030902658899
 31
0.0
  0
LINE
  5
94D
330
2550
100
AcDbEntity
  8
1
  6
Continuous
100
AcDbLine
 10
298.6914620400652
 20
165.4332172848058
 30
0.0
 11
297.3924239343908
 21
164.683217284801
 31
0.0
  0
LINE
  5
94F
330
2550
100
AcDbEntity
  8
1
  6
Continuous
100
AcDbLine
 10
265.5914620400549
 20
136.603090265926
 30
0.0
 11
268.5914620400931
 21
136.603090265926
 31
0.0
  0
LINE
  5
950
330
2550
100
AcDbEntity
  8
4
  6
CENTER
100
AcDbLine
 10
273.1914620401135
 20
132.1030902659187
 30
0.0
 11
267.9914620401087
 21
132.1030902659187
 31
0.0
  0
LINE
  5
951
330
2550
100
AcDbEntity
  8
1
  6
Continuous
100
AcDbLine
 10
270.591462040093
 20
138.1030902659273
 30
0.0
 11
271.1914620401128
 21
138.1030902659281
 31
0.0
  0
ARC
  5
952
330
2550
100
AcDbEntity
  8
1
  6
Continuous
100
AcDbCircle
 10
265.5914620400549
 20
136.1030902659259
 30
0.0
 40
0.5
100
AcDbArc
 50
90.00000000000005
 51
180.0
  0
ARC
  5
953
330
2550
100
AcDbEntity
  8
1
  6
Continuous
100
AcDbCircle
 10
266.6273604249306
 20
136.1030902659259
 30
0.0
 40
0.5
100
AcDbArc
 50
90.00000000000005
 51
180.0
  0
ARC
  5
954
330
2550
100
AcDbEntity
  8
1
  6
Continuous
100
AcDbCircle
 10
269.9914620401001
 20
146.1030902659229
 30
0.0
 40
1.199999999999999
100
AcDbArc
 50
0.000000000000007
 51
45.00000000000062
  0
LINE
  5
955
330
2550
100
AcDbEntity
  8
1
  6
Continuous
100
AcDbLine
 10
270.591462040093
 20
146.1030902659248
 30
0.0
 11
271.1914620401001
 21
146.1030902659248
 31
0.0
  0
LINE
  5
956
330
2550
100
AcDbEntity
  8
1
  6
Continuous
100
AcDbLine
 10
270.8399901775297
 20
146.9516184033413
 30
0.0
 11
270.591462040093
 21
147.2001465407778
 31
0.0
  0
ARC
  5
957
330
2550
100
AcDbEntity
  8
1
  6
Continuous
100
AcDbCircle
 10
264.1914620400431
 20
164.103090265924
 30
0.0
 40
3.000000000059968
100
AcDbArc
 50
30.0000000002077
 51
166.6348520797373
  0
LINE
  5
958
330
2550
100
AcDbEntity
  8
1
  6
Continuous
100
AcDbLine
 10
266.789538251443
 20
165.6030902659635
 30
0.0
 11
269.921589059006
 21
160.1782191354226
 31
0.0
  0
ARC
  5
959
330
2550
100
AcDbEntity
  8
1
  6
Continuous
100
AcDbCircle
 10
266.500863116883
 20
162.103090265924
 30
0.0
 40
2.0
100
AcDbArc
 50
30.0000000002077
 51
90.00000000000005
  0
ARC
  5
95A
330
2550
100
AcDbEntity
  8
1
  6
Continuous
100
AcDbCircle
 10
265.591462040093
 20
157.6782191354068
 30
0.0
 40
5.0
100
AcDbArc
 50
0.000000000000007
 51
30.0000000002077
  0
LINE
  5
95B
330
2550
100
AcDbEntity
  8
1
  6
Continuous
100
AcDbLine
 10
264.1914620400431
 20
164.103090265924
 30
0.0
 11
264.1914620400431
 21
167.1030902659841
 31
0.0
  0
LINE
  5
95C
330
2550
100
AcDbEntity
  8
1
  6
Continuous
100
AcDbLine
 10
265.9235128476604
 20
165.1030902659603
 30
0.0
 11
266.5008631168777
 21
164.1030902659209
 31
0.0
  0
LINE
  5
95D
330
2550
100
AcDbEntity
  8
1
  6
Continuous
100
AcDbLine
 10
264.1914620400431
 20
164.103090265924
 30
0.0
 11
266.500863116883
 21
164.103090265924
 31
0.0
  0
ARC
  5
95E
330
2550
100
AcDbEntity
  8
1
  6
Continuous
100
AcDbCircle
 10
264.1914620400431
 20
164.103090265924
 30
0.0
 40
2.000000000059968
100
AcDbArc
 50
30.00000000020698
 51
90.00000000000005
  0
LINE
  5
95F
330
2550
100
AcDbEntity
  8
1
  6
Continuous
100
AcDbLine
 10
259.8914620400766
 20
153.007595685109
 30
0.0
 11
259.891462040152
 21
105.1030902659213
 31
0.0
  0
CIRCLE
  5
AF0
330
2550
100
AcDbEntity
  8
1
  6
Continuous
100
AcDbCircle
 10
264.1914620401394
 20
121.1030902659256
 30
0.0
 40
2.999999999998323
  0
CIRCLE
  5
AF4
330
2550
100
AcDbEntity
  8
1
  6
Continuous
100
AcDbCircle
 10
421.4883064061557
 20
154.103090265939
 30
0.0
 40
3.049999999979732
  0
LINE
  5
AF5
330
2550
100
AcDbEntity
  8
1
  6
Continuous
100
AcDbLine
 10
406.488306406152
 20
161.1030902658726
 30
0.0
 11
426.4883064061519
 21
161.1030902659137
 31
0.0
  0
LINE
  5
AF6
330
2550
100
AcDbEntity
  8
4
  6
CENTER
100
AcDbLine
 10
403.4883064061489
 20
154.103090265939
 30
0.0
 11
429.4883064061489
 21
154.1030902659389
 31
0.0
  0
LINE
  5
AF7
330
2550
100
AcDbEntity
  8
1
  6
Continuous
100
AcDbLine
 10
408.4883064061198
 20
165.4332172848058
 30
0.0
 11
424.4883064061196
 21
165.4332172848058
 31
0.0
  0
LINE
  5
AF9
330
2550
100
AcDbEntity
  8
1
  6
Continuous
100
AcDbLine
 10
408.4883064061609
 20
148.6030902659141
 30
0.0
 11
424.4883064061609
 21
148.6030902659141
 31
0.0
  0
LINE
  5
AFD
330
2550
100
AcDbEntity
  8
4
  6
CENTER
100
AcDbLine
 10
383.4883064061392
 20
110.1030902658982
 30
0.0
 11
349.4883064061392
 21
110.1030902658525
 31
0.0
  0
LINE
  5
AFE
330
2550
100
AcDbEntity
  8
4
  6
CENTER
100
AcDbLine
 10
383.4883064061498
 20
121.103090265924
 30
0.0
 11
348.9883064061498
 21
121.103090265924
 31
0.0
  0
LINE
  5
AFF
330
2550
100
AcDbEntity
  8
1
  6
Continuous
100
AcDbLine
 10
354.4883064061732
 20
102.1030902658623
 30
0.0
 11
378.4883064061731
 21
102.1030902658594
 31
0.0
  0
LINE
  5
B00
330
2550
100
AcDbEntity
  8
4
  6
CENTER
100
AcDbLine
 10
354.5078831559846
 20
146.6030902659522
 30
0.0
 11
379.2364645414068
 21
146.6030902659522
 31
0.0
  0
LINE
  5
B01
330
2550
100
AcDbEntity
  8
1
  6
Continuous
100
AcDbLine
 10
354.4883064061358
 20
167.1030902659794
 30
0.0
 11
378.4883064061357
 21
167.1030902659759
 31
0.0
  0
LINE
  5
B03
330
2550
100
AcDbEntity
  8
1
  6
Continuous
100
AcDbLine
 10
352.4883064061355
 20
165.1030902659782
 30
0.0
 11
352.4883064061735
 21
104.103090265861
 31
0.0
  0
ARC
  5
B05
330
2550
100
AcDbEntity
  8
1
  6
Continuous
100
AcDbCircle
 10
354.4883064061735
 20
104.1030902658623
 30
0.0
 40
2.0
100
AcDbArc
 50
180.0
 51
270.0
  0
ARC
  5
B06
330
2550
100
AcDbEntity
  8
1
  6
Continuous
100
AcDbCircle
 10
380.9883064061374
 20
107.6030902658942
 30
0.0
 40
0.4999999999997102
100
AcDbArc
 50
180.0
 51
0.000000000000007
  0
ARC
  5
B07
330
2550
100
AcDbEntity
  8
1
  6
Continuous
100
AcDbCircle
 10
380.9883064061411
 20
112.6030902658941
 30
0.0
 40
0.4999999999996823
100
AcDbArc
 50
0.000000000000007
 51
180.0
  0
LINE
  5
B08
330
2550
100
AcDbEntity
  8
1
  6
Continuous
100
AcDbLine
 10
381.4883064061409
 20
112.6030902658939
 30
0.0
 11
381.4883064061378
 21
107.6030902658939
 31
0.0
  0
ARC
  5
B09
330
2550
100
AcDbEntity
  8
1
  6
Continuous
100
AcDbCircle
 10
380.988306406148
 20
118.603090265924
 30
0.0
 40
0.4999999999997102
100
AcDbArc
 50
180.0
 51
0.000000000000007
  0
ARC
  5
B0A
330
2550
100
AcDbEntity
  8
1
  6
Continuous
100
AcDbCircle
 10
380.9883064061517
 20
123.603090265924
 30
0.0
 40
0.4999999999996823
100
AcDbArc
 50
0.000000000000007
 51
180.0
  0
LINE
  5
B0B
330
2550
100
AcDbEntity
  8
1
  6
Continuous
100
AcDbLine
 10
381.4883064061513
 20
123.6030902659235
 30
0.0
 11
381.4883064061482
 21
118.6030902659235
 31
0.0
  0
ARC
  5
B0C
330
2550
100
AcDbEntity
  8
1
  6
Continuous
100
AcDbCircle
 10
354.4883064061355
 20
165.1030902659796
 30
0.0
 40
2.0
100
AcDbArc
 50
89.99999999999998
 51
180.0
  0
LINE
  5
B0E
330
2550
100
AcDbEntity
  8
4
  6
CENTER
100
AcDbLine
 10
366.4883064061545
 20
170.1030902659777
 30
0.0
 11
366.4883064061545
 21
99.10309026586091
 31
0.0
  0
LINE
  5
B0F
330
2550
100
AcDbEntity
  8
1
  6
Continuous
100
AcDbLine
 10
380.4883064061354
 20
165.1030902659773
 30
0.0
 11
380.4883064061733
 21
104.1030902658606
 31
0.0
  0
ARC
  5
B11
330
2550
100
AcDbEntity
  8
1
  6
Continuous
100
AcDbCircle
 10
378.4883064061733
 20
104.1030902658594
 30
0.0
 40
2.0
100
AcDbArc
 50
270.0
 51
0.0
  0
ARC
  5
B12
330
2550
100
AcDbEntity
  8
1
  6
Continuous
100
AcDbCircle
 10
353.9883064061367
 20
110.1030902658579
 30
0.0
 40
2.499999999997498
100
AcDbArc
 50
126.8698976457775
 51
233.1301023541513
  0
LINE
  5
B14
330
2550
100
AcDbEntity
  8
1
  6
Continuous
100
AcDbLine
 10
351.9883064061518
 20
124.103090265924
 30
0.0
 11
351.988306406148
 21
118.103090265924
 31
0.0
  0
LINE
  5
B15
330
2550
100
AcDbEntity
  8
1
  6
Continuous
100
AcDbLine
 10
352.488306406148
 20
118.103090265924
 30
0.0
 11
351.9883064061481
 21
118.103090265924
 31
0.0
  0
ARC
  5
B16
330
2550
100
AcDbEntity
  8
1
  6
Continuous
100
AcDbCircle
 10
353.4883064061472
 20
121.103090265924
 30
0.0
 40
2.499999999997498
100
AcDbArc
 50
126.8698976457775
 51
233.1301023541513
  0
LINE
  5
B17
330
2550
100
AcDbEntity
  8
1
  6
Continuous
100
AcDbLine
 10
352.4883064061516
 20
124.103090265924
 30
0.0
 11
351.9883064061518
 21
124.103090265924
 31
0.0
  0
LINE
  5
B19
330
2550
100
AcDbEntity
  8
4
  6
CENTER
100
AcDbLine
 10
372.2383064061519
 20
132.1030902659389
 30
0.0
 11
360.7383064061519
 21
132.1030902659389
 31
0.0
  0
ARC
  5
B1E
330
2550
100
AcDbEntity
  8
1
  6
Continuous
100
AcDbCircle
 10
378.4883064061354
 20
165.103090265976
 30
0.0
 40
2.0
100
AcDbArc
 50
0.0
 51
89.99999999999998
  0
LINE
  5
B20
330
2550
100
AcDbEntity
  8
4
  6
CENTER
100
AcDbLine
 10
421.4883064061554
 20
148.8530902659389
 30
0.0
 11
421.4883064061554
 21
159.353090265939
 31
0.0
  0
LINE
  5
B21
330
2550
100
AcDbEntity
  8
4
  6
CENTER
100
AcDbLine
 10
416.4883064061545
 20
168.4332172848058
 30
0.0
 11
416.4883064061545
 21
145.6030902659141
 31
0.0
  0
LINE
  5
B22
330
2550
100
AcDbEntity
  8
4
  6
CENTER
100
AcDbLine
 10
411.4883064061534
 20
148.8530902659389
 30
0.0
 11
411.4883064061534
 21
159.353090265939
 31
0.0
  0
ARC
  5
B24
330
2550
100
AcDbEntity
  8
1
  6
Continuous
100
AcDbCircle
 10
408.4883064061609
 20
150.6030902659141
 30
0.0
 40
2.0
100
AcDbArc
 50
180.0
 51
270.0
  0
ARC
  5
B26
330
2550
100
AcDbEntity
  8
1
  6
Continuous
100
AcDbCircle
 10
408.4883064061198
 20
163.4332172847915
 30
0.0
 40
2.0
100
AcDbArc
 50
89.99999999999998
 51
180.0
  0
LINE
  5
B28
330
2550
100
AcDbEntity
  8
1
  6
Continuous
100
AcDbLine
 10
406.4883064061156
 20
163.4332172847843
 30
0.0
 11
406.4883064061616
 21
150.603090265912
 31
0.0
  0
CIRCLE
  5
B29
330
2550
100
AcDbEntity
  8
1
  6
Continuous
100
AcDbCircle
 10
411.4883064061534
 20
154.103090265939
 30
0.0
 40
3.049999999979732
  0
ARC
  5
B2D
330
2550
100
AcDbEntity
  8
1
  6
Continuous
100
AcDbCircle
 10
424.4883064061609
 20
150.6030902659141
 30
0.0
 40
2.0
100
AcDbArc
 50
270.0
 51
0.0
  0
LINE
  5
B2E
330
2550
100
AcDbEntity
  8
1
  6
Continuous
100
AcDbLine
 10
426.4883064061153
 20
163.4332172848192
 30
0.0
 11
426.4883064061616
 21
150.6030902659162
 31
0.0
  0
ARC
  5
B2F
330
2550
100
AcDbEntity
  8
1
  6
Continuous
100
AcDbCircle
 10
424.4883064061196
 20
163.433217284812
 30
0.0
 40
2.0
100
AcDbArc
 50
0.0
 51
89.99999999999998
  0
LINE
  5
D67
330
2550
100
AcDbEntity
  8
1
  6
Continuous
100
AcDbLine
 10
353.4883064061734
 20
165.1030902659765
 30
0.0
 11
353.4883064061355
 21
104.1030902658599
 31
0.0
  0
LINE
  5
D68
330
2550
100
AcDbEntity
  8
1
  6
Continuous
100
AcDbLine
 10
379.4883064061735
 20
165.1030902659788
 30
0.0
 11
379.4883064061355
 21
104.1030902658615
 31
0.0
  0
LINE
  5
D6F
330
2550
100
AcDbEntity
  8
1
  6
Continuous
100
AcDbLine
 10
374.4883064061545
 20
161.6389886508768
 30
0.0
 11
358.4883064061544
 21
161.6389886508768
 31
0.0
  0
LINE
  5
D70
330
2550
100
AcDbEntity
  8
1
  6
Continuous
100
AcDbLine
 10
374.4883064061545
 20
162.1389886508799
 30
0.0
 11
358.4883064061544
 21
162.1389886508799
 31
0.0
  0
LINE
  5
D78
330
2550
100
AcDbEntity
  8
1
  6
Continuous
100
AcDbLine
 10
356.4883064061544
 20
163.6389886508768
 30
0.0
 11
356.4883064061555
 21
167.103090265981
 31
0.0
  0
ARC
  5
D79
330
2550
100
AcDbEntity
  8
1
  6
Continuous
100
AcDbCircle
 10
354.4883064061735
 20
165.1030902659758
 30
0.0
 40
1.0
100
AcDbArc
 50
89.99999999999998
 51
180.0
  0
LINE
  5
D7B
330
2550
100
AcDbEntity
  8
1
  6
Continuous
100
AcDbLine
 10
356.4883064061552
 20
166.1030902659761
 30
0.0
 11
354.4883064061732
 21
166.1030902659758
 31
0.0
  0
LINE
  5
D7C
330
2550
100
AcDbEntity
  8
1
  6
Continuous
100
AcDbLine
 10
353.4883064061728
 20
164.1030902659578
 30
0.0
 11
352.4883064061897
 21
164.1030902659591
 31
0.0
  0
ARC
  5
D7D
330
2550
100
AcDbEntity
  8
1
  6
Continuous
100
AcDbCircle
 10
358.4883064061543
 20
164.1389886508799
 30
0.0
 40
2.0
100
AcDbArc
 50
180.0
 51
270.0
  0
ARC
  5
D7E
330
2550
100
AcDbEntity
  8
1
  6
Continuous
100
AcDbCircle
 10
358.4883064061543
 20
163.6389886508768
 30
0.0
 40
2.0
100
AcDbArc
 50
180.0
 51
270.0
  0
ARC
  5
D7F
330
2550
100
AcDbEntity
  8
1
  6
Continuous
100
AcDbCircle
 10
354.7883064061209
 20
134.1030902659567
 30
0.0
 40
0.5
100
AcDbArc
 50
270.0
 51
0.0
  0
ARC
  5
D80
330
2550
100
AcDbEntity
  8
1
  6
Continuous
100
AcDbCircle
 10
354.7883064061209
 20
136.1030902658437
 30
0.0
 40
0.5
100
AcDbArc
 50
0.0
 51
89.99999999999998
  0
LINE
  5
D81
330
2550
100
AcDbEntity
  8
1
  6
Continuous
100
AcDbLine
 10
355.2883064061209
 20
136.1030902658437
 30
0.0
 11
355.2883064061209
 21
134.1030902659567
 31
0.0
  0
LINE
  5
D82
330
2550
100
AcDbEntity
  8
1
  6
Continuous
100
AcDbLine
 10
354.7883064061202
 20
136.6030902658437
 30
0.0
 11
353.4883064061557
 21
136.6030902658421
 31
0.0
  0
LINE
  5
D83
330
2550
100
AcDbEntity
  8
1
  6
Continuous
100
AcDbLine
 10
354.7883064061202
 20
133.6030902659567
 30
0.0
 11
353.4883064061538
 21
133.6030902659583
 31
0.0
  0
LINE
  5
D85
330
2550
100
AcDbEntity
  8
1
  6
Continuous
100
AcDbLine
 10
376.4883064061545
 20
167.1030902659791
 30
0.0
 11
376.4883064061545
 21
163.6389886508768
 31
0.0
  0
ARC
  5
D86
330
2550
100
AcDbEntity
  8
1
  6
Continuous
100
AcDbCircle
 10
378.4883064061732
 20
165.1030902659794
 30
0.0
 40
1.0
100
AcDbArc
 50
0.0
 51
89.99999999999998
  0
LINE
  5
D88
330
2550
100
AcDbEntity
  8
1
  6
Continuous
100
AcDbLine
 10
378.4883064061732
 20
166.1030902659794
 30
0.0
 11
376.4883064061545
 21
166.1030902659791
 31
0.0
  0
LINE
  5
D89
330
2550
100
AcDbEntity
  8
1
  6
Continuous
100
AcDbLine
 10
380.4883064061728
 20
164.1030902659298
 30
0.0
 11
379.4883064061723
 21
164.10309026593
 31
0.0
  0
ARC
  5
D8A
330
2550
100
AcDbEntity
  8
1
  6
Continuous
100
AcDbCircle
 10
374.4883064061543
 20
164.1389886508799
 30
0.0
 40
2.0
100
AcDbArc
 50
270.0
 51
0.0
  0
ARC
  5
D8B
330
2550
100
AcDbEntity
  8
1
  6
Continuous
100
AcDbCircle
 10
374.4883064061543
 20
163.6389886508768
 30
0.0
 40
2.0
100
AcDbArc
 50
270.0
 51
0.0
  0
ARC
  5
D9F
330
2550
100
AcDbEntity
  8
1
  6
Continuous
100
AcDbCircle
 10
358.4883064061543
 20
105.5671918809771
 30
0.0
 40
2.0
100
AcDbArc
 50
101.536959032715
 51
180.0
  0
LINE
  5
DA1
330
2550
100
AcDbEntity
  8
1
  6
Continuous
100
AcDbLine
 10
356.4883064061544
 20
103.1030902658595
 30
0.0
 11
354.4883064061355
 21
103.1030902658593
 31
0.0
  0
LINE
  5
DA2
330
2550
100
AcDbEntity
  8
1
  6
Continuous
100
AcDbLine
 10
352.4883064061727
 20
105.103090265902
 30
0.0
 11
353.4883064061657
 21
105.1030902659009
 31
0.0
  0
ARC
  5
DA3
330
2550
100
AcDbEntity
  8
1
  6
Continuous
100
AcDbCircle
 10
354.4883064061355
 20
104.1030902658593
 30
0.0
 40
1.0
100
AcDbArc
 50
180.0
 51
270.0
  0
LINE
  5
DA4
330
2550
100
AcDbEntity
  8
1
  6
Continuous
100
AcDbLine
 10
356.4883064061544
 20
105.5671918809771
 30
0.0
 11
356.4883064061544
 21
102.1030902658595
 31
0.0
  0
ARC
  5
DA5
330
2550
100
AcDbEntity
  8
1
  6
Continuous
100
AcDbCircle
 10
358.4883064061543
 20
105.0671918809741
 30
0.0
 40
2.0
100
AcDbArc
 50
101.4947128197794
 51
180.0
  0
ARC
  5
DA6
330
2550
100
AcDbEntity
  8
1
  6
Continuous
100
AcDbCircle
 10
374.4883064061543
 20
105.5671918809771
 30
0.0
 40
2.0
100
AcDbArc
 50
0.0
 51
78.46304096708045
  0
LINE
  5
DA7
330
2550
100
AcDbEntity
  8
1
  6
Continuous
100
AcDbLine
 10
380.488306406136
 20
105.1030902659021
 30
0.0
 11
379.4883064061431
 21
105.1030902659009
 31
0.0
  0
LINE
  5
DA9
330
2550
100
AcDbEntity
  8
1
  6
Continuous
100
AcDbLine
 10
376.4883064061543
 20
105.5671918809771
 30
0.0
 11
376.4883064061543
 21
102.1030902658621
 31
0.0
  0
ARC
  5
DAA
330
2550
100
AcDbEntity
  8
1
  6
Continuous
100
AcDbCircle
 10
374.4883064061543
 20
105.0671918809741
 30
0.0
 40
2.0
100
AcDbArc
 50
0.0
 51
78.5052871801757
  0
LINE
  5
DAB
330
2550
100
AcDbEntity
  8
1
  6
Continuous
100
AcDbLine
 10
378.4883064061355
 20
103.1030902658623
 30
0.0
 11
376.4883064061543
 21
103.1030902658621
 31
0.0
  0
ARC
  5
DAC
330
2550
100
AcDbEntity
  8
1
  6
Continuous
100
AcDbCircle
 10
378.4883064061355
 20
104.1030902658623
 30
0.0
 40
1.0
100
AcDbArc
 50
270.0
 51
0.0
  0
LINE
  5
E27
330
2550
100
AcDbEntity
  8
1
  6
Continuous
100
AcDbLine
 10
377.688306406188
 20
136.1030902658437
 30
0.0
 11
377.688306406188
 21
134.1030902659567
 31
0.0
  0
LINE
  5
E28
330
2550
100
AcDbEntity
  8
1
  6
Continuous
100
AcDbLine
 10
378.1883064061887
 20
133.6030902659567
 30
0.0
 11
379.4883064061551
 21
133.6030902659583
 31
0.0
  0
ARC
  5
E29
330
2550
100
AcDbEntity
  8
1
  6
Continuous
100
AcDbCircle
 10
378.188306406188
 20
134.1030902659567
 30
0.0
 40
0.5
100
AcDbArc
 50
180.0
 51
270.0
  0
ARC
  5
E2A
330
2550
100
AcDbEntity
  8
1
  6
Continuous
100
AcDbCircle
 10
378.188306406188
 20
136.1030902658437
 30
0.0
 40
0.5
100
AcDbArc
 50
90.00000000000005
 51
180.0
  0
LINE
  5
E2B
330
2550
100
AcDbEntity
  8
1
  6
Continuous
100
AcDbLine
 10
378.1883064061887
 20
136.6030902658437
 30
0.0
 11
379.4883064061532
 21
136.6030902658421
 31
0.0
  0
LINE
  5
EE1
330
2550
100
AcDbEntity
  8
1
  6
Continuous
100
AcDbLine
 10
376.2883064061595
 20
149.6030902659568
 30
0.0
 11
376.2883064061575
 21
146.1030902659611
 31
0.0
  0
LINE
  5
EE2
330
2550
100
AcDbEntity
  8
1
  6
Continuous
100
AcDbLine
 10
377.4883064061596
 20
149.6030902659568
 30
0.0
 11
377.4883064061523
 21
138.1030902659598
 31
0.0
  0
LINE
  5
EE3
330
2550
100
AcDbEntity
  8
1
  6
Continuous
100
AcDbLine
 10
356.6883064061451
 20
149.6030902659643
 30
0.0
 11
356.6883064061471
 21
146.103090265954
 31
0.0
  0
LINE
  5
EE4
330
2550
100
AcDbEntity
  8
1
  6
Continuous
100
AcDbLine
 10
355.4883064061452
 20
149.6030902659641
 30
0.0
 11
355.4883064061523
 21
138.1030902659693
 31
0.0
  0
ARC
  5
EE6
330
2550
100
AcDbEntity
  8
1
  6
Continuous
100
AcDbCircle
 10
372.9883064061545
 20
154.3263007165526
 30
0.0
 40
1.0
100
AcDbArc
 50
0.0
 51
89.99999999999998
  0
ARC
  5
EE7
330
2550
100
AcDbEntity
  8
1
  6
Continuous
100
AcDbCircle
 10
359.9883064061545
 20
154.3263007165617
 30
0.0
 40
1.0
100
AcDbArc
 50
89.99999999999998
 51
180.0
  0
LINE
  5
EE8
330
2550
100
AcDbEntity
  8
1
  6
Continuous
100
AcDbLine
 10
359.9883064061557
 20
155.3263007165648
 30
0.0
 11
372.9883064061557
 21
155.3263007165486
 31
0.0
  0
LINE
  5
EE9
330
2550
100
AcDbEntity
  8
1
  6
Continuous
100
AcDbLine
 10
355.4883064061472
 20
146.1030902659536
 30
0.0
 11
358.9883064061544
 21
146.1030902659548
 31
0.0
  0
LINE
  5
EEC
330
2550
100
AcDbEntity
  8
1
  6
Continuous
100
AcDbLine
 10
358.9883064061546
 20
154.3263007165617
 30
0.0
 11
358.9883064061544
 21
146.1030902659558
 31
0.0
  0
LINE
  5
EEE
330
2550
100
AcDbEntity
  8
1
  6
Continuous
100
AcDbLine
 10
355.4883064061452
 20
149.6030902659641
 30
0.0
 11
356.6883064061453
 21
149.6030902659643
 31
0.0
  0
LINE
  5
EF1
330
2550
100
AcDbEntity
  8
1
  6
Continuous
100
AcDbLine
 10
373.9883064061544
 20
154.3263007165526
 30
0.0
 11
373.9883064061544
 21
146.1030902659602
 31
0.0
  0
LINE
  5
EF3
330
2550
100
AcDbEntity
  8
1
  6
Continuous
100
AcDbLine
 10
376.2883064061595
 20
149.6030902659568
 30
0.0
 11
377.4883064061448
 21
149.6030902659568
 31
0.0
  0
LINE
  5
EF9
330
2550
100
AcDbEntity
  8
1
  6
Continuous
100
AcDbLine
 10
374.8883064061395
 20
138.1030902659583
 30
0.0
 11
374.8883064061582
 21
108.1030902659404
 31
0.0
  0
LINE
  5
EFA
330
2550
100
AcDbEntity
  8
1
  6
Continuous
100
AcDbLine
 10
358.0883064061395
 20
138.1030902659585
 30
0.0
 11
358.0883064061581
 21
108.1030902659397
 31
0.0
  0
LINE
  5
EFD
330
2550
100
AcDbEntity
  8
1
  6
Continuous
100
AcDbLine
 10
359.0883064061406
 20
136.1030902659377
 30
0.0
 11
359.0883064061451
 21
129.1030902659386
 31
0.0
  0
LINE
  5
EFE
330
2550
100
AcDbEntity
  8
1
  6
Continuous
100
AcDbLine
 10
361.0883064061428
 20
129.1030902659385
 30
0.0
 11
361.0883064061297
 21
136.1030902659317
 31
0.0
  0
LINE
  5
EFF
330
2550
100
AcDbEntity
  8
1
  6
Continuous
100
AcDbLine
 10
371.8883064061661
 20
129.1030902659386
 30
0.0
 11
371.888306406179
 21
136.1030902659317
 31
0.0
  0
LINE
  5
F00
330
2550
100
AcDbEntity
  8
1
  6
Continuous
100
AcDbLine
 10
373.8883064061682
 20
136.1030902659377
 30
0.0
 11
373.8883064061638
 21
129.1030902659385
 31
0.0
  0
CIRCLE
  5
F01
330
2550
100
AcDbEntity
  8
1
  6
Continuous
100
AcDbCircle
 10
366.4883064061519
 20
132.1030902659389
 30
0.0
 40
3.299999999999998
  0
ARC
  5
F04
330
2550
100
AcDbEntity
  8
1
  6
Continuous
100
AcDbCircle
 10
360.4883064061543
 20
138.3315173906989
 30
0.0
 40
2.0
100
AcDbArc
 50
315.0000000000032
 51
0.0
  0
LINE
  5
F05
330
2550
100
AcDbEntity
  8
1
  6
Continuous
100
AcDbLine
 10
359.6740928437677
 20
137.517303828312
 30
0.0
 11
360.4883064061543
 21
138.3315173906989
 31
0.0
  0
ARC
  5
F06
330
2550
100
AcDbEntity
  8
1
  6
Continuous
100
AcDbCircle
 10
361.0883064061406
 20
136.1030902659388
 30
0.0
 40
2.0
100
AcDbArc
 50
135.0000000000038
 51
180.0
  0
LINE
  5
F07
330
2550
100
AcDbEntity
  8
1
  6
Continuous
100
AcDbLine
 10
360.4883064061543
 20
142.103090265939
 30
0.0
 11
360.4883064061543
 21
138.3315173906989
 31
0.0
  0
LINE
  5
F08
330
2550
100
AcDbEntity
  8
1
  6
Continuous
100
AcDbLine
 10
362.4883064061543
 20
142.103090265939
 30
0.0
 11
362.4883064061543
 21
138.3315173906989
 31
0.0
  0
ARC
  5
F09
330
2550
100
AcDbEntity
  8
1
  6
Continuous
100
AcDbCircle
 10
361.4883064061544
 20
142.1030902659389
 30
0.0
 40
0.9999999999999715
100
AcDbArc
 50
0.0
 51
180.0
  0
LINE
  5
F0A
330
2550
100
AcDbEntity
  8
1
  6
Continuous
100
AcDbLine
 10
355.4883064061523
 20
138.1030902659611
 30
0.0
 11
358.0883064061395
 21
138.1030902659567
 31
0.0
  0
LINE
  5
F0B
330
2550
100
AcDbEntity
  8
1
  6
Continuous
100
AcDbLine
 10
361.0883064061408
 20
136.103090265939
 30
0.0
 11
361.9025199685276
 21
136.9173038283258
 31
0.0
  0
ARC
  5
F0C
330
2550
100
AcDbEntity
  8
1
  6
Continuous
100
AcDbCircle
 10
372.4883064061545
 20
138.3315173906989
 30
0.0
 40
2.0
100
AcDbArc
 50
180.0
 51
224.9999999999967
  0
ARC
  5
F0D
330
2550
100
AcDbEntity
  8
1
  6
Continuous
100
AcDbCircle
 10
371.8883064061682
 20
136.1030902659388
 30
0.0
 40
2.0
100
AcDbArc
 50
0.0
 51
44.99999999999618
  0
LINE
  5
F0E
330
2550
100
AcDbEntity
  8
1
  6
Continuous
100
AcDbLine
 10
373.3025199685412
 20
137.517303828312
 30
0.0
 11
372.4883064061545
 21
138.3315173906989
 31
0.0
  0
ARC
  5
F0F
330
2550
100
AcDbEntity
  8
1
  6
Continuous
100
AcDbCircle
 10
371.4883064061544
 20
142.1030902659389
 30
0.0
 40
0.9999999999999715
100
AcDbArc
 50
0.0
 51
180.0
  0
LINE
  5
F10
330
2550
100
AcDbEntity
  8
1
  6
Continuous
100
AcDbLine
 10
370.4883064061545
 20
142.103090265939
 30
0.0
 11
370.4883064061545
 21
138.3315173906989
 31
0.0
  0
LINE
  5
F11
330
2550
100
AcDbEntity
  8
1
  6
Continuous
100
AcDbLine
 10
372.4883064061545
 20
142.103090265939
 30
0.0
 11
372.4883064061545
 21
138.3315173906989
 31
0.0
  0
LINE
  5
F12
330
2550
100
AcDbEntity
  8
1
  6
Continuous
100
AcDbLine
 10
377.4883064061523
 20
138.1030902659583
 30
0.0
 11
374.8883064061395
 21
138.1030902659537
 31
0.0
  0
LINE
  5
F13
330
2550
100
AcDbEntity
  8
1
  6
Continuous
100
AcDbLine
 10
371.8883064061681
 20
136.103090265939
 30
0.0
 11
371.0740928437813
 21
136.9173038283258
 31
0.0
  0
ARC
  5
F16
330
2550
100
AcDbEntity
  8
1
  6
Continuous
100
AcDbCircle
 10
360.088306406143
 20
129.1030902659385
 30
0.0
 40
0.9999999999994884
100
AcDbArc
 50
180.0
 51
0.0
  0
ARC
  5
F18
330
2550
100
AcDbEntity
  8
1
  6
Continuous
100
AcDbCircle
 10
372.8883064061657
 20
129.1030902659385
 30
0.0
 40
0.9999999999994884
100
AcDbArc
 50
180.0
 51
0.0
  0
CIRCLE
  5
F4C
330
2550
100
AcDbEntity
  8
1
  6
Continuous
100
AcDbCircle
 10
366.4883064061545
 20
111.1030902659389
 30
0.0
 40
3.299999999999998
  0
LINE
  5
F53
330
2550
100
AcDbEntity
  8
1
  6
Continuous
100
AcDbLine
 10
360.0883064061551
 20
106.10309026594
 30
0.0
 11
372.8883064061551
 21
106.10309026594
 31
0.0
  0
ARC
  5
F54
330
2550
100
AcDbEntity
  8
1
  6
Continuous
100
AcDbCircle
 10
360.0883064061551
 20
108.1030902659409
 30
0.0
 40
2.0
100
AcDbArc
 50
180.0
 51
270.0
  0
ARC
  5
F55
330
2550
100
AcDbEntity
  8
1
  6
Continuous
100
AcDbCircle
 10
372.8883064061551
 20
108.103090265939
 30
0.0
 40
2.0
100
AcDbArc
 50
270.0
 51
0.0
  0
LINE
  5
FB8
330
2550
100
AcDbEntity
  8
1
  6
Continuous
100
AcDbLine
 10
373.9883064061543
 20
146.1030902659603
 30
0.0
 11
377.4883064061575
 21
146.1030902659615
 31
0.0
  0
LINE
  5
116E
330
2550
100
AcDbEntity
  8
1
  6
Continuous
100
AcDbLine
 10
376.2883064061588
 20
148.1030902659521
 30
0.0
 11
375.5883064061546
 21
148.1030902659521
 31
0.0
  0
LINE
  5
11D7
330
2550
100
AcDbEntity
  8
1
  6
Continuous
100
AcDbLine
 10
379.4883064061588
 20
111.6030902658929
 30
0.0
 11
374.8883064061554
 21
111.6030902658867
 31
0.0
  0
LINE
  5
1248
330
2550
100
AcDbEntity
  8
1
  6
Continuous
100
AcDbLine
 10
379.4883064061572
 20
108.6030902658929
 30
0.0
 11
374.8883064061572
 21
108.6030902658867
 31
0.0
  0
LINE
  5
1268
330
2550
100
AcDbEntity
  8
1
  6
Continuous
100
AcDbLine
 10
358.0883064061571
 20
108.6030902658639
 30
0.0
 11
353.4883064061383
 21
108.6030902658577
 31
0.0
  0
LINE
  5
1269
330
2550
100
AcDbEntity
  8
1
  6
Continuous
100
AcDbLine
 10
358.0883064061552
 20
111.6030902658639
 30
0.0
 11
353.4883064061402
 21
111.6030902658577
 31
0.0
  0
LINE
  5
1271
330
2550
100
AcDbEntity
  8
1
  6
Continuous
100
AcDbLine
 10
378.488306406128
 20
149.1030902659493
 30
0.0
 11
378.4883064061248
 21
144.1030902659493
 31
0.0
  0
ARC
  5
1274
330
2550
100
AcDbEntity
  8
1
  6
Continuous
100
AcDbCircle
 10
377.9883064061282
 20
149.1030902659496
 30
0.0
 40
0.499999999999633
100
AcDbArc
 50
0.000000000000007
 51
180.0
  0
ARC
  5
1275
330
2550
100
AcDbEntity
  8
1
  6
Continuous
100
AcDbCircle
 10
377.9883064061246
 20
144.1030902659496
 30
0.0
 40
0.4999999999997196
100
AcDbArc
 50
180.0
 51
0.000000000000007
  0
LINE
  5
127D
330
2550
100
AcDbEntity
  8
1
  6
Continuous
100
AcDbLine
 10
358.9883064061544
 20
148.1030902659521
 30
0.0
 11
358.5883064061591
 21
148.1030902659521
 31
0.0
  0
LINE
  5
128C
330
2550
100
AcDbEntity
  8
1
  6
Continuous
100
AcDbLine
 10
353.5883064061542
 20
119.1030902659319
 30
0.0
 11
353.5883064061542
 21
123.1030902658794
 31
0.0
  0
ARC
  5
128D
330
2550
100
AcDbEntity
  8
1
  6
Continuous
100
AcDbCircle
 10
354.5883064061544
 20
119.1030902659319
 30
0.0
 40
1.0
100
AcDbArc
 50
180.0
 51
270.0
  0
LINE
  5
128E
330
2550
100
AcDbEntity
  8
1
  6
Continuous
100
AcDbLine
 10
358.0883064061519
 20
118.1030902659318
 30
0.0
 11
354.5883064061542
 21
118.1030902659318
 31
0.0
  0
LINE
  5
128F
330
2550
100
AcDbEntity
  8
1
  6
Continuous
100
AcDbLine
 10
358.5883064061582
 20
149.6030902659643
 30
0.0
 11
358.5883064061596
 21
146.1030902659547
 31
0.0
  0
LINE
  5
1290
330
2550
100
AcDbEntity
  8
1
  6
Continuous
100
AcDbLine
 10
357.3883064061539
 20
149.6030902659641
 30
0.0
 11
357.3883064061547
 21
146.1030902659543
 31
0.0
  0
LINE
  5
1291
330
2550
100
AcDbEntity
  8
1
  6
Continuous
100
AcDbLine
 10
358.0883064061482
 20
124.1030902658847
 30
0.0
 11
354.5883064061527
 21
124.1030902658794
 31
0.0
  0
ARC
  5
1293
330
2550
100
AcDbEntity
  8
1
  6
Continuous
100
AcDbCircle
 10
354.5883064061542
 20
123.1030902658794
 30
0.0
 40
1.0
100
AcDbArc
 50
90.00000000008629
 51
180.0
  0
LINE
  5
1294
330
2550
100
AcDbEntity
  8
1
  6
Continuous
100
AcDbLine
 10
357.3883064061562
 20
138.1030902659578
 30
0.0
 11
357.3883064061594
 21
124.1030902658837
 31
0.0
  0
LINE
  5
1296
330
2550
100
AcDbEntity
  8
1
  6
Continuous
100
AcDbLine
 10
357.3883064061543
 20
148.1030902659521
 30
0.0
 11
356.6883064061461
 21
148.1030902659521
 31
0.0
  0
LINE
  5
129A
330
2550
100
AcDbEntity
  8
1
  6
Continuous
100
AcDbLine
 10
357.3883064061539
 20
149.6030902659641
 30
0.0
 11
358.5883064061582
 21
149.6030902659643
 31
0.0
  0
LINE
  5
129B
330
2550
100
AcDbEntity
  8
1
  6
Continuous
100
AcDbLine
 10
374.3883064061508
 20
149.6030902659643
 30
0.0
 11
374.3883064061493
 21
146.1030902659547
 31
0.0
  0
LINE
  5
129C
330
2550
100
AcDbEntity
  8
1
  6
Continuous
100
AcDbLine
 10
375.5883064061551
 20
149.6030902659641
 30
0.0
 11
374.3883064061508
 21
149.6030902659643
 31
0.0
  0
LINE
  5
129D
330
2550
100
AcDbEntity
  8
1
  6
Continuous
100
AcDbLine
 10
375.5883064061551
 20
149.6030902659641
 30
0.0
 11
375.5883064061542
 21
146.1030902659543
 31
0.0
  0
LINE
  5
129E
330
2550
100
AcDbEntity
  8
1
  6
Continuous
100
AcDbLine
 10
375.5883064061525
 20
138.1030902659578
 30
0.0
 11
375.5883064061495
 21
124.1030902658837
 31
0.0
  0
LINE
  5
129F
330
2550
100
AcDbEntity
  8
1
  6
Continuous
100
AcDbLine
 10
374.8883064061607
 20
124.1030902658847
 30
0.0
 11
378.3883064061561
 21
124.1030902658794
 31
0.0
  0
ARC
  5
12A0
330
2550
100
AcDbEntity
  8
1
  6
Continuous
100
AcDbCircle
 10
378.3883064061546
 20
123.1030902658794
 30
0.0
 40
1.0
100
AcDbArc
 50
0.000000000000007
 51
89.99999999991372
  0
LINE
  5
12A1
330
2550
100
AcDbEntity
  8
1
  6
Continuous
100
AcDbLine
 10
379.3883064061546
 20
119.1030902659319
 30
0.0
 11
379.3883064061546
 21
123.1030902658794
 31
0.0
  0
ARC
  5
12A2
330
2550
100
AcDbEntity
  8
1
  6
Continuous
100
AcDbCircle
 10
378.3883064061545
 20
119.1030902659319
 30
0.0
 40
1.0
100
AcDbArc
 50
270.0
 51
0.000000000000007
  0
LINE
  5
12A3
330
2550
100
AcDbEntity
  8
1
  6
Continuous
100
AcDbLine
 10
374.8883064061569
 20
118.1030902659318
 30
0.0
 11
378.3883064061546
 21
118.1030902659318
 31
0.0
  0
LINE
  5
12A5
330
2550
100
AcDbEntity
  8
1
  6
Continuous
100
AcDbLine
 10
374.3883064061503
 20
148.1030902659521
 30
0.0
 11
373.9883064061544
 21
148.1030902659521
 31
0.0
  0
LINE
  5
1341
330
2550
100
AcDbEntity
  8
1
  6
Continuous
100
AcDbLine
 10
201.7786439233117
 20
231.6328353498005
 30
0.0
 11
201.7786439233326
 21
225.8337972440922
 31
0.0
  0
LINE
  5
1342
330
2550
100
AcDbEntity
  8
4
  6
CENTER
100
AcDbLine
 10
191.7786439233508
 20
234.6328353497631
 30
0.0
 11
191.7786439233508
 21
220.833797244085
 31
0.0
  0
LINE
  5
1343
330
2550
100
AcDbEntity
  8
1
  6
Continuous
100
AcDbLine
 10
181.7786439233119
 20
231.6328353497689
 30
0.0
 11
181.7786439233327
 21
225.8337972440779
 31
0.0
  0
LINE
  5
1357
330
2550
100
AcDbEntity
  8
1
  6
Continuous
100
AcDbLine
 10
201.7786439233117
 20
231.6328353498005
 30
0.0
 11
181.7786439233119
 21
231.6328353497689
 31
0.0
  0
LINE
  5
1358
330
2550
100
AcDbEntity
  8
1
  6
Continuous
100
AcDbLine
 10
199.778643923328
 20
225.132835349759
 30
0.0
 11
183.778643923328
 21
225.1328353497588
 31
0.0
  0
LINE
  5
1359
330
2550
100
AcDbEntity
  8
1
  6
Continuous
100
AcDbLine
 10
199.7786439233326
 20
223.833797244085
 30
0.0
 11
183.7786439233327
 21
223.833797244085
 31
0.0
  0
ARC
  5
135E
330
2550
100
AcDbEntity
  8
1
  6
Continuous
100
AcDbCircle
 10
199.778643923328
 20
227.132835349759
 30
0.0
 40
2.0
100
AcDbArc
 50
270.0
 51
0.0000000002063798
  0
ARC
  5
135F
330
2550
100
AcDbEntity
  8
1
  6
Continuous
100
AcDbCircle
 10
199.7786439233326
 20
225.833797244085
 30
0.0
 40
2.0
100
AcDbArc
 50
270.0
 51
0.0000000002062653
  0
ARC
  5
1360
330
2550
100
AcDbEntity
  8
1
  6
Continuous
100
AcDbCircle
 10
183.778643923328
 20
227.1328353497588
 30
0.0
 40
2.0
100
AcDbArc
 50
180.0000000002058
 51
270.0
  0
ARC
  5
1361
330
2550
100
AcDbEntity
  8
1
  6
Continuous
100
AcDbCircle
 10
183.7786439233327
 20
225.833797244085
 30
0.0
 40
2.0
100
AcDbArc
 50
180.0000000002054
 51
270.0000000000001
  0
LINE
  5
1362
330
2550
100
AcDbEntity
  8
4
  6
CENTER
100
AcDbLine
 10
196.7786439233518
 20
228.1328353497926
 30
0.0
 11
196.7786439233518
 21
233.6328353497926
 31
0.0
  0
LINE
  5
1364
330
2550
100
AcDbEntity
  8
4
  6
CENTER
100
AcDbLine
 10
186.7786439233498
 20
228.1328353497926
 30
0.0
 11
186.7786439233498
 21
233.6328353497926
 31
0.0
  0
LINE
  5
1365
330
2550
100
AcDbEntity
  8
1
  6
Continuous
100
AcDbLine
 10
200.7786439233261
 20
227.6328353497741
 30
0.0
 11
182.7786439233262
 21
227.6328353497742
 31
0.0
  0
LINE
  5
1367
330
2550
100
AcDbEntity
  8
1
  6
Continuous
100
AcDbLine
 10
199.7786439233326
 20
45.37238328775359
 30
0.0
 11
183.7786439233327
 21
45.37238328775359
 31
0.0
  0
LINE
  5
136A
330
2550
100
AcDbEntity
  8
1
  6
Continuous
100
AcDbLine
 10
201.7786439233117
 20
37.57334518203805
 30
0.0
 11
181.7786439233119
 21
37.5733451820697
 31
0.0
  0
ARC
  5
136B
330
2550
100
AcDbEntity
  8
1
  6
Continuous
100
AcDbCircle
 10
183.7786439233327
 20
43.37238328775359
 30
0.0
 40
2.0
100
AcDbArc
 50
89.99999999999991
 51
179.9999999997944
  0
LINE
  5
136D
330
2550
100
AcDbEntity
  8
1
  6
Continuous
100
AcDbLine
 10
181.7786439233119
 20
37.5733451820697
 30
0.0
 11
181.7786439233327
 21
43.37238328776074
 31
0.0
  0
LINE
  5
136E
330
2550
100
AcDbEntity
  8
4
  6
CENTER
100
AcDbLine
 10
191.7786439233508
 20
34.57334518207551
 30
0.0
 11
191.7786439233508
 21
48.37238328775356
 31
0.0
  0
LINE
  5
136F
330
2550
100
AcDbEntity
  8
4
  6
CENTER
100
AcDbLine
 10
186.7786439233498
 20
41.073345182046
 30
0.0
 11
186.7786439233498
 21
35.57334518204601
 31
0.0
  0
LINE
  5
1370
330
2550
100
AcDbEntity
  8
4
  6
CENTER
100
AcDbLine
 10
196.7786439233518
 20
41.073345182046
 30
0.0
 11
196.7786439233518
 21
35.57334518204601
 31
0.0
  0
LINE
  5
1371
330
2550
100
AcDbEntity
  8
1
  6
Continuous
100
AcDbLine
 10
201.7786439233117
 20
37.57334518203805
 30
0.0
 11
201.7786439233326
 21
43.3723832877464
 31
0.0
  0
ARC
  5
1372
330
2550
100
AcDbEntity
  8
1
  6
Continuous
100
AcDbCircle
 10
199.7786439233326
 20
43.37238328775359
 30
0.0
 40
2.0
100
AcDbArc
 50
359.9999999997937
 51
90.00000000000005
  0
LINE
  5
1385
330
2550
100
AcDbEntity
  8
1
  6
Continuous
100
AcDbLine
 10
201.7786439233117
 20
39.07334518203805
 30
0.0
 11
181.7786439233119
 21
39.0733451820697
 31
0.0
  0
LINE
  5
1391
330
2550
100
AcDbEntity
  8
1
  6
Continuous
100
AcDbLine
 10
200.7786439233293
 20
42.43937058583893
 30
0.0
 11
182.7786439233293
 21
42.43937058583893
 31
0.0
  0
LINE
  5
13CF
330
2550
100
AcDbEntity
  8
1
  6
Continuous
100
AcDbLine
 10
131.9786439233473
 20
231.6328353498152
 30
0.0
 11
151.5786439233504
 21
231.632835349846
 31
0.0
  0
LINE
  5
1437
330
2550
100
AcDbEntity
  8
4
  6
CENTER
100
AcDbLine
 10
141.7786439233508
 20
215.4230644007075
 30
0.0
 11
141.7786439233508
 21
234.8416802296068
 31
0.0
  0
LINE
  5
143A
330
2550
100
AcDbEntity
  8
1
  6
Continuous
100
AcDbLine
 10
154.7786439233911
 20
231.0328353498221
 30
0.0
 11
155.7786439233913
 21
231.0328353498221
 31
0.0
  0
LINE
  5
143B
330
2550
100
AcDbEntity
  8
1
  6
Continuous
100
AcDbLine
 10
151.7786439233508
 20
224.6328353499369
 30
0.0
 11
155.7786439233723
 21
224.6328353499375
 31
0.0
  0
ARC
  5
143C
330
2550
100
AcDbEntity
  8
1
  6
Continuous
100
AcDbCircle
 10
153.7786439233696
 20
222.3328353498219
 30
0.0
 40
2.0
100
AcDbArc
 50
270.0
 51
0.0
  0
LINE
  5
143D
330
2550
100
AcDbEntity
  8
1
  6
Continuous
100
AcDbLine
 10
154.7786439233753
 20
224.6328353498298
 30
0.0
 11
154.7786439233911
 21
231.0328353498646
 31
0.0
  0
LINE
  5
143E
330
2550
100
AcDbEntity
  8
1
  6
Continuous
100
AcDbLine
 10
128.778643923321
 20
224.6328353498298
 30
0.0
 11
128.7786439233213
 21
231.0328353498039
 31
0.0
  0
LINE
  5
143F
330
2550
100
AcDbEntity
  8
1
  6
Continuous
100
AcDbLine
 10
127.7786439233209
 20
222.1328353499374
 30
0.0
 11
127.7786439233212
 21
231.0328353498039
 31
0.0
  0
LINE
  5
1440
330
2550
100
AcDbEntity
  8
1
  6
Continuous
100
AcDbLine
 10
127.7786439233213
 20
231.0328353498188
 30
0.0
 11
128.7786439233213
 21
231.0328353498189
 31
0.0
  0
LINE
  5
1442
330
2550
100
AcDbEntity
  8
1
  6
Continuous
100
AcDbLine
 10
134.2971644228754
 20
224.6328353498298
 30
0.0
 11
149.3291448709684
 21
224.6328353498298
 31
0.0
  0
LINE
  5
1443
330
2550
100
AcDbEntity
  8
1
  6
Continuous
100
AcDbLine
 10
133.7786439233508
 20
228.8199937855564
 30
0.0
 11
149.7786439233508
 21
228.8199937855564
 31
0.0
  0
LINE
  5
1444
330
2550
100
AcDbEntity
  8
1
  6
Continuous
100
AcDbLine
 10
129.7786439233212
 20
220.3328353498191
 30
0.0
 11
153.7786439233699
 21
220.332835349822
 31
0.0
  0
LINE
  5
1445
330
2550
100
AcDbEntity
  8
1
  6
Continuous
100
AcDbLine
 10
131.7786439233508
 20
224.6328353498298
 30
0.0
 11
131.7786439233508
 21
226.8199937855564
 31
0.0
  0
LINE
  5
1447
330
2550
100
AcDbEntity
  8
1
  6
Continuous
100
AcDbLine
 10
128.7786439233216
 20
229.0328353498189
 30
0.0
 11
129.8893423249652
 21
227.4465936414199
 31
0.0
  0
LINE
  5
1449
330
2550
100
AcDbEntity
  8
1
  6
Continuous
100
AcDbLine
 10
129.7786439233777
 20
225.9020029071533
 30
0.0
 11
129.7594918790333
 21
225.8885925013313
 31
0.0
  0
LINE
  5
144A
330
2550
100
AcDbEntity
  8
1
  6
Continuous
100
AcDbLine
 10
128.7786439233201
 20
227.2893885542
 30
0.0
 11
129.7594918790333
 21
225.8885925013312
 31
0.0
  0
ARC
  5
144B
330
2550
100
AcDbEntity
  8
1
  6
Continuous
100
AcDbCircle
 10
133.7786439233507
 20
226.8199937855564
 30
0.0
 40
2.0
100
AcDbArc
 50
89.99999999999998
 51
180.0
  0
LINE
  5
144C
330
2550
100
AcDbEntity
  8
1
  6
Continuous
100
AcDbLine
 10
127.778643923321
 20
224.632835349934
 30
0.0
 11
131.7786439233508
 21
224.6328353499344
 31
0.0
  0
ARC
  5
144E
330
2550
100
AcDbEntity
  8
1
  6
Continuous
100
AcDbCircle
 10
129.7786439233209
 20
222.3328353498191
 30
0.0
 40
2.0
100
AcDbArc
 50
180.0
 51
270.0
  0
LINE
  5
1450
330
2550
100
AcDbEntity
  8
1
  6
Continuous
100
AcDbLine
 10
151.7786439233508
 20
224.6328353498298
 30
0.0
 11
151.7786439233508
 21
226.8199937855564
 31
0.0
  0
LINE
  5
1452
330
2550
100
AcDbEntity
  8
1
  6
Continuous
100
AcDbLine
 10
154.7786439233805
 20
229.0328353498189
 30
0.0
 11
152.9786439233799
 21
226.4621689376823
 31
0.0
  0
ARC
  5
1453
330
2550
100
AcDbEntity
  8
1
  6
Continuous
100
AcDbCircle
 10
149.7786439233507
 20
226.8199937855564
 30
0.0
 40
2.0
100
AcDbArc
 50
0.0
 51
89.99999999999998
  0
LINE
  5
1454
330
2550
100
AcDbEntity
  8
1
  6
Continuous
100
AcDbLine
 10
154.7786439233821
 20
227.2893885542
 30
0.0
 11
153.7977959676688
 21
225.8885925013311
 31
0.0
  0
LINE
  5
1455
330
2550
100
AcDbEntity
  8
1
  6
Continuous
100
AcDbLine
 10
152.9786439233799
 20
226.4621689376823
 30
0.0
 11
153.7977959676688
 21
225.8885925013313
 31
0.0
  0
LINE
  5
1458
330
2550
100
AcDbEntity
  8
1
  6
Continuous
100
AcDbLine
 10
155.7786439233678
 20
221.6328353499374
 30
0.0
 11
155.7786439233912
 21
231.0328353498621
 31
0.0
  0
ARC
  5
14C6
330
2550
100
AcDbEntity
  8
1
  6
Continuous
100
AcDbCircle
 10
154.7786439233779
 20
224.6328353499375
 30
0.0
 40
2.499999999997498
100
AcDbArc
 50
306.8698976458485
 51
53.1301023542224
  0
LINE
  5
14C7
330
2550
100
AcDbEntity
  8
1
  6
Continuous
100
AcDbLine
 10
155.7786439233734
 20
227.6328353499375
 30
0.0
 11
156.2786439233734
 21
227.6328353499375
 31
0.0
  0
LINE
  5
14C8
330
2550
100
AcDbEntity
  8
1
  6
Continuous
100
AcDbLine
 10
155.7786439233772
 20
221.6328353499374
 30
0.0
 11
156.2786439233772
 21
221.6328353499374
 31
0.0
  0
LINE
  5
14C9
330
2550
100
AcDbEntity
  8
1
  6
Continuous
100
AcDbLine
 10
156.2786439233734
 20
227.6328353499375
 30
0.0
 11
156.2786439233772
 21
221.6328353499374
 31
0.0
  0
ARC
  5
14CA
330
2550
100
AcDbEntity
  8
1
  6
Continuous
100
AcDbCircle
 10
127.2786439233735
 20
227.1328353499375
 30
0.0
 40
0.4999999999996823
100
AcDbArc
 50
0.0
 51
180.0
  0
ARC
  5
14CB
330
2550
100
AcDbEntity
  8
1
  6
Continuous
100
AcDbCircle
 10
127.2786439233773
 20
222.1328353499375
 30
0.0
 40
0.4999999999997102
100
AcDbArc
 50
180.0
 51
0.0
  0
LINE
  5
14CC
330
2550
100
AcDbEntity
  8
1
  6
Continuous
100
AcDbLine
 10
126.7786439233739
 20
227.132835349937
 30
0.0
 11
126.778643923377
 21
222.132835349937
 31
0.0
  0
LINE
  5
14CD
330
2550
100
AcDbEntity
  8
4
  6
CENTER
100
AcDbLine
 10
124.7786439233755
 20
224.6328353499375
 30
0.0
 11
159.2786439233754
 21
224.6328353499375
 31
0.0
  0
LINE
  5
157A
330
2550
100
AcDbEntity
  8
1
  6
Continuous
100
AcDbLine
 10
130.7786439233456
 20
224.6328353499375
 30
0.0
 11
130.7786439233492
 21
230.4328353498159
 31
0.0
  0
LINE
  5
157C
330
2550
100
AcDbEntity
  8
1
  6
Continuous
100
AcDbLine
 10
149.2786439233507
 20
228.8199937855564
 30
0.0
 11
149.2786439233508
 21
231.6328353498424
 31
0.0
  0
LINE
  5
157D
330
2550
100
AcDbEntity
  8
1
  6
Continuous
100
AcDbLine
 10
134.2786439233508
 20
228.8199937855564
 30
0.0
 11
134.2786439233508
 21
231.6328353498187
 31
0.0
  0
LINE
  5
157E
330
2550
100
AcDbEntity
  8
1
  6
Continuous
100
AcDbLine
 10
131.9786439233491
 20
230.4328353498231
 30
0.0
 11
134.2786439233508
 21
230.4328353498268
 31
0.0
  0
LINE
  5
157F
330
2550
100
AcDbEntity
  8
1
  6
Continuous
100
AcDbLine
 10
131.9786439233474
 20
227.6917735742578
 30
0.0
 11
131.9786439233491
 21
230.4328353498231
 31
0.0
  0
ARC
  5
1581
330
2550
100
AcDbEntity
  8
1
  6
Continuous
100
AcDbCircle
 10
131.9786439233492
 20
230.4328353498151
 30
0.0
 40
1.199999999999999
100
AcDbArc
 50
90.00000000009036
 51
179.9999999999642
  0
ARC
  5
1583
330
2550
100
AcDbEntity
  8
1
  6
Continuous
100
AcDbCircle
 10
130.2786439233786
 20
227.13283534994
 30
0.0
 40
0.4999999999997196
100
AcDbArc
 50
0.0
 51
180.0
  0
LINE
  5
1584
330
2550
100
AcDbEntity
  8
1
  6
Continuous
100
AcDbLine
 10
129.7786439233769
 20
224.6328353499342
 30
0.0
 11
129.7786439233784
 21
227.1328353499403
 31
0.0
  0
LINE
  5
1588
330
2550
100
AcDbEntity
  8
1
  6
Continuous
100
AcDbLine
 10
151.5786439233523
 20
230.4328353498231
 30
0.0
 11
149.2786439233507
 21
230.4328353498268
 31
0.0
  0
LINE
  5
1589
330
2550
100
AcDbEntity
  8
1
  6
Continuous
100
AcDbLine
 10
151.5786439233541
 20
227.6917735742578
 30
0.0
 11
151.5786439233523
 21
230.4328353498231
 31
0.0
  0
ARC
  5
158A
330
2550
100
AcDbEntity
  8
1
  6
Continuous
100
AcDbCircle
 10
151.5786439233523
 20
230.4328353498151
 30
0.0
 40
1.199999999999999
100
AcDbArc
 50
0.0000000000357056
 51
89.9999999999096
  0
LINE
  5
158B
330
2550
100
AcDbEntity
  8
1
  6
Continuous
100
AcDbLine
 10
152.778643923356
 20
224.6328353499375
 30
0.0
 11
152.7786439233523
 21
230.4328353498159
 31
0.0
  0
LINE
  5
158D
330
2550
100
AcDbEntity
  8
1
  6
Continuous
100
AcDbLine
 10
154.6786439233509
 20
229.8328353499374
 30
0.0
 11
154.6786439233509
 21
228.8900205491023
 31
0.0
  0
LINE
  5
158E
330
2550
100
AcDbEntity
  8
1
  6
Continuous
100
AcDbLine
 10
150.8786439233464
 20
229.8328353499374
 30
0.0
 11
151.5786439233527
 21
229.8328353499374
 31
0.0
  0
LINE
  5
158F
330
2550
100
AcDbEntity
  8
1
  6
Continuous
100
AcDbLine
 10
150.6233956398053
 20
228.6328353499374
 30
0.0
 11
151.5786439233535
 21
228.6328353499375
 31
0.0
  0
LINE
  5
1591
330
2550
100
AcDbEntity
  8
1
  6
Continuous
100
AcDbLine
 10
150.878643923351
 20
228.4903230944053
 30
0.0
 11
150.878643923351
 21
228.6328353499374
 31
0.0
  0
ARC
  5
1594
330
2550
100
AcDbEntity
  8
1
  6
Continuous
100
AcDbCircle
 10
150.8786439233464
 20
228.6328353499374
 30
0.0
 40
1.199999999999999
100
AcDbArc
 50
90.0
 51
171.0272115759688
  0
LINE
  5
1595
330
2550
100
AcDbEntity
  8
1
  6
Continuous
100
AcDbLine
 10
152.7786439233527
 20
229.8328353499374
 30
0.0
 11
154.6786439233509
 21
229.8328353499374
 31
0.0
  0
LINE
  5
1596
330
2550
100
AcDbEntity
  8
1
  6
Continuous
100
AcDbLine
 10
152.7786439233535
 20
228.6328353499375
 30
0.0
 11
154.4985609081797
 21
228.6328353499374
 31
0.0
  0
LINE
  5
1597
330
2550
100
AcDbEntity
  8
1
  6
Continuous
100
AcDbLine
 10
128.8786439233506
 20
229.8328353499374
 30
0.0
 11
128.8786439233506
 21
228.8900205491023
 31
0.0
  0
LINE
  5
1598
330
2550
100
AcDbEntity
  8
1
  6
Continuous
100
AcDbLine
 10
130.7786439233488
 20
229.8328353499374
 30
0.0
 11
128.8786439233506
 21
229.8328353499374
 31
0.0
  0
LINE
  5
1599
330
2550
100
AcDbEntity
  8
1
  6
Continuous
100
AcDbLine
 10
130.7786439233481
 20
228.6328353499375
 30
0.0
 11
129.0587269385218
 21
228.6328353499374
 31
0.0
  0
LINE
  5
159A
330
2550
100
AcDbEntity
  8
1
  6
Continuous
100
AcDbLine
 10
132.9338922068963
 20
228.6328353499374
 30
0.0
 11
131.978643923348
 21
228.6328353499375
 31
0.0
  0
LINE
  5
159B
330
2550
100
AcDbEntity
  8
1
  6
Continuous
100
AcDbLine
 10
132.6786439233551
 20
229.8328353499374
 30
0.0
 11
131.9786439233488
 21
229.8328353499374
 31
0.0
  0
ARC
  5
159C
330
2550
100
AcDbEntity
  8
1
  6
Continuous
100
AcDbCircle
 10
132.6786439233551
 20
228.6328353499374
 30
0.0
 40
1.199999999999999
100
AcDbArc
 50
8.972788424031104
 51
90.0
  0
LINE
  5
159D
330
2550
100
AcDbEntity
  8
1
  6
Continuous
100
AcDbLine
 10
132.6786439233505
 20
228.4903230944053
 30
0.0
 11
132.6786439233506
 21
228.6328353499374
 31
0.0
  0
LINE
  5
15A5
330
2550
100
AcDbEntity
  8
4
  6
CENTER
100
AcDbLine
 10
124.7786439233755
 20
44.57334518190115
 30
0.0
 11
159.2786439233754
 21
44.57334518190115
 31
0.0
  0
LINE
  5
15A6
330
2550
100
AcDbEntity
  8
1
  6
Continuous
100
AcDbLine
 10
134.2971644228754
 20
44.57334518200879
 30
0.0
 11
149.3291448709684
 21
44.57334518200879
 31
0.0
  0
LINE
  5
15A7
330
2550
100
AcDbEntity
  8
1
  6
Continuous
100
AcDbLine
 10
133.7786439233508
 20
40.38618674628208
 30
0.0
 11
149.7786439233508
 21
40.38618674628208
 31
0.0
  0
LINE
  5
15A8
330
2550
100
AcDbEntity
  8
1
  6
Continuous
100
AcDbLine
 10
129.7786439233212
 20
48.87334518201956
 30
0.0
 11
153.7786439233699
 21
48.87334518201662
 31
0.0
  0
LINE
  5
15A9
330
2550
100
AcDbEntity
  8
1
  6
Continuous
100
AcDbLine
 10
131.9786439233473
 20
37.57334518202351
 30
0.0
 11
151.5786439233504
 21
37.57334518199257
 31
0.0
  0
LINE
  5
15AA
330
2550
100
AcDbEntity
  8
1
  6
Continuous
100
AcDbLine
 10
128.778643923321
 20
44.57334518200879
 30
0.0
 11
128.7786439233213
 21
38.17334518203472
 31
0.0
  0
ARC
  5
15AB
330
2550
100
AcDbEntity
  8
1
  6
Continuous
100
AcDbCircle
 10
133.7786439233507
 20
42.38618674628209
 30
0.0
 40
2.0
100
AcDbArc
 50
180.0
 51
270.0
  0
LINE
  5
15AC
330
2550
100
AcDbEntity
  8
1
  6
Continuous
100
AcDbLine
 10
127.7786439233209
 20
47.07334518190116
 30
0.0
 11
127.7786439233212
 21
38.17334518203472
 31
0.0
  0
LINE
  5
15AD
330
2550
100
AcDbEntity
  8
1
  6
Continuous
100
AcDbLine
 10
130.7786439233465
 20
43.07334518190841
 30
0.0
 11
130.7786439233481
 21
40.57334518190103
 31
0.0
  0
LINE
  5
15AE
330
2550
100
AcDbEntity
  8
1
  6
Continuous
100
AcDbLine
 10
131.9786439233474
 20
41.51440695758083
 30
0.0
 11
131.9786439233481
 21
40.57334518190112
 31
0.0
  0
LINE
  5
15AF
330
2550
100
AcDbEntity
  8
1
  6
Continuous
100
AcDbLine
 10
128.7786439233216
 20
40.1733451820197
 30
0.0
 11
128.8786439233506
 21
40.31615998273547
 31
0.0
  0
ARC
  5
15B0
330
2550
100
AcDbEntity
  8
1
  6
Continuous
100
AcDbCircle
 10
127.2786439233735
 20
42.07334518190115
 30
0.0
 40
0.4999999999996823
100
AcDbArc
 50
180.0
 51
0.0
  0
ARC
  5
15B1
330
2550
100
AcDbEntity
  8
1
  6
Continuous
100
AcDbCircle
 10
127.2786439233773
 20
47.07334518190115
 30
0.0
 40
0.4999999999997102
100
AcDbArc
 50
0.0
 51
180.0
  0
LINE
  5
15B2
330
2550
100
AcDbEntity
  8
1
  6
Continuous
100
AcDbLine
 10
126.7786439233739
 20
42.07334518190157
 30
0.0
 11
126.778643923377
 21
47.07334518190157
 31
0.0
  0
LINE
  5
15B3
330
2550
100
AcDbEntity
  8
1
  6
Continuous
100
AcDbLine
 10
128.7786439233201
 20
41.9167919776386
 30
0.0
 11
129.5884711952893
 21
43.07334518190679
 31
0.0
  0
LINE
  5
15B4
330
2550
100
AcDbEntity
  8
1
  6
Continuous
100
AcDbLine
 10
131.7786439233508
 20
44.57334518200879
 30
0.0
 11
131.7786439233508
 21
42.38618674628209
 31
0.0
  0
LINE
  5
15B5
330
2550
100
AcDbEntity
  8
1
  6
Continuous
100
AcDbLine
 10
127.778643923321
 20
44.57334518190461
 30
0.0
 11
131.7786439233508
 21
44.57334518190415
 31
0.0
  0
ARC
  5
15B6
330
2550
100
AcDbEntity
  8
1
  6
Continuous
100
AcDbCircle
 10
130.2786439233786
 20
42.07334518189863
 30
0.0
 40
0.4999999999997196
100
AcDbArc
 50
218.8671372647442
 51
0.0
  0
ARC
  5
15B9
330
2550
100
AcDbEntity
  8
1
  6
Continuous
100
AcDbCircle
 10
129.7786439233209
 20
46.87334518201955
 30
0.0
 40
2.0
100
AcDbArc
 50
90.00000000000005
 51
180.0
  0
LINE
  5
15BA
330
2550
100
AcDbEntity
  8
1
  6
Continuous
100
AcDbLine
 10
127.7786439233213
 20
38.17334518201983
 30
0.0
 11
128.7786439233213
 21
38.1733451820197
 31
0.0
  0
LINE
  5
15BB
330
2550
100
AcDbEntity
  8
1
  6
Continuous
100
AcDbLine
 10
134.2786439233508
 20
40.38618674628208
 30
0.0
 11
134.2786439233508
 21
38.77334518198768
 31
0.0
  0
ARC
  5
15BD
330
2550
100
AcDbEntity
  8
1
  6
Continuous
100
AcDbCircle
 10
131.9786439233492
 20
38.77334518202349
 30
0.0
 40
1.199999999999999
100
AcDbArc
 50
180.0000000000357
 51
269.9999999999096
  0
LINE
  5
15BE
330
2550
100
AcDbEntity
  8
1
  6
Continuous
100
AcDbLine
 10
128.8786439233506
 20
39.37334518190117
 30
0.0
 11
128.8786439233506
 21
40.57334518190119
 31
0.0
  0
LINE
  5
15C1
330
2550
100
AcDbEntity
  8
1
  6
Continuous
100
AcDbLine
 10
132.6786439233506
 20
40.57334518190113
 30
0.0
 11
128.8786439233506
 21
40.5733451819009
 31
0.0
  0
LINE
  5
15C2
330
2550
100
AcDbEntity
  8
1
  6
Continuous
100
AcDbLine
 10
132.6786439233551
 20
39.37334518190117
 30
0.0
 11
128.8786439233506
 21
39.37334518190117
 31
0.0
  0
ARC
  5
15C3
330
2550
100
AcDbEntity
  8
1
  6
Continuous
100
AcDbCircle
 10
132.6786439233551
 20
40.57334518190117
 30
0.0
 40
1.199999999999999
100
AcDbArc
 50
270.0
 51
351.0272115759688
  0
LINE
  5
15C4
330
2550
100
AcDbEntity
  8
1
  6
Continuous
100
AcDbLine
 10
132.6786439233505
 20
40.71585743743327
 30
0.0
 11
132.6786439233506
 21
40.57334518190117
 31
0.0
  0
LINE
  5
15C5
330
2550
100
AcDbEntity
  8
1
  6
Continuous
100
AcDbLine
 10
155.7786439233678
 20
47.57334518190114
 30
0.0
 11
155.7786439233912
 21
38.17334518197651
 31
0.0
  0
LINE
  5
15C6
330
2550
100
AcDbEntity
  8
1
  6
Continuous
100
AcDbLine
 10
154.7786439233753
 20
44.57334518200879
 30
0.0
 11
154.7786439233911
 21
38.17334518197401
 31
0.0
  0
LINE
  5
15C7
330
2550
100
AcDbEntity
  8
1
  6
Continuous
100
AcDbLine
 10
154.4985609081798
 20
40.57334518190095
 30
0.0
 11
152.9786439233799
 21
42.74401159415631
 31
0.0
  0
LINE
  5
15C8
330
2550
100
AcDbEntity
  8
1
  6
Continuous
100
AcDbLine
 10
151.5786439233541
 20
41.51440695758083
 30
0.0
 11
151.5786439233535
 21
40.57334518190112
 31
0.0
  0
LINE
  5
15C9
330
2550
100
AcDbEntity
  8
1
  6
Continuous
100
AcDbLine
 10
152.7786439233551
 20
43.07334518193822
 30
0.0
 11
152.7786439233535
 21
40.57334518190105
 31
0.0
  0
ARC
  5
15CA
330
2550
100
AcDbEntity
  8
1
  6
Continuous
100
AcDbCircle
 10
149.7786439233507
 20
42.38618674628209
 30
0.0
 40
2.0
100
AcDbArc
 50
270.0
 51
0.0
  0
LINE
  5
15CB
330
2550
100
AcDbEntity
  8
4
  6
CENTER
100
AcDbLine
 10
141.7786439233508
 20
53.78311613113112
 30
0.0
 11
141.7786439233508
 21
34.36450030223169
 31
0.0
  0
ARC
  5
15CC
330
2550
100
AcDbEntity
  8
1
  6
Continuous
100
AcDbCircle
 10
154.7786439233779
 20
44.57334518190115
 30
0.0
 40
2.499999999997498
100
AcDbArc
 50
306.8698976457775
 51
53.13010235415141
  0
LINE
  5
15CD
330
2550
100
AcDbEntity
  8
1
  6
Continuous
100
AcDbLine
 10
155.7786439233734
 20
41.57334518190113
 30
0.0
 11
156.2786439233734
 21
41.57334518190113
 31
0.0
  0
LINE
  5
15CE
330
2550
100
AcDbEntity
  8
1
  6
Continuous
100
AcDbLine
 10
155.7786439233772
 20
47.57334518190114
 30
0.0
 11
156.2786439233772
 21
47.57334518190114
 31
0.0
  0
LINE
  5
15CF
330
2550
100
AcDbEntity
  8
1
  6
Continuous
100
AcDbLine
 10
156.2786439233734
 20
41.57334518190113
 30
0.0
 11
156.2786439233743
 21
43.07334518190609
 31
0.0
  0
LINE
  5
15D0
330
2550
100
AcDbEntity
  8
1
  6
Continuous
100
AcDbLine
 10
151.7786439233508
 20
44.57334518200879
 30
0.0
 11
151.7786439233508
 21
42.38618674628209
 31
0.0
  0
LINE
  5
15D1
330
2550
100
AcDbEntity
  8
1
  6
Continuous
100
AcDbLine
 10
152.9786439233799
 20
42.74401159415631
 30
0.0
 11
153.4489810303251
 21
43.07334518193913
 31
0.0
  0
LINE
  5
15D2
330
2550
100
AcDbEntity
  8
1
  6
Continuous
100
AcDbLine
 10
154.7786439233821
 20
41.9167919776386
 30
0.0
 11
153.9688166513898
 21
43.07334518193984
 31
0.0
  0
LINE
  5
15D3
330
2550
100
AcDbEntity
  8
1
  6
Continuous
100
AcDbLine
 10
151.7786439233508
 20
44.57334518190164
 30
0.0
 11
155.7786439233723
 21
44.57334518190115
 31
0.0
  0
ARC
  5
15D4
330
2550
100
AcDbEntity
  8
1
  6
Continuous
100
AcDbCircle
 10
153.7786439233696
 20
46.87334518201671
 30
0.0
 40
2.0
100
AcDbArc
 50
0.0
 51
90.00000000000005
  0
LINE
  5
15D5
330
2550
100
AcDbEntity
  8
1
  6
Continuous
100
AcDbLine
 10
151.5786439233523
 20
38.77334518201547
 30
0.0
 11
131.9786439233493
 21
38.77334518198398
 31
0.0
  0
ARC
  5
15D6
330
2550
100
AcDbEntity
  8
1
  6
Continuous
100
AcDbCircle
 10
150.8786439233464
 20
40.57334518190117
 30
0.0
 40
1.199999999999999
100
AcDbArc
 50
188.972788424031
 51
270.0
  0
LINE
  5
15D7
330
2550
100
AcDbEntity
  8
1
  6
Continuous
100
AcDbLine
 10
149.2786439233507
 20
40.38618674628208
 30
0.0
 11
149.2786439233507
 21
38.77334518201177
 31
0.0
  0
LINE
  5
15D8
330
2550
100
AcDbEntity
  8
1
  6
Continuous
100
AcDbLine
 10
154.7786439233911
 20
38.17334518201653
 30
0.0
 11
155.7786439233913
 21
38.17334518201642
 31
0.0
  0
ARC
  5
15D9
330
2550
100
AcDbEntity
  8
1
  6
Continuous
100
AcDbCircle
 10
151.5786439233523
 20
38.77334518202349
 30
0.0
 40
1.199999999999999
100
AcDbArc
 50
270.0000000000903
 51
359.9999999999643
  0
LINE
  5
15DA
330
2550
100
AcDbEntity
  8
1
  6
Continuous
100
AcDbLine
 10
150.878643923351
 20
40.71585743743327
 30
0.0
 11
150.878643923351
 21
40.57334518190117
 31
0.0
  0
LINE
  5
15DC
330
2550
100
AcDbEntity
  8
1
  6
Continuous
100
AcDbLine
 10
150.8786439233464
 20
39.37334518190117
 30
0.0
 11
154.6786439233509
 21
39.37334518190117
 31
0.0
  0
LINE
  5
15DD
330
2550
100
AcDbEntity
  8
1
  6
Continuous
100
AcDbLine
 10
150.878643923351
 20
40.57334518190113
 30
0.0
 11
154.6786439233509
 21
40.57334518190095
 31
0.0
  0
LINE
  5
15DE
330
2550
100
AcDbEntity
  8
1
  6
Continuous
100
AcDbLine
 10
154.6786439233509
 20
39.37334518190117
 30
0.0
 11
154.6786439233509
 21
40.57334518190095
 31
0.0
  0
LINE
  5
15EC
330
2550
100
AcDbEntity
  8
1
  6
Continuous
100
AcDbLine
 10
150.1786439233518
 20
38.77334518201323
 30
0.0
 11
150.1786439233526
 21
37.57334518199479
 31
0.0
  0
LINE
  5
15ED
330
2550
100
AcDbEntity
  8
1
  6
Continuous
100
AcDbLine
 10
133.3786439233518
 20
38.77334518198623
 30
0.0
 11
133.3786439233526
 21
37.5733451820213
 31
0.0
  0
LINE
  5
15EF
330
2550
100
AcDbEntity
  8
1
  6
Continuous
100
AcDbLine
 10
129.0587269385224
 20
40.57334518190117
 30
0.0
 11
130.578643923322
 21
42.74401159415606
 31
0.0
  0
LINE
  5
15F0
330
2550
100
AcDbEntity
  8
1
  6
Continuous
100
AcDbLine
 10
130.7786439233489
 20
39.37334518190117
 30
0.0
 11
130.7786439233492
 21
38.77334518202275
 31
0.0
  0
LINE
  5
15F1
330
2550
100
AcDbEntity
  8
1
  6
Continuous
100
AcDbLine
 10
131.9786439233488
 20
39.37334518190117
 30
0.0
 11
131.9786439233491
 21
38.77334518201547
 31
0.0
  0
LINE
  5
15F2
330
2550
100
AcDbEntity
  8
1
  6
Continuous
100
AcDbLine
 10
130.5786439233214
 20
42.74401159415631
 30
0.0
 11
130.1083068164215
 21
43.07334518190751
 31
0.0
  0
LINE
  5
15F4
330
2550
100
AcDbEntity
  8
1
  6
Continuous
100
AcDbLine
 10
152.7786439233527
 20
39.37334518190117
 30
0.0
 11
152.7786439233523
 21
38.77334518202275
 31
0.0
  0
LINE
  5
15F5
330
2550
100
AcDbEntity
  8
1
  6
Continuous
100
AcDbLine
 10
151.5786439233527
 20
39.37334518190117
 30
0.0
 11
151.5786439233523
 21
38.77334518201547
 31
0.0
  0
LINE
  5
15F6
330
2550
100
AcDbEntity
  8
1
  6
Continuous
100
AcDbLine
 10
154.77864392338
 20
40.1733451820197
 30
0.0
 11
154.6786439233509
 21
40.31615998273547
 31
0.0
  0
ARC
  5
15F8
330
2550
100
AcDbEntity
  8
1
  6
Continuous
100
AcDbCircle
 10
154.2786439233748
 20
44.5733451819025
 30
0.0
 40
2.499999999997498
100
AcDbArc
 50
306.8698976458485
 51
53.1301023542224
  0
LINE
  5
15F9
330
2550
100
AcDbEntity
  8
1
  6
Continuous
100
AcDbLine
 10
156.2786439233763
 20
46.07334518189634
 30
0.0
 11
156.2786439233772
 21
47.57334518190114
 31
0.0
  0
LINE
  5
15FB
330
2550
100
AcDbEntity
  8
1
  6
Continuous
100
AcDbLine
 10
154.7786439233791
 20
43.07334518194092
 30
0.0
 11
151.7786439233508
 21
43.07334518193687
 31
0.0
  0
LINE
  5
15FD
330
2550
100
AcDbEntity
  8
1
  6
Continuous
100
AcDbLine
 10
131.7786439233508
 20
43.07334518190978
 30
0.0
 11
128.7786439232895
 21
43.07334518190568
 31
0.0
  0
LINE
  5
15FF
330
2550
100
AcDbEntity
  8
1
  6
Continuous
100
AcDbLine
 10
154.7786439233791
 20
226.1328353498977
 30
0.0
 11
153.9688166513897
 21
226.1328353498987
 31
0.0
  0
LINE
  5
1600
330
2550
100
AcDbEntity
  8
1
  6
Continuous
100
AcDbLine
 10
153.4489810303275
 20
226.1328353498977
 30
0.0
 11
152.778643923355
 21
226.1328353498986
 31
0.0
  0
LINE
  5
1601
330
2550
100
AcDbEntity
  8
1
  6
Continuous
100
AcDbLine
 10
129.5884711953133
 20
226.1328353498976
 30
0.0
 11
128.7786439233211
 21
226.1328353498987
 31
0.0
  0
LINE
  5
169B
330
2550
100
AcDbEntity
  8
1
  6
Continuous
100
AcDbLine
 10
142.1786439233509
 20
38.77334518200038
 30
0.0
 11
142.1786439233509
 21
40.38618674628208
 31
0.0
  0
LINE
  5
169C
330
2550
100
AcDbEntity
  8
1
  6
Continuous
100
AcDbLine
 10
141.3786439233508
 20
38.77334518199909
 30
0.0
 11
141.3786439233508
 21
40.38618674628208
 31
0.0
  0
LINE
  5
1F3B
330
2550
100
AcDbEntity
  8
1
  6
Continuous
100
AcDbLine
 10
63.56582580655551
 20
111.4047590289789
 30
0.0
 11
63.56582580654714
 21
106.1030902659197
 31
0.0
  0
LINE
  5
20DB
330
2550
100
AcDbEntity
  8
1
  6
Continuous
100
AcDbLine
 10
269.9914620401461
 20
111.4047590289788
 30
0.0
 11
269.9914620401544
 21
106.1030902659197
 31
0.0
  0
LINE
  5
224A
330
2550
100
AcDbEntity
  8
4
  6
CENTER
100
AcDbLine
 10
147.5286439233481
 20
111.1030902659389
 30
0.0
 11
136.0286439233482
 21
111.1030902659389
 31
0.0
  0
LINE
  5
246B
330
2550
100
AcDbEntity
  8
4
  6
CENTER
100
AcDbLine
 10
372.2383064061519
 20
111.1030902659389
 30
0.0
 11
360.7383064061519
 21
111.1030902659389
 31
0.0
  0
ENDSEC
  0
SECTION
  2
OBJECTS
  0
DICTIONARY
  5
24ED
330
0
100
AcDbDictionary
281
     1
  3
ACAD_CIP_PREVIOUS_PRODUCT_INFO
350
256B
  3
ACAD_COLOR
350
2543
  3
ACAD_DETAILVIEWSTYLE
350
254A
  3
ACAD_GROUP
350
24EE
  3
ACAD_LAYOUT
350
2542
  3
ACAD_MATERIAL
350
24F1
  3
ACAD_MLEADERSTYLE
350
2546
  3
ACAD_MLINESTYLE
350
253F
  3
ACAD_PLOTSETTINGS
350
2541
  3
ACAD_PLOTSTYLENAME
350
24EF
  3
ACAD_SCALELIST
350
2523
  3
ACAD_SECTIONVIEWSTYLE
350
2548
  3
ACAD_TABLESTYLE
350
2544
  3
ACAD_VISUALSTYLE
350
250A
  3
ACDB_RECOMPOSE_DATA
350
2589
  3
AcDbVariableDictionary
350
257C
  3
DWGPROPS
350
258A
  0
DICTIONARY
  5
256C
330
2535
100
AcDbDictionary
280
     1
281
     1
  3
ADSK_XREC_LAYER_RECONCILED
360
256D
  0
DICTIONARY
  5
256E
330
2558
100
AcDbDictionary
280
     1
281
     1
  3
ADSK_XREC_LAYER_RECONCILED
360
256F
  0
DICTIONARY
  5
2570
330
2559
100
AcDbDictionary
280
     1
281
     1
  3
ADSK_XREC_LAYER_RECONCILED
360
2571
  0
DICTIONARY
  5
2572
330
255A
100
AcDbDictionary
280
     1
281
     1
  3
ADSK_XREC_LAYER_RECONCILED
360
2573
  0
DICTIONARY
  5
2574
330
255B
100
AcDbDictionary
280
     1
281
     1
  3
ADSK_XREC_LAYER_RECONCILED
360
2575
  0
DICTIONARY
  5
2576
330
255C
100
AcDbDictionary
280
     1
281
     1
  3
ADSK_XREC_LAYER_RECONCILED
360
2577
  0
DICTIONARY
  5
2578
330
255D
100
AcDbDictionary
280
     1
281
     1
  3
ADSK_XREC_LAYER_RECONCILED
360
2579
  0
DICTIONARY
  5
257A
330
255E
100
AcDbDictionary
280
     1
281
     1
  3
ADSK_XREC_LAYER_RECONCILED
360
257B
  0
XRECORD
  5
256B
102
{ACAD_REACTORS
330
24ED
102
}
330
24ED
100
AcDbXrecord
280
     1
300
ACDLT
300
2014
300
ACDLT_F_S
  0
DICTIONARY
  5
2543
102
{ACAD_REACTORS
330
24ED
102
}
330
24ED
100
AcDbDictionary
281
     1
  0
DICTIONARY
  5
254A
102
{ACAD_REACTORS
330
24ED
102
}
330
24ED
100
AcDbDictionary
281
     1
  3
Imperial24
350
254B
  0
DICTIONARY
  5
24EE
102
{ACAD_REACTORS
330
24ED
102
}
330
24ED
100
AcDbDictionary
281
     1
  0
DICTIONARY
  5
2542
102
{ACAD_REACTORS
330
24ED
102
}
330
24ED
100
AcDbDictionary
281
     1
  3
Model
350
2553
  3
レイアウト1
350
254F
  0
DICTIONARY
  5
24F1
102
{ACAD_REACTORS
330
24ED
102
}
330
24ED
100
AcDbDictionary
281
     1
  3
ByBlock
350
24FA
  3
ByLayer
350
24F2
  3
Global
350
2502
  0
DICTIONARY
  5
2546
102
{ACAD_REACTORS
330
24ED
102
}
330
24ED
100
AcDbDictionary
281
     1
  3
Standard
350
2547
  0
DICTIONARY
  5
253F
102
{ACAD_REACTORS
330
24ED
102
}
330
24ED
100
AcDbDictionary
281
     1
  3
Standard
350
2540
  0
DICTIONARY
  5
2541
102
{ACAD_REACTORS
330
24ED
102
}
330
24ED
100
AcDbDictionary
281
     1
  0
ACDBDICTIONARYWDFLT
  5
24EF
102
{ACAD_REACTORS
330
24ED
102
}
330
24ED
100
AcDbDictionary
281
     1
  3
Normal
350
24F0
100
AcDbDictionaryWithDefault
340
24F0
  0
DICTIONARY
  5
2523
102
{ACAD_REACTORS
330
24ED
102
}
330
24ED
100
AcDbDictionary
281
     1
  3
A0
350
2524
  3
A1
350
2525
  3
A2
350
2526
  3
A3
350
2527
  3
A4
350
2528
  3
A5
350
2529
  3
A6
350
252A
  3
A7
350
252B
  3
A8
350
252C
  3
A9
350
252D
  3
B0
350
252E
  3
B1
350
252F
  3
B2
350
2530
  3
B3
350
2531
  3
B4
350
2532
  3
B5
350
2533
  3
B6
350
2534
  0
DICTIONARY
  5
2548
102
{ACAD_REACTORS
330
24ED
102
}
330
24ED
100
AcDbDictionary
281
     1
  3
Imperial24
350
2549
  0
DICTIONARY
  5
2544
102
{ACAD_REACTORS
330
24ED
102
}
330
24ED
100
AcDbDictionary
281
     1
  3
Standard
350
2545
  0
DICTIONARY
  5
250A
102
{ACAD_REACTORS
330
24ED
102
}
330
24ED
100
AcDbDictionary
281
     1
  3
2dWireframe
350
2510
  3
Basic
350
250F
  3
Brighten
350
2516
  3
ColorChange
350
251A
  3
Conceptual
350
2513
  3
Dim
350
2515
  3
EdgeColorOff
350
2522
  3
Facepattern
350
2519
  3
Flat
350
250B
  3
FlatWithEdges
350
250C
  3
Gouraud
350
250D
  3
GouraudWithEdges
350
250E
  3
Hidden
350
2512
  3
JitterOff
350
2520
  3
Linepattern
350
2518
  3
OverhangOff
350
2521
  3
Realistic
350
2514
  3
Shaded
350
251F
  3
Shaded with edges
350
251E
  3
Shades of Gray
350
251B
  3
Sketchy
350
251C
  3
Thicken
350
2517
  3
Wireframe
350
2511
  3
X-Ray
350
251D
  0
XRECORD
  5
2589
102
{ACAD_REACTORS
330
24ED
102
}
330
24ED
100
AcDbXrecord
280
     1
 90
        1
330
2545
  0
DICTIONARY
  5
257C
102
{ACAD_REACTORS
330
24ED
102
}
330
24ED
100
AcDbDictionary
281
     1
  3
CANNOSCALE
350
2581
  3
CMLEADERSTYLE
350
257E
  3
CTABLESTYLE
350
257D
  3
CVIEWDETAILSTYLE
350
257F
  3
CVIEWSECTIONSTYLE
350
2580
  3
DIMASSOC
350
2584
  3
INDEXCTL
350
2583
  3
SORTENTS
350
2582
  3
XCLIPFRAME
350
2585
  0
XRECORD
  5
258A
102
{ACAD_REACTORS
330
24ED
102
}
330
24ED
100
AcDbXrecord
280
     1
  1
DWGPROPS COOKIE
  2

  3

  4

  6

  7

  8
Yoshitsune
  9

300
=
301
=
302
=
303
=
304
=
305
=
306
=
307
=
308
=
309
=
 40
0.2811498611111111
 41
2456339.61736147
 42
2457192.602637697
  1

 90
        0
  0
XRECORD
  5
256D
102
{ACAD_REACTORS
330
256C
102
}
330
256C
100
AcDbXrecord
280
     1
290
     1
  0
XRECORD
  5
256F
102
{ACAD_REACTORS
330
256E
102
}
330
256E
100
AcDbXrecord
280
     1
290
     1
  0
XRECORD
  5
2571
102
{ACAD_REACTORS
330
2570
102
}
330
2570
100
AcDbXrecord
280
     1
290
     1
  0
XRECORD
  5
2573
102
{ACAD_REACTORS
330
2572
102
}
330
2572
100
AcDbXrecord
280
     1
290
     1
  0
XRECORD
  5
2575
102
{ACAD_REACTORS
330
2574
102
}
330
2574
100
AcDbXrecord
280
     1
290
     1
  0
XRECORD
  5
2577
102
{ACAD_REACTORS
330
2576
102
}
330
2576
100
AcDbXrecord
280
     1
290
     1
  0
XRECORD
  5
2579
102
{ACAD_REACTORS
330
2578
102
}
330
2578
100
AcDbXrecord
280
     1
290
     1
  0
XRECORD
  5
257B
102
{ACAD_REACTORS
330
257A
102
}
330
257A
100
AcDbXrecord
280
     1
290
     1
  0
ACDBDETAILVIEWSTYLE
  5
254B
102
{ACAD_XDICTIONARY
360
25C2
102
}
102
{ACAD_REACTORS
330
254A
102
}
330
254A
100
AcDbModelDocViewStyle
 70
     0
  3
Imperial24
290
     0
100
AcDbDetailViewStyle
 70
     0
 71
     0
 90
        3
 71
     1
340
2536
 40
0.24
340
0
 40
0.24
300

 40
0.36
280
     3
 71
     2
340
253D
 90
       25
 71
     3
340
2536
 40
0.24
 90
        1
 40
0.75
 90
        1
300
%<\AcVar ViewType \f "%tc1">% %<\AcVar ViewDetailId>%\PSCALE %<\AcVar ViewScale \f "%sn">%
 71
     4
340
253D
 90
       25
340
253D
 90
       25
280
     0
  0
LAYOUT
  5
2553
102
{ACAD_XDICTIONARY
360
25C6
102
}
102
{ACAD_REACTORS
330
2542
102
}
330
2542
100
AcDbPlotSettings
  1

  2
Canon LBP9100C
  4

  6

 40
0.0
 41
0.0
 42
0.0
 43
0.0
 44
0.0
 45
0.0
 46
0.0
 47
0.0
 48
0.0
 49
0.0
140
0.0
141
0.0
142
1.0
143
1.0
 70
  1712
 72
     0
 73
     0
 74
     0
  7

 75
     0
147
1.0
148
0.0
149
0.0
100
AcDbLayout
  1
Model
 70
     1
 71
     0
 10
0.0
 20
0.0
 11
12.0
 21
9.0
 12
0.0
 22
0.0
 32
0.0
 14
0.0
 24
0.0
 34
0.0
 15
0.0
 25
0.0
 35
0.0
146
0.0
 13
0.0
 23
0.0
 33
0.0
 16
1.0
 26
0.0
 36
0.0
 17
0.0
 27
1.0
 37
0.0
 76
     0
330
2550
331
2554
  0
LAYOUT
  5
254F
102
{ACAD_XDICTIONARY
360
25C4
102
}
102
{ACAD_REACTORS
330
2542
102
}
330
2542
100
AcDbPlotSettings
  1

  2
Canon LBP9100C
  4

  6

 40
0.0
 41
0.0
 42
0.0
 43
0.0
 44
0.0
 45
0.0
 46
0.0
 47
0.0
 48
0.0
 49
0.0
140
0.0
141
0.0
142
1.0
143
1.0
 70
   688
 72
     0
 73
     0
 74
     5
  7

 75
    16
147
1.0
148
0.0
149
0.0
100
AcDbLayout
  1
レイアウト1
 70
     1
 71
     1
 10
0.0
 20
0.0
 11
420.0
 21
297.0
 12
0.0
 22
0.0
 32
0.0
 14
1.000000000000000E+20
 24
1.000000000000000E+20
 34
1.000000000000000E+20
 15
-1.000000000000000E+20
 25
-1.000000000000000E+20
 35
-1.000000000000000E+20
146
0.0
 13
0.0
 23
0.0
 33
0.0
 16
1.0
 26
0.0
 36
0.0
 17
0.0
 27
1.0
 37
0.0
 76
     0
330
254C
  0
MATERIAL
  5
24FA
102
{ACAD_XDICTIONARY
360
24FB
102
}
102
{ACAD_REACTORS
330
24F1
102
}
330
24F1
100
AcDbMaterial
  1
ByBlock
 72
     0
 43
0.0208333333333333
 43
0.0
 43
0.0
 43
0.0
 43
0.0
 43
0.0208333333333333
 43
0.0
 43
0.0
 43
0.0
 43
0.0
 43
1.0
 43
0.0
 43
0.0
 43
0.0
 43
0.0
 43
1.0
 77
     0
 47
0.0208333333333333
 47
0.0
 47
0.0
 47
0.0
 47
0.0
 47
0.0208333333333333
 47
0.0
 47
0.0
 47
0.0
 47
0.0
 47
1.0
 47
0.0
 47
0.0
 47
0.0
 47
0.0
 47
1.0
171
     0
 49
0.0208333333333333
 49
0.0
 49
0.0
 49
0.0
 49
0.0
 49
0.0208333333333333
 49
0.0
 49
0.0
 49
0.0
 49
0.0
 49
1.0
 49
0.0
 49
0.0
 49
0.0
 49
0.0
 49
1.0
175
     0
142
0.0208333333333333
142
0.0
142
0.0
142
0.0
142
0.0
142
0.0208333333333333
142
0.0
142
0.0
142
0.0
142
0.0
142
1.0
142
0.0
142
0.0
142
0.0
142
0.0
142
1.0
179
     0
144
0.0208333333333333
144
0.0
144
0.0
144
0.0
144
0.0
144
0.0208333333333333
144
0.0
144
0.0
144
0.0
144
0.0
144
1.0
144
0.0
144
0.0
144
0.0
144
0.0
144
1.0
147
0.0208333333333333
147
0.0
147
0.0
147
0.0
147
0.0
147
0.0208333333333333
147
0.0
147
0.0
147
0.0
147
0.0
147
1.0
147
0.0
147
0.0
147
0.0
147
0.0
147
1.0
  0
MATERIAL
  5
24F2
102
{ACAD_XDICTIONARY
360
24F3
102
}
102
{ACAD_REACTORS
330
24F1
102
}
330
24F1
100
AcDbMaterial
  1
ByLayer
 72
     0
 43
0.0208333333333333
 43
0.0
 43
0.0
 43
0.0
 43
0.0
 43
0.0208333333333333
 43
0.0
 43
0.0
 43
0.0
 43
0.0
 43
1.0
 43
0.0
 43
0.0
 43
0.0
 43
0.0
 43
1.0
 77
     0
 47
0.0208333333333333
 47
0.0
 47
0.0
 47
0.0
 47
0.0
 47
0.0208333333333333
 47
0.0
 47
0.0
 47
0.0
 47
0.0
 47
1.0
 47
0.0
 47
0.0
 47
0.0
 47
0.0
 47
1.0
171
     0
 49
0.0208333333333333
 49
0.0
 49
0.0
 49
0.0
 49
0.0
 49
0.0208333333333333
 49
0.0
 49
0.0
 49
0.0
 49
0.0
 49
1.0
 49
0.0
 49
0.0
 49
0.0
 49
0.0
 49
1.0
175
     0
142
0.0208333333333333
142
0.0
142
0.0
142
0.0
142
0.0
142
0.0208333333333333
142
0.0
142
0.0
142
0.0
142
0.0
142
1.0
142
0.0
142
0.0
142
0.0
142
0.0
142
1.0
179
     0
144
0.0208333333333333
144
0.0
144
0.0
144
0.0
144
0.0
144
0.0208333333333333
144
0.0
144
0.0
144
0.0
144
0.0
144
1.0
144
0.0
144
0.0
144
0.0
144
0.0
144
1.0
147
0.0208333333333333
147
0.0
147
0.0
147
0.0
147
0.0
147
0.0208333333333333
147
0.0
147
0.0
147
0.0
147
0.0
147
1.0
147
0.0
147
0.0
147
0.0
147
0.0
147
1.0
  0
MATERIAL
  5
2502
102
{ACAD_XDICTIONARY
360
2503
102
}
102
{ACAD_REACTORS
330
24F1
102
}
330
24F1
100
AcDbMaterial
  1
Global
 72
     0
 43
0.0208333333333333
 43
0.0
 43
0.0
 43
0.0
 43
0.0
 43
0.0208333333333333
 43
0.0
 43
0.0
 43
0.0
 43
0.0
 43
1.0
 43
0.0
 43
0.0
 43
0.0
 43
0.0
 43
1.0
 77
     0
 47
0.0208333333333333
 47
0.0
 47
0.0
 47
0.0
 47
0.0
 47
0.0208333333333333
 47
0.0
 47
0.0
 47
0.0
 47
0.0
 47
1.0
 47
0.0
 47
0.0
 47
0.0
 47
0.0
 47
1.0
171
     0
 49
0.0208333333333333
 49
0.0
 49
0.0
 49
0.0
 49
0.0
 49
0.0208333333333333
 49
0.0
 49
0.0
 49
0.0
 49
0.0
 49
1.0
 49
0.0
 49
0.0
 49
0.0
 49
0.0
 49
1.0
175
     0
142
0.0208333333333333
142
0.0
142
0.0
142
0.0
142
0.0
142
0.0208333333333333
142
0.0
142
0.0
142
0.0
142
0.0
142
1.0
142
0.0
142
0.0
142
0.0
142
0.0
142
1.0
179
     0
144
0.0208333333333333
144
0.0
144
0.0
144
0.0
144
0.0
144
0.0208333333333333
144
0.0
144
0.0
144
0.0
144
0.0
144
1.0
144
0.0
144
0.0
144
0.0
144
0.0
144
1.0
147
0.0208333333333333
147
0.0
147
0.0
147
0.0
147
0.0
147
0.0208333333333333
147
0.0
147
0.0
147
0.0
147
0.0
147
1.0
147
0.0
147
0.0
147
0.0
147
0.0
147
1.0
  0
MLEADERSTYLE
  5
2547
102
{ACAD_REACTORS
330
2546
102
}
330
2546
100
AcDbMLeaderStyle
170
     2
171
     1
172
     0
 90
        2
 40
0.0
 41
0.0
173
     1
 91
-1056964608
340
253B
 92
       -2
290
     1
 42
0.09
291
     1
 43
0.36
  3
Standard
 44
0.18
300

342
2536
174
     1
178
     6
175
     1
176
     0
 93
-1056964608
 45
0.18
292
     0
297
     0
 46
0.18
 94
-1056964608
 47
1.0
 49
1.0
140
1.0
293
     1
141
0.0
294
     1
177
     0
142
1.0
295
     0
296
     0
143
0.125
1001
ACAD_MLEADERVER
1070
     2
  0
MLINESTYLE
  5
2540
102
{ACAD_REACTORS
330
253F
102
}
330
253F
100
AcDbMlineStyle
  2
STANDARD
 70
     0
  3

 62
   256
 51
90.0
 52
90.0
 71
     2
 49
0.5
 62
   256
  6
BYLAYER
 49
-0.5
 62
   256
  6
BYLAYER
  0
ACDBPLACEHOLDER
  5
24F0
102
{ACAD_REACTORS
330
24EF
102
}
330
24EF
  0
SCALE
  5
2524
102
{ACAD_REACTORS
330
2523
102
}
330
2523
100
AcDbScale
 70
     0
300
1:1
140
1.0
141
1.0
290
     1
  0
SCALE
  5
2525
102
{ACAD_REACTORS
330
2523
102
}
330
2523
100
AcDbScale
 70
     0
300
1/128" = 1'-0"
140
0.0078125
141
12.0
290
     0
  0
SCALE
  5
2526
102
{ACAD_REACTORS
330
2523
102
}
330
2523
100
AcDbScale
 70
     0
300
1/64" = 1'-0"
140
0.015625
141
12.0
290
     0
  0
SCALE
  5
2527
102
{ACAD_REACTORS
330
2523
102
}
330
2523
100
AcDbScale
 70
     0
300
1/32" = 1'-0"
140
0.03125
141
12.0
290
     0
  0
SCALE
  5
2528
102
{ACAD_REACTORS
330
2523
102
}
330
2523
100
AcDbScale
 70
     0
300
1/16" = 1'-0"
140
0.0625
141
12.0
290
     0
  0
SCALE
  5
2529
102
{ACAD_REACTORS
330
2523
102
}
330
2523
100
AcDbScale
 70
     0
300
3/32" = 1'-0"
140
0.09375
141
12.0
290
     0
  0
SCALE
  5
252A
102
{ACAD_REACTORS
330
2523
102
}
330
2523
100
AcDbScale
 70
     0
300
1/8" = 1'-0"
140
0.125
141
12.0
290
     0
  0
SCALE
  5
252B
102
{ACAD_REACTORS
330
2523
102
}
330
2523
100
AcDbScale
 70
     0
300
3/16" = 1'-0"
140
0.1875
141
12.0
290
     0
  0
SCALE
  5
252C
102
{ACAD_REACTORS
330
2523
102
}
330
2523
100
AcDbScale
 70
     0
300
1/4" = 1'-0"
140
0.25
141
12.0
290
     0
  0
SCALE
  5
252D
102
{ACAD_REACTORS
330
2523
102
}
330
2523
100
AcDbScale
 70
     0
300
3/8" = 1'-0"
140
0.375
141
12.0
290
     0
  0
SCALE
  5
252E
102
{ACAD_REACTORS
330
2523
102
}
330
2523
100
AcDbScale
 70
     0
300
1/2" = 1'-0"
140
0.5
141
12.0
290
     0
  0
SCALE
  5
252F
102
{ACAD_REACTORS
330
2523
102
}
330
2523
100
AcDbScale
 70
     0
300
3/4" = 1'-0"
140
0.75
141
12.0
290
     0
  0
SCALE
  5
2530
102
{ACAD_REACTORS
330
2523
102
}
330
2523
100
AcDbScale
 70
     0
300
1" = 1'-0"
140
1.0
141
12.0
290
     0
  0
SCALE
  5
2531
102
{ACAD_REACTORS
330
2523
102
}
330
2523
100
AcDbScale
 70
     0
300
1-1/2" = 1'-0"
140
1.5
141
12.0
290
     0
  0
SCALE
  5
2532
102
{ACAD_REACTORS
330
2523
102
}
330
2523
100
AcDbScale
 70
     0
300
3" = 1'-0"
140
3.0
141
12.0
290
     0
  0
SCALE
  5
2533
102
{ACAD_REACTORS
330
2523
102
}
330
2523
100
AcDbScale
 70
     0
300
6" = 1'-0"
140
6.0
141
12.0
290
     0
  0
SCALE
  5
2534
102
{ACAD_REACTORS
330
2523
102
}
330
2523
100
AcDbScale
 70
     0
300
1'-0" = 1'-0"
140
12.0
141
12.0
290
     0
  0
ACDBSECTIONVIEWSTYLE
  5
2549
102
{ACAD_XDICTIONARY
360
25C0
102
}
102
{ACAD_REACTORS
330
2548
102
}
330
2548
100
AcDbModelDocViewStyle
 70
     0
  3
Imperial24
290
     0
100
AcDbSectionViewStyle
 70
     0
 71
     0
 90
       78
 71
     1
340
2536
 40
0.24
340
0
340
0
 40
0.24
300
I, O, Q, S, X, Z
 40
0.48
 90
        3
 40
0.18
 90
        1
 71
     2
340
253D
 90
       25
340
253D
 90
       50
 40
0.24
 40
0.0
 40
0.24
 71
     3
340
2536
 40
0.24
 90
        1
 40
0.75
 90
        1
300
%<\AcVar ViewType \f "%tc1">% %<\AcVar ViewSectionStartId>%-%<\AcVar ViewSectionEndId>%\PSCALE %<\AcVar ViewScale \f "%sn">%
 71
     4
300
ANSI31
 40
1.0
 90
        0
290
     0
290
     0
 90
        6
 40
0.0
 40
1.570796326794896
 40
0.2617993877991494
 40
1.308996938995747
 40
-0.2617993877991494
 40
1.832595714594046
  0
TABLESTYLE
  5
2545
102
{ACAD_XDICTIONARY
360
2587
102
}
102
{ACAD_REACTORS
330
2544
102
}
330
2544
100
AcDbTableStyle
  3
Standard
 70
     0
 71
     0
 40
0.06
 41
0.06
280
     0
281
     0
  7
STANDARD
140
0.18
170
     2
 62
     0
 63
     7
283
     0
274
    -2
284
     1
 64
     0
275
    -2
285
     1
 65
     0
276
    -2
286
     1
 66
     0
277
    -2
287
     1
 67
     0
278
    -2
288
     1
 68
     0
279
    -2
289
     1
 69
     0
  7
STANDARD
140
0.25
170
     5
 62
     0
 63
     7
283
     0
274
    -2
284
     1
 64
     0
275
    -2
285
     1
 65
     0
276
    -2
286
     1
 66
     0
277
    -2
287
     1
 67
     0
278
    -2
288
     1
 68
     0
279
    -2
289
     1
 69
     0
  7
STANDARD
140
0.18
170
     5
 62
     0
 63
     7
283
     0
274
    -2
284
     1
 64
     0
275
    -2
285
     1
 65
     0
276
    -2
286
     1
 66
     0
277
    -2
287
     1
 67
     0
278
    -2
288
     1
 68
     0
279
    -2
289
     1
 69
     0
  0
VISUALSTYLE
  5
2510
102
{ACAD_XDICTIONARY
360
2598
102
}
102
{ACAD_REACTORS
330
250A
102
}
330
250A
100
AcDbVisualStyle
  2
2dWireframe
 70
     4
 71
     0
 72
     2
 73
     0
 90
        0
 40
-0.6
 41
-30.0
 62
     5
 63
     7
 74
     1
 91
        4
 64
     7
 65
   257
 75
     1
175
     1
 42
1.0
 92
        0
 66
   257
 43
1.0
 76
     1
 77
     6
 78
     2
 67
     7
 79
     5
170
     0
171
     0
290
     0
174
     0
 93
        1
 44
0.0
173
     0
291
     0
 45
0.0
1001
ACAD
1000
AcDbSavedByObjectVersion
1070
     0
  0
VISUALSTYLE
  5
250F
102
{ACAD_XDICTIONARY
360
2596
102
}
102
{ACAD_REACTORS
330
250A
102
}
330
250A
100
AcDbVisualStyle
  2
Basic
 70
     7
 71
     1
 72
     0
 73
     1
 90
        0
 40
-0.6
 41
-30.0
 62
     5
 63
     7
 74
     0
 91
        4
 64
     7
 65
   257
 75
     1
175
     1
 42
1.0
 92
        8
 66
     7
 43
1.0
 76
     1
 77
     6
 78
     2
 67
     7
 79
     5
170
     0
171
     0
290
     0
174
     0
 93
        1
 44
0.0
173
     0
291
     1
 45
0.0
1001
ACAD
1000
AcDbSavedByObjectVersion
1070
     0
  0
VISUALSTYLE
  5
2516
102
{ACAD_XDICTIONARY
360
25A4
102
}
102
{ACAD_REACTORS
330
250A
102
}
330
250A
100
AcDbVisualStyle
  2
Brighten
 70
    12
 71
     2
 72
     2
 73
     0
 90
        0
 40
-0.6
 41
-30.0
 62
     5
 63
     7
 74
     1
 91
        4
 64
     7
 65
   257
 75
     1
175
     1
 42
1.0
 92
        8
 66
     7
 43
1.0
 76
     1
 77
     6
 78
     2
 67
     7
 79
     5
170
     0
171
     0
290
     0
174
     0
 93
        1
 44
50.0
173
     0
291
     1
 45
0.0
1001
ACAD
1000
AcDbSavedByObjectVersion
1070
     0
  0
VISUALSTYLE
  5
251A
102
{ACAD_XDICTIONARY
360
25AC
102
}
102
{ACAD_REACTORS
330
250A
102
}
330
250A
100
AcDbVisualStyle
  2
ColorChange
 70
    16
 71
     2
 72
     2
 73
     3
 90
        0
 40
-0.6
 41
-30.0
 62
     5
 63
     8
 74
     1
 91
        4
 64
     7
 65
   257
 75
     1
175
     1
 42
1.0
 92
        8
 66
     8
 43
1.0
 76
     1
 77
     6
 78
     2
 67
     7
 79
     5
170
     0
171
     0
290
     0
174
     0
 93
        1
 44
0.0
173
     0
291
     1
 45
0.0
1001
ACAD
1000
AcDbSavedByObjectVersion
1070
     0
  0
VISUALSTYLE
  5
2513
102
{ACAD_XDICTIONARY
360
259E
102
}
102
{ACAD_REACTORS
330
250A
102
}
330
250A
100
AcDbVisualStyle
  2
Conceptual
 70
     9
 71
     3
 72
     2
 73
     0
 90
        0
 40
-0.6
 41
-30.0
 62
     5
 63
     7
 74
     2
 91
        2
 64
     7
 65
   257
 75
     1
175
     1
 42
179.0
 92
        8
 66
     7
 43
1.0
 76
     1
 77
     6
 78
     2
 67
     7
 79
     3
170
     0
171
     0
290
     0
174
     0
 93
        1
 44
0.0
173
     0
291
     0
 45
0.0
1001
ACAD
1000
AcDbSavedByObjectVersion
1070
     0
  0
VISUALSTYLE
  5
2515
102
{ACAD_XDICTIONARY
360
25A2
102
}
102
{ACAD_REACTORS
330
250A
102
}
330
250A
100
AcDbVisualStyle
  2
Dim
 70
    11
 71
     2
 72
     2
 73
     0
 90
        0
 40
-0.6
 41
-30.0
 62
     5
 63
     7
 74
     1
 91
        4
 64
     7
 65
   257
 75
     1
175
     1
 42
1.0
 92
        8
 66
     7
 43
1.0
 76
     1
 77
     6
 78
     2
 67
     7
 79
     5
170
     0
171
     0
290
     0
174
     0
 93
        1
 44
-50.0
173
     0
291
     1
 45
0.0
1001
ACAD
1000
AcDbSavedByObjectVersion
1070
     0
  0
VISUALSTYLE
  5
2522
102
{ACAD_XDICTIONARY
360
25BC
102
}
102
{ACAD_REACTORS
330
250A
102
}
330
250A
100
AcDbVisualStyle
  2
EdgeColorOff
 70
    22
 71
     2
 72
     2
 73
     0
 90
        0
 40
-0.6
 41
-30.0
 62
     5
 63
     7
 74
     1
 91
        4
 64
     7
 65
   257
 75
     1
175
     1
 42
1.0
 92
        8
 66
     7
 43
1.0
 76
     1
 77
     6
 78
     2
 67
     7
 79
     5
170
     0
171
     0
290
     0
174
     0
 93
        1
 44
0.0
173
     0
291
     1
 45
0.0
1001
ACAD
1000
AcDbSavedByObjectVersion
1070
     0
  0
VISUALSTYLE
  5
2519
102
{ACAD_XDICTIONARY
360
25AA
102
}
102
{ACAD_REACTORS
330
250A
102
}
330
250A
100
AcDbVisualStyle
  2
Facepattern
 70
    15
 71
     2
 72
     2
 73
     0
 90
        0
 40
-0.6
 41
-30.0
 62
     5
 63
     7
 74
     1
 91
        4
 64
     7
 65
   257
 75
     1
175
     1
 42
1.0
 92
        8
 66
     7
 43
1.0
 76
     1
 77
     6
 78
     2
 67
     7
 79
     5
170
     0
171
     0
290
     0
174
     0
 93
        1
 44
0.0
173
     0
291
     1
 45
0.0
1001
ACAD
1000
AcDbSavedByObjectVersion
1070
     0
  0
VISUALSTYLE
  5
250B
102
{ACAD_XDICTIONARY
360
258E
102
}
102
{ACAD_REACTORS
330
250A
102
}
330
250A
100
AcDbVisualStyle
  2
Flat
 70
     0
 71
     2
 72
     1
 73
     1
 90
        2
 40
-0.6
 41
30.0
 62
     5
 63
     7
 74
     0
 91
        0
 64
     7
 65
   257
 75
     1
175
     1
 42
1.0
 92
        8
 66
     7
 43
1.0
 76
     1
 77
     6
 78
     2
 67
     7
 79
     5
170
     0
171
     0
290
     0
174
     0
 93
       13
 44
0.0
173
     0
291
     1
 45
0.0
1001
ACAD
1000
AcDbSavedByObjectVersion
1070
     0
  0
VISUALSTYLE
  5
250C
102
{ACAD_XDICTIONARY
360
2590
102
}
102
{ACAD_REACTORS
330
250A
102
}
330
250A
100
AcDbVisualStyle
  2
FlatWithEdges
 70
     1
 71
     2
 72
     1
 73
     1
 90
        2
 40
-0.6
 41
30.0
 62
     5
 63
     7
 74
     1
 91
        0
 64
     7
 65
   257
 75
     1
175
     1
 42
1.0
 92
        0
 66
   257
 43
1.0
 76
     1
 77
     6
 78
     2
 67
     7
 79
     5
170
     0
171
     0
290
     0
174
     0
 93
       13
 44
0.0
173
     0
291
     1
 45
0.0
1001
ACAD
1000
AcDbSavedByObjectVersion
1070
     0
  0
VISUALSTYLE
  5
250D
102
{ACAD_XDICTIONARY
360
2592
102
}
102
{ACAD_REACTORS
330
250A
102
}
330
250A
100
AcDbVisualStyle
  2
Gouraud
 70
     2
 71
     2
 72
     2
 73
     1
 90
        2
 40
-0.6
 41
30.0
 62
     5
 63
     7
 74
     0
 91
        0
 64
     7
 65
   257
 75
     1
175
     1
 42
1.0
 92
        0
 66
     7
 43
1.0
 76
     1
 77
     6
 78
     2
 67
     7
 79
     5
170
     0
171
     0
290
     0
174
     0
 93
       13
 44
0.0
173
     0
291
     1
 45
0.0
1001
ACAD
1000
AcDbSavedByObjectVersion
1070
     0
  0
VISUALSTYLE
  5
250E
102
{ACAD_XDICTIONARY
360
2594
102
}
102
{ACAD_REACTORS
330
250A
102
}
330
250A
100
AcDbVisualStyle
  2
GouraudWithEdges
 70
     3
 71
     2
 72
     2
 73
     1
 90
        2
 40
-0.6
 41
30.0
 62
     5
 63
     7
 74
     1
 91
        0
 64
     7
 65
   257
 75
     1
175
     1
 42
1.0
 92
        0
 66
   257
 43
1.0
 76
     1
 77
     6
 78
     2
 67
     7
 79
     5
170
     0
171
     0
290
     0
174
     0
 93
       13
 44
0.0
173
     0
291
     1
 45
0.0
1001
ACAD
1000
AcDbSavedByObjectVersion
1070
     0
  0
VISUALSTYLE
  5
2512
102
{ACAD_XDICTIONARY
360
259C
102
}
102
{ACAD_REACTORS
330
250A
102
}
330
250A
100
AcDbVisualStyle
  2
Hidden
 70
     6
 71
     1
 72
     2
 73
     2
 90
        0
 40
-0.6
 41
-30.0
 62
     5
 63
     7
 74
     2
 91
        2
 64
     7
 65
   257
 75
     2
175
     1
 42
40.0
 92
        0
 66
   257
 43
1.0
 76
     1
 77
     6
 78
     2
 67
     7
 79
     3
170
     0
171
     0
290
     0
174
     0
 93
        1
 44
0.0
173
     0
291
     0
 45
0.0
1001
ACAD
1000
AcDbSavedByObjectVersion
1070
     0
  0
VISUALSTYLE
  5
2520
102
{ACAD_XDICTIONARY
360
25B8
102
}
102
{ACAD_REACTORS
330
250A
102
}
330
250A
100
AcDbVisualStyle
  2
JitterOff
 70
    20
 71
     2
 72
     2
 73
     0
 90
        0
 40
-0.6
 41
-30.0
 62
     5
 63
     7
 74
     1
 91
        4
 64
     7
 65
   257
 75
     1
175
     1
 42
1.0
 92
       10
 66
     7
 43
1.0
 76
     1
 77
     6
 78
     2
 67
     7
 79
     5
170
     0
171
     0
290
     0
174
     0
 93
        1
 44
0.0
173
     0
291
     1
 45
0.0
1001
ACAD
1000
AcDbSavedByObjectVersion
1070
     0
  0
VISUALSTYLE
  5
2518
102
{ACAD_XDICTIONARY
360
25A8
102
}
102
{ACAD_REACTORS
330
250A
102
}
330
250A
100
AcDbVisualStyle
  2
Linepattern
 70
    14
 71
     2
 72
     2
 73
     0
 90
        0
 40
-0.6
 41
-30.0
 62
     5
 63
     7
 74
     1
 91
        4
 64
     7
 65
   257
 75
     7
175
     7
 42
1.0
 92
        8
 66
     7
 43
1.0
 76
     1
 77
     6
 78
     2
 67
     7
 79
     5
170
     0
171
     0
290
     0
174
     0
 93
        1
 44
0.0
173
     0
291
     1
 45
0.0
1001
ACAD
1000
AcDbSavedByObjectVersion
1070
     0
  0
VISUALSTYLE
  5
2521
102
{ACAD_XDICTIONARY
360
25BA
102
}
102
{ACAD_REACTORS
330
250A
102
}
330
250A
100
AcDbVisualStyle
  2
OverhangOff
 70
    21
 71
     2
 72
     2
 73
     0
 90
        0
 40
-0.6
 41
-30.0
 62
     5
 63
     7
 74
     1
 91
        4
 64
     7
 65
   257
 75
     1
175
     1
 42
1.0
 92
        9
 66
     7
 43
1.0
 76
     1
 77
     6
 78
     2
 67
     7
 79
     5
170
     0
171
     0
290
     0
174
     0
 93
        1
 44
0.0
173
     0
291
     1
 45
0.0
1001
ACAD
1000
AcDbSavedByObjectVersion
1070
     0
  0
VISUALSTYLE
  5
2514
102
{ACAD_XDICTIONARY
360
25A0
102
}
102
{ACAD_REACTORS
330
250A
102
}
330
250A
100
AcDbVisualStyle
  2
Realistic
 70
     8
 71
     2
 72
     3
 73
     0
 90
        2
 40
-0.6
 41
30.0
 62
     5
 63
     7
 74
     0
 91
        0
 64
     7
 65
   257
 75
     1
175
     1
 42
1.0
 92
        8
 66
   257
 43
1.0
 76
     1
 77
     6
 78
     2
 67
     7
 79
     3
170
     0
171
     0
290
     0
174
     0
 93
       13
 44
0.0
173
     0
291
     0
 45
0.0
1001
ACAD
1000
AcDbSavedByObjectVersion
1070
     0
  0
VISUALSTYLE
  5
251F
102
{ACAD_XDICTIONARY
360
25B6
102
}
102
{ACAD_REACTORS
330
250A
102
}
330
250A
100
AcDbVisualStyle
  2
Shaded
 70
    27
 71
     2
 72
     2
 73
     1
 90
        2
 40
-0.6
 41
30.0
 62
     5
 63
     7
 74
     0
 91
        4
 64
     7
 65
   257
 75
     1
175
     1
 42
1.0
 92
        8
 66
   257
 43
1.0
 76
     1
 77
     6
 78
     2
 67
     8
 79
     3
170
     0
171
     0
290
     0
174
     0
 93
        5
 44
0.0
173
     0
291
     0
 45
0.0
1001
ACAD
1000
AcDbSavedByObjectVersion
1070
     0
  0
VISUALSTYLE
  5
251E
102
{ACAD_XDICTIONARY
360
25B4
102
}
102
{ACAD_REACTORS
330
250A
102
}
330
250A
100
AcDbVisualStyle
  2
Shaded with edges
 70
    26
 71
     2
 72
     2
 73
     1
 90
        2
 40
-0.6
 41
30.0
 62
     5
 63
     7
 74
     1
 91
       10
 64
     7
 65
   257
 75
     2
175
     1
 42
1.0
 92
        8
 66
   257
 43
1.0
 76
     1
 77
     6
 78
     2
 67
     7
 79
     3
170
     0
171
     0
290
     0
174
     0
 93
        5
 44
0.0
173
     0
291
     0
 45
0.0
1001
ACAD
1000
AcDbSavedByObjectVersion
1070
     0
  0
VISUALSTYLE
  5
251B
102
{ACAD_XDICTIONARY
360
25AE
102
}
102
{ACAD_REACTORS
330
250A
102
}
330
250A
100
AcDbVisualStyle
  2
Shades of Gray
 70
    23
 71
     2
 72
     2
 73
     3
 90
        0
 40
-0.6
 41
-30.0
 62
     5
 63
     7
 74
     2
 91
        2
 64
     7
 65
     7
 75
     1
175
     1
 42
40.0
 92
        8
 66
     7
 43
1.0
 76
     1
 77
     6
 78
     2
 67
     7
 79
     3
170
     0
171
     0
290
     0
174
     0
 93
        1
 44
0.0
173
     0
291
     0
 45
0.0
1001
ACAD
1000
AcDbSavedByObjectVersion
1070
     0
  0
VISUALSTYLE
  5
251C
102
{ACAD_XDICTIONARY
360
25B0
102
}
102
{ACAD_REACTORS
330
250A
102
}
330
250A
100
AcDbVisualStyle
  2
Sketchy
 70
    24
 71
     1
 72
     2
 73
     2
 90
        0
 40
-0.6
 41
-30.0
 62
     5
 63
     7
 74
     2
 91
        2
 64
     7
 65
     7
 75
     1
175
     1
 42
40.0
 92
       11
 66
     7
 43
1.0
 76
     1
 77
     6
 78
     2
 67
     7
 79
     6
170
     0
171
     0
290
     0
174
     0
 93
        1
 44
0.0
173
     0
291
     0
 45
0.0
1001
ACAD
1000
AcDbSavedByObjectVersion
1070
     0
  0
VISUALSTYLE
  5
2517
102
{ACAD_XDICTIONARY
360
25A6
102
}
102
{ACAD_REACTORS
330
250A
102
}
330
250A
100
AcDbVisualStyle
  2
Thicken
 70
    13
 71
     2
 72
     2
 73
     0
 90
        0
 40
-0.6
 41
-30.0
 62
     5
 63
     7
 74
     1
 91
        4
 64
     7
 65
   257
 75
     1
175
     1
 42
1.0
 92
       12
 66
     7
 43
1.0
 76
     1
 77
     6
 78
     2
 67
     7
 79
     5
170
     0
171
     0
290
     0
174
     0
 93
        1
 44
0.0
173
     0
291
     1
 45
0.0
1001
ACAD
1000
AcDbSavedByObjectVersion
1070
     0
  0
VISUALSTYLE
  5
2511
102
{ACAD_XDICTIONARY
360
259A
102
}
102
{ACAD_REACTORS
330
250A
102
}
330
250A
100
AcDbVisualStyle
  2
Wireframe
 70
     5
 71
     0
 72
     2
 73
     0
 90
        0
 40
-0.6
 41
-30.0
 62
     5
 63
     7
 74
     1
 91
        4
 64
     7
 65
   257
 75
     1
175
     1
 42
1.0
 92
        0
 66
   257
 43
1.0
 76
     1
 77
     6
 78
     2
 67
     7
 79
     3
170
     0
171
     0
290
     0
174
     0
 93
        1
 44
0.0
173
     0
291
     0
 45
0.0
1001
ACAD
1000
AcDbSavedByObjectVersion
1070
     0
  0
VISUALSTYLE
  5
251D
102
{ACAD_XDICTIONARY
360
25B2
102
}
102
{ACAD_REACTORS
330
250A
102
}
330
250A
100
AcDbVisualStyle
  2
X-Ray
 70
    25
 71
     2
 72
     2
 73
     1
 90
        1
 40
0.5
 41
-30.0
 62
     5
 63
     7
 74
     1
 91
        0
 64
     7
 65
   257
 75
     1
175
     1
 42
1.0
 92
        8
 66
     7
 43
1.0
 76
     1
 77
     6
 78
     2
 67
     7
 79
     3
170
     0
171
     0
290
     0
174
     0
 93
       13
 44
0.0
173
     0
291
     0
 45
0.0
1001
ACAD
1000
AcDbSavedByObjectVersion
1070
     0
  0
DICTIONARYVAR
  5
2581
102
{ACAD_REACTORS
330
257C
102
}
330
257C
100
DictionaryVariables
280
     0
  1
1:1
  0
DICTIONARYVAR
  5
257E
102
{ACAD_REACTORS
330
257C
102
}
330
257C
100
DictionaryVariables
280
     0
  1
STANDARD
  0
DICTIONARYVAR
  5
257D
102
{ACAD_REACTORS
330
257C
102
}
330
257C
100
DictionaryVariables
280
     0
  1
STANDARD
  0
DICTIONARYVAR
  5
257F
102
{ACAD_REACTORS
330
257C
102
}
330
257C
100
DictionaryVariables
280
     0
  1
Imperial24
  0
DICTIONARYVAR
  5
2580
102
{ACAD_REACTORS
330
257C
102
}
330
257C
100
DictionaryVariables
280
     0
  1
Imperial24
  0
DICTIONARYVAR
  5
2584
102
{ACAD_REACTORS
330
257C
102
}
330
257C
100
DictionaryVariables
280
     0
  1
1
  0
DICTIONARYVAR
  5
2583
102
{ACAD_REACTORS
330
257C
102
}
330
257C
100
DictionaryVariables
280
     0
  1
0
  0
DICTIONARYVAR
  5
2582
102
{ACAD_REACTORS
330
257C
102
}
330
257C
100
DictionaryVariables
280
     0
  1
127
  0
DICTIONARYVAR
  5
2585
102
{ACAD_REACTORS
330
257C
102
}
330
257C
100
DictionaryVariables
280
     0
  1
2
  0
DICTIONARY
  5
25C2
330
254B
100
AcDbDictionary
280
     1
281
     1
  3
ACAD_XREC_ROUNDTRIP
360
25C3
  0
DICTIONARY
  5
25C6
330
2553
100
AcDbDictionary
280
     1
281
     1
  3
ACAD_XREC_ROUNDTRIP
360
25C7
  0
DICTIONARY
  5
25C4
330
254F
100
AcDbDictionary
280
     1
281
     1
  3
ACAD_XREC_ROUNDTRIP
360
25C5
  0
DICTIONARY
  5
24FB
330
24FA
100
AcDbDictionary
280
     1
281
     1
  3
ACAD_XREC_ROUNDTRIP
360
258C
  3
BUMPTILE
360
24FD
  3
DIFFUSETILE
360
24FC
  3
OPACITYTILE
360
2500
  3
REFLECTIONTILE
360
24FF
  3
REFRACTIONTILE
360
2501
  3
SPECULARTILE
360
24FE
  0
DICTIONARY
  5
24F3
330
24F2
100
AcDbDictionary
280
     1
281
     1
  3
ACAD_XREC_ROUNDTRIP
360
258B
  3
BUMPTILE
360
24F5
  3
DIFFUSETILE
360
24F4
  3
OPACITYTILE
360
24F8
  3
REFLECTIONTILE
360
24F7
  3
REFRACTIONTILE
360
24F9
  3
SPECULARTILE
360
24F6
  0
DICTIONARY
  5
2503
330
2502
100
AcDbDictionary
280
     1
281
     1
  3
ACAD_XREC_ROUNDTRIP
360
258D
  3
BUMPTILE
360
2505
  3
DIFFUSETILE
360
2504
  3
OPACITYTILE
360
2508
  3
REFLECTIONTILE
360
2507
  3
REFRACTIONTILE
360
2509
  3
SPECULARTILE
360
2506
  0
DICTIONARY
  5
25C0
330
2549
100
AcDbDictionary
280
     1
281
     1
  3
ACAD_XREC_ROUNDTRIP
360
25C1
  0
DICTIONARY
  5
2587
330
2545
100
AcDbDictionary
280
     1
281
     1
  3
ACAD_ROUNDTRIP_2008_TABLESTYLE_CELLSTYLEMAP
360
2588
  3
ACAD_XREC_ROUNDTRIP
360
25BE
  0
DICTIONARY
  5
2598
330
2510
100
AcDbDictionary
280
     1
281
     1
  3
ACAD_XREC_ROUNDTRIP
360
2599
  0
DICTIONARY
  5
2596
330
250F
100
AcDbDictionary
280
     1
281
     1
  3
ACAD_XREC_ROUNDTRIP
360
2597
  0
DICTIONARY
  5
25A4
330
2516
100
AcDbDictionary
280
     1
281
     1
  3
ACAD_XREC_ROUNDTRIP
360
25A5
  0
DICTIONARY
  5
25AC
330
251A
100
AcDbDictionary
280
     1
281
     1
  3
ACAD_XREC_ROUNDTRIP
360
25AD
  0
DICTIONARY
  5
259E
330
2513
100
AcDbDictionary
280
     1
281
     1
  3
ACAD_XREC_ROUNDTRIP
360
259F
  0
DICTIONARY
  5
25A2
330
2515
100
AcDbDictionary
280
     1
281
     1
  3
ACAD_XREC_ROUNDTRIP
360
25A3
  0
DICTIONARY
  5
25BC
330
2522
100
AcDbDictionary
280
     1
281
     1
  3
ACAD_XREC_ROUNDTRIP
360
25BD
  0
DICTIONARY
  5
25AA
330
2519
100
AcDbDictionary
280
     1
281
     1
  3
ACAD_XREC_ROUNDTRIP
360
25AB
  0
DICTIONARY
  5
258E
330
250B
100
AcDbDictionary
280
     1
281
     1
  3
ACAD_XREC_ROUNDTRIP
360
258F
  0
DICTIONARY
  5
2590
330
250C
100
AcDbDictionary
280
     1
281
     1
  3
ACAD_XREC_ROUNDTRIP
360
2591
  0
DICTIONARY
  5
2592
330
250D
100
AcDbDictionary
280
     1
281
     1
  3
ACAD_XREC_ROUNDTRIP
360
2593
  0
DICTIONARY
  5
2594
330
250E
100
AcDbDictionary
280
     1
281
     1
  3
ACAD_XREC_ROUNDTRIP
360
2595
  0
DICTIONARY
  5
259C
330
2512
100
AcDbDictionary
280
     1
281
     1
  3
ACAD_XREC_ROUNDTRIP
360
259D
  0
DICTIONARY
  5
25B8
330
2520
100
AcDbDictionary
280
     1
281
     1
  3
ACAD_XREC_ROUNDTRIP
360
25B9
  0
DICTIONARY
  5
25A8
330
2518
100
AcDbDictionary
280
     1
281
     1
  3
ACAD_XREC_ROUNDTRIP
360
25A9
  0
DICTIONARY
  5
25BA
330
2521
100
AcDbDictionary
280
     1
281
     1
  3
ACAD_XREC_ROUNDTRIP
360
25BB
  0
DICTIONARY
  5
25A0
330
2514
100
AcDbDictionary
280
     1
281
     1
  3
ACAD_XREC_ROUNDTRIP
360
25A1
  0
DICTIONARY
  5
25B6
330
251F
100
AcDbDictionary
280
     1
281
     1
  3
ACAD_XREC_ROUNDTRIP
360
25B7
  0
DICTIONARY
  5
25B4
330
251E
100
AcDbDictionary
280
     1
281
     1
  3
ACAD_XREC_ROUNDTRIP
360
25B5
  0
DICTIONARY
  5
25AE
330
251B
100
AcDbDictionary
280
     1
281
     1
  3
ACAD_XREC_ROUNDTRIP
360
25AF
  0
DICTIONARY
  5
25B0
330
251C
100
AcDbDictionary
280
     1
281
     1
  3
ACAD_XREC_ROUNDTRIP
360
25B1
  0
DICTIONARY
  5
25A6
330
2517
100
AcDbDictionary
280
     1
281
     1
  3
ACAD_XREC_ROUNDTRIP
360
25A7
  0
DICTIONARY
  5
259A
330
2511
100
AcDbDictionary
280
     1
281
     1
  3
ACAD_XREC_ROUNDTRIP
360
259B
  0
DICTIONARY
  5
25B2
330
251D
100
AcDbDictionary
280
     1
281
     1
  3
ACAD_XREC_ROUNDTRIP
360
25B3
  0
XRECORD
  5
25C3
102
{ACAD_REACTORS
330
25C2
102
}
330
25C2
100
AcDbXrecord
280
     1
102
DISPLAYNAME
  1
Imperial24
102
FLAGS
 90
        0
  0
XRECORD
  5
25C7
102
{ACAD_REACTORS
330
25C6
102
}
330
25C6
100
AcDbXrecord
280
     1
102
SHADEPLOT
 70
     0
102
SHADEPLOTRESLEVEL
 70
     2
102
SHADEPLOTCUSTOMDPI
 70
   300
  0
XRECORD
  5
25C5
102
{ACAD_REACTORS
330
25C4
102
}
330
25C4
100
AcDbXrecord
280
     1
102
SHADEPLOT
 70
     0
102
SHADEPLOTRESLEVEL
 70
     2
102
SHADEPLOTCUSTOMDPI
 70
   300
  0
XRECORD
  5
258C
102
{ACAD_REACTORS
330
24FB
102
}
330
24FB
100
AcDbXrecord
280
     1
102
MATERIAL
148
0.0
149
0.0
149
0.0
 93
        0
 94
      127
282
     0
 72
     0
 77
     0
171
     0
175
     0
179
     0
273
     0
  0
XRECORD
  5
24FD
102
{ACAD_REACTORS
330
24FB
102
}
330
24FB
100
AcDbXrecord
280
     1
270
     1
271
     1
  0
XRECORD
  5
24FC
102
{ACAD_REACTORS
330
24FB
102
}
330
24FB
100
AcDbXrecord
280
     1
270
     1
271
     1
  0
XRECORD
  5
2500
102
{ACAD_REACTORS
330
24FB
102
}
330
24FB
100
AcDbXrecord
280
     1
270
     1
271
     1
  0
XRECORD
  5
24FF
102
{ACAD_REACTORS
330
24FB
102
}
330
24FB
100
AcDbXrecord
280
     1
270
     1
271
     1
  0
XRECORD
  5
2501
102
{ACAD_REACTORS
330
24FB
102
}
330
24FB
100
AcDbXrecord
280
     1
270
     1
271
     1
  0
XRECORD
  5
24FE
102
{ACAD_REACTORS
330
24FB
102
}
330
24FB
100
AcDbXrecord
280
     1
270
     1
271
     1
  0
XRECORD
  5
258B
102
{ACAD_REACTORS
330
24F3
102
}
330
24F3
100
AcDbXrecord
280
     1
102
MATERIAL
148
0.0
149
0.0
149
0.0
 93
        0
 94
      127
282
     0
 72
     0
 77
     0
171
     0
175
     0
179
     0
273
     0
  0
XRECORD
  5
24F5
102
{ACAD_REACTORS
330
24F3
102
}
330
24F3
100
AcDbXrecord
280
     1
270
     1
271
     1
  0
XRECORD
  5
24F4
102
{ACAD_REACTORS
330
24F3
102
}
330
24F3
100
AcDbXrecord
280
     1
270
     1
271
     1
  0
XRECORD
  5
24F8
102
{ACAD_REACTORS
330
24F3
102
}
330
24F3
100
AcDbXrecord
280
     1
270
     1
271
     1
  0
XRECORD
  5
24F7
102
{ACAD_REACTORS
330
24F3
102
}
330
24F3
100
AcDbXrecord
280
     1
270
     1
271
     1
  0
XRECORD
  5
24F9
102
{ACAD_REACTORS
330
24F3
102
}
330
24F3
100
AcDbXrecord
280
     1
270
     1
271
     1
  0
XRECORD
  5
24F6
102
{ACAD_REACTORS
330
24F3
102
}
330
24F3
100
AcDbXrecord
280
     1
270
     1
271
     1
  0
XRECORD
  5
258D
102
{ACAD_REACTORS
330
2503
102
}
330
2503
100
AcDbXrecord
280
     1
102
MATERIAL
148
0.0
149
0.0
149
0.0
 93
        0
 94
      127
282
     0
 72
     0
 77
     0
171
     0
175
     0
179
     0
273
     0
  0
XRECORD
  5
2505
102
{ACAD_REACTORS
330
2503
102
}
330
2503
100
AcDbXrecord
280
     1
270
     1
271
     1
  0
XRECORD
  5
2504
102
{ACAD_REACTORS
330
2503
102
}
330
2503
100
AcDbXrecord
280
     1
270
     1
271
     1
  0
XRECORD
  5
2508
102
{ACAD_REACTORS
330
2503
102
}
330
2503
100
AcDbXrecord
280
     1
270
     1
271
     1
  0
XRECORD
  5
2507
102
{ACAD_REACTORS
330
2503
102
}
330
2503
100
AcDbXrecord
280
     1
270
     1
271
     1
  0
XRECORD
  5
2509
102
{ACAD_REACTORS
330
2503
102
}
330
2503
100
AcDbXrecord
280
     1
270
     1
271
     1
  0
XRECORD
  5
2506
102
{ACAD_REACTORS
330
2503
102
}
330
2503
100
AcDbXrecord
280
     1
270
     1
271
     1
  0
XRECORD
  5
25C1
102
{ACAD_REACTORS
330
25C0
102
}
330
25C0
100
AcDbXrecord
280
     1
102
DISPLAYNAME
  1
Imperial24
102
FLAGS
 90
        0
  0
CELLSTYLEMAP
  5
2588
102
{ACAD_REACTORS
330
2587
102
}
330
2587
100
AcDbCellStyleMap
 90
        3
300
CELLSTYLE
  1
TABLEFORMAT_BEGIN
 90
        5
170
     1
 91
        0
 92
    32768
 62
   257
 93
        1
300
CONTENTFORMAT
  1
CONTENTFORMAT_BEGIN
 90
        0
 91
        0
 92
      512
 93
        0
300

 40
0.0
140
1.0
 94
        5
 62
     0
340
2536
144
0.25
309
CONTENTFORMAT_END
171
     0
 94
        0
309
TABLEFORMAT_END
  1
CELLSTYLE_BEGIN
 90
        1
 91
        1
300
_TITLE
309
CELLSTYLE_END
300
CELLSTYLE
  1
TABLEFORMAT_BEGIN
 90
        5
170
     1
 91
        0
 92
        0
 62
   257
 93
        1
300
CONTENTFORMAT
  1
CONTENTFORMAT_BEGIN
 90
        0
 91
        0
 92
      512
 93
        0
300

 40
0.0
140
1.0
 94
        5
 62
     0
340
2536
144
0.18
309
CONTENTFORMAT_END
171
     0
 94
        0
309
TABLEFORMAT_END
  1
CELLSTYLE_BEGIN
 90
        2
 91
        1
300
_HEADER
309
CELLSTYLE_END
300
CELLSTYLE
  1
TABLEFORMAT_BEGIN
 90
        5
170
     1
 91
        0
 92
        0
 62
   257
 93
        1
300
CONTENTFORMAT
  1
CONTENTFORMAT_BEGIN
 90
        0
 91
        0
 92
      512
 93
        0
300

 40
0.0
140
1.0
 94
        2
 62
     0
340
2536
144
0.18
309
CONTENTFORMAT_END
171
     0
 94
        0
309
TABLEFORMAT_END
  1
CELLSTYLE_BEGIN
 90
        3
 91
        2
300
_DATA
309
CELLSTYLE_END
  0
XRECORD
  5
25BE
102
{ACAD_REACTORS
330
2587
102
}
330
2587
100
AcDbXrecord
280
     1
102
ACAD_ROUNDTRIP_PRE2007_TABLESTYLE
 90
      512
 91
        0
  1

 92
      512
 93
        0
  2

 94
      512
 95
        0
  3

  0
XRECORD
  5
2599
102
{ACAD_REACTORS
330
2598
102
}
330
2598
100
AcDbXrecord
280
     1
102
RTVSPost2010Prop28
280
     1
102
RTVSPost2010PropOp28
 70
     1
102
RTVSPost2010Prop29
280
     1
102
RTVSPost2010PropOp29
 70
     1
102
RTVSPost2010Prop30
280
     0
102
RTVSPost2010PropOp30
 70
     1
102
RTVSPost2010Prop31
280
     0
102
RTVSPost2010PropOp31
 70
     1
102
RTVSPost2010Prop32
280
     0
102
RTVSPost2010PropOp32
 70
     1
102
RTVSPost2010Prop33
280
     0
102
RTVSPost2010PropOp33
 70
     1
102
RTVSPost2010Prop34
280
     0
102
RTVSPost2010PropOp34
 70
     1
102
RTVSPost2010Prop35
280
     0
102
RTVSPost2010PropOp35
 70
     1
102
RTVSPost2010Prop36
280
     0
102
RTVSPost2010PropOp36
 70
     1
102
RTVSPost2010Prop37
 90
       50
102
RTVSPost2010PropOp37
 70
     1
102
RTVSPost2010Prop38
140
0.0
102
RTVSPost2010PropOp38
 70
     1
102
RTVSPost2010Prop39
140
1.0
102
RTVSPost2010PropOp39
 70
     1
102
RTVSPost2010Prop40
 90
        0
102
RTVSPost2010PropOp40
 70
     1
102
RTVSPost2010Prop41ColorIndex
 90
       18
102
RTVSPost2010Prop41ColorRGB
 90
        0
102
RTVSPost2010PropOp41
 70
     1
102
RTVSPost2010Prop42
 90
       50
102
RTVSPost2010PropOp42
 70
     1
102
RTVSPost2010Prop43
 90
        3
102
RTVSPost2010PropOp43
 70
     1
102
RTVSPost2010Prop44ColorIndex
 90
        5
102
RTVSPost2010Prop44ColorRGB
 90
      255
102
RTVSPost2010PropOp44
 70
     1
102
RTVSPost2010Prop45
280
     0
102
RTVSPost2010PropOp45
 70
     1
102
RTVSPost2010Prop46
 90
       50
102
RTVSPost2010PropOp46
 70
     1
102
RTVSPost2010Prop47
 90
       50
102
RTVSPost2010PropOp47
 70
     1
102
RTVSPost2010Prop48
 90
       50
102
RTVSPost2010PropOp48
 70
     1
102
RTVSPost2010Prop49
280
     0
102
RTVSPost2010PropOp49
 70
     1
102
RTVSPost2010Prop50
 90
       50
102
RTVSPost2010PropOp50
 70
     1
102
RTVSPost2010Prop51ColorIndex
 90
      256
102
RTVSPost2010Prop51ColorRGB
 90
-16777216
102
RTVSPost2010PropOp51
 70
     0
102
RTVSPost2010Prop52
140
1.0
102
RTVSPost2010PropOp52
 70
     0
102
RTVSPost2010Prop53
 90
        2
102
RTVSPost2010PropOp53
 70
     1
102
RTVSPost2010Prop54
  1
strokes_ogs.tif
102
RTVSPost2010PropOp54
 70
     1
102
RTVSPost2010Prop55
280
     0
102
RTVSPost2010PropOp55
 70
     1
102
RTVSPost2010Prop56
140
1.0
102
RTVSPost2010PropOp56
 70
     1
102
RTVSPost2010Prop57
140
1.0
102
RTVSPost2010PropOp57
 70
     1
102
RTVSPropertyOp0
 70
     1
102
RTVSPropertyOp1
 70
     1
102
RTVSPropertyOp2
 70
     1
102
RTVSPropertyOp3
 70
     1
102
RTVSPropertyOp4
 70
     1
102
RTVSPropertyOp5
 70
     1
102
RTVSPropertyOp6
 70
     1
102
RTVSPropertyOp7
 70
     1
102
RTVSPropertyOp8
 70
     1
102
RTVSPropertyOp9
 70
     1
102
RTVSPropertyOp10
 70
     1
102
RTVSPropertyOp11
 70
     1
102
RTVSPropertyOp12
 70
     1
102
RTVSPropertyOp13
 70
     1
102
RTVSPropertyOp14
 70
     1
102
RTVSPropertyOp15
 70
     1
102
RTVSPropertyOp16
 70
     1
102
RTVSPropertyOp17
 70
     1
102
RTVSPropertyOp18
 70
     1
102
RTVSPropertyOp19
 70
     1
102
RTVSPropertyOp20
 70
     1
102
RTVSPropertyOp21
 70
     1
102
RTVSPropertyOp22
 70
     1
102
RTVSPropertyOp23
 70
     1
102
RTVSPropertyOp24
 70
     1
102
RTVSPropertyOp25
 70
     1
102
RTVSPropertyOp26
 70
     1
102
RTVSPropertyOp27
 70
     1
102
RTVSPropertyOp28
 70
     1
102
RTVSPropertyOp29
 70
     1
102
RTVSPropertyOp30
 70
     1
102
RTVSPropertyOp31
 70
     1
102
RTVSPropertyOp32
 70
     1
102
RTVSPropertyOp33
 70
     1
102
RTVSPropertyOp34
 70
     1
102
RTVSPropertyOp35
 70
     1
102
RTVSPropertyOp36
 70
     1
102
RTVSPropertyOp37
 70
     1
102
RTVSPropertyOp38
 70
     1
102
RTVSPropertyOp39
 70
     1
102
RTVSPropertyOp40
 70
     1
102
RTVSPropertyOp41
 70
     1
102
RTVSPropertyOp42
 70
     1
102
RTVSPropertyOp43
 70
     1
102
RTVSPropertyOp44
 70
     1
102
RTVSPropertyOp45
 70
     1
102
RTVSPropertyOp46
 70
     1
102
RTVSPropertyOp47
 70
     1
102
RTVSPropertyOp48
 70
     1
102
RTVSPropertyOp49
 70
     1
102
RTVSPropertyOp50
 70
     1
102
RTVSPropertyOp51
 70
     0
102
RTVSPropertyOp52
 70
     0
102
RTVSPropertyOp53
 70
     1
102
RTVSPropertyOp54
 70
     1
102
RTVSPropertyOp55
 70
     1
102
RTVSPropertyOp56
 70
     1
102
RTVSPropertyOp57
 70
     1
102
RTVSPropertyOp58
 70
     1
102
RTVSPropertyOp59
 70
     1
102
RTVSPropertyOp60
 70
     1
102
RTVSPropertyOp61
 70
     1
102
RTVSPropertyOp62
 70
     1
  0
XRECORD
  5
2597
102
{ACAD_REACTORS
330
2596
102
}
330
2596
100
AcDbXrecord
280
     1
102
RTVSPost2010Prop28
280
     0
102
RTVSPost2010PropOp28
 70
     1
102
RTVSPost2010Prop29
280
     1
102
RTVSPost2010PropOp29
 70
     1
102
RTVSPost2010Prop30
280
     1
102
RTVSPost2010PropOp30
 70
     1
102
RTVSPost2010Prop31
280
     0
102
RTVSPost2010PropOp31
 70
     1
102
RTVSPost2010Prop32
280
     0
102
RTVSPost2010PropOp32
 70
     1
102
RTVSPost2010Prop33
280
     0
102
RTVSPost2010PropOp33
 70
     1
102
RTVSPost2010Prop34
280
     0
102
RTVSPost2010PropOp34
 70
     1
102
RTVSPost2010Prop35
280
     0
102
RTVSPost2010PropOp35
 70
     1
102
RTVSPost2010Prop36
280
     0
102
RTVSPost2010PropOp36
 70
     1
102
RTVSPost2010Prop37
 90
       50
102
RTVSPost2010PropOp37
 70
     1
102
RTVSPost2010Prop38
140
0.0
102
RTVSPost2010PropOp38
 70
     1
102
RTVSPost2010Prop39
140
1.0
102
RTVSPost2010PropOp39
 70
     1
102
RTVSPost2010Prop40
 90
        0
102
RTVSPost2010PropOp40
 70
     1
102
RTVSPost2010Prop41ColorIndex
 90
       18
102
RTVSPost2010Prop41ColorRGB
 90
        0
102
RTVSPost2010PropOp41
 70
     1
102
RTVSPost2010Prop42
 90
       50
102
RTVSPost2010PropOp42
 70
     1
102
RTVSPost2010Prop43
 90
        3
102
RTVSPost2010PropOp43
 70
     1
102
RTVSPost2010Prop44ColorIndex
 90
        5
102
RTVSPost2010Prop44ColorRGB
 90
      255
102
RTVSPost2010PropOp44
 70
     1
102
RTVSPost2010Prop45
280
     0
102
RTVSPost2010PropOp45
 70
     1
102
RTVSPost2010Prop46
 90
       50
102
RTVSPost2010PropOp46
 70
     1
102
RTVSPost2010Prop47
 90
       50
102
RTVSPost2010PropOp47
 70
     1
102
RTVSPost2010Prop48
 90
       50
102
RTVSPost2010PropOp48
 70
     1
102
RTVSPost2010Prop49
280
     0
102
RTVSPost2010PropOp49
 70
     1
102
RTVSPost2010Prop50
 90
       50
102
RTVSPost2010PropOp50
 70
     1
102
RTVSPost2010Prop51ColorIndex
 90
      256
102
RTVSPost2010Prop51ColorRGB
 90
-16777216
102
RTVSPost2010PropOp51
 70
     0
102
RTVSPost2010Prop52
140
1.0
102
RTVSPost2010PropOp52
 70
     0
102
RTVSPost2010Prop53
 90
        2
102
RTVSPost2010PropOp53
 70
     1
102
RTVSPost2010Prop54
  1
strokes_ogs.tif
102
RTVSPost2010PropOp54
 70
     1
102
RTVSPost2010Prop55
280
     0
102
RTVSPost2010PropOp55
 70
     1
102
RTVSPost2010Prop56
140
1.0
102
RTVSPost2010PropOp56
 70
     1
102
RTVSPost2010Prop57
140
1.0
102
RTVSPost2010PropOp57
 70
     1
102
RTVSPropertyOp0
 70
     1
102
RTVSPropertyOp1
 70
     1
102
RTVSPropertyOp2
 70
     1
102
RTVSPropertyOp3
 70
     1
102
RTVSPropertyOp4
 70
     1
102
RTVSPropertyOp5
 70
     1
102
RTVSPropertyOp6
 70
     1
102
RTVSPropertyOp7
 70
     1
102
RTVSPropertyOp8
 70
     1
102
RTVSPropertyOp9
 70
     1
102
RTVSPropertyOp10
 70
     1
102
RTVSPropertyOp11
 70
     1
102
RTVSPropertyOp12
 70
     1
102
RTVSPropertyOp13
 70
     1
102
RTVSPropertyOp14
 70
     1
102
RTVSPropertyOp15
 70
     1
102
RTVSPropertyOp16
 70
     1
102
RTVSPropertyOp17
 70
     1
102
RTVSPropertyOp18
 70
     1
102
RTVSPropertyOp19
 70
     1
102
RTVSPropertyOp20
 70
     1
102
RTVSPropertyOp21
 70
     1
102
RTVSPropertyOp22
 70
     1
102
RTVSPropertyOp23
 70
     1
102
RTVSPropertyOp24
 70
     1
102
RTVSPropertyOp25
 70
     1
102
RTVSPropertyOp26
 70
     1
102
RTVSPropertyOp27
 70
     1
102
RTVSPropertyOp28
 70
     1
102
RTVSPropertyOp29
 70
     1
102
RTVSPropertyOp30
 70
     1
102
RTVSPropertyOp31
 70
     1
102
RTVSPropertyOp32
 70
     1
102
RTVSPropertyOp33
 70
     1
102
RTVSPropertyOp34
 70
     1
102
RTVSPropertyOp35
 70
     1
102
RTVSPropertyOp36
 70
     1
102
RTVSPropertyOp37
 70
     1
102
RTVSPropertyOp38
 70
     1
102
RTVSPropertyOp39
 70
     1
102
RTVSPropertyOp40
 70
     1
102
RTVSPropertyOp41
 70
     1
102
RTVSPropertyOp42
 70
     1
102
RTVSPropertyOp43
 70
     1
102
RTVSPropertyOp44
 70
     1
102
RTVSPropertyOp45
 70
     1
102
RTVSPropertyOp46
 70
     1
102
RTVSPropertyOp47
 70
     1
102
RTVSPropertyOp48
 70
     1
102
RTVSPropertyOp49
 70
     1
102
RTVSPropertyOp50
 70
     1
102
RTVSPropertyOp51
 70
     0
102
RTVSPropertyOp52
 70
     0
102
RTVSPropertyOp53
 70
     1
102
RTVSPropertyOp54
 70
     1
102
RTVSPropertyOp55
 70
     1
102
RTVSPropertyOp56
 70
     1
102
RTVSPropertyOp57
 70
     1
102
RTVSPropertyOp58
 70
     1
102
RTVSPropertyOp59
 70
     1
102
RTVSPropertyOp60
 70
     1
102
RTVSPropertyOp61
 70
     1
102
RTVSPropertyOp62
 70
     1
  0
XRECORD
  5
25A5
102
{ACAD_REACTORS
330
25A4
102
}
330
25A4
100
AcDbXrecord
280
     1
102
RTVSPost2010Prop28
280
     0
102
RTVSPost2010PropOp28
 70
     1
102
RTVSPost2010Prop29
280
     1
102
RTVSPost2010PropOp29
 70
     1
102
RTVSPost2010Prop30
280
     1
102
RTVSPost2010PropOp30
 70
     1
102
RTVSPost2010Prop31
280
     0
102
RTVSPost2010PropOp31
 70
     1
102
RTVSPost2010Prop32
280
     0
102
RTVSPost2010PropOp32
 70
     1
102
RTVSPost2010Prop33
280
     0
102
RTVSPost2010PropOp33
 70
     1
102
RTVSPost2010Prop34
280
     0
102
RTVSPost2010PropOp34
 70
     1
102
RTVSPost2010Prop35
280
     0
102
RTVSPost2010PropOp35
 70
     1
102
RTVSPost2010Prop36
280
     0
102
RTVSPost2010PropOp36
 70
     1
102
RTVSPost2010Prop37
 90
       50
102
RTVSPost2010PropOp37
 70
     1
102
RTVSPost2010Prop38
140
0.0
102
RTVSPost2010PropOp38
 70
     1
102
RTVSPost2010Prop39
140
1.0
102
RTVSPost2010PropOp39
 70
     1
102
RTVSPost2010Prop40
 90
        0
102
RTVSPost2010PropOp40
 70
     1
102
RTVSPost2010Prop41ColorIndex
 90
       18
102
RTVSPost2010Prop41ColorRGB
 90
        0
102
RTVSPost2010PropOp41
 70
     1
102
RTVSPost2010Prop42
 90
       50
102
RTVSPost2010PropOp42
 70
     1
102
RTVSPost2010Prop43
 90
        3
102
RTVSPost2010PropOp43
 70
     1
102
RTVSPost2010Prop44ColorIndex
 90
        5
102
RTVSPost2010Prop44ColorRGB
 90
      255
102
RTVSPost2010PropOp44
 70
     1
102
RTVSPost2010Prop45
280
     0
102
RTVSPost2010PropOp45
 70
     1
102
RTVSPost2010Prop46
 90
       50
102
RTVSPost2010PropOp46
 70
     1
102
RTVSPost2010Prop47
 90
       50
102
RTVSPost2010PropOp47
 70
     1
102
RTVSPost2010Prop48
 90
       50
102
RTVSPost2010PropOp48
 70
     1
102
RTVSPost2010Prop49
280
     0
102
RTVSPost2010PropOp49
 70
     1
102
RTVSPost2010Prop50
 90
       50
102
RTVSPost2010PropOp50
 70
     1
102
RTVSPost2010Prop51ColorIndex
 90
      256
102
RTVSPost2010Prop51ColorRGB
 90
-16777216
102
RTVSPost2010PropOp51
 70
     0
102
RTVSPost2010Prop52
140
1.0
102
RTVSPost2010PropOp52
 70
     0
102
RTVSPost2010Prop53
 90
        2
102
RTVSPost2010PropOp53
 70
     1
102
RTVSPost2010Prop54
  1
strokes_ogs.tif
102
RTVSPost2010PropOp54
 70
     1
102
RTVSPost2010Prop55
280
     0
102
RTVSPost2010PropOp55
 70
     1
102
RTVSPost2010Prop56
140
1.0
102
RTVSPost2010PropOp56
 70
     1
102
RTVSPost2010Prop57
140
1.0
102
RTVSPost2010PropOp57
 70
     1
102
RTVSPropertyOp0
 70
     1
102
RTVSPropertyOp1
 70
     1
102
RTVSPropertyOp2
 70
     1
102
RTVSPropertyOp3
 70
     1
102
RTVSPropertyOp4
 70
     1
102
RTVSPropertyOp5
 70
     1
102
RTVSPropertyOp6
 70
     1
102
RTVSPropertyOp7
 70
     1
102
RTVSPropertyOp8
 70
     1
102
RTVSPropertyOp9
 70
     1
102
RTVSPropertyOp10
 70
     1
102
RTVSPropertyOp11
 70
     1
102
RTVSPropertyOp12
 70
     1
102
RTVSPropertyOp13
 70
     1
102
RTVSPropertyOp14
 70
     1
102
RTVSPropertyOp15
 70
     1
102
RTVSPropertyOp16
 70
     1
102
RTVSPropertyOp17
 70
     1
102
RTVSPropertyOp18
 70
     1
102
RTVSPropertyOp19
 70
     1
102
RTVSPropertyOp20
 70
     1
102
RTVSPropertyOp21
 70
     1
102
RTVSPropertyOp22
 70
     1
102
RTVSPropertyOp23
 70
     1
102
RTVSPropertyOp24
 70
     1
102
RTVSPropertyOp25
 70
     1
102
RTVSPropertyOp26
 70
     1
102
RTVSPropertyOp27
 70
     1
102
RTVSPropertyOp28
 70
     1
102
RTVSPropertyOp29
 70
     1
102
RTVSPropertyOp30
 70
     1
102
RTVSPropertyOp31
 70
     1
102
RTVSPropertyOp32
 70
     1
102
RTVSPropertyOp33
 70
     1
102
RTVSPropertyOp34
 70
     1
102
RTVSPropertyOp35
 70
     1
102
RTVSPropertyOp36
 70
     1
102
RTVSPropertyOp37
 70
     1
102
RTVSPropertyOp38
 70
     1
102
RTVSPropertyOp39
 70
     1
102
RTVSPropertyOp40
 70
     1
102
RTVSPropertyOp41
 70
     1
102
RTVSPropertyOp42
 70
     1
102
RTVSPropertyOp43
 70
     1
102
RTVSPropertyOp44
 70
     1
102
RTVSPropertyOp45
 70
     1
102
RTVSPropertyOp46
 70
     1
102
RTVSPropertyOp47
 70
     1
102
RTVSPropertyOp48
 70
     1
102
RTVSPropertyOp49
 70
     1
102
RTVSPropertyOp50
 70
     1
102
RTVSPropertyOp51
 70
     0
102
RTVSPropertyOp52
 70
     0
102
RTVSPropertyOp53
 70
     1
102
RTVSPropertyOp54
 70
     1
102
RTVSPropertyOp55
 70
     1
102
RTVSPropertyOp56
 70
     1
102
RTVSPropertyOp57
 70
     1
102
RTVSPropertyOp58
 70
     1
102
RTVSPropertyOp59
 70
     1
102
RTVSPropertyOp60
 70
     1
102
RTVSPropertyOp61
 70
     1
102
RTVSPropertyOp62
 70
     1
  0
XRECORD
  5
25AD
102
{ACAD_REACTORS
330
25AC
102
}
330
25AC
100
AcDbXrecord
280
     1
102
RTVSPost2010Prop28
280
     0
102
RTVSPost2010PropOp28
 70
     1
102
RTVSPost2010Prop29
280
     1
102
RTVSPost2010PropOp29
 70
     1
102
RTVSPost2010Prop30
280
     1
102
RTVSPost2010PropOp30
 70
     1
102
RTVSPost2010Prop31
280
     0
102
RTVSPost2010PropOp31
 70
     1
102
RTVSPost2010Prop32
280
     0
102
RTVSPost2010PropOp32
 70
     1
102
RTVSPost2010Prop33
280
     0
102
RTVSPost2010PropOp33
 70
     1
102
RTVSPost2010Prop34
280
     0
102
RTVSPost2010PropOp34
 70
     1
102
RTVSPost2010Prop35
280
     0
102
RTVSPost2010PropOp35
 70
     1
102
RTVSPost2010Prop36
280
     0
102
RTVSPost2010PropOp36
 70
     1
102
RTVSPost2010Prop37
 90
       50
102
RTVSPost2010PropOp37
 70
     1
102
RTVSPost2010Prop38
140
0.0
102
RTVSPost2010PropOp38
 70
     1
102
RTVSPost2010Prop39
140
1.0
102
RTVSPost2010PropOp39
 70
     1
102
RTVSPost2010Prop40
 90
        0
102
RTVSPost2010PropOp40
 70
     1
102
RTVSPost2010Prop41ColorIndex
 90
       18
102
RTVSPost2010Prop41ColorRGB
 90
        0
102
RTVSPost2010PropOp41
 70
     1
102
RTVSPost2010Prop42
 90
       50
102
RTVSPost2010PropOp42
 70
     1
102
RTVSPost2010Prop43
 90
        3
102
RTVSPost2010PropOp43
 70
     1
102
RTVSPost2010Prop44ColorIndex
 90
        5
102
RTVSPost2010Prop44ColorRGB
 90
      255
102
RTVSPost2010PropOp44
 70
     1
102
RTVSPost2010Prop45
280
     0
102
RTVSPost2010PropOp45
 70
     1
102
RTVSPost2010Prop46
 90
       50
102
RTVSPost2010PropOp46
 70
     1
102
RTVSPost2010Prop47
 90
       50
102
RTVSPost2010PropOp47
 70
     1
102
RTVSPost2010Prop48
 90
       50
102
RTVSPost2010PropOp48
 70
     1
102
RTVSPost2010Prop49
280
     0
102
RTVSPost2010PropOp49
 70
     1
102
RTVSPost2010Prop50
 90
       50
102
RTVSPost2010PropOp50
 70
     1
102
RTVSPost2010Prop51ColorIndex
 90
      256
102
RTVSPost2010Prop51ColorRGB
 90
-16777216
102
RTVSPost2010PropOp51
 70
     0
102
RTVSPost2010Prop52
140
1.0
102
RTVSPost2010PropOp52
 70
     0
102
RTVSPost2010Prop53
 90
        2
102
RTVSPost2010PropOp53
 70
     1
102
RTVSPost2010Prop54
  1
strokes_ogs.tif
102
RTVSPost2010PropOp54
 70
     1
102
RTVSPost2010Prop55
280
     0
102
RTVSPost2010PropOp55
 70
     1
102
RTVSPost2010Prop56
140
1.0
102
RTVSPost2010PropOp56
 70
     1
102
RTVSPost2010Prop57
140
1.0
102
RTVSPost2010PropOp57
 70
     1
102
RTVSPropertyOp0
 70
     1
102
RTVSPropertyOp1
 70
     1
102
RTVSPropertyOp2
 70
     1
102
RTVSPropertyOp3
 70
     1
102
RTVSPropertyOp4
 70
     1
102
RTVSPropertyOp5
 70
     1
102
RTVSPropertyOp6
 70
     1
102
RTVSPropertyOp7
 70
     1
102
RTVSPropertyOp8
 70
     1
102
RTVSPropertyOp9
 70
     1
102
RTVSPropertyOp10
 70
     1
102
RTVSPropertyOp11
 70
     1
102
RTVSPropertyOp12
 70
     1
102
RTVSPropertyOp13
 70
     1
102
RTVSPropertyOp14
 70
     1
102
RTVSPropertyOp15
 70
     1
102
RTVSPropertyOp16
 70
     1
102
RTVSPropertyOp17
 70
     1
102
RTVSPropertyOp18
 70
     1
102
RTVSPropertyOp19
 70
     1
102
RTVSPropertyOp20
 70
     1
102
RTVSPropertyOp21
 70
     1
102
RTVSPropertyOp22
 70
     1
102
RTVSPropertyOp23
 70
     1
102
RTVSPropertyOp24
 70
     1
102
RTVSPropertyOp25
 70
     1
102
RTVSPropertyOp26
 70
     1
102
RTVSPropertyOp27
 70
     1
102
RTVSPropertyOp28
 70
     1
102
RTVSPropertyOp29
 70
     1
102
RTVSPropertyOp30
 70
     1
102
RTVSPropertyOp31
 70
     1
102
RTVSPropertyOp32
 70
     1
102
RTVSPropertyOp33
 70
     1
102
RTVSPropertyOp34
 70
     1
102
RTVSPropertyOp35
 70
     1
102
RTVSPropertyOp36
 70
     1
102
RTVSPropertyOp37
 70
     1
102
RTVSPropertyOp38
 70
     1
102
RTVSPropertyOp39
 70
     1
102
RTVSPropertyOp40
 70
     1
102
RTVSPropertyOp41
 70
     1
102
RTVSPropertyOp42
 70
     1
102
RTVSPropertyOp43
 70
     1
102
RTVSPropertyOp44
 70
     1
102
RTVSPropertyOp45
 70
     1
102
RTVSPropertyOp46
 70
     1
102
RTVSPropertyOp47
 70
     1
102
RTVSPropertyOp48
 70
     1
102
RTVSPropertyOp49
 70
     1
102
RTVSPropertyOp50
 70
     1
102
RTVSPropertyOp51
 70
     0
102
RTVSPropertyOp52
 70
     0
102
RTVSPropertyOp53
 70
     1
102
RTVSPropertyOp54
 70
     1
102
RTVSPropertyOp55
 70
     1
102
RTVSPropertyOp56
 70
     1
102
RTVSPropertyOp57
 70
     1
102
RTVSPropertyOp58
 70
     1
102
RTVSPropertyOp59
 70
     1
102
RTVSPropertyOp60
 70
     1
102
RTVSPropertyOp61
 70
     1
102
RTVSPropertyOp62
 70
     1
  0
XRECORD
  5
259F
102
{ACAD_REACTORS
330
259E
102
}
330
259E
100
AcDbXrecord
280
     1
102
RTVSPost2010Prop28
280
     0
102
RTVSPost2010PropOp28
 70
     1
102
RTVSPost2010Prop29
280
     1
102
RTVSPost2010PropOp29
 70
     1
102
RTVSPost2010Prop30
280
     1
102
RTVSPost2010PropOp30
 70
     1
102
RTVSPost2010Prop31
280
     0
102
RTVSPost2010PropOp31
 70
     1
102
RTVSPost2010Prop32
280
     0
102
RTVSPost2010PropOp32
 70
     1
102
RTVSPost2010Prop33
280
     0
102
RTVSPost2010PropOp33
 70
     1
102
RTVSPost2010Prop34
280
     0
102
RTVSPost2010PropOp34
 70
     1
102
RTVSPost2010Prop35
280
     0
102
RTVSPost2010PropOp35
 70
     1
102
RTVSPost2010Prop36
280
     0
102
RTVSPost2010PropOp36
 70
     1
102
RTVSPost2010Prop37
 90
       50
102
RTVSPost2010PropOp37
 70
     1
102
RTVSPost2010Prop38
140
0.0
102
RTVSPost2010PropOp38
 70
     1
102
RTVSPost2010Prop39
140
1.0
102
RTVSPost2010PropOp39
 70
     1
102
RTVSPost2010Prop40
 90
        0
102
RTVSPost2010PropOp40
 70
     1
102
RTVSPost2010Prop41ColorIndex
 90
       18
102
RTVSPost2010Prop41ColorRGB
 90
        0
102
RTVSPost2010PropOp41
 70
     1
102
RTVSPost2010Prop42
 90
       50
102
RTVSPost2010PropOp42
 70
     1
102
RTVSPost2010Prop43
 90
        3
102
RTVSPost2010PropOp43
 70
     1
102
RTVSPost2010Prop44ColorIndex
 90
        5
102
RTVSPost2010Prop44ColorRGB
 90
      255
102
RTVSPost2010PropOp44
 70
     1
102
RTVSPost2010Prop45
280
     0
102
RTVSPost2010PropOp45
 70
     1
102
RTVSPost2010Prop46
 90
       50
102
RTVSPost2010PropOp46
 70
     1
102
RTVSPost2010Prop47
 90
       50
102
RTVSPost2010PropOp47
 70
     1
102
RTVSPost2010Prop48
 90
       50
102
RTVSPost2010PropOp48
 70
     1
102
RTVSPost2010Prop49
280
     0
102
RTVSPost2010PropOp49
 70
     1
102
RTVSPost2010Prop50
 90
       50
102
RTVSPost2010PropOp50
 70
     1
102
RTVSPost2010Prop51ColorIndex
 90
      256
102
RTVSPost2010Prop51ColorRGB
 90
-16777216
102
RTVSPost2010PropOp51
 70
     0
102
RTVSPost2010Prop52
140
1.0
102
RTVSPost2010PropOp52
 70
     0
102
RTVSPost2010Prop53
 90
        2
102
RTVSPost2010PropOp53
 70
     1
102
RTVSPost2010Prop54
  1
strokes_ogs.tif
102
RTVSPost2010PropOp54
 70
     1
102
RTVSPost2010Prop55
280
     0
102
RTVSPost2010PropOp55
 70
     1
102
RTVSPost2010Prop56
140
1.0
102
RTVSPost2010PropOp56
 70
     1
102
RTVSPost2010Prop57
140
1.0
102
RTVSPost2010PropOp57
 70
     1
102
RTVSPropertyOp0
 70
     1
102
RTVSPropertyOp1
 70
     1
102
RTVSPropertyOp2
 70
     1
102
RTVSPropertyOp3
 70
     1
102
RTVSPropertyOp4
 70
     1
102
RTVSPropertyOp5
 70
     1
102
RTVSPropertyOp6
 70
     1
102
RTVSPropertyOp7
 70
     1
102
RTVSPropertyOp8
 70
     1
102
RTVSPropertyOp9
 70
     1
102
RTVSPropertyOp10
 70
     1
102
RTVSPropertyOp11
 70
     1
102
RTVSPropertyOp12
 70
     1
102
RTVSPropertyOp13
 70
     1
102
RTVSPropertyOp14
 70
     1
102
RTVSPropertyOp15
 70
     1
102
RTVSPropertyOp16
 70
     1
102
RTVSPropertyOp17
 70
     1
102
RTVSPropertyOp18
 70
     1
102
RTVSPropertyOp19
 70
     1
102
RTVSPropertyOp20
 70
     1
102
RTVSPropertyOp21
 70
     1
102
RTVSPropertyOp22
 70
     1
102
RTVSPropertyOp23
 70
     1
102
RTVSPropertyOp24
 70
     1
102
RTVSPropertyOp25
 70
     1
102
RTVSPropertyOp26
 70
     1
102
RTVSPropertyOp27
 70
     1
102
RTVSPropertyOp28
 70
     1
102
RTVSPropertyOp29
 70
     1
102
RTVSPropertyOp30
 70
     1
102
RTVSPropertyOp31
 70
     1
102
RTVSPropertyOp32
 70
     1
102
RTVSPropertyOp33
 70
     1
102
RTVSPropertyOp34
 70
     1
102
RTVSPropertyOp35
 70
     1
102
RTVSPropertyOp36
 70
     1
102
RTVSPropertyOp37
 70
     1
102
RTVSPropertyOp38
 70
     1
102
RTVSPropertyOp39
 70
     1
102
RTVSPropertyOp40
 70
     1
102
RTVSPropertyOp41
 70
     1
102
RTVSPropertyOp42
 70
     1
102
RTVSPropertyOp43
 70
     1
102
RTVSPropertyOp44
 70
     1
102
RTVSPropertyOp45
 70
     1
102
RTVSPropertyOp46
 70
     1
102
RTVSPropertyOp47
 70
     1
102
RTVSPropertyOp48
 70
     1
102
RTVSPropertyOp49
 70
     1
102
RTVSPropertyOp50
 70
     1
102
RTVSPropertyOp51
 70
     0
102
RTVSPropertyOp52
 70
     0
102
RTVSPropertyOp53
 70
     1
102
RTVSPropertyOp54
 70
     1
102
RTVSPropertyOp55
 70
     1
102
RTVSPropertyOp56
 70
     1
102
RTVSPropertyOp57
 70
     1
102
RTVSPropertyOp58
 70
     1
102
RTVSPropertyOp59
 70
     1
102
RTVSPropertyOp60
 70
     1
102
RTVSPropertyOp61
 70
     1
102
RTVSPropertyOp62
 70
     1
  0
XRECORD
  5
25A3
102
{ACAD_REACTORS
330
25A2
102
}
330
25A2
100
AcDbXrecord
280
     1
102
RTVSPost2010Prop28
280
     0
102
RTVSPost2010PropOp28
 70
     1
102
RTVSPost2010Prop29
280
     1
102
RTVSPost2010PropOp29
 70
     1
102
RTVSPost2010Prop30
280
     1
102
RTVSPost2010PropOp30
 70
     1
102
RTVSPost2010Prop31
280
     0
102
RTVSPost2010PropOp31
 70
     1
102
RTVSPost2010Prop32
280
     0
102
RTVSPost2010PropOp32
 70
     1
102
RTVSPost2010Prop33
280
     0
102
RTVSPost2010PropOp33
 70
     1
102
RTVSPost2010Prop34
280
     0
102
RTVSPost2010PropOp34
 70
     1
102
RTVSPost2010Prop35
280
     0
102
RTVSPost2010PropOp35
 70
     1
102
RTVSPost2010Prop36
280
     0
102
RTVSPost2010PropOp36
 70
     1
102
RTVSPost2010Prop37
 90
       50
102
RTVSPost2010PropOp37
 70
     1
102
RTVSPost2010Prop38
140
0.0
102
RTVSPost2010PropOp38
 70
     1
102
RTVSPost2010Prop39
140
1.0
102
RTVSPost2010PropOp39
 70
     1
102
RTVSPost2010Prop40
 90
        0
102
RTVSPost2010PropOp40
 70
     1
102
RTVSPost2010Prop41ColorIndex
 90
       18
102
RTVSPost2010Prop41ColorRGB
 90
        0
102
RTVSPost2010PropOp41
 70
     1
102
RTVSPost2010Prop42
 90
       50
102
RTVSPost2010PropOp42
 70
     1
102
RTVSPost2010Prop43
 90
        3
102
RTVSPost2010PropOp43
 70
     1
102
RTVSPost2010Prop44ColorIndex
 90
        5
102
RTVSPost2010Prop44ColorRGB
 90
      255
102
RTVSPost2010PropOp44
 70
     1
102
RTVSPost2010Prop45
280
     0
102
RTVSPost2010PropOp45
 70
     1
102
RTVSPost2010Prop46
 90
       50
102
RTVSPost2010PropOp46
 70
     1
102
RTVSPost2010Prop47
 90
       50
102
RTVSPost2010PropOp47
 70
     1
102
RTVSPost2010Prop48
 90
       50
102
RTVSPost2010PropOp48
 70
     1
102
RTVSPost2010Prop49
280
     0
102
RTVSPost2010PropOp49
 70
     1
102
RTVSPost2010Prop50
 90
       50
102
RTVSPost2010PropOp50
 70
     1
102
RTVSPost2010Prop51ColorIndex
 90
      256
102
RTVSPost2010Prop51ColorRGB
 90
-16777216
102
RTVSPost2010PropOp51
 70
     0
102
RTVSPost2010Prop52
140
1.0
102
RTVSPost2010PropOp52
 70
     0
102
RTVSPost2010Prop53
 90
        2
102
RTVSPost2010PropOp53
 70
     1
102
RTVSPost2010Prop54
  1
strokes_ogs.tif
102
RTVSPost2010PropOp54
 70
     1
102
RTVSPost2010Prop55
280
     0
102
RTVSPost2010PropOp55
 70
     1
102
RTVSPost2010Prop56
140
1.0
102
RTVSPost2010PropOp56
 70
     1
102
RTVSPost2010Prop57
140
1.0
102
RTVSPost2010PropOp57
 70
     1
102
RTVSPropertyOp0
 70
     1
102
RTVSPropertyOp1
 70
     1
102
RTVSPropertyOp2
 70
     1
102
RTVSPropertyOp3
 70
     1
102
RTVSPropertyOp4
 70
     1
102
RTVSPropertyOp5
 70
     1
102
RTVSPropertyOp6
 70
     1
102
RTVSPropertyOp7
 70
     1
102
RTVSPropertyOp8
 70
     1
102
RTVSPropertyOp9
 70
     1
102
RTVSPropertyOp10
 70
     1
102
RTVSPropertyOp11
 70
     1
102
RTVSPropertyOp12
 70
     1
102
RTVSPropertyOp13
 70
     1
102
RTVSPropertyOp14
 70
     1
102
RTVSPropertyOp15
 70
     1
102
RTVSPropertyOp16
 70
     1
102
RTVSPropertyOp17
 70
     1
102
RTVSPropertyOp18
 70
     1
102
RTVSPropertyOp19
 70
     1
102
RTVSPropertyOp20
 70
     1
102
RTVSPropertyOp21
 70
     1
102
RTVSPropertyOp22
 70
     1
102
RTVSPropertyOp23
 70
     1
102
RTVSPropertyOp24
 70
     1
102
RTVSPropertyOp25
 70
     1
102
RTVSPropertyOp26
 70
     1
102
RTVSPropertyOp27
 70
     1
102
RTVSPropertyOp28
 70
     1
102
RTVSPropertyOp29
 70
     1
102
RTVSPropertyOp30
 70
     1
102
RTVSPropertyOp31
 70
     1
102
RTVSPropertyOp32
 70
     1
102
RTVSPropertyOp33
 70
     1
102
RTVSPropertyOp34
 70
     1
102
RTVSPropertyOp35
 70
     1
102
RTVSPropertyOp36
 70
     1
102
RTVSPropertyOp37
 70
     1
102
RTVSPropertyOp38
 70
     1
102
RTVSPropertyOp39
 70
     1
102
RTVSPropertyOp40
 70
     1
102
RTVSPropertyOp41
 70
     1
102
RTVSPropertyOp42
 70
     1
102
RTVSPropertyOp43
 70
     1
102
RTVSPropertyOp44
 70
     1
102
RTVSPropertyOp45
 70
     1
102
RTVSPropertyOp46
 70
     1
102
RTVSPropertyOp47
 70
     1
102
RTVSPropertyOp48
 70
     1
102
RTVSPropertyOp49
 70
     1
102
RTVSPropertyOp50
 70
     1
102
RTVSPropertyOp51
 70
     0
102
RTVSPropertyOp52
 70
     0
102
RTVSPropertyOp53
 70
     1
102
RTVSPropertyOp54
 70
     1
102
RTVSPropertyOp55
 70
     1
102
RTVSPropertyOp56
 70
     1
102
RTVSPropertyOp57
 70
     1
102
RTVSPropertyOp58
 70
     1
102
RTVSPropertyOp59
 70
     1
102
RTVSPropertyOp60
 70
     1
102
RTVSPropertyOp61
 70
     1
102
RTVSPropertyOp62
 70
     1
  0
XRECORD
  5
25BD
102
{ACAD_REACTORS
330
25BC
102
}
330
25BC
100
AcDbXrecord
280
     1
102
RTVSPost2010Prop28
280
     0
102
RTVSPost2010PropOp28
 70
     1
102
RTVSPost2010Prop29
280
     1
102
RTVSPost2010PropOp29
 70
     1
102
RTVSPost2010Prop30
280
     1
102
RTVSPost2010PropOp30
 70
     1
102
RTVSPost2010Prop31
280
     0
102
RTVSPost2010PropOp31
 70
     1
102
RTVSPost2010Prop32
280
     0
102
RTVSPost2010PropOp32
 70
     1
102
RTVSPost2010Prop33
280
     0
102
RTVSPost2010PropOp33
 70
     1
102
RTVSPost2010Prop34
280
     0
102
RTVSPost2010PropOp34
 70
     1
102
RTVSPost2010Prop35
280
     0
102
RTVSPost2010PropOp35
 70
     1
102
RTVSPost2010Prop36
280
     0
102
RTVSPost2010PropOp36
 70
     1
102
RTVSPost2010Prop37
 90
       50
102
RTVSPost2010PropOp37
 70
     0
102
RTVSPost2010Prop38
140
0.0
102
RTVSPost2010PropOp38
 70
     0
102
RTVSPost2010Prop39
140
1.0
102
RTVSPost2010PropOp39
 70
     0
102
RTVSPost2010Prop40
 90
        0
102
RTVSPost2010PropOp40
 70
     0
102
RTVSPost2010Prop41ColorIndex
 90
       18
102
RTVSPost2010Prop41ColorRGB
 90
        0
102
RTVSPost2010PropOp41
 70
     0
102
RTVSPost2010Prop42
 90
       50
102
RTVSPost2010PropOp42
 70
     0
102
RTVSPost2010Prop43
 90
        3
102
RTVSPost2010PropOp43
 70
     0
102
RTVSPost2010Prop44ColorIndex
 90
        5
102
RTVSPost2010Prop44ColorRGB
 90
      255
102
RTVSPost2010PropOp44
 70
     0
102
RTVSPost2010Prop45
280
     0
102
RTVSPost2010PropOp45
 70
     1
102
RTVSPost2010Prop46
 90
       50
102
RTVSPost2010PropOp46
 70
     0
102
RTVSPost2010Prop47
 90
       50
102
RTVSPost2010PropOp47
 70
     0
102
RTVSPost2010Prop48
 90
       50
102
RTVSPost2010PropOp48
 70
     0
102
RTVSPost2010Prop49
280
     0
102
RTVSPost2010PropOp49
 70
     1
102
RTVSPost2010Prop50
 90
       50
102
RTVSPost2010PropOp50
 70
     0
102
RTVSPost2010Prop51ColorIndex
 90
      256
102
RTVSPost2010Prop51ColorRGB
 90
-16777216
102
RTVSPost2010PropOp51
 70
     0
102
RTVSPost2010Prop52
140
1.0
102
RTVSPost2010PropOp52
 70
     0
102
RTVSPost2010Prop53
 90
        2
102
RTVSPost2010PropOp53
 70
     0
102
RTVSPost2010Prop54
  1
strokes_ogs.tif
102
RTVSPost2010PropOp54
 70
     0
102
RTVSPost2010Prop55
280
     0
102
RTVSPost2010PropOp55
 70
     1
102
RTVSPost2010Prop56
140
1.0
102
RTVSPost2010PropOp56
 70
     0
102
RTVSPost2010Prop57
140
1.0
102
RTVSPost2010PropOp57
 70
     0
102
RTVSPropertyOp0
 70
     0
102
RTVSPropertyOp1
 70
     0
102
RTVSPropertyOp2
 70
     0
102
RTVSPropertyOp3
 70
     0
102
RTVSPropertyOp4
 70
     0
102
RTVSPropertyOp5
 70
     0
102
RTVSPropertyOp6
 70
     0
102
RTVSPropertyOp7
 70
     0
102
RTVSPropertyOp8
 70
     0
102
RTVSPropertyOp9
 70
     0
102
RTVSPropertyOp10
 70
     0
102
RTVSPropertyOp11
 70
     0
102
RTVSPropertyOp12
 70
     0
102
RTVSPropertyOp13
 70
     0
102
RTVSPropertyOp14
 70
     2
102
RTVSPropertyOp15
 70
     0
102
RTVSPropertyOp16
 70
     0
102
RTVSPropertyOp17
 70
     0
102
RTVSPropertyOp18
 70
     0
102
RTVSPropertyOp19
 70
     0
102
RTVSPropertyOp20
 70
     0
102
RTVSPropertyOp21
 70
     0
102
RTVSPropertyOp22
 70
     0
102
RTVSPropertyOp23
 70
     0
102
RTVSPropertyOp24
 70
     0
102
RTVSPropertyOp25
 70
     0
102
RTVSPropertyOp26
 70
     0
102
RTVSPropertyOp27
 70
     0
102
RTVSPropertyOp28
 70
     1
102
RTVSPropertyOp29
 70
     1
102
RTVSPropertyOp30
 70
     1
102
RTVSPropertyOp31
 70
     1
102
RTVSPropertyOp32
 70
     1
102
RTVSPropertyOp33
 70
     1
102
RTVSPropertyOp34
 70
     1
102
RTVSPropertyOp35
 70
     1
102
RTVSPropertyOp36
 70
     1
102
RTVSPropertyOp37
 70
     0
102
RTVSPropertyOp38
 70
     0
102
RTVSPropertyOp39
 70
     0
102
RTVSPropertyOp40
 70
     0
102
RTVSPropertyOp41
 70
     0
102
RTVSPropertyOp42
 70
     0
102
RTVSPropertyOp43
 70
     0
102
RTVSPropertyOp44
 70
     0
102
RTVSPropertyOp45
 70
     1
102
RTVSPropertyOp46
 70
     0
102
RTVSPropertyOp47
 70
     0
102
RTVSPropertyOp48
 70
     0
102
RTVSPropertyOp49
 70
     1
102
RTVSPropertyOp50
 70
     0
102
RTVSPropertyOp51
 70
     0
102
RTVSPropertyOp52
 70
     0
102
RTVSPropertyOp53
 70
     0
102
RTVSPropertyOp54
 70
     0
102
RTVSPropertyOp55
 70
     1
102
RTVSPropertyOp56
 70
     0
102
RTVSPropertyOp57
 70
     0
102
RTVSPropertyOp58
 70
     0
102
RTVSPropertyOp59
 70
     0
102
RTVSPropertyOp60
 70
     0
102
RTVSPropertyOp61
 70
     0
102
RTVSPropertyOp62
 70
     0
  0
XRECORD
  5
25AB
102
{ACAD_REACTORS
330
25AA
102
}
330
25AA
100
AcDbXrecord
280
     1
102
RTVSPost2010Prop28
280
     0
102
RTVSPost2010PropOp28
 70
     1
102
RTVSPost2010Prop29
280
     1
102
RTVSPost2010PropOp29
 70
     1
102
RTVSPost2010Prop30
280
     1
102
RTVSPost2010PropOp30
 70
     1
102
RTVSPost2010Prop31
280
     0
102
RTVSPost2010PropOp31
 70
     1
102
RTVSPost2010Prop32
280
     0
102
RTVSPost2010PropOp32
 70
     1
102
RTVSPost2010Prop33
280
     0
102
RTVSPost2010PropOp33
 70
     1
102
RTVSPost2010Prop34
280
     0
102
RTVSPost2010PropOp34
 70
     1
102
RTVSPost2010Prop35
280
     0
102
RTVSPost2010PropOp35
 70
     1
102
RTVSPost2010Prop36
280
     0
102
RTVSPost2010PropOp36
 70
     1
102
RTVSPost2010Prop37
 90
       50
102
RTVSPost2010PropOp37
 70
     1
102
RTVSPost2010Prop38
140
0.0
102
RTVSPost2010PropOp38
 70
     1
102
RTVSPost2010Prop39
140
1.0
102
RTVSPost2010PropOp39
 70
     1
102
RTVSPost2010Prop40
 90
        0
102
RTVSPost2010PropOp40
 70
     1
102
RTVSPost2010Prop41ColorIndex
 90
       18
102
RTVSPost2010Prop41ColorRGB
 90
        0
102
RTVSPost2010PropOp41
 70
     1
102
RTVSPost2010Prop42
 90
       50
102
RTVSPost2010PropOp42
 70
     1
102
RTVSPost2010Prop43
 90
        3
102
RTVSPost2010PropOp43
 70
     1
102
RTVSPost2010Prop44ColorIndex
 90
        5
102
RTVSPost2010Prop44ColorRGB
 90
      255
102
RTVSPost2010PropOp44
 70
     1
102
RTVSPost2010Prop45
280
     0
102
RTVSPost2010PropOp45
 70
     1
102
RTVSPost2010Prop46
 90
       50
102
RTVSPost2010PropOp46
 70
     1
102
RTVSPost2010Prop47
 90
       50
102
RTVSPost2010PropOp47
 70
     1
102
RTVSPost2010Prop48
 90
       50
102
RTVSPost2010PropOp48
 70
     1
102
RTVSPost2010Prop49
280
     0
102
RTVSPost2010PropOp49
 70
     1
102
RTVSPost2010Prop50
 90
       50
102
RTVSPost2010PropOp50
 70
     1
102
RTVSPost2010Prop51ColorIndex
 90
      256
102
RTVSPost2010Prop51ColorRGB
 90
-16777216
102
RTVSPost2010PropOp51
 70
     0
102
RTVSPost2010Prop52
140
1.0
102
RTVSPost2010PropOp52
 70
     0
102
RTVSPost2010Prop53
 90
        2
102
RTVSPost2010PropOp53
 70
     1
102
RTVSPost2010Prop54
  1
strokes_ogs.tif
102
RTVSPost2010PropOp54
 70
     1
102
RTVSPost2010Prop55
280
     0
102
RTVSPost2010PropOp55
 70
     1
102
RTVSPost2010Prop56
140
1.0
102
RTVSPost2010PropOp56
 70
     1
102
RTVSPost2010Prop57
140
1.0
102
RTVSPost2010PropOp57
 70
     1
102
RTVSPropertyOp0
 70
     1
102
RTVSPropertyOp1
 70
     1
102
RTVSPropertyOp2
 70
     1
102
RTVSPropertyOp3
 70
     1
102
RTVSPropertyOp4
 70
     1
102
RTVSPropertyOp5
 70
     1
102
RTVSPropertyOp6
 70
     1
102
RTVSPropertyOp7
 70
     1
102
RTVSPropertyOp8
 70
     1
102
RTVSPropertyOp9
 70
     1
102
RTVSPropertyOp10
 70
     1
102
RTVSPropertyOp11
 70
     1
102
RTVSPropertyOp12
 70
     1
102
RTVSPropertyOp13
 70
     1
102
RTVSPropertyOp14
 70
     1
102
RTVSPropertyOp15
 70
     1
102
RTVSPropertyOp16
 70
     1
102
RTVSPropertyOp17
 70
     1
102
RTVSPropertyOp18
 70
     1
102
RTVSPropertyOp19
 70
     1
102
RTVSPropertyOp20
 70
     1
102
RTVSPropertyOp21
 70
     1
102
RTVSPropertyOp22
 70
     1
102
RTVSPropertyOp23
 70
     1
102
RTVSPropertyOp24
 70
     1
102
RTVSPropertyOp25
 70
     1
102
RTVSPropertyOp26
 70
     1
102
RTVSPropertyOp27
 70
     1
102
RTVSPropertyOp28
 70
     1
102
RTVSPropertyOp29
 70
     1
102
RTVSPropertyOp30
 70
     1
102
RTVSPropertyOp31
 70
     1
102
RTVSPropertyOp32
 70
     1
102
RTVSPropertyOp33
 70
     1
102
RTVSPropertyOp34
 70
     1
102
RTVSPropertyOp35
 70
     1
102
RTVSPropertyOp36
 70
     1
102
RTVSPropertyOp37
 70
     1
102
RTVSPropertyOp38
 70
     1
102
RTVSPropertyOp39
 70
     1
102
RTVSPropertyOp40
 70
     1
102
RTVSPropertyOp41
 70
     1
102
RTVSPropertyOp42
 70
     1
102
RTVSPropertyOp43
 70
     1
102
RTVSPropertyOp44
 70
     1
102
RTVSPropertyOp45
 70
     1
102
RTVSPropertyOp46
 70
     1
102
RTVSPropertyOp47
 70
     1
102
RTVSPropertyOp48
 70
     1
102
RTVSPropertyOp49
 70
     1
102
RTVSPropertyOp50
 70
     1
102
RTVSPropertyOp51
 70
     0
102
RTVSPropertyOp52
 70
     0
102
RTVSPropertyOp53
 70
     1
102
RTVSPropertyOp54
 70
     1
102
RTVSPropertyOp55
 70
     1
102
RTVSPropertyOp56
 70
     1
102
RTVSPropertyOp57
 70
     1
102
RTVSPropertyOp58
 70
     1
102
RTVSPropertyOp59
 70
     1
102
RTVSPropertyOp60
 70
     1
102
RTVSPropertyOp61
 70
     1
102
RTVSPropertyOp62
 70
     1
  0
XRECORD
  5
258F
102
{ACAD_REACTORS
330
258E
102
}
330
258E
100
AcDbXrecord
280
     1
102
RTVSPost2010Prop28
280
     0
102
RTVSPost2010PropOp28
 70
     1
102
RTVSPost2010Prop29
280
     1
102
RTVSPost2010PropOp29
 70
     1
102
RTVSPost2010Prop30
280
     1
102
RTVSPost2010PropOp30
 70
     1
102
RTVSPost2010Prop31
280
     0
102
RTVSPost2010PropOp31
 70
     1
102
RTVSPost2010Prop32
280
     0
102
RTVSPost2010PropOp32
 70
     1
102
RTVSPost2010Prop33
280
     0
102
RTVSPost2010PropOp33
 70
     1
102
RTVSPost2010Prop34
280
     0
102
RTVSPost2010PropOp34
 70
     1
102
RTVSPost2010Prop35
280
     0
102
RTVSPost2010PropOp35
 70
     1
102
RTVSPost2010Prop36
280
     0
102
RTVSPost2010PropOp36
 70
     1
102
RTVSPost2010Prop37
 90
       50
102
RTVSPost2010PropOp37
 70
     1
102
RTVSPost2010Prop38
140
0.0
102
RTVSPost2010PropOp38
 70
     1
102
RTVSPost2010Prop39
140
1.0
102
RTVSPost2010PropOp39
 70
     1
102
RTVSPost2010Prop40
 90
        0
102
RTVSPost2010PropOp40
 70
     1
102
RTVSPost2010Prop41ColorIndex
 90
       18
102
RTVSPost2010Prop41ColorRGB
 90
        0
102
RTVSPost2010PropOp41
 70
     1
102
RTVSPost2010Prop42
 90
       50
102
RTVSPost2010PropOp42
 70
     1
102
RTVSPost2010Prop43
 90
        3
102
RTVSPost2010PropOp43
 70
     1
102
RTVSPost2010Prop44ColorIndex
 90
        5
102
RTVSPost2010Prop44ColorRGB
 90
      255
102
RTVSPost2010PropOp44
 70
     1
102
RTVSPost2010Prop45
280
     0
102
RTVSPost2010PropOp45
 70
     1
102
RTVSPost2010Prop46
 90
       50
102
RTVSPost2010PropOp46
 70
     1
102
RTVSPost2010Prop47
 90
       50
102
RTVSPost2010PropOp47
 70
     1
102
RTVSPost2010Prop48
 90
       50
102
RTVSPost2010PropOp48
 70
     1
102
RTVSPost2010Prop49
280
     0
102
RTVSPost2010PropOp49
 70
     1
102
RTVSPost2010Prop50
 90
       50
102
RTVSPost2010PropOp50
 70
     1
102
RTVSPost2010Prop51ColorIndex
 90
      256
102
RTVSPost2010Prop51ColorRGB
 90
-16777216
102
RTVSPost2010PropOp51
 70
     0
102
RTVSPost2010Prop52
140
1.0
102
RTVSPost2010PropOp52
 70
     0
102
RTVSPost2010Prop53
 90
        2
102
RTVSPost2010PropOp53
 70
     1
102
RTVSPost2010Prop54
  1
strokes_ogs.tif
102
RTVSPost2010PropOp54
 70
     1
102
RTVSPost2010Prop55
280
     0
102
RTVSPost2010PropOp55
 70
     1
102
RTVSPost2010Prop56
140
1.0
102
RTVSPost2010PropOp56
 70
     1
102
RTVSPost2010Prop57
140
1.0
102
RTVSPost2010PropOp57
 70
     1
102
RTVSPropertyOp0
 70
     1
102
RTVSPropertyOp1
 70
     1
102
RTVSPropertyOp2
 70
     1
102
RTVSPropertyOp3
 70
     1
102
RTVSPropertyOp4
 70
     1
102
RTVSPropertyOp5
 70
     1
102
RTVSPropertyOp6
 70
     1
102
RTVSPropertyOp7
 70
     1
102
RTVSPropertyOp8
 70
     1
102
RTVSPropertyOp9
 70
     1
102
RTVSPropertyOp10
 70
     1
102
RTVSPropertyOp11
 70
     1
102
RTVSPropertyOp12
 70
     1
102
RTVSPropertyOp13
 70
     1
102
RTVSPropertyOp14
 70
     1
102
RTVSPropertyOp15
 70
     1
102
RTVSPropertyOp16
 70
     1
102
RTVSPropertyOp17
 70
     1
102
RTVSPropertyOp18
 70
     1
102
RTVSPropertyOp19
 70
     1
102
RTVSPropertyOp20
 70
     1
102
RTVSPropertyOp21
 70
     1
102
RTVSPropertyOp22
 70
     1
102
RTVSPropertyOp23
 70
     1
102
RTVSPropertyOp24
 70
     1
102
RTVSPropertyOp25
 70
     1
102
RTVSPropertyOp26
 70
     1
102
RTVSPropertyOp27
 70
     1
102
RTVSPropertyOp28
 70
     1
102
RTVSPropertyOp29
 70
     1
102
RTVSPropertyOp30
 70
     1
102
RTVSPropertyOp31
 70
     1
102
RTVSPropertyOp32
 70
     1
102
RTVSPropertyOp33
 70
     1
102
RTVSPropertyOp34
 70
     1
102
RTVSPropertyOp35
 70
     1
102
RTVSPropertyOp36
 70
     1
102
RTVSPropertyOp37
 70
     1
102
RTVSPropertyOp38
 70
     1
102
RTVSPropertyOp39
 70
     1
102
RTVSPropertyOp40
 70
     1
102
RTVSPropertyOp41
 70
     1
102
RTVSPropertyOp42
 70
     1
102
RTVSPropertyOp43
 70
     1
102
RTVSPropertyOp44
 70
     1
102
RTVSPropertyOp45
 70
     1
102
RTVSPropertyOp46
 70
     1
102
RTVSPropertyOp47
 70
     1
102
RTVSPropertyOp48
 70
     1
102
RTVSPropertyOp49
 70
     1
102
RTVSPropertyOp50
 70
     1
102
RTVSPropertyOp51
 70
     0
102
RTVSPropertyOp52
 70
     0
102
RTVSPropertyOp53
 70
     1
102
RTVSPropertyOp54
 70
     1
102
RTVSPropertyOp55
 70
     1
102
RTVSPropertyOp56
 70
     1
102
RTVSPropertyOp57
 70
     1
102
RTVSPropertyOp58
 70
     1
102
RTVSPropertyOp59
 70
     1
102
RTVSPropertyOp60
 70
     1
102
RTVSPropertyOp61
 70
     1
102
RTVSPropertyOp62
 70
     1
  0
XRECORD
  5
2591
102
{ACAD_REACTORS
330
2590
102
}
330
2590
100
AcDbXrecord
280
     1
102
RTVSPost2010Prop28
280
     0
102
RTVSPost2010PropOp28
 70
     1
102
RTVSPost2010Prop29
280
     1
102
RTVSPost2010PropOp29
 70
     1
102
RTVSPost2010Prop30
280
     1
102
RTVSPost2010PropOp30
 70
     1
102
RTVSPost2010Prop31
280
     0
102
RTVSPost2010PropOp31
 70
     1
102
RTVSPost2010Prop32
280
     0
102
RTVSPost2010PropOp32
 70
     1
102
RTVSPost2010Prop33
280
     0
102
RTVSPost2010PropOp33
 70
     1
102
RTVSPost2010Prop34
280
     0
102
RTVSPost2010PropOp34
 70
     1
102
RTVSPost2010Prop35
280
     0
102
RTVSPost2010PropOp35
 70
     1
102
RTVSPost2010Prop36
280
     0
102
RTVSPost2010PropOp36
 70
     1
102
RTVSPost2010Prop37
 90
       50
102
RTVSPost2010PropOp37
 70
     1
102
RTVSPost2010Prop38
140
0.0
102
RTVSPost2010PropOp38
 70
     1
102
RTVSPost2010Prop39
140
1.0
102
RTVSPost2010PropOp39
 70
     1
102
RTVSPost2010Prop40
 90
        0
102
RTVSPost2010PropOp40
 70
     1
102
RTVSPost2010Prop41ColorIndex
 90
       18
102
RTVSPost2010Prop41ColorRGB
 90
        0
102
RTVSPost2010PropOp41
 70
     1
102
RTVSPost2010Prop42
 90
       50
102
RTVSPost2010PropOp42
 70
     1
102
RTVSPost2010Prop43
 90
        3
102
RTVSPost2010PropOp43
 70
     1
102
RTVSPost2010Prop44ColorIndex
 90
        5
102
RTVSPost2010Prop44ColorRGB
 90
      255
102
RTVSPost2010PropOp44
 70
     1
102
RTVSPost2010Prop45
280
     0
102
RTVSPost2010PropOp45
 70
     1
102
RTVSPost2010Prop46
 90
       50
102
RTVSPost2010PropOp46
 70
     1
102
RTVSPost2010Prop47
 90
       50
102
RTVSPost2010PropOp47
 70
     1
102
RTVSPost2010Prop48
 90
       50
102
RTVSPost2010PropOp48
 70
     1
102
RTVSPost2010Prop49
280
     0
102
RTVSPost2010PropOp49
 70
     1
102
RTVSPost2010Prop50
 90
       50
102
RTVSPost2010PropOp50
 70
     1
102
RTVSPost2010Prop51ColorIndex
 90
      256
102
RTVSPost2010Prop51ColorRGB
 90
-16777216
102
RTVSPost2010PropOp51
 70
     0
102
RTVSPost2010Prop52
140
1.0
102
RTVSPost2010PropOp52
 70
     0
102
RTVSPost2010Prop53
 90
        2
102
RTVSPost2010PropOp53
 70
     1
102
RTVSPost2010Prop54
  1
strokes_ogs.tif
102
RTVSPost2010PropOp54
 70
     1
102
RTVSPost2010Prop55
280
     0
102
RTVSPost2010PropOp55
 70
     1
102
RTVSPost2010Prop56
140
1.0
102
RTVSPost2010PropOp56
 70
     1
102
RTVSPost2010Prop57
140
1.0
102
RTVSPost2010PropOp57
 70
     1
102
RTVSPropertyOp0
 70
     1
102
RTVSPropertyOp1
 70
     1
102
RTVSPropertyOp2
 70
     1
102
RTVSPropertyOp3
 70
     1
102
RTVSPropertyOp4
 70
     1
102
RTVSPropertyOp5
 70
     1
102
RTVSPropertyOp6
 70
     1
102
RTVSPropertyOp7
 70
     1
102
RTVSPropertyOp8
 70
     1
102
RTVSPropertyOp9
 70
     1
102
RTVSPropertyOp10
 70
     1
102
RTVSPropertyOp11
 70
     1
102
RTVSPropertyOp12
 70
     1
102
RTVSPropertyOp13
 70
     1
102
RTVSPropertyOp14
 70
     1
102
RTVSPropertyOp15
 70
     1
102
RTVSPropertyOp16
 70
     1
102
RTVSPropertyOp17
 70
     1
102
RTVSPropertyOp18
 70
     1
102
RTVSPropertyOp19
 70
     1
102
RTVSPropertyOp20
 70
     1
102
RTVSPropertyOp21
 70
     1
102
RTVSPropertyOp22
 70
     1
102
RTVSPropertyOp23
 70
     1
102
RTVSPropertyOp24
 70
     1
102
RTVSPropertyOp25
 70
     1
102
RTVSPropertyOp26
 70
     1
102
RTVSPropertyOp27
 70
     1
102
RTVSPropertyOp28
 70
     1
102
RTVSPropertyOp29
 70
     1
102
RTVSPropertyOp30
 70
     1
102
RTVSPropertyOp31
 70
     1
102
RTVSPropertyOp32
 70
     1
102
RTVSPropertyOp33
 70
     1
102
RTVSPropertyOp34
 70
     1
102
RTVSPropertyOp35
 70
     1
102
RTVSPropertyOp36
 70
     1
102
RTVSPropertyOp37
 70
     1
102
RTVSPropertyOp38
 70
     1
102
RTVSPropertyOp39
 70
     1
102
RTVSPropertyOp40
 70
     1
102
RTVSPropertyOp41
 70
     1
102
RTVSPropertyOp42
 70
     1
102
RTVSPropertyOp43
 70
     1
102
RTVSPropertyOp44
 70
     1
102
RTVSPropertyOp45
 70
     1
102
RTVSPropertyOp46
 70
     1
102
RTVSPropertyOp47
 70
     1
102
RTVSPropertyOp48
 70
     1
102
RTVSPropertyOp49
 70
     1
102
RTVSPropertyOp50
 70
     1
102
RTVSPropertyOp51
 70
     0
102
RTVSPropertyOp52
 70
     0
102
RTVSPropertyOp53
 70
     1
102
RTVSPropertyOp54
 70
     1
102
RTVSPropertyOp55
 70
     1
102
RTVSPropertyOp56
 70
     1
102
RTVSPropertyOp57
 70
     1
102
RTVSPropertyOp58
 70
     1
102
RTVSPropertyOp59
 70
     1
102
RTVSPropertyOp60
 70
     1
102
RTVSPropertyOp61
 70
     1
102
RTVSPropertyOp62
 70
     1
  0
XRECORD
  5
2593
102
{ACAD_REACTORS
330
2592
102
}
330
2592
100
AcDbXrecord
280
     1
102
RTVSPost2010Prop28
280
     0
102
RTVSPost2010PropOp28
 70
     1
102
RTVSPost2010Prop29
280
     1
102
RTVSPost2010PropOp29
 70
     1
102
RTVSPost2010Prop30
280
     1
102
RTVSPost2010PropOp30
 70
     1
102
RTVSPost2010Prop31
280
     0
102
RTVSPost2010PropOp31
 70
     1
102
RTVSPost2010Prop32
280
     0
102
RTVSPost2010PropOp32
 70
     1
102
RTVSPost2010Prop33
280
     0
102
RTVSPost2010PropOp33
 70
     1
102
RTVSPost2010Prop34
280
     0
102
RTVSPost2010PropOp34
 70
     1
102
RTVSPost2010Prop35
280
     0
102
RTVSPost2010PropOp35
 70
     1
102
RTVSPost2010Prop36
280
     0
102
RTVSPost2010PropOp36
 70
     1
102
RTVSPost2010Prop37
 90
       50
102
RTVSPost2010PropOp37
 70
     1
102
RTVSPost2010Prop38
140
0.0
102
RTVSPost2010PropOp38
 70
     1
102
RTVSPost2010Prop39
140
1.0
102
RTVSPost2010PropOp39
 70
     1
102
RTVSPost2010Prop40
 90
        0
102
RTVSPost2010PropOp40
 70
     1
102
RTVSPost2010Prop41ColorIndex
 90
       18
102
RTVSPost2010Prop41ColorRGB
 90
        0
102
RTVSPost2010PropOp41
 70
     1
102
RTVSPost2010Prop42
 90
       50
102
RTVSPost2010PropOp42
 70
     1
102
RTVSPost2010Prop43
 90
        3
102
RTVSPost2010PropOp43
 70
     1
102
RTVSPost2010Prop44ColorIndex
 90
        5
102
RTVSPost2010Prop44ColorRGB
 90
      255
102
RTVSPost2010PropOp44
 70
     1
102
RTVSPost2010Prop45
280
     0
102
RTVSPost2010PropOp45
 70
     1
102
RTVSPost2010Prop46
 90
       50
102
RTVSPost2010PropOp46
 70
     1
102
RTVSPost2010Prop47
 90
       50
102
RTVSPost2010PropOp47
 70
     1
102
RTVSPost2010Prop48
 90
       50
102
RTVSPost2010PropOp48
 70
     1
102
RTVSPost2010Prop49
280
     0
102
RTVSPost2010PropOp49
 70
     1
102
RTVSPost2010Prop50
 90
       50
102
RTVSPost2010PropOp50
 70
     1
102
RTVSPost2010Prop51ColorIndex
 90
      256
102
RTVSPost2010Prop51ColorRGB
 90
-16777216
102
RTVSPost2010PropOp51
 70
     0
102
RTVSPost2010Prop52
140
1.0
102
RTVSPost2010PropOp52
 70
     0
102
RTVSPost2010Prop53
 90
        2
102
RTVSPost2010PropOp53
 70
     1
102
RTVSPost2010Prop54
  1
strokes_ogs.tif
102
RTVSPost2010PropOp54
 70
     1
102
RTVSPost2010Prop55
280
     0
102
RTVSPost2010PropOp55
 70
     1
102
RTVSPost2010Prop56
140
1.0
102
RTVSPost2010PropOp56
 70
     1
102
RTVSPost2010Prop57
140
1.0
102
RTVSPost2010PropOp57
 70
     1
102
RTVSPropertyOp0
 70
     1
102
RTVSPropertyOp1
 70
     1
102
RTVSPropertyOp2
 70
     1
102
RTVSPropertyOp3
 70
     1
102
RTVSPropertyOp4
 70
     1
102
RTVSPropertyOp5
 70
     1
102
RTVSPropertyOp6
 70
     1
102
RTVSPropertyOp7
 70
     1
102
RTVSPropertyOp8
 70
     1
102
RTVSPropertyOp9
 70
     1
102
RTVSPropertyOp10
 70
     1
102
RTVSPropertyOp11
 70
     1
102
RTVSPropertyOp12
 70
     1
102
RTVSPropertyOp13
 70
     1
102
RTVSPropertyOp14
 70
     1
102
RTVSPropertyOp15
 70
     1
102
RTVSPropertyOp16
 70
     1
102
RTVSPropertyOp17
 70
     1
102
RTVSPropertyOp18
 70
     1
102
RTVSPropertyOp19
 70
     1
102
RTVSPropertyOp20
 70
     1
102
RTVSPropertyOp21
 70
     1
102
RTVSPropertyOp22
 70
     1
102
RTVSPropertyOp23
 70
     1
102
RTVSPropertyOp24
 70
     1
102
RTVSPropertyOp25
 70
     1
102
RTVSPropertyOp26
 70
     1
102
RTVSPropertyOp27
 70
     1
102
RTVSPropertyOp28
 70
     1
102
RTVSPropertyOp29
 70
     1
102
RTVSPropertyOp30
 70
     1
102
RTVSPropertyOp31
 70
     1
102
RTVSPropertyOp32
 70
     1
102
RTVSPropertyOp33
 70
     1
102
RTVSPropertyOp34
 70
     1
102
RTVSPropertyOp35
 70
     1
102
RTVSPropertyOp36
 70
     1
102
RTVSPropertyOp37
 70
     1
102
RTVSPropertyOp38
 70
     1
102
RTVSPropertyOp39
 70
     1
102
RTVSPropertyOp40
 70
     1
102
RTVSPropertyOp41
 70
     1
102
RTVSPropertyOp42
 70
     1
102
RTVSPropertyOp43
 70
     1
102
RTVSPropertyOp44
 70
     1
102
RTVSPropertyOp45
 70
     1
102
RTVSPropertyOp46
 70
     1
102
RTVSPropertyOp47
 70
     1
102
RTVSPropertyOp48
 70
     1
102
RTVSPropertyOp49
 70
     1
102
RTVSPropertyOp50
 70
     1
102
RTVSPropertyOp51
 70
     0
102
RTVSPropertyOp52
 70
     0
102
RTVSPropertyOp53
 70
     1
102
RTVSPropertyOp54
 70
     1
102
RTVSPropertyOp55
 70
     1
102
RTVSPropertyOp56
 70
     1
102
RTVSPropertyOp57
 70
     1
102
RTVSPropertyOp58
 70
     1
102
RTVSPropertyOp59
 70
     1
102
RTVSPropertyOp60
 70
     1
102
RTVSPropertyOp61
 70
     1
102
RTVSPropertyOp62
 70
     1
  0
XRECORD
  5
2595
102
{ACAD_REACTORS
330
2594
102
}
330
2594
100
AcDbXrecord
280
     1
102
RTVSPost2010Prop28
280
     0
102
RTVSPost2010PropOp28
 70
     1
102
RTVSPost2010Prop29
280
     1
102
RTVSPost2010PropOp29
 70
     1
102
RTVSPost2010Prop30
280
     1
102
RTVSPost2010PropOp30
 70
     1
102
RTVSPost2010Prop31
280
     0
102
RTVSPost2010PropOp31
 70
     1
102
RTVSPost2010Prop32
280
     0
102
RTVSPost2010PropOp32
 70
     1
102
RTVSPost2010Prop33
280
     0
102
RTVSPost2010PropOp33
 70
     1
102
RTVSPost2010Prop34
280
     0
102
RTVSPost2010PropOp34
 70
     1
102
RTVSPost2010Prop35
280
     0
102
RTVSPost2010PropOp35
 70
     1
102
RTVSPost2010Prop36
280
     0
102
RTVSPost2010PropOp36
 70
     1
102
RTVSPost2010Prop37
 90
       50
102
RTVSPost2010PropOp37
 70
     1
102
RTVSPost2010Prop38
140
0.0
102
RTVSPost2010PropOp38
 70
     1
102
RTVSPost2010Prop39
140
1.0
102
RTVSPost2010PropOp39
 70
     1
102
RTVSPost2010Prop40
 90
        0
102
RTVSPost2010PropOp40
 70
     1
102
RTVSPost2010Prop41ColorIndex
 90
       18
102
RTVSPost2010Prop41ColorRGB
 90
        0
102
RTVSPost2010PropOp41
 70
     1
102
RTVSPost2010Prop42
 90
       50
102
RTVSPost2010PropOp42
 70
     1
102
RTVSPost2010Prop43
 90
        3
102
RTVSPost2010PropOp43
 70
     1
102
RTVSPost2010Prop44ColorIndex
 90
        5
102
RTVSPost2010Prop44ColorRGB
 90
      255
102
RTVSPost2010PropOp44
 70
     1
102
RTVSPost2010Prop45
280
     0
102
RTVSPost2010PropOp45
 70
     1
102
RTVSPost2010Prop46
 90
       50
102
RTVSPost2010PropOp46
 70
     1
102
RTVSPost2010Prop47
 90
       50
102
RTVSPost2010PropOp47
 70
     1
102
RTVSPost2010Prop48
 90
       50
102
RTVSPost2010PropOp48
 70
     1
102
RTVSPost2010Prop49
280
     0
102
RTVSPost2010PropOp49
 70
     1
102
RTVSPost2010Prop50
 90
       50
102
RTVSPost2010PropOp50
 70
     1
102
RTVSPost2010Prop51ColorIndex
 90
      256
102
RTVSPost2010Prop51ColorRGB
 90
-16777216
102
RTVSPost2010PropOp51
 70
     0
102
RTVSPost2010Prop52
140
1.0
102
RTVSPost2010PropOp52
 70
     0
102
RTVSPost2010Prop53
 90
        2
102
RTVSPost2010PropOp53
 70
     1
102
RTVSPost2010Prop54
  1
strokes_ogs.tif
102
RTVSPost2010PropOp54
 70
     1
102
RTVSPost2010Prop55
280
     0
102
RTVSPost2010PropOp55
 70
     1
102
RTVSPost2010Prop56
140
1.0
102
RTVSPost2010PropOp56
 70
     1
102
RTVSPost2010Prop57
140
1.0
102
RTVSPost2010PropOp57
 70
     1
102
RTVSPropertyOp0
 70
     1
102
RTVSPropertyOp1
 70
     1
102
RTVSPropertyOp2
 70
     1
102
RTVSPropertyOp3
 70
     1
102
RTVSPropertyOp4
 70
     1
102
RTVSPropertyOp5
 70
     1
102
RTVSPropertyOp6
 70
     1
102
RTVSPropertyOp7
 70
     1
102
RTVSPropertyOp8
 70
     1
102
RTVSPropertyOp9
 70
     1
102
RTVSPropertyOp10
 70
     1
102
RTVSPropertyOp11
 70
     1
102
RTVSPropertyOp12
 70
     1
102
RTVSPropertyOp13
 70
     1
102
RTVSPropertyOp14
 70
     1
102
RTVSPropertyOp15
 70
     1
102
RTVSPropertyOp16
 70
     1
102
RTVSPropertyOp17
 70
     1
102
RTVSPropertyOp18
 70
     1
102
RTVSPropertyOp19
 70
     1
102
RTVSPropertyOp20
 70
     1
102
RTVSPropertyOp21
 70
     1
102
RTVSPropertyOp22
 70
     1
102
RTVSPropertyOp23
 70
     1
102
RTVSPropertyOp24
 70
     1
102
RTVSPropertyOp25
 70
     1
102
RTVSPropertyOp26
 70
     1
102
RTVSPropertyOp27
 70
     1
102
RTVSPropertyOp28
 70
     1
102
RTVSPropertyOp29
 70
     1
102
RTVSPropertyOp30
 70
     1
102
RTVSPropertyOp31
 70
     1
102
RTVSPropertyOp32
 70
     1
102
RTVSPropertyOp33
 70
     1
102
RTVSPropertyOp34
 70
     1
102
RTVSPropertyOp35
 70
     1
102
RTVSPropertyOp36
 70
     1
102
RTVSPropertyOp37
 70
     1
102
RTVSPropertyOp38
 70
     1
102
RTVSPropertyOp39
 70
     1
102
RTVSPropertyOp40
 70
     1
102
RTVSPropertyOp41
 70
     1
102
RTVSPropertyOp42
 70
     1
102
RTVSPropertyOp43
 70
     1
102
RTVSPropertyOp44
 70
     1
102
RTVSPropertyOp45
 70
     1
102
RTVSPropertyOp46
 70
     1
102
RTVSPropertyOp47
 70
     1
102
RTVSPropertyOp48
 70
     1
102
RTVSPropertyOp49
 70
     1
102
RTVSPropertyOp50
 70
     1
102
RTVSPropertyOp51
 70
     0
102
RTVSPropertyOp52
 70
     0
102
RTVSPropertyOp53
 70
     1
102
RTVSPropertyOp54
 70
     1
102
RTVSPropertyOp55
 70
     1
102
RTVSPropertyOp56
 70
     1
102
RTVSPropertyOp57
 70
     1
102
RTVSPropertyOp58
 70
     1
102
RTVSPropertyOp59
 70
     1
102
RTVSPropertyOp60
 70
     1
102
RTVSPropertyOp61
 70
     1
102
RTVSPropertyOp62
 70
     1
  0
XRECORD
  5
259D
102
{ACAD_REACTORS
330
259C
102
}
330
259C
100
AcDbXrecord
280
     1
102
RTVSPost2010Prop28
280
     0
102
RTVSPost2010PropOp28
 70
     1
102
RTVSPost2010Prop29
280
     1
102
RTVSPost2010PropOp29
 70
     1
102
RTVSPost2010Prop30
280
     1
102
RTVSPost2010PropOp30
 70
     1
102
RTVSPost2010Prop31
280
     0
102
RTVSPost2010PropOp31
 70
     1
102
RTVSPost2010Prop32
280
     0
102
RTVSPost2010PropOp32
 70
     1
102
RTVSPost2010Prop33
280
     0
102
RTVSPost2010PropOp33
 70
     1
102
RTVSPost2010Prop34
280
     0
102
RTVSPost2010PropOp34
 70
     1
102
RTVSPost2010Prop35
280
     0
102
RTVSPost2010PropOp35
 70
     1
102
RTVSPost2010Prop36
280
     0
102
RTVSPost2010PropOp36
 70
     1
102
RTVSPost2010Prop37
 90
       50
102
RTVSPost2010PropOp37
 70
     1
102
RTVSPost2010Prop38
140
0.0
102
RTVSPost2010PropOp38
 70
     1
102
RTVSPost2010Prop39
140
1.0
102
RTVSPost2010PropOp39
 70
     1
102
RTVSPost2010Prop40
 90
        0
102
RTVSPost2010PropOp40
 70
     1
102
RTVSPost2010Prop41ColorIndex
 90
       18
102
RTVSPost2010Prop41ColorRGB
 90
        0
102
RTVSPost2010PropOp41
 70
     1
102
RTVSPost2010Prop42
 90
       50
102
RTVSPost2010PropOp42
 70
     1
102
RTVSPost2010Prop43
 90
        3
102
RTVSPost2010PropOp43
 70
     1
102
RTVSPost2010Prop44ColorIndex
 90
        5
102
RTVSPost2010Prop44ColorRGB
 90
      255
102
RTVSPost2010PropOp44
 70
     1
102
RTVSPost2010Prop45
280
     0
102
RTVSPost2010PropOp45
 70
     1
102
RTVSPost2010Prop46
 90
       50
102
RTVSPost2010PropOp46
 70
     1
102
RTVSPost2010Prop47
 90
       50
102
RTVSPost2010PropOp47
 70
     1
102
RTVSPost2010Prop48
 90
       50
102
RTVSPost2010PropOp48
 70
     1
102
RTVSPost2010Prop49
280
     0
102
RTVSPost2010PropOp49
 70
     1
102
RTVSPost2010Prop50
 90
       50
102
RTVSPost2010PropOp50
 70
     1
102
RTVSPost2010Prop51ColorIndex
 90
      256
102
RTVSPost2010Prop51ColorRGB
 90
-16777216
102
RTVSPost2010PropOp51
 70
     0
102
RTVSPost2010Prop52
140
1.0
102
RTVSPost2010PropOp52
 70
     0
102
RTVSPost2010Prop53
 90
        2
102
RTVSPost2010PropOp53
 70
     1
102
RTVSPost2010Prop54
  1
strokes_ogs.tif
102
RTVSPost2010PropOp54
 70
     1
102
RTVSPost2010Prop55
280
     0
102
RTVSPost2010PropOp55
 70
     1
102
RTVSPost2010Prop56
140
1.0
102
RTVSPost2010PropOp56
 70
     1
102
RTVSPost2010Prop57
140
1.0
102
RTVSPost2010PropOp57
 70
     1
102
RTVSPropertyOp0
 70
     1
102
RTVSPropertyOp1
 70
     1
102
RTVSPropertyOp2
 70
     1
102
RTVSPropertyOp3
 70
     1
102
RTVSPropertyOp4
 70
     1
102
RTVSPropertyOp5
 70
     1
102
RTVSPropertyOp6
 70
     1
102
RTVSPropertyOp7
 70
     1
102
RTVSPropertyOp8
 70
     1
102
RTVSPropertyOp9
 70
     1
102
RTVSPropertyOp10
 70
     1
102
RTVSPropertyOp11
 70
     1
102
RTVSPropertyOp12
 70
     1
102
RTVSPropertyOp13
 70
     1
102
RTVSPropertyOp14
 70
     1
102
RTVSPropertyOp15
 70
     1
102
RTVSPropertyOp16
 70
     1
102
RTVSPropertyOp17
 70
     1
102
RTVSPropertyOp18
 70
     1
102
RTVSPropertyOp19
 70
     1
102
RTVSPropertyOp20
 70
     1
102
RTVSPropertyOp21
 70
     1
102
RTVSPropertyOp22
 70
     1
102
RTVSPropertyOp23
 70
     1
102
RTVSPropertyOp24
 70
     1
102
RTVSPropertyOp25
 70
     1
102
RTVSPropertyOp26
 70
     1
102
RTVSPropertyOp27
 70
     1
102
RTVSPropertyOp28
 70
     1
102
RTVSPropertyOp29
 70
     1
102
RTVSPropertyOp30
 70
     1
102
RTVSPropertyOp31
 70
     1
102
RTVSPropertyOp32
 70
     1
102
RTVSPropertyOp33
 70
     1
102
RTVSPropertyOp34
 70
     1
102
RTVSPropertyOp35
 70
     1
102
RTVSPropertyOp36
 70
     1
102
RTVSPropertyOp37
 70
     1
102
RTVSPropertyOp38
 70
     1
102
RTVSPropertyOp39
 70
     1
102
RTVSPropertyOp40
 70
     1
102
RTVSPropertyOp41
 70
     1
102
RTVSPropertyOp42
 70
     1
102
RTVSPropertyOp43
 70
     1
102
RTVSPropertyOp44
 70
     1
102
RTVSPropertyOp45
 70
     1
102
RTVSPropertyOp46
 70
     1
102
RTVSPropertyOp47
 70
     1
102
RTVSPropertyOp48
 70
     1
102
RTVSPropertyOp49
 70
     1
102
RTVSPropertyOp50
 70
     1
102
RTVSPropertyOp51
 70
     0
102
RTVSPropertyOp52
 70
     0
102
RTVSPropertyOp53
 70
     1
102
RTVSPropertyOp54
 70
     1
102
RTVSPropertyOp55
 70
     1
102
RTVSPropertyOp56
 70
     1
102
RTVSPropertyOp57
 70
     1
102
RTVSPropertyOp58
 70
     1
102
RTVSPropertyOp59
 70
     1
102
RTVSPropertyOp60
 70
     1
102
RTVSPropertyOp61
 70
     1
102
RTVSPropertyOp62
 70
     1
  0
XRECORD
  5
25B9
102
{ACAD_REACTORS
330
25B8
102
}
330
25B8
100
AcDbXrecord
280
     1
102
RTVSPost2010Prop28
280
     0
102
RTVSPost2010PropOp28
 70
     1
102
RTVSPost2010Prop29
280
     1
102
RTVSPost2010PropOp29
 70
     1
102
RTVSPost2010Prop30
280
     1
102
RTVSPost2010PropOp30
 70
     1
102
RTVSPost2010Prop31
280
     0
102
RTVSPost2010PropOp31
 70
     1
102
RTVSPost2010Prop32
280
     0
102
RTVSPost2010PropOp32
 70
     1
102
RTVSPost2010Prop33
280
     0
102
RTVSPost2010PropOp33
 70
     1
102
RTVSPost2010Prop34
280
     0
102
RTVSPost2010PropOp34
 70
     1
102
RTVSPost2010Prop35
280
     0
102
RTVSPost2010PropOp35
 70
     1
102
RTVSPost2010Prop36
280
     0
102
RTVSPost2010PropOp36
 70
     1
102
RTVSPost2010Prop37
 90
       50
102
RTVSPost2010PropOp37
 70
     0
102
RTVSPost2010Prop38
140
0.0
102
RTVSPost2010PropOp38
 70
     0
102
RTVSPost2010Prop39
140
1.0
102
RTVSPost2010PropOp39
 70
     0
102
RTVSPost2010Prop40
 90
        0
102
RTVSPost2010PropOp40
 70
     0
102
RTVSPost2010Prop41ColorIndex
 90
       18
102
RTVSPost2010Prop41ColorRGB
 90
        0
102
RTVSPost2010PropOp41
 70
     0
102
RTVSPost2010Prop42
 90
       50
102
RTVSPost2010PropOp42
 70
     0
102
RTVSPost2010Prop43
 90
        3
102
RTVSPost2010PropOp43
 70
     0
102
RTVSPost2010Prop44ColorIndex
 90
        5
102
RTVSPost2010Prop44ColorRGB
 90
      255
102
RTVSPost2010PropOp44
 70
     0
102
RTVSPost2010Prop45
280
     0
102
RTVSPost2010PropOp45
 70
     1
102
RTVSPost2010Prop46
 90
       50
102
RTVSPost2010PropOp46
 70
     0
102
RTVSPost2010Prop47
 90
       50
102
RTVSPost2010PropOp47
 70
     0
102
RTVSPost2010Prop48
 90
       50
102
RTVSPost2010PropOp48
 70
     0
102
RTVSPost2010Prop49
280
     0
102
RTVSPost2010PropOp49
 70
     1
102
RTVSPost2010Prop50
 90
       50
102
RTVSPost2010PropOp50
 70
     0
102
RTVSPost2010Prop51ColorIndex
 90
      256
102
RTVSPost2010Prop51ColorRGB
 90
-16777216
102
RTVSPost2010PropOp51
 70
     0
102
RTVSPost2010Prop52
140
1.0
102
RTVSPost2010PropOp52
 70
     0
102
RTVSPost2010Prop53
 90
        2
102
RTVSPost2010PropOp53
 70
     0
102
RTVSPost2010Prop54
  1
strokes_ogs.tif
102
RTVSPost2010PropOp54
 70
     0
102
RTVSPost2010Prop55
280
     0
102
RTVSPost2010PropOp55
 70
     1
102
RTVSPost2010Prop56
140
1.0
102
RTVSPost2010PropOp56
 70
     0
102
RTVSPost2010Prop57
140
1.0
102
RTVSPost2010PropOp57
 70
     0
102
RTVSPropertyOp0
 70
     0
102
RTVSPropertyOp1
 70
     0
102
RTVSPropertyOp2
 70
     0
102
RTVSPropertyOp3
 70
     0
102
RTVSPropertyOp4
 70
     0
102
RTVSPropertyOp5
 70
     0
102
RTVSPropertyOp6
 70
     0
102
RTVSPropertyOp7
 70
     0
102
RTVSPropertyOp8
 70
     0
102
RTVSPropertyOp9
 70
     0
102
RTVSPropertyOp10
 70
     0
102
RTVSPropertyOp11
 70
     0
102
RTVSPropertyOp12
 70
     0
102
RTVSPropertyOp13
 70
     0
102
RTVSPropertyOp14
 70
     2
102
RTVSPropertyOp15
 70
     0
102
RTVSPropertyOp16
 70
     0
102
RTVSPropertyOp17
 70
     0
102
RTVSPropertyOp18
 70
     0
102
RTVSPropertyOp19
 70
     0
102
RTVSPropertyOp20
 70
     0
102
RTVSPropertyOp21
 70
     0
102
RTVSPropertyOp22
 70
     0
102
RTVSPropertyOp23
 70
     0
102
RTVSPropertyOp24
 70
     0
102
RTVSPropertyOp25
 70
     0
102
RTVSPropertyOp26
 70
     0
102
RTVSPropertyOp27
 70
     0
102
RTVSPropertyOp28
 70
     1
102
RTVSPropertyOp29
 70
     1
102
RTVSPropertyOp30
 70
     1
102
RTVSPropertyOp31
 70
     1
102
RTVSPropertyOp32
 70
     1
102
RTVSPropertyOp33
 70
     1
102
RTVSPropertyOp34
 70
     1
102
RTVSPropertyOp35
 70
     1
102
RTVSPropertyOp36
 70
     1
102
RTVSPropertyOp37
 70
     0
102
RTVSPropertyOp38
 70
     0
102
RTVSPropertyOp39
 70
     0
102
RTVSPropertyOp40
 70
     0
102
RTVSPropertyOp41
 70
     0
102
RTVSPropertyOp42
 70
     0
102
RTVSPropertyOp43
 70
     0
102
RTVSPropertyOp44
 70
     0
102
RTVSPropertyOp45
 70
     1
102
RTVSPropertyOp46
 70
     0
102
RTVSPropertyOp47
 70
     0
102
RTVSPropertyOp48
 70
     0
102
RTVSPropertyOp49
 70
     1
102
RTVSPropertyOp50
 70
     0
102
RTVSPropertyOp51
 70
     0
102
RTVSPropertyOp52
 70
     0
102
RTVSPropertyOp53
 70
     0
102
RTVSPropertyOp54
 70
     0
102
RTVSPropertyOp55
 70
     1
102
RTVSPropertyOp56
 70
     0
102
RTVSPropertyOp57
 70
     0
102
RTVSPropertyOp58
 70
     0
102
RTVSPropertyOp59
 70
     0
102
RTVSPropertyOp60
 70
     0
102
RTVSPropertyOp61
 70
     0
102
RTVSPropertyOp62
 70
     0
  0
XRECORD
  5
25A9
102
{ACAD_REACTORS
330
25A8
102
}
330
25A8
100
AcDbXrecord
280
     1
102
RTVSPost2010Prop28
280
     0
102
RTVSPost2010PropOp28
 70
     1
102
RTVSPost2010Prop29
280
     1
102
RTVSPost2010PropOp29
 70
     1
102
RTVSPost2010Prop30
280
     1
102
RTVSPost2010PropOp30
 70
     1
102
RTVSPost2010Prop31
280
     0
102
RTVSPost2010PropOp31
 70
     1
102
RTVSPost2010Prop32
280
     0
102
RTVSPost2010PropOp32
 70
     1
102
RTVSPost2010Prop33
280
     0
102
RTVSPost2010PropOp33
 70
     1
102
RTVSPost2010Prop34
280
     0
102
RTVSPost2010PropOp34
 70
     1
102
RTVSPost2010Prop35
280
     0
102
RTVSPost2010PropOp35
 70
     1
102
RTVSPost2010Prop36
280
     0
102
RTVSPost2010PropOp36
 70
     1
102
RTVSPost2010Prop37
 90
       50
102
RTVSPost2010PropOp37
 70
     1
102
RTVSPost2010Prop38
140
0.0
102
RTVSPost2010PropOp38
 70
     1
102
RTVSPost2010Prop39
140
1.0
102
RTVSPost2010PropOp39
 70
     1
102
RTVSPost2010Prop40
 90
        0
102
RTVSPost2010PropOp40
 70
     1
102
RTVSPost2010Prop41ColorIndex
 90
       18
102
RTVSPost2010Prop41ColorRGB
 90
        0
102
RTVSPost2010PropOp41
 70
     1
102
RTVSPost2010Prop42
 90
       50
102
RTVSPost2010PropOp42
 70
     1
102
RTVSPost2010Prop43
 90
        3
102
RTVSPost2010PropOp43
 70
     1
102
RTVSPost2010Prop44ColorIndex
 90
        5
102
RTVSPost2010Prop44ColorRGB
 90
      255
102
RTVSPost2010PropOp44
 70
     1
102
RTVSPost2010Prop45
280
     0
102
RTVSPost2010PropOp45
 70
     1
102
RTVSPost2010Prop46
 90
       50
102
RTVSPost2010PropOp46
 70
     1
102
RTVSPost2010Prop47
 90
       50
102
RTVSPost2010PropOp47
 70
     1
102
RTVSPost2010Prop48
 90
       50
102
RTVSPost2010PropOp48
 70
     1
102
RTVSPost2010Prop49
280
     0
102
RTVSPost2010PropOp49
 70
     1
102
RTVSPost2010Prop50
 90
       50
102
RTVSPost2010PropOp50
 70
     1
102
RTVSPost2010Prop51ColorIndex
 90
      256
102
RTVSPost2010Prop51ColorRGB
 90
-16777216
102
RTVSPost2010PropOp51
 70
     0
102
RTVSPost2010Prop52
140
1.0
102
RTVSPost2010PropOp52
 70
     0
102
RTVSPost2010Prop53
 90
        2
102
RTVSPost2010PropOp53
 70
     1
102
RTVSPost2010Prop54
  1
strokes_ogs.tif
102
RTVSPost2010PropOp54
 70
     1
102
RTVSPost2010Prop55
280
     0
102
RTVSPost2010PropOp55
 70
     1
102
RTVSPost2010Prop56
140
1.0
102
RTVSPost2010PropOp56
 70
     1
102
RTVSPost2010Prop57
140
1.0
102
RTVSPost2010PropOp57
 70
     1
102
RTVSPropertyOp0
 70
     1
102
RTVSPropertyOp1
 70
     1
102
RTVSPropertyOp2
 70
     1
102
RTVSPropertyOp3
 70
     1
102
RTVSPropertyOp4
 70
     1
102
RTVSPropertyOp5
 70
     1
102
RTVSPropertyOp6
 70
     1
102
RTVSPropertyOp7
 70
     1
102
RTVSPropertyOp8
 70
     1
102
RTVSPropertyOp9
 70
     1
102
RTVSPropertyOp10
 70
     1
102
RTVSPropertyOp11
 70
     1
102
RTVSPropertyOp12
 70
     1
102
RTVSPropertyOp13
 70
     1
102
RTVSPropertyOp14
 70
     1
102
RTVSPropertyOp15
 70
     1
102
RTVSPropertyOp16
 70
     1
102
RTVSPropertyOp17
 70
     1
102
RTVSPropertyOp18
 70
     1
102
RTVSPropertyOp19
 70
     1
102
RTVSPropertyOp20
 70
     1
102
RTVSPropertyOp21
 70
     1
102
RTVSPropertyOp22
 70
     1
102
RTVSPropertyOp23
 70
     1
102
RTVSPropertyOp24
 70
     1
102
RTVSPropertyOp25
 70
     1
102
RTVSPropertyOp26
 70
     1
102
RTVSPropertyOp27
 70
     1
102
RTVSPropertyOp28
 70
     1
102
RTVSPropertyOp29
 70
     1
102
RTVSPropertyOp30
 70
     1
102
RTVSPropertyOp31
 70
     1
102
RTVSPropertyOp32
 70
     1
102
RTVSPropertyOp33
 70
     1
102
RTVSPropertyOp34
 70
     1
102
RTVSPropertyOp35
 70
     1
102
RTVSPropertyOp36
 70
     1
102
RTVSPropertyOp37
 70
     1
102
RTVSPropertyOp38
 70
     1
102
RTVSPropertyOp39
 70
     1
102
RTVSPropertyOp40
 70
     1
102
RTVSPropertyOp41
 70
     1
102
RTVSPropertyOp42
 70
     1
102
RTVSPropertyOp43
 70
     1
102
RTVSPropertyOp44
 70
     1
102
RTVSPropertyOp45
 70
     1
102
RTVSPropertyOp46
 70
     1
102
RTVSPropertyOp47
 70
     1
102
RTVSPropertyOp48
 70
     1
102
RTVSPropertyOp49
 70
     1
102
RTVSPropertyOp50
 70
     1
102
RTVSPropertyOp51
 70
     0
102
RTVSPropertyOp52
 70
     0
102
RTVSPropertyOp53
 70
     1
102
RTVSPropertyOp54
 70
     1
102
RTVSPropertyOp55
 70
     1
102
RTVSPropertyOp56
 70
     1
102
RTVSPropertyOp57
 70
     1
102
RTVSPropertyOp58
 70
     1
102
RTVSPropertyOp59
 70
     1
102
RTVSPropertyOp60
 70
     1
102
RTVSPropertyOp61
 70
     1
102
RTVSPropertyOp62
 70
     1
  0
XRECORD
  5
25BB
102
{ACAD_REACTORS
330
25BA
102
}
330
25BA
100
AcDbXrecord
280
     1
102
RTVSPost2010Prop28
280
     0
102
RTVSPost2010PropOp28
 70
     1
102
RTVSPost2010Prop29
280
     1
102
RTVSPost2010PropOp29
 70
     1
102
RTVSPost2010Prop30
280
     1
102
RTVSPost2010PropOp30
 70
     1
102
RTVSPost2010Prop31
280
     0
102
RTVSPost2010PropOp31
 70
     1
102
RTVSPost2010Prop32
280
     0
102
RTVSPost2010PropOp32
 70
     1
102
RTVSPost2010Prop33
280
     0
102
RTVSPost2010PropOp33
 70
     1
102
RTVSPost2010Prop34
280
     0
102
RTVSPost2010PropOp34
 70
     1
102
RTVSPost2010Prop35
280
     0
102
RTVSPost2010PropOp35
 70
     1
102
RTVSPost2010Prop36
280
     0
102
RTVSPost2010PropOp36
 70
     1
102
RTVSPost2010Prop37
 90
       50
102
RTVSPost2010PropOp37
 70
     0
102
RTVSPost2010Prop38
140
0.0
102
RTVSPost2010PropOp38
 70
     0
102
RTVSPost2010Prop39
140
1.0
102
RTVSPost2010PropOp39
 70
     0
102
RTVSPost2010Prop40
 90
        0
102
RTVSPost2010PropOp40
 70
     0
102
RTVSPost2010Prop41ColorIndex
 90
       18
102
RTVSPost2010Prop41ColorRGB
 90
        0
102
RTVSPost2010PropOp41
 70
     0
102
RTVSPost2010Prop42
 90
       50
102
RTVSPost2010PropOp42
 70
     0
102
RTVSPost2010Prop43
 90
        3
102
RTVSPost2010PropOp43
 70
     0
102
RTVSPost2010Prop44ColorIndex
 90
        5
102
RTVSPost2010Prop44ColorRGB
 90
      255
102
RTVSPost2010PropOp44
 70
     0
102
RTVSPost2010Prop45
280
     0
102
RTVSPost2010PropOp45
 70
     1
102
RTVSPost2010Prop46
 90
       50
102
RTVSPost2010PropOp46
 70
     0
102
RTVSPost2010Prop47
 90
       50
102
RTVSPost2010PropOp47
 70
     0
102
RTVSPost2010Prop48
 90
       50
102
RTVSPost2010PropOp48
 70
     0
102
RTVSPost2010Prop49
280
     0
102
RTVSPost2010PropOp49
 70
     1
102
RTVSPost2010Prop50
 90
       50
102
RTVSPost2010PropOp50
 70
     0
102
RTVSPost2010Prop51ColorIndex
 90
      256
102
RTVSPost2010Prop51ColorRGB
 90
-16777216
102
RTVSPost2010PropOp51
 70
     0
102
RTVSPost2010Prop52
140
1.0
102
RTVSPost2010PropOp52
 70
     0
102
RTVSPost2010Prop53
 90
        2
102
RTVSPost2010PropOp53
 70
     0
102
RTVSPost2010Prop54
  1
strokes_ogs.tif
102
RTVSPost2010PropOp54
 70
     0
102
RTVSPost2010Prop55
280
     0
102
RTVSPost2010PropOp55
 70
     1
102
RTVSPost2010Prop56
140
1.0
102
RTVSPost2010PropOp56
 70
     0
102
RTVSPost2010Prop57
140
1.0
102
RTVSPost2010PropOp57
 70
     0
102
RTVSPropertyOp0
 70
     0
102
RTVSPropertyOp1
 70
     0
102
RTVSPropertyOp2
 70
     0
102
RTVSPropertyOp3
 70
     0
102
RTVSPropertyOp4
 70
     0
102
RTVSPropertyOp5
 70
     0
102
RTVSPropertyOp6
 70
     0
102
RTVSPropertyOp7
 70
     0
102
RTVSPropertyOp8
 70
     0
102
RTVSPropertyOp9
 70
     0
102
RTVSPropertyOp10
 70
     0
102
RTVSPropertyOp11
 70
     0
102
RTVSPropertyOp12
 70
     0
102
RTVSPropertyOp13
 70
     0
102
RTVSPropertyOp14
 70
     2
102
RTVSPropertyOp15
 70
     0
102
RTVSPropertyOp16
 70
     0
102
RTVSPropertyOp17
 70
     0
102
RTVSPropertyOp18
 70
     0
102
RTVSPropertyOp19
 70
     0
102
RTVSPropertyOp20
 70
     0
102
RTVSPropertyOp21
 70
     0
102
RTVSPropertyOp22
 70
     0
102
RTVSPropertyOp23
 70
     0
102
RTVSPropertyOp24
 70
     0
102
RTVSPropertyOp25
 70
     0
102
RTVSPropertyOp26
 70
     0
102
RTVSPropertyOp27
 70
     0
102
RTVSPropertyOp28
 70
     1
102
RTVSPropertyOp29
 70
     1
102
RTVSPropertyOp30
 70
     1
102
RTVSPropertyOp31
 70
     1
102
RTVSPropertyOp32
 70
     1
102
RTVSPropertyOp33
 70
     1
102
RTVSPropertyOp34
 70
     1
102
RTVSPropertyOp35
 70
     1
102
RTVSPropertyOp36
 70
     1
102
RTVSPropertyOp37
 70
     0
102
RTVSPropertyOp38
 70
     0
102
RTVSPropertyOp39
 70
     0
102
RTVSPropertyOp40
 70
     0
102
RTVSPropertyOp41
 70
     0
102
RTVSPropertyOp42
 70
     0
102
RTVSPropertyOp43
 70
     0
102
RTVSPropertyOp44
 70
     0
102
RTVSPropertyOp45
 70
     1
102
RTVSPropertyOp46
 70
     0
102
RTVSPropertyOp47
 70
     0
102
RTVSPropertyOp48
 70
     0
102
RTVSPropertyOp49
 70
     1
102
RTVSPropertyOp50
 70
     0
102
RTVSPropertyOp51
 70
     0
102
RTVSPropertyOp52
 70
     0
102
RTVSPropertyOp53
 70
     0
102
RTVSPropertyOp54
 70
     0
102
RTVSPropertyOp55
 70
     1
102
RTVSPropertyOp56
 70
     0
102
RTVSPropertyOp57
 70
     0
102
RTVSPropertyOp58
 70
     0
102
RTVSPropertyOp59
 70
     0
102
RTVSPropertyOp60
 70
     0
102
RTVSPropertyOp61
 70
     0
102
RTVSPropertyOp62
 70
     0
  0
XRECORD
  5
25A1
102
{ACAD_REACTORS
330
25A0
102
}
330
25A0
100
AcDbXrecord
280
     1
102
RTVSPost2010Prop28
280
     0
102
RTVSPost2010PropOp28
 70
     1
102
RTVSPost2010Prop29
280
     1
102
RTVSPost2010PropOp29
 70
     1
102
RTVSPost2010Prop30
280
     1
102
RTVSPost2010PropOp30
 70
     1
102
RTVSPost2010Prop31
280
     0
102
RTVSPost2010PropOp31
 70
     1
102
RTVSPost2010Prop32
280
     0
102
RTVSPost2010PropOp32
 70
     1
102
RTVSPost2010Prop33
280
     0
102
RTVSPost2010PropOp33
 70
     1
102
RTVSPost2010Prop34
280
     0
102
RTVSPost2010PropOp34
 70
     1
102
RTVSPost2010Prop35
280
     0
102
RTVSPost2010PropOp35
 70
     1
102
RTVSPost2010Prop36
280
     0
102
RTVSPost2010PropOp36
 70
     1
102
RTVSPost2010Prop37
 90
       50
102
RTVSPost2010PropOp37
 70
     1
102
RTVSPost2010Prop38
140
0.0
102
RTVSPost2010PropOp38
 70
     1
102
RTVSPost2010Prop39
140
1.0
102
RTVSPost2010PropOp39
 70
     1
102
RTVSPost2010Prop40
 90
        0
102
RTVSPost2010PropOp40
 70
     1
102
RTVSPost2010Prop41ColorIndex
 90
       18
102
RTVSPost2010Prop41ColorRGB
 90
        0
102
RTVSPost2010PropOp41
 70
     1
102
RTVSPost2010Prop42
 90
       50
102
RTVSPost2010PropOp42
 70
     1
102
RTVSPost2010Prop43
 90
        3
102
RTVSPost2010PropOp43
 70
     1
102
RTVSPost2010Prop44ColorIndex
 90
        5
102
RTVSPost2010Prop44ColorRGB
 90
      255
102
RTVSPost2010PropOp44
 70
     1
102
RTVSPost2010Prop45
280
     0
102
RTVSPost2010PropOp45
 70
     1
102
RTVSPost2010Prop46
 90
       50
102
RTVSPost2010PropOp46
 70
     1
102
RTVSPost2010Prop47
 90
       50
102
RTVSPost2010PropOp47
 70
     1
102
RTVSPost2010Prop48
 90
       50
102
RTVSPost2010PropOp48
 70
     1
102
RTVSPost2010Prop49
280
     0
102
RTVSPost2010PropOp49
 70
     1
102
RTVSPost2010Prop50
 90
       50
102
RTVSPost2010PropOp50
 70
     1
102
RTVSPost2010Prop51ColorIndex
 90
      256
102
RTVSPost2010Prop51ColorRGB
 90
-16777216
102
RTVSPost2010PropOp51
 70
     0
102
RTVSPost2010Prop52
140
1.0
102
RTVSPost2010PropOp52
 70
     0
102
RTVSPost2010Prop53
 90
        2
102
RTVSPost2010PropOp53
 70
     1
102
RTVSPost2010Prop54
  1
strokes_ogs.tif
102
RTVSPost2010PropOp54
 70
     1
102
RTVSPost2010Prop55
280
     0
102
RTVSPost2010PropOp55
 70
     1
102
RTVSPost2010Prop56
140
1.0
102
RTVSPost2010PropOp56
 70
     1
102
RTVSPost2010Prop57
140
1.0
102
RTVSPost2010PropOp57
 70
     1
102
RTVSPropertyOp0
 70
     1
102
RTVSPropertyOp1
 70
     1
102
RTVSPropertyOp2
 70
     1
102
RTVSPropertyOp3
 70
     1
102
RTVSPropertyOp4
 70
     1
102
RTVSPropertyOp5
 70
     1
102
RTVSPropertyOp6
 70
     1
102
RTVSPropertyOp7
 70
     1
102
RTVSPropertyOp8
 70
     1
102
RTVSPropertyOp9
 70
     1
102
RTVSPropertyOp10
 70
     1
102
RTVSPropertyOp11
 70
     1
102
RTVSPropertyOp12
 70
     1
102
RTVSPropertyOp13
 70
     1
102
RTVSPropertyOp14
 70
     1
102
RTVSPropertyOp15
 70
     1
102
RTVSPropertyOp16
 70
     1
102
RTVSPropertyOp17
 70
     1
102
RTVSPropertyOp18
 70
     1
102
RTVSPropertyOp19
 70
     1
102
RTVSPropertyOp20
 70
     1
102
RTVSPropertyOp21
 70
     1
102
RTVSPropertyOp22
 70
     1
102
RTVSPropertyOp23
 70
     1
102
RTVSPropertyOp24
 70
     1
102
RTVSPropertyOp25
 70
     1
102
RTVSPropertyOp26
 70
     1
102
RTVSPropertyOp27
 70
     1
102
RTVSPropertyOp28
 70
     1
102
RTVSPropertyOp29
 70
     1
102
RTVSPropertyOp30
 70
     1
102
RTVSPropertyOp31
 70
     1
102
RTVSPropertyOp32
 70
     1
102
RTVSPropertyOp33
 70
     1
102
RTVSPropertyOp34
 70
     1
102
RTVSPropertyOp35
 70
     1
102
RTVSPropertyOp36
 70
     1
102
RTVSPropertyOp37
 70
     1
102
RTVSPropertyOp38
 70
     1
102
RTVSPropertyOp39
 70
     1
102
RTVSPropertyOp40
 70
     1
102
RTVSPropertyOp41
 70
     1
102
RTVSPropertyOp42
 70
     1
102
RTVSPropertyOp43
 70
     1
102
RTVSPropertyOp44
 70
     1
102
RTVSPropertyOp45
 70
     1
102
RTVSPropertyOp46
 70
     1
102
RTVSPropertyOp47
 70
     1
102
RTVSPropertyOp48
 70
     1
102
RTVSPropertyOp49
 70
     1
102
RTVSPropertyOp50
 70
     1
102
RTVSPropertyOp51
 70
     0
102
RTVSPropertyOp52
 70
     0
102
RTVSPropertyOp53
 70
     1
102
RTVSPropertyOp54
 70
     1
102
RTVSPropertyOp55
 70
     1
102
RTVSPropertyOp56
 70
     1
102
RTVSPropertyOp57
 70
     1
102
RTVSPropertyOp58
 70
     1
102
RTVSPropertyOp59
 70
     1
102
RTVSPropertyOp60
 70
     1
102
RTVSPropertyOp61
 70
     1
102
RTVSPropertyOp62
 70
     1
  0
XRECORD
  5
25B7
102
{ACAD_REACTORS
330
25B6
102
}
330
25B6
100
AcDbXrecord
280
     1
102
RTVSPost2010Prop28
280
     0
102
RTVSPost2010PropOp28
 70
     1
102
RTVSPost2010Prop29
280
     1
102
RTVSPost2010PropOp29
 70
     1
102
RTVSPost2010Prop30
280
     1
102
RTVSPost2010PropOp30
 70
     1
102
RTVSPost2010Prop31
280
     0
102
RTVSPost2010PropOp31
 70
     1
102
RTVSPost2010Prop32
280
     0
102
RTVSPost2010PropOp32
 70
     1
102
RTVSPost2010Prop33
280
     0
102
RTVSPost2010PropOp33
 70
     1
102
RTVSPost2010Prop34
280
     0
102
RTVSPost2010PropOp34
 70
     1
102
RTVSPost2010Prop35
280
     0
102
RTVSPost2010PropOp35
 70
     1
102
RTVSPost2010Prop36
280
     0
102
RTVSPost2010PropOp36
 70
     1
102
RTVSPost2010Prop37
 90
       50
102
RTVSPost2010PropOp37
 70
     1
102
RTVSPost2010Prop38
140
0.0
102
RTVSPost2010PropOp38
 70
     1
102
RTVSPost2010Prop39
140
1.0
102
RTVSPost2010PropOp39
 70
     1
102
RTVSPost2010Prop40
 90
        0
102
RTVSPost2010PropOp40
 70
     1
102
RTVSPost2010Prop41ColorIndex
 90
       18
102
RTVSPost2010Prop41ColorRGB
 90
        0
102
RTVSPost2010PropOp41
 70
     1
102
RTVSPost2010Prop42
 90
       50
102
RTVSPost2010PropOp42
 70
     1
102
RTVSPost2010Prop43
 90
        3
102
RTVSPost2010PropOp43
 70
     1
102
RTVSPost2010Prop44ColorIndex
 90
        5
102
RTVSPost2010Prop44ColorRGB
 90
      255
102
RTVSPost2010PropOp44
 70
     1
102
RTVSPost2010Prop45
280
     0
102
RTVSPost2010PropOp45
 70
     1
102
RTVSPost2010Prop46
 90
       50
102
RTVSPost2010PropOp46
 70
     1
102
RTVSPost2010Prop47
 90
       50
102
RTVSPost2010PropOp47
 70
     1
102
RTVSPost2010Prop48
 90
       50
102
RTVSPost2010PropOp48
 70
     1
102
RTVSPost2010Prop49
280
     0
102
RTVSPost2010PropOp49
 70
     1
102
RTVSPost2010Prop50
 90
       50
102
RTVSPost2010PropOp50
 70
     1
102
RTVSPost2010Prop51ColorIndex
 90
      256
102
RTVSPost2010Prop51ColorRGB
 90
-16777216
102
RTVSPost2010PropOp51
 70
     0
102
RTVSPost2010Prop52
140
1.0
102
RTVSPost2010PropOp52
 70
     0
102
RTVSPost2010Prop53
 90
        2
102
RTVSPost2010PropOp53
 70
     1
102
RTVSPost2010Prop54
  1
strokes_ogs.tif
102
RTVSPost2010PropOp54
 70
     1
102
RTVSPost2010Prop55
280
     0
102
RTVSPost2010PropOp55
 70
     1
102
RTVSPost2010Prop56
140
1.0
102
RTVSPost2010PropOp56
 70
     1
102
RTVSPost2010Prop57
140
1.0
102
RTVSPost2010PropOp57
 70
     1
102
RTVSPropertyOp0
 70
     1
102
RTVSPropertyOp1
 70
     1
102
RTVSPropertyOp2
 70
     1
102
RTVSPropertyOp3
 70
     1
102
RTVSPropertyOp4
 70
     1
102
RTVSPropertyOp5
 70
     1
102
RTVSPropertyOp6
 70
     1
102
RTVSPropertyOp7
 70
     1
102
RTVSPropertyOp8
 70
     1
102
RTVSPropertyOp9
 70
     1
102
RTVSPropertyOp10
 70
     1
102
RTVSPropertyOp11
 70
     1
102
RTVSPropertyOp12
 70
     1
102
RTVSPropertyOp13
 70
     1
102
RTVSPropertyOp14
 70
     1
102
RTVSPropertyOp15
 70
     1
102
RTVSPropertyOp16
 70
     1
102
RTVSPropertyOp17
 70
     1
102
RTVSPropertyOp18
 70
     1
102
RTVSPropertyOp19
 70
     1
102
RTVSPropertyOp20
 70
     1
102
RTVSPropertyOp21
 70
     1
102
RTVSPropertyOp22
 70
     1
102
RTVSPropertyOp23
 70
     1
102
RTVSPropertyOp24
 70
     1
102
RTVSPropertyOp25
 70
     1
102
RTVSPropertyOp26
 70
     1
102
RTVSPropertyOp27
 70
     1
102
RTVSPropertyOp28
 70
     1
102
RTVSPropertyOp29
 70
     1
102
RTVSPropertyOp30
 70
     1
102
RTVSPropertyOp31
 70
     1
102
RTVSPropertyOp32
 70
     1
102
RTVSPropertyOp33
 70
     1
102
RTVSPropertyOp34
 70
     1
102
RTVSPropertyOp35
 70
     1
102
RTVSPropertyOp36
 70
     1
102
RTVSPropertyOp37
 70
     1
102
RTVSPropertyOp38
 70
     1
102
RTVSPropertyOp39
 70
     1
102
RTVSPropertyOp40
 70
     1
102
RTVSPropertyOp41
 70
     1
102
RTVSPropertyOp42
 70
     1
102
RTVSPropertyOp43
 70
     1
102
RTVSPropertyOp44
 70
     1
102
RTVSPropertyOp45
 70
     1
102
RTVSPropertyOp46
 70
     1
102
RTVSPropertyOp47
 70
     1
102
RTVSPropertyOp48
 70
     1
102
RTVSPropertyOp49
 70
     1
102
RTVSPropertyOp50
 70
     1
102
RTVSPropertyOp51
 70
     0
102
RTVSPropertyOp52
 70
     0
102
RTVSPropertyOp53
 70
     1
102
RTVSPropertyOp54
 70
     1
102
RTVSPropertyOp55
 70
     1
102
RTVSPropertyOp56
 70
     1
102
RTVSPropertyOp57
 70
     1
102
RTVSPropertyOp58
 70
     1
102
RTVSPropertyOp59
 70
     1
102
RTVSPropertyOp60
 70
     1
102
RTVSPropertyOp61
 70
     1
102
RTVSPropertyOp62
 70
     1
  0
XRECORD
  5
25B5
102
{ACAD_REACTORS
330
25B4
102
}
330
25B4
100
AcDbXrecord
280
     1
102
RTVSPost2010Prop28
280
     0
102
RTVSPost2010PropOp28
 70
     1
102
RTVSPost2010Prop29
280
     1
102
RTVSPost2010PropOp29
 70
     1
102
RTVSPost2010Prop30
280
     1
102
RTVSPost2010PropOp30
 70
     1
102
RTVSPost2010Prop31
280
     0
102
RTVSPost2010PropOp31
 70
     1
102
RTVSPost2010Prop32
280
     0
102
RTVSPost2010PropOp32
 70
     1
102
RTVSPost2010Prop33
280
     0
102
RTVSPost2010PropOp33
 70
     1
102
RTVSPost2010Prop34
280
     0
102
RTVSPost2010PropOp34
 70
     1
102
RTVSPost2010Prop35
280
     0
102
RTVSPost2010PropOp35
 70
     1
102
RTVSPost2010Prop36
280
     0
102
RTVSPost2010PropOp36
 70
     1
102
RTVSPost2010Prop37
 90
       50
102
RTVSPost2010PropOp37
 70
     1
102
RTVSPost2010Prop38
140
0.0
102
RTVSPost2010PropOp38
 70
     1
102
RTVSPost2010Prop39
140
1.0
102
RTVSPost2010PropOp39
 70
     1
102
RTVSPost2010Prop40
 90
        0
102
RTVSPost2010PropOp40
 70
     1
102
RTVSPost2010Prop41ColorIndex
 90
       18
102
RTVSPost2010Prop41ColorRGB
 90
        0
102
RTVSPost2010PropOp41
 70
     1
102
RTVSPost2010Prop42
 90
       50
102
RTVSPost2010PropOp42
 70
     1
102
RTVSPost2010Prop43
 90
        3
102
RTVSPost2010PropOp43
 70
     1
102
RTVSPost2010Prop44ColorIndex
 90
        5
102
RTVSPost2010Prop44ColorRGB
 90
      255
102
RTVSPost2010PropOp44
 70
     1
102
RTVSPost2010Prop45
280
     0
102
RTVSPost2010PropOp45
 70
     1
102
RTVSPost2010Prop46
 90
       50
102
RTVSPost2010PropOp46
 70
     1
102
RTVSPost2010Prop47
 90
       50
102
RTVSPost2010PropOp47
 70
     1
102
RTVSPost2010Prop48
 90
       50
102
RTVSPost2010PropOp48
 70
     1
102
RTVSPost2010Prop49
280
     0
102
RTVSPost2010PropOp49
 70
     1
102
RTVSPost2010Prop50
 90
       50
102
RTVSPost2010PropOp50
 70
     1
102
RTVSPost2010Prop51ColorIndex
 90
      256
102
RTVSPost2010Prop51ColorRGB
 90
-16777216
102
RTVSPost2010PropOp51
 70
     0
102
RTVSPost2010Prop52
140
1.0
102
RTVSPost2010PropOp52
 70
     0
102
RTVSPost2010Prop53
 90
        2
102
RTVSPost2010PropOp53
 70
     1
102
RTVSPost2010Prop54
  1
strokes_ogs.tif
102
RTVSPost2010PropOp54
 70
     1
102
RTVSPost2010Prop55
280
     0
102
RTVSPost2010PropOp55
 70
     1
102
RTVSPost2010Prop56
140
1.0
102
RTVSPost2010PropOp56
 70
     1
102
RTVSPost2010Prop57
140
1.0
102
RTVSPost2010PropOp57
 70
     1
102
RTVSPropertyOp0
 70
     1
102
RTVSPropertyOp1
 70
     1
102
RTVSPropertyOp2
 70
     1
102
RTVSPropertyOp3
 70
     1
102
RTVSPropertyOp4
 70
     1
102
RTVSPropertyOp5
 70
     1
102
RTVSPropertyOp6
 70
     1
102
RTVSPropertyOp7
 70
     1
102
RTVSPropertyOp8
 70
     1
102
RTVSPropertyOp9
 70
     1
102
RTVSPropertyOp10
 70
     1
102
RTVSPropertyOp11
 70
     1
102
RTVSPropertyOp12
 70
     1
102
RTVSPropertyOp13
 70
     1
102
RTVSPropertyOp14
 70
     1
102
RTVSPropertyOp15
 70
     1
102
RTVSPropertyOp16
 70
     1
102
RTVSPropertyOp17
 70
     1
102
RTVSPropertyOp18
 70
     1
102
RTVSPropertyOp19
 70
     1
102
RTVSPropertyOp20
 70
     1
102
RTVSPropertyOp21
 70
     1
102
RTVSPropertyOp22
 70
     1
102
RTVSPropertyOp23
 70
     1
102
RTVSPropertyOp24
 70
     1
102
RTVSPropertyOp25
 70
     1
102
RTVSPropertyOp26
 70
     1
102
RTVSPropertyOp27
 70
     1
102
RTVSPropertyOp28
 70
     1
102
RTVSPropertyOp29
 70
     1
102
RTVSPropertyOp30
 70
     1
102
RTVSPropertyOp31
 70
     1
102
RTVSPropertyOp32
 70
     1
102
RTVSPropertyOp33
 70
     1
102
RTVSPropertyOp34
 70
     1
102
RTVSPropertyOp35
 70
     1
102
RTVSPropertyOp36
 70
     1
102
RTVSPropertyOp37
 70
     1
102
RTVSPropertyOp38
 70
     1
102
RTVSPropertyOp39
 70
     1
102
RTVSPropertyOp40
 70
     1
102
RTVSPropertyOp41
 70
     1
102
RTVSPropertyOp42
 70
     1
102
RTVSPropertyOp43
 70
     1
102
RTVSPropertyOp44
 70
     1
102
RTVSPropertyOp45
 70
     1
102
RTVSPropertyOp46
 70
     1
102
RTVSPropertyOp47
 70
     1
102
RTVSPropertyOp48
 70
     1
102
RTVSPropertyOp49
 70
     1
102
RTVSPropertyOp50
 70
     1
102
RTVSPropertyOp51
 70
     0
102
RTVSPropertyOp52
 70
     0
102
RTVSPropertyOp53
 70
     1
102
RTVSPropertyOp54
 70
     1
102
RTVSPropertyOp55
 70
     1
102
RTVSPropertyOp56
 70
     1
102
RTVSPropertyOp57
 70
     1
102
RTVSPropertyOp58
 70
     1
102
RTVSPropertyOp59
 70
     1
102
RTVSPropertyOp60
 70
     1
102
RTVSPropertyOp61
 70
     1
102
RTVSPropertyOp62
 70
     1
  0
XRECORD
  5
25AF
102
{ACAD_REACTORS
330
25AE
102
}
330
25AE
100
AcDbXrecord
280
     1
102
RTVSPost2010Prop28
280
     0
102
RTVSPost2010PropOp28
 70
     1
102
RTVSPost2010Prop29
280
     1
102
RTVSPost2010PropOp29
 70
     1
102
RTVSPost2010Prop30
280
     1
102
RTVSPost2010PropOp30
 70
     1
102
RTVSPost2010Prop31
280
     0
102
RTVSPost2010PropOp31
 70
     1
102
RTVSPost2010Prop32
280
     0
102
RTVSPost2010PropOp32
 70
     1
102
RTVSPost2010Prop33
280
     0
102
RTVSPost2010PropOp33
 70
     1
102
RTVSPost2010Prop34
280
     0
102
RTVSPost2010PropOp34
 70
     1
102
RTVSPost2010Prop35
280
     0
102
RTVSPost2010PropOp35
 70
     1
102
RTVSPost2010Prop36
280
     0
102
RTVSPost2010PropOp36
 70
     1
102
RTVSPost2010Prop37
 90
       50
102
RTVSPost2010PropOp37
 70
     1
102
RTVSPost2010Prop38
140
0.0
102
RTVSPost2010PropOp38
 70
     1
102
RTVSPost2010Prop39
140
1.0
102
RTVSPost2010PropOp39
 70
     1
102
RTVSPost2010Prop40
 90
        0
102
RTVSPost2010PropOp40
 70
     1
102
RTVSPost2010Prop41ColorIndex
 90
       18
102
RTVSPost2010Prop41ColorRGB
 90
        0
102
RTVSPost2010PropOp41
 70
     1
102
RTVSPost2010Prop42
 90
       50
102
RTVSPost2010PropOp42
 70
     1
102
RTVSPost2010Prop43
 90
        3
102
RTVSPost2010PropOp43
 70
     1
102
RTVSPost2010Prop44ColorIndex
 90
        5
102
RTVSPost2010Prop44ColorRGB
 90
      255
102
RTVSPost2010PropOp44
 70
     1
102
RTVSPost2010Prop45
280
     0
102
RTVSPost2010PropOp45
 70
     1
102
RTVSPost2010Prop46
 90
       50
102
RTVSPost2010PropOp46
 70
     1
102
RTVSPost2010Prop47
 90
       50
102
RTVSPost2010PropOp47
 70
     1
102
RTVSPost2010Prop48
 90
       50
102
RTVSPost2010PropOp48
 70
     1
102
RTVSPost2010Prop49
280
     0
102
RTVSPost2010PropOp49
 70
     1
102
RTVSPost2010Prop50
 90
       50
102
RTVSPost2010PropOp50
 70
     1
102
RTVSPost2010Prop51ColorIndex
 90
      256
102
RTVSPost2010Prop51ColorRGB
 90
-16777216
102
RTVSPost2010PropOp51
 70
     0
102
RTVSPost2010Prop52
140
1.0
102
RTVSPost2010PropOp52
 70
     0
102
RTVSPost2010Prop53
 90
        2
102
RTVSPost2010PropOp53
 70
     1
102
RTVSPost2010Prop54
  1
strokes_ogs.tif
102
RTVSPost2010PropOp54
 70
     1
102
RTVSPost2010Prop55
280
     0
102
RTVSPost2010PropOp55
 70
     1
102
RTVSPost2010Prop56
140
1.0
102
RTVSPost2010PropOp56
 70
     1
102
RTVSPost2010Prop57
140
1.0
102
RTVSPost2010PropOp57
 70
     1
102
RTVSPropertyOp0
 70
     1
102
RTVSPropertyOp1
 70
     1
102
RTVSPropertyOp2
 70
     1
102
RTVSPropertyOp3
 70
     1
102
RTVSPropertyOp4
 70
     1
102
RTVSPropertyOp5
 70
     1
102
RTVSPropertyOp6
 70
     1
102
RTVSPropertyOp7
 70
     1
102
RTVSPropertyOp8
 70
     1
102
RTVSPropertyOp9
 70
     1
102
RTVSPropertyOp10
 70
     1
102
RTVSPropertyOp11
 70
     1
102
RTVSPropertyOp12
 70
     1
102
RTVSPropertyOp13
 70
     1
102
RTVSPropertyOp14
 70
     1
102
RTVSPropertyOp15
 70
     1
102
RTVSPropertyOp16
 70
     1
102
RTVSPropertyOp17
 70
     1
102
RTVSPropertyOp18
 70
     1
102
RTVSPropertyOp19
 70
     1
102
RTVSPropertyOp20
 70
     1
102
RTVSPropertyOp21
 70
     1
102
RTVSPropertyOp22
 70
     1
102
RTVSPropertyOp23
 70
     1
102
RTVSPropertyOp24
 70
     1
102
RTVSPropertyOp25
 70
     1
102
RTVSPropertyOp26
 70
     1
102
RTVSPropertyOp27
 70
     1
102
RTVSPropertyOp28
 70
     1
102
RTVSPropertyOp29
 70
     1
102
RTVSPropertyOp30
 70
     1
102
RTVSPropertyOp31
 70
     1
102
RTVSPropertyOp32
 70
     1
102
RTVSPropertyOp33
 70
     1
102
RTVSPropertyOp34
 70
     1
102
RTVSPropertyOp35
 70
     1
102
RTVSPropertyOp36
 70
     1
102
RTVSPropertyOp37
 70
     1
102
RTVSPropertyOp38
 70
     1
102
RTVSPropertyOp39
 70
     1
102
RTVSPropertyOp40
 70
     1
102
RTVSPropertyOp41
 70
     1
102
RTVSPropertyOp42
 70
     1
102
RTVSPropertyOp43
 70
     1
102
RTVSPropertyOp44
 70
     1
102
RTVSPropertyOp45
 70
     1
102
RTVSPropertyOp46
 70
     1
102
RTVSPropertyOp47
 70
     1
102
RTVSPropertyOp48
 70
     1
102
RTVSPropertyOp49
 70
     1
102
RTVSPropertyOp50
 70
     1
102
RTVSPropertyOp51
 70
     0
102
RTVSPropertyOp52
 70
     0
102
RTVSPropertyOp53
 70
     1
102
RTVSPropertyOp54
 70
     1
102
RTVSPropertyOp55
 70
     1
102
RTVSPropertyOp56
 70
     1
102
RTVSPropertyOp57
 70
     1
102
RTVSPropertyOp58
 70
     1
102
RTVSPropertyOp59
 70
     1
102
RTVSPropertyOp60
 70
     1
102
RTVSPropertyOp61
 70
     1
102
RTVSPropertyOp62
 70
     1
  0
XRECORD
  5
25B1
102
{ACAD_REACTORS
330
25B0
102
}
330
25B0
100
AcDbXrecord
280
     1
102
RTVSPost2010Prop28
280
     0
102
RTVSPost2010PropOp28
 70
     1
102
RTVSPost2010Prop29
280
     1
102
RTVSPost2010PropOp29
 70
     1
102
RTVSPost2010Prop30
280
     1
102
RTVSPost2010PropOp30
 70
     1
102
RTVSPost2010Prop31
280
     0
102
RTVSPost2010PropOp31
 70
     1
102
RTVSPost2010Prop32
280
     0
102
RTVSPost2010PropOp32
 70
     1
102
RTVSPost2010Prop33
280
     0
102
RTVSPost2010PropOp33
 70
     1
102
RTVSPost2010Prop34
280
     0
102
RTVSPost2010PropOp34
 70
     1
102
RTVSPost2010Prop35
280
     0
102
RTVSPost2010PropOp35
 70
     1
102
RTVSPost2010Prop36
280
     0
102
RTVSPost2010PropOp36
 70
     1
102
RTVSPost2010Prop37
 90
       50
102
RTVSPost2010PropOp37
 70
     1
102
RTVSPost2010Prop38
140
0.0
102
RTVSPost2010PropOp38
 70
     1
102
RTVSPost2010Prop39
140
1.0
102
RTVSPost2010PropOp39
 70
     1
102
RTVSPost2010Prop40
 90
        0
102
RTVSPost2010PropOp40
 70
     1
102
RTVSPost2010Prop41ColorIndex
 90
       18
102
RTVSPost2010Prop41ColorRGB
 90
        0
102
RTVSPost2010PropOp41
 70
     1
102
RTVSPost2010Prop42
 90
       50
102
RTVSPost2010PropOp42
 70
     1
102
RTVSPost2010Prop43
 90
        3
102
RTVSPost2010PropOp43
 70
     1
102
RTVSPost2010Prop44ColorIndex
 90
        5
102
RTVSPost2010Prop44ColorRGB
 90
      255
102
RTVSPost2010PropOp44
 70
     1
102
RTVSPost2010Prop45
280
     0
102
RTVSPost2010PropOp45
 70
     1
102
RTVSPost2010Prop46
 90
       50
102
RTVSPost2010PropOp46
 70
     1
102
RTVSPost2010Prop47
 90
       50
102
RTVSPost2010PropOp47
 70
     1
102
RTVSPost2010Prop48
 90
       50
102
RTVSPost2010PropOp48
 70
     1
102
RTVSPost2010Prop49
280
     0
102
RTVSPost2010PropOp49
 70
     1
102
RTVSPost2010Prop50
 90
       50
102
RTVSPost2010PropOp50
 70
     1
102
RTVSPost2010Prop51ColorIndex
 90
      256
102
RTVSPost2010Prop51ColorRGB
 90
-16777216
102
RTVSPost2010PropOp51
 70
     0
102
RTVSPost2010Prop52
140
1.0
102
RTVSPost2010PropOp52
 70
     0
102
RTVSPost2010Prop53
 90
        2
102
RTVSPost2010PropOp53
 70
     1
102
RTVSPost2010Prop54
  1
strokes_ogs.tif
102
RTVSPost2010PropOp54
 70
     1
102
RTVSPost2010Prop55
280
     0
102
RTVSPost2010PropOp55
 70
     1
102
RTVSPost2010Prop56
140
1.0
102
RTVSPost2010PropOp56
 70
     1
102
RTVSPost2010Prop57
140
1.0
102
RTVSPost2010PropOp57
 70
     1
102
RTVSPropertyOp0
 70
     1
102
RTVSPropertyOp1
 70
     1
102
RTVSPropertyOp2
 70
     1
102
RTVSPropertyOp3
 70
     1
102
RTVSPropertyOp4
 70
     1
102
RTVSPropertyOp5
 70
     1
102
RTVSPropertyOp6
 70
     1
102
RTVSPropertyOp7
 70
     1
102
RTVSPropertyOp8
 70
     1
102
RTVSPropertyOp9
 70
     1
102
RTVSPropertyOp10
 70
     1
102
RTVSPropertyOp11
 70
     1
102
RTVSPropertyOp12
 70
     1
102
RTVSPropertyOp13
 70
     1
102
RTVSPropertyOp14
 70
     1
102
RTVSPropertyOp15
 70
     1
102
RTVSPropertyOp16
 70
     1
102
RTVSPropertyOp17
 70
     1
102
RTVSPropertyOp18
 70
     1
102
RTVSPropertyOp19
 70
     1
102
RTVSPropertyOp20
 70
     1
102
RTVSPropertyOp21
 70
     1
102
RTVSPropertyOp22
 70
     1
102
RTVSPropertyOp23
 70
     1
102
RTVSPropertyOp24
 70
     1
102
RTVSPropertyOp25
 70
     1
102
RTVSPropertyOp26
 70
     1
102
RTVSPropertyOp27
 70
     1
102
RTVSPropertyOp28
 70
     1
102
RTVSPropertyOp29
 70
     1
102
RTVSPropertyOp30
 70
     1
102
RTVSPropertyOp31
 70
     1
102
RTVSPropertyOp32
 70
     1
102
RTVSPropertyOp33
 70
     1
102
RTVSPropertyOp34
 70
     1
102
RTVSPropertyOp35
 70
     1
102
RTVSPropertyOp36
 70
     1
102
RTVSPropertyOp37
 70
     1
102
RTVSPropertyOp38
 70
     1
102
RTVSPropertyOp39
 70
     1
102
RTVSPropertyOp40
 70
     1
102
RTVSPropertyOp41
 70
     1
102
RTVSPropertyOp42
 70
     1
102
RTVSPropertyOp43
 70
     1
102
RTVSPropertyOp44
 70
     1
102
RTVSPropertyOp45
 70
     1
102
RTVSPropertyOp46
 70
     1
102
RTVSPropertyOp47
 70
     1
102
RTVSPropertyOp48
 70
     1
102
RTVSPropertyOp49
 70
     1
102
RTVSPropertyOp50
 70
     1
102
RTVSPropertyOp51
 70
     0
102
RTVSPropertyOp52
 70
     0
102
RTVSPropertyOp53
 70
     1
102
RTVSPropertyOp54
 70
     1
102
RTVSPropertyOp55
 70
     1
102
RTVSPropertyOp56
 70
     1
102
RTVSPropertyOp57
 70
     1
102
RTVSPropertyOp58
 70
     1
102
RTVSPropertyOp59
 70
     1
102
RTVSPropertyOp60
 70
     1
102
RTVSPropertyOp61
 70
     1
102
RTVSPropertyOp62
 70
     1
  0
XRECORD
  5
25A7
102
{ACAD_REACTORS
330
25A6
102
}
330
25A6
100
AcDbXrecord
280
     1
102
RTVSPost2010Prop28
280
     0
102
RTVSPost2010PropOp28
 70
     1
102
RTVSPost2010Prop29
280
     1
102
RTVSPost2010PropOp29
 70
     1
102
RTVSPost2010Prop30
280
     1
102
RTVSPost2010PropOp30
 70
     1
102
RTVSPost2010Prop31
280
     0
102
RTVSPost2010PropOp31
 70
     1
102
RTVSPost2010Prop32
280
     0
102
RTVSPost2010PropOp32
 70
     1
102
RTVSPost2010Prop33
280
     0
102
RTVSPost2010PropOp33
 70
     1
102
RTVSPost2010Prop34
280
     0
102
RTVSPost2010PropOp34
 70
     1
102
RTVSPost2010Prop35
280
     0
102
RTVSPost2010PropOp35
 70
     1
102
RTVSPost2010Prop36
280
     0
102
RTVSPost2010PropOp36
 70
     1
102
RTVSPost2010Prop37
 90
       50
102
RTVSPost2010PropOp37
 70
     1
102
RTVSPost2010Prop38
140
0.0
102
RTVSPost2010PropOp38
 70
     1
102
RTVSPost2010Prop39
140
1.0
102
RTVSPost2010PropOp39
 70
     1
102
RTVSPost2010Prop40
 90
        0
102
RTVSPost2010PropOp40
 70
     1
102
RTVSPost2010Prop41ColorIndex
 90
       18
102
RTVSPost2010Prop41ColorRGB
 90
        0
102
RTVSPost2010PropOp41
 70
     1
102
RTVSPost2010Prop42
 90
       50
102
RTVSPost2010PropOp42
 70
     1
102
RTVSPost2010Prop43
 90
        3
102
RTVSPost2010PropOp43
 70
     1
102
RTVSPost2010Prop44ColorIndex
 90
        5
102
RTVSPost2010Prop44ColorRGB
 90
      255
102
RTVSPost2010PropOp44
 70
     1
102
RTVSPost2010Prop45
280
     0
102
RTVSPost2010PropOp45
 70
     1
102
RTVSPost2010Prop46
 90
       50
102
RTVSPost2010PropOp46
 70
     1
102
RTVSPost2010Prop47
 90
       50
102
RTVSPost2010PropOp47
 70
     1
102
RTVSPost2010Prop48
 90
       50
102
RTVSPost2010PropOp48
 70
     1
102
RTVSPost2010Prop49
280
     0
102
RTVSPost2010PropOp49
 70
     1
102
RTVSPost2010Prop50
 90
       50
102
RTVSPost2010PropOp50
 70
     1
102
RTVSPost2010Prop51ColorIndex
 90
      256
102
RTVSPost2010Prop51ColorRGB
 90
-16777216
102
RTVSPost2010PropOp51
 70
     0
102
RTVSPost2010Prop52
140
1.0
102
RTVSPost2010PropOp52
 70
     0
102
RTVSPost2010Prop53
 90
        2
102
RTVSPost2010PropOp53
 70
     1
102
RTVSPost2010Prop54
  1
strokes_ogs.tif
102
RTVSPost2010PropOp54
 70
     1
102
RTVSPost2010Prop55
280
     0
102
RTVSPost2010PropOp55
 70
     1
102
RTVSPost2010Prop56
140
1.0
102
RTVSPost2010PropOp56
 70
     1
102
RTVSPost2010Prop57
140
1.0
102
RTVSPost2010PropOp57
 70
     1
102
RTVSPropertyOp0
 70
     1
102
RTVSPropertyOp1
 70
     1
102
RTVSPropertyOp2
 70
     1
102
RTVSPropertyOp3
 70
     1
102
RTVSPropertyOp4
 70
     1
102
RTVSPropertyOp5
 70
     1
102
RTVSPropertyOp6
 70
     1
102
RTVSPropertyOp7
 70
     1
102
RTVSPropertyOp8
 70
     1
102
RTVSPropertyOp9
 70
     1
102
RTVSPropertyOp10
 70
     1
102
RTVSPropertyOp11
 70
     1
102
RTVSPropertyOp12
 70
     1
102
RTVSPropertyOp13
 70
     1
102
RTVSPropertyOp14
 70
     1
102
RTVSPropertyOp15
 70
     1
102
RTVSPropertyOp16
 70
     1
102
RTVSPropertyOp17
 70
     1
102
RTVSPropertyOp18
 70
     1
102
RTVSPropertyOp19
 70
     1
102
RTVSPropertyOp20
 70
     1
102
RTVSPropertyOp21
 70
     1
102
RTVSPropertyOp22
 70
     1
102
RTVSPropertyOp23
 70
     1
102
RTVSPropertyOp24
 70
     1
102
RTVSPropertyOp25
 70
     1
102
RTVSPropertyOp26
 70
     1
102
RTVSPropertyOp27
 70
     1
102
RTVSPropertyOp28
 70
     1
102
RTVSPropertyOp29
 70
     1
102
RTVSPropertyOp30
 70
     1
102
RTVSPropertyOp31
 70
     1
102
RTVSPropertyOp32
 70
     1
102
RTVSPropertyOp33
 70
     1
102
RTVSPropertyOp34
 70
     1
102
RTVSPropertyOp35
 70
     1
102
RTVSPropertyOp36
 70
     1
102
RTVSPropertyOp37
 70
     1
102
RTVSPropertyOp38
 70
     1
102
RTVSPropertyOp39
 70
     1
102
RTVSPropertyOp40
 70
     1
102
RTVSPropertyOp41
 70
     1
102
RTVSPropertyOp42
 70
     1
102
RTVSPropertyOp43
 70
     1
102
RTVSPropertyOp44
 70
     1
102
RTVSPropertyOp45
 70
     1
102
RTVSPropertyOp46
 70
     1
102
RTVSPropertyOp47
 70
     1
102
RTVSPropertyOp48
 70
     1
102
RTVSPropertyOp49
 70
     1
102
RTVSPropertyOp50
 70
     1
102
RTVSPropertyOp51
 70
     0
102
RTVSPropertyOp52
 70
     0
102
RTVSPropertyOp53
 70
     1
102
RTVSPropertyOp54
 70
     1
102
RTVSPropertyOp55
 70
     1
102
RTVSPropertyOp56
 70
     1
102
RTVSPropertyOp57
 70
     1
102
RTVSPropertyOp58
 70
     1
102
RTVSPropertyOp59
 70
     1
102
RTVSPropertyOp60
 70
     1
102
RTVSPropertyOp61
 70
     1
102
RTVSPropertyOp62
 70
     1
  0
XRECORD
  5
259B
102
{ACAD_REACTORS
330
259A
102
}
330
259A
100
AcDbXrecord
280
     1
102
RTVSPost2010Prop28
280
     0
102
RTVSPost2010PropOp28
 70
     1
102
RTVSPost2010Prop29
280
     1
102
RTVSPost2010PropOp29
 70
     1
102
RTVSPost2010Prop30
280
     1
102
RTVSPost2010PropOp30
 70
     1
102
RTVSPost2010Prop31
280
     0
102
RTVSPost2010PropOp31
 70
     1
102
RTVSPost2010Prop32
280
     0
102
RTVSPost2010PropOp32
 70
     1
102
RTVSPost2010Prop33
280
     0
102
RTVSPost2010PropOp33
 70
     1
102
RTVSPost2010Prop34
280
     0
102
RTVSPost2010PropOp34
 70
     1
102
RTVSPost2010Prop35
280
     0
102
RTVSPost2010PropOp35
 70
     1
102
RTVSPost2010Prop36
280
     0
102
RTVSPost2010PropOp36
 70
     1
102
RTVSPost2010Prop37
 90
       50
102
RTVSPost2010PropOp37
 70
     1
102
RTVSPost2010Prop38
140
0.0
102
RTVSPost2010PropOp38
 70
     1
102
RTVSPost2010Prop39
140
1.0
102
RTVSPost2010PropOp39
 70
     1
102
RTVSPost2010Prop40
 90
        0
102
RTVSPost2010PropOp40
 70
     1
102
RTVSPost2010Prop41ColorIndex
 90
       18
102
RTVSPost2010Prop41ColorRGB
 90
        0
102
RTVSPost2010PropOp41
 70
     1
102
RTVSPost2010Prop42
 90
       50
102
RTVSPost2010PropOp42
 70
     1
102
RTVSPost2010Prop43
 90
        3
102
RTVSPost2010PropOp43
 70
     1
102
RTVSPost2010Prop44ColorIndex
 90
        5
102
RTVSPost2010Prop44ColorRGB
 90
      255
102
RTVSPost2010PropOp44
 70
     1
102
RTVSPost2010Prop45
280
     0
102
RTVSPost2010PropOp45
 70
     1
102
RTVSPost2010Prop46
 90
       50
102
RTVSPost2010PropOp46
 70
     1
102
RTVSPost2010Prop47
 90
       50
102
RTVSPost2010PropOp47
 70
     1
102
RTVSPost2010Prop48
 90
       50
102
RTVSPost2010PropOp48
 70
     1
102
RTVSPost2010Prop49
280
     0
102
RTVSPost2010PropOp49
 70
     1
102
RTVSPost2010Prop50
 90
       50
102
RTVSPost2010PropOp50
 70
     1
102
RTVSPost2010Prop51ColorIndex
 90
      256
102
RTVSPost2010Prop51ColorRGB
 90
-16777216
102
RTVSPost2010PropOp51
 70
     0
102
RTVSPost2010Prop52
140
1.0
102
RTVSPost2010PropOp52
 70
     0
102
RTVSPost2010Prop53
 90
        2
102
RTVSPost2010PropOp53
 70
     1
102
RTVSPost2010Prop54
  1
strokes_ogs.tif
102
RTVSPost2010PropOp54
 70
     1
102
RTVSPost2010Prop55
280
     0
102
RTVSPost2010PropOp55
 70
     1
102
RTVSPost2010Prop56
140
1.0
102
RTVSPost2010PropOp56
 70
     1
102
RTVSPost2010Prop57
140
1.0
102
RTVSPost2010PropOp57
 70
     1
102
RTVSPropertyOp0
 70
     1
102
RTVSPropertyOp1
 70
     1
102
RTVSPropertyOp2
 70
     1
102
RTVSPropertyOp3
 70
     1
102
RTVSPropertyOp4
 70
     1
102
RTVSPropertyOp5
 70
     1
102
RTVSPropertyOp6
 70
     1
102
RTVSPropertyOp7
 70
     1
102
RTVSPropertyOp8
 70
     1
102
RTVSPropertyOp9
 70
     1
102
RTVSPropertyOp10
 70
     1
102
RTVSPropertyOp11
 70
     1
102
RTVSPropertyOp12
 70
     1
102
RTVSPropertyOp13
 70
     1
102
RTVSPropertyOp14
 70
     1
102
RTVSPropertyOp15
 70
     1
102
RTVSPropertyOp16
 70
     1
102
RTVSPropertyOp17
 70
     1
102
RTVSPropertyOp18
 70
     1
102
RTVSPropertyOp19
 70
     1
102
RTVSPropertyOp20
 70
     1
102
RTVSPropertyOp21
 70
     1
102
RTVSPropertyOp22
 70
     1
102
RTVSPropertyOp23
 70
     1
102
RTVSPropertyOp24
 70
     1
102
RTVSPropertyOp25
 70
     1
102
RTVSPropertyOp26
 70
     1
102
RTVSPropertyOp27
 70
     1
102
RTVSPropertyOp28
 70
     1
102
RTVSPropertyOp29
 70
     1
102
RTVSPropertyOp30
 70
     1
102
RTVSPropertyOp31
 70
     1
102
RTVSPropertyOp32
 70
     1
102
RTVSPropertyOp33
 70
     1
102
RTVSPropertyOp34
 70
     1
102
RTVSPropertyOp35
 70
     1
102
RTVSPropertyOp36
 70
     1
102
RTVSPropertyOp37
 70
     1
102
RTVSPropertyOp38
 70
     1
102
RTVSPropertyOp39
 70
     1
102
RTVSPropertyOp40
 70
     1
102
RTVSPropertyOp41
 70
     1
102
RTVSPropertyOp42
 70
     1
102
RTVSPropertyOp43
 70
     1
102
RTVSPropertyOp44
 70
     1
102
RTVSPropertyOp45
 70
     1
102
RTVSPropertyOp46
 70
     1
102
RTVSPropertyOp47
 70
     1
102
RTVSPropertyOp48
 70
     1
102
RTVSPropertyOp49
 70
     1
102
RTVSPropertyOp50
 70
     1
102
RTVSPropertyOp51
 70
     0
102
RTVSPropertyOp52
 70
     0
102
RTVSPropertyOp53
 70
     1
102
RTVSPropertyOp54
 70
     1
102
RTVSPropertyOp55
 70
     1
102
RTVSPropertyOp56
 70
     1
102
RTVSPropertyOp57
 70
     1
102
RTVSPropertyOp58
 70
     1
102
RTVSPropertyOp59
 70
     1
102
RTVSPropertyOp60
 70
     1
102
RTVSPropertyOp61
 70
     1
102
RTVSPropertyOp62
 70
     1
  0
XRECORD
  5
25B3
102
{ACAD_REACTORS
330
25B2
102
}
330
25B2
100
AcDbXrecord
280
     1
102
RTVSPost2010Prop28
280
     0
102
RTVSPost2010PropOp28
 70
     1
102
RTVSPost2010Prop29
280
     1
102
RTVSPost2010PropOp29
 70
     1
102
RTVSPost2010Prop30
280
     1
102
RTVSPost2010PropOp30
 70
     1
102
RTVSPost2010Prop31
280
     0
102
RTVSPost2010PropOp31
 70
     1
102
RTVSPost2010Prop32
280
     0
102
RTVSPost2010PropOp32
 70
     1
102
RTVSPost2010Prop33
280
     0
102
RTVSPost2010PropOp33
 70
     1
102
RTVSPost2010Prop34
280
     0
102
RTVSPost2010PropOp34
 70
     1
102
RTVSPost2010Prop35
280
     0
102
RTVSPost2010PropOp35
 70
     1
102
RTVSPost2010Prop36
280
     0
102
RTVSPost2010PropOp36
 70
     1
102
RTVSPost2010Prop37
 90
       50
102
RTVSPost2010PropOp37
 70
     1
102
RTVSPost2010Prop38
140
0.0
102
RTVSPost2010PropOp38
 70
     1
102
RTVSPost2010Prop39
140
1.0
102
RTVSPost2010PropOp39
 70
     1
102
RTVSPost2010Prop40
 90
        0
102
RTVSPost2010PropOp40
 70
     1
102
RTVSPost2010Prop41ColorIndex
 90
       18
102
RTVSPost2010Prop41ColorRGB
 90
        0
102
RTVSPost2010PropOp41
 70
     1
102
RTVSPost2010Prop42
 90
       50
102
RTVSPost2010PropOp42
 70
     1
102
RTVSPost2010Prop43
 90
        3
102
RTVSPost2010PropOp43
 70
     1
102
RTVSPost2010Prop44ColorIndex
 90
        5
102
RTVSPost2010Prop44ColorRGB
 90
      255
102
RTVSPost2010PropOp44
 70
     1
102
RTVSPost2010Prop45
280
     0
102
RTVSPost2010PropOp45
 70
     1
102
RTVSPost2010Prop46
 90
       50
102
RTVSPost2010PropOp46
 70
     1
102
RTVSPost2010Prop47
 90
       50
102
RTVSPost2010PropOp47
 70
     1
102
RTVSPost2010Prop48
 90
       50
102
RTVSPost2010PropOp48
 70
     1
102
RTVSPost2010Prop49
280
     0
102
RTVSPost2010PropOp49
 70
     1
102
RTVSPost2010Prop50
 90
       50
102
RTVSPost2010PropOp50
 70
     1
102
RTVSPost2010Prop51ColorIndex
 90
      256
102
RTVSPost2010Prop51ColorRGB
 90
-16777216
102
RTVSPost2010PropOp51
 70
     0
102
RTVSPost2010Prop52
140
1.0
102
RTVSPost2010PropOp52
 70
     0
102
RTVSPost2010Prop53
 90
        2
102
RTVSPost2010PropOp53
 70
     1
102
RTVSPost2010Prop54
  1
strokes_ogs.tif
102
RTVSPost2010PropOp54
 70
     1
102
RTVSPost2010Prop55
280
     0
102
RTVSPost2010PropOp55
 70
     1
102
RTVSPost2010Prop56
140
1.0
102
RTVSPost2010PropOp56
 70
     1
102
RTVSPost2010Prop57
140
1.0
102
RTVSPost2010PropOp57
 70
     1
102
RTVSPropertyOp0
 70
     1
102
RTVSPropertyOp1
 70
     1
102
RTVSPropertyOp2
 70
     1
102
RTVSPropertyOp3
 70
     1
102
RTVSPropertyOp4
 70
     1
102
RTVSPropertyOp5
 70
     1
102
RTVSPropertyOp6
 70
     1
102
RTVSPropertyOp7
 70
     1
102
RTVSPropertyOp8
 70
     1
102
RTVSPropertyOp9
 70
     1
102
RTVSPropertyOp10
 70
     1
102
RTVSPropertyOp11
 70
     1
102
RTVSPropertyOp12
 70
     1
102
RTVSPropertyOp13
 70
     1
102
RTVSPropertyOp14
 70
     1
102
RTVSPropertyOp15
 70
     1
102
RTVSPropertyOp16
 70
     1
102
RTVSPropertyOp17
 70
     1
102
RTVSPropertyOp18
 70
     1
102
RTVSPropertyOp19
 70
     1
102
RTVSPropertyOp20
 70
     1
102
RTVSPropertyOp21
 70
     1
102
RTVSPropertyOp22
 70
     1
102
RTVSPropertyOp23
 70
     1
102
RTVSPropertyOp24
 70
     1
102
RTVSPropertyOp25
 70
     1
102
RTVSPropertyOp26
 70
     1
102
RTVSPropertyOp27
 70
     1
102
RTVSPropertyOp28
 70
     1
102
RTVSPropertyOp29
 70
     1
102
RTVSPropertyOp30
 70
     1
102
RTVSPropertyOp31
 70
     1
102
RTVSPropertyOp32
 70
     1
102
RTVSPropertyOp33
 70
     1
102
RTVSPropertyOp34
 70
     1
102
RTVSPropertyOp35
 70
     1
102
RTVSPropertyOp36
 70
     1
102
RTVSPropertyOp37
 70
     1
102
RTVSPropertyOp38
 70
     1
102
RTVSPropertyOp39
 70
     1
102
RTVSPropertyOp40
 70
     1
102
RTVSPropertyOp41
 70
     1
102
RTVSPropertyOp42
 70
     1
102
RTVSPropertyOp43
 70
     1
102
RTVSPropertyOp44
 70
     1
102
RTVSPropertyOp45
 70
     1
102
RTVSPropertyOp46
 70
     1
102
RTVSPropertyOp47
 70
     1
102
RTVSPropertyOp48
 70
     1
102
RTVSPropertyOp49
 70
     1
102
RTVSPropertyOp50
 70
     1
102
RTVSPropertyOp51
 70
     0
102
RTVSPropertyOp52
 70
     0
102
RTVSPropertyOp53
 70
     1
102
RTVSPropertyOp54
 70
     1
102
RTVSPropertyOp55
 70
     1
102
RTVSPropertyOp56
 70
     1
102
RTVSPropertyOp57
 70
     1
102
RTVSPropertyOp58
 70
     1
102
RTVSPropertyOp59
 70
     1
102
RTVSPropertyOp60
 70
     1
102
RTVSPropertyOp61
 70
     1
102
RTVSPropertyOp62
 70
     1
  0
ENDSEC
  0
EOF
